  0
SECTION
  2
HEADER
  9
$ACADVER
  1
AC1024
  9
$ACADMAINTVER
 70
     6
  9
$DWGCODEPAGE
  3
ANSI_932
  9
$INSBASE
 10
0.0
 20
0.0
 30
0.0
  9
$EXTMIN
 10
-6300.0
 20
-4455.0
 30
0.0
  9
$EXTMAX
 10
6300.0
 20
4455.0
 30
0.0
  9
$LIMMIN
 10
-6300.0
 20
-4455.0
  9
$LIMMAX
 10
6300.0
 20
4455.0
  9
$ORTHOMODE
 70
     0
  9
$REGENMODE
 70
     1
  9
$FILLMODE
 70
     1
  9
$QTEXTMODE
 70
     0
  9
$MIRRTEXT
 70
     1
  9
$LTSCALE
 40
30.0
  9
$ATTMODE
 70
     1
  9
$TEXTSIZE
 40
2.5
  9
$TRACEWID
 40
1.0
  9
$TEXTSTYLE
  7
Standard
  9
$CLAYER
  8
0
  9
$CELTYPE
  6
ByLayer
  9
$CECOLOR
 62
   256
  9
$CELTSCALE
 40
1.0
  9
$DISPSILH
 70
     0
  9
$DIMSCALE
 40
1.0
  9
$DIMASZ
 40
2.5
  9
$DIMEXO
 40
0.625
  9
$DIMDLI
 40
3.75
  9
$DIMRND
 40
0.0
  9
$DIMDLE
 40
0.0
  9
$DIMEXE
 40
1.25
  9
$DIMTP
 40
0.0
  9
$DIMTM
 40
0.0
  9
$DIMTXT
 40
2.5
  9
$DIMCEN
 40
2.5
  9
$DIMTSZ
 40
0.0
  9
$DIMTOL
 70
     0
  9
$DIMLIM
 70
     0
  9
$DIMTIH
 70
     0
  9
$DIMTOH
 70
     0
  9
$DIMSE1
 70
     0
  9
$DIMSE2
 70
     0
  9
$DIMTAD
 70
     1
  9
$DIMZIN
 70
     8
  9
$DIMBLK
  1

  9
$DIMASO
 70
     1
  9
$DIMSHO
 70
     1
  9
$DIMPOST
  1

  9
$DIMAPOST
  1

  9
$DIMALT
 70
     0
  9
$DIMALTD
 70
     3
  9
$DIMALTF
 40
0.03937007874016
  9
$DIMLFAC
 40
1.0
  9
$DIMTOFL
 70
     1
  9
$DIMTVP
 40
0.0
  9
$DIMTIX
 70
     0
  9
$DIMSOXD
 70
     0
  9
$DIMSAH
 70
     0
  9
$DIMBLK1
  1

  9
$DIMBLK2
  1

  9
$DIMSTYLE
  2
ISO-25
  9
$DIMCLRD
 70
     0
  9
$DIMCLRE
 70
     0
  9
$DIMCLRT
 70
     0
  9
$DIMTFAC
 40
1.0
  9
$DIMGAP
 40
0.625
  9
$DIMJUST
 70
     0
  9
$DIMSD1
 70
     0
  9
$DIMSD2
 70
     0
  9
$DIMTOLJ
 70
     0
  9
$DIMTZIN
 70
     8
  9
$DIMALTZ
 70
     0
  9
$DIMALTTZ
 70
     0
  9
$DIMUPT
 70
     0
  9
$DIMDEC
 70
     2
  9
$DIMTDEC
 70
     2
  9
$DIMALTU
 70
     2
  9
$DIMALTTD
 70
     3
  9
$DIMTXSTY
  7
Standard
  9
$DIMAUNIT
 70
     0
  9
$DIMADEC
 70
     0
  9
$DIMALTRND
 40
0.0
  9
$DIMAZIN
 70
     0
  9
$DIMDSEP
 70
    44
  9
$DIMATFIT
 70
     3
  9
$DIMFRAC
 70
     0
  9
$DIMLDRBLK
  1

  9
$DIMLUNIT
 70
     2
  9
$DIMLWD
 70
    -2
  9
$DIMLWE
 70
    -2
  9
$DIMTMOVE
 70
     0
  9
$DIMFXL
 40
1.0
  9
$DIMFXLON
 70
     0
  9
$DIMJOGANG
 40
0.7853981633974483
  9
$DIMTFILL
 70
     0
  9
$DIMTFILLCLR
 70
     0
  9
$DIMARCSYM
 70
     0
  9
$DIMLTYPE
  6

  9
$DIMLTEX1
  6

  9
$DIMLTEX2
  6

  9
$DIMTXTDIRECTION
 70
     0
  9
$LUNITS
 70
     2
  9
$LUPREC
 70
     4
  9
$SKETCHINC
 40
1.0
  9
$FILLETRAD
 40
10.0
  9
$AUNITS
 70
     0
  9
$AUPREC
 70
     0
  9
$MENU
  1
.
  9
$ELEVATION
 40
0.0
  9
$PELEVATION
 40
0.0
  9
$THICKNESS
 40
0.0
  9
$LIMCHECK
 70
     0
  9
$CHAMFERA
 40
10.0
  9
$CHAMFERB
 40
10.0
  9
$CHAMFERC
 40
20.0
  9
$CHAMFERD
 40
0.0
  9
$SKPOLY
 70
     0
  9
$TDCREATE
 40
2459380.624591192
  9
$TDUCREATE
 40
2459380.249591192
  9
$TDUPDATE
 40
2459380.624591204
  9
$TDUUPDATE
 40
2459380.249591204
  9
$TDINDWG
 40
0.0000000116
  9
$TDUSRTIMER
 40
0.0000000116
  9
$USRTIMER
 70
     1
  9
$ANGBASE
 50
0.0
  9
$ANGDIR
 70
     0
  9
$PDMODE
 70
     0
  9
$PDSIZE
 40
0.0
  9
$PLINEWID
 40
0.0
  9
$SPLFRAME
 70
     0
  9
$SPLINETYPE
 70
     6
  9
$SPLINESEGS
 70
     8
  9
$HANDSEED
  5
496
  9
$SURFTAB1
 70
     6
  9
$SURFTAB2
 70
     6
  9
$SURFTYPE
 70
     6
  9
$SURFU
 70
     6
  9
$SURFV
 70
     6
  9
$UCSBASE
  2

  9
$UCSNAME
  2

  9
$UCSORG
 10
0.0
 20
0.0
 30
0.0
  9
$UCSXDIR
 10
1.0
 20
0.0
 30
0.0
  9
$UCSYDIR
 10
0.0
 20
1.0
 30
0.0
  9
$UCSORTHOREF
  2

  9
$UCSORTHOVIEW
 70
     0
  9
$UCSORGTOP
 10
0.0
 20
0.0
 30
0.0
  9
$UCSORGBOTTOM
 10
0.0
 20
0.0
 30
0.0
  9
$UCSORGLEFT
 10
0.0
 20
0.0
 30
0.0
  9
$UCSORGRIGHT
 10
0.0
 20
0.0
 30
0.0
  9
$UCSORGFRONT
 10
0.0
 20
0.0
 30
0.0
  9
$UCSORGBACK
 10
0.0
 20
0.0
 30
0.0
  9
$PUCSBASE
  2

  9
$PUCSNAME
  2

  9
$PUCSORG
 10
0.0
 20
0.0
 30
0.0
  9
$PUCSXDIR
 10
1.0
 20
0.0
 30
0.0
  9
$PUCSYDIR
 10
0.0
 20
1.0
 30
0.0
  9
$PUCSORTHOREF
  2

  9
$PUCSORTHOVIEW
 70
     0
  9
$PUCSORGTOP
 10
0.0
 20
0.0
 30
0.0
  9
$PUCSORGBOTTOM
 10
0.0
 20
0.0
 30
0.0
  9
$PUCSORGLEFT
 10
0.0
 20
0.0
 30
0.0
  9
$PUCSORGRIGHT
 10
0.0
 20
0.0
 30
0.0
  9
$PUCSORGFRONT
 10
0.0
 20
0.0
 30
0.0
  9
$PUCSORGBACK
 10
0.0
 20
0.0
 30
0.0
  9
$USERI1
 70
     0
  9
$USERI2
 70
     0
  9
$USERI3
 70
     0
  9
$USERI4
 70
     0
  9
$USERI5
 70
     0
  9
$USERR1
 40
0.0
  9
$USERR2
 40
0.0
  9
$USERR3
 40
0.0
  9
$USERR4
 40
0.0
  9
$USERR5
 40
0.0
  9
$WORLDVIEW
 70
     1
  9
$SHADEDGE
 70
     3
  9
$SHADEDIF
 70
    70
  9
$TILEMODE
 70
     1
  9
$MAXACTVP
 70
    64
  9
$PINSBASE
 10
0.0
 20
0.0
 30
0.0
  9
$PLIMCHECK
 70
     0
  9
$PEXTMIN
 10
1.000000000000000E+20
 20
1.000000000000000E+20
 30
1.000000000000000E+20
  9
$PEXTMAX
 10
-1.000000000000000E+20
 20
-1.000000000000000E+20
 30
-1.000000000000000E+20
  9
$PLIMMIN
 10
0.0
 20
0.0
  9
$PLIMMAX
 10
420.0
 20
297.0
  9
$UNITMODE
 70
     0
  9
$VISRETAIN
 70
     1
  9
$PLINEGEN
 70
     0
  9
$PSLTSCALE
 70
     1
  9
$TREEDEPTH
 70
  3020
  9
$CMLSTYLE
  2
Standard
  9
$CMLJUST
 70
     0
  9
$CMLSCALE
 40
20.0
  9
$PROXYGRAPHICS
 70
     1
  9
$MEASUREMENT
 70
     1
  9
$CELWEIGHT
370
    -1
  9
$ENDCAPS
280
     0
  9
$JOINSTYLE
280
     0
  9
$LWDISPLAY
290
     0
  9
$INSUNITS
 70
     4
  9
$HYPERLINKBASE
  1

  9
$STYLESHEET
  1

  9
$XEDIT
290
     1
  9
$CEPSNTYPE
380
     0
  9
$PSTYLEMODE
290
     1
  9
$FINGERPRINTGUID
  2
{CFD9D9B9-A569-4769-B572-AE4203055A46}
  9
$VERSIONGUID
  2
{FAEB1C32-E019-11D5-929B-00C0DF256EC4}
  9
$EXTNAMES
290
     1
  9
$PSVPSCALE
 40
0.0
  9
$OLESTARTUP
290
     0
  9
$SORTENTS
280
   127
  9
$INDEXCTL
280
     0
  9
$HIDETEXT
280
     1
  9
$XCLIPFRAME
280
     2
  9
$HALOGAP
280
     0
  9
$OBSCOLOR
 70
   257
  9
$OBSLTYPE
280
     0
  9
$INTERSECTIONDISPLAY
280
     0
  9
$INTERSECTIONCOLOR
 70
   257
  9
$DIMASSOC
280
     2
  9
$PROJECTNAME
  1

  9
$CAMERADISPLAY
290
     0
  9
$LENSLENGTH
 40
50.0
  9
$CAMERAHEIGHT
 40
0.0
  9
$STEPSPERSEC
 40
2.0
  9
$STEPSIZE
 40
6.0
  9
$3DDWFPREC
 40
2.0
  9
$PSOLWIDTH
 40
5.0
  9
$PSOLHEIGHT
 40
80.0
  9
$LOFTANG1
 40
1.570796326794897
  9
$LOFTANG2
 40
1.570796326794897
  9
$LOFTMAG1
 40
0.0
  9
$LOFTMAG2
 40
0.0
  9
$LOFTPARAM
 70
     7
  9
$LOFTNORMALS
280
     1
  9
$LATITUDE
 40
37.795
  9
$LONGITUDE
 40
-122.394
  9
$NORTHDIRECTION
 40
0.0
  9
$TIMEZONE
 70
 -8000
  9
$LIGHTGLYPHDISPLAY
280
     1
  9
$TILEMODELIGHTSYNCH
280
     1
  9
$SOLIDHIST
280
     1
  9
$SHOWHIST
280
     1
  9
$DWFFRAME
280
     2
  9
$DGNFRAME
280
     2
  9
$REALWORLDSCALE
290
     1
  9
$INTERFERECOLOR
 62
   256
  9
$CSHADOW
280
     0
  9
$SHADOWPLANELOCATION
 40
0.0
  0
ENDSEC
  0
SECTION
  2
CLASSES
  0
CLASS
  1
ACDBDICTIONARYWDFLT
  2
AcDbDictionaryWithDefault
  3
ObjectDBX Classes
 90
        0
 91
        4
280
     0
281
     0
  0
CLASS
  1
VISUALSTYLE
  2
AcDbVisualStyle
  3
ObjectDBX Classes
 90
     4095
 91
        4
280
     0
281
     0
  0
CLASS
  1
MATERIAL
  2
AcDbMaterial
  3
ObjectDBX Classes
 90
     1153
 91
        4
280
     0
281
     0
  0
ENDSEC
  0
SECTION
  2
TABLES
  0
TABLE
  2
VPORT
  5
8
330
0
100
AcDbSymbolTable
 70
     1
  0
VPORT
  5
29
330
8
100
AcDbSymbolTableRecord
100
AcDbViewportTableRecord
  2
*Active
 70
     0
 10
0.0
 20
0.0
 11
1.0
 21
1.0
 12
0.0
 22
0.0
 13
0.0
 23
0.0
 14
10.0
 24
10.0
 15
10.0
 25
10.0
 16
0.0
 26
0.0
 36
1.0
 17
0.0
 27
0.0
 37
0.0
 40
9801.0
 41
1.414141414141414
 42
50.0
 43
0.0
 44
0.0
 50
0.0
 51
0.0
 71
     0
 72
 10000
 73
     1
 74
     3
 75
     0
 76
     0
 77
     0
 78
     0
281
     0
 65
     1
110
0.0
120
0.0
130
0.0
111
1.0
121
0.0
131
0.0
112
0.0
122
1.0
132
0.0
 79
     0
146
0.0
 60
     3
 61
     5
292
     1
282
     1
141
0.0
142
0.0
 63
   250
  0
ENDTAB
  0
TABLE
  2
LTYPE
  5
5
330
0
100
AcDbSymbolTable
 70
     5
  0
LTYPE
  5
14
330
5
100
AcDbSymbolTableRecord
100
AcDbLinetypeTableRecord
  2
ByBlock
 70
     0
  3

 72
    65
 73
     0
 40
0.0
  0
LTYPE
  5
15
330
5
100
AcDbSymbolTableRecord
100
AcDbLinetypeTableRecord
  2
ByLayer
 70
     0
  3

 72
    65
 73
     0
 40
0.0
  0
LTYPE
  5
16
330
5
100
AcDbSymbolTableRecord
100
AcDbLinetypeTableRecord
  2
Continuous
 70
     0
  3
Solid line
 72
    65
 73
     0
 40
0.0
  0
LTYPE
  5
3F
330
5
100
AcDbSymbolTableRecord
100
AcDbLinetypeTableRecord
  2
JWW_HOJO
 70
     0
  3
  -   -   -   -   -   -   -   - 
 72
    65
 73
     2
 40
1.693333333333333
 49
-1.27
 74
     0
 49
0.4233333333333333
 74
     0
  0
LTYPE
  5
40
330
5
100
AcDbSymbolTableRecord
100
AcDbLinetypeTableRecord
  2
JWW_DASHED2
 70
     0
  3
--    ----    ----    ----    --
 72
    65
 73
     2
 40
3.386666666666667
 49
1.693333333333333
 74
     0
 49
-1.693333333333333
 74
     0
  0
LTYPE
  5
41
330
5
100
AcDbSymbolTableRecord
100
AcDbLinetypeTableRecord
  2
JWW_CENTER1
 70
     0
  3
-----  --  ----------  --  -----
 72
    65
 73
     4
 40
6.773333333333333
 49
4.233333333333333
 74
     0
 49
-0.8466666666666667
 74
     0
 49
0.8466666666666667
 74
     0
 49
-0.8466666666666667
 74
     0
  0
LTYPE
  5
42
330
5
100
AcDbSymbolTableRecord
100
AcDbLinetypeTableRecord
  2
JWW_DASHED1
 70
     0
  3
-  --  --  --  --  --  --  --  -
 72
    65
 73
     2
 40
1.693333333333333
 49
0.8466666666666667
 74
     0
 49
-0.8466666666666667
 74
     0
  0
ENDTAB
  0
TABLE
  2
LAYER
  5
2
330
0
100
AcDbSymbolTable
 70
    16
  0
LAYER
  5
10
330
2
100
AcDbSymbolTableRecord
100
AcDbLayerTableRecord
  2
0
 70
     0
 62
     7
  6
Continuous
370
    -3
390
F
347
3E
  0
LAYER
  5
43
330
2
100
AcDbSymbolTableRecord
100
AcDbLayerTableRecord
  2
F-A_文字
 70
     0
 62
     7
  6
Continuous
370
    -3
390
F
347
3E
  0
LAYER
  5
44
330
2
100
AcDbSymbolTableRecord
100
AcDbLayerTableRecord
  2
F-0_補助線
 70
     0
 62
     7
  6
Continuous
370
    -3
390
F
347
3E
  0
LAYER
  5
45
330
2
100
AcDbSymbolTableRecord
100
AcDbLayerTableRecord
  2
F-1_枠
 70
     0
 62
     7
  6
Continuous
370
    -3
390
F
347
3E
  0
LAYER
  5
46
330
2
100
AcDbSymbolTableRecord
100
AcDbLayerTableRecord
  2
戸当り
 70
     0
 62
     7
  6
Continuous
370
    -3
390
F
347
3E
  0
LAYER
  5
47
330
2
100
AcDbSymbolTableRecord
100
AcDbLayerTableRecord
  2
0-A_文字
 70
     0
 62
     7
  6
Continuous
370
    -3
390
F
347
3E
  0
LAYER
  5
48
330
2
100
AcDbSymbolTableRecord
100
AcDbLayerTableRecord
  2
0-0_補助線
 70
     0
 62
     7
  6
Continuous
370
    -3
390
F
347
3E
  0
LAYER
  5
49
330
2
100
AcDbSymbolTableRecord
100
AcDbLayerTableRecord
  2
0-B_寸法
 70
     0
 62
     7
  6
Continuous
370
    -3
390
F
347
3E
  0
LAYER
  5
4A
330
2
100
AcDbSymbolTableRecord
100
AcDbLayerTableRecord
  2
0-6_扉
 70
     0
 62
     7
  6
Continuous
370
    -3
390
F
347
3E
  0
LAYER
  5
4B
330
2
100
AcDbSymbolTableRecord
100
AcDbLayerTableRecord
  2
0-1_通り芯
 70
     0
 62
     7
  6
Continuous
370
    -3
390
F
347
3E
  0
LAYER
  5
4C
330
2
100
AcDbSymbolTableRecord
100
AcDbLayerTableRecord
  2
0-7_金物
 70
     0
 62
     7
  6
Continuous
370
    -3
390
F
347
3E
  0
LAYER
  5
4D
330
2
100
AcDbSymbolTableRecord
100
AcDbLayerTableRecord
  2
0-4_枠
 70
     0
 62
     7
  6
Continuous
370
    -3
390
F
347
3E
  0
LAYER
  5
4E
330
2
100
AcDbSymbolTableRecord
100
AcDbLayerTableRecord
  2
0-C_ハッチ
 70
     0
 62
     7
  6
Continuous
370
    -3
390
F
347
3E
  0
LAYER
  5
4F
330
2
100
AcDbSymbolTableRecord
100
AcDbLayerTableRecord
  2
0-3_仕上げ
 70
     0
 62
     7
  6
Continuous
370
    -3
390
F
347
3E
  0
LAYER
  5
50
330
2
100
AcDbSymbolTableRecord
100
AcDbLayerTableRecord
  2
0-E
 70
     0
 62
     7
  6
Continuous
370
    -3
390
F
347
3E
  0
LAYER
  5
51
330
2
100
AcDbSymbolTableRecord
100
AcDbLayerTableRecord
  2
1-E
 70
     0
 62
     7
  6
Continuous
370
    -3
390
F
347
3E
  0
ENDTAB
  0
TABLE
  2
STYLE
  5
3
330
0
100
AcDbSymbolTable
 70
     1
  0
STYLE
  5
11
330
3
100
AcDbSymbolTableRecord
100
AcDbTextStyleTableRecord
  2
Standard
 70
     0
 40
0.0
 41
1.0
 50
0.0
 71
     0
 42
2.5
  3
txt
  4

  0
ENDTAB
  0
TABLE
  2
VIEW
  5
6
330
0
100
AcDbSymbolTable
 70
     0
  0
ENDTAB
  0
TABLE
  2
UCS
  5
7
330
0
100
AcDbSymbolTable
 70
     0
  0
ENDTAB
  0
TABLE
  2
APPID
  5
9
330
0
100
AcDbSymbolTable
 70
     1
  0
APPID
  5
12
330
9
100
AcDbSymbolTableRecord
100
AcDbRegAppTableRecord
  2
ACAD
 70
     0
  0
ENDTAB
  0
TABLE
  2
DIMSTYLE
  5
A
330
0
100
AcDbSymbolTable
 70
     1
100
AcDbDimStyleTable
  0
DIMSTYLE
105
27
330
A
100
AcDbSymbolTableRecord
100
AcDbDimStyleTableRecord
  2
ISO-25
 70
     0
 41
2.5
 42
0.625
 43
3.75
 44
1.25
 73
     0
 74
     0
 77
     1
 78
     8
140
2.5
141
2.5
143
0.03937007874016
147
0.625
171
     3
172
     1
178
     0
271
     2
272
     2
274
     3
278
    44
283
     0
284
     8
340
11
  0
ENDTAB
  0
TABLE
  2
BLOCK_RECORD
  5
1
330
0
100
AcDbSymbolTable
 70
     2
  0
BLOCK_RECORD
  5
1F
330
1
100
AcDbSymbolTableRecord
100
AcDbBlockTableRecord
  2
*Model_Space
340
22
 70
     0
280
     1
281
     0
  0
BLOCK_RECORD
  5
1B
330
1
100
AcDbSymbolTableRecord
100
AcDbBlockTableRecord
  2
*Paper_Space
340
1E
 70
     0
280
     1
281
     0
  0
BLOCK_RECORD
  5
23
330
1
100
AcDbSymbolTableRecord
100
AcDbBlockTableRecord
  2
*Paper_Space0
340
26
 70
     0
280
     1
281
     0
  0
BLOCK_RECORD
  5
52
330
1
100
AcDbSymbolTableRecord
100
AcDbBlockTableRecord
  2
01@@SfigorgFlag@@4
340
0
102
{BLKREFS
331
2F1
102
}
 70
     0
280
     1
281
     0
  0
ENDTAB
  0
ENDSEC
  0
SECTION
  2
BLOCKS
  0
BLOCK
  5
20
330
1F
100
AcDbEntity
  8
0
100
AcDbBlockBegin
  2
*Model_Space
 70
     0
 10
0.0
 20
0.0
 30
0.0
  3
*Model_Space
  1

  0
ENDBLK
  5
21
330
1F
100
AcDbEntity
  8
0
100
AcDbBlockEnd
  0
BLOCK
  5
1C
330
1B
100
AcDbEntity
 67
     1
  8
0
100
AcDbBlockBegin
  2
*Paper_Space
 70
     0
 10
0.0
 20
0.0
 30
0.0
  3
*Paper_Space
  1

  0
ENDBLK
  5
1D
330
1B
100
AcDbEntity
 67
     1
  8
0
100
AcDbBlockEnd
  0
BLOCK
  5
24
330
23
100
AcDbEntity
  8
0
100
AcDbBlockBegin
  2
*Paper_Space0
 70
     0
 10
0.0
 20
0.0
 30
0.0
  3
*Paper_Space0
  1

  0
ENDBLK
  5
25
330
23
100
AcDbEntity
  8
0
100
AcDbBlockEnd
  0
BLOCK
  5
53
330
52
100
AcDbEntity
  8
0
100
AcDbBlockBegin
  2
01@@SfigorgFlag@@4
 70
     0
 10
0.0
 20
0.0
 30
0.0
  3
01@@SfigorgFlag@@4
  1

  0
LINE
  5
46D
330
52
100
AcDbEntity
  8
0-0_補助線
  6
Continuous
 62
     7
370
     9
100
AcDbLine
 10
-4.25
 20
-1.491025641025665
 30
0.0
 11
-3.25
 21
-1.491025641025665
 31
0.0
  0
LINE
  5
46E
330
52
100
AcDbEntity
  8
0-0_補助線
  6
Continuous
 62
     7
370
     9
100
AcDbLine
 10
-2.75
 20
-1.491025641025665
 30
0.0
 11
-0.1500000000000909
 21
-1.491025641025665
 31
0.0
  0
LINE
  5
46F
330
52
100
AcDbEntity
  8
0-0_補助線
  6
Continuous
 62
     7
370
     9
100
AcDbLine
 10
-0.1500000000000909
 20
-1.491025641025665
 30
0.0
 11
0.0
 21
-1.641025641025642
 31
0.0
  0
LINE
  5
470
330
52
100
AcDbEntity
  8
0-0_補助線
  6
Continuous
 62
     7
370
     9
100
AcDbLine
 10
0.0
 20
-1.641025641025642
 30
0.0
 11
0.1500000000000909
 21
-1.491025641025665
 31
0.0
  0
LINE
  5
471
330
52
100
AcDbEntity
  8
0-0_補助線
  6
Continuous
 62
     7
370
     9
100
AcDbLine
 10
0.1500000000000909
 20
-1.491025641025665
 30
0.0
 11
2.75
 21
-1.491025641025665
 31
0.0
  0
LINE
  5
472
330
52
100
AcDbEntity
  8
0-0_補助線
  6
Continuous
 62
     7
370
     9
100
AcDbLine
 10
3.25
 20
-1.491025641025665
 30
0.0
 11
4.25
 21
-1.491025641025665
 31
0.0
  0
LINE
  5
473
330
52
100
AcDbEntity
  8
0-0_補助線
  6
Continuous
 62
     7
370
     9
100
AcDbLine
 10
7.849999999999909
 20
1.408974358974312
 30
0.0
 11
4.849999999999909
 21
1.408974358974312
 31
0.0
  0
LINE
  5
474
330
52
100
AcDbEntity
  8
0-0_補助線
  6
Continuous
 62
     7
370
     9
100
AcDbLine
 10
-4.849999999999909
 20
1.408974358974312
 30
0.0
 11
-7.849999999999909
 21
1.408974358974312
 31
0.0
  0
LINE
  5
475
330
52
100
AcDbEntity
  8
0-0_補助線
  6
Continuous
 62
     7
370
     9
100
AcDbLine
 10
-4.849999999999909
 20
2.008974358974335
 30
0.0
 11
-7.849999999999909
 21
1.70897435897438
 31
0.0
  0
ARC
  5
476
330
52
100
AcDbEntity
  8
0-0_補助線
  6
Continuous
 62
     7
370
     9
100
AcDbCircle
 10
-7.849999999999909
 20
1.558974358974403
 30
0.0
 40
0.15
100
AcDbArc
 50
90.0
 51
270.0
  0
ARC
  5
477
330
52
100
AcDbEntity
  8
0-0_補助線
  6
Continuous
 62
     7
370
     9
100
AcDbCircle
 10
7.849999999999909
 20
1.558974358974403
 30
0.0
 40
0.15
100
AcDbArc
 50
270.0
 51
89.99999999999997
  0
LINE
  5
478
330
52
100
AcDbEntity
  8
0-0_補助線
  6
Continuous
 62
     7
370
     9
100
AcDbLine
 10
7.849999999999909
 20
1.70897435897438
 30
0.0
 11
4.849999999999909
 21
2.008974358974335
 31
0.0
  0
LINE
  5
479
330
52
100
AcDbEntity
  8
0-0_補助線
  6
Continuous
 62
     7
370
     9
100
AcDbLine
 10
-3.050000000000182
 20
2.008974358974335
 30
0.0
 11
-4.849999999999909
 21
2.008974358974335
 31
0.0
  0
ARC
  5
47A
330
52
100
AcDbEntity
  8
0-0_補助線
  6
Continuous
 62
     7
370
     9
100
AcDbCircle
 10
-3.050000000000182
 20
1.70897435897438
 30
0.0
 40
0.3
100
AcDbArc
 50
0.0
 51
90.0
  0
ARC
  5
47B
330
52
100
AcDbEntity
  8
0-0_補助線
  6
Continuous
 62
     7
370
     9
100
AcDbCircle
 10
-3.050000000000182
 20
1.70897435897438
 30
0.0
 40
0.3
100
AcDbArc
 50
270.0
 51
0.0
  0
ARC
  5
47C
330
52
100
AcDbEntity
  8
0-0_補助線
  6
Continuous
 62
     7
370
     9
100
AcDbCircle
 10
3.050000000000182
 20
1.70897435897438
 30
0.0
 40
0.3
100
AcDbArc
 50
180.0
 51
270.0
  0
LINE
  5
47D
330
52
100
AcDbEntity
  8
0-0_補助線
  6
Continuous
 62
     7
370
     9
100
AcDbLine
 10
3.050000000000182
 20
2.008974358974335
 30
0.0
 11
4.849999999999909
 21
2.008974358974335
 31
0.0
  0
ARC
  5
47E
330
52
100
AcDbEntity
  8
0-0_補助線
  6
Continuous
 62
     7
370
     9
100
AcDbCircle
 10
3.050000000000182
 20
1.70897435897438
 30
0.0
 40
0.3
100
AcDbArc
 50
90.0
 51
180.0
  0
LINE
  5
47F
330
52
100
AcDbEntity
  8
0-0_補助線
  6
Continuous
 62
     7
370
     9
100
AcDbLine
 10
4.849999999999909
 20
-1.341025641025688
 30
0.0
 11
4.849999999999909
 21
1.408974358974312
 31
0.0
  0
ARC
  5
480
330
52
100
AcDbEntity
  8
0-0_補助線
  6
Continuous
 62
     7
370
     9
100
AcDbCircle
 10
4.099999999999909
 20
-1.341025641025688
 30
0.0
 40
0.75
100
AcDbArc
 50
270.0
 51
0.0
  0
LINE
  5
481
330
52
100
AcDbEntity
  8
0-0_補助線
  6
Continuous
 62
     7
370
     9
100
AcDbLine
 10
-4.849999999999909
 20
-1.341025641025688
 30
0.0
 11
-4.849999999999909
 21
1.408974358974312
 31
0.0
  0
LINE
  5
482
330
52
100
AcDbEntity
  8
0-0_補助線
  6
Continuous
 62
     7
370
     9
100
AcDbLine
 10
-4.099999999999909
 20
-2.091025641025688
 30
0.0
 11
4.099999999999909
 21
-2.091025641025688
 31
0.0
  0
ARC
  5
483
330
52
100
AcDbEntity
  8
0-0_補助線
  6
Continuous
 62
     7
370
     9
100
AcDbCircle
 10
-4.099999999999909
 20
-1.341025641025688
 30
0.0
 40
0.75
100
AcDbArc
 50
180.0
 51
270.0
  0
LINE
  5
484
330
52
100
AcDbEntity
  8
0-0_補助線
  6
Continuous
 62
     7
370
     9
100
AcDbLine
 10
-4.0
 20
1.408974358974312
 30
0.0
 11
-3.050000000000182
 21
1.408974358974312
 31
0.0
  0
LINE
  5
485
330
52
100
AcDbEntity
  8
0-0_補助線
  6
Continuous
 62
     7
370
     9
100
AcDbLine
 10
-4.25
 20
1.158974358974312
 30
0.0
 11
-4.25
 21
-1.491025641025665
 31
0.0
  0
ARC
  5
486
330
52
100
AcDbEntity
  8
0-0_補助線
  6
Continuous
 62
     7
370
     9
100
AcDbCircle
 10
-4.0
 20
1.158974358974312
 30
0.0
 40
0.25
100
AcDbArc
 50
90.0
 51
180.0
  0
LINE
  5
487
330
52
100
AcDbEntity
  8
0-0_補助線
  6
Continuous
 62
     7
370
     9
100
AcDbLine
 10
4.0
 20
1.408974358974312
 30
0.0
 11
3.050000000000182
 21
1.408974358974312
 31
0.0
  0
LINE
  5
488
330
52
100
AcDbEntity
  8
0-0_補助線
  6
Continuous
 62
     7
370
     9
100
AcDbLine
 10
4.25
 20
1.158974358974312
 30
0.0
 11
4.25
 21
-1.491025641025665
 31
0.0
  0
ARC
  5
489
330
52
100
AcDbEntity
  8
0-0_補助線
  6
Continuous
 62
     7
370
     9
100
AcDbCircle
 10
4.0
 20
1.158974358974312
 30
0.0
 40
0.25
100
AcDbArc
 50
0.0
 51
90.0
  0
LINE
  5
48A
330
52
100
AcDbEntity
  8
0-0_補助線
  6
Continuous
 62
     7
370
     9
100
AcDbLine
 10
-3.25
 20
-1.091025641025688
 30
0.0
 11
-3.25
 21
-1.491025641025665
 31
0.0
  0
ARC
  5
48B
330
52
100
AcDbEntity
  8
0-0_補助線
  6
Continuous
 62
     7
370
     9
100
AcDbCircle
 10
-3.150000000000091
 20
-1.091025641025688
 30
0.0
 40
0.1
100
AcDbArc
 50
90.0
 51
180.0
  0
LINE
  5
48C
330
52
100
AcDbEntity
  8
0-0_補助線
  6
Continuous
 62
     7
370
     9
100
AcDbLine
 10
-2.849999999999909
 20
-0.991025641025665
 30
0.0
 11
-3.150000000000091
 21
-0.991025641025665
 31
0.0
  0
LINE
  5
48D
330
52
100
AcDbEntity
  8
0-0_補助線
  6
Continuous
 62
     7
370
     9
100
AcDbLine
 10
-2.75
 20
-1.091025641025688
 30
0.0
 11
-2.75
 21
-1.491025641025665
 31
0.0
  0
ARC
  5
48E
330
52
100
AcDbEntity
  8
0-0_補助線
  6
Continuous
 62
     7
370
     9
100
AcDbCircle
 10
-2.849999999999909
 20
-1.091025641025688
 30
0.0
 40
0.1
100
AcDbArc
 50
0.0
 51
90.0
  0
LINE
  5
48F
330
52
100
AcDbEntity
  8
0-0_補助線
  6
Continuous
 62
     7
370
     9
100
AcDbLine
 10
2.75
 20
-1.091025641025688
 30
0.0
 11
2.75
 21
-1.491025641025665
 31
0.0
  0
ARC
  5
490
330
52
100
AcDbEntity
  8
0-0_補助線
  6
Continuous
 62
     7
370
     9
100
AcDbCircle
 10
2.849999999999909
 20
-1.091025641025688
 30
0.0
 40
0.1
100
AcDbArc
 50
90.0
 51
180.0
  0
LINE
  5
491
330
52
100
AcDbEntity
  8
0-0_補助線
  6
Continuous
 62
     7
370
     9
100
AcDbLine
 10
3.150000000000091
 20
-0.991025641025665
 30
0.0
 11
2.849999999999909
 21
-0.991025641025665
 31
0.0
  0
LINE
  5
492
330
52
100
AcDbEntity
  8
0-0_補助線
  6
Continuous
 62
     7
370
     9
100
AcDbLine
 10
3.25
 20
-1.091025641025688
 30
0.0
 11
3.25
 21
-1.491025641025665
 31
0.0
  0
ARC
  5
493
330
52
100
AcDbEntity
  8
0-0_補助線
  6
Continuous
 62
     7
370
     9
100
AcDbCircle
 10
3.150000000000091
 20
-1.091025641025688
 30
0.0
 40
0.1
100
AcDbArc
 50
0.0
 51
90.0
  0
ENDBLK
  5
54
330
52
100
AcDbEntity
  8
0
100
AcDbBlockEnd
  0
ENDSEC
  0
SECTION
  2
ENTITIES
  0
MTEXT
  5
55
330
1F
100
AcDbEntity
  8
F-A_文字
  6
Continuous
 62
     7
370
     0
100
AcDbMText
 10
5768.321977672939
 20
-4314.841419020919
 30
0.0
 40
68.58
 41
90.0
 46
0.0
 71
     7
 72
     1
  1
{\fＭＳ ゴシック|b0|i0|c128|p49;）}
 73
     1
 44
1.0
  0
MTEXT
  5
56
330
1F
100
AcDbEntity
  8
F-A_文字
  6
Continuous
 62
     7
370
     0
100
AcDbMText
 10
5548.066114483239
 20
-4314.771967288282
 30
0.0
 40
74.295
 41
195.0
 46
0.0
 71
     7
 72
     1
  1
{\fＭＳ ゴシック|b0|i0|c128|p49;印刷}
 73
     1
 44
1.0
  0
MTEXT
  5
57
330
1F
100
AcDbEntity
  8
F-A_文字
  6
Continuous
 62
     7
370
     0
100
AcDbMText
 10
5393.32938200033
 20
-4314.771967288282
 30
0.0
 40
74.295
 41
97.5
 46
0.0
 71
     7
 72
     1
  1
{\fＭＳ ゴシック|b0|i0|c128|p49;$d}
 73
     1
 44
1.0
  0
MTEXT
  5
58
330
1F
100
AcDbEntity
  8
F-A_文字
  6
Continuous
 62
     7
370
     0
100
AcDbMText
 10
5350.114617405298
 20
-4316.235443869856
 30
0.0
 40
68.58
 41
45.0
 46
0.0
 71
     7
 72
     1
  1
{\fＭＳ ゴシック|b0|i0|c128|p49;,}
 73
     1
 44
1.0
  0
MTEXT
  5
59
330
1F
100
AcDbEntity
  8
F-A_文字
  6
Continuous
 62
     7
370
     0
100
AcDbMText
 10
5238.592649517422
 20
-4314.771967288282
 30
0.0
 40
74.295
 41
97.5
 46
0.0
 71
     7
 72
     1
  1
{\fＭＳ ゴシック|b0|i0|c128|p49;$m}
 73
     1
 44
1.0
  0
MTEXT
  5
5A
330
1F
100
AcDbEntity
  8
F-A_文字
  6
Continuous
 62
     7
370
     0
100
AcDbMText
 10
5191.195810375571
 20
-4319.023493567732
 30
0.0
 40
68.58
 41
45.0
 46
0.0
 71
     7
 72
     1
  1
{\fＭＳ ゴシック|b0|i0|c128|p49;,}
 73
     1
 44
1.0
  0
MTEXT
  5
5B
330
1F
100
AcDbEntity
  8
F-A_文字
  6
Continuous
 62
     7
370
     0
100
AcDbMText
 10
5083.855928478601
 20
-4314.771967288282
 30
0.0
 40
74.295
 41
97.5
 46
0.0
 71
     7
 72
     1
  1
{\fＭＳ ゴシック|b0|i0|c128|p49;$y}
 73
     1
 44
1.0
  0
MTEXT
  5
5C
330
1F
100
AcDbEntity
  8
F-A_文字
  6
Continuous
 62
     7
370
     0
100
AcDbMText
 10
4943.952040816226
 20
-4319.023493567732
 30
0.0
 40
68.58
 41
90.0
 46
0.0
 71
     7
 72
     1
  1
{\fＭＳ ゴシック|b0|i0|c128|p49;（}
 73
     1
 44
1.0
  0
LINE
  5
5D
330
1F
100
AcDbEntity
  8
F-0_補助線
  6
JWW_HOJO
 62
   120
370
     5
100
AcDbLine
 10
-6140.081333436773
 20
-4455.0
 30
0.0
 11
-6140.081333436773
 21
4424.999604096284
 31
0.0
  0
LINE
  5
5E
330
1F
100
AcDbEntity
  8
F-0_補助線
  6
JWW_HOJO
 62
   120
370
     5
100
AcDbLine
 10
-6140.081333436773
 20
4424.999604096284
 30
0.0
 11
6159.917676803936
 21
4424.999604096284
 31
0.0
  0
LINE
  5
5F
330
1F
100
AcDbEntity
  8
F-0_補助線
  6
JWW_HOJO
 62
   120
370
     5
100
AcDbLine
 10
6159.917676803936
 20
4424.999604096284
 30
0.0
 11
6159.917676803936
 21
-4455.0
 31
0.0
  0
LINE
  5
60
330
1F
100
AcDbEntity
  8
F-0_補助線
  6
JWW_HOJO
 62
   120
370
     5
100
AcDbLine
 10
6159.917676803936
 20
-4455.0
 30
0.0
 11
-6140.081333436773
 21
-4455.0
 31
0.0
  0
LINE
  5
61
330
1F
100
AcDbEntity
  8
F-1_枠
  6
Continuous
 62
   200
370
    20
100
AcDbLine
 10
5859.917429364114
 20
4174.999769056166
 30
0.0
 11
5859.917429364114
 21
-4205.000164959882
 31
0.0
  0
LINE
  5
62
330
1F
100
AcDbEntity
  8
F-1_枠
  6
Continuous
 62
   200
370
    20
100
AcDbLine
 10
-5840.081317971782
 20
4174.999769056166
 30
0.0
 11
-5840.081317971782
 21
-4205.000164959882
 31
0.0
  0
LINE
  5
63
330
1F
100
AcDbEntity
  8
F-1_枠
  6
Continuous
 62
   200
370
    20
100
AcDbLine
 10
5859.917429364114
 20
-4205.000002577498
 30
0.0
 11
-5840.081085996952
 21
-4205.000002577498
 31
0.0
  0
LINE
  5
64
330
1F
100
AcDbEntity
  8
F-1_枠
  6
Continuous
 62
   200
370
    20
100
AcDbLine
 10
-5830.081323642279
 20
4174.999769056166
 30
0.0
 11
-5830.081323642279
 21
-4205.000164959882
 31
0.0
  0
LINE
  5
65
330
1F
100
AcDbEntity
  8
F-1_枠
  6
Continuous
 62
   200
370
    20
100
AcDbLine
 10
-5835.081309208291
 20
4174.999769056166
 30
0.0
 11
-5835.081309208291
 21
-4205.000164959882
 31
0.0
  0
LINE
  5
66
330
1F
100
AcDbEntity
  8
F-1_枠
  6
Continuous
 62
   200
370
    20
100
AcDbLine
 10
5854.917165428304
 20
4174.999769056166
 30
0.0
 11
5854.917165428304
 21
-4205.000164959882
 31
0.0
  0
LINE
  5
67
330
1F
100
AcDbEntity
  8
F-1_枠
  6
Continuous
 62
   200
370
    20
100
AcDbLine
 10
5849.917643811961
 20
4174.999769056166
 30
0.0
 11
5849.917643811961
 21
-4205.000164959882
 31
0.0
  0
LINE
  5
68
330
1F
100
AcDbEntity
  8
F-1_枠
  6
Continuous
 62
   200
370
    20
100
AcDbLine
 10
5859.917429364114
 20
-4199.999993814004
 30
0.0
 11
-5840.081085996952
 21
-4199.999993814004
 31
0.0
  0
LINE
  5
69
330
1F
100
AcDbEntity
  8
F-1_枠
  6
Continuous
 62
   200
370
    20
100
AcDbLine
 10
5859.917429364114
 20
-4195.000008247994
 30
0.0
 11
-5840.081085996952
 21
-4195.000008247994
 31
0.0
  0
LINE
  5
6A
330
1F
100
AcDbEntity
  8
F-1_枠
  6
Continuous
 62
   200
370
    20
100
AcDbLine
 10
9.918542843316231
 20
-3994.999936078046
 30
0.0
 11
5849.917643811961
 21
-3995.005364289155
 31
0.0
  0
LINE
  5
6B
330
1F
100
AcDbEntity
  8
F-1_枠
  6
Continuous
 62
   200
370
    20
100
AcDbLine
 10
-5840.081085996952
 20
4174.999769056166
 30
0.0
 11
5859.917429364114
 21
4174.999769056166
 31
0.0
  0
LINE
  5
6C
330
1F
100
AcDbEntity
  8
F-1_枠
  6
Continuous
 62
   200
370
    20
100
AcDbLine
 10
-5840.081085996952
 20
4164.999983504013
 30
0.0
 11
5859.917429364114
 21
4164.999983504013
 31
0.0
  0
LINE
  5
6D
330
1F
100
AcDbEntity
  8
F-1_枠
  6
Continuous
 62
   200
370
    20
100
AcDbLine
 10
-5840.081085996952
 20
4169.999505120355
 30
0.0
 11
5859.917429364114
 21
4169.999505120355
 31
0.0
  0
LINE
  5
6E
330
1F
100
AcDbEntity
  8
F-0_補助線
  6
JWW_HOJO
 62
     7
370
     9
100
AcDbLine
 10
-5830.081323642279
 20
-3994.99993607839
 30
0.0
 11
9.918542843316231
 21
-3994.99993607839
 31
0.0
  0
LINE
  5
6F
330
1F
100
AcDbEntity
  8
F-0_補助線
  6
JWW_HOJO
 62
     7
370
     9
100
AcDbLine
 10
-5830.081323642279
 20
-3904.99993607839
 30
0.0
 11
9.918542843316231
 21
-3904.99993607839
 31
0.0
  0
LINE
  5
70
330
1F
100
AcDbEntity
  8
F-0_補助線
  6
JWW_HOJO
 62
     7
370
     9
100
AcDbLine
 10
-5830.081323642279
 20
-4084.99993607839
 30
0.0
 11
9.918542843316231
 21
-4084.99993607839
 31
0.0
  0
LINE
  5
71
330
1F
100
AcDbEntity
  8
F-0_補助線
  6
JWW_HOJO
 62
     7
370
     9
100
AcDbLine
 10
9.918408067688347
 20
-4139.999739777983
 30
0.0
 11
5849.917509036332
 21
-4140.005167989091
 31
0.0
  0
LINE
  5
72
330
1F
100
AcDbEntity
  8
F-0_補助線
  6
JWW_HOJO
 62
     7
370
     9
100
AcDbLine
 10
9.918491721639953
 20
-4049.999739778022
 30
0.0
 11
5849.917592690284
 21
-4050.005167989131
 31
0.0
  0
LINE
  5
73
330
1F
100
AcDbEntity
  8
F-0_補助線
  6
JWW_HOJO
 62
     7
370
     9
100
AcDbLine
 10
9.918593965360003
 20
-3939.99973721807
 30
0.0
 11
5849.917694934004
 21
-3940.005165429179
 31
0.0
  0
LINE
  5
74
330
1F
100
AcDbEntity
  8
F-0_補助線
  6
JWW_HOJO
 62
     7
370
     9
100
AcDbLine
 10
9.918677619311609
 20
-3849.999737218109
 30
0.0
 11
5849.917778587956
 21
-3850.005165429218
 31
0.0
  0
LINE
  5
75
330
1F
100
AcDbEntity
  8
F-1_枠
  6
Continuous
 62
   200
370
    20
100
AcDbLine
 10
5859.917429364114
 20
-3795.000003092998
 30
0.0
 11
-5840.081085996952
 21
-3795.000003092998
 31
0.0
  0
LINE
  5
76
330
1F
100
AcDbEntity
  8
F-1_枠
  6
Continuous
 62
   200
370
    20
100
AcDbLine
 10
5859.917429364114
 20
-3790.000017526987
 30
0.0
 11
-5840.081085996952
 21
-3790.000017526987
 31
0.0
  0
ELLIPSE
  5
77
330
1F
100
AcDbEntity
  8
戸当り
  6
Continuous
 62
    92
370
    13
100
AcDbEllipse
 10
4855.430917458078
 20
2876.053590301511
 30
0.0
 11
11.36181697857171
 21
42.40287823032828
 31
0.0
210
0.0
220
0.0
230
0.9999999999999999
 40
0.6
 41
1.570796326794897
 42
4.71238898038469
  0
LINE
  5
78
330
1F
100
AcDbEntity
  8
戸当り
  6
Continuous
 62
    92
370
    13
100
AcDbLine
 10
4880.872644396272
 20
2869.236500114367
 30
0.0
 11
4829.989190519878
 21
2882.870680488653
 31
0.0
  0
LINE
  5
79
330
1F
100
AcDbEntity
  8
戸当り
  6
Continuous
 62
    92
370
    13
100
AcDbLine
 10
4884.133764364564
 20
2881.407165525609
 30
0.0
 11
4833.25031048817
 21
2895.041345899896
 31
0.0
  0
ELLIPSE
  5
7A
330
1F
100
AcDbEntity
  8
戸当り
  6
Continuous
 62
    92
370
    13
100
AcDbEllipse
 10
4879.604310755758
 20
2966.269922279796
 30
0.0
 11
21.86569797210526
 21
81.6038957748525
 31
0.0
210
0.0
220
0.0
230
1.0
 40
0.5
 41
4.340591432030095
 42
8.225779182329084
  0
ELLIPSE
  5
7B
330
1F
100
AcDbEntity
  8
戸当り
  6
Continuous
 62
    92
370
    13
100
AcDbEllipse
 10
4878.978687882654
 20
2963.935065931004
 30
0.0
 11
26.49533313827761
 21
98.88192943551533
 31
0.0
210
0.0
220
0.0
230
0.9999999999999999
 40
0.4
 41
3.840308517104466
 42
4.432552034522944
  0
ELLIPSE
  5
7C
330
1F
100
AcDbEntity
  8
戸当り
  6
Continuous
 62
    92
370
    13
100
AcDbEllipse
 10
4878.978687882654
 20
2963.935065931004
 30
0.0
 11
26.49533313827761
 21
98.88192943551533
 31
0.0
210
0.0
220
0.0
230
0.9999999999999999
 40
0.4
 41
1.850633272656679
 42
2.442876790075129
  0
ELLIPSE
  5
7D
330
1F
100
AcDbEntity
  8
戸当り
  6
Continuous
 62
    92
370
    13
100
AcDbEllipse
 10
4740.316707711373
 20
2838.28484693721
 30
0.0
 11
-7.622927487939132
 21
43.23177007461331
 31
0.0
210
0.0
220
0.0
230
1.0
 40
0.6000000000000001
 41
1.570796326794897
 42
4.71238898038469
  0
LINE
  5
7E
330
1F
100
AcDbEntity
  8
戸当り
  6
Continuous
 62
    92
370
    13
100
AcDbLine
 10
4766.255769756144
 20
2842.858603429973
 30
0.0
 11
4714.377645666606
 21
2833.711090444447
 31
0.0
  0
LINE
  5
7F
330
1F
100
AcDbEntity
  8
戸当り
  6
Continuous
 62
    92
370
    13
100
AcDbLine
 10
4764.067802717541
 20
2855.267181117928
 30
0.0
 11
4712.189678628002
 21
2846.1196681324
 31
0.0
  0
ELLIPSE
  5
80
330
1F
100
AcDbEntity
  8
戸当り
  6
Continuous
 62
    92
370
    13
100
AcDbEllipse
 10
4724.098172894875
 20
2930.264728582853
 30
0.0
 11
-14.67024424252691
 21
83.19908946199426
 31
0.0
210
0.0
220
0.0
230
1.0
 40
0.5
 41
4.340591432030095
 42
8.225779182329084
  0
ELLIPSE
  5
81
330
1F
100
AcDbEntity
  8
戸当り
  6
Continuous
 62
    92
370
    13
100
AcDbEllipse
 10
4724.517918944779
 20
2927.884230441196
 30
0.0
 11
-17.7763823922528
 21
100.8148742797557
 31
0.0
210
0.0
220
0.0
230
1.0
 40
0.4000000000000001
 41
3.840308517104466
 42
4.432552034522944
  0
ELLIPSE
  5
82
330
1F
100
AcDbEntity
  8
戸当り
  6
Continuous
 62
    92
370
    13
100
AcDbEllipse
 10
4724.517918944779
 20
2927.884230441196
 30
0.0
 11
-17.7763823922528
 21
100.8148742797557
 31
0.0
210
0.0
220
0.0
230
1.0
 40
0.4000000000000001
 41
1.850633272656679
 42
2.442876790075129
  0
LINE
  5
83
330
1F
100
AcDbEntity
  8
0-A_文字
  6
Continuous
 62
    92
370
    13
100
AcDbLine
 10
5369.917643811961
 20
3684.999983504013
 30
0.0
 11
5369.917643811961
 21
2718.999983504013
 31
0.0
  0
LINE
  5
84
330
1F
100
AcDbEntity
  8
0-A_文字
  6
Continuous
 62
    92
370
    13
100
AcDbLine
 10
5369.917643811961
 20
2718.999983504013
 30
0.0
 11
4229.917643811961
 21
2718.999983504013
 31
0.0
  0
LINE
  5
85
330
1F
100
AcDbEntity
  8
0-A_文字
  6
Continuous
 62
    92
370
    13
100
AcDbLine
 10
4229.917643811961
 20
3684.999983504013
 30
0.0
 11
4229.917643811961
 21
2718.999983504013
 31
0.0
  0
LINE
  5
86
330
1F
100
AcDbEntity
  8
0-0_補助線
  6
JWW_HOJO
 62
   120
370
     5
100
AcDbLine
 10
5339.917643811961
 20
3684.999983504013
 30
0.0
 11
5339.917643811961
 21
2718.999983504013
 31
0.0
  0
LINE
  5
87
330
1F
100
AcDbEntity
  8
0-0_補助線
  6
JWW_HOJO
 62
   120
370
     5
100
AcDbLine
 10
4259.917643811961
 20
3684.999983504013
 30
0.0
 11
4259.917643811961
 21
2718.999983504013
 31
0.0
  0
LINE
  5
88
330
1F
100
AcDbEntity
  8
0-0_補助線
  6
JWW_HOJO
 62
   120
370
     5
100
AcDbLine
 10
4799.917643811961
 20
3684.999983504013
 30
0.0
 11
4799.917643811961
 21
2718.999983504013
 31
0.0
  0
CIRCLE
  5
89
330
1F
100
AcDbEntity
  8
0-0_補助線
  6
JWW_HOJO
 62
   120
370
     5
100
AcDbCircle
 10
5159.917643811961
 20
3385.504011182749
 30
0.0
 40
240.0
  0
CIRCLE
  5
8A
330
1F
100
AcDbEntity
  8
0-0_補助線
  6
JWW_HOJO
 62
   120
370
     5
100
AcDbCircle
 10
4799.917643811961
 20
3385.504011182749
 30
0.0
 40
240.0
  0
CIRCLE
  5
8B
330
1F
100
AcDbEntity
  8
0-0_補助線
  6
JWW_HOJO
 62
   120
370
     5
100
AcDbCircle
 10
4444.047372024825
 20
3385.504011182749
 30
0.0
 40
240.0
  0
LINE
  5
8C
330
1F
100
AcDbEntity
  8
戸当り
  6
Continuous
 62
    40
370
    15
100
AcDbLine
 10
4502.034214636565
 20
3153.681812873372
 30
0.0
 11
4564.150785461171
 21
3385.504011182749
 31
0.0
  0
LINE
  5
8D
330
1F
100
AcDbEntity
  8
戸当り
  6
Continuous
 62
    40
370
    15
100
AcDbLine
 10
4502.034214636565
 20
3153.681812873372
 30
0.0
 11
4439.917643811961
 21
3385.504011182749
 31
0.0
  0
LINE
  5
8E
330
1F
100
AcDbEntity
  8
戸当り
  6
Continuous
 62
    40
370
    15
100
AcDbLine
 10
5035.684502162751
 20
3385.504011182749
 30
0.0
 11
5097.801072987355
 21
3153.681812873372
 31
0.0
  0
LINE
  5
8F
330
1F
100
AcDbEntity
  8
戸当り
  6
Continuous
 62
    40
370
    15
100
AcDbLine
 10
5159.917643811961
 20
3385.504011182749
 30
0.0
 11
5097.801072987355
 21
3153.681812873372
 31
0.0
  0
LINE
  5
90
330
1F
100
AcDbEntity
  8
戸当り
  6
JWW_DASHED2
 62
     7
370
     9
100
AcDbLine
 10
5159.917643811961
 20
3385.504011182749
 30
0.0
 11
4439.917643811961
 21
3385.504011182749
 31
0.0
  0
LINE
  5
91
330
1F
100
AcDbEntity
  8
戸当り
  6
Continuous
 62
    40
370
    15
100
AcDbLine
 10
5159.917643811961
 20
3439.504011182748
 30
0.0
 11
5159.917643811961
 21
3385.504011182749
 31
0.0
  0
LINE
  5
92
330
1F
100
AcDbEntity
  8
戸当り
  6
Continuous
 62
    40
370
    15
100
AcDbLine
 10
5159.917643811961
 20
3439.504011182748
 30
0.0
 11
5339.917643811961
 21
3439.504011182748
 31
0.0
  0
LINE
  5
93
330
1F
100
AcDbEntity
  8
戸当り
  6
Continuous
 62
    40
370
    15
100
AcDbLine
 10
5159.917643811961
 20
3385.504011182749
 30
0.0
 11
5339.917643811961
 21
3385.504011182749
 31
0.0
  0
LINE
  5
94
330
1F
100
AcDbEntity
  8
戸当り
  6
Continuous
 62
    40
370
    15
100
AcDbLine
 10
4439.917643811961
 20
3439.504011182748
 30
0.0
 11
4439.917643811961
 21
3385.504011182749
 31
0.0
  0
LINE
  5
95
330
1F
100
AcDbEntity
  8
戸当り
  6
Continuous
 62
    40
370
    15
100
AcDbLine
 10
4439.917643811961
 20
3439.504011182748
 30
0.0
 11
4259.917643811961
 21
3439.504011182748
 31
0.0
  0
LINE
  5
96
330
1F
100
AcDbEntity
  8
戸当り
  6
Continuous
 62
    40
370
    15
100
AcDbLine
 10
4439.917643811961
 20
3385.504011182749
 30
0.0
 11
4259.917643811961
 21
3385.504011182749
 31
0.0
  0
LINE
  5
97
330
1F
100
AcDbEntity
  8
0-A_文字
  6
Continuous
 62
    92
370
    13
100
AcDbLine
 10
5369.917643811961
 20
3540.999983504012
 30
0.0
 11
4229.917643811961
 21
3540.999983504012
 31
0.0
  0
LINE
  5
98
330
1F
100
AcDbEntity
  8
0-A_文字
  6
Continuous
 62
    92
370
    13
100
AcDbLine
 10
5369.917643811961
 20
3684.999983504013
 30
0.0
 11
4229.917643811961
 21
3684.999983504013
 31
0.0
  0
MTEXT
  5
99
330
1F
100
AcDbEntity
  8
0-A_文字
  6
Continuous
 62
     7
370
     9
100
AcDbMText
 10
4278.667643811961
 20
3554.775383504013
 30
0.0
 40
63.55080000000001
 41
1042.5
 46
0.0
 71
     7
 72
     1
  1
{\fＭＳ ゴシック|b0|i0|c128|p49;上吊軸固定/フリーオープン}
 73
     1
 44
1.0
  0
MTEXT
  5
9A
330
1F
100
AcDbEntity
  8
0-A_文字
  6
Continuous
 62
     7
370
     9
100
AcDbMText
 10
-3620.69057295013
 20
3322.213602323593
 30
0.0
 40
100.584
 41
660.0
 46
0.0
 71
     7
 72
     1
  1
{\fＭＳ ゴシック|b0|i0|c128|p49;■横断面図}
 73
     1
 44
1.0
  0
LINE
  5
9B
330
1F
100
AcDbEntity
  8
0-0_補助線
  6
JWW_HOJO
 62
     7
370
     9
100
AcDbLine
 10
-848.6902140241216
 20
909.2768015132103
 30
0.0
 11
-848.6902140241216
 21
3144.27680151321
 31
0.0
  0
MTEXT
  5
9C
330
1F
100
AcDbEntity
  8
0-A_文字
  6
Continuous
 62
     7
370
     9
100
AcDbMText
 10
-1466.691191405413
 20
829.0701348465436
 30
0.0
 40
79.58666666666667
 41
2820.0
 46
0.0
 71
     7
 72
     1
  1
{\fＭＳ ゴシック|b0|i0|c128|p49;※有効開口寸法は扉の厚さや調整によって若干異なります。}
 73
     1
 44
1.0
  0
MTEXT
  5
9D
330
1F
100
AcDbEntity
  8
0-A_文字
  6
Continuous
 62
     7
370
     9
100
AcDbMText
 10
-941.6911914054128
 20
934.0220287859374
 30
0.0
 40
79.49045454545431
 41
2294.999999999993
 46
0.0
 71
     7
 72
     1
  1
{\fＭＳ ゴシック|b0|i0|c128|p49;※有効開口寸法にはハンドルの突出は含まない。}
 73
     1
 44
1.0
  0
MTEXT
  5
9E
330
1F
100
AcDbEntity
  8
0-B_寸法
  6
Continuous
 62
     7
370
   211
100
AcDbMText
 10
-929.6246614170036
 20
1449.99680151321
 30
0.0
 40
91.44
 41
60.0
 46
0.0
 71
     7
 72
     1
  1
{\fＭＳ ゴシック|b0|i0|c128|p49;2}
 73
     1
 44
1.0
  0
LINE
  5
9F
330
1F
100
AcDbEntity
  8
0-B_寸法
  6
Continuous
 62
   120
370
     5
100
AcDbLine
 10
-854.690214024123
 20
1449.27680151321
 30
0.0
 11
-854.690214024123
 21
1809.27680151321
 31
0.0
  0
LWPOLYLINE
  5
A0
330
1F
100
AcDbEntity
  8
0-B_寸法
  6
Continuous
 62
     7
370
     9
100
AcDbPolyline
 90
        4
 70
     1
 43
3.0
 10
-853.190214024123
 20
1449.27680151321
 42
0.4142135623731
 10
-854.690214024123
 20
1450.77680151321
 42
0.4142135623731
 10
-856.190214024123
 20
1449.27680151321
 42
0.4142135623731
 10
-854.690214024123
 20
1447.77680151321
 42
0.4142135623731
  0
LINE
  5
A1
330
1F
100
AcDbEntity
  8
0-B_寸法
  6
Continuous
 62
   120
370
     5
100
AcDbLine
 10
-1841.690554256878
 20
1629.27680151321
 30
0.0
 11
-1841.690554256878
 21
1809.27680151321
 31
0.0
  0
LWPOLYLINE
  5
A2
330
1F
100
AcDbEntity
  8
0-B_寸法
  6
Continuous
 62
     7
370
     9
100
AcDbPolyline
 90
        4
 70
     1
 43
3.0
 10
-853.190214024123
 20
1629.27680151321
 42
0.4142135623731
 10
-854.690214024123
 20
1630.77680151321
 42
0.4142135623731
 10
-856.190214024123
 20
1629.27680151321
 42
0.4142135623731
 10
-854.690214024123
 20
1627.77680151321
 42
0.4142135623731
  0
LWPOLYLINE
  5
A3
330
1F
100
AcDbEntity
  8
0-B_寸法
  6
Continuous
 62
     7
370
     9
100
AcDbPolyline
 90
        4
 70
     1
 43
3.0
 10
-1840.190554256878
 20
1629.27680151321
 42
0.4142135623731
 10
-1841.690554256878
 20
1630.77680151321
 42
0.4142135623731
 10
-1843.190554256878
 20
1629.27680151321
 42
0.4142135623731
 10
-1841.690554256878
 20
1627.77680151321
 42
0.4142135623731
  0
LINE
  5
A4
330
1F
100
AcDbEntity
  8
0-B_寸法
  6
Continuous
 62
   120
370
     5
100
AcDbLine
 10
-1841.690554256878
 20
1629.27680151321
 30
0.0
 11
-854.690214024123
 21
1629.27680151321
 31
0.0
  0
LINE
  5
A5
330
1F
100
AcDbEntity
  8
0-6_扉
  6
Continuous
 62
   200
370
    20
100
AcDbLine
 10
-1316.690365582516
 20
2283.276801513211
 30
0.0
 11
-854.690214024123
 21
2283.276801513211
 31
0.0
  0
LINE
  5
A6
330
1F
100
AcDbEntity
  8
0-6_扉
  6
Continuous
 62
   200
370
    20
100
AcDbLine
 10
-854.690214024123
 20
2283.276801513211
 30
0.0
 11
-854.690214024123
 21
2445.278098097883
 31
0.0
  0
LINE
  5
A7
330
1F
100
AcDbEntity
  8
0-6_扉
  6
Continuous
 62
   200
370
    20
100
AcDbLine
 10
-1316.690365582516
 20
2445.278098097883
 30
0.0
 11
-854.690214024123
 21
2445.278098097883
 31
0.0
  0
LINE
  5
A8
330
1F
100
AcDbEntity
  8
0-6_扉
  6
Continuous
 62
   200
370
    20
100
AcDbLine
 10
-1841.690554256878
 20
2283.276801513211
 30
0.0
 11
-1376.690365582516
 21
2283.276801513211
 31
0.0
  0
LINE
  5
A9
330
1F
100
AcDbEntity
  8
0-6_扉
  6
Continuous
 62
   200
370
    20
100
AcDbLine
 10
-1841.690554256878
 20
2445.276801513211
 30
0.0
 11
-1376.690365582516
 21
2445.276801513211
 31
0.0
  0
LINE
  5
AA
330
1F
100
AcDbEntity
  8
0-6_扉
  6
Continuous
 62
   200
370
    20
100
AcDbLine
 10
-1841.690554256878
 20
2445.278098097883
 30
0.0
 11
-1376.690365582516
 21
2445.278098097883
 31
0.0
  0
LINE
  5
AB
330
1F
100
AcDbEntity
  8
0-0_補助線
  6
JWW_HOJO
 62
     7
370
     9
100
AcDbLine
 10
-1376.690365582516
 20
2445.278098097883
 30
0.0
 11
-1376.690365582516
 21
2283.276801513211
 31
0.0
  0
LINE
  5
AC
330
1F
100
AcDbEntity
  8
0-0_補助線
  6
JWW_HOJO
 62
     7
370
     9
100
AcDbLine
 10
-1316.690365582516
 20
2445.278098097883
 30
0.0
 11
-1316.690365582516
 21
2283.276801513211
 31
0.0
  0
LINE
  5
AD
330
1F
100
AcDbEntity
  8
0-6_扉
  6
Continuous
 62
   200
370
    20
100
AcDbLine
 10
-1841.690554256878
 20
2445.278098097883
 30
0.0
 11
-1841.690554256878
 21
2283.276801513211
 31
0.0
  0
CIRCLE
  5
AE
330
1F
100
AcDbEntity
  8
0-A_文字
  6
Continuous
 62
     7
370
     9
100
AcDbCircle
 10
-1844.690517140907
 20
2475.276801513211
 30
0.0
 40
30.0
  0
CIRCLE
  5
AF
330
1F
100
AcDbEntity
  8
0-A_文字
  6
Continuous
 62
     7
370
     9
100
AcDbCircle
 10
-1844.690517140907
 20
2475.276801513211
 30
0.0
 40
21.00000000000001
  0
LINE
  5
B0
330
1F
100
AcDbEntity
  8
0-0_補助線
  6
JWW_HOJO
 62
     7
370
     9
100
AcDbLine
 10
-1844.690554256879
 20
909.2768015132103
 30
0.0
 11
-1844.690554256879
 21
3144.27680151321
 31
0.0
  0
LINE
  5
B1
330
1F
100
AcDbEntity
  8
0-B_寸法
  6
Continuous
 62
   120
370
     5
100
AcDbLine
 10
-2855.690300622059
 20
1449.27680151321
 30
0.0
 11
-2855.690300622059
 21
1809.27680151321
 31
0.0
  0
LWPOLYLINE
  5
B2
330
1F
100
AcDbEntity
  8
0-B_寸法
  6
Continuous
 62
     7
370
     9
100
AcDbPolyline
 90
        4
 70
     1
 43
3.0
 10
-2854.190300622059
 20
1449.27680151321
 42
0.4142135623731
 10
-2855.690300622059
 20
1450.77680151321
 42
0.4142135623731
 10
-2857.190300622059
 20
1449.27680151321
 42
0.4142135623731
 10
-2855.690300622059
 20
1447.77680151321
 42
0.4142135623731
  0
LINE
  5
B3
330
1F
100
AcDbEntity
  8
0-B_寸法
  6
Continuous
 62
   120
370
     5
100
AcDbLine
 10
-2855.690300622059
 20
1449.27680151321
 30
0.0
 11
-854.690214024123
 21
1449.27680151321
 31
0.0
  0
LINE
  5
B4
330
1F
100
AcDbEntity
  8
0-B_寸法
  6
Continuous
 62
   120
370
     5
100
AcDbLine
 10
-1847.69055425688
 20
1629.27680151321
 30
0.0
 11
-1847.69055425688
 21
1809.27680151321
 31
0.0
  0
LWPOLYLINE
  5
B5
330
1F
100
AcDbEntity
  8
0-B_寸法
  6
Continuous
 62
     7
370
     9
100
AcDbPolyline
 90
        4
 70
     1
 43
3.0
 10
-1846.19055425688
 20
1629.27680151321
 42
0.4142135623731
 10
-1847.69055425688
 20
1630.77680151321
 42
0.4142135623731
 10
-1849.19055425688
 20
1629.27680151321
 42
0.4142135623731
 10
-1847.69055425688
 20
1627.77680151321
 42
0.4142135623731
  0
LWPOLYLINE
  5
B6
330
1F
100
AcDbEntity
  8
0-B_寸法
  6
Continuous
 62
     7
370
     9
100
AcDbPolyline
 90
        4
 70
     1
 43
3.0
 10
-2854.190300622059
 20
1629.27680151321
 42
0.4142135623731
 10
-2855.690300622059
 20
1630.77680151321
 42
0.4142135623731
 10
-2857.190300622059
 20
1629.27680151321
 42
0.4142135623731
 10
-2855.690300622059
 20
1627.77680151321
 42
0.4142135623731
  0
LINE
  5
B7
330
1F
100
AcDbEntity
  8
0-B_寸法
  6
Continuous
 62
   120
370
     5
100
AcDbLine
 10
-2855.690300622059
 20
1629.27680151321
 30
0.0
 11
-1847.69055425688
 21
1629.27680151321
 31
0.0
  0
LINE
  5
B8
330
1F
100
AcDbEntity
  8
0-6_扉
  6
Continuous
 62
   200
370
    20
100
AcDbLine
 10
-2312.690742931241
 20
2283.276801513211
 30
0.0
 11
-1847.69055425688
 21
2283.276801513211
 31
0.0
  0
LINE
  5
B9
330
1F
100
AcDbEntity
  8
0-6_扉
  6
Continuous
 62
   200
370
    20
100
AcDbLine
 10
-2312.690742931241
 20
2445.278098097883
 30
0.0
 11
-1847.69055425688
 21
2445.278098097883
 31
0.0
  0
LINE
  5
BA
330
1F
100
AcDbEntity
  8
0-6_扉
  6
Continuous
 62
   200
370
    20
100
AcDbLine
 10
-1847.69055425688
 20
2445.278098097883
 30
0.0
 11
-1847.69055425688
 21
2283.276801513211
 31
0.0
  0
LWPOLYLINE
  5
BB
330
1F
100
AcDbEntity
  8
0-B_寸法
  6
Continuous
 62
     7
370
     9
100
AcDbPolyline
 90
        4
 70
     1
 43
3.0
 10
-2174.814191890683
 20
2283.276801513211
 42
0.4142135623731
 10
-2176.314191890683
 20
2284.776801513211
 42
0.4142135623731
 10
-2177.814191890683
 20
2283.276801513211
 42
0.4142135623731
 10
-2176.314191890683
 20
2281.776801513211
 42
0.4142135623731
  0
LWPOLYLINE
  5
BC
330
1F
100
AcDbEntity
  8
0-B_寸法
  6
Continuous
 62
     7
370
     9
100
AcDbPolyline
 90
        4
 70
     1
 43
3.0
 10
-2174.814191890683
 20
2445.276801513211
 42
0.4142135623731
 10
-2176.314191890683
 20
2446.776801513211
 42
0.4142135623731
 10
-2177.814191890683
 20
2445.276801513211
 42
0.4142135623731
 10
-2176.314191890683
 20
2443.776801513212
 42
0.4142135623731
  0
LINE
  5
BD
330
1F
100
AcDbEntity
  8
0-B_寸法
  6
Continuous
 62
   120
370
     5
100
AcDbLine
 10
-2176.314191890683
 20
2283.276158169671
 30
0.0
 11
-2176.314191890683
 21
2445.276801513211
 31
0.0
  0
MTEXT
  5
BE
330
1F
100
AcDbEntity
  8
0-B_寸法
  6
Continuous
 62
     7
370
     0
100
AcDbMText
 10
-2029.022296377141
 20
2227.746029500964
 30
0.0
 40
91.44
 41
240.0
 46
0.0
 71
     7
 72
     1
  1
{\fＭＳ ゴシック|b0|i0|c128|p49;(24)}
 11
6.123031769111886E-17
 21
1.0
 31
0.0
 73
     1
 44
1.0
  0
MTEXT
  5
BF
330
1F
100
AcDbEntity
  8
0-B_寸法
  6
Continuous
 62
     7
370
     0
100
AcDbMText
 10
-2191.314241378645
 20
2287.746029500964
 30
0.0
 40
91.44
 41
120.0
 46
0.0
 71
     7
 72
     1
  1
{\fＭＳ ゴシック|b0|i0|c128|p49;27}
 11
6.123031769111886E-17
 21
1.0
 31
0.0
 73
     1
 44
1.0
  0
LINE
  5
C0
330
1F
100
AcDbEntity
  8
0-6_扉
  6
Continuous
 62
   200
370
    20
100
AcDbLine
 10
-2855.69020165813
 20
2283.276801513211
 30
0.0
 11
-2372.690742931241
 21
2283.276801513211
 31
0.0
  0
LINE
  5
C1
330
1F
100
AcDbEntity
  8
0-6_扉
  6
Continuous
 62
   200
370
    20
100
AcDbLine
 10
-2855.69020165813
 20
2445.278098097883
 30
0.0
 11
-2372.690742931241
 21
2445.278098097883
 31
0.0
  0
LINE
  5
C2
330
1F
100
AcDbEntity
  8
0-0_補助線
  6
JWW_HOJO
 62
     7
370
     9
100
AcDbLine
 10
-2372.690742931241
 20
2445.278098097883
 30
0.0
 11
-2372.690742931241
 21
2283.276801513211
 31
0.0
  0
LINE
  5
C3
330
1F
100
AcDbEntity
  8
0-0_補助線
  6
JWW_HOJO
 62
     7
370
     9
100
AcDbLine
 10
-2312.690742931241
 20
2445.278098097883
 30
0.0
 11
-2312.690742931241
 21
2283.276801513211
 31
0.0
  0
LINE
  5
C4
330
1F
100
AcDbEntity
  8
0-6_扉
  6
Continuous
 62
   200
370
    20
100
AcDbLine
 10
-2855.69020165813
 20
2445.278098097883
 30
0.0
 11
-2855.69020165813
 21
2283.276801513211
 31
0.0
  0
LWPOLYLINE
  5
C5
330
1F
100
AcDbEntity
  8
0-B_寸法
  6
Continuous
 62
     7
370
     9
100
AcDbPolyline
 90
        4
 70
     1
 43
3.0
 10
-2414.488298946506
 20
2088.277598269442
 42
0.4142135623731
 10
-2415.988298946506
 20
2089.777598269442
 42
0.4142135623731
 10
-2417.488298946506
 20
2088.277598269442
 42
0.4142135623731
 10
-2415.988298946506
 20
2086.777598269442
 42
0.4142135623731
  0
LINE
  5
C6
330
1F
100
AcDbEntity
  8
0-B_寸法
  6
Continuous
 62
   120
370
     5
100
AcDbLine
 10
-2534.763867728178
 20
2088.277598269442
 30
0.0
 11
-2415.988298946506
 21
2088.277598269442
 31
0.0
  0
LWPOLYLINE
  5
C7
330
1F
100
AcDbEntity
  8
0-B_寸法
  6
Continuous
 62
     7
370
     9
100
AcDbPolyline
 90
        4
 70
     1
 43
3.0
 10
-2414.488298946506
 20
2640.27674707645
 42
0.4142135623731
 10
-2415.988298946506
 20
2641.77674707645
 42
0.4142135623731
 10
-2417.488298946506
 20
2640.27674707645
 42
0.4142135623731
 10
-2415.988298946506
 20
2638.77674707645
 42
0.4142135623731
  0
LINE
  5
C8
330
1F
100
AcDbEntity
  8
0-B_寸法
  6
Continuous
 62
   120
370
     5
100
AcDbLine
 10
-2534.763867728178
 20
2640.27674707645
 30
0.0
 11
-2415.988298946506
 21
2640.27674707645
 31
0.0
  0
LINE
  5
C9
330
1F
100
AcDbEntity
  8
0-B_寸法
  6
Continuous
 62
   120
370
     5
100
AcDbLine
 10
-2415.988298946506
 20
2088.277598269442
 30
0.0
 11
-2415.988298946506
 21
2640.27674707645
 31
0.0
  0
MTEXT
  5
CA
330
1F
100
AcDbEntity
  8
0-B_寸法
  6
Continuous
 62
     7
370
     9
100
AcDbMText
 10
-2430.989461913672
 20
2290.206418088888
 30
0.0
 40
91.44
 41
120.0
 46
0.0
 71
     7
 72
     1
  1
{\fＭＳ ゴシック|b0|i0|c128|p49;92}
 11
6.123031769111886E-17
 21
1.0
 31
0.0
 73
     1
 44
1.0
  0
MTEXT
  5
CB
330
1F
100
AcDbEntity
  8
0-B_寸法
  6
Continuous
 62
     7
370
     9
100
AcDbMText
 10
-2845.61083188832
 20
2314.160286110086
 30
0.0
 40
91.44
 41
180.0
 46
0.0
 71
     7
 72
     1
  1
{\fＭＳ ゴシック|b0|i0|c128|p49;2.5}
 73
     1
 44
1.0
  0
ARC
  5
CC
330
1F
100
AcDbEntity
  8
0-6_扉
  6
JWW_DASHED2
 62
    40
370
    15
100
AcDbCircle
 10
-2164.538947227127
 20
2529.49673574327
 30
0.0
 40
18.0
100
AcDbArc
 50
355.653979278361
 51
85.65397927836072
  0
LINE
  5
CD
330
1F
100
AcDbEntity
  8
0-6_扉
  6
JWW_DASHED2
 62
    40
370
    15
100
AcDbLine
 10
-2288.812611525786
 20
2556.993214823033
 30
0.0
 11
-2163.174913441934
 21
2547.444978326677
 31
0.0
  0
ARC
  5
CE
330
1F
100
AcDbEntity
  8
0-6_扉
  6
JWW_DASHED2
 62
    40
370
    15
100
AcDbCircle
 10
-2290.176645310979
 20
2539.044972239626
 30
0.0
 40
18.0
100
AcDbArc
 50
85.6539792783607
 51
175.6539792783611
  0
ARC
  5
CF
330
1F
100
AcDbEntity
  8
0-6_扉
  6
JWW_DASHED2
 62
    40
370
    15
100
AcDbCircle
 10
-2615.455587116771
 20
2540.409006024817
 30
0.0
 40
18.0
100
AcDbArc
 50
4.346020721639738
 51
94.3460207216407
  0
LINE
  5
D0
330
1F
100
AcDbEntity
  8
0-6_扉
  6
JWW_DASHED2
 62
    40
370
    15
100
AcDbLine
 10
-2742.457318985823
 20
2548.809012111867
 30
0.0
 11
-2616.819620901967
 21
2558.357248608225
 31
0.0
  0
ARC
  5
D1
330
1F
100
AcDbEntity
  8
0-6_扉
  6
JWW_DASHED2
 62
    40
370
    15
100
AcDbCircle
 10
-2741.093285200627
 20
2530.86076952846
 30
0.0
 40
18.0
100
AcDbArc
 50
94.34602072164084
 51
184.3460207216404
  0
LINE
  5
D2
330
1F
100
AcDbEntity
  8
0-6_扉
  6
JWW_DASHED2
 62
    40
370
    15
100
AcDbLine
 10
-2146.590704643718
 20
2528.132701958077
 30
0.0
 11
-2180.018892346939
 21
2088.277598269442
 31
0.0
  0
LINE
  5
D3
330
1F
100
AcDbEntity
  8
0-6_扉
  6
JWW_DASHED2
 62
    40
370
    15
100
AcDbLine
 10
-2759.041527784036
 20
2529.496735743266
 30
0.0
 11
-2725.509675994562
 21
2088.277598269442
 31
0.0
  0
LINE
  5
D4
330
1F
100
AcDbEntity
  8
0-6_扉
  6
JWW_DASHED2
 62
    40
370
    15
100
AcDbLine
 10
-2308.124887894385
 20
2540.409006024817
 30
0.0
 11
-2342.486052373824
 21
2088.277598269442
 31
0.0
  0
LINE
  5
D5
330
1F
100
AcDbEntity
  8
0-6_扉
  6
JWW_DASHED2
 62
    40
370
    15
100
AcDbLine
 10
-2597.507344533369
 20
2541.773039810011
 30
0.0
 11
-2563.042515967672
 21
2088.277598269442
 31
0.0
  0
LWPOLYLINE
  5
D6
330
1F
100
AcDbEntity
  8
0-B_寸法
  6
Continuous
 62
     7
370
     9
100
AcDbPolyline
 90
        4
 70
     1
 43
3.0
 10
-2145.090704643718
 20
2964.27680151321
 42
0.4142135623731
 10
-2146.590704643718
 20
2965.77680151321
 42
0.4142135623731
 10
-2148.090704643718
 20
2964.27680151321
 42
0.4142135623731
 10
-2146.590704643718
 20
2962.776801513211
 42
0.4142135623731
  0
LINE
  5
D7
330
1F
100
AcDbEntity
  8
0-B_寸法
  6
Continuous
 62
   120
370
     5
100
AcDbLine
 10
-2146.590704643718
 20
2964.27680151321
 30
0.0
 11
-2146.590704643718
 21
2784.27680151321
 31
0.0
  0
LINE
  5
D8
330
1F
100
AcDbEntity
  8
0-1_通り芯
  6
JWW_CENTER1
 62
   120
370
     5
100
AcDbLine
 10
-2146.590704643718
 20
2784.27680151321
 30
0.0
 11
-2146.590704643718
 21
2530.860769528465
 31
0.0
  0
LINE
  5
D9
330
1F
100
AcDbEntity
  8
0-0_補助線
  6
JWW_HOJO
 62
     7
370
     9
100
AcDbLine
 10
-2840.690894489633
 20
909.2768015132103
 30
0.0
 11
-2840.690894489633
 21
3144.27680151321
 31
0.0
  0
LWPOLYLINE
  5
DA
330
1F
100
AcDbEntity
  8
0-B_寸法
  6
Continuous
 62
     7
370
     9
100
AcDbPolyline
 90
        4
 70
     1
 43
3.0
 10
-2854.19020165813
 20
2326.690851220751
 42
0.4142135623731
 10
-2855.69020165813
 20
2328.190851220751
 42
0.4142135623731
 10
-2857.190201658129
 20
2326.690851220751
 42
0.4142135623731
 10
-2855.69020165813
 20
2325.190851220751
 42
0.4142135623731
  0
LINE
  5
DB
330
1F
100
AcDbEntity
  8
0-B_寸法
  6
Continuous
 62
   120
370
     5
100
AcDbLine
 10
-2855.69020165813
 20
2408.020114443934
 30
0.0
 11
-2855.69020165813
 21
2326.690851220751
 31
0.0
  0
MTEXT
  5
DC
330
1F
100
AcDbEntity
  8
0-B_寸法
  6
Continuous
 62
     7
370
   211
100
AcDbMText
 10
-3095.690201658123
 20
1089.99680151321
 30
0.0
 40
91.44
 41
60.0
 46
0.0
 71
     7
 72
     1
  1
{\fＭＳ ゴシック|b0|i0|c128|p49;5}
 73
     1
 44
1.0
  0
LINE
  5
DD
330
1F
100
AcDbEntity
  8
0-B_寸法
  6
Continuous
 62
   120
370
     5
100
AcDbLine
 10
-3050.69020165813
 20
1089.27680151321
 30
0.0
 11
-3050.69020165813
 21
1989.27680151321
 31
0.0
  0
LINE
  5
DE
330
1F
100
AcDbEntity
  8
0-B_寸法
  6
Continuous
 62
   120
370
     5
100
AcDbLine
 10
-3080.690201658116
 20
1089.27680151321
 30
0.0
 11
-3080.690201658116
 21
1989.27680151321
 31
0.0
  0
LWPOLYLINE
  5
DF
330
1F
100
AcDbEntity
  8
0-B_寸法
  6
Continuous
 62
     7
370
     9
100
AcDbPolyline
 90
        4
 70
     1
 43
3.0
 10
-3049.19020165813
 20
1089.27680151321
 42
0.4142135623731
 10
-3050.69020165813
 20
1090.77680151321
 42
0.4142135623731
 10
-3052.190201658129
 20
1089.27680151321
 42
0.4142135623731
 10
-3050.69020165813
 20
1087.77680151321
 42
0.4142135623731
  0
LWPOLYLINE
  5
E0
330
1F
100
AcDbEntity
  8
0-B_寸法
  6
Continuous
 62
     7
370
     9
100
AcDbPolyline
 90
        4
 70
     1
 43
3.0
 10
-3079.190201658116
 20
1089.27680151321
 42
0.4142135623731
 10
-3080.690201658116
 20
1090.77680151321
 42
0.4142135623731
 10
-3082.190201658116
 20
1089.27680151321
 42
0.4142135623731
 10
-3080.690201658116
 20
1087.77680151321
 42
0.4142135623731
  0
LINE
  5
E1
330
1F
100
AcDbEntity
  8
0-B_寸法
  6
Continuous
 62
   120
370
     5
100
AcDbLine
 10
-3080.690201658116
 20
1089.27680151321
 30
0.0
 11
-3050.69020165813
 21
1089.27680151321
 31
0.0
  0
MTEXT
  5
E2
330
1F
100
AcDbEntity
  8
0-B_寸法
  6
Continuous
 62
     7
370
   211
100
AcDbMText
 10
-3020.69020165813
 20
1269.99680151321
 30
0.0
 40
91.44
 41
120.0
 46
0.0
 71
     7
 72
     1
  1
{\fＭＳ ゴシック|b0|i0|c128|p49;30}
 73
     1
 44
1.0
  0
LINE
  5
E3
330
1F
100
AcDbEntity
  8
0-B_寸法
  6
Continuous
 62
   120
370
     5
100
AcDbLine
 10
-2870.69020165813
 20
1269.27680151321
 30
0.0
 11
-2870.69020165813
 21
1989.27680151321
 31
0.0
  0
LWPOLYLINE
  5
E4
330
1F
100
AcDbEntity
  8
0-B_寸法
  6
Continuous
 62
     7
370
     9
100
AcDbPolyline
 90
        4
 70
     1
 43
3.0
 10
-2869.19020165813
 20
1269.27680151321
 42
0.4142135623731
 10
-2870.69020165813
 20
1270.77680151321
 42
0.4142135623731
 10
-2872.190201658129
 20
1269.27680151321
 42
0.4142135623731
 10
-2870.69020165813
 20
1267.77680151321
 42
0.4142135623731
  0
LWPOLYLINE
  5
E5
330
1F
100
AcDbEntity
  8
0-B_寸法
  6
Continuous
 62
     7
370
     9
100
AcDbPolyline
 90
        4
 70
     1
 43
3.0
 10
-3049.19020165813
 20
1269.27680151321
 42
0.4142135623731
 10
-3050.69020165813
 20
1270.77680151321
 42
0.4142135623731
 10
-3052.190201658129
 20
1269.27680151321
 42
0.4142135623731
 10
-3050.69020165813
 20
1267.77680151321
 42
0.4142135623731
  0
LINE
  5
E6
330
1F
100
AcDbEntity
  8
0-B_寸法
  6
Continuous
 62
   120
370
     5
100
AcDbLine
 10
-3050.69020165813
 20
1269.27680151321
 30
0.0
 11
-2870.69020165813
 21
1269.27680151321
 31
0.0
  0
LINE
  5
E7
330
1F
100
AcDbEntity
  8
0-7_金物
  6
Continuous
 62
     7
370
     9
100
AcDbLine
 10
-3050.69020165813
 20
2418.276835845485
 30
0.0
 11
-3056.690270322671
 21
2418.276835845485
 31
0.0
  0
LINE
  5
E8
330
1F
100
AcDbEntity
  8
0-7_金物
  6
Continuous
 62
     7
370
     9
100
AcDbLine
 10
-3056.690270322671
 20
2310.276767180935
 30
0.0
 11
-3050.69020165813
 21
2310.276767180935
 31
0.0
  0
LINE
  5
E9
330
1F
100
AcDbEntity
  8
0-7_金物
  6
Continuous
 62
     7
370
     9
100
AcDbLine
 10
-3056.690270322671
 20
2304.276601241604
 30
0.0
 11
-3056.690270322671
 21
2424.27625791885
 31
0.0
  0
LINE
  5
EA
330
1F
100
AcDbEntity
  8
0-7_金物
  6
Continuous
 62
     7
370
     9
100
AcDbLine
 10
-3068.689864057414
 20
2424.27625791885
 30
0.0
 11
-3056.690270322671
 21
2424.27625791885
 31
0.0
  0
LINE
  5
EB
330
1F
100
AcDbEntity
  8
0-7_金物
  6
Continuous
 62
     7
370
     9
100
AcDbLine
 10
-3068.689864057414
 20
2304.276601241604
 30
0.0
 11
-3056.690270322671
 21
2304.276601241604
 31
0.0
  0
LINE
  5
EC
330
1F
100
AcDbEntity
  8
0-7_金物
  6
Continuous
 62
     7
370
     9
100
AcDbLine
 10
-3080.690201658116
 20
2274.27649824478
 30
0.0
 11
-3080.690201658116
 21
2454.276360915675
 31
0.0
  0
LINE
  5
ED
330
1F
100
AcDbEntity
  8
0-7_金物
  6
Continuous
 62
     7
370
     9
100
AcDbLine
 10
-3080.690201658116
 20
2274.27649824478
 30
0.0
 11
-3068.689864057414
 21
2274.27649824478
 31
0.0
  0
LINE
  5
EE
330
1F
100
AcDbEntity
  8
0-7_金物
  6
Continuous
 62
     7
370
     9
100
AcDbLine
 10
-3080.690201658116
 20
2454.276360915675
 30
0.0
 11
-3068.689864057414
 21
2454.276360915675
 31
0.0
  0
LINE
  5
EF
330
1F
100
AcDbEntity
  8
0-7_金物
  6
Continuous
 62
     7
370
     9
100
AcDbLine
 10
-3068.689864057414
 20
2274.27649824478
 30
0.0
 11
-3068.689864057414
 21
2454.276360915675
 31
0.0
  0
LINE
  5
F0
330
1F
100
AcDbEntity
  8
0-4_枠
  6
Continuous
 62
    92
370
    13
100
AcDbLine
 10
-3050.69020165813
 20
2640.27674707645
 30
0.0
 11
-3050.69020165813
 21
2130.277598269442
 31
0.0
  0
LINE
  5
F1
330
1F
100
AcDbEntity
  8
0-4_枠
  6
Continuous
 62
    92
370
    13
100
AcDbLine
 10
-3020.69020165813
 20
2130.277598269442
 30
0.0
 11
-3050.69020165813
 21
2130.277598269442
 31
0.0
  0
LINE
  5
F2
330
1F
100
AcDbEntity
  8
0-4_枠
  6
Continuous
 62
    92
370
    13
100
AcDbLine
 10
-2984.690201658128
 20
2088.277598269442
 30
0.0
 11
-3020.69020165813
 21
2088.277598269442
 31
0.0
  0
LINE
  5
F3
330
1F
100
AcDbEntity
  8
0-C_ハッチ
  6
Continuous
 62
   120
370
     5
100
AcDbLine
 10
-2972.896457596686
 20
2640.27674707645
 30
0.0
 11
-2870.69020165813
 21
2538.071233457363
 31
0.0
  0
LINE
  5
F4
330
1F
100
AcDbEntity
  8
0-C_ハッチ
  6
Continuous
 62
   120
370
     5
100
AcDbLine
 10
-3050.690424353974
 20
2633.218031256138
 30
0.0
 11
-2870.69020165813
 21
2453.218179720031
 31
0.0
  0
LINE
  5
F5
330
1F
100
AcDbEntity
  8
0-C_ハッチ
  6
Continuous
 62
   120
370
     5
100
AcDbLine
 10
-3050.690424353974
 20
2293.806558626281
 30
0.0
 11
-2870.69020165813
 21
2113.806707090174
 31
0.0
  0
LINE
  5
F6
330
1F
100
AcDbEntity
  8
0-C_ハッチ
  6
Continuous
 62
   120
370
     5
100
AcDbLine
 10
-2870.69020165813
 20
2283.512072245368
 30
0.0
 11
-3050.690424353974
 21
2463.511923781475
 31
0.0
  0
LINE
  5
F7
330
1F
100
AcDbEntity
  8
0-C_ハッチ
  6
Continuous
 62
   120
370
     5
100
AcDbLine
 10
-2870.69020165813
 20
2198.659018508038
 30
0.0
 11
-3050.690424353974
 21
2378.659612363613
 31
0.0
  0
LINE
  5
F8
330
1F
100
AcDbEntity
  8
0-C_ハッチ
  6
Continuous
 62
   120
370
     5
100
AcDbLine
 10
-3050.690424353974
 20
2548.364977518806
 30
0.0
 11
-2870.69020165813
 21
2368.364383663234
 31
0.0
  0
LINE
  5
F9
330
1F
100
AcDbEntity
  8
0-4_枠
  6
Continuous
 62
    92
370
    13
100
AcDbLine
 10
-2876.690201658124
 20
2088.277598269442
 30
0.0
 11
-2930.69020165813
 21
2088.277598269442
 31
0.0
  0
LINE
  5
FA
330
1F
100
AcDbEntity
  8
0-4_枠
  6
Continuous
 62
    92
370
    13
100
AcDbLine
 10
-2870.69020165813
 20
2094.277598269442
 30
0.0
 11
-2876.690201658124
 21
2088.277598269442
 31
0.0
  0
LINE
  5
FB
330
1F
100
AcDbEntity
  8
0-4_枠
  6
Continuous
 62
    92
370
    13
100
AcDbLine
 10
-2876.690201658124
 20
2640.27674707645
 30
0.0
 11
-3050.69020165813
 21
2640.27674707645
 31
0.0
  0
LINE
  5
FC
330
1F
100
AcDbEntity
  8
0-4_枠
  6
Continuous
 62
    92
370
    13
100
AcDbLine
 10
-2870.69020165813
 20
2634.276747076451
 30
0.0
 11
-2870.69020165813
 21
2094.277598269442
 31
0.0
  0
LINE
  5
FD
330
1F
100
AcDbEntity
  8
0-4_枠
  6
Continuous
 62
    92
370
    13
100
AcDbLine
 10
-2876.690201658124
 20
2640.27674707645
 30
0.0
 11
-2870.69020165813
 21
2634.276747076451
 31
0.0
  0
LINE
  5
FE
330
1F
100
AcDbEntity
  8
0-C_ハッチ
  6
Continuous
 62
   120
370
     5
100
AcDbLine
 10
-3050.69020165813
 20
2590.609856558667
 30
0.0
 11
-3049.023311140349
 21
2592.276747076445
 31
0.0
  0
LINE
  5
FF
330
1F
100
AcDbEntity
  8
0-4_枠
  6
Continuous
 62
    92
370
    13
100
AcDbLine
 10
-2984.690201658128
 20
2148.277598269442
 30
0.0
 11
-2984.690201658128
 21
2088.277598269442
 31
0.0
  0
LINE
  5
100
330
1F
100
AcDbEntity
  8
0-4_枠
  6
Continuous
 62
    92
370
    13
100
AcDbLine
 10
-2930.69020165813
 20
2148.277598269442
 30
0.0
 11
-2984.690201658128
 21
2148.277598269442
 31
0.0
  0
LINE
  5
101
330
1F
100
AcDbEntity
  8
0-4_枠
  6
Continuous
 62
    92
370
    13
100
AcDbLine
 10
-2930.69020165813
 20
2148.277598269442
 30
0.0
 11
-2930.69020165813
 21
2088.277598269442
 31
0.0
  0
LINE
  5
102
330
1F
100
AcDbEntity
  8
0-C_ハッチ
  6
Continuous
 62
   120
370
     5
100
AcDbLine
 10
-3050.690424353974
 20
2208.95350488895
 30
0.0
 11
-2984.690201658128
 21
2142.953649589685
 31
0.0
  0
LINE
  5
103
330
1F
100
AcDbEntity
  8
0-0_補助線
  6
JWW_HOJO
 62
   120
370
     5
100
AcDbLine
 10
-3620.689954230303
 20
2964.27680151321
 30
0.0
 11
-3620.689954230303
 21
1089.27680151321
 31
0.0
  0
LWPOLYLINE
  5
104
330
1F
100
AcDbEntity
  8
0-B_寸法
  6
Continuous
 62
     7
370
     9
100
AcDbPolyline
 90
        4
 70
     1
 43
3.0
 10
-2869.19020165813
 20
2326.690851220751
 42
0.4142135623731
 10
-2870.69020165813
 20
2328.190851220751
 42
0.4142135623731
 10
-2872.190201658129
 20
2326.690851220751
 42
0.4142135623731
 10
-2870.69020165813
 20
2325.190851220751
 42
0.4142135623731
  0
LINE
  5
105
330
1F
100
AcDbEntity
  8
0-B_寸法
  6
Continuous
 62
   120
370
     5
100
AcDbLine
 10
-2870.69020165813
 20
2408.020114443934
 30
0.0
 11
-2870.69020165813
 21
2326.690851220751
 31
0.0
  0
LINE
  5
106
330
1F
100
AcDbEntity
  8
0-B_寸法
  6
Continuous
 62
   120
370
     5
100
AcDbLine
 10
-2870.69020165813
 20
2326.690851220751
 30
0.0
 11
-2855.69020165813
 21
2326.690851220751
 31
0.0
  0
LINE
  5
107
330
1F
100
AcDbEntity
  8
0-B_寸法
  6
Continuous
 62
   120
370
     5
100
AcDbLine
 10
-842.6902140241236
 20
1449.27680151321
 30
0.0
 11
-842.6902140241236
 21
1809.27680151321
 31
0.0
  0
LWPOLYLINE
  5
108
330
1F
100
AcDbEntity
  8
0-B_寸法
  6
Continuous
 62
     7
370
     9
100
AcDbPolyline
 90
        4
 70
     1
 43
3.0
 10
-841.1902140241236
 20
1449.27680151321
 42
0.4142135623731
 10
-842.6902140241236
 20
1450.77680151321
 42
0.4142135623731
 10
-844.1902140241236
 20
1449.27680151321
 42
0.4142135623731
 10
-842.6902140241236
 20
1447.77680151321
 42
0.4142135623731
  0
LINE
  5
109
330
1F
100
AcDbEntity
  8
0-B_寸法
  6
Continuous
 62
   120
370
     5
100
AcDbLine
 10
144.310126208635
 20
1629.27680151321
 30
0.0
 11
144.310126208635
 21
1809.27680151321
 31
0.0
  0
LWPOLYLINE
  5
10A
330
1F
100
AcDbEntity
  8
0-B_寸法
  6
Continuous
 62
     7
370
     9
100
AcDbPolyline
 90
        4
 70
     1
 43
3.0
 10
145.810126208635
 20
1629.27680151321
 42
0.4142135623731
 10
144.310126208635
 20
1630.77680151321
 42
0.4142135623731
 10
142.810126208635
 20
1629.27680151321
 42
0.4142135623731
 10
144.310126208635
 20
1627.77680151321
 42
0.4142135623731
  0
LWPOLYLINE
  5
10B
330
1F
100
AcDbEntity
  8
0-B_寸法
  6
Continuous
 62
     7
370
     9
100
AcDbPolyline
 90
        4
 70
     1
 43
3.0
 10
-841.1902140241236
 20
1629.27680151321
 42
0.4142135623731
 10
-842.6902140241236
 20
1630.77680151321
 42
0.4142135623731
 10
-844.1902140241236
 20
1629.27680151321
 42
0.4142135623731
 10
-842.6902140241236
 20
1627.77680151321
 42
0.4142135623731
  0
LINE
  5
10C
330
1F
100
AcDbEntity
  8
0-B_寸法
  6
Continuous
 62
   120
370
     5
100
AcDbLine
 10
-842.6902140241236
 20
1629.27680151321
 30
0.0
 11
144.310126208635
 21
1629.27680151321
 31
0.0
  0
LINE
  5
10D
330
1F
100
AcDbEntity
  8
0-6_扉
  6
Continuous
 62
   200
370
    20
100
AcDbLine
 10
-842.6902140241236
 20
2283.276801513211
 30
0.0
 11
-842.6902140241236
 21
2445.278098097883
 31
0.0
  0
LINE
  5
10E
330
1F
100
AcDbEntity
  8
0-6_扉
  6
Continuous
 62
   200
370
    20
100
AcDbLine
 10
-842.6902140241236
 20
2283.276801513211
 30
0.0
 11
-380.6900624657305
 21
2283.276801513211
 31
0.0
  0
LINE
  5
10F
330
1F
100
AcDbEntity
  8
0-6_扉
  6
Continuous
 62
   200
370
    20
100
AcDbLine
 10
-842.6902140241236
 20
2445.278098097883
 30
0.0
 11
-380.6900624657305
 21
2445.278098097883
 31
0.0
  0
LINE
  5
110
330
1F
100
AcDbEntity
  8
0-0_補助線
  6
JWW_HOJO
 62
     7
370
     9
100
AcDbLine
 10
-380.6900624657305
 20
2445.278098097883
 30
0.0
 11
-380.6900624657305
 21
2283.276801513211
 31
0.0
  0
LINE
  5
111
330
1F
100
AcDbEntity
  8
0-6_扉
  6
Continuous
 62
   200
370
    20
100
AcDbLine
 10
-320.6900624657305
 20
2445.278098097883
 30
0.0
 11
144.310126208635
 21
2445.278098097883
 31
0.0
  0
LINE
  5
112
330
1F
100
AcDbEntity
  8
0-0_補助線
  6
JWW_HOJO
 62
     7
370
     9
100
AcDbLine
 10
-320.6900624657305
 20
2445.278098097883
 30
0.0
 11
-320.6900624657305
 21
2283.276801513211
 31
0.0
  0
LINE
  5
113
330
1F
100
AcDbEntity
  8
0-6_扉
  6
Continuous
 62
   200
370
    20
100
AcDbLine
 10
-320.6900624657305
 20
2283.276801513211
 30
0.0
 11
144.310126208635
 21
2283.276801513211
 31
0.0
  0
LINE
  5
114
330
1F
100
AcDbEntity
  8
0-6_扉
  6
Continuous
 62
   200
370
    20
100
AcDbLine
 10
144.310126208635
 20
2445.278098097883
 30
0.0
 11
144.310126208635
 21
2283.276801513211
 31
0.0
  0
CIRCLE
  5
115
330
1F
100
AcDbEntity
  8
0-A_文字
  6
Continuous
 62
     7
370
     9
100
AcDbCircle
 10
147.3100890926605
 20
2475.276801513211
 30
0.0
 40
30.0
  0
CIRCLE
  5
116
330
1F
100
AcDbEntity
  8
0-A_文字
  6
Continuous
 62
     7
370
     9
100
AcDbCircle
 10
147.3100890926605
 20
2475.276801513211
 30
0.0
 40
21.00000000000001
  0
LINE
  5
117
330
1F
100
AcDbEntity
  8
0-0_補助線
  6
JWW_HOJO
 62
     7
370
     9
100
AcDbLine
 10
1143.31046644139
 20
909.2768015132103
 30
0.0
 11
1143.31046644139
 21
3144.27680151321
 31
0.0
  0
LINE
  5
118
330
1F
100
AcDbEntity
  8
0-6_扉
  6
Continuous
 62
   200
370
    20
100
AcDbLine
 10
1158.309823097849
 20
2445.278098097883
 30
0.0
 11
1158.309823097849
 21
2283.276801513211
 31
0.0
  0
LINE
  5
119
330
1F
100
AcDbEntity
  8
0-6_扉
  6
Continuous
 62
   200
370
    20
100
AcDbLine
 10
1158.309773609886
 20
2445.278098097883
 30
0.0
 11
1158.309773609886
 21
2283.276801513211
 31
0.0
  0
LINE
  5
11A
330
1F
100
AcDbEntity
  8
0-6_扉
  6
Continuous
 62
   200
370
    20
100
AcDbLine
 10
675.310314882995
 20
2445.278098097883
 30
0.0
 11
1158.309823097849
 21
2445.278098097883
 31
0.0
  0
LINE
  5
11B
330
1F
100
AcDbEntity
  8
0-6_扉
  6
Continuous
 62
   200
370
    20
100
AcDbLine
 10
675.310314882995
 20
2283.276801513211
 30
0.0
 11
1158.309823097849
 21
2283.276801513211
 31
0.0
  0
LINE
  5
11C
330
1F
100
AcDbEntity
  8
0-0_補助線
  6
JWW_HOJO
 62
     7
370
     9
100
AcDbLine
 10
675.310314882995
 20
2445.278098097883
 30
0.0
 11
675.310314882995
 21
2283.276801513211
 31
0.0
  0
LINE
  5
11D
330
1F
100
AcDbEntity
  8
0-0_補助線
  6
JWW_HOJO
 62
     7
370
     9
100
AcDbLine
 10
615.310314882995
 20
2445.278098097883
 30
0.0
 11
615.310314882995
 21
2283.276801513211
 31
0.0
  0
LINE
  5
11E
330
1F
100
AcDbEntity
  8
0-6_扉
  6
Continuous
 62
   200
370
    20
100
AcDbLine
 10
150.3101262086329
 20
2445.278098097883
 30
0.0
 11
615.310314882995
 21
2445.278098097883
 31
0.0
  0
LINE
  5
11F
330
1F
100
AcDbEntity
  8
0-6_扉
  6
Continuous
 62
   200
370
    20
100
AcDbLine
 10
150.3101262086329
 20
2283.276801513211
 30
0.0
 11
615.310314882995
 21
2283.276801513211
 31
0.0
  0
LINE
  5
120
330
1F
100
AcDbEntity
  8
0-6_扉
  6
Continuous
 62
   200
370
    20
100
AcDbLine
 10
150.3101262086329
 20
2445.278098097883
 30
0.0
 11
150.3101262086329
 21
2283.276801513211
 31
0.0
  0
LINE
  5
121
330
1F
100
AcDbEntity
  8
0-6_扉
  6
JWW_DASHED2
 62
    40
370
    15
100
AcDbLine
 10
900.1269164851226
 20
2541.773039810011
 30
0.0
 11
865.6620879194259
 21
2088.277598269442
 31
0.0
  0
LINE
  5
122
330
1F
100
AcDbEntity
  8
0-6_扉
  6
JWW_DASHED2
 62
    40
370
    15
100
AcDbLine
 10
610.7444598461416
 20
2540.409006024817
 30
0.0
 11
645.1056243255812
 21
2088.277598269442
 31
0.0
  0
LINE
  5
123
330
1F
100
AcDbEntity
  8
0-6_扉
  6
JWW_DASHED2
 62
    40
370
    15
100
AcDbLine
 10
1061.66109973579
 20
2529.496735743266
 30
0.0
 11
1028.129247946315
 21
2088.277598269442
 31
0.0
  0
LINE
  5
124
330
1F
100
AcDbEntity
  8
0-6_扉
  6
JWW_DASHED2
 62
    40
370
    15
100
AcDbLine
 10
449.2102765954712
 20
2528.132701958077
 30
0.0
 11
482.638464298692
 21
2088.277598269442
 31
0.0
  0
ARC
  5
125
330
1F
100
AcDbEntity
  8
0-6_扉
  6
JWW_DASHED2
 62
    40
370
    15
100
AcDbCircle
 10
1043.712857152384
 20
2530.86076952846
 30
0.0
 40
18.0
100
AcDbArc
 50
355.6539792783596
 51
85.65397927835919
  0
LINE
  5
126
330
1F
100
AcDbEntity
  8
0-6_扉
  6
JWW_DASHED2
 62
    40
370
    15
100
AcDbLine
 10
1045.076890937577
 20
2548.809012111867
 30
0.0
 11
919.4391928537209
 21
2558.357248608225
 31
0.0
  0
ARC
  5
127
330
1F
100
AcDbEntity
  8
0-6_扉
  6
JWW_DASHED2
 62
    40
370
    15
100
AcDbCircle
 10
918.0751590685281
 20
2540.409006024817
 30
0.0
 40
18.0
100
AcDbArc
 50
85.65397927835929
 51
175.6539792783603
  0
ARC
  5
128
330
1F
100
AcDbEntity
  8
0-6_扉
  6
JWW_DASHED2
 62
    40
370
    15
100
AcDbCircle
 10
592.7962172627326
 20
2539.044972239626
 30
0.0
 40
18.0
100
AcDbArc
 50
4.346020721638936
 51
94.34602072163932
  0
LINE
  5
129
330
1F
100
AcDbEntity
  8
0-6_扉
  6
JWW_DASHED2
 62
    40
370
    15
100
AcDbLine
 10
591.4321834775399
 20
2556.993214823033
 30
0.0
 11
465.7944853936874
 21
2547.444978326677
 31
0.0
  0
ARC
  5
12A
330
1F
100
AcDbEntity
  8
0-6_扉
  6
JWW_DASHED2
 62
    40
370
    15
100
AcDbCircle
 10
467.1585191788802
 20
2529.49673574327
 30
0.0
 40
18.0
100
AcDbArc
 50
94.34602072163928
 51
184.346020721639
  0
LINE
  5
12B
330
1F
100
AcDbEntity
  8
0-1_通り芯
  6
JWW_CENTER1
 62
   120
370
     5
100
AcDbLine
 10
449.2102765954712
 20
2784.27680151321
 30
0.0
 11
449.2102765954712
 21
2530.860769528465
 31
0.0
  0
LWPOLYLINE
  5
12C
330
1F
100
AcDbEntity
  8
0-B_寸法
  6
Continuous
 62
     7
370
     9
100
AcDbPolyline
 90
        4
 70
     1
 43
3.0
 10
450.7102765954712
 20
2964.27680151321
 42
0.4142135623731
 10
449.2102765954712
 20
2965.77680151321
 42
0.4142135623731
 10
447.7102765954712
 20
2964.27680151321
 42
0.4142135623731
 10
449.2102765954712
 20
2962.776801513211
 42
0.4142135623731
  0
LINE
  5
12D
330
1F
100
AcDbEntity
  8
0-B_寸法
  6
Continuous
 62
   120
370
     5
100
AcDbLine
 10
449.2102765954712
 20
2964.27680151321
 30
0.0
 11
449.2102765954712
 21
2784.27680151321
 31
0.0
  0
LINE
  5
12E
330
1F
100
AcDbEntity
  8
0-B_寸法
  6
Continuous
 62
   120
370
     5
100
AcDbLine
 10
150.3101262086329
 20
1629.27680151321
 30
0.0
 11
1158.309823097849
 21
1629.27680151321
 31
0.0
  0
LWPOLYLINE
  5
12F
330
1F
100
AcDbEntity
  8
0-B_寸法
  6
Continuous
 62
     7
370
     9
100
AcDbPolyline
 90
        4
 70
     1
 43
3.0
 10
151.8101262086329
 20
1629.27680151321
 42
0.4142135623731
 10
150.3101262086329
 20
1630.77680151321
 42
0.4142135623731
 10
148.8101262086329
 20
1629.27680151321
 42
0.4142135623731
 10
150.3101262086329
 20
1627.77680151321
 42
0.4142135623731
  0
LWPOLYLINE
  5
130
330
1F
100
AcDbEntity
  8
0-B_寸法
  6
Continuous
 62
     7
370
     9
100
AcDbPolyline
 90
        4
 70
     1
 43
3.0
 10
1159.809823097849
 20
1629.27680151321
 42
0.4142135623731
 10
1158.309823097849
 20
1630.77680151321
 42
0.4142135623731
 10
1156.809823097849
 20
1629.27680151321
 42
0.4142135623731
 10
1158.309823097849
 20
1627.77680151321
 42
0.4142135623731
  0
LINE
  5
131
330
1F
100
AcDbEntity
  8
0-B_寸法
  6
Continuous
 62
   120
370
     5
100
AcDbLine
 10
150.3101262086329
 20
1629.27680151321
 30
0.0
 11
150.3101262086329
 21
1809.27680151321
 31
0.0
  0
LINE
  5
132
330
1F
100
AcDbEntity
  8
0-B_寸法
  6
Continuous
 62
   120
370
     5
100
AcDbLine
 10
-842.6902140241236
 20
1449.27680151321
 30
0.0
 11
1158.309823097849
 21
1449.27680151321
 31
0.0
  0
LWPOLYLINE
  5
133
330
1F
100
AcDbEntity
  8
0-B_寸法
  6
Continuous
 62
     7
370
     9
100
AcDbPolyline
 90
        4
 70
     1
 43
3.0
 10
1159.809823097849
 20
1449.27680151321
 42
0.4142135623731
 10
1158.309823097849
 20
1450.77680151321
 42
0.4142135623731
 10
1156.809823097849
 20
1449.27680151321
 42
0.4142135623731
 10
1158.309823097849
 20
1447.77680151321
 42
0.4142135623731
  0
LINE
  5
134
330
1F
100
AcDbEntity
  8
0-B_寸法
  6
Continuous
 62
   120
370
     5
100
AcDbLine
 10
1158.309823097849
 20
1449.27680151321
 30
0.0
 11
1158.309823097849
 21
1809.27680151321
 31
0.0
  0
LINE
  5
135
330
1F
100
AcDbEntity
  8
0-0_補助線
  6
JWW_HOJO
 62
     7
370
     9
100
AcDbLine
 10
147.3101262086323
 20
909.2768015132103
 30
0.0
 11
147.3101262086323
 21
3144.27680151321
 31
0.0
  0
LINE
  5
136
330
1F
100
AcDbEntity
  8
0-B_寸法
  6
Continuous
 62
   120
370
     5
100
AcDbLine
 10
-854.690214024123
 20
1449.27680151321
 30
0.0
 11
-842.6902140241236
 21
1449.27680151321
 31
0.0
  0
LINE
  5
137
330
1F
100
AcDbEntity
  8
0-B_寸法
  6
Continuous
 62
   120
370
     5
100
AcDbLine
 10
-2146.590704643718
 20
2964.27680151321
 30
0.0
 11
449.2102765954712
 21
2964.27680151321
 31
0.0
  0
LINE
  5
138
330
1F
100
AcDbEntity
  8
0-4_枠
  6
Continuous
 62
    92
370
    13
100
AcDbLine
 10
1173.309823097849
 20
2634.276747076451
 30
0.0
 11
1173.309823097849
 21
2094.277598269442
 31
0.0
  0
LINE
  5
139
330
1F
100
AcDbEntity
  8
0-0_補助線
  6
JWW_HOJO
 62
   120
370
     5
100
AcDbLine
 10
1923.309575658027
 20
2964.27680151321
 30
0.0
 11
1923.309575658027
 21
1089.27680151321
 31
0.0
  0
LINE
  5
13A
330
1F
100
AcDbEntity
  8
0-C_ハッチ
  6
Continuous
 62
   120
370
     5
100
AcDbLine
 10
1353.310045793689
 20
2208.95350488895
 30
0.0
 11
1287.309823097844
 21
2142.953649589685
 31
0.0
  0
LINE
  5
13B
330
1F
100
AcDbEntity
  8
0-4_枠
  6
Continuous
 62
    92
370
    13
100
AcDbLine
 10
1287.309823097844
 20
2148.277598269442
 30
0.0
 11
1287.309823097844
 21
2088.277598269442
 31
0.0
  0
LINE
  5
13C
330
1F
100
AcDbEntity
  8
0-4_枠
  6
Continuous
 62
    92
370
    13
100
AcDbLine
 10
1233.309823097849
 20
2148.277598269442
 30
0.0
 11
1287.309823097844
 21
2148.277598269442
 31
0.0
  0
LINE
  5
13D
330
1F
100
AcDbEntity
  8
0-4_枠
  6
Continuous
 62
    92
370
    13
100
AcDbLine
 10
1233.309823097849
 20
2148.277598269442
 30
0.0
 11
1233.309823097849
 21
2088.277598269442
 31
0.0
  0
LINE
  5
13E
330
1F
100
AcDbEntity
  8
0-4_枠
  6
Continuous
 62
    92
370
    13
100
AcDbLine
 10
1353.309823097849
 20
2640.27674707645
 30
0.0
 11
1353.309823097849
 21
2130.277598269442
 31
0.0
  0
LINE
  5
13F
330
1F
100
AcDbEntity
  8
0-4_枠
  6
Continuous
 62
    92
370
    13
100
AcDbLine
 10
1323.309823097849
 20
2130.277598269442
 30
0.0
 11
1353.309823097849
 21
2130.277598269442
 31
0.0
  0
LINE
  5
140
330
1F
100
AcDbEntity
  8
0-4_枠
  6
Continuous
 62
    92
370
    13
100
AcDbLine
 10
1323.309823097849
 20
2130.277598269442
 30
0.0
 11
1323.309823097849
 21
2088.277598269442
 31
0.0
  0
LINE
  5
141
330
1F
100
AcDbEntity
  8
0-4_枠
  6
Continuous
 62
    92
370
    13
100
AcDbLine
 10
1287.309823097844
 20
2088.277598269442
 30
0.0
 11
1323.309823097849
 21
2088.277598269442
 31
0.0
  0
LINE
  5
142
330
1F
100
AcDbEntity
  8
0-C_ハッチ
  6
Continuous
 62
   120
370
     5
100
AcDbLine
 10
1275.516079036402
 20
2640.27674707645
 30
0.0
 11
1173.309823097849
 21
2538.071233457363
 31
0.0
  0
LINE
  5
143
330
1F
100
AcDbEntity
  8
0-C_ハッチ
  6
Continuous
 62
   120
370
     5
100
AcDbLine
 10
1353.310045793689
 20
2633.218031256138
 30
0.0
 11
1173.309823097849
 21
2453.218179720031
 31
0.0
  0
LINE
  5
144
330
1F
100
AcDbEntity
  8
0-C_ハッチ
  6
Continuous
 62
   120
370
     5
100
AcDbLine
 10
1353.310045793689
 20
2293.806558626281
 30
0.0
 11
1173.309823097849
 21
2113.806707090174
 31
0.0
  0
LINE
  5
145
330
1F
100
AcDbEntity
  8
0-C_ハッチ
  6
Continuous
 62
   120
370
     5
100
AcDbLine
 10
1173.309823097849
 20
2283.512072245368
 30
0.0
 11
1353.310045793689
 21
2463.511923781475
 31
0.0
  0
LINE
  5
146
330
1F
100
AcDbEntity
  8
0-C_ハッチ
  6
Continuous
 62
   120
370
     5
100
AcDbLine
 10
1173.309823097849
 20
2198.659018508038
 30
0.0
 11
1353.310045793689
 21
2378.659612363613
 31
0.0
  0
LINE
  5
147
330
1F
100
AcDbEntity
  8
0-C_ハッチ
  6
Continuous
 62
   120
370
     5
100
AcDbLine
 10
1323.309823097849
 20
2094.100395455677
 30
0.0
 11
1317.486993498269
 21
2088.277598269442
 31
0.0
  0
LINE
  5
148
330
1F
100
AcDbEntity
  8
0-4_枠
  6
Continuous
 62
    92
370
    13
100
AcDbLine
 10
1179.309823097847
 20
2088.277598269442
 30
0.0
 11
1233.309823097849
 21
2088.277598269442
 31
0.0
  0
LINE
  5
149
330
1F
100
AcDbEntity
  8
0-4_枠
  6
Continuous
 62
    92
370
    13
100
AcDbLine
 10
1173.309823097849
 20
2094.277598269442
 30
0.0
 11
1179.309823097847
 21
2088.277598269442
 31
0.0
  0
LINE
  5
14A
330
1F
100
AcDbEntity
  8
0-4_枠
  6
Continuous
 62
    92
370
    13
100
AcDbLine
 10
1179.309823097847
 20
2640.27674707645
 30
0.0
 11
1353.309823097849
 21
2640.27674707645
 31
0.0
  0
LINE
  5
14B
330
1F
100
AcDbEntity
  8
0-4_枠
  6
Continuous
 62
    92
370
    13
100
AcDbLine
 10
1179.309823097847
 20
2640.27674707645
 30
0.0
 11
1173.309823097849
 21
2634.276747076451
 31
0.0
  0
LINE
  5
14C
330
1F
100
AcDbEntity
  8
0-7_金物
  6
Continuous
 62
     7
370
     9
100
AcDbLine
 10
1353.309823097849
 20
2418.276835845485
 30
0.0
 11
1359.309891762387
 21
2418.276835845485
 31
0.0
  0
LINE
  5
14D
330
1F
100
AcDbEntity
  8
0-7_金物
  6
Continuous
 62
     7
370
     9
100
AcDbLine
 10
1359.309891762387
 20
2310.276767180935
 30
0.0
 11
1353.309823097849
 21
2310.276767180935
 31
0.0
  0
LINE
  5
14E
330
1F
100
AcDbEntity
  8
0-7_金物
  6
Continuous
 62
     7
370
     9
100
AcDbLine
 10
1359.309891762387
 20
2304.276601241604
 30
0.0
 11
1359.309891762387
 21
2424.27625791885
 31
0.0
  0
LINE
  5
14F
330
1F
100
AcDbEntity
  8
0-7_金物
  6
Continuous
 62
     7
370
     9
100
AcDbLine
 10
1371.309485497129
 20
2424.27625791885
 30
0.0
 11
1359.309891762387
 21
2424.27625791885
 31
0.0
  0
LINE
  5
150
330
1F
100
AcDbEntity
  8
0-7_金物
  6
Continuous
 62
     7
370
     9
100
AcDbLine
 10
1371.309485497129
 20
2304.276601241604
 30
0.0
 11
1359.309891762387
 21
2304.276601241604
 31
0.0
  0
LINE
  5
151
330
1F
100
AcDbEntity
  8
0-7_金物
  6
Continuous
 62
     7
370
     9
100
AcDbLine
 10
1383.309823097838
 20
2274.27649824478
 30
0.0
 11
1383.309823097838
 21
2454.276360915675
 31
0.0
  0
LINE
  5
152
330
1F
100
AcDbEntity
  8
0-7_金物
  6
Continuous
 62
     7
370
     9
100
AcDbLine
 10
1383.309823097838
 20
2274.27649824478
 30
0.0
 11
1371.309485497129
 21
2274.27649824478
 31
0.0
  0
LINE
  5
153
330
1F
100
AcDbEntity
  8
0-7_金物
  6
Continuous
 62
     7
370
     9
100
AcDbLine
 10
1383.309823097838
 20
2454.276360915675
 30
0.0
 11
1371.309485497129
 21
2454.276360915675
 31
0.0
  0
LINE
  5
154
330
1F
100
AcDbEntity
  8
0-7_金物
  6
Continuous
 62
     7
370
     9
100
AcDbLine
 10
1371.309485497129
 20
2274.27649824478
 30
0.0
 11
1371.309485497129
 21
2454.276360915675
 31
0.0
  0
LWPOLYLINE
  5
155
330
1F
100
AcDbEntity
  8
0-B_寸法
  6
Continuous
 62
     7
370
     9
100
AcDbPolyline
 90
        4
 70
     1
 43
3.0
 10
1174.809823097849
 20
1269.27680151321
 42
0.4142135623731
 10
1173.309823097849
 20
1270.77680151321
 42
0.4142135623731
 10
1171.809823097849
 20
1269.27680151321
 42
0.4142135623731
 10
1173.309823097849
 20
1267.77680151321
 42
0.4142135623731
  0
LINE
  5
156
330
1F
100
AcDbEntity
  8
0-B_寸法
  6
Continuous
 62
   120
370
     5
100
AcDbLine
 10
1173.309823097849
 20
1269.27680151321
 30
0.0
 11
1173.309823097849
 21
1989.27680151321
 31
0.0
  0
LINE
  5
157
330
1F
100
AcDbEntity
  8
0-B_寸法
  6
Continuous
 62
   120
370
     5
100
AcDbLine
 10
1173.309823097849
 20
1269.27680151321
 30
0.0
 11
1353.309823097849
 21
1269.27680151321
 31
0.0
  0
LWPOLYLINE
  5
158
330
1F
100
AcDbEntity
  8
0-B_寸法
  6
Continuous
 62
     7
370
     9
100
AcDbPolyline
 90
        4
 70
     1
 43
3.0
 10
1354.809823097849
 20
1269.27680151321
 42
0.4142135623731
 10
1353.309823097849
 20
1270.77680151321
 42
0.4142135623731
 10
1351.809823097849
 20
1269.27680151321
 42
0.4142135623731
 10
1353.309823097849
 20
1267.77680151321
 42
0.4142135623731
  0
MTEXT
  5
159
330
1F
100
AcDbEntity
  8
0-B_寸法
  6
Continuous
 62
     7
370
   211
100
AcDbMText
 10
1203.309823097849
 20
1269.99680151321
 30
0.0
 40
91.44
 41
120.0
 46
0.0
 71
     7
 72
     1
  1
{\fＭＳ ゴシック|b0|i0|c128|p49;30}
 73
     1
 44
1.0
  0
LWPOLYLINE
  5
15A
330
1F
100
AcDbEntity
  8
0-B_寸法
  6
Continuous
 62
     7
370
     9
100
AcDbPolyline
 90
        4
 70
     1
 43
3.0
 10
1354.809823097849
 20
1089.27680151321
 42
0.4142135623731
 10
1353.309823097849
 20
1090.77680151321
 42
0.4142135623731
 10
1351.809823097849
 20
1089.27680151321
 42
0.4142135623731
 10
1353.309823097849
 20
1087.77680151321
 42
0.4142135623731
  0
LINE
  5
15B
330
1F
100
AcDbEntity
  8
0-B_寸法
  6
Continuous
 62
   120
370
     5
100
AcDbLine
 10
1353.309823097849
 20
1089.27680151321
 30
0.0
 11
1353.309823097849
 21
1989.27680151321
 31
0.0
  0
LINE
  5
15C
330
1F
100
AcDbEntity
  8
0-B_寸法
  6
Continuous
 62
   120
370
     5
100
AcDbLine
 10
1353.309823097849
 20
1089.27680151321
 30
0.0
 11
1383.309823097838
 21
1089.27680151321
 31
0.0
  0
LWPOLYLINE
  5
15D
330
1F
100
AcDbEntity
  8
0-B_寸法
  6
Continuous
 62
     7
370
     9
100
AcDbPolyline
 90
        4
 70
     1
 43
3.0
 10
1384.809823097838
 20
1089.27680151321
 42
0.4142135623731
 10
1383.309823097838
 20
1090.77680151321
 42
0.4142135623731
 10
1381.809823097838
 20
1089.27680151321
 42
0.4142135623731
 10
1383.309823097838
 20
1087.77680151321
 42
0.4142135623731
  0
LINE
  5
15E
330
1F
100
AcDbEntity
  8
0-B_寸法
  6
Continuous
 62
   120
370
     5
100
AcDbLine
 10
1383.309823097838
 20
1089.27680151321
 30
0.0
 11
1383.309823097838
 21
1989.27680151321
 31
0.0
  0
MTEXT
  5
15F
330
1F
100
AcDbEntity
  8
0-B_寸法
  6
Continuous
 62
     7
370
   211
100
AcDbMText
 10
1338.309823097842
 20
1089.99680151321
 30
0.0
 40
91.44
 41
60.0
 46
0.0
 71
     7
 72
     1
  1
{\fＭＳ ゴシック|b0|i0|c128|p49;5}
 73
     1
 44
1.0
  0
LINE
  5
160
330
1F
100
AcDbEntity
  8
0-0_補助線
  6
JWW_HOJO
 62
   120
370
     5
100
AcDbLine
 10
1918.810249911825
 20
1809.27680151321
 30
0.0
 11
-3625.189378940435
 21
1809.27680151321
 31
0.0
  0
LINE
  5
161
330
1F
100
AcDbEntity
  8
0-0_補助線
  6
JWW_HOJO
 62
   120
370
     5
100
AcDbLine
 10
1918.810249911825
 20
1989.27680151321
 30
0.0
 11
-3625.189378940435
 21
1989.27680151321
 31
0.0
  0
LINE
  5
162
330
1F
100
AcDbEntity
  8
0-0_補助線
  6
JWW_HOJO
 62
   120
370
     5
100
AcDbLine
 10
1918.810249911825
 20
1629.27680151321
 30
0.0
 11
-3625.189378940435
 21
1629.27680151321
 31
0.0
  0
LINE
  5
163
330
1F
100
AcDbEntity
  8
0-0_補助線
  6
JWW_HOJO
 62
   120
370
     5
100
AcDbLine
 10
1918.810249911825
 20
1449.27680151321
 30
0.0
 11
-3625.189378940435
 21
1449.27680151321
 31
0.0
  0
LINE
  5
164
330
1F
100
AcDbEntity
  8
0-0_補助線
  6
JWW_HOJO
 62
   120
370
     5
100
AcDbLine
 10
-3620.689954230303
 20
1269.27680151321
 30
0.0
 11
1923.309575658027
 21
1269.27680151321
 31
0.0
  0
LINE
  5
165
330
1F
100
AcDbEntity
  8
0-0_補助線
  6
JWW_HOJO
 62
   120
370
     5
100
AcDbLine
 10
-3620.689954230303
 20
1089.27680151321
 30
0.0
 11
1923.309575658027
 21
1089.27680151321
 31
0.0
  0
LINE
  5
166
330
1F
100
AcDbEntity
  8
0-0_補助線
  6
JWW_HOJO
 62
   120
370
     5
100
AcDbLine
 10
-3620.689954230303
 20
3144.27680151321
 30
0.0
 11
1923.309575658027
 21
3144.27680151321
 31
0.0
  0
LINE
  5
167
330
1F
100
AcDbEntity
  8
0-1_通り芯
  6
JWW_CENTER1
 62
   120
370
     5
100
AcDbLine
 10
-3620.689954230303
 20
2364.27680151321
 30
0.0
 11
1923.309575658027
 21
2364.27680151321
 31
0.0
  0
LINE
  5
168
330
1F
100
AcDbEntity
  8
0-0_補助線
  6
JWW_HOJO
 62
   120
370
     5
100
AcDbLine
 10
-3620.689954230303
 20
2784.27680151321
 30
0.0
 11
1923.309575658027
 21
2784.27680151321
 31
0.0
  0
LINE
  5
169
330
1F
100
AcDbEntity
  8
0-0_補助線
  6
JWW_HOJO
 62
   120
370
     5
100
AcDbLine
 10
-3620.689954230303
 20
2964.27680151321
 30
0.0
 11
1923.309575658027
 21
2964.27680151321
 31
0.0
  0
LINE
  5
16A
330
1F
100
AcDbEntity
  8
0-B_寸法
  6
Continuous
 62
   120
370
     5
100
AcDbLine
 10
-2870.69020165813
 20
1269.27680151321
 30
0.0
 11
1173.309823097849
 21
1269.27680151321
 31
0.0
  0
LINE
  5
16B
330
1F
100
AcDbEntity
  8
0-B_寸法
  6
Continuous
 62
   120
370
     5
100
AcDbLine
 10
-3050.69020165813
 20
1089.27680151321
 30
0.0
 11
1353.309823097849
 21
1089.27680151321
 31
0.0
  0
LINE
  5
16C
330
1F
100
AcDbEntity
  8
0-C_ハッチ
  6
Continuous
 62
   120
370
     5
100
AcDbLine
 10
1353.310045793689
 20
2548.364977518806
 30
0.0
 11
1173.309823097849
 21
2368.364383663234
 31
0.0
  0
LWPOLYLINE
  5
16D
330
1F
100
AcDbEntity
  8
0-B_寸法
  6
Continuous
 62
     7
370
     9
100
AcDbPolyline
 90
        4
 70
     1
 43
3.0
 10
-3079.190201658116
 20
3144.276801513212
 42
0.4142135623731
 10
-3080.690201658116
 20
3145.776801513212
 42
0.4142135623731
 10
-3082.190201658116
 20
3144.276801513212
 42
0.4142135623731
 10
-3080.690201658116
 20
3142.776801513212
 42
0.4142135623731
  0
LINE
  5
16E
330
1F
100
AcDbEntity
  8
0-B_寸法
  6
Continuous
 62
   120
370
     5
100
AcDbLine
 10
-3080.690201658116
 20
3144.276801513212
 30
0.0
 11
-3080.690201658116
 21
2784.27680151321
 31
0.0
  0
LINE
  5
16F
330
1F
100
AcDbEntity
  8
0-B_寸法
  6
Continuous
 62
   120
370
     5
100
AcDbLine
 10
1383.309823097838
 20
3144.276801513212
 30
0.0
 11
1383.309823097838
 21
2784.27680151321
 31
0.0
  0
LWPOLYLINE
  5
170
330
1F
100
AcDbEntity
  8
0-B_寸法
  6
Continuous
 62
     7
370
     9
100
AcDbPolyline
 90
        4
 70
     1
 43
3.0
 10
1384.809823097838
 20
3144.276801513212
 42
0.4142135623731
 10
1383.309823097838
 20
3145.776801513212
 42
0.4142135623731
 10
1381.809823097838
 20
3144.276801513212
 42
0.4142135623731
 10
1383.309823097838
 20
3142.776801513212
 42
0.4142135623731
  0
LINE
  5
171
330
1F
100
AcDbEntity
  8
0-B_寸法
  6
Continuous
 62
   120
370
     5
100
AcDbLine
 10
-3080.690201658116
 20
3144.276801513212
 30
0.0
 11
1383.309823097838
 21
3144.276801513212
 31
0.0
  0
MTEXT
  5
172
330
1F
100
AcDbEntity
  8
0-B_寸法
  6
Continuous
 62
     7
370
   211
100
AcDbMText
 10
-1238.690263506085
 20
3144.996801513212
 30
0.0
 40
91.43999999999997
 41
780.0
 46
0.0
 71
     7
 72
     1
  1
{\fＭＳ ゴシック|b0|i0|c128|p49;ＲＯＷ＝1,655}
 73
     1
 44
1.0
  0
MTEXT
  5
173
330
1F
100
AcDbEntity
  8
0-B_寸法
  6
Continuous
 62
     7
370
   211
100
AcDbMText
 10
-1423.189552136315
 20
2964.99680151321
 30
0.0
 40
91.43999999999998
 41
1140.0
 46
0.0
 71
     7
 72
     1
  1
{\fＭＳ ゴシック|b0|i0|c128|p49;有効開口寸法＝1,327}
 73
     1
 44
1.0
  0
MTEXT
  5
174
330
1F
100
AcDbEntity
  8
0-B_寸法
  6
Continuous
 62
     7
370
   211
100
AcDbMText
 10
-2621.690427439467
 20
1629.99680151321
 30
0.0
 40
91.43999999999998
 41
540.0
 46
0.0
 71
     7
 72
     1
  1
{\fＭＳ ゴシック|b0|i0|c128|p49;ＤＷ＝394}
 73
     1
 44
1.0
  0
MTEXT
  5
175
330
1F
100
AcDbEntity
  8
0-B_寸法
  6
Continuous
 62
     7
370
   211
100
AcDbMText
 10
-1618.190384140501
 20
1629.99680151321
 30
0.0
 40
91.43999999999998
 41
540.0
 46
0.0
 71
     7
 72
     1
  1
{\fＭＳ ゴシック|b0|i0|c128|p49;ＤＷ＝394}
 73
     1
 44
1.0
  0
MTEXT
  5
176
330
1F
100
AcDbEntity
  8
0-B_寸法
  6
Continuous
 62
     7
370
   211
100
AcDbMText
 10
-619.190043907746
 20
1629.99680151321
 30
0.0
 40
91.43999999999998
 41
540.0
 46
0.0
 71
     7
 72
     1
  1
{\fＭＳ ゴシック|b0|i0|c128|p49;ＤＷ＝394}
 73
     1
 44
1.0
  0
MTEXT
  5
177
330
1F
100
AcDbEntity
  8
0-B_寸法
  6
Continuous
 62
     7
370
   211
100
AcDbMText
 10
384.3099746532392
 20
1629.99680151321
 30
0.0
 40
91.43999999999998
 41
540.0
 46
0.0
 71
     7
 72
     1
  1
{\fＭＳ ゴシック|b0|i0|c128|p49;ＤＷ＝394}
 73
     1
 44
1.0
  0
MTEXT
  5
178
330
1F
100
AcDbEntity
  8
0-B_寸法
  6
Continuous
 62
     7
370
   211
100
AcDbMText
 10
-2305.190220207121
 20
1449.99680151321
 30
0.0
 40
91.43999999999998
 41
900.0
 46
0.0
 71
     7
 72
     1
  1
{\fＭＳ ゴシック|b0|i0|c128|p49;折戸：ＤＷ＝789}
 73
     1
 44
1.0
  0
MTEXT
  5
179
330
1F
100
AcDbEntity
  8
0-B_寸法
  6
Continuous
 62
     7
370
   211
100
AcDbMText
 10
-292.1902325791075
 20
1449.99680151321
 30
0.0
 40
91.43999999999998
 41
900.0
 46
0.0
 71
     7
 72
     1
  1
{\fＭＳ ゴシック|b0|i0|c128|p49;折戸：ＤＷ＝789}
 73
     1
 44
1.0
  0
MTEXT
  5
17A
330
1F
100
AcDbEntity
  8
0-B_寸法
  6
Continuous
 62
     7
370
   211
100
AcDbMText
 10
-1178.690214018126
 20
1269.99680151321
 30
0.0
 40
91.43999999999997
 41
660.0
 46
0.0
 71
     7
 72
     1
  1
{\fＭＳ ゴシック|b0|i0|c128|p49;枠内＝1,585}
 73
     1
 44
1.0
  0
MTEXT
  5
17B
330
1F
100
AcDbEntity
  8
0-B_寸法
  6
Continuous
 62
     7
370
   211
100
AcDbMText
 10
-1178.690214018126
 20
1089.99680151321
 30
0.0
 40
91.43999999999997
 41
660.0
 46
0.0
 71
     7
 72
     1
  1
{\fＭＳ ゴシック|b0|i0|c128|p49;枠外＝1,645}
 73
     1
 44
1.0
  0
LINE
  5
17C
330
1F
100
AcDbEntity
  8
0-C_ハッチ
  6
JWW_DASHED1
 62
   120
370
     5
100
AcDbLine
 10
-3579.082626086298
 20
2055.277350829595
 30
0.0
 11
-3504.082378646466
 21
2130.277598269428
 31
0.0
  0
LINE
  5
17D
330
1F
100
AcDbEntity
  8
0-C_ハッチ
  6
JWW_DASHED1
 62
   120
370
     5
100
AcDbLine
 10
-3536.65621921507
 20
2055.277350829622
 30
0.0
 11
-3461.655971775239
 21
2130.277598269451
 31
0.0
  0
LINE
  5
17E
330
1F
100
AcDbEntity
  8
0-C_ハッチ
  6
JWW_DASHED1
 62
   120
370
     5
100
AcDbLine
 10
-3494.229812343878
 20
2055.277350829617
 30
0.0
 11
-3419.229564904045
 21
2130.277598269447
 31
0.0
  0
LINE
  5
17F
330
1F
100
AcDbEntity
  8
0-C_ハッチ
  6
JWW_DASHED1
 62
   120
370
     5
100
AcDbLine
 10
-3451.803405472678
 20
2055.277350829612
 30
0.0
 11
-3376.803158032852
 21
2130.277598269442
 31
0.0
  0
LINE
  5
180
330
1F
100
AcDbEntity
  8
0-C_ハッチ
  6
JWW_DASHED1
 62
   120
370
     5
100
AcDbLine
 10
-3409.376998601478
 20
2055.277350829612
 30
0.0
 11
-3334.376751161645
 21
2130.277598269447
 31
0.0
  0
LINE
  5
181
330
1F
100
AcDbEntity
  8
0-C_ハッチ
  6
JWW_DASHED1
 62
   120
370
     5
100
AcDbLine
 10
-3366.950591730284
 20
2055.27735082961
 30
0.0
 11
-3291.950344290452
 21
2130.277598269442
 31
0.0
  0
LINE
  5
182
330
1F
100
AcDbEntity
  8
0-C_ハッチ
  6
JWW_DASHED1
 62
   120
370
     5
100
AcDbLine
 10
-3324.524184859084
 20
2055.277350829608
 30
0.0
 11
-3249.523937419252
 21
2130.27759826944
 31
0.0
  0
LINE
  5
183
330
1F
100
AcDbEntity
  8
0-C_ハッチ
  6
JWW_DASHED1
 62
   120
370
     5
100
AcDbLine
 10
-3282.097777987891
 20
2055.277350829603
 30
0.0
 11
-3207.097530548052
 21
2130.277598269435
 31
0.0
  0
LINE
  5
184
330
1F
100
AcDbEntity
  8
0-C_ハッチ
  6
JWW_DASHED1
 62
   120
370
     5
100
AcDbLine
 10
-3239.671371116732
 20
2055.27735082961
 30
0.0
 11
-3164.671123676907
 21
2130.277598269444
 31
0.0
  0
LINE
  5
185
330
1F
100
AcDbEntity
  8
0-C_ハッチ
  6
JWW_DASHED1
 62
   120
370
     5
100
AcDbLine
 10
-3197.244964245532
 20
2055.277350829615
 30
0.0
 11
-3122.244716805707
 21
2130.277598269444
 31
0.0
  0
LINE
  5
186
330
1F
100
AcDbEntity
  8
0-C_ハッチ
  6
JWW_DASHED1
 62
   120
370
     5
100
AcDbLine
 10
-3154.818557374339
 20
2055.27735082961
 30
0.0
 11
-3079.818309934507
 21
2130.27759826944
 31
0.0
  0
LINE
  5
187
330
1F
100
AcDbEntity
  8
0-C_ハッチ
  6
JWW_DASHED1
 62
   120
370
     5
100
AcDbLine
 10
-3112.392150503146
 20
2055.277350829603
 30
0.0
 11
-3037.391903063313
 21
2130.277598269435
 31
0.0
  0
LINE
  5
188
330
1F
100
AcDbEntity
  8
0-C_ハッチ
  6
JWW_DASHED1
 62
   120
370
     5
100
AcDbLine
 10
-3069.965743631932
 20
2055.277350829615
 30
0.0
 11
-3020.69020165813
 21
2104.552892803417
 31
0.0
  0
LINE
  5
189
330
1F
100
AcDbEntity
  8
0-C_ハッチ
  6
JWW_DASHED1
 62
   120
370
     5
100
AcDbLine
 10
-3027.539336760732
 20
2055.27735082961
 30
0.0
 11
-3020.69020165813
 21
2062.126485932217
 31
0.0
  0
LINE
  5
18A
330
1F
100
AcDbEntity
  8
0-3_仕上げ
  6
Continuous
 62
    40
370
    15
100
AcDbLine
 10
-3020.69020165813
 20
2130.277598269442
 30
0.0
 11
-3620.689954230303
 21
2130.277598269442
 31
0.0
  0
LINE
  5
18B
330
1F
100
AcDbEntity
  8
0-3_仕上げ
  6
Continuous
 62
    40
370
    15
100
AcDbLine
 10
-3020.69020165813
 20
2055.277598269442
 30
0.0
 11
-3620.689954230303
 21
2055.277598269442
 31
0.0
  0
LINE
  5
18C
330
1F
100
AcDbEntity
  8
0-C_ハッチ
  6
JWW_DASHED1
 62
   120
370
     5
100
AcDbLine
 10
-3620.689954230303
 20
2056.09642955673
 30
0.0
 11
-3546.508785517604
 21
2130.277598269435
 31
0.0
  0
LINE
  5
18D
330
1F
100
AcDbEntity
  8
0-C_ハッチ
  6
JWW_DASHED1
 62
   120
370
     5
100
AcDbLine
 10
-3620.689954230303
 20
2098.52283642794
 30
0.0
 11
-3588.935192388832
 21
2130.277598269412
 31
0.0
  0
MTEXT
  5
18E
330
1F
100
AcDbEntity
  8
0-B_寸法
  6
Continuous
 62
     7
370
   211
100
AcDbMText
 10
-3175.398078057059
 20
1888.85031752773
 30
0.0
 40
91.44000000000001
 41
60.0
 46
0.0
 71
     7
 72
     1
  1
{\fＭＳ ゴシック|b0|i0|c128|p49;5}
 73
     1
 44
1.0
  0
LINE
  5
18F
330
1F
100
AcDbEntity
  8
0-B_寸法
  6
Continuous
 62
   120
370
     5
100
AcDbLine
 10
-3050.690424353968
 20
1809.27680151321
 30
0.0
 11
-3050.690424353968
 21
1989.27680151321
 31
0.0
  0
LINE
  5
190
330
1F
100
AcDbEntity
  8
0-B_寸法
  6
Continuous
 62
   120
370
     5
100
AcDbLine
 10
-3020.69020165813
 20
1809.27680151321
 30
0.0
 11
-3020.69020165813
 21
1989.27680151321
 31
0.0
  0
LINE
  5
191
330
1F
100
AcDbEntity
  8
0-B_寸法
  6
Continuous
 62
   120
370
     5
100
AcDbLine
 10
-2984.690201658128
 20
1809.27680151321
 30
0.0
 11
-2984.690201658128
 21
1989.27680151321
 31
0.0
  0
LINE
  5
192
330
1F
100
AcDbEntity
  8
0-B_寸法
  6
Continuous
 62
   120
370
     5
100
AcDbLine
 10
-2930.69020165813
 20
1809.27680151321
 30
0.0
 11
-2930.69020165813
 21
1989.27680151321
 31
0.0
  0
LINE
  5
193
330
1F
100
AcDbEntity
  8
0-B_寸法
  6
Continuous
 62
   120
370
     5
100
AcDbLine
 10
-2870.69020165813
 20
1809.27680151321
 30
0.0
 11
-2870.69020165813
 21
1989.27680151321
 31
0.0
  0
LINE
  5
194
330
1F
100
AcDbEntity
  8
0-B_寸法
  6
Continuous
 62
   120
370
     5
100
AcDbLine
 10
-2870.69020165813
 20
1809.27680151321
 30
0.0
 11
-3050.690424353968
 21
1809.27680151321
 31
0.0
  0
LWPOLYLINE
  5
195
330
1F
100
AcDbEntity
  8
0-B_寸法
  6
Continuous
 62
     7
370
     9
100
AcDbPolyline
 90
        4
 70
     1
 43
3.0
 10
-3049.190424353968
 20
1809.27680151321
 42
0.4142135623731
 10
-3050.690424353968
 20
1810.77680151321
 42
0.4142135623731
 10
-3052.190424353968
 20
1809.27680151321
 42
0.4142135623731
 10
-3050.690424353968
 20
1807.77680151321
 42
0.4142135623731
  0
LWPOLYLINE
  5
196
330
1F
100
AcDbEntity
  8
0-B_寸法
  6
Continuous
 62
     7
370
     9
100
AcDbPolyline
 90
        4
 70
     1
 43
3.0
 10
-3019.19020165813
 20
1809.27680151321
 42
0.4142135623731
 10
-3020.69020165813
 20
1810.77680151321
 42
0.4142135623731
 10
-3022.190201658129
 20
1809.27680151321
 42
0.4142135623731
 10
-3020.69020165813
 20
1807.77680151321
 42
0.4142135623731
  0
LWPOLYLINE
  5
197
330
1F
100
AcDbEntity
  8
0-B_寸法
  6
Continuous
 62
     7
370
     9
100
AcDbPolyline
 90
        4
 70
     1
 43
3.0
 10
-2983.190201658128
 20
1809.27680151321
 42
0.4142135623731
 10
-2984.690201658128
 20
1810.77680151321
 42
0.4142135623731
 10
-2986.190201658128
 20
1809.27680151321
 42
0.4142135623731
 10
-2984.690201658128
 20
1807.77680151321
 42
0.4142135623731
  0
LWPOLYLINE
  5
198
330
1F
100
AcDbEntity
  8
0-B_寸法
  6
Continuous
 62
     7
370
     9
100
AcDbPolyline
 90
        4
 70
     1
 43
3.0
 10
-2929.19020165813
 20
1809.27680151321
 42
0.4142135623731
 10
-2930.69020165813
 20
1810.77680151321
 42
0.4142135623731
 10
-2932.190201658129
 20
1809.27680151321
 42
0.4142135623731
 10
-2930.69020165813
 20
1807.77680151321
 42
0.4142135623731
  0
LWPOLYLINE
  5
199
330
1F
100
AcDbEntity
  8
0-B_寸法
  6
Continuous
 62
     7
370
     9
100
AcDbPolyline
 90
        4
 70
     1
 43
3.0
 10
-2869.19020165813
 20
1809.27680151321
 42
0.4142135623731
 10
-2870.69020165813
 20
1810.77680151321
 42
0.4142135623731
 10
-2872.190201658129
 20
1809.27680151321
 42
0.4142135623731
 10
-2870.69020165813
 20
1807.77680151321
 42
0.4142135623731
  0
LINE
  5
19A
330
1F
100
AcDbEntity
  8
0-B_寸法
  6
Continuous
 62
   120
370
     5
100
AcDbLine
 10
-3002.898078057059
 20
1809.27680151321
 30
0.0
 11
-3122.898078057059
 21
1691.579195120839
 31
0.0
  0
LINE
  5
19B
330
1F
100
AcDbEntity
  8
0-B_寸法
  6
Continuous
 62
   120
370
     5
100
AcDbLine
 10
-3122.898078057059
 20
1691.579195120839
 30
0.0
 11
-3177.984791975427
 21
1691.579195120839
 31
0.0
  0
MTEXT
  5
19C
330
1F
100
AcDbEntity
  8
0-B_寸法
  6
Continuous
 62
     7
370
   211
100
AcDbMText
 10
-2832.918412072526
 20
1887.776661138859
 30
0.0
 40
91.44000000000001
 41
120.0
 46
0.0
 71
     7
 72
     1
  1
{\fＭＳ ゴシック|b0|i0|c128|p49;10}
 73
     1
 44
1.0
  0
MTEXT
  5
19D
330
1F
100
AcDbEntity
  8
0-B_寸法
  6
Continuous
 62
     7
370
   211
100
AcDbMText
 10
-2987.690201658127
 20
1809.99680151321
 30
0.0
 40
91.44
 41
60.0
 46
0.0
 71
     7
 72
     1
  1
{\fＭＳ ゴシック|b0|i0|c128|p49;9}
 73
     1
 44
1.0
  0
LINE
  5
19E
330
1F
100
AcDbEntity
  8
0-B_寸法
  6
Continuous
 62
   120
370
     5
100
AcDbLine
 10
-2900.69020165813
 20
1809.27680151321
 30
0.0
 11
-2841.811572779192
 21
1896.074861258003
 31
0.0
  0
LINE
  5
19F
330
1F
100
AcDbEntity
  8
0-B_寸法
  6
Continuous
 62
   120
370
     5
100
AcDbLine
 10
-2841.811572779192
 20
1896.074861258003
 30
0.0
 11
-2732.148091002704
 21
1896.074861258003
 31
0.0
  0
LINE
  5
1A0
330
1F
100
AcDbEntity
  8
0-B_寸法
  6
Continuous
 62
   120
370
     5
100
AcDbLine
 10
-3034.196664778949
 20
1809.27680151321
 30
0.0
 11
-3122.898078057059
 21
1896.074861258003
 31
0.0
  0
LINE
  5
1A1
330
1F
100
AcDbEntity
  8
0-B_寸法
  6
Continuous
 62
   120
370
     5
100
AcDbLine
 10
-3122.898078057059
 20
1896.074861258003
 30
0.0
 11
-3177.984791975427
 21
1896.074861258003
 31
0.0
  0
MTEXT
  5
1A2
330
1F
100
AcDbEntity
  8
0-B_寸法
  6
Continuous
 62
     7
370
   211
100
AcDbMText
 10
-3177.645814017883
 20
1687.258669644402
 30
0.0
 40
91.44
 41
60.0
 46
0.0
 71
     7
 72
     1
  1
{\fＭＳ ゴシック|b0|i0|c128|p49;6}
 73
     1
 44
1.0
  0
LINE
  5
1A3
330
1F
100
AcDbEntity
  8
0-C_ハッチ
  6
JWW_DASHED1
 62
   120
370
     5
100
AcDbLine
 10
1323.309773609886
 20
2096.206553455399
 30
0.0
 11
1357.380818423946
 21
2130.277598269461
 31
0.0
  0
LINE
  5
1A4
330
1F
100
AcDbEntity
  8
0-C_ハッチ
  6
JWW_DASHED1
 62
   120
370
     5
100
AcDbLine
 10
1791.497700878285
 20
2055.277598269454
 30
0.0
 11
1866.497700878282
 21
2130.277598269449
 31
0.0
  0
LINE
  5
1A5
330
1F
100
AcDbEntity
  8
0-C_ハッチ
  6
JWW_DASHED1
 62
   120
370
     5
100
AcDbLine
 10
1749.071294007085
 20
2055.277598269456
 30
0.0
 11
1824.071294007085
 21
2130.277598269454
 31
0.0
  0
LINE
  5
1A6
330
1F
100
AcDbEntity
  8
0-C_ハッチ
  6
JWW_DASHED1
 62
   120
370
     5
100
AcDbLine
 10
1706.644887135882
 20
2055.277598269449
 30
0.0
 11
1781.644887135872
 21
2130.277598269442
 31
0.0
  0
LINE
  5
1A7
330
1F
100
AcDbEntity
  8
0-C_ハッチ
  6
JWW_DASHED1
 62
   120
370
     5
100
AcDbLine
 10
1664.218480264685
 20
2055.277598269454
 30
0.0
 11
1739.218480264678
 21
2130.277598269447
 31
0.0
  0
LINE
  5
1A8
330
1F
100
AcDbEntity
  8
0-C_ハッチ
  6
JWW_DASHED1
 62
   120
370
     5
100
AcDbLine
 10
1621.792073393472
 20
2055.277598269442
 30
0.0
 11
1696.792073393482
 21
2130.277598269451
 31
0.0
  0
LINE
  5
1A9
330
1F
100
AcDbEntity
  8
0-C_ハッチ
  6
JWW_DASHED1
 62
   120
370
     5
100
AcDbLine
 10
1579.365666522268
 20
2055.277598269437
 30
0.0
 11
1654.365666522282
 21
2130.277598269449
 31
0.0
  0
LINE
  5
1AA
330
1F
100
AcDbEntity
  8
0-C_ハッチ
  6
JWW_DASHED1
 62
   120
370
     5
100
AcDbLine
 10
1536.939259651072
 20
2055.277598269442
 30
0.0
 11
1611.939259651068
 21
2130.277598269437
 31
0.0
  0
LINE
  5
1AB
330
1F
100
AcDbEntity
  8
0-C_ハッチ
  6
JWW_DASHED1
 62
   120
370
     5
100
AcDbLine
 10
1494.512852779933
 20
2055.277598269449
 30
0.0
 11
1569.51285277993
 21
2130.277598269444
 31
0.0
  0
LINE
  5
1AC
330
1F
100
AcDbEntity
  8
0-C_ハッチ
  6
JWW_DASHED1
 62
   120
370
     5
100
AcDbLine
 10
1452.086445908736
 20
2055.277598269451
 30
0.0
 11
1527.086445908733
 21
2130.277598269449
 31
0.0
  0
LINE
  5
1AD
330
1F
100
AcDbEntity
  8
0-C_ハッチ
  6
JWW_DASHED1
 62
   120
370
     5
100
AcDbLine
 10
1409.66003903754
 20
2055.277598269456
 30
0.0
 11
1484.660039037536
 21
2130.277598269451
 31
0.0
  0
LINE
  5
1AE
330
1F
100
AcDbEntity
  8
0-C_ハッチ
  6
JWW_DASHED1
 62
   120
370
     5
100
AcDbLine
 10
1367.23363216634
 20
2055.277598269456
 30
0.0
 11
1442.233632166336
 21
2130.277598269451
 31
0.0
  0
LINE
  5
1AF
330
1F
100
AcDbEntity
  8
0-C_ハッチ
  6
JWW_DASHED1
 62
   120
370
     5
100
AcDbLine
 10
1324.807225295129
 20
2055.277598269444
 30
0.0
 11
1399.80722529514
 21
2130.277598269456
 31
0.0
  0
LINE
  5
1B0
330
1F
100
AcDbEntity
  8
0-3_仕上げ
  6
Continuous
 62
    40
370
    15
100
AcDbLine
 10
1323.309773609886
 20
2055.277598269442
 30
0.0
 11
1323.309773609886
 21
2130.277598269442
 31
0.0
  0
LINE
  5
1B1
330
1F
100
AcDbEntity
  8
0-3_仕上げ
  6
Continuous
 62
    40
370
    15
100
AcDbLine
 10
1323.309773609886
 20
2130.277598269442
 30
0.0
 11
1923.309575658027
 21
2130.277598269442
 31
0.0
  0
LINE
  5
1B2
330
1F
100
AcDbEntity
  8
0-3_仕上げ
  6
Continuous
 62
    40
370
    15
100
AcDbLine
 10
1323.309773609886
 20
2055.277598269442
 30
0.0
 11
1923.309575658027
 21
2055.277598269442
 31
0.0
  0
LINE
  5
1B3
330
1F
100
AcDbEntity
  8
0-C_ハッチ
  6
JWW_DASHED1
 62
   120
370
     5
100
AcDbLine
 10
1876.350514620617
 20
2055.277598269442
 30
0.0
 11
1923.309575658027
 21
2102.236659306842
 31
0.0
  0
LINE
  5
1B4
330
1F
100
AcDbEntity
  8
0-C_ハッチ
  6
JWW_DASHED1
 62
   120
370
     5
100
AcDbLine
 10
1833.924107749482
 20
2055.277598269449
 30
0.0
 11
1908.924107749471
 21
2130.277598269442
 31
0.0
  0
LINE
  5
1B5
330
1F
100
AcDbEntity
  8
0-3_仕上げ
  6
Continuous
 62
    92
370
    13
100
AcDbLine
 10
-3020.69020165813
 20
2130.277598269442
 30
0.0
 11
-3020.69020165813
 21
2088.277598269442
 31
0.0
  0
LINE
  5
1B6
330
1F
100
AcDbEntity
  8
0-3_仕上げ
  6
Continuous
 62
   120
370
     5
100
AcDbLine
 10
-3020.69020165813
 20
2094.100395455677
 30
0.0
 11
-3014.867372058553
 21
2088.277598269442
 31
0.0
  0
LINE
  5
1B7
330
1F
100
AcDbEntity
  8
0-3_仕上げ
  6
Continuous
 62
    40
370
    15
100
AcDbLine
 10
-3020.69020165813
 20
2055.277598269442
 30
0.0
 11
-3020.69020165813
 21
2130.277598269442
 31
0.0
  0
LINE
  5
1B8
330
1F
100
AcDbEntity
  8
F-0_補助線
  6
JWW_HOJO
 62
   120
370
     5
100
AcDbLine
 10
-6140.081333436773
 20
-4455.0
 30
0.0
 11
-6140.081333436773
 21
4424.999604096284
 31
0.0
  0
LINE
  5
1B9
330
1F
100
AcDbEntity
  8
F-0_補助線
  6
JWW_HOJO
 62
   120
370
     5
100
AcDbLine
 10
-6140.081333436773
 20
4424.999604096284
 30
0.0
 11
6159.917676803936
 21
4424.999604096284
 31
0.0
  0
LINE
  5
1BA
330
1F
100
AcDbEntity
  8
F-0_補助線
  6
JWW_HOJO
 62
   120
370
     5
100
AcDbLine
 10
6159.917676803936
 20
4424.999604096284
 30
0.0
 11
6159.917676803936
 21
-4455.0
 31
0.0
  0
LINE
  5
1BB
330
1F
100
AcDbEntity
  8
F-0_補助線
  6
JWW_HOJO
 62
   120
370
     5
100
AcDbLine
 10
6159.917676803936
 20
-4455.0
 30
0.0
 11
-6140.081333436773
 21
-4455.0
 31
0.0
  0
LINE
  5
1BC
330
1F
100
AcDbEntity
  8
F-0_補助線
  6
JWW_HOJO
 62
   120
370
     5
100
AcDbLine
 10
-6140.081333436773
 20
194.9998020481422
 30
0.0
 11
6159.917676803936
 21
194.9998020481422
 31
0.0
  0
LINE
  5
1BD
330
1F
100
AcDbEntity
  8
F-0_補助線
  6
JWW_HOJO
 62
   120
370
     5
100
AcDbLine
 10
-5659.999495325861
 20
4424.999604096284
 30
0.0
 11
-5659.999495325861
 21
-4455.0
 31
0.0
  0
LINE
  5
1BE
330
1F
100
AcDbEntity
  8
F-0_補助線
  6
JWW_HOJO
 62
   120
370
     5
100
AcDbLine
 10
-6140.081333436773
 20
2438.999683277028
 30
0.0
 11
6159.917676803936
 21
2438.999683277028
 31
0.0
  0
LINE
  5
1BF
330
1F
100
AcDbEntity
  8
F-0_補助線
  6
JWW_HOJO
 62
   120
370
     5
100
AcDbLine
 10
-6140.081333436773
 20
-3159.000197951857
 30
0.0
 11
6159.917676803936
 21
-3159.000197951857
 31
0.0
  0
LINE
  5
1C0
330
1F
100
AcDbEntity
  8
F-0_補助線
  6
JWW_HOJO
 62
   120
370
     5
100
AcDbLine
 10
-200.0818283164182
 20
-4455.0
 30
0.0
 11
-200.0818283164182
 21
194.9998020481422
 31
0.0
  0
LINE
  5
1C1
330
1F
100
AcDbEntity
  8
F-0_補助線
  6
JWW_HOJO
 62
   120
370
     5
100
AcDbLine
 10
9.918171683581818
 20
-4455.0
 30
0.0
 11
9.918171683581818
 21
4424.999604096284
 31
0.0
  0
LINE
  5
1C2
330
1F
100
AcDbEntity
  8
F-0_補助線
  6
JWW_HOJO
 62
   120
370
     5
100
AcDbLine
 10
219.9181716835818
 20
-4455.0
 30
0.0
 11
219.9181716835818
 21
194.9998020481422
 31
0.0
  0
LINE
  5
1C3
330
1F
100
AcDbEntity
  8
F-0_補助線
  6
JWW_HOJO
 62
   120
370
     5
100
AcDbLine
 10
5679.835838693025
 20
4000.000181455872
 30
0.0
 11
5679.835838693025
 21
-4455.0
 31
0.0
  0
LINE
  5
1C4
330
1F
100
AcDbEntity
  8
F-0_補助線
  6
JWW_HOJO
 62
   120
370
     5
100
AcDbLine
 10
-6140.081333436773
 20
3730.000181455872
 30
0.0
 11
6159.917676803936
 21
3730.000181455872
 31
0.0
  0
LINE
  5
1C5
330
1F
100
AcDbEntity
  8
F-0_補助線
  6
JWW_HOJO
 62
   120
370
     5
100
AcDbLine
 10
-6140.081333436773
 20
4000.000181455872
 30
0.0
 11
6159.917676803936
 21
4000.000181455872
 31
0.0
  0
LINE
  5
1C6
330
1F
100
AcDbEntity
  8
0-0_補助線
  6
JWW_HOJO
 62
   120
370
     5
100
AcDbLine
 10
-3620.689954230303
 20
141.0001877614903
 30
0.0
 11
-1496.445684743076
 21
141.0001877614903
 31
0.0
  0
MTEXT
  5
1C7
330
1F
100
AcDbEntity
  8
0-A_文字
  6
Continuous
 62
     7
370
     9
100
AcDbMText
 10
-3680.963458813176
 20
189.2878585866052
 30
0.0
 40
91.43999999999998
 41
1800.0
 46
0.0
 71
     7
 72
     1
  1
{\fＭＳ ゴシック|b0|i0|c128|p49;　[３方枠＋レール(レール埋込)]}
 73
     1
 44
1.0
  0
LINE
  5
1C8
330
1F
100
AcDbEntity
  8
0-0_補助線
  6
JWW_HOJO
 62
   120
370
     5
100
AcDbLine
 10
-3620.689954230303
 20
141.0001877614903
 30
0.0
 11
-3620.689954230303
 21
-3159.000197951857
 31
0.0
  0
LINE
  5
1C9
330
1F
100
AcDbEntity
  8
0-0_補助線
  6
JWW_HOJO
 62
   120
370
     5
100
AcDbLine
 10
-3260.689954230303
 20
141.0001877614903
 30
0.0
 11
-3260.689954230303
 21
-3159.000197951857
 31
0.0
  0
LINE
  5
1CA
330
1F
100
AcDbEntity
  8
0-0_補助線
  6
JWW_HOJO
 62
   120
370
     5
100
AcDbLine
 10
-3440.689954230303
 20
141.0001877614903
 30
0.0
 11
-3440.689954230303
 21
-3159.000197951857
 31
0.0
  0
LINE
  5
1CB
330
1F
100
AcDbEntity
  8
0-0_補助線
  6
JWW_HOJO
 62
   120
370
     5
100
AcDbLine
 10
-1676.446211172055
 20
141.0001877614903
 30
0.0
 11
-1676.445511810126
 21
-3159.000197951856
 31
0.0
  0
LINE
  5
1CC
330
1F
100
AcDbEntity
  8
0-0_補助線
  6
JWW_HOJO
 62
   120
370
     5
100
AcDbLine
 10
-1856.446211172056
 20
141.0001877614903
 30
0.0
 11
-1856.445511810126
 21
-3159.000197951856
 31
0.0
  0
LINE
  5
1CD
330
1F
100
AcDbEntity
  8
0-0_補助線
  6
JWW_HOJO
 62
   120
370
     5
100
AcDbLine
 10
-2066.446392370072
 20
141.0001877614903
 30
0.0
 11
-2066.445693008142
 21
-3159.000197951856
 31
0.0
  0
LINE
  5
1CE
330
1F
100
AcDbEntity
  8
0-0_補助線
  6
JWW_HOJO
 62
   120
370
     5
100
AcDbLine
 10
-2984.44627365154
 20
141.0001877614903
 30
0.0
 11
-2984.44627365154
 21
-3159.000197951857
 31
0.0
  0
LINE
  5
1CF
330
1F
100
AcDbEntity
  8
0-1_通り芯
  6
JWW_CENTER1
 62
   120
370
     5
100
AcDbLine
 10
-2657.446274750248
 20
141.0001877614903
 30
0.0
 11
-2657.446274750248
 21
-3259.135954439366
 31
0.0
  0
LINE
  5
1D0
330
1F
100
AcDbEntity
  8
0-0_補助線
  6
JWW_HOJO
 62
   120
370
     5
100
AcDbLine
 10
-1496.445621164888
 20
141.0001877614903
 30
0.0
 11
-1496.444921802959
 21
-3159.000197951856
 31
0.0
  0
MTEXT
  5
1D1
330
1F
100
AcDbEntity
  8
0-B_寸法
  6
Continuous
 62
     7
370
   211
100
AcDbMText
 10
-1931.446283015296
 20
-287.2799678183735
 30
0.0
 40
91.44
 41
60.0
 46
0.0
 71
     7
 72
     1
  1
{\fＭＳ ゴシック|b0|i0|c128|p49;6}
 11
6.123031769111886E-17
 21
1.0
 31
0.0
 73
     1
 44
1.0
  0
MTEXT
  5
1D2
330
1F
100
AcDbEntity
  8
0-B_寸法
  6
Continuous
 62
     7
370
   211
100
AcDbMText
 10
-2081.446283015296
 20
-527.279542221879
 30
0.0
 40
91.44
 41
120.0
 46
0.0
 71
     7
 72
     1
  1
{\fＭＳ ゴシック|b0|i0|c128|p49;10}
 11
6.123031769111886E-17
 21
1.0
 31
0.0
 73
     1
 44
1.0
  0
MTEXT
  5
1D3
330
1F
100
AcDbEntity
  8
0-B_寸法
  6
Continuous
 62
     7
370
   211
100
AcDbMText
 10
-2081.446283015296
 20
-155.2797253273477
 30
0.0
 40
91.44
 41
120.0
 46
0.0
 71
     7
 72
     1
  1
{\fＭＳ ゴシック|b0|i0|c128|p49;11}
 11
6.123031769111886E-17
 21
1.0
 31
0.0
 73
     1
 44
1.0
  0
LINE
  5
1D4
330
1F
100
AcDbEntity
  8
0-B_寸法
  6
Continuous
 62
   120
370
     5
100
AcDbLine
 10
-2066.446283015296
 20
-374.9999678183736
 30
0.0
 11
-2198.446328791667
 21
-374.9999678183736
 31
0.0
  0
LWPOLYLINE
  5
1D5
330
1F
100
AcDbEntity
  8
0-B_寸法
  6
Continuous
 62
     7
370
     9
100
AcDbPolyline
 90
        4
 70
     1
 43
3.0
 10
-2064.946283015296
 20
-374.9999678183736
 42
0.4142135623731
 10
-2066.446283015296
 20
-373.4999678183736
 42
0.4142135623731
 10
-2067.946283015296
 20
-374.9999678183736
 42
0.4142135623731
 10
-2066.446283015296
 20
-376.4999678183737
 42
0.4142135623731
  0
LINE
  5
1D6
330
1F
100
AcDbEntity
  8
0-B_寸法
  6
Continuous
 62
   120
370
     5
100
AcDbLine
 10
-2066.446283015296
 20
-314.9999678183736
 30
0.0
 11
-2066.446283015296
 21
-374.9999678183736
 31
0.0
  0
LINE
  5
1D7
330
1F
100
AcDbEntity
  8
0-B_寸法
  6
Continuous
 62
   120
370
     5
100
AcDbLine
 10
-2066.446283015296
 20
-314.9999678183736
 30
0.0
 11
-2198.446328791667
 21
-314.9999678183736
 31
0.0
  0
LWPOLYLINE
  5
1D8
330
1F
100
AcDbEntity
  8
0-B_寸法
  6
Continuous
 62
     7
370
     9
100
AcDbPolyline
 90
        4
 70
     1
 43
3.0
 10
-2064.946283015296
 20
-314.9999678183736
 42
0.4142135623731
 10
-2066.446283015296
 20
-313.4999678183736
 42
0.4142135623731
 10
-2067.946283015296
 20
-314.9999678183736
 42
0.4142135623731
 10
-2066.446283015296
 20
-316.4999678183737
 42
0.4142135623731
  0
LINE
  5
1D9
330
1F
100
AcDbEntity
  8
0-B_寸法
  6
Continuous
 62
   120
370
     5
100
AcDbLine
 10
-2066.446283015296
 20
-260.9999678183742
 30
0.0
 11
-2066.446283015296
 21
-314.9999678183736
 31
0.0
  0
LINE
  5
1DA
330
1F
100
AcDbEntity
  8
0-B_寸法
  6
Continuous
 62
   120
370
     5
100
AcDbLine
 10
-2066.446283015296
 20
-260.9999678183742
 30
0.0
 11
-2198.446328791667
 21
-260.9999678183742
 31
0.0
  0
LWPOLYLINE
  5
1DB
330
1F
100
AcDbEntity
  8
0-B_寸法
  6
Continuous
 62
     7
370
     9
100
AcDbPolyline
 90
        4
 70
     1
 43
3.0
 10
-2064.946283015296
 20
-260.9999678183742
 42
0.4142135623731
 10
-2066.446283015296
 20
-259.4999678183742
 42
0.4142135623731
 10
-2067.946283015296
 20
-260.9999678183742
 42
0.4142135623731
 10
-2066.446283015296
 20
-262.4999678183742
 42
0.4142135623731
  0
LINE
  5
1DC
330
1F
100
AcDbEntity
  8
0-B_寸法
  6
Continuous
 62
   120
370
     5
100
AcDbLine
 10
-2066.446283015296
 20
-224.9999678183737
 30
0.0
 11
-2066.446283015296
 21
-260.9999678183742
 31
0.0
  0
LINE
  5
1DD
330
1F
100
AcDbEntity
  8
0-B_寸法
  6
Continuous
 62
   120
370
     5
100
AcDbLine
 10
-2066.446283015296
 20
-224.9999678183737
 30
0.0
 11
-2198.446328791667
 21
-224.9999678183737
 31
0.0
  0
LINE
  5
1DE
330
1F
100
AcDbEntity
  8
0-B_寸法
  6
Continuous
 62
   120
370
     5
100
AcDbLine
 10
-2066.446283015296
 20
-159.0001509238429
 30
0.0
 11
-2198.446328791667
 21
-159.0001509238429
 31
0.0
  0
LWPOLYLINE
  5
1DF
330
1F
100
AcDbEntity
  8
0-B_寸法
  6
Continuous
 62
     7
370
     9
100
AcDbPolyline
 90
        4
 70
     1
 43
3.0
 10
-2064.946283015296
 20
-224.9999678183737
 42
0.4142135623731
 10
-2066.446283015296
 20
-223.4999678183737
 42
0.4142135623731
 10
-2067.946283015296
 20
-224.9999678183737
 42
0.4142135623731
 10
-2066.446283015296
 20
-226.4999678183737
 42
0.4142135623731
  0
LWPOLYLINE
  5
1E0
330
1F
100
AcDbEntity
  8
0-B_寸法
  6
Continuous
 62
     7
370
     9
100
AcDbPolyline
 90
        4
 70
     1
 43
3.0
 10
-2064.946283015296
 20
-159.0001509238429
 42
0.4142135623731
 10
-2066.446283015296
 20
-157.5001509238429
 42
0.4142135623731
 10
-2067.946283015296
 20
-159.0001509238429
 42
0.4142135623731
 10
-2066.446283015296
 20
-160.5001509238429
 42
0.4142135623731
  0
LINE
  5
1E1
330
1F
100
AcDbEntity
  8
0-B_寸法
  6
Continuous
 62
   120
370
     5
100
AcDbLine
 10
-2066.446283015296
 20
-159.0001509238429
 30
0.0
 11
-2066.446283015296
 21
-224.9999678183737
 31
0.0
  0
MTEXT
  5
1E2
330
1F
100
AcDbEntity
  8
0-B_寸法
  6
Continuous
 62
     7
370
   211
100
AcDbMText
 10
-2081.446283015296
 20
-332.2799678183743
 30
0.0
 40
91.44
 41
60.0
 46
0.0
 71
     7
 72
     1
  1
{\fＭＳ ゴシック|b0|i0|c128|p49;9}
 11
6.123031769111886E-17
 21
1.0
 31
0.0
 73
     1
 44
1.0
  0
MTEXT
  5
1E3
330
1F
100
AcDbEntity
  8
0-A_文字
  6
Continuous
 62
     7
370
   211
100
AcDbMText
 10
-2717.446274750249
 20
-2762.782059632245
 30
0.0
 40
91.44
 41
120.0
 46
0.0
 71
     7
 72
     1
  1
{\fＭＳ ゴシック|b0|i0|c128|p49;32}
 73
     1
 44
1.0
  0
LINE
  5
1E4
330
1F
100
AcDbEntity
  8
0-A_文字
  6
Continuous
 62
   120
370
     5
100
AcDbLine
 10
-2561.446720141928
 20
-2763.502059632245
 30
0.0
 11
-2561.446720141928
 21
-2872.209769005513
 31
0.0
  0
LINE
  5
1E5
330
1F
100
AcDbEntity
  8
0-A_文字
  6
Continuous
 62
   120
370
     5
100
AcDbLine
 10
-2753.445829358569
 20
-2763.502059632245
 30
0.0
 11
-2753.445829358569
 21
-2872.209769005513
 31
0.0
  0
LWPOLYLINE
  5
1E6
330
1F
100
AcDbEntity
  8
0-A_文字
  6
Continuous
 62
     7
370
     9
100
AcDbPolyline
 90
        4
 70
     1
 43
3.0
 10
-2559.946720141928
 20
-2763.502059632245
 42
0.4142135623731
 10
-2561.446720141928
 20
-2762.002059632245
 42
0.4142135623731
 10
-2562.946720141928
 20
-2763.502059632245
 42
0.4142135623731
 10
-2561.446720141928
 20
-2765.002059632245
 42
0.4142135623731
  0
LWPOLYLINE
  5
1E7
330
1F
100
AcDbEntity
  8
0-A_文字
  6
Continuous
 62
     7
370
     9
100
AcDbPolyline
 90
        4
 70
     1
 43
3.0
 10
-2751.945829358569
 20
-2763.502059632245
 42
0.4142135623731
 10
-2753.445829358569
 20
-2762.002059632245
 42
0.4142135623731
 10
-2754.945829358569
 20
-2763.502059632245
 42
0.4142135623731
 10
-2753.445829358569
 20
-2765.002059632245
 42
0.4142135623731
  0
LINE
  5
1E8
330
1F
100
AcDbEntity
  8
0-A_文字
  6
Continuous
 62
   120
370
     5
100
AcDbLine
 10
-2753.445829358569
 20
-2763.502059632245
 30
0.0
 11
-2561.446720141928
 21
-2763.502059632245
 31
0.0
  0
LWPOLYLINE
  5
1E9
330
1F
100
AcDbEntity
  8
0-B_寸法
  6
Continuous
 62
     7
370
     9
100
AcDbPolyline
 90
        4
 70
     1
 43
3.0
 10
-1494.946274750247
 20
-3087.000242630191
 42
0.4142135623731
 10
-1496.446274750247
 20
-3085.500242630191
 42
0.4142135623731
 10
-1497.946274750247
 20
-3087.000242630191
 42
0.4142135623731
 10
-1496.446274750247
 20
-3088.500242630191
 42
0.4142135623731
  0
MTEXT
  5
1EA
330
1F
100
AcDbEntity
  8
0-B_寸法
  6
Continuous
 62
     7
370
     0
100
AcDbMText
 10
-1511.444991911581
 20
-3304.960602248575
 30
0.0
 40
91.44
 41
120.0
 46
0.0
 71
     7
 72
     1
  1
{\fＭＳ ゴシック|b0|i0|c128|p49;12}
 11
6.123031769111886E-17
 21
1.0
 31
0.0
 73
     1
 44
1.0
  0
LINE
  5
1EB
330
1F
100
AcDbEntity
  8
0-B_寸法
  6
Continuous
 62
   120
370
     5
100
AcDbLine
 10
-2066.445708267017
 20
-3086.999849354484
 30
0.0
 11
-1496.446274750247
 21
-3086.999849354484
 31
0.0
  0
LINE
  5
1EC
330
1F
100
AcDbEntity
  8
0-B_寸法
  6
Continuous
 62
   120
370
     5
100
AcDbLine
 10
-1676.446274750247
 20
-3087.000242630191
 30
0.0
 11
-1676.446274750247
 21
-159.0005913667272
 31
0.0
  0
LINE
  5
1ED
330
1F
100
AcDbEntity
  8
0-4_枠
  6
Continuous
 62
   120
370
     5
100
AcDbLine
 10
-2933.446274750248
 20
-3087.000220514217
 30
0.0
 11
-2933.446274750248
 21
-159.0005765203379
 31
0.0
  0
LINE
  5
1EE
330
1F
100
AcDbEntity
  8
0-0_補助線
  6
JWW_HOJO
 62
   120
370
     5
100
AcDbLine
 10
-2427.760506727866
 20
-1779.000695291454
 30
0.0
 11
-2887.132042772627
 21
-1779.000695291454
 31
0.0
  0
LINE
  5
1EF
330
1F
100
AcDbEntity
  8
0-0_補助線
  6
JWW_HOJO
 62
   120
370
     5
100
AcDbLine
 10
-2427.760506727866
 20
-1659.000695291453
 30
0.0
 11
-2887.132042772627
 21
-1659.000695291453
 31
0.0
  0
LINE
  5
1F0
330
1F
100
AcDbEntity
  8
0-0_補助線
  6
JWW_HOJO
 62
   120
370
     5
100
AcDbLine
 10
-3260.689954230303
 20
-3159.000197951857
 30
0.0
 11
-2066.445693008142
 21
-3159.000197951857
 31
0.0
  0
LINE
  5
1F1
330
1F
100
AcDbEntity
  8
0-3_仕上げ
  6
Continuous
 62
    40
370
    15
100
AcDbLine
 10
-3260.689954230303
 20
-3159.000198244633
 30
0.0
 11
-2066.445693008142
 21
-3159.000198244633
 31
0.0
  0
LINE
  5
1F2
330
1F
100
AcDbEntity
  8
0-B_寸法
  6
Continuous
 62
   120
370
     5
100
AcDbLine
 10
-3620.689954230303
 20
-110.8546555395117
 30
0.0
 11
-3620.689954230303
 21
-3159.000197951857
 31
0.0
  0
LWPOLYLINE
  5
1F3
330
1F
100
AcDbEntity
  8
0-B_寸法
  6
Continuous
 62
     7
370
     9
100
AcDbPolyline
 90
        4
 70
     1
 43
3.0
 10
-3619.189954230303
 20
-110.8546555395117
 42
0.4142135623731
 10
-3620.689954230303
 20
-109.3546555395117
 42
0.4142135623731
 10
-3622.189954230303
 20
-110.8546555395117
 42
0.4142135623731
 10
-3620.689954230303
 20
-112.3546555395117
 42
0.4142135623731
  0
LINE
  5
1F4
330
1F
100
AcDbEntity
  8
0-B_寸法
  6
Continuous
 62
   120
370
     5
100
AcDbLine
 10
-3620.689954230303
 20
-110.8546555395117
 30
0.0
 11
-2984.446273653771
 21
-110.8546555395117
 31
0.0
  0
LINE
  5
1F5
330
1F
100
AcDbEntity
  8
0-3_仕上げ
  6
Continuous
 62
     7
370
     9
100
AcDbLine
 10
-3260.689954230303
 20
-3135.000081947915
 30
0.0
 11
-2732.446274750248
 21
-3135.000081947915
 31
0.0
  0
LINE
  5
1F6
330
1F
100
AcDbEntity
  8
0-3_仕上げ
  6
Continuous
 62
     7
370
     9
100
AcDbLine
 10
-3260.689954230303
 20
-3123.00011658949
 30
0.0
 11
-2732.446274750248
 21
-3123.00011658949
 31
0.0
  0
LINE
  5
1F7
330
1F
100
AcDbEntity
  8
0-3_仕上げ
  6
Continuous
 62
     7
370
     9
100
AcDbLine
 10
-3260.689954230303
 20
-3111.000151231065
 30
0.0
 11
-2732.446274750248
 21
-3111.000151231065
 31
0.0
  0
LINE
  5
1F8
330
1F
100
AcDbEntity
  8
0-3_仕上げ
  6
Continuous
 62
     7
370
     9
100
AcDbLine
 10
-3260.689954230303
 20
-3099.000000292773
 30
0.0
 11
-2732.446274750248
 21
-3099.000000292773
 31
0.0
  0
LINE
  5
1F9
330
1F
100
AcDbEntity
  8
0-3_仕上げ
  6
Continuous
 62
     7
370
     9
100
AcDbLine
 10
-3260.689954230303
 20
-3147.000232886208
 30
0.0
 11
-2732.446274750248
 21
-3147.000232886208
 31
0.0
  0
LINE
  5
1FA
330
1F
100
AcDbEntity
  8
0-3_仕上げ
  6
Continuous
 62
    40
370
    15
100
AcDbLine
 10
-3260.689954230303
 20
-3087.000220514215
 30
0.0
 11
-2732.446274750248
 21
-3087.000220514215
 31
0.0
  0
LINE
  5
1FB
330
1F
100
AcDbEntity
  8
0-B_寸法
  6
Continuous
 62
   120
370
     5
100
AcDbLine
 10
-3620.689954230303
 20
-3159.000197951857
 30
0.0
 11
-3260.689954230303
 21
-3159.000197951857
 31
0.0
  0
LWPOLYLINE
  5
1FC
330
1F
100
AcDbEntity
  8
0-B_寸法
  6
Continuous
 62
     7
370
     9
100
AcDbPolyline
 90
        4
 70
     1
 43
3.0
 10
-3619.189954230303
 20
-3159.000197951857
 42
0.4142135623731
 10
-3620.689954230303
 20
-3157.500197951857
 42
0.4142135623731
 10
-3622.189954230303
 20
-3159.000197951857
 42
0.4142135623731
 10
-3620.689954230303
 20
-3160.500197951857
 42
0.4142135623731
  0
LWPOLYLINE
  5
1FD
330
1F
100
AcDbEntity
  8
0-B_寸法
  6
Continuous
 62
     7
370
     9
100
AcDbPolyline
 90
        4
 70
     1
 43
3.0
 10
-1494.945684743084
 20
-3159.000198244633
 42
0.4142135623731
 10
-1496.445684743084
 20
-3157.500198244633
 42
0.4142135623731
 10
-1497.945684743084
 20
-3159.000198244633
 42
0.4142135623731
 10
-1496.445684743084
 20
-3160.500198244633
 42
0.4142135623731
  0
LINE
  5
1FE
330
1F
100
AcDbEntity
  8
0-B_寸法
  6
Continuous
 62
   120
370
     5
100
AcDbLine
 10
-2066.445693008142
 20
-3159.000198244633
 30
0.0
 11
-1496.445684743084
 21
-3159.000198244633
 31
0.0
  0
LWPOLYLINE
  5
1FF
330
1F
100
AcDbEntity
  8
0-B_寸法
  6
Continuous
 62
     7
370
     9
100
AcDbPolyline
 90
        4
 70
     1
 43
3.0
 10
-1494.945684743084
 20
-159.0005913667272
 42
0.4142135623731
 10
-1496.445684743084
 20
-157.5005913667272
 42
0.4142135623731
 10
-1497.945684743084
 20
-159.0005913667272
 42
0.4142135623731
 10
-1496.445684743084
 20
-160.5005913667272
 42
0.4142135623731
  0
LINE
  5
200
330
1F
100
AcDbEntity
  8
0-B_寸法
  6
Continuous
 62
   120
370
     5
100
AcDbLine
 10
-2066.446328791571
 20
-159.0005913667272
 30
0.0
 11
-1496.445684743084
 21
-159.0005913667272
 31
0.0
  0
LINE
  5
201
330
1F
100
AcDbEntity
  8
0-B_寸法
  6
Continuous
 62
   120
370
     5
100
AcDbLine
 10
-1496.445684743084
 20
-110.8546555395117
 30
0.0
 11
-2066.446328791571
 21
-110.8546555395117
 31
0.0
  0
LINE
  5
202
330
1F
100
AcDbEntity
  8
0-B_寸法
  6
Continuous
 62
   120
370
     5
100
AcDbLine
 10
-1496.445684743084
 20
-3159.000198244633
 30
0.0
 11
-1496.445684743084
 21
-12.03090574349076
 31
0.0
  0
LWPOLYLINE
  5
203
330
1F
100
AcDbEntity
  8
0-B_寸法
  6
Continuous
 62
     7
370
     9
100
AcDbPolyline
 90
        4
 70
     1
 43
3.0
 10
-1494.945684743084
 20
-110.8546555395117
 42
0.4142135623731
 10
-1496.445684743084
 20
-109.3546555395117
 42
0.4142135623731
 10
-1497.945684743084
 20
-110.8546555395117
 42
0.4142135623731
 10
-1496.445684743084
 20
-112.3546555395117
 42
0.4142135623731
  0
MTEXT
  5
204
330
1F
100
AcDbEntity
  8
0-B_寸法
  6
Continuous
 62
     7
370
   211
100
AcDbMText
 10
-1508.355053035714
 20
-119.4889423491458
 30
0.0
 40
91.44
 41
60.0
 46
0.0
 71
     7
 72
     1
  1
{\fＭＳ ゴシック|b0|i0|c128|p49;8}
 11
6.123031769111886E-17
 21
1.0
 31
0.0
 73
     1
 44
1.0
  0
LWPOLYLINE
  5
205
330
1F
100
AcDbEntity
  8
0-B_寸法
  6
Continuous
 62
     7
370
     9
100
AcDbPolyline
 90
        4
 70
     1
 43
3.0
 10
-1674.946274750247
 20
-3086.999849354484
 42
0.4142135623731
 10
-1676.446274750247
 20
-3085.499849354484
 42
0.4142135623731
 10
-1677.946274750247
 20
-3086.999849354484
 42
0.4142135623731
 10
-1676.446274750247
 20
-3088.499849354484
 42
0.4142135623731
  0
LWPOLYLINE
  5
206
330
1F
100
AcDbEntity
  8
0-B_寸法
  6
Continuous
 62
     7
370
     9
100
AcDbPolyline
 90
        4
 70
     1
 43
3.0
 10
-1674.946274750247
 20
-3158.999827084901
 42
0.4142135623731
 10
-1676.446274750247
 20
-3157.499827084901
 42
0.4142135623731
 10
-1677.946274750247
 20
-3158.999827084901
 42
0.4142135623731
 10
-1676.446274750247
 20
-3160.499827084901
 42
0.4142135623731
  0
LINE
  5
207
330
1F
100
AcDbEntity
  8
0-B_寸法
  6
Continuous
 62
   120
370
     5
100
AcDbLine
 10
-1856.446274750244
 20
-3158.999827084901
 30
0.0
 11
-1676.446274750247
 21
-3158.999827084901
 31
0.0
  0
LWPOLYLINE
  5
208
330
1F
100
AcDbEntity
  8
0-B_寸法
  6
Continuous
 62
     7
370
     9
100
AcDbPolyline
 90
        4
 70
     1
 43
3.0
 10
-1674.946274750247
 20
-159.0005913667272
 42
0.4142135623731
 10
-1676.446274750247
 20
-157.5005913667272
 42
0.4142135623731
 10
-1677.946274750247
 20
-159.0005913667272
 42
0.4142135623731
 10
-1676.446274750247
 20
-160.5005913667272
 42
0.4142135623731
  0
LWPOLYLINE
  5
209
330
1F
100
AcDbEntity
  8
0-B_寸法
  6
Continuous
 62
     7
370
     9
100
AcDbPolyline
 90
        4
 70
     1
 43
3.0
 10
-1674.946274750247
 20
-374.9995966586397
 42
0.4142135623731
 10
-1676.446274750247
 20
-373.4995966586397
 42
0.4142135623731
 10
-1677.946274750247
 20
-374.9995966586397
 42
0.4142135623731
 10
-1676.446274750247
 20
-376.4995966586397
 42
0.4142135623731
  0
MTEXT
  5
20A
330
1F
100
AcDbEntity
  8
0-B_寸法
  6
Continuous
 62
     7
370
     0
100
AcDbMText
 10
-1691.445581918744
 20
-341.2800940126834
 30
0.0
 40
91.44
 41
120.0
 46
0.0
 71
     7
 72
     1
  1
{\fＭＳ ゴシック|b0|i0|c128|p49;36}
 11
6.123031769111886E-17
 21
1.0
 31
0.0
 73
     1
 44
1.0
  0
LINE
  5
20B
330
1F
100
AcDbEntity
  8
0-B_寸法
  6
Continuous
 62
   120
370
     5
100
AcDbLine
 10
-1856.446274750244
 20
-374.9995966586397
 30
0.0
 11
-1676.446274750247
 21
-374.9995966586397
 31
0.0
  0
MTEXT
  5
20C
330
1F
100
AcDbEntity
  8
0-B_寸法
  6
Continuous
 62
     7
370
     0
100
AcDbMText
 10
-1870.912769997655
 20
-3052.411987236232
 30
0.0
 40
91.44
 41
180.0
 46
0.0
 71
     7
 72
     1
  1
{\fＭＳ ゴシック|b0|i0|c128|p49;8.5}
 11
6.123031769111886E-17
 21
1.0
 31
0.0
 73
     1
 44
1.0
  0
LWPOLYLINE
  5
20D
330
1F
100
AcDbEntity
  8
0-B_寸法
  6
Continuous
 62
     7
370
     9
100
AcDbPolyline
 90
        4
 70
     1
 43
3.0
 10
-1854.946274750244
 20
-3086.999849354484
 42
0.4142135623731
 10
-1856.446274750244
 20
-3085.499849354484
 42
0.4142135623731
 10
-1857.946274750244
 20
-3086.999849354484
 42
0.4142135623731
 10
-1856.446274750244
 20
-3088.499849354484
 42
0.4142135623731
  0
LWPOLYLINE
  5
20E
330
1F
100
AcDbEntity
  8
0-B_寸法
  6
Continuous
 62
     7
370
     9
100
AcDbPolyline
 90
        4
 70
     1
 43
3.0
 10
-1854.946274750244
 20
-3035.999718211377
 42
0.4142135623731
 10
-1856.446274750244
 20
-3034.499718211377
 42
0.4142135623731
 10
-1857.946274750244
 20
-3035.999718211377
 42
0.4142135623731
 10
-1856.446274750244
 20
-3037.499718211377
 42
0.4142135623731
  0
LINE
  5
20F
330
1F
100
AcDbEntity
  8
0-B_寸法
  6
Continuous
 62
   120
370
     5
100
AcDbLine
 10
-2066.445719075363
 20
-3035.999718211377
 30
0.0
 11
-1856.446274750244
 21
-3035.999718211377
 31
0.0
  0
LINE
  5
210
330
1F
100
AcDbEntity
  8
0-B_寸法
  6
Continuous
 62
   120
370
     5
100
AcDbLine
 10
-1856.446274750244
 20
-3086.999849354484
 30
0.0
 11
-1856.446274750244
 21
-374.9999678183736
 31
0.0
  0
LWPOLYLINE
  5
211
330
1F
100
AcDbEntity
  8
0-B_寸法
  6
Continuous
 62
     7
370
     9
100
AcDbPolyline
 90
        4
 70
     1
 43
3.0
 10
-1854.946274750244
 20
-420.0001162822674
 42
0.4142135623731
 10
-1856.446274750244
 20
-418.5001162822674
 42
0.4142135623731
 10
-1857.946274750244
 20
-420.0001162822674
 42
0.4142135623731
 10
-1856.446274750244
 20
-421.5001162822675
 42
0.4142135623731
  0
LWPOLYLINE
  5
212
330
1F
100
AcDbEntity
  8
0-B_寸法
  6
Continuous
 62
     7
370
     9
100
AcDbPolyline
 90
        4
 70
     1
 43
3.0
 10
-1854.946274750244
 20
-374.9999678183736
 42
0.4142135623731
 10
-1856.446274750244
 20
-373.4999678183736
 42
0.4142135623731
 10
-1857.946274750244
 20
-374.9999678183736
 42
0.4142135623731
 10
-1856.446274750244
 20
-376.4999678183737
 42
0.4142135623731
  0
MTEXT
  5
213
330
1F
100
AcDbEntity
  8
0-B_寸法
  6
Continuous
 62
     7
370
     0
100
AcDbMText
 10
-1870.874057330547
 20
-612.2363364733093
 30
0.0
 40
91.44
 41
180.0
 46
0.0
 71
     7
 72
     1
  1
{\fＭＳ ゴシック|b0|i0|c128|p49;7.5}
 11
6.123031769111886E-17
 21
1.0
 31
0.0
 73
     1
 44
1.0
  0
LINE
  5
214
330
1F
100
AcDbEntity
  8
0-B_寸法
  6
Continuous
 62
   120
370
     5
100
AcDbLine
 10
-2066.446273478513
 20
-420.0001162822674
 30
0.0
 11
-1856.446274750244
 21
-420.0001162822674
 31
0.0
  0
LINE
  5
215
330
1F
100
AcDbEntity
  8
0-B_寸法
  6
Continuous
 62
   120
370
     5
100
AcDbLine
 10
-2066.446283015296
 20
-374.9999678183736
 30
0.0
 11
-1856.446274750244
 21
-374.9999678183736
 31
0.0
  0
LINE
  5
216
330
1F
100
AcDbEntity
  8
0-3_仕上げ
  6
Continuous
 62
    40
370
    15
100
AcDbLine
 10
-2066.445709776227
 20
-3087.000220514215
 30
0.0
 11
-2582.446274750248
 21
-3087.000220514215
 31
0.0
  0
LINE
  5
217
330
1F
100
AcDbEntity
  8
0-3_仕上げ
  6
Continuous
 62
     7
370
     9
100
AcDbLine
 10
-2582.446274750248
 20
-3147.000232886208
 30
0.0
 11
-2066.445695802816
 21
-3147.000232886208
 31
0.0
  0
LINE
  5
218
330
1F
100
AcDbEntity
  8
0-3_仕上げ
  6
Continuous
 62
     7
370
     9
100
AcDbLine
 10
-2582.446274750248
 20
-3099.000000292773
 30
0.0
 11
-2066.445706981598
 21
-3099.000000292773
 31
0.0
  0
LINE
  5
219
330
1F
100
AcDbEntity
  8
0-3_仕上げ
  6
Continuous
 62
     7
370
     9
100
AcDbLine
 10
-2582.446274750248
 20
-3111.000151231065
 30
0.0
 11
-2066.44570418688
 21
-3111.000151231065
 31
0.0
  0
LINE
  5
21A
330
1F
100
AcDbEntity
  8
0-3_仕上げ
  6
Continuous
 62
     7
370
     9
100
AcDbLine
 10
-2582.446274750248
 20
-3123.00011658949
 30
0.0
 11
-2066.445701392206
 21
-3123.00011658949
 31
0.0
  0
LINE
  5
21B
330
1F
100
AcDbEntity
  8
0-3_仕上げ
  6
Continuous
 62
     7
370
     9
100
AcDbLine
 10
-2582.446274750248
 20
-3135.000081947915
 30
0.0
 11
-2066.445698597532
 21
-3135.000081947915
 31
0.0
  0
LINE
  5
21C
330
1F
100
AcDbEntity
  8
0-4_枠
  6
Continuous
 62
   120
370
     5
100
AcDbLine
 10
-2933.446274750248
 20
-159.0005765203379
 30
0.0
 11
-2789.446290644831
 21
-159.0005765203379
 31
0.0
  0
LINE
  5
21D
330
1F
100
AcDbEntity
  8
0-4_枠
  6
Continuous
 62
    92
370
    13
100
AcDbLine
 10
-2573.446698181645
 20
-254.9999356511972
 30
0.0
 11
-2573.446698181645
 21
-375.0003934148691
 31
0.0
  0
LINE
  5
21E
330
1F
100
AcDbEntity
  8
0-4_枠
  6
Continuous
 62
    92
370
    13
100
AcDbLine
 10
-2573.446698181645
 20
-375.0003934148691
 30
0.0
 11
-2390.446290644836
 21
-375.0003934148691
 31
0.0
  0
LINE
  5
21F
330
1F
100
AcDbEntity
  8
0-4_枠
  6
Continuous
 62
    92
370
    13
100
AcDbLine
 10
-2741.446951024548
 20
-375.0003934148691
 30
0.0
 11
-2741.446951024548
 21
-254.9999356511972
 31
0.0
  0
LINE
  5
220
330
1F
100
AcDbEntity
  8
0-4_枠
  6
Continuous
 62
    92
370
    13
100
AcDbLine
 10
-2924.446336421202
 20
-375.0003934148691
 30
0.0
 11
-2741.446951024548
 21
-375.0003934148691
 31
0.0
  0
LINE
  5
221
330
1F
100
AcDbEntity
  8
0-C_ハッチ
  6
Continuous
 62
   120
370
     5
100
AcDbLine
 10
-2497.396747256062
 20
-375.0003934148759
 30
0.0
 11
-2437.396747256055
 21
-315.0003934148691
 31
0.0
  0
LINE
  5
222
330
1F
100
AcDbEntity
  8
0-C_ハッチ
  6
Continuous
 62
   120
370
     5
100
AcDbLine
 10
-2442.793716875703
 20
-261.0003934148692
 30
0.0
 11
-2406.793716875703
 21
-225.0003934148691
 31
0.0
  0
LINE
  5
223
330
1F
100
AcDbEntity
  8
0-C_ハッチ
  6
Continuous
 62
   120
370
     5
100
AcDbLine
 10
-2556.793716875706
 20
-375.0003934148725
 30
0.0
 11
-2450.446268106849
 21
-268.6529446460156
 31
0.0
  0
LINE
  5
224
330
1F
100
AcDbEntity
  8
0-C_ハッチ
  6
Continuous
 62
   120
370
     5
100
AcDbLine
 10
-2573.445598475949
 20
-332.2553053954157
 30
0.0
 11
-2432.446266485063
 21
-191.2559734045286
 31
0.0
  0
LINE
  5
225
330
1F
100
AcDbEntity
  8
0-C_ハッチ
  6
Continuous
 62
   120
370
     5
100
AcDbLine
 10
-2573.445598475949
 20
-272.8583357757684
 30
0.0
 11
-2459.58783922052
 21
-159.0005765203379
 31
0.0
  0
LINE
  5
226
330
1F
100
AcDbEntity
  8
0-C_ハッチ
  6
Continuous
 62
   120
370
     5
100
AcDbLine
 10
-2614.984167971078
 20
-254.999935651196
 30
0.0
 11
-2518.98480884022
 21
-159.0005765203379
 31
0.0
  0
LINE
  5
227
330
1F
100
AcDbEntity
  8
0-C_ハッチ
  6
Continuous
 62
   120
370
     5
100
AcDbLine
 10
-2924.446326221927
 20
-326.8742154233986
 30
0.0
 11
-2792.572687318867
 21
-195.000576520338
 31
0.0
  0
LINE
  5
228
330
1F
100
AcDbEntity
  8
0-C_ハッチ
  6
Continuous
 62
   120
370
     5
100
AcDbLine
 10
-2789.446297611663
 20
-191.8741868131342
 30
0.0
 11
-2756.572687318874
 21
-159.0005765203456
 31
0.0
  0
LINE
  5
229
330
1F
100
AcDbEntity
  8
0-C_ハッチ
  6
Continuous
 62
   120
370
     5
100
AcDbLine
 10
-2924.446313634055
 20
-267.4772332158251
 30
0.0
 11
-2851.969656938567
 21
-195.000576520338
 31
0.0
  0
LINE
  5
22A
330
1F
100
AcDbEntity
  8
0-C_ハッチ
  6
Continuous
 62
   120
370
     5
100
AcDbLine
 10
-2924.446301046182
 20
-208.0802510083177
 30
0.0
 11
-2911.366626558206
 21
-195.000576520338
 31
0.0
  0
LINE
  5
22B
330
1F
100
AcDbEntity
  8
0-4_枠
  6
Continuous
 62
    92
370
    13
100
AcDbLine
 10
-2450.44626648506
 20
-261.0003934148692
 30
0.0
 11
-2390.446266485064
 21
-261.0003934148692
 31
0.0
  0
LINE
  5
22C
330
1F
100
AcDbEntity
  8
0-4_枠
  6
Continuous
 62
    92
370
    13
100
AcDbLine
 10
-2450.44626648506
 20
-261.0003934148692
 30
0.0
 11
-2450.446277929165
 21
-315.0003934148691
 31
0.0
  0
LINE
  5
22D
330
1F
100
AcDbEntity
  8
0-4_枠
  6
Continuous
 62
    92
370
    13
100
AcDbLine
 10
-2450.446277929165
 20
-315.0003934148691
 30
0.0
 11
-2390.446277929165
 21
-315.0003934148691
 31
0.0
  0
LINE
  5
22E
330
1F
100
AcDbEntity
  8
0-4_枠
  6
Continuous
 62
    92
370
    13
100
AcDbLine
 10
-2924.446298274235
 20
-195.000576520338
 30
0.0
 11
-2924.446336421202
 21
-375.0003934148691
 31
0.0
  0
LINE
  5
22F
330
1F
100
AcDbEntity
  8
0-4_枠
  6
Continuous
 62
    92
370
    13
100
AcDbLine
 10
-2924.446298274235
 20
-195.000576520338
 30
0.0
 11
-2789.446298274232
 21
-195.000576520338
 31
0.0
  0
LINE
  5
230
330
1F
100
AcDbEntity
  8
0-4_枠
  6
Continuous
 62
    92
370
    13
100
AcDbLine
 10
-2789.446290644831
 20
-159.0005765203379
 30
0.0
 11
-2789.446298274232
 21
-195.000576520338
 31
0.0
  0
LINE
  5
231
330
1F
100
AcDbEntity
  8
0-4_枠
  6
Continuous
 62
    92
370
    13
100
AcDbLine
 10
-2789.446290644831
 20
-159.0005765203379
 30
0.0
 11
-2432.446266485063
 21
-159.0005765203379
 31
0.0
  0
LINE
  5
232
330
1F
100
AcDbEntity
  8
0-4_枠
  6
Continuous
 62
    92
370
    13
100
AcDbLine
 10
-2741.446951024548
 20
-254.9999356511972
 30
0.0
 11
-2573.446698181645
 21
-254.9999356511972
 31
0.0
  0
LINE
  5
233
330
1F
100
AcDbEntity
  8
0-4_枠
  6
Continuous
 62
    92
370
    13
100
AcDbLine
 10
-2432.446266485063
 20
-225.0003934148691
 30
0.0
 11
-2432.446266485063
 21
-159.0005765203379
 31
0.0
  0
LINE
  5
234
330
1F
100
AcDbEntity
  8
0-4_枠
  6
Continuous
 62
    92
370
    13
100
AcDbLine
 10
-2432.446266485063
 20
-225.0003934148691
 30
0.0
 11
-2390.446258855663
 21
-225.0003934148691
 31
0.0
  0
LINE
  5
235
330
1F
100
AcDbEntity
  8
0-4_枠
  6
Continuous
 62
    92
370
    13
100
AcDbLine
 10
-2390.446258855663
 20
-225.0003934148691
 30
0.0
 11
-2390.446266485064
 21
-261.0003934148692
 31
0.0
  0
LINE
  5
236
330
1F
100
AcDbEntity
  8
0-4_枠
  6
Continuous
 62
    92
370
    13
100
AcDbLine
 10
-2390.446277929165
 20
-315.0003934148691
 30
0.0
 11
-2390.446290644836
 21
-375.0003934148691
 31
0.0
  0
LINE
  5
237
330
1F
100
AcDbEntity
  8
0-C_ハッチ
  6
Continuous
 62
   120
370
     5
100
AcDbLine
 10
-2794.381595354391
 20
-375.0003934148606
 30
0.0
 11
-2741.445851318852
 21
-322.0646493793211
 31
0.0
  0
LINE
  5
238
330
1F
100
AcDbEntity
  8
0-C_ハッチ
  6
Continuous
 62
   120
370
     5
100
AcDbLine
 10
-2733.778107210431
 20
-254.9999356511972
 30
0.0
 11
-2637.778748079559
 21
-159.0005765203277
 31
0.0
  0
LINE
  5
239
330
1F
100
AcDbEntity
  8
0-C_ハッチ
  6
Continuous
 62
   120
370
     5
100
AcDbLine
 10
-2853.778564974099
 20
-375.0003934148666
 30
0.0
 11
-2741.445851318852
 21
-262.6676797596193
 31
0.0
  0
LINE
  5
23A
330
1F
100
AcDbEntity
  8
0-C_ハッチ
  6
Continuous
 62
   120
370
     5
100
AcDbLine
 10
-2743.984595852971
 20
-375.0003934148687
 30
0.0
 11
-2741.445851318852
 21
-372.4616488807521
 31
0.0
  0
LINE
  5
23B
330
1F
100
AcDbEntity
  8
0-C_ハッチ
  6
Continuous
 62
   120
370
     5
100
AcDbLine
 10
-2913.175534593757
 20
-375.0003934148793
 30
0.0
 11
-2697.175717699213
 21
-159.0005765203324
 31
0.0
  0
LINE
  5
23C
330
1F
100
AcDbEntity
  8
0-C_ハッチ
  6
Continuous
 62
   120
370
     5
100
AcDbLine
 10
-2674.381137590736
 20
-254.9999356512062
 30
0.0
 11
-2578.381778459864
 21
-159.0005765203345
 31
0.0
  0
LINE
  5
23D
330
1F
100
AcDbEntity
  8
0-C_ハッチ
  6
Continuous
 62
   120
370
     5
100
AcDbLine
 10
-2437.999777636401
 20
-375.0003934148631
 30
0.0
 11
-2390.446223157224
 21
-327.4468389356845
 31
0.0
  0
MTEXT
  5
23E
330
1F
100
AcDbEntity
  8
0-B_寸法
  6
Continuous
 62
     7
370
     0
100
AcDbMText
 10
-2773.69572017473
 20
-1182.488789299103
 30
0.0
 40
91.43999999999986
 41
239.9999999999996
 46
0.0
 71
     7
 72
     1
  1
{\fＭＳ ゴシック|b0|i0|c128|p49;(24)}
 11
0.9999999999914964
 21
-4.124000483563069E-6
 31
0.0
 73
     1
 44
1.0
  0
LINE
  5
23F
330
1F
100
AcDbEntity
  8
0-7_金物
  6
Continuous
 62
     7
370
     9
100
AcDbLine
 10
-2747.44657801868
 20
-122.8549931402202
 30
0.0
 11
-2567.446715347784
 21
-122.8549931402202
 31
0.0
  0
LINE
  5
240
330
1F
100
AcDbEntity
  8
0-7_金物
  6
Continuous
 62
     7
370
     9
100
AcDbLine
 10
-2567.446715347784
 20
-110.8546555395117
 30
0.0
 11
-2567.446715347784
 21
-122.8549931402202
 31
0.0
  0
LINE
  5
241
330
1F
100
AcDbEntity
  8
0-7_金物
  6
Continuous
 62
     7
370
     9
100
AcDbLine
 10
-2747.44657801868
 20
-110.8546555395117
 30
0.0
 11
-2747.44657801868
 21
-122.8549931402202
 31
0.0
  0
LINE
  5
242
330
1F
100
AcDbEntity
  8
0-7_金物
  6
Continuous
 62
     7
370
     9
100
AcDbLine
 10
-2747.44657801868
 20
-110.8546555395117
 30
0.0
 11
-2567.446715347784
 21
-110.8546555395117
 31
0.0
  0
LINE
  5
243
330
1F
100
AcDbEntity
  8
0-7_金物
  6
Continuous
 62
     7
370
     9
100
AcDbLine
 10
-2717.446475021855
 20
-122.8549931402202
 30
0.0
 11
-2717.446475021855
 21
-134.8545868749619
 31
0.0
  0
LINE
  5
244
330
1F
100
AcDbEntity
  8
0-7_金物
  6
Continuous
 62
     7
370
     9
100
AcDbLine
 10
-2597.446818344609
 20
-122.8549931402202
 30
0.0
 11
-2597.446818344609
 21
-134.8545868749619
 31
0.0
  0
LINE
  5
245
330
1F
100
AcDbEntity
  8
0-7_金物
  6
Continuous
 62
     7
370
     9
100
AcDbLine
 10
-2717.446475021855
 20
-134.8545868749619
 30
0.0
 11
-2597.446818344609
 21
-134.8545868749619
 31
0.0
  0
LINE
  5
246
330
1F
100
AcDbEntity
  8
0-7_金物
  6
Continuous
 62
     7
370
     9
100
AcDbLine
 10
-2711.446309082524
 20
-134.8545868749619
 30
0.0
 11
-2711.446309082524
 21
-159.0005765203379
 31
0.0
  0
LINE
  5
247
330
1F
100
AcDbEntity
  8
0-7_金物
  6
Continuous
 62
     7
370
     9
100
AcDbLine
 10
-2603.446240417973
 20
-159.0005765203379
 30
0.0
 11
-2603.446240417973
 21
-134.8545868749619
 31
0.0
  0
LINE
  5
248
330
1F
100
AcDbEntity
  8
0-6_扉
  6
Continuous
 62
   200
370
    20
100
AcDbLine
 10
-2576.446274750249
 20
-1659.000695291453
 30
0.0
 11
-2576.446274750249
 21
-420.0004849676036
 31
0.0
  0
LINE
  5
249
330
1F
100
AcDbEntity
  8
0-6_扉
  6
Continuous
 62
   200
370
    20
100
AcDbLine
 10
-2738.44627475025
 20
-1659.000695291453
 30
0.0
 11
-2738.44627475025
 21
-420.0004849676036
 31
0.0
  0
LINE
  5
24A
330
1F
100
AcDbEntity
  8
0-6_扉
  6
Continuous
 62
   200
370
    20
100
AcDbLine
 10
-2576.446274750249
 20
-420.0004849676036
 30
0.0
 11
-2738.44627475025
 21
-420.0004849676036
 31
0.0
  0
LINE
  5
24B
330
1F
100
AcDbEntity
  8
0-7_金物
  6
Continuous
 62
     7
370
     9
100
AcDbLine
 10
-2729.44551944019
 20
-267.0003018621348
 30
0.0
 11
-2729.44551944019
 21
-375.0003934148691
 31
0.0
  0
LINE
  5
24C
330
1F
100
AcDbEntity
  8
0-7_金物
  6
Continuous
 62
     7
370
     9
100
AcDbLine
 10
-2585.445191853062
 20
-267.0003018621348
 30
0.0
 11
-2729.44551944019
 21
-267.0003018621348
 31
0.0
  0
LINE
  5
24D
330
1F
100
AcDbEntity
  8
0-7_金物
  6
Continuous
 62
     7
370
     9
100
AcDbLine
 10
-2585.445191853062
 20
-375.0003934148691
 30
0.0
 11
-2585.445191853062
 21
-267.0003018621348
 31
0.0
  0
LINE
  5
24E
330
1F
100
AcDbEntity
  8
0-7_金物
  6
Continuous
 62
     7
370
     9
100
AcDbLine
 10
-2591.266462318914
 20
-361.7881436590091
 30
0.0
 11
-2591.266462318914
 21
-295.7881436590098
 31
0.0
  0
LINE
  5
24F
330
1F
100
AcDbEntity
  8
0-7_金物
  6
Continuous
 62
     7
370
     9
100
AcDbLine
 10
-2591.266462318914
 20
-295.7881436590098
 30
0.0
 11
-2627.445628159063
 21
-295.7881436590098
 31
0.0
  0
LINE
  5
250
330
1F
100
AcDbEntity
  8
0-7_金物
  6
Continuous
 62
     7
370
     9
100
AcDbLine
 10
-2627.445628159063
 20
-375.0003934148691
 30
0.0
 11
-2627.445628159063
 21
-278.999935651198
 31
0.0
  0
LINE
  5
251
330
1F
100
AcDbEntity
  8
0-7_金物
  6
Continuous
 62
     7
370
     9
100
AcDbLine
 10
-2627.445628159063
 20
-278.999935651198
 30
0.0
 11
-2687.447316162603
 21
-278.999935651198
 31
0.0
  0
LINE
  5
252
330
1F
100
AcDbEntity
  8
0-7_金物
  6
Continuous
 62
     7
370
     9
100
AcDbLine
 10
-2687.447316162603
 20
-278.999935651198
 30
0.0
 11
-2687.447316162603
 21
-375.0003934148691
 31
0.0
  0
LINE
  5
253
330
1F
100
AcDbEntity
  8
0-7_金物
  6
Continuous
 62
     7
370
     9
100
AcDbLine
 10
-2723.265709869877
 20
-295.7881436590098
 30
0.0
 11
-2723.265709869877
 21
-361.7881436590091
 31
0.0
  0
LINE
  5
254
330
1F
100
AcDbEntity
  8
0-7_金物
  6
Continuous
 62
     7
370
     9
100
AcDbLine
 10
-2687.447316162603
 20
-295.7881436590098
 30
0.0
 11
-2723.265709869877
 21
-295.7881436590098
 31
0.0
  0
LINE
  5
255
330
1F
100
AcDbEntity
  8
0-7_金物
  6
Continuous
 62
     7
370
     9
100
AcDbLine
 10
-2741.445851318852
 20
-375.0003934148691
 30
0.0
 11
-2759.445622437017
 21
-375.0003934148691
 31
0.0
  0
LINE
  5
256
330
1F
100
AcDbEntity
  8
0-7_金物
  6
Continuous
 62
     7
370
     9
100
AcDbLine
 10
-2722.441735260502
 20
-381.0004849676028
 30
0.0
 11
-2722.441735260502
 21
-375.0003934148691
 31
0.0
  0
LINE
  5
257
330
1F
100
AcDbEntity
  8
0-7_金物
  6
Continuous
 62
     7
370
     9
100
AcDbLine
 10
-2729.44551944019
 20
-375.0003934148691
 30
0.0
 11
-2722.441735260502
 21
-375.0003934148691
 31
0.0
  0
LINE
  5
258
330
1F
100
AcDbEntity
  8
0-7_金物
  6
Continuous
 62
     7
370
     9
100
AcDbLine
 10
-2573.445598475949
 20
-375.0003934148691
 30
0.0
 11
-2555.447320454137
 21
-375.0003934148691
 31
0.0
  0
LINE
  5
259
330
1F
100
AcDbEntity
  8
0-7_金物
  6
Continuous
 62
     7
370
     9
100
AcDbLine
 10
-2593.232122414129
 20
-381.0004849676028
 30
0.0
 11
-2593.232122414129
 21
-375.0003934148691
 31
0.0
  0
LINE
  5
25A
330
1F
100
AcDbEntity
  8
0-7_金物
  6
Continuous
 62
     7
370
     9
100
AcDbLine
 10
-2593.232122414129
 20
-375.0003934148691
 30
0.0
 11
-2585.445191853062
 21
-375.0003934148691
 31
0.0
  0
LINE
  5
25B
330
1F
100
AcDbEntity
  8
0-7_金物
  6
Continuous
 62
     7
370
     9
100
AcDbLine
 10
-2759.445622437017
 20
-375.0003934148691
 30
0.0
 11
-2759.445622437017
 21
-381.0004849676028
 31
0.0
  0
LINE
  5
25C
330
1F
100
AcDbEntity
  8
0-7_金物
  6
Continuous
 62
     7
370
     9
100
AcDbLine
 10
-2593.232122414129
 20
-381.0004849676028
 30
0.0
 11
-2555.447320454137
 21
-381.0004849676028
 31
0.0
  0
LINE
  5
25D
330
1F
100
AcDbEntity
  8
0-7_金物
  6
Continuous
 62
     7
370
     9
100
AcDbLine
 10
-2555.447320454137
 20
-375.0003934148691
 30
0.0
 11
-2555.447320454137
 21
-381.0004849676028
 31
0.0
  0
LINE
  5
25E
330
1F
100
AcDbEntity
  8
0-7_金物
  6
Continuous
 62
     7
370
     9
100
AcDbLine
 10
-2669.446068756597
 20
-420.0004849676036
 30
0.0
 11
-2645.445387833135
 21
-420.0004849676036
 31
0.0
  0
LINE
  5
25F
330
1F
100
AcDbEntity
  8
0-7_金物
  6
Continuous
 62
     7
370
     9
100
AcDbLine
 10
-2669.446068756597
 20
-375.0003934148691
 30
0.0
 11
-2669.446068756597
 21
-420.0004849676036
 31
0.0
  0
LINE
  5
260
330
1F
100
AcDbEntity
  8
0-7_金物
  6
Continuous
 62
     7
370
     9
100
AcDbLine
 10
-2645.445387833135
 20
-420.0004849676036
 30
0.0
 11
-2645.445387833135
 21
-375.0003934148691
 31
0.0
  0
LINE
  5
261
330
1F
100
AcDbEntity
  8
0-7_金物
  6
Continuous
 62
     7
370
     9
100
AcDbLine
 10
-2627.445628159063
 20
-361.7881436590091
 30
0.0
 11
-2591.266462318914
 21
-361.7881436590091
 31
0.0
  0
LINE
  5
262
330
1F
100
AcDbEntity
  8
0-7_金物
  6
Continuous
 62
     7
370
     9
100
AcDbLine
 10
-2723.265709869877
 20
-361.7881436590091
 30
0.0
 11
-2687.447316162603
 21
-361.7881436590091
 31
0.0
  0
LINE
  5
263
330
1F
100
AcDbEntity
  8
0-7_金物
  6
Continuous
 62
     7
370
     9
100
AcDbLine
 10
-2687.447316162603
 20
-375.0003934148691
 30
0.0
 11
-2627.445628159063
 21
-375.0003934148691
 31
0.0
  0
LINE
  5
264
330
1F
100
AcDbEntity
  8
0-7_金物
  6
Continuous
 62
     7
370
     9
100
AcDbLine
 10
-2722.441735260502
 20
-381.0004849676028
 30
0.0
 11
-2759.445622437017
 21
-381.0004849676028
 31
0.0
  0
LINE
  5
265
330
1F
100
AcDbEntity
  8
0-B_寸法
  6
Continuous
 62
   120
370
     5
100
AcDbLine
 10
-2576.446274750249
 20
-1021.9901659022
 30
0.0
 11
-2738.44627475025
 21
-1021.9901659022
 31
0.0
  0
LWPOLYLINE
  5
266
330
1F
100
AcDbEntity
  8
0-B_寸法
  6
Continuous
 62
     7
370
     9
100
AcDbPolyline
 90
        4
 70
     1
 43
3.0
 10
-2574.946274750249
 20
-1021.9901659022
 42
0.4142135623731
 10
-2576.446274750249
 20
-1020.4901659022
 42
0.4142135623731
 10
-2577.946274750249
 20
-1021.9901659022
 42
0.4142135623731
 10
-2576.446274750249
 20
-1023.4901659022
 42
0.4142135623731
  0
LINE
  5
267
330
1F
100
AcDbEntity
  8
0-B_寸法
  6
Continuous
 62
   120
370
     5
100
AcDbLine
 10
-2576.446274750249
 20
-937.7532373232276
 30
0.0
 11
-2576.446274750249
 21
-1021.9901659022
 31
0.0
  0
LWPOLYLINE
  5
268
330
1F
100
AcDbEntity
  8
0-B_寸法
  6
Continuous
 62
     7
370
     9
100
AcDbPolyline
 90
        4
 70
     1
 43
3.0
 10
-2736.94627475025
 20
-1021.9901659022
 42
0.4142135623731
 10
-2738.44627475025
 20
-1020.4901659022
 42
0.4142135623731
 10
-2739.94627475025
 20
-1021.9901659022
 42
0.4142135623731
 10
-2738.44627475025
 20
-1023.4901659022
 42
0.4142135623731
  0
LINE
  5
269
330
1F
100
AcDbEntity
  8
0-B_寸法
  6
Continuous
 62
   120
370
     5
100
AcDbLine
 10
-2738.44627475025
 20
-937.7532373232276
 30
0.0
 11
-2738.44627475025
 21
-1021.9901659022
 31
0.0
  0
MTEXT
  5
26A
330
1F
100
AcDbEntity
  8
0-B_寸法
  6
Continuous
 62
     7
370
     0
100
AcDbMText
 10
-2713.695720175239
 20
-1021.270054554071
 30
0.0
 40
91.4399999999992
 41
119.999999999999
 46
0.0
 71
     7
 72
     1
  1
{\fＭＳ ゴシック|b0|i0|c128|p49;27}
 11
0.9999999999914964
 21
-4.124000483563069E-6
 31
0.0
 73
     1
 44
1.0
  0
MTEXT
  5
26B
330
1F
100
AcDbEntity
  8
0-B_寸法
  6
Continuous
 62
     7
370
     0
100
AcDbMText
 10
-2708.445770113731
 20
-669.7629158244745
 30
0.0
 40
91.44
 41
120.0
 46
0.0
 71
     7
 72
     1
  1
{\fＭＳ ゴシック|b0|i0|c128|p49;89}
 73
     1
 44
1.0
  0
LINE
  5
26C
330
1F
100
AcDbEntity
  8
0-B_寸法
  6
Continuous
 62
   120
370
     5
100
AcDbLine
 10
-2924.446273653771
 20
-670.4829158244745
 30
0.0
 11
-2390.446227877403
 21
-670.4829158244745
 31
0.0
  0
LWPOLYLINE
  5
26D
330
1F
100
AcDbEntity
  8
0-B_寸法
  6
Continuous
 62
     7
370
     9
100
AcDbPolyline
 90
        4
 70
     1
 43
3.0
 10
-2388.946227877403
 20
-670.4829158244745
 42
0.4142135623731
 10
-2390.446227877403
 20
-668.9829158244745
 42
0.4142135623731
 10
-2391.946227877403
 20
-670.4829158244745
 42
0.4142135623731
 10
-2390.446227877403
 20
-671.9829158244745
 42
0.4142135623731
  0
LINE
  5
26E
330
1F
100
AcDbEntity
  8
0-B_寸法
  6
Continuous
 62
   120
370
     5
100
AcDbLine
 10
-2390.446227877403
 20
-670.4829158244745
 30
0.0
 11
-2390.446227877403
 21
-516.7719684025793
 31
0.0
  0
LWPOLYLINE
  5
26F
330
1F
100
AcDbEntity
  8
0-B_寸法
  6
Continuous
 62
     7
370
     9
100
AcDbPolyline
 90
        4
 70
     1
 43
3.0
 10
-2922.946273653771
 20
-670.4829158244745
 42
0.4142135623731
 10
-2924.446273653771
 20
-668.9829158244745
 42
0.4142135623731
 10
-2925.946273653771
 20
-670.4829158244745
 42
0.4142135623731
 10
-2924.446273653771
 20
-671.9829158244745
 42
0.4142135623731
  0
LINE
  5
270
330
1F
100
AcDbEntity
  8
0-B_寸法
  6
Continuous
 62
   120
370
     5
100
AcDbLine
 10
-2924.446273653771
 20
-670.4829158244745
 30
0.0
 11
-2924.446273653771
 21
-516.7719684025793
 31
0.0
  0
LINE
  5
271
330
1F
100
AcDbEntity
  8
0-6_扉
  6
Continuous
 62
   200
370
    20
100
AcDbLine
 10
-2576.446274750249
 20
-3036.000220514216
 30
0.0
 11
-2576.446274750249
 21
-1779.000695291454
 31
0.0
  0
LINE
  5
272
330
1F
100
AcDbEntity
  8
0-6_扉
  6
Continuous
 62
   200
370
    20
100
AcDbLine
 10
-2738.44627475025
 20
-3036.000220514216
 30
0.0
 11
-2738.44627475025
 21
-1779.000695291454
 31
0.0
  0
ARC
  5
273
330
1F
100
AcDbEntity
  8
0-7_金物
  6
JWW_DASHED1
 62
     7
370
     9
100
AcDbCircle
 10
-2563.246274750249
 20
-3085.20059152034
 30
0.0
 40
1.8
100
AcDbArc
 50
90.0
 51
270.0
  0
ARC
  5
274
330
1F
100
AcDbEntity
  8
0-7_金物
  6
JWW_DASHED1
 62
     7
370
     9
100
AcDbCircle
 10
-2751.646274750248
 20
-3085.20059152034
 30
0.0
 40
1.8
100
AcDbArc
 50
270.0
 51
90.0
  0
ARC
  5
275
330
1F
100
AcDbEntity
  8
0-7_金物
  6
Continuous
 62
     7
370
     9
100
AcDbCircle
 10
-2619.646274750249
 20
-3117.00059152034
 30
0.0
 40
1.2
100
AcDbArc
 50
0.0
 51
90.0
  0
LINE
  5
276
330
1F
100
AcDbEntity
  8
0-7_金物
  6
Continuous
 62
     7
370
     9
100
AcDbLine
 10
-2618.446274750248
 20
-3117.00059152034
 30
0.0
 11
-2618.446274750248
 21
-3121.80059152034
 31
0.0
  0
LINE
  5
277
330
1F
100
AcDbEntity
  8
0-7_金物
  6
Continuous
 62
     7
370
     9
100
AcDbLine
 10
-2619.646274750249
 20
-3115.80059152034
 30
0.0
 11
-2623.246274750249
 21
-3115.80059152034
 31
0.0
  0
ARC
  5
278
330
1F
100
AcDbEntity
  8
0-7_金物
  6
Continuous
 62
     7
370
     9
100
AcDbCircle
 10
-2623.246274750249
 20
-3117.00059152034
 30
0.0
 40
1.2
100
AcDbArc
 50
90.0
 51
180.0
  0
LINE
  5
279
330
1F
100
AcDbEntity
  8
0-7_金物
  6
Continuous
 62
     7
370
     9
100
AcDbLine
 10
-2624.446274750249
 20
-3117.00059152034
 30
0.0
 11
-2624.446274750249
 21
-3121.80059152034
 31
0.0
  0
ARC
  5
27A
330
1F
100
AcDbEntity
  8
0-7_金物
  6
Continuous
 62
     7
370
     9
100
AcDbCircle
 10
-2691.646274750248
 20
-3117.00059152034
 30
0.0
 40
1.2
100
AcDbArc
 50
0.0
 51
90.0
  0
LINE
  5
27B
330
1F
100
AcDbEntity
  8
0-7_金物
  6
Continuous
 62
     7
370
     9
100
AcDbLine
 10
-2690.446274750249
 20
-3117.00059152034
 30
0.0
 11
-2690.446274750249
 21
-3121.80059152034
 31
0.0
  0
LINE
  5
27C
330
1F
100
AcDbEntity
  8
0-7_金物
  6
Continuous
 62
     7
370
     9
100
AcDbLine
 10
-2691.646274750248
 20
-3115.80059152034
 30
0.0
 11
-2695.246274750248
 21
-3115.80059152034
 31
0.0
  0
ARC
  5
27D
330
1F
100
AcDbEntity
  8
0-7_金物
  6
Continuous
 62
     7
370
     9
100
AcDbCircle
 10
-2695.246274750248
 20
-3117.00059152034
 30
0.0
 40
1.2
100
AcDbArc
 50
90.0
 51
180.0
  0
LINE
  5
27E
330
1F
100
AcDbEntity
  8
0-7_金物
  6
Continuous
 62
     7
370
     9
100
AcDbLine
 10
-2696.446274750249
 20
-3117.00059152034
 30
0.0
 11
-2696.446274750249
 21
-3121.80059152034
 31
0.0
  0
ARC
  5
27F
330
1F
100
AcDbEntity
  8
0-7_金物
  6
Continuous
 62
     7
370
     9
100
AcDbCircle
 10
-2609.446274750249
 20
-3090.000591520339
 30
0.0
 40
3.0
100
AcDbArc
 50
0.0
 51
90.0
  0
LINE
  5
280
330
1F
100
AcDbEntity
  8
0-7_金物
  6
Continuous
 62
     7
370
     9
100
AcDbLine
 10
-2606.446274750248
 20
-3090.000591520339
 30
0.0
 11
-2606.446274750248
 21
-3121.80059152034
 31
0.0
  0
LINE
  5
281
330
1F
100
AcDbEntity
  8
0-7_金物
  6
Continuous
 62
     7
370
     9
100
AcDbLine
 10
-2609.446274750249
 20
-3087.00059152034
 30
0.0
 11
-2620.846274750249
 21
-3087.00059152034
 31
0.0
  0
ARC
  5
282
330
1F
100
AcDbEntity
  8
0-7_金物
  6
Continuous
 62
     7
370
     9
100
AcDbCircle
 10
-2705.446274750249
 20
-3090.000591520339
 30
0.0
 40
3.0
100
AcDbArc
 50
90.0
 51
180.0
  0
LINE
  5
283
330
1F
100
AcDbEntity
  8
0-7_金物
  6
Continuous
 62
     7
370
     9
100
AcDbLine
 10
-2708.446274750248
 20
-3090.000591520339
 30
0.0
 11
-2708.446274750248
 21
-3121.80059152034
 31
0.0
  0
LINE
  5
284
330
1F
100
AcDbEntity
  8
0-7_金物
  6
Continuous
 62
     7
370
     9
100
AcDbLine
 10
-2705.446274750249
 20
-3087.00059152034
 30
0.0
 11
-2694.046274750249
 21
-3087.00059152034
 31
0.0
  0
ARC
  5
285
330
1F
100
AcDbEntity
  8
0-7_金物
  6
Continuous
 62
     7
370
     9
100
AcDbCircle
 10
-2706.646274750248
 20
-3120.000591520339
 30
0.0
 40
9.000000000000002
100
AcDbArc
 50
180.0
 51
270.0
  0
LINE
  5
286
330
1F
100
AcDbEntity
  8
0-7_金物
  6
Continuous
 62
     7
370
     9
100
AcDbLine
 10
-2706.646274750248
 20
-3129.00059152034
 30
0.0
 11
-2608.246274750249
 21
-3129.00059152034
 31
0.0
  0
LINE
  5
287
330
1F
100
AcDbEntity
  8
0-7_金物
  6
Continuous
 62
     7
370
     9
100
AcDbLine
 10
-2715.646274750248
 20
-3120.000591520339
 30
0.0
 11
-2715.646274750248
 21
-3087.00059152034
 31
0.0
  0
ARC
  5
288
330
1F
100
AcDbEntity
  8
0-7_金物
  6
Continuous
 62
     7
370
     9
100
AcDbCircle
 10
-2608.246274750249
 20
-3120.000591520339
 30
0.0
 40
9.000000000000002
100
AcDbArc
 50
270.0
 51
0.0
  0
LINE
  5
289
330
1F
100
AcDbEntity
  8
0-7_金物
  6
Continuous
 62
     7
370
     9
100
AcDbLine
 10
-2599.246274750249
 20
-3120.000591520339
 30
0.0
 11
-2599.246274750249
 21
-3087.00059152034
 31
0.0
  0
ARC
  5
28A
330
1F
100
AcDbEntity
  8
0-7_金物
  6
Continuous
 62
     7
370
     9
100
AcDbCircle
 10
-2620.846274750249
 20
-3083.400591520341
 30
0.0
 40
3.600000000000001
100
AcDbArc
 50
90.0
 51
180.0
  0
LINE
  5
28B
330
1F
100
AcDbEntity
  8
0-7_金物
  6
Continuous
 62
     7
370
     9
100
AcDbLine
 10
-2620.846274750249
 20
-3079.80059152034
 30
0.0
 11
-2599.246274750249
 21
-3079.80059152034
 31
0.0
  0
ARC
  5
28C
330
1F
100
AcDbEntity
  8
0-7_金物
  6
Continuous
 62
     7
370
     9
100
AcDbCircle
 10
-2620.846274750249
 20
-3083.400591520341
 30
0.0
 40
3.600000000000001
100
AcDbArc
 50
180.0
 51
270.0
  0
ARC
  5
28D
330
1F
100
AcDbEntity
  8
0-7_金物
  6
Continuous
 62
     7
370
     9
100
AcDbCircle
 10
-2694.046274750249
 20
-3083.400591520341
 30
0.0
 40
3.600000000000001
100
AcDbArc
 50
270.0
 51
0.0
  0
ARC
  5
28E
330
1F
100
AcDbEntity
  8
0-7_金物
  6
Continuous
 62
     7
370
     9
100
AcDbCircle
 10
-2694.046274750249
 20
-3083.400591520341
 30
0.0
 40
3.600000000000001
100
AcDbArc
 50
0.0
 51
90.0
  0
LINE
  5
28F
330
1F
100
AcDbEntity
  8
0-7_金物
  6
Continuous
 62
     7
370
     9
100
AcDbLine
 10
-2694.046274750249
 20
-3079.80059152034
 30
0.0
 11
-2715.646274750248
 21
-3079.80059152034
 31
0.0
  0
LINE
  5
290
330
1F
100
AcDbEntity
  8
0-7_金物
  6
Continuous
 62
     7
370
     9
100
AcDbLine
 10
-2563.246274750249
 20
-3083.400591520341
 30
0.0
 11
-2599.246274750249
 21
-3079.80059152034
 31
0.0
  0
ARC
  5
291
330
1F
100
AcDbEntity
  8
0-7_金物
  6
Continuous
 62
     7
370
     9
100
AcDbCircle
 10
-2563.246274750249
 20
-3085.20059152034
 30
0.0
 40
1.8
100
AcDbArc
 50
270.0
 51
89.99999999999997
  0
ARC
  5
292
330
1F
100
AcDbEntity
  8
0-7_金物
  6
Continuous
 62
     7
370
     9
100
AcDbCircle
 10
-2751.646274750248
 20
-3085.20059152034
 30
0.0
 40
1.8
100
AcDbArc
 50
90.0
 51
270.0
  0
LINE
  5
293
330
1F
100
AcDbEntity
  8
0-7_金物
  6
Continuous
 62
     7
370
     9
100
AcDbLine
 10
-2715.646274750248
 20
-3079.80059152034
 30
0.0
 11
-2751.646274750248
 21
-3083.400591520341
 31
0.0
  0
LINE
  5
294
330
1F
100
AcDbEntity
  8
0-7_金物
  6
Continuous
 62
     7
370
     9
100
AcDbLine
 10
-2715.646274750248
 20
-3087.00059152034
 30
0.0
 11
-2751.646274750248
 21
-3087.00059152034
 31
0.0
  0
LINE
  5
295
330
1F
100
AcDbEntity
  8
0-7_金物
  6
Continuous
 62
     7
370
     9
100
AcDbLine
 10
-2563.246274750249
 20
-3087.00059152034
 30
0.0
 11
-2599.246274750249
 21
-3087.00059152034
 31
0.0
  0
LINE
  5
296
330
1F
100
AcDbEntity
  8
0-7_金物
  6
Continuous
 62
     7
370
     9
100
AcDbLine
 10
-2618.446274750248
 20
-3121.80059152034
 30
0.0
 11
-2606.446274750248
 21
-3121.80059152034
 31
0.0
  0
LINE
  5
297
330
1F
100
AcDbEntity
  8
0-7_金物
  6
Continuous
 62
     7
370
     9
100
AcDbLine
 10
-2655.646274750248
 20
-3121.80059152034
 30
0.0
 11
-2624.446274750249
 21
-3121.80059152034
 31
0.0
  0
LINE
  5
298
330
1F
100
AcDbEntity
  8
0-7_金物
  6
Continuous
 62
     7
370
     9
100
AcDbLine
 10
-2657.446274750248
 20
-3123.60059152034
 30
0.0
 11
-2655.646274750248
 21
-3121.80059152034
 31
0.0
  0
LINE
  5
299
330
1F
100
AcDbEntity
  8
0-7_金物
  6
Continuous
 62
     7
370
     9
100
AcDbLine
 10
-2659.246274750249
 20
-3121.80059152034
 30
0.0
 11
-2657.446274750248
 21
-3123.60059152034
 31
0.0
  0
LINE
  5
29A
330
1F
100
AcDbEntity
  8
0-7_金物
  6
Continuous
 62
     7
370
     9
100
AcDbLine
 10
-2690.446274750249
 20
-3121.80059152034
 30
0.0
 11
-2659.246274750249
 21
-3121.80059152034
 31
0.0
  0
LINE
  5
29B
330
1F
100
AcDbEntity
  8
0-7_金物
  6
Continuous
 62
     7
370
     9
100
AcDbLine
 10
-2708.446274750248
 20
-3121.80059152034
 30
0.0
 11
-2696.446274750249
 21
-3121.80059152034
 31
0.0
  0
LINE
  5
29C
330
1F
100
AcDbEntity
  8
0-7_金物
  6
Continuous
 62
     7
370
     9
100
AcDbLine
 10
-2699.446510127377
 20
-3114.367632154565
 30
0.0
 11
-2615.445639139202
 21
-3114.367632154565
 31
0.0
  0
LINE
  5
29D
330
1F
100
AcDbEntity
  8
0-7_金物
  6
Continuous
 62
     7
370
     9
100
AcDbLine
 10
-2699.446510127377
 20
-3090.367632154565
 30
0.0
 11
-2699.446510127377
 21
-3114.367632154565
 31
0.0
  0
LINE
  5
29E
330
1F
100
AcDbEntity
  8
0-7_金物
  6
Continuous
 62
     7
370
     9
100
AcDbLine
 10
-2681.446747669608
 20
-3102.367632154565
 30
0.0
 11
-2681.446747669608
 21
-3114.367632154565
 31
0.0
  0
LINE
  5
29F
330
1F
100
AcDbEntity
  8
0-7_金物
  6
Continuous
 62
     7
370
     9
100
AcDbLine
 10
-2615.445639139202
 20
-3090.367632154565
 30
0.0
 11
-2615.445639139202
 21
-3114.367632154565
 31
0.0
  0
LINE
  5
2A0
330
1F
100
AcDbEntity
  8
0-7_金物
  6
Continuous
 62
     7
370
     9
100
AcDbLine
 10
-2633.446886235908
 20
-3102.367632154565
 30
0.0
 11
-2633.446886235908
 21
-3114.367632154565
 31
0.0
  0
LINE
  5
2A1
330
1F
100
AcDbEntity
  8
0-7_金物
  6
Continuous
 62
     7
370
     9
100
AcDbLine
 10
-2666.445955862177
 20
-3102.367632154565
 30
0.0
 11
-2666.445955862177
 21
-3107.065029747472
 31
0.0
  0
LINE
  5
2A2
330
1F
100
AcDbEntity
  8
0-7_金物
  6
Continuous
 62
     7
370
     9
100
AcDbLine
 10
-2648.446193404405
 20
-3102.367632154565
 30
0.0
 11
-2648.446193404405
 21
-3107.065029747472
 31
0.0
  0
LINE
  5
2A3
330
1F
100
AcDbEntity
  8
0-7_金物
  6
Continuous
 62
     7
370
     9
100
AcDbLine
 10
-2648.446193404405
 20
-3107.065029747472
 30
0.0
 11
-2666.445955862177
 21
-3107.065029747472
 31
0.0
  0
LINE
  5
2A4
330
1F
100
AcDbEntity
  8
0-7_金物
  6
Continuous
 62
     7
370
     9
100
AcDbLine
 10
-2633.446886235908
 20
-3102.367632154565
 30
0.0
 11
-2681.446747669608
 21
-3102.367632154565
 31
0.0
  0
LINE
  5
2A5
330
1F
100
AcDbEntity
  8
0-7_金物
  6
Continuous
 62
     7
370
     9
100
AcDbLine
 10
-2666.445955862177
 20
-3036.000591520339
 30
0.0
 11
-2666.445955862177
 21
-3090.367632154565
 31
0.0
  0
LINE
  5
2A6
330
1F
100
AcDbEntity
  8
0-7_金物
  6
Continuous
 62
     7
370
     9
100
AcDbLine
 10
-2648.446193404405
 20
-3036.000591520339
 30
0.0
 11
-2648.446193404405
 21
-3090.367632154565
 31
0.0
  0
LINE
  5
2A7
330
1F
100
AcDbEntity
  8
0-7_金物
  6
Continuous
 62
     7
370
     9
100
AcDbLine
 10
-2615.445639139202
 20
-3090.367632154565
 30
0.0
 11
-2699.446510127377
 21
-3090.367632154565
 31
0.0
  0
LINE
  5
2A8
330
1F
100
AcDbEntity
  8
0-C_ハッチ
  6
Continuous
 62
   120
370
     5
100
AcDbLine
 10
-2621.047342465361
 20
-3159.00059152034
 30
0.0
 11
-2588.63541775067
 21
-3126.588666805649
 31
0.0
  0
LINE
  5
2A9
330
1F
100
AcDbEntity
  8
0-C_ハッチ
  6
Continuous
 62
   120
370
     5
100
AcDbLine
 10
-2697.414874833521
 20
-3159.00059152034
 30
0.0
 11
-2667.414874833517
 21
-3129.000591520336
 31
0.0
  0
LINE
  5
2AA
330
1F
100
AcDbEntity
  8
0-C_ハッチ
  6
Continuous
 62
   120
370
     5
100
AcDbLine
 10
-2671.959030710802
 20
-3159.00059152034
 30
0.0
 11
-2641.959030710798
 21
-3129.000591520338
 31
0.0
  0
LINE
  5
2AB
330
1F
100
AcDbEntity
  8
0-C_ハッチ
  6
Continuous
 62
   120
370
     5
100
AcDbLine
 10
-2646.503186588081
 20
-3159.00059152034
 30
0.0
 11
-2616.503186588081
 21
-3129.00059152034
 31
0.0
  0
LINE
  5
2AC
330
1F
100
AcDbEntity
  8
0-C_ハッチ
  6
Continuous
 62
   120
370
     5
100
AcDbLine
 10
-2722.870718956219
 20
-3159.00059152034
 30
0.0
 11
-2692.870718956219
 21
-3129.00059152034
 31
0.0
  0
LINE
  5
2AD
330
1F
100
AcDbEntity
  8
0-C_ハッチ
  6
Continuous
 62
   120
370
     5
100
AcDbLine
 10
-2595.591498342641
 20
-3159.00059152034
 30
0.0
 11
-2588.63541775067
 21
-3152.044510928369
 31
0.0
  0
LINE
  5
2AE
330
1F
100
AcDbEntity
  8
0-7_金物
  6
Continuous
 62
    92
370
    13
100
AcDbLine
 10
-2726.446274750249
 20
-3159.00059152034
 30
0.0
 11
-2588.63541775067
 21
-3159.00059152034
 31
0.0
  0
LINE
  5
2AF
330
1F
100
AcDbEntity
  8
0-7_金物
  6
Continuous
 62
    92
370
    13
100
AcDbLine
 10
-2726.446274750249
 20
-3117.00036919004
 30
0.0
 11
-2726.446274750249
 21
-3159.00059152034
 31
0.0
  0
LINE
  5
2B0
330
1F
100
AcDbEntity
  8
0-7_金物
  6
Continuous
 62
    92
370
    13
100
AcDbLine
 10
-2588.63541775067
 20
-3117.00036919004
 30
0.0
 11
-2588.63541775067
 21
-3159.00059152034
 31
0.0
  0
LINE
  5
2B1
330
1F
100
AcDbEntity
  8
0-7_金物
  6
Continuous
 62
    92
370
    13
100
AcDbLine
 10
-2597.446274750248
 20
-3117.000591520339
 30
0.0
 11
-2597.446274750248
 21
-3129.00059152034
 31
0.0
  0
LINE
  5
2B2
330
1F
100
AcDbEntity
  8
0-7_金物
  6
Continuous
 62
    92
370
    13
100
AcDbLine
 10
-2597.446274750248
 20
-3117.000591520339
 30
0.0
 11
-2588.635359430604
 21
-3117.000591520339
 31
0.0
  0
LINE
  5
2B3
330
1F
100
AcDbEntity
  8
0-7_金物
  6
Continuous
 62
    92
370
    13
100
AcDbLine
 10
-2717.446274750248
 20
-3117.000591520339
 30
0.0
 11
-2726.446333070316
 21
-3117.000591520339
 31
0.0
  0
LINE
  5
2B4
330
1F
100
AcDbEntity
  8
0-7_金物
  6
Continuous
 62
    92
370
    13
100
AcDbLine
 10
-2717.446274750248
 20
-3117.000591520339
 30
0.0
 11
-2717.446274750248
 21
-3129.00059152034
 31
0.0
  0
LINE
  5
2B5
330
1F
100
AcDbEntity
  8
0-7_金物
  6
Continuous
 62
    92
370
    13
100
AcDbLine
 10
-2717.446274750248
 20
-3129.00059152034
 30
0.0
 11
-2597.446274750248
 21
-3129.00059152034
 31
0.0
  0
LINE
  5
2B6
330
1F
100
AcDbEntity
  8
0-C_ハッチ
  6
Continuous
 62
   120
370
     5
100
AcDbLine
 10
-2726.446274750249
 20
-3137.120303191649
 30
0.0
 11
-2717.446274750248
 21
-3128.120303191649
 31
0.0
  0
LINE
  5
2B7
330
1F
100
AcDbEntity
  8
0-6_扉
  6
Continuous
 62
   200
370
    20
100
AcDbLine
 10
-2738.44627475025
 20
-3036.000220514216
 30
0.0
 11
-2576.446274750249
 21
-3036.000220514216
 31
0.0
  0
LINE
  5
2B8
330
1F
100
AcDbEntity
  8
0-3_仕上げ
  6
Continuous
 62
    40
370
    15
100
AcDbLine
 10
-2582.446274750248
 20
-3159.000383670889
 30
0.0
 11
-2582.446274750248
 21
-3087.000591520339
 31
0.0
  0
LINE
  5
2B9
330
1F
100
AcDbEntity
  8
0-3_仕上げ
  6
Continuous
 62
    40
370
    15
100
AcDbLine
 10
-2732.446274750248
 20
-3159.000383670889
 30
0.0
 11
-2732.446274750248
 21
-3087.000591520339
 31
0.0
  0
MTEXT
  5
2BA
330
1F
100
AcDbEntity
  8
0-A_文字
  6
Continuous
 62
     7
370
     9
100
AcDbMText
 10
-3680.963458813176
 20
337.8081237540476
 30
0.0
 40
91.44
 41
600.0
 46
0.0
 71
     7
 72
     1
  1
{\fＭＳ ゴシック|b0|i0|c128|p49;■縦断面図}
 73
     1
 44
1.0
  0
MTEXT
  5
2BB
330
1F
100
AcDbEntity
  8
0-B_寸法
  6
Continuous
 62
     7
370
   211
100
AcDbMText
 10
-3635.689954230303
 20
-2123.280695291454
 30
0.0
 40
91.43999999999997
 41
780.0
 46
0.0
 71
     7
 72
     1
  1
{\fＭＳ ゴシック|b0|i0|c128|p49;ＲＯＨ＝2,356}
 11
6.123031769111886E-17
 21
1.0
 31
0.0
 73
     1
 44
1.0
  0
MTEXT
  5
2BC
330
1F
100
AcDbEntity
  8
0-B_寸法
  6
Continuous
 62
     7
370
     0
100
AcDbMText
 10
-1871.445581918741
 20
-2063.280695291454
 30
0.0
 40
91.43999999999997
 41
660.0
 46
0.0
 71
     7
 72
     1
  1
{\fＭＳ ゴシック|b0|i0|c128|p49;ＤＨ＝2,284}
 11
6.123031769111886E-17
 21
1.0
 31
0.0
 73
     1
 44
1.0
  0
MTEXT
  5
2BD
330
1F
100
AcDbEntity
  8
0-B_寸法
  6
Continuous
 62
     7
370
     0
100
AcDbMText
 10
-1691.445581918744
 20
-2063.280695291454
 30
0.0
 40
91.43999999999997
 41
660.0
 46
0.0
 71
     7
 72
     1
  1
{\fＭＳ ゴシック|b0|i0|c128|p49;枠内＝2,300}
 11
6.123031769111886E-17
 21
1.0
 31
0.0
 73
     1
 44
1.0
  0
MTEXT
  5
2BE
330
1F
100
AcDbEntity
  8
0-B_寸法
  6
Continuous
 62
     7
370
     0
100
AcDbMText
 10
-1511.446476550516
 20
-2063.280695291454
 30
0.0
 40
91.43999999999997
 41
660.0
 46
0.0
 71
     7
 72
     1
  1
{\fＭＳ ゴシック|b0|i0|c128|p49;枠外＝2,348}
 11
6.123031769111886E-17
 21
1.0
 31
0.0
 73
     1
 44
1.0
  0
MTEXT
  5
2BF
330
1F
100
AcDbEntity
  8
0-A_文字
  6
Continuous
 62
     7
370
     0
100
AcDbMText
 10
-3620.689954230303
 20
-3402.551105360323
 30
0.0
 40
68.58000000000001
 41
1395.0
 46
0.0
 71
     7
 72
     1
  1
{\fＭＳ ゴシック|b0|i0|c128|p49;※ 扉厚（　）内はルーバーの場合}
 73
     1
 44
1.0
  0
LINE
  5
2C0
330
1F
100
AcDbEntity
  8
0-3_仕上げ
  6
Continuous
 62
    40
370
    15
100
AcDbLine
 10
-2357.446266485063
 20
-225.0003934148691
 30
0.0
 11
-2432.446266485063
 21
-225.0003934148691
 31
0.0
  0
LINE
  5
2C1
330
1F
100
AcDbEntity
  8
0-C_ハッチ
  6
JWW_DASHED1
 62
   120
370
     5
100
AcDbLine
 10
-2383.375218738067
 20
-225.0003934148704
 30
0.0
 11
-2357.44626648506
 21
-199.0714411618663
 31
0.0
  0
LINE
  5
2C2
330
1F
100
AcDbEntity
  8
0-C_ハッチ
  6
JWW_DASHED1
 62
   120
370
     5
100
AcDbLine
 10
-2425.801625609267
 20
-225.00039341487
 30
0.0
 11
-2357.446266485067
 21
-156.6450342906697
 31
0.0
  0
LINE
  5
2C3
330
1F
100
AcDbEntity
  8
0-C_ハッチ
  6
JWW_DASHED1
 62
   120
370
     5
100
AcDbLine
 10
-2432.446266485067
 20
-189.2186274194688
 30
0.0
 11
-2357.446266485067
 21
-114.2186274194731
 31
0.0
  0
LINE
  5
2C4
330
1F
100
AcDbEntity
  8
0-C_ハッチ
  6
JWW_DASHED1
 62
   120
370
     5
100
AcDbLine
 10
-2432.446266485067
 20
-146.7922205482731
 30
0.0
 11
-2357.446266485056
 21
-71.7922205482607
 31
0.0
  0
LINE
  5
2C5
330
1F
100
AcDbEntity
  8
0-C_ハッチ
  6
JWW_DASHED1
 62
   120
370
     5
100
AcDbLine
 10
-2432.446266485073
 20
-104.3658136770752
 30
0.0
 11
-2357.44626648506
 21
-29.36581367706324
 31
0.0
  0
LINE
  5
2C6
330
1F
100
AcDbEntity
  8
0-C_ハッチ
  6
JWW_DASHED1
 62
   120
370
     5
100
AcDbLine
 10
-2432.446266485053
 20
-61.93940680591055
 30
0.0
 11
-2357.446266485056
 21
13.06059319408391
 31
0.0
  0
LINE
  5
2C7
330
1F
100
AcDbEntity
  8
0-C_ハッチ
  6
JWW_DASHED1
 62
   120
370
     5
100
AcDbLine
 10
-2432.446266485056
 20
-19.51299993471522
 30
0.0
 11
-2357.44626648506
 21
55.48700006527881
 31
0.0
  0
LINE
  5
2C8
330
1F
100
AcDbEntity
  8
0-3_仕上げ
  6
Continuous
 62
    40
370
    15
100
AcDbLine
 10
-2357.446266485063
 20
-225.0003934148691
 30
0.0
 11
-2357.446266485063
 21
141.0001877614903
 31
0.0
  0
LINE
  5
2C9
330
1F
100
AcDbEntity
  8
0-3_仕上げ
  6
Continuous
 62
    40
370
    15
100
AcDbLine
 10
-2432.446266485063
 20
-225.0003934148691
 30
0.0
 11
-2432.446266485063
 21
141.0001877614903
 31
0.0
  0
LINE
  5
2CA
330
1F
100
AcDbEntity
  8
0-C_ハッチ
  6
JWW_DASHED1
 62
   120
370
     5
100
AcDbLine
 10
-2432.446266485053
 20
22.91340693648735
 30
0.0
 11
-2357.446266485063
 21
97.91340693647992
 31
0.0
  0
LINE
  5
2CB
330
1F
100
AcDbEntity
  8
0-C_ハッチ
  6
JWW_DASHED1
 62
   120
370
     5
100
AcDbLine
 10
-2432.446266485056
 20
65.3398138076848
 30
0.0
 11
-2356.785892531253
 21
141.0001877614901
 31
0.0
  0
LINE
  5
2CC
330
1F
100
AcDbEntity
  8
0-C_ハッチ
  6
JWW_DASHED1
 62
   120
370
     5
100
AcDbLine
 10
-2432.44626648506
 20
107.7662206788834
 30
0.0
 11
-2399.212299402454
 21
141.0001877614903
 31
0.0
  0
LINE
  5
2CD
330
1F
100
AcDbEntity
  8
0-3_仕上げ
  6
Continuous
 62
   120
370
     5
100
AcDbLine
 10
-2852.446266485063
 20
-110.8546555395117
 30
0.0
 11
-2432.446266485063
 21
-110.8546555395117
 31
0.0
  0
LINE
  5
2CE
330
1F
100
AcDbEntity
  8
0-3_仕上げ
  6
Continuous
 62
   120
370
     5
100
AcDbLine
 10
-2432.446266485063
 20
69.14534446048833
 30
0.0
 11
-2852.446266485063
 21
-110.8546555395117
 31
0.0
  0
LINE
  5
2CF
330
1F
100
AcDbEntity
  8
0-3_仕上げ
  6
Continuous
 62
   120
370
     5
100
AcDbLine
 10
-2852.446266485063
 20
69.14534446048833
 30
0.0
 11
-2852.446266485063
 21
-110.8546555395117
 31
0.0
  0
LINE
  5
2D0
330
1F
100
AcDbEntity
  8
0-3_仕上げ
  6
Continuous
 62
   120
370
     5
100
AcDbLine
 10
-2432.446266485063
 20
69.14534446048833
 30
0.0
 11
-2852.446266485063
 21
69.14534446048833
 31
0.0
  0
LINE
  5
2D1
330
1F
100
AcDbEntity
  8
0-3_仕上げ
  6
Continuous
 62
   120
370
     5
100
AcDbLine
 10
-2432.446266485063
 20
-110.8546555395117
 30
0.0
 11
-2432.446266485063
 21
69.14534446048833
 31
0.0
  0
LINE
  5
2D2
330
1F
100
AcDbEntity
  8
0-4_枠
  6
Continuous
 62
   120
370
     5
100
AcDbLine
 10
-2381.446274750249
 20
-225.0003934148691
 30
0.0
 11
-2381.446274750249
 21
-3087.000220514217
 31
0.0
  0
LINE
  5
2D3
330
1F
100
AcDbEntity
  8
0-E
  6
Continuous
 62
    92
370
    13
100
AcDbLine
 10
2205.587533354163
 20
194.9998020481422
 30
0.0
 11
4191.256895024741
 21
194.9998020481422
 31
0.0
  0
LINE
  5
2D4
330
1F
100
AcDbEntity
  8
0-E
  6
Continuous
 62
    92
370
    13
100
AcDbLine
 10
2205.587533354163
 20
14.99980204813966
 30
0.0
 11
4191.256895024741
 21
14.99980204813966
 31
0.0
  0
MTEXT
  5
2D5
330
1F
100
AcDbEntity
  8
0-E
  6
Continuous
 62
     7
370
   211
100
AcDbMText
 10
1095.049842043954
 20
-1507.883331990985
 30
0.0
 40
68.58
 41
90.0
 46
0.0
 71
     7
 72
     1
  1
{\fＭＳ ゴシック|b0|i0|c128|p49;23}
 73
     1
 44
1.0
  0
MTEXT
  5
2D6
330
1F
100
AcDbEntity
  8
0-E
  6
Continuous
 62
     7
370
   211
100
AcDbMText
 10
3081.892548548178
 20
-1769.833328253696
 30
0.0
 40
68.58
 41
90.0
 46
0.0
 71
     7
 72
     1
  1
{\fＭＳ ゴシック|b0|i0|c128|p49;32}
 73
     1
 44
1.0
  0
MTEXT
  5
2D7
330
1F
100
AcDbEntity
  8
0-E
  6
Continuous
 62
     7
370
   211
100
AcDbMText
 10
3081.892548548178
 20
-1929.295616244168
 30
0.0
 40
68.58
 41
90.0
 46
0.0
 71
     7
 72
     1
  1
{\fＭＳ ゴシック|b0|i0|c128|p49;11}
 73
     1
 44
1.0
  0
MTEXT
  5
2D8
330
1F
100
AcDbEntity
  8
0-E
  6
Continuous
 62
     7
370
   211
100
AcDbMText
 10
2654.040822809253
 20
-2065.452423114598
 30
0.0
 40
68.57999999999998
 41
135.0
 46
0.0
 71
     7
 72
     1
  1
{\fＭＳ ゴシック|b0|i0|c128|p49;1.2}
 11
6.123031769111886E-17
 21
1.0
 31
0.0
 73
     1
 44
1.0
  0
MTEXT
  5
2D9
330
1F
100
AcDbEntity
  8
0-E
  6
Continuous
 62
     7
370
   211
100
AcDbMText
 10
2654.040822809253
 20
-2177.475732176918
 30
0.0
 40
68.58
 41
45.0
 46
0.0
 71
     7
 72
     1
  1
{\fＭＳ ゴシック|b0|i0|c128|p49;7}
 11
6.123031769111886E-17
 21
1.0
 31
0.0
 73
     1
 44
1.0
  0
MTEXT
  5
2DA
330
1F
100
AcDbEntity
  8
0-E
  6
Continuous
 62
     7
370
   211
100
AcDbMText
 10
2497.597852565259
 20
-2213.475732176918
 30
0.0
 40
68.57999999999998
 41
135.0
 46
0.0
 71
     7
 72
     1
  1
{\fＭＳ ゴシック|b0|i0|c128|p49;8.2}
 11
6.123031769111886E-17
 21
1.0
 31
0.0
 73
     1
 44
1.0
  0
MTEXT
  5
2DB
330
1F
100
AcDbEntity
  8
0-E
  6
Continuous
 62
     7
370
   211
100
AcDbMText
 10
3036.892548548179
 20
-2403.372080987368
 30
0.0
 40
68.58
 41
180.0
 46
0.0
 71
     7
 72
     1
  1
{\fＭＳ ゴシック|b0|i0|c128|p49;19.4}
 73
     1
 44
1.0
  0
MTEXT
  5
2DC
330
1F
100
AcDbEntity
  8
0-E
  6
Continuous
 62
     7
370
   211
100
AcDbMText
 10
3081.656119797647
 20
-2613.041877124406
 30
0.0
 40
68.58
 41
90.0
 46
0.0
 71
     7
 72
     1
  1
{\fＭＳ ゴシック|b0|i0|c128|p49;23}
 73
     1
 44
1.0
  0
MTEXT
  5
2DD
330
1F
100
AcDbEntity
  8
0-E
  6
Continuous
 62
     7
370
   211
100
AcDbMText
 10
2805.00788444971
 20
-2774.989112782177
 30
0.0
 40
68.57999999999998
 41
135.0
 46
0.0
 71
     7
 72
     1
  1
{\fＭＳ ゴシック|b0|i0|c128|p49;1.5}
 73
     1
 44
1.0
  0
MTEXT
  5
2DE
330
1F
100
AcDbEntity
  8
0-E
  6
Continuous
 62
     7
370
   211
100
AcDbMText
 10
3081.892548548178
 20
-2774.989112782177
 30
0.0
 40
68.58
 41
90.0
 46
0.0
 71
     7
 72
     1
  1
{\fＭＳ ゴシック|b0|i0|c128|p49;20}
 73
     1
 44
1.0
  0
MTEXT
  5
2DF
330
1F
100
AcDbEntity
  8
0-E
  6
Continuous
 62
     7
370
   211
100
AcDbMText
 10
3325.759696018941
 20
-2774.989112782177
 30
0.0
 40
68.57999999999998
 41
135.0
 46
0.0
 71
     7
 72
     1
  1
{\fＭＳ ゴシック|b0|i0|c128|p49;1.5}
 73
     1
 44
1.0
  0
LINE
  5
2E0
330
1F
100
AcDbEntity
  8
0-E
  6
Continuous
 62
    92
370
    13
100
AcDbLine
 10
219.9181716835818
 20
14.99980204814221
 30
0.0
 11
2205.587533354163
 21
14.99980204814221
 31
0.0
  0
LINE
  5
2E1
330
1F
100
AcDbEntity
  8
0-E
  6
Continuous
 62
    92
370
    13
100
AcDbLine
 10
219.9181716835818
 20
194.9998020481422
 30
0.0
 11
2205.587533354163
 21
194.9998020481422
 31
0.0
  0
MTEXT
  5
2E2
330
1F
100
AcDbEntity
  8
0-E
  6
Continuous
 62
     7
370
   211
100
AcDbMText
 10
2654.040822809253
 20
-2955.103629875683
 30
0.0
 40
68.58
 41
45.0
 46
0.0
 71
     7
 72
     1
  1
{\fＭＳ ゴシック|b0|i0|c128|p49;2}
 11
6.123031769111886E-17
 21
1.0
 31
0.0
 73
     1
 44
1.0
  0
MTEXT
  5
2E3
330
1F
100
AcDbEntity
  8
0-E
  6
Continuous
 62
     7
370
   211
100
AcDbMText
 10
2497.597852565259
 20
-3041.682756621967
 30
0.0
 40
68.58
 41
45.0
 46
0.0
 71
     7
 72
     1
  1
{\fＭＳ ゴシック|b0|i0|c128|p49;7}
 11
6.123031769111886E-17
 21
1.0
 31
0.0
 73
     1
 44
1.0
  0
MTEXT
  5
2E4
330
1F
100
AcDbEntity
  8
0-E
  6
Continuous
 62
     7
370
   211
100
AcDbMText
 10
2654.040822809253
 20
-3056.683034534837
 30
0.0
 40
68.58
 41
45.0
 46
0.0
 71
     7
 72
     1
  1
{\fＭＳ ゴシック|b0|i0|c128|p49;5}
 11
6.123031769111886E-17
 21
1.0
 31
0.0
 73
     1
 44
1.0
  0
LWPOLYLINE
  5
2E5
330
1F
100
AcDbEntity
  8
0-E
  6
Continuous
 62
     7
370
     9
100
AcDbPolyline
 90
        4
 70
     1
 43
3.0
 10
1026.549710076047
 20
-1512.173331990985
 42
0.4142135623731
 10
1025.049710076048
 20
-1510.673331990985
 42
0.4142135623731
 10
1023.549710076048
 20
-1512.173331990985
 42
0.4142135623731
 10
1025.049710076048
 20
-1513.673331990985
 42
0.4142135623731
  0
LINE
  5
2E6
330
1F
100
AcDbEntity
  8
0-E
  6
Continuous
 62
   120
370
     5
100
AcDbLine
 10
1025.049710076048
 20
-1512.173331990985
 30
0.0
 11
1025.049710076048
 21
-1332.173331990985
 31
0.0
  0
MTEXT
  5
2E7
330
1F
100
AcDbEntity
  8
0-E
  6
Continuous
 62
     7
370
     0
100
AcDbMText
 10
492.7528525188735
 20
30.71980204814221
 30
0.0
 40
91.44
 41
1440.0
 46
0.0
 71
     7
 72
     1
  1
{\fＭＳ ゴシック|b0|i0|c128|p49;竪枠下端形状図（S＝1/3）}
 73
     1
 44
1.0
  0
LINE
  5
2E8
330
1F
100
AcDbEntity
  8
0-E
  6
Continuous
 62
   120
370
     5
100
AcDbLine
 10
1025.049710076048
 20
-1512.173331990985
 30
0.0
 11
1255.04997401186
 21
-1512.173331990985
 31
0.0
  0
LWPOLYLINE
  5
2E9
330
1F
100
AcDbEntity
  8
0-E
  6
Continuous
 62
     7
370
     9
100
AcDbPolyline
 90
        4
 70
     1
 43
3.0
 10
1256.54997401186
 20
-1512.173331990985
 42
0.4142135623731
 10
1255.04997401186
 20
-1510.673331990985
 42
0.4142135623731
 10
1253.54997401186
 20
-1512.173331990985
 42
0.4142135623731
 10
1255.04997401186
 20
-1513.673331990985
 42
0.4142135623731
  0
LINE
  5
2EA
330
1F
100
AcDbEntity
  8
0-E
  6
Continuous
 62
   120
370
     5
100
AcDbLine
 10
1255.04997401186
 20
-1512.173331990985
 30
0.0
 11
1255.04997401186
 21
-1332.173331990985
 31
0.0
  0
MTEXT
  5
2EB
330
1F
100
AcDbEntity
  8
0-E
  6
Continuous
 62
     7
370
     9
100
AcDbMText
 10
2538.422214189452
 20
30.71980204813966
 30
0.0
 40
91.44
 41
1320.0
 46
0.0
 71
     7
 72
     1
  1
{\fＭＳ ゴシック|b0|i0|c128|p49;レール拡大図（S＝1/2）}
 73
     1
 44
1.0
  0
MTEXT
  5
2EC
330
1F
100
AcDbEntity
  8
0-E
  6
Continuous
 62
     7
370
     9
100
AcDbMText
 10
342.7528525188737
 20
-1954.210654623817
 30
0.0
 40
91.43999999999996
 41
1740.0
 46
0.0
 71
     7
 72
     1
  1
{\fＭＳ ゴシック|b0|i0|c128|p49;レール埋込時 フロアー貼込位置}
 73
     1
 44
1.0
  0
LINE
  5
2ED
330
1F
100
AcDbEntity
  8
0-E
  6
Continuous
 62
    92
370
    13
100
AcDbLine
 10
219.9181716835818
 20
194.9998020481422
 30
0.0
 11
219.9181716835818
 21
-3409.930654623817
 31
0.0
  0
LINE
  5
2EE
330
1F
100
AcDbEntity
  8
0-E
  6
Continuous
 62
    92
370
    13
100
AcDbLine
 10
219.9181716835818
 20
-3409.930654623817
 30
0.0
 11
4191.256895024741
 21
-3409.930654623817
 31
0.0
  0
LINE
  5
2EF
330
1F
100
AcDbEntity
  8
0-E
  6
Continuous
 62
    92
370
    13
100
AcDbLine
 10
219.9181716835818
 20
-1789.930654623817
 30
0.0
 11
2205.587533354163
 21
-1789.930654623817
 31
0.0
  0
LINE
  5
2F0
330
1F
100
AcDbEntity
  8
0-E
  6
Continuous
 62
    92
370
    13
100
AcDbLine
 10
219.9181716835818
 20
-1969.930654623817
 30
0.0
 11
2205.587533354163
 21
-1969.930654623817
 31
0.0
  0
INSERT
  5
2F1
330
1F
100
AcDbEntity
  8
0-E
  6
Continuous
 62
     7
370
     9
100
AcDbBlockReference
  2
01@@SfigorgFlag@@4
 10
3126.892548548178
 20
-2134.034962946146
 30
0.0
 41
30.0
 42
30.0
  0
LWPOLYLINE
  5
2F2
330
1F
100
AcDbEntity
  8
0-E
  6
Continuous
 62
     7
370
     9
100
AcDbPolyline
 90
        4
 70
     1
 43
3.0
 10
2888.392548548181
 20
-2087.265732176915
 42
0.4142135623731
 10
2886.892548548181
 20
-2085.765732176915
 42
0.4142135623731
 10
2885.392548548181
 20
-2087.265732176915
 42
0.4142135623731
 10
2886.892548548181
 20
-2088.765732176915
 42
0.4142135623731
  0
LWPOLYLINE
  5
2F3
330
1F
100
AcDbEntity
  8
0-E
  6
Continuous
 62
     7
370
     9
100
AcDbPolyline
 90
        4
 70
     1
 43
3.0
 10
3368.392548548177
 20
-2087.265732176915
 42
0.4142135623731
 10
3366.892548548177
 20
-2085.765732176915
 42
0.4142135623731
 10
3365.392548548177
 20
-2087.265732176915
 42
0.4142135623731
 10
3366.892548548177
 20
-2088.765732176915
 42
0.4142135623731
  0
LWPOLYLINE
  5
2F4
330
1F
100
AcDbEntity
  8
0-E
  6
Continuous
 62
     7
370
     9
100
AcDbPolyline
 90
        4
 70
     1
 43
3.0
 10
3045.892548548174
 20
-2082.765732176915
 42
0.4142135623731
 10
3044.392548548174
 20
-2081.265732176916
 42
0.4142135623731
 10
3042.892548548174
 20
-2082.765732176915
 42
0.4142135623731
 10
3044.392548548174
 20
-2084.265732176915
 42
0.4142135623731
  0
LWPOLYLINE
  5
2F5
330
1F
100
AcDbEntity
  8
0-E
  6
Continuous
 62
     7
370
     9
100
AcDbPolyline
 90
        4
 70
     1
 43
3.0
 10
3210.892548548185
 20
-2082.765732176915
 42
0.4142135623731
 10
3209.392548548185
 20
-2081.265732176916
 42
0.4142135623731
 10
3207.892548548185
 20
-2082.765732176915
 42
0.4142135623731
 10
3209.392548548185
 20
-2084.265732176915
 42
0.4142135623731
  0
LINE
  5
2F6
330
1F
100
AcDbEntity
  8
0-E
  6
Continuous
 62
   120
370
     5
100
AcDbLine
 10
3044.392548548174
 20
-1933.585616244168
 30
0.0
 11
3209.392548548185
 21
-1933.585616244168
 31
0.0
  0
LWPOLYLINE
  5
2F7
330
1F
100
AcDbEntity
  8
0-E
  6
Continuous
 62
     7
370
     9
100
AcDbPolyline
 90
        4
 70
     1
 43
3.0
 10
3045.892548548174
 20
-1933.585616244168
 42
0.4142135623731
 10
3044.392548548174
 20
-1932.085616244168
 42
0.4142135623731
 10
3042.892548548174
 20
-1933.585616244168
 42
0.4142135623731
 10
3044.392548548174
 20
-1935.085616244168
 42
0.4142135623731
  0
LWPOLYLINE
  5
2F8
330
1F
100
AcDbEntity
  8
0-E
  6
Continuous
 62
     7
370
     9
100
AcDbPolyline
 90
        4
 70
     1
 43
3.0
 10
3210.892548548185
 20
-1933.585616244168
 42
0.4142135623731
 10
3209.392548548185
 20
-1932.085616244168
 42
0.4142135623731
 10
3207.892548548185
 20
-1933.585616244168
 42
0.4142135623731
 10
3209.392548548185
 20
-1935.085616244168
 42
0.4142135623731
  0
LINE
  5
2F9
330
1F
100
AcDbEntity
  8
0-E
  6
Continuous
 62
   120
370
     5
100
AcDbLine
 10
3044.392548548174
 20
-1933.585616244168
 30
0.0
 11
3044.392548548174
 21
-2019.449925162114
 31
0.0
  0
LINE
  5
2FA
330
1F
100
AcDbEntity
  8
0-E
  6
Continuous
 62
   120
370
     5
100
AcDbLine
 10
3209.392548548185
 20
-1933.585616244168
 30
0.0
 11
3209.392548548185
 21
-2019.449925162114
 31
0.0
  0
LINE
  5
2FB
330
1F
100
AcDbEntity
  8
0-E
  6
Continuous
 62
   120
370
     5
100
AcDbLine
 10
2886.892548548181
 20
-1774.123328253695
 30
0.0
 11
3366.892548548177
 21
-1774.123328253695
 31
0.0
  0
LWPOLYLINE
  5
2FC
330
1F
100
AcDbEntity
  8
0-E
  6
Continuous
 62
     7
370
     9
100
AcDbPolyline
 90
        4
 70
     1
 43
3.0
 10
2888.392548548181
 20
-1774.123328253695
 42
0.4142135623731
 10
2886.892548548181
 20
-1772.623328253696
 42
0.4142135623731
 10
2885.392548548181
 20
-1774.123328253695
 42
0.4142135623731
 10
2886.892548548181
 20
-1775.623328253695
 42
0.4142135623731
  0
LWPOLYLINE
  5
2FD
330
1F
100
AcDbEntity
  8
0-E
  6
Continuous
 62
     7
370
     9
100
AcDbPolyline
 90
        4
 70
     1
 43
3.0
 10
3368.392548548177
 20
-1774.123328253695
 42
0.4142135623731
 10
3366.892548548177
 20
-1772.623328253696
 42
0.4142135623731
 10
3365.392548548177
 20
-1774.123328253695
 42
0.4142135623731
 10
3366.892548548177
 20
-1775.623328253695
 42
0.4142135623731
  0
LINE
  5
2FE
330
1F
100
AcDbEntity
  8
0-E
  6
Continuous
 62
   120
370
     5
100
AcDbLine
 10
2886.892548548181
 20
-1774.123328253695
 30
0.0
 11
2886.892548548181
 21
-2019.449925162114
 31
0.0
  0
LINE
  5
2FF
330
1F
100
AcDbEntity
  8
0-E
  6
Continuous
 62
   120
370
     5
100
AcDbLine
 10
3366.892548548177
 20
-1774.123328253695
 30
0.0
 11
3366.892548548177
 21
-2019.449925162114
 31
0.0
  0
LWPOLYLINE
  5
300
330
1F
100
AcDbEntity
  8
0-E
  6
Continuous
 62
     7
370
     9
100
AcDbPolyline
 90
        4
 70
     1
 43
3.0
 10
2670.540822809253
 20
-2073.765732176917
 42
0.4142135623731
 10
2669.040822809253
 20
-2072.265732176917
 42
0.4142135623731
 10
2667.540822809253
 20
-2073.765732176917
 42
0.4142135623731
 10
2669.040822809253
 20
-2075.265732176917
 42
0.4142135623731
  0
LWPOLYLINE
  5
301
330
1F
100
AcDbEntity
  8
0-E
  6
Continuous
 62
     7
370
     9
100
AcDbPolyline
 90
        4
 70
     1
 43
3.0
 10
2670.540822809253
 20
-2091.765732176918
 42
0.4142135623731
 10
2669.040822809253
 20
-2090.265732176918
 42
0.4142135623731
 10
2667.540822809253
 20
-2091.765732176918
 42
0.4142135623731
 10
2669.040822809253
 20
-2093.265732176918
 42
0.4142135623731
  0
LINE
  5
302
330
1F
100
AcDbEntity
  8
0-E
  6
Continuous
 62
   120
370
     5
100
AcDbLine
 10
2669.040822809253
 20
-2073.765732176917
 30
0.0
 11
2799.881674493744
 21
-2073.765732176917
 31
0.0
  0
LINE
  5
303
330
1F
100
AcDbEntity
  8
0-E
  6
Continuous
 62
   120
370
     5
100
AcDbLine
 10
2669.040822809253
 20
-2091.765732176918
 30
0.0
 11
2799.881674493744
 21
-2091.765732176918
 31
0.0
  0
LINE
  5
304
330
1F
100
AcDbEntity
  8
0-E
  6
Continuous
 62
   120
370
     5
100
AcDbLine
 10
2669.040822809253
 20
-2091.765732176918
 30
0.0
 11
2669.040822809253
 21
-2196.765732176918
 31
0.0
  0
LWPOLYLINE
  5
305
330
1F
100
AcDbEntity
  8
0-E
  6
Continuous
 62
     7
370
     9
100
AcDbPolyline
 90
        4
 70
     1
 43
3.0
 10
2670.540822809253
 20
-2196.765732176918
 42
0.4142135623731
 10
2669.040822809253
 20
-2195.265732176918
 42
0.4142135623731
 10
2667.540822809253
 20
-2196.765732176918
 42
0.4142135623731
 10
2669.040822809253
 20
-2198.265732176918
 42
0.4142135623731
  0
LINE
  5
306
330
1F
100
AcDbEntity
  8
0-E
  6
Continuous
 62
   120
370
     5
100
AcDbLine
 10
2669.040822809253
 20
-2196.765732176918
 30
0.0
 11
2799.881674493744
 21
-2196.765732176918
 31
0.0
  0
LINE
  5
307
330
1F
100
AcDbEntity
  8
0-E
  6
Continuous
 62
   120
370
     5
100
AcDbLine
 10
2981.392548548181
 20
-2407.662080987368
 30
0.0
 11
3272.392548548175
 21
-2407.662080987368
 31
0.0
  0
LWPOLYLINE
  5
308
330
1F
100
AcDbEntity
  8
0-E
  6
Continuous
 62
     7
370
     9
100
AcDbPolyline
 90
        4
 70
     1
 43
3.0
 10
2982.89254854818
 20
-2407.662080987368
 42
0.4142135623731
 10
2981.392548548181
 20
-2406.162080987368
 42
0.4142135623731
 10
2979.892548548181
 20
-2407.662080987368
 42
0.4142135623731
 10
2981.392548548181
 20
-2409.162080987368
 42
0.4142135623731
  0
LWPOLYLINE
  5
309
330
1F
100
AcDbEntity
  8
0-E
  6
Continuous
 62
     7
370
     9
100
AcDbPolyline
 90
        4
 70
     1
 43
3.0
 10
3273.892548548175
 20
-2407.662080987368
 42
0.4142135623731
 10
3272.392548548175
 20
-2406.162080987368
 42
0.4142135623731
 10
3270.892548548175
 20
-2407.662080987368
 42
0.4142135623731
 10
3272.392548548175
 20
-2409.162080987368
 42
0.4142135623731
  0
LINE
  5
30A
330
1F
100
AcDbEntity
  8
0-E
  6
Continuous
 62
   120
370
     5
100
AcDbLine
 10
2981.392548548181
 20
-2407.662080987368
 30
0.0
 11
2981.392548548181
 21
-2280.045998919218
 31
0.0
  0
LINE
  5
30B
330
1F
100
AcDbEntity
  8
0-E
  6
Continuous
 62
   120
370
     5
100
AcDbLine
 10
3272.392548548175
 20
-2407.662080987368
 30
0.0
 11
3272.392548548175
 21
-2280.045998919218
 31
0.0
  0
LINE
  5
30C
330
1F
100
AcDbEntity
  8
0-E
  6
Continuous
 62
   120
370
     5
100
AcDbLine
 10
2669.040822809253
 20
-1907.277887552609
 30
0.0
 11
2669.040822809253
 21
-2091.765732176918
 31
0.0
  0
LWPOLYLINE
  5
30D
330
1F
100
AcDbEntity
  8
0-E
  6
Continuous
 62
     7
370
     9
100
AcDbPolyline
 90
        4
 70
     1
 43
3.0
 10
2955.892548548178
 20
-2779.279112782177
 42
0.4142135623731
 10
2954.392548548178
 20
-2777.779112782177
 42
0.4142135623731
 10
2952.892548548178
 20
-2779.279112782177
 42
0.4142135623731
 10
2954.392548548178
 20
-2780.779112782177
 42
0.4142135623731
  0
LWPOLYLINE
  5
30E
330
1F
100
AcDbEntity
  8
0-E
  6
Continuous
 62
     7
370
     9
100
AcDbPolyline
 90
        4
 70
     1
 43
3.0
 10
2978.392548548178
 20
-2779.279112782177
 42
0.4142135623731
 10
2976.892548548178
 20
-2777.779112782177
 42
0.4142135623731
 10
2975.392548548178
 20
-2779.279112782177
 42
0.4142135623731
 10
2976.892548548178
 20
-2780.779112782177
 42
0.4142135623731
  0
LINE
  5
30F
330
1F
100
AcDbEntity
  8
0-E
  6
Continuous
 62
   120
370
     5
100
AcDbLine
 10
2954.392548548178
 20
-2779.279112782177
 30
0.0
 11
2954.392548548178
 21
-2883.791464511077
 31
0.0
  0
LINE
  5
310
330
1F
100
AcDbEntity
  8
0-E
  6
Continuous
 62
   120
370
     5
100
AcDbLine
 10
2976.892548548178
 20
-2779.279112782177
 30
0.0
 11
2976.892548548178
 21
-2883.791464511077
 31
0.0
  0
LINE
  5
311
330
1F
100
AcDbEntity
  8
0-E
  6
Continuous
 62
   120
370
     5
100
AcDbLine
 10
2976.892548548178
 20
-2779.279112782177
 30
0.0
 11
3276.892548548178
 21
-2779.279112782177
 31
0.0
  0
LWPOLYLINE
  5
312
330
1F
100
AcDbEntity
  8
0-E
  6
Continuous
 62
     7
370
     9
100
AcDbPolyline
 90
        4
 70
     1
 43
3.0
 10
3278.392548548178
 20
-2779.279112782177
 42
0.4142135623731
 10
3276.892548548178
 20
-2777.779112782177
 42
0.4142135623731
 10
3275.392548548178
 20
-2779.279112782177
 42
0.4142135623731
 10
3276.892548548178
 20
-2780.779112782177
 42
0.4142135623731
  0
LINE
  5
313
330
1F
100
AcDbEntity
  8
0-E
  6
Continuous
 62
   120
370
     5
100
AcDbLine
 10
3276.892548548178
 20
-2779.279112782177
 30
0.0
 11
3276.892548548178
 21
-2883.791464511077
 31
0.0
  0
LWPOLYLINE
  5
314
330
1F
100
AcDbEntity
  8
0-E
  6
Continuous
 62
     7
370
     9
100
AcDbPolyline
 90
        4
 70
     1
 43
3.0
 10
3300.419691047115
 20
-2779.279112782177
 42
0.4142135623731
 10
3298.919691047116
 20
-2777.779112782177
 42
0.4142135623731
 10
3297.419691047116
 20
-2779.279112782177
 42
0.4142135623731
 10
3298.919691047116
 20
-2780.779112782177
 42
0.4142135623731
  0
LINE
  5
315
330
1F
100
AcDbEntity
  8
0-E
  6
Continuous
 62
   120
370
     5
100
AcDbLine
 10
3298.919691047116
 20
-2779.279112782177
 30
0.0
 11
3298.919691047116
 21
-2883.791464511077
 31
0.0
  0
LWPOLYLINE
  5
316
330
1F
100
AcDbEntity
  8
0-E
  6
Continuous
 62
     7
370
     9
100
AcDbPolyline
 90
        4
 70
     1
 43
3.0
 10
2670.540822809253
 20
-2955.972478709091
 42
0.4142135623731
 10
2669.040822809253
 20
-2954.472478709091
 42
0.4142135623731
 10
2667.540822809253
 20
-2955.972478709091
 42
0.4142135623731
 10
2669.040822809253
 20
-2957.472478709091
 42
0.4142135623731
  0
LWPOLYLINE
  5
317
330
1F
100
AcDbEntity
  8
0-E
  6
Continuous
 62
     7
370
     9
100
AcDbPolyline
 90
        4
 70
     1
 43
3.0
 10
2670.540822809253
 20
-2985.973034534834
 42
0.4142135623731
 10
2669.040822809253
 20
-2984.473034534834
 42
0.4142135623731
 10
2667.540822809253
 20
-2985.973034534834
 42
0.4142135623731
 10
2669.040822809253
 20
-2987.473034534834
 42
0.4142135623731
  0
LINE
  5
318
330
1F
100
AcDbEntity
  8
0-E
  6
Continuous
 62
   120
370
     5
100
AcDbLine
 10
2669.040822809253
 20
-2955.972478709091
 30
0.0
 11
2799.881674493744
 21
-2955.972478709091
 31
0.0
  0
LINE
  5
319
330
1F
100
AcDbEntity
  8
0-E
  6
Continuous
 62
   120
370
     5
100
AcDbLine
 10
2669.040822809253
 20
-2985.973034534834
 30
0.0
 11
2799.881674493744
 21
-2985.973034534834
 31
0.0
  0
LINE
  5
31A
330
1F
100
AcDbEntity
  8
0-E
  6
Continuous
 62
   120
370
     5
100
AcDbLine
 10
2669.040822809253
 20
-2985.973034534834
 30
0.0
 11
2669.040822809253
 21
-3060.97303453484
 31
0.0
  0
LWPOLYLINE
  5
31B
330
1F
100
AcDbEntity
  8
0-E
  6
Continuous
 62
     7
370
     9
100
AcDbPolyline
 90
        4
 70
     1
 43
3.0
 10
2670.540822809253
 20
-3060.97303453484
 42
0.4142135623731
 10
2669.040822809253
 20
-3059.47303453484
 42
0.4142135623731
 10
2667.540822809253
 20
-3060.97303453484
 42
0.4142135623731
 10
2669.040822809253
 20
-3062.47303453484
 42
0.4142135623731
  0
LINE
  5
31C
330
1F
100
AcDbEntity
  8
0-E
  6
Continuous
 62
   120
370
     5
100
AcDbLine
 10
2669.040822809253
 20
-3060.97303453484
 30
0.0
 11
2799.881674493744
 21
-3060.97303453484
 31
0.0
  0
LINE
  5
31D
330
1F
100
AcDbEntity
  8
0-E
  6
Continuous
 62
   120
370
     5
100
AcDbLine
 10
2512.597852565259
 20
-3060.97303453484
 30
0.0
 11
2512.597852565259
 21
-2955.972478709091
 31
0.0
  0
LWPOLYLINE
  5
31E
330
1F
100
AcDbEntity
  8
0-E
  6
Continuous
 62
     7
370
     9
100
AcDbPolyline
 90
        4
 70
     1
 43
3.0
 10
2514.097852565259
 20
-3060.97303453484
 42
0.4142135623731
 10
2512.597852565259
 20
-3059.47303453484
 42
0.4142135623731
 10
2511.097852565259
 20
-3060.97303453484
 42
0.4142135623731
 10
2512.597852565259
 20
-3062.47303453484
 42
0.4142135623731
  0
LWPOLYLINE
  5
31F
330
1F
100
AcDbEntity
  8
0-E
  6
Continuous
 62
     7
370
     9
100
AcDbPolyline
 90
        4
 70
     1
 43
3.0
 10
2514.097852565259
 20
-2955.972478709091
 42
0.4142135623731
 10
2512.597852565259
 20
-2954.472478709091
 42
0.4142135623731
 10
2511.097852565259
 20
-2955.972478709091
 42
0.4142135623731
 10
2512.597852565259
 20
-2957.472478709091
 42
0.4142135623731
  0
LINE
  5
320
330
1F
100
AcDbEntity
  8
0-E
  6
Continuous
 62
   120
370
     5
100
AcDbLine
 10
2512.597852565259
 20
-3060.97303453484
 30
0.0
 11
2669.040822809253
 21
-3060.97303453484
 31
0.0
  0
LINE
  5
321
330
1F
100
AcDbEntity
  8
0-E
  6
Continuous
 62
   120
370
     5
100
AcDbLine
 10
2512.597852565259
 20
-2955.972478709091
 30
0.0
 11
2669.040822809253
 21
-2955.972478709091
 31
0.0
  0
LWPOLYLINE
  5
322
330
1F
100
AcDbEntity
  8
0-E
  6
Continuous
 62
     7
370
     9
100
AcDbPolyline
 90
        4
 70
     1
 43
3.0
 10
2514.097852565259
 20
-2196.765732176918
 42
0.4142135623731
 10
2512.597852565259
 20
-2195.265732176918
 42
0.4142135623731
 10
2511.097852565259
 20
-2196.765732176918
 42
0.4142135623731
 10
2512.597852565259
 20
-2198.265732176918
 42
0.4142135623731
  0
LINE
  5
323
330
1F
100
AcDbEntity
  8
0-E
  6
Continuous
 62
   120
370
     5
100
AcDbLine
 10
2512.597852565259
 20
-2196.765732176918
 30
0.0
 11
2669.040822809253
 21
-2196.765732176918
 31
0.0
  0
LINE
  5
324
330
1F
100
AcDbEntity
  8
0-E
  6
Continuous
 62
   120
370
     5
100
AcDbLine
 10
2512.597852565259
 20
-2196.765732176918
 30
0.0
 11
2512.597852565259
 21
-2073.765732176917
 31
0.0
  0
LWPOLYLINE
  5
325
330
1F
100
AcDbEntity
  8
0-E
  6
Continuous
 62
     7
370
     9
100
AcDbPolyline
 90
        4
 70
     1
 43
3.0
 10
2514.097852565259
 20
-2073.765732176917
 42
0.4142135623731
 10
2512.597852565259
 20
-2072.265732176917
 42
0.4142135623731
 10
2511.097852565259
 20
-2073.765732176917
 42
0.4142135623731
 10
2512.597852565259
 20
-2075.265732176917
 42
0.4142135623731
  0
LINE
  5
326
330
1F
100
AcDbEntity
  8
0-E
  6
Continuous
 62
   120
370
     5
100
AcDbLine
 10
2512.597852565259
 20
-2073.765732176917
 30
0.0
 11
2669.040822809253
 21
-2073.765732176917
 31
0.0
  0
LINE
  5
327
330
1F
100
AcDbEntity
  8
0-E
  6
Continuous
 62
   120
370
     5
100
AcDbLine
 10
2669.040822809253
 20
-2889.451182300003
 30
0.0
 11
2669.040822809253
 21
-2985.973034534834
 31
0.0
  0
LINE
  5
328
330
1F
100
AcDbEntity
  8
0-E
  6
Continuous
 62
   120
370
     5
100
AcDbLine
 10
2954.392548548178
 20
-2617.331877124406
 30
0.0
 11
3298.919691047116
 21
-2617.331877124406
 31
0.0
  0
LWPOLYLINE
  5
329
330
1F
100
AcDbEntity
  8
0-E
  6
Continuous
 62
     7
370
     9
100
AcDbPolyline
 90
        4
 70
     1
 43
3.0
 10
2955.892548548178
 20
-2617.331877124406
 42
0.4142135623731
 10
2954.392548548178
 20
-2615.831877124406
 42
0.4142135623731
 10
2952.892548548178
 20
-2617.331877124406
 42
0.4142135623731
 10
2954.392548548178
 20
-2618.831877124406
 42
0.4142135623731
  0
LWPOLYLINE
  5
32A
330
1F
100
AcDbEntity
  8
0-E
  6
Continuous
 62
     7
370
     9
100
AcDbPolyline
 90
        4
 70
     1
 43
3.0
 10
3300.419691047115
 20
-2617.331877124406
 42
0.4142135623731
 10
3298.919691047116
 20
-2615.831877124406
 42
0.4142135623731
 10
3297.419691047116
 20
-2617.331877124406
 42
0.4142135623731
 10
3298.919691047116
 20
-2618.831877124406
 42
0.4142135623731
  0
LINE
  5
32B
330
1F
100
AcDbEntity
  8
0-E
  6
Continuous
 62
   120
370
     5
100
AcDbLine
 10
2954.392548548178
 20
-2617.331877124406
 30
0.0
 11
2954.392548548178
 21
-2779.279112782177
 31
0.0
  0
LINE
  5
32C
330
1F
100
AcDbEntity
  8
0-E
  6
Continuous
 62
   120
370
     5
100
AcDbLine
 10
3298.919691047116
 20
-2617.331877124406
 30
0.0
 11
3298.919691047116
 21
-2779.279112782177
 31
0.0
  0
LINE
  5
32D
330
1F
100
AcDbEntity
  8
0-E
  6
Continuous
 62
   120
370
     5
100
AcDbLine
 10
2789.990466770645
 20
-2779.279112782177
 30
0.0
 11
2976.892548548178
 21
-2779.279112782177
 31
0.0
  0
LINE
  5
32E
330
1F
100
AcDbEntity
  8
0-E
  6
Continuous
 62
   120
370
     5
100
AcDbLine
 10
3276.892548548178
 20
-2779.279112782177
 30
0.0
 11
3470.201612503472
 21
-2779.279112782177
 31
0.0
  0
LINE
  5
32F
330
1F
100
AcDbEntity
  8
0-E
  6
Continuous
 62
    92
370
    13
100
AcDbLine
 10
2205.587533354163
 20
194.9998020481422
 30
0.0
 11
2205.587533354163
 21
-3409.930654623817
 31
0.0
  0
LINE
  5
330
330
1F
100
AcDbEntity
  8
0-E
  6
Continuous
 62
    92
370
    13
100
AcDbLine
 10
4191.256895024741
 20
194.9998020481422
 30
0.0
 11
4191.256895024741
 21
-3409.930654623817
 31
0.0
  0
LINE
  5
331
330
1F
100
AcDbEntity
  8
0-E
  6
Continuous
 62
    92
370
    13
100
AcDbLine
 10
1255.04997401186
 20
-1184.663364290127
 30
0.0
 11
1255.04997401186
 21
-1134.663879789755
 31
0.0
  0
LINE
  5
332
330
1F
100
AcDbEntity
  8
0-E
  6
Continuous
 62
    92
370
    13
100
AcDbLine
 10
1025.049710076048
 20
-1184.663364290127
 30
0.0
 11
1025.049710076048
 21
-1134.663879789755
 31
0.0
  0
LINE
  5
333
330
1F
100
AcDbEntity
  8
0-E
  6
Continuous
 62
    92
370
    13
100
AcDbLine
 10
1040.049017244548
 20
-1204.663677713902
 30
0.0
 11
1240.049182204436
 21
-1204.663677713902
 31
0.0
  0
LINE
  5
334
330
1F
100
AcDbEntity
  8
0-E
  6
Continuous
 62
    92
370
    13
100
AcDbLine
 10
1025.049710076048
 20
-1184.663364290127
 30
0.0
 11
1040.049017244548
 21
-1184.663364290127
 31
0.0
  0
LINE
  5
335
330
1F
100
AcDbEntity
  8
0-E
  6
Continuous
 62
    92
370
    13
100
AcDbLine
 10
1040.049017244548
 20
-1204.663677713902
 30
0.0
 11
1040.049017244548
 21
-1184.663364290127
 31
0.0
  0
LINE
  5
336
330
1F
100
AcDbEntity
  8
0-E
  6
Continuous
 62
    92
370
    13
100
AcDbLine
 10
1240.049182204436
 20
-1204.663677713902
 30
0.0
 11
1240.049182204436
 21
-1184.663364290127
 31
0.0
  0
LINE
  5
337
330
1F
100
AcDbEntity
  8
0-E
  6
Continuous
 62
    92
370
    13
100
AcDbLine
 10
1255.04997401186
 20
-1184.663364290127
 30
0.0
 11
1240.049182204436
 21
-1184.663364290127
 31
0.0
  0
LWPOLYLINE
  5
338
330
1F
100
AcDbEntity
  8
0-E
  6
Continuous
 62
     7
370
     9
100
AcDbPolyline
 90
        4
 70
     1
 43
3.0
 10
681.548918268619
 20
-1512.173331990985
 42
0.4142135623731
 10
680.048918268619
 20
-1510.673331990985
 42
0.4142135623731
 10
678.5489182686189
 20
-1512.173331990985
 42
0.4142135623731
 10
680.048918268619
 20
-1513.673331990985
 42
0.4142135623731
  0
LINE
  5
339
330
1F
100
AcDbEntity
  8
0-E
  6
Continuous
 62
   120
370
     5
100
AcDbLine
 10
680.048918268619
 20
-1512.173331990985
 30
0.0
 11
680.048918268619
 21
-1332.173331990985
 31
0.0
  0
LWPOLYLINE
  5
33A
330
1F
100
AcDbEntity
  8
0-E
  6
Continuous
 62
     7
370
     9
100
AcDbPolyline
 90
        4
 70
     1
 43
3.0
 10
681.5489182686181
 20
-200.8306533089103
 42
0.4142135623731
 10
680.0489182686181
 20
-199.3306533089103
 42
0.4142135623731
 10
678.5489182686181
 20
-200.8306533089103
 42
0.4142135623731
 10
680.0489182686181
 20
-202.3306533089103
 42
0.4142135623731
  0
LINE
  5
33B
330
1F
100
AcDbEntity
  8
0-E
  6
Continuous
 62
   120
370
     5
100
AcDbLine
 10
680.0489182686181
 20
-200.8306533089103
 30
0.0
 11
680.0489182686181
 21
-344.3727031089111
 31
0.0
  0
MTEXT
  5
33C
330
1F
100
AcDbEntity
  8
0-E
  6
Continuous
 62
     7
370
   211
100
AcDbMText
 10
1860.049627580352
 20
-1202.873778751829
 30
0.0
 40
68.58
 41
45.0
 46
0.0
 71
     7
 72
     1
  1
{\fＭＳ ゴシック|b0|i0|c128|p49;7}
 11
6.123031769111886E-17
 21
1.0
 31
0.0
 73
     1
 44
1.0
  0
LINE
  5
33D
330
1F
100
AcDbEntity
  8
0-E
  6
Continuous
 62
   120
370
     5
100
AcDbLine
 10
1875.049627580352
 20
-1134.663879789755
 30
0.0
 11
1875.049627580352
 21
-1204.663677713902
 31
0.0
  0
LWPOLYLINE
  5
33E
330
1F
100
AcDbEntity
  8
0-E
  6
Continuous
 62
     7
370
     9
100
AcDbPolyline
 90
        4
 70
     1
 43
3.0
 10
1876.549627580352
 20
-1134.663879789755
 42
0.4142135623731
 10
1875.049627580352
 20
-1133.163879789756
 42
0.4142135623731
 10
1873.549627580352
 20
-1134.663879789755
 42
0.4142135623731
 10
1875.049627580352
 20
-1136.163879789755
 42
0.4142135623731
  0
LWPOLYLINE
  5
33F
330
1F
100
AcDbEntity
  8
0-E
  6
Continuous
 62
     7
370
     9
100
AcDbPolyline
 90
        4
 70
     1
 43
3.0
 10
1876.549627580352
 20
-1204.663677713902
 42
0.4142135623731
 10
1875.049627580352
 20
-1203.163677713903
 42
0.4142135623731
 10
1873.549627580352
 20
-1204.663677713902
 42
0.4142135623731
 10
1875.049627580352
 20
-1206.163677713902
 42
0.4142135623731
  0
LINE
  5
340
330
1F
100
AcDbEntity
  8
0-E
  6
Continuous
 62
   120
370
     5
100
AcDbLine
 10
1875.049627580352
 20
-1134.663879789755
 30
0.0
 11
1683.316319944081
 21
-1134.663879789755
 31
0.0
  0
LINE
  5
341
330
1F
100
AcDbEntity
  8
0-E
  6
Continuous
 62
   120
370
     5
100
AcDbLine
 10
1875.049627580352
 20
-1204.663677713902
 30
0.0
 11
1683.316319944081
 21
-1204.663677713902
 31
0.0
  0
LWPOLYLINE
  5
342
330
1F
100
AcDbEntity
  8
0-E
  6
Continuous
 62
     7
370
     9
100
AcDbPolyline
 90
        4
 70
     1
 43
3.0
 10
1601.549281180364
 20
-1512.173331990985
 42
0.4142135623731
 10
1600.049281180364
 20
-1510.673331990985
 42
0.4142135623731
 10
1598.549281180364
 20
-1512.173331990985
 42
0.4142135623731
 10
1600.049281180364
 20
-1513.673331990985
 42
0.4142135623731
  0
LINE
  5
343
330
1F
100
AcDbEntity
  8
0-E
  6
Continuous
 62
   120
370
     5
100
AcDbLine
 10
1600.049281180364
 20
-1512.173331990985
 30
0.0
 11
1600.049281180364
 21
-1332.173331990985
 31
0.0
  0
LWPOLYLINE
  5
344
330
1F
100
AcDbEntity
  8
0-E
  6
Continuous
 62
     7
370
     9
100
AcDbPolyline
 90
        4
 70
     1
 43
3.0
 10
1601.549281180364
 20
-200.8306533089103
 42
0.4142135623731
 10
1600.049281180364
 20
-199.3306533089103
 42
0.4142135623731
 10
1598.549281180364
 20
-200.8306533089103
 42
0.4142135623731
 10
1600.049281180364
 20
-202.3306533089103
 42
0.4142135623731
  0
LINE
  5
345
330
1F
100
AcDbEntity
  8
0-E
  6
Continuous
 62
   120
370
     5
100
AcDbLine
 10
1600.049281180364
 20
-200.8306533089103
 30
0.0
 11
1600.049281180364
 21
-344.3727031089111
 31
0.0
  0
LINE
  5
346
330
1F
100
AcDbEntity
  8
0-E
  6
Continuous
 62
   120
370
     5
100
AcDbLine
 10
680.0489182686181
 20
-200.8306533089103
 30
0.0
 11
1600.049281180364
 21
-200.8306533089103
 31
0.0
  0
LWPOLYLINE
  5
347
330
1F
100
AcDbEntity
  8
0-E
  6
Continuous
 62
     7
370
     9
100
AcDbPolyline
 90
        4
 70
     1
 43
3.0
 10
681.5489182686181
 20
-200.8306533089103
 42
0.4142135623731
 10
680.0489182686181
 20
-199.3306533089103
 42
0.4142135623731
 10
678.5489182686181
 20
-200.8306533089103
 42
0.4142135623731
 10
680.0489182686181
 20
-202.3306533089103
 42
0.4142135623731
  0
LWPOLYLINE
  5
348
330
1F
100
AcDbEntity
  8
0-E
  6
Continuous
 62
     7
370
     9
100
AcDbPolyline
 90
        4
 70
     1
 43
3.0
 10
1601.549281180364
 20
-200.8306533089103
 42
0.4142135623731
 10
1600.049281180364
 20
-199.3306533089103
 42
0.4142135623731
 10
1598.549281180364
 20
-200.8306533089103
 42
0.4142135623731
 10
1600.049281180364
 20
-202.3306533089103
 42
0.4142135623731
  0
MTEXT
  5
349
330
1F
100
AcDbEntity
  8
0-E
  6
Continuous
 62
     7
370
   211
100
AcDbMText
 10
1091.299099724492
 20
-193.6831533089103
 30
0.0
 40
74.295
 41
97.5
 46
0.0
 71
     7
 72
     1
  1
{\fＭＳ ゴシック|b0|i0|c128|p49;92}
 73
     1
 44
1.0
  0
LINE
  5
34A
330
1F
100
AcDbEntity
  8
0-E
  6
JWW_HOJO
 62
   120
370
     5
100
AcDbLine
 10
680.0485718528597
 20
-344.3727031089111
 30
0.0
 11
1600.049281180364
 21
-344.3727031089111
 31
0.0
  0
LINE
  5
34B
330
1F
100
AcDbEntity
  8
0-E
  6
JWW_HOJO
 62
   120
370
     5
100
AcDbLine
 10
680.0485718528597
 20
-394.3727031089108
 30
0.0
 11
1600.049281180364
 21
-394.3727031089108
 31
0.0
  0
LINE
  5
34C
330
1F
100
AcDbEntity
  8
0-E
  6
Continuous
 62
   120
370
     5
100
AcDbLine
 10
680.048918268619
 20
-1512.173331990985
 30
0.0
 11
1025.049710076048
 21
-1512.173331990985
 31
0.0
  0
LWPOLYLINE
  5
34D
330
1F
100
AcDbEntity
  8
0-E
  6
Continuous
 62
     7
370
     9
100
AcDbPolyline
 90
        4
 70
     1
 43
3.0
 10
681.548918268619
 20
-1512.173331990985
 42
0.4142135623731
 10
680.048918268619
 20
-1510.673331990985
 42
0.4142135623731
 10
678.5489182686189
 20
-1512.173331990985
 42
0.4142135623731
 10
680.048918268619
 20
-1513.673331990985
 42
0.4142135623731
  0
LWPOLYLINE
  5
34E
330
1F
100
AcDbEntity
  8
0-E
  6
Continuous
 62
     7
370
     9
100
AcDbPolyline
 90
        4
 70
     1
 43
3.0
 10
1026.549710076047
 20
-1512.173331990985
 42
0.4142135623731
 10
1025.049710076048
 20
-1510.673331990985
 42
0.4142135623731
 10
1023.549710076048
 20
-1512.173331990985
 42
0.4142135623731
 10
1025.049710076048
 20
-1513.673331990985
 42
0.4142135623731
  0
MTEXT
  5
34F
330
1F
100
AcDbEntity
  8
0-E
  6
Continuous
 62
     7
370
   211
100
AcDbMText
 10
751.299314172332
 20
-1503.597081990985
 30
0.0
 40
77.15249999999999
 41
202.5
 46
0.0
 71
     7
 72
     1
  1
{\fＭＳ ゴシック|b0|i0|c128|p49;34.5}
 73
     1
 44
1.0
  0
LINE
  5
350
330
1F
100
AcDbEntity
  8
0-E
  6
Continuous
 62
   120
370
     5
100
AcDbLine
 10
1600.049281180364
 20
-1512.173331990985
 30
0.0
 11
1255.04997401186
 21
-1512.173331990985
 31
0.0
  0
LWPOLYLINE
  5
351
330
1F
100
AcDbEntity
  8
0-E
  6
Continuous
 62
     7
370
     9
100
AcDbPolyline
 90
        4
 70
     1
 43
3.0
 10
1601.549281180364
 20
-1512.173331990985
 42
0.4142135623731
 10
1600.049281180364
 20
-1510.673331990985
 42
0.4142135623731
 10
1598.549281180364
 20
-1512.173331990985
 42
0.4142135623731
 10
1600.049281180364
 20
-1513.673331990985
 42
0.4142135623731
  0
LWPOLYLINE
  5
352
330
1F
100
AcDbEntity
  8
0-E
  6
Continuous
 62
     7
370
     9
100
AcDbPolyline
 90
        4
 70
     1
 43
3.0
 10
1256.54997401186
 20
-1512.173331990985
 42
0.4142135623731
 10
1255.04997401186
 20
-1510.673331990985
 42
0.4142135623731
 10
1253.54997401186
 20
-1512.173331990985
 42
0.4142135623731
 10
1255.04997401186
 20
-1513.673331990985
 42
0.4142135623731
  0
MTEXT
  5
353
330
1F
100
AcDbEntity
  8
0-E
  6
Continuous
 62
     7
370
   211
100
AcDbMText
 10
1326.299627596114
 20
-1503.597081990986
 30
0.0
 40
77.1524999999987
 41
202.4999999999966
 46
0.0
 71
     7
 72
     1
  1
{\fＭＳ ゴシック|b0|i0|c128|p49;34.5}
 73
     1
 44
1.0
  0
LINE
  5
354
330
1F
100
AcDbEntity
  8
0-E
  6
Continuous
 62
    92
370
    13
100
AcDbLine
 10
680.0489182686181
 20
-394.3727031089108
 30
0.0
 11
680.0489182686181
 21
-1134.663879789755
 31
0.0
  0
LINE
  5
355
330
1F
100
AcDbEntity
  8
0-E
  6
Continuous
 62
    92
370
    13
100
AcDbLine
 10
680.0489182686181
 20
-1134.663879789755
 30
0.0
 11
1025.049710076048
 21
-1134.663879789755
 31
0.0
  0
LINE
  5
356
330
1F
100
AcDbEntity
  8
0-E
  6
Continuous
 62
    92
370
    13
100
AcDbLine
 10
1255.04997401186
 20
-1134.663879789755
 30
0.0
 11
1600.049281180364
 21
-1134.663879789755
 31
0.0
  0
LINE
  5
357
330
1F
100
AcDbEntity
  8
0-E
  6
Continuous
 62
    92
370
    13
100
AcDbLine
 10
1600.049281180364
 20
-394.3727031089108
 30
0.0
 11
1600.049281180364
 21
-1134.663879789755
 31
0.0
  0
MTEXT
  5
358
330
1F
100
AcDbEntity
  8
0-E
  6
Continuous
 62
     7
370
   211
100
AcDbMText
 10
823.0321097357703
 20
-2579.771936329818
 30
0.0
 40
80.00999999999999
 41
210.0
 46
0.0
 71
     7
 72
     1
  1
{\fＭＳ ゴシック|b0|i0|c128|p49;33.5}
 11
6.123031769111886E-17
 21
1.0
 31
0.0
 73
     1
 44
1.0
  0
MTEXT
  5
359
330
1F
100
AcDbEntity
  8
0-E
  6
Continuous
 62
     7
370
   211
100
AcDbMText
 10
665.5102119910609
 20
-2712.056510733323
 30
0.0
 40
91.44
 41
120.0
 46
0.0
 71
     7
 72
     1
  1
{\fＭＳ ゴシック|b0|i0|c128|p49;25}
 11
6.123031769111886E-17
 21
1.0
 31
0.0
 73
     1
 44
1.0
  0
MTEXT
  5
35A
330
1F
100
AcDbEntity
  8
0-E
  6
Continuous
 62
     7
370
   211
100
AcDbMText
 10
939.4292802733755
 20
-2715.806936329818
 30
0.0
 40
91.44
 41
120.0
 46
0.0
 71
     7
 72
     1
  1
{\fＭＳ ゴシック|b0|i0|c128|p49;92}
 11
6.123031769111886E-17
 21
1.0
 31
0.0
 73
     1
 44
1.0
  0
MTEXT
  5
35B
330
1F
100
AcDbEntity
  8
0-E
  6
Continuous
 62
     7
370
   211
100
AcDbMText
 10
817.2122105379199
 20
-2930.771510733323
 30
0.0
 40
80.00999999999999
 41
210.0
 46
0.0
 71
     7
 72
     1
  1
{\fＭＳ ゴシック|b0|i0|c128|p49;33.5}
 11
6.123031769111886E-17
 21
1.0
 31
0.0
 73
     1
 44
1.0
  0
LINE
  5
35C
330
1F
100
AcDbEntity
  8
0-E
  6
Continuous
 62
   120
370
     5
100
AcDbLine
 10
1102.26528646189
 20
-2365.527125601952
 30
0.0
 11
1102.26528646189
 21
-2226.372740186934
 31
0.0
  0
LINE
  5
35D
330
1F
100
AcDbEntity
  8
0-E
  6
Continuous
 62
   120
370
     5
100
AcDbLine
 10
982.2652864618894
 20
-2566.526510733323
 30
0.0
 11
982.2652864618894
 21
-2226.372740186934
 31
0.0
  0
LINE
  5
35E
330
1F
100
AcDbEntity
  8
0-E
  6
Continuous
 62
   120
370
     5
100
AcDbLine
 10
862.2652864618894
 20
-2566.526510733323
 30
0.0
 11
862.2652864618894
 21
-2226.372740186934
 31
0.0
  0
LINE
  5
35F
330
1F
100
AcDbEntity
  8
0-E
  6
Continuous
 62
   120
370
     5
100
AcDbLine
 10
502.2652864618885
 20
-2566.526510733323
 30
0.0
 11
502.2652864618885
 21
-2226.372740186934
 31
0.0
  0
LINE
  5
360
330
1F
100
AcDbEntity
  8
0-E
  6
Continuous
 62
    92
370
    13
100
AcDbLine
 10
469.4719464588925
 20
-2566.526510733323
 30
0.0
 11
1084.264781684653
 21
-2566.526510733323
 31
0.0
  0
LINE
  5
361
330
1F
100
AcDbEntity
  8
0-E
  6
Continuous
 62
    92
370
    13
100
AcDbLine
 10
469.4719464588925
 20
-2716.526510733323
 30
0.0
 11
1084.264781684653
 21
-2716.526510733323
 31
0.0
  0
LINE
  5
362
330
1F
100
AcDbEntity
  8
0-E
  6
Continuous
 62
   120
370
     5
100
AcDbLine
 10
1102.26528646189
 20
-2917.525895864694
 30
0.0
 11
1102.26528646189
 21
-3056.680281279713
 31
0.0
  0
LINE
  5
363
330
1F
100
AcDbEntity
  8
0-E
  6
Continuous
 62
   120
370
     5
100
AcDbLine
 10
982.2652864618894
 20
-2716.526510733323
 30
0.0
 11
982.2652864618894
 21
-3056.680281279713
 31
0.0
  0
LINE
  5
364
330
1F
100
AcDbEntity
  8
0-E
  6
Continuous
 62
   120
370
     5
100
AcDbLine
 10
862.2652864618894
 20
-2716.526510733323
 30
0.0
 11
862.2652864618894
 21
-3056.680281279713
 31
0.0
  0
LINE
  5
365
330
1F
100
AcDbEntity
  8
0-E
  6
Continuous
 62
   120
370
     5
100
AcDbLine
 10
502.2652864618885
 20
-2716.526510733323
 30
0.0
 11
502.2652864618885
 21
-3056.680281279713
 31
0.0
  0
LINE
  5
366
330
1F
100
AcDbEntity
  8
0-E
  6
Continuous
 62
   120
370
     5
100
AcDbLine
 10
742.2652864618894
 20
-2716.526510733323
 30
0.0
 11
742.2652864618894
 21
-3056.680281279713
 31
0.0
  0
LINE
  5
367
330
1F
100
AcDbEntity
  8
0-E
  6
Continuous
 62
   120
370
     5
100
AcDbLine
 10
622.2652864618894
 20
-2716.526510733323
 30
0.0
 11
622.2652864618894
 21
-3056.680281279713
 31
0.0
  0
LINE
  5
368
330
1F
100
AcDbEntity
  8
0-E
  6
Continuous
 62
   120
370
     5
100
AcDbLine
 10
742.2652864618894
 20
-2566.526510733323
 30
0.0
 11
742.2652864618894
 21
-2226.372740186934
 31
0.0
  0
LINE
  5
369
330
1F
100
AcDbEntity
  8
0-E
  6
Continuous
 62
   120
370
     5
100
AcDbLine
 10
622.2652864618894
 20
-2566.526510733323
 30
0.0
 11
622.2652864618894
 21
-2226.372740186934
 31
0.0
  0
LINE
  5
36A
330
1F
100
AcDbEntity
  8
0-E
  6
Continuous
 62
   120
370
     5
100
AcDbLine
 10
680.5102119910609
 20
-2716.526510733323
 30
0.0
 11
795.1368660553348
 21
-2716.526510733323
 31
0.0
  0
LINE
  5
36B
330
1F
100
AcDbEntity
  8
0-E
  6
Continuous
 62
   120
370
     5
100
AcDbLine
 10
680.5102119910609
 20
-2566.526510733323
 30
0.0
 11
795.1368660553348
 21
-2566.526510733323
 31
0.0
  0
LWPOLYLINE
  5
36C
330
1F
100
AcDbEntity
  8
0-E
  6
Continuous
 62
     7
370
     9
100
AcDbPolyline
 90
        4
 70
     1
 43
3.0
 10
682.0102119910609
 20
-2917.526510733323
 42
0.4142135623731
 10
680.5102119910609
 20
-2916.026510733323
 42
0.4142135623731
 10
679.0102119910608
 20
-2917.526510733323
 42
0.4142135623731
 10
680.5102119910609
 20
-2919.026510733322
 42
0.4142135623731
  0
LWPOLYLINE
  5
36D
330
1F
100
AcDbEntity
  8
0-E
  6
Continuous
 62
     7
370
     9
100
AcDbPolyline
 90
        4
 70
     1
 43
3.0
 10
682.0102119910609
 20
-2716.526510733323
 42
0.4142135623731
 10
680.5102119910609
 20
-2715.026510733323
 42
0.4142135623731
 10
679.0102119910608
 20
-2716.526510733323
 42
0.4142135623731
 10
680.5102119910609
 20
-2718.026510733323
 42
0.4142135623731
  0
LWPOLYLINE
  5
36E
330
1F
100
AcDbEntity
  8
0-E
  6
Continuous
 62
     7
370
     9
100
AcDbPolyline
 90
        4
 70
     1
 43
3.0
 10
682.0102119910609
 20
-2566.526510733323
 42
0.4142135623731
 10
680.5102119910609
 20
-2565.026510733323
 42
0.4142135623731
 10
679.0102119910608
 20
-2566.526510733323
 42
0.4142135623731
 10
680.5102119910609
 20
-2568.026510733323
 42
0.4142135623731
  0
LWPOLYLINE
  5
36F
330
1F
100
AcDbEntity
  8
0-E
  6
Continuous
 62
     7
370
     9
100
AcDbPolyline
 90
        4
 70
     1
 43
3.0
 10
682.0102119910609
 20
-2365.527361926315
 42
0.4142135623731
 10
680.5102119910609
 20
-2364.027361926315
 42
0.4142135623731
 10
679.0102119910608
 20
-2365.527361926315
 42
0.4142135623731
 10
680.5102119910609
 20
-2367.027361926315
 42
0.4142135623731
  0
LINE
  5
370
330
1F
100
AcDbEntity
  8
0-E
  6
Continuous
 62
   120
370
     5
100
AcDbLine
 10
795.1368660553348
 20
-2917.526510733323
 30
0.0
 11
680.5102119910609
 21
-2917.526510733323
 31
0.0
  0
LINE
  5
371
330
1F
100
AcDbEntity
  8
0-E
  6
Continuous
 62
   120
370
     5
100
AcDbLine
 10
795.1368660553348
 20
-2365.527361926315
 30
0.0
 11
680.5102119910609
 21
-2365.527361926315
 31
0.0
  0
LINE
  5
372
330
1F
100
AcDbEntity
  8
0-E
  6
Continuous
 62
   120
370
     5
100
AcDbLine
 10
680.5102119910609
 20
-2917.526510733323
 30
0.0
 11
680.5102119910609
 21
-2365.527361926315
 31
0.0
  0
LINE
  5
373
330
1F
100
AcDbEntity
  8
0-E
  6
Continuous
 62
   120
370
     5
100
AcDbLine
 10
1222.26528646189
 20
-2917.525895864694
 30
0.0
 11
1222.26528646189
 21
-3056.680281279713
 31
0.0
  0
LINE
  5
374
330
1F
100
AcDbEntity
  8
0-E
  6
Continuous
 62
   120
370
     5
100
AcDbLine
 10
1822.26528646189
 20
-2857.526510733323
 30
0.0
 11
1822.26528646189
 21
-3056.680281279713
 31
0.0
  0
LINE
  5
375
330
1F
100
AcDbEntity
  8
0-E
  6
Continuous
 62
   120
370
     5
100
AcDbLine
 10
1942.26528646189
 20
-2857.526510733323
 30
0.0
 11
1942.26528646189
 21
-3056.680281279713
 31
0.0
  0
LINE
  5
376
330
1F
100
AcDbEntity
  8
0-E
  6
Continuous
 62
   120
370
     5
100
AcDbLine
 10
954.4292802733755
 20
-2365.527361926315
 30
0.0
 11
954.4292802733755
 21
-2917.526510733323
 31
0.0
  0
LWPOLYLINE
  5
377
330
1F
100
AcDbEntity
  8
0-E
  6
Continuous
 62
     7
370
     9
100
AcDbPolyline
 90
        4
 70
     1
 43
3.0
 10
955.9292802733756
 20
-2365.527361926315
 42
0.4142135623731
 10
954.4292802733755
 20
-2364.027361926315
 42
0.4142135623731
 10
952.9292802733755
 20
-2365.527361926315
 42
0.4142135623731
 10
954.4292802733755
 20
-2367.027361926315
 42
0.4142135623731
  0
LWPOLYLINE
  5
378
330
1F
100
AcDbEntity
  8
0-E
  6
Continuous
 62
     7
370
     9
100
AcDbPolyline
 90
        4
 70
     1
 43
3.0
 10
955.9292802733756
 20
-2917.526510733323
 42
0.4142135623731
 10
954.4292802733755
 20
-2916.026510733323
 42
0.4142135623731
 10
952.9292802733755
 20
-2917.526510733323
 42
0.4142135623731
 10
954.4292802733755
 20
-2919.026510733322
 42
0.4142135623731
  0
LINE
  5
379
330
1F
100
AcDbEntity
  8
0-E
  6
Continuous
 62
   120
370
     5
100
AcDbLine
 10
954.4292802733755
 20
-2365.527361926315
 30
0.0
 11
1056.277516235737
 21
-2365.527361926315
 31
0.0
  0
LINE
  5
37A
330
1F
100
AcDbEntity
  8
0-E
  6
Continuous
 62
   120
370
     5
100
AcDbLine
 10
954.4292802733755
 20
-2917.526510733323
 30
0.0
 11
1056.277516235737
 21
-2917.526510733323
 31
0.0
  0
LINE
  5
37B
330
1F
100
AcDbEntity
  8
0-E
  6
Continuous
 62
     7
370
     9
100
AcDbLine
 10
1294.264732196687
 20
-2701.527134281677
 30
0.0
 11
1282.265137997997
 21
-2701.527134281677
 31
0.0
  0
LINE
  5
37C
330
1F
100
AcDbEntity
  8
0-E
  6
Continuous
 62
     7
370
     9
100
AcDbLine
 10
1282.265137997997
 20
-2701.527134281677
 30
0.0
 11
1282.265137997997
 21
-2581.52673837796
 31
0.0
  0
LINE
  5
37D
330
1F
100
AcDbEntity
  8
0-E
  6
Continuous
 62
     7
370
     9
100
AcDbLine
 10
1282.265137997997
 20
-2581.52673837796
 30
0.0
 11
1294.264732196687
 21
-2581.52673837796
 31
0.0
  0
LINE
  5
37E
330
1F
100
AcDbEntity
  8
0-E
  6
Continuous
 62
     7
370
     9
100
AcDbLine
 10
1282.265137997997
 20
-2671.527035305748
 30
0.0
 11
1264.264633220759
 21
-2671.527035305748
 31
0.0
  0
LINE
  5
37F
330
1F
100
AcDbEntity
  8
0-E
  6
Continuous
 62
     7
370
     9
100
AcDbLine
 10
1264.264633220759
 20
-2611.52683735389
 30
0.0
 11
1282.265137997997
 21
-2611.52683735389
 31
0.0
  0
LINE
  5
380
330
1F
100
AcDbEntity
  8
0-E
  6
Continuous
 62
     7
370
     9
100
AcDbLine
 10
1270.264801479837
 20
-2671.527035305748
 30
0.0
 11
1270.264801479837
 21
-2611.52683735389
 31
0.0
  0
LINE
  5
381
330
1F
100
AcDbEntity
  8
0-E
  6
Continuous
 62
     7
370
     9
100
AcDbLine
 10
1276.264969738918
 20
-2671.527035305748
 30
0.0
 11
1276.264969738918
 21
-2611.52683735389
 31
0.0
  0
LINE
  5
382
330
1F
100
AcDbEntity
  8
0-E
  6
Continuous
 62
     7
370
     9
100
AcDbLine
 10
1264.264633220759
 20
-2671.527035305748
 30
0.0
 11
1264.264633220759
 21
-2611.52683735389
 31
0.0
  0
LINE
  5
383
330
1F
100
AcDbEntity
  8
0-E
  6
Continuous
 62
    92
370
    13
100
AcDbLine
 10
1234.264633220759
 20
-2875.526139573589
 30
0.0
 11
1264.264633220759
 21
-2875.526139573589
 31
0.0
  0
LINE
  5
384
330
1F
100
AcDbEntity
  8
0-E
  6
Continuous
 62
    92
370
    13
100
AcDbLine
 10
1234.264633220759
 20
-2875.526139573589
 30
0.0
 11
1234.264633220759
 21
-2917.526139573589
 31
0.0
  0
LINE
  5
385
330
1F
100
AcDbEntity
  8
0-E
  6
Continuous
 62
    92
370
    13
100
AcDbLine
 10
1198.264633220758
 20
-2917.526139573589
 30
0.0
 11
1234.264633220759
 21
-2917.526139573589
 31
0.0
  0
LINE
  5
386
330
1F
100
AcDbEntity
  8
0-E
  6
Continuous
 62
    92
370
    13
100
AcDbLine
 10
1198.264633220758
 20
-2875.526139573589
 30
0.0
 11
1198.264633220758
 21
-2917.526139573589
 31
0.0
  0
LINE
  5
387
330
1F
100
AcDbEntity
  8
0-E
  6
Continuous
 62
    92
370
    13
100
AcDbLine
 10
1144.264633220759
 20
-2875.526139573589
 30
0.0
 11
1198.264633220758
 21
-2875.526139573589
 31
0.0
  0
LINE
  5
388
330
1F
100
AcDbEntity
  8
0-E
  6
Continuous
 62
    92
370
    13
100
AcDbLine
 10
1144.264633220759
 20
-2875.526139573589
 30
0.0
 11
1144.264633220759
 21
-2917.526139573589
 31
0.0
  0
LINE
  5
389
330
1F
100
AcDbEntity
  8
0-E
  6
Continuous
 62
    92
370
    13
100
AcDbLine
 10
1264.264633220759
 20
-2875.526139573589
 30
0.0
 11
1264.264633220759
 21
-2365.52699076658
 31
0.0
  0
LINE
  5
38A
330
1F
100
AcDbEntity
  8
0-E
  6
Continuous
 62
   120
370
     5
100
AcDbLine
 10
1186.471037623209
 20
-2365.52699076658
 30
0.0
 11
1084.264781684653
 21
-2467.732504385668
 31
0.0
  0
LINE
  5
38B
330
1F
100
AcDbEntity
  8
0-E
  6
Continuous
 62
   120
370
     5
100
AcDbLine
 10
1264.264633220759
 20
-2372.585706586893
 30
0.0
 11
1084.264781684653
 21
-2552.585558122999
 31
0.0
  0
LINE
  5
38C
330
1F
100
AcDbEntity
  8
0-E
  6
Continuous
 62
   120
370
     5
100
AcDbLine
 10
1264.264633220759
 20
-2457.438760324224
 30
0.0
 11
1084.264781684653
 21
-2637.439354179796
 31
0.0
  0
LINE
  5
38D
330
1F
100
AcDbEntity
  8
0-E
  6
Continuous
 62
   120
370
     5
100
AcDbLine
 10
1264.264633220759
 20
-2542.291814061555
 30
0.0
 11
1084.264781684653
 21
-2722.291665597661
 31
0.0
  0
LINE
  5
38E
330
1F
100
AcDbEntity
  8
0-E
  6
Continuous
 62
   120
370
     5
100
AcDbLine
 10
1264.264633220759
 20
-2627.144125479418
 30
0.0
 11
1084.264781684653
 21
-2807.144719334993
 31
0.0
  0
LINE
  5
38F
330
1F
100
AcDbEntity
  8
0-E
  6
Continuous
 62
   120
370
     5
100
AcDbLine
 10
1264.264633220759
 20
-2711.997179216749
 30
0.0
 11
1084.264781684653
 21
-2891.997030752855
 31
0.0
  0
LINE
  5
390
330
1F
100
AcDbEntity
  8
0-E
  6
Continuous
 62
   120
370
     5
100
AcDbLine
 10
1264.264633220759
 20
-2796.85023295408
 30
0.0
 11
1185.588726601249
 21
-2875.526139573589
 31
0.0
  0
LINE
  5
391
330
1F
100
AcDbEntity
  8
0-E
  6
Continuous
 62
    92
370
    13
100
AcDbLine
 10
1090.264781684651
 20
-2917.526139573589
 30
0.0
 11
1144.264633220759
 21
-2917.526139573589
 31
0.0
  0
LINE
  5
392
330
1F
100
AcDbEntity
  8
0-E
  6
Continuous
 62
    92
370
    13
100
AcDbLine
 10
1084.264781684653
 20
-2911.526139573588
 30
0.0
 11
1090.264781684651
 21
-2917.526139573589
 31
0.0
  0
LINE
  5
393
330
1F
100
AcDbEntity
  8
0-E
  6
Continuous
 62
    92
370
    13
100
AcDbLine
 10
1090.264781684651
 20
-2365.52699076658
 30
0.0
 11
1264.264633220759
 21
-2365.52699076658
 31
0.0
  0
LINE
  5
394
330
1F
100
AcDbEntity
  8
0-E
  6
Continuous
 62
    92
370
    13
100
AcDbLine
 10
1084.264781684653
 20
-2371.52699076658
 30
0.0
 11
1084.264781684653
 21
-2911.526139573588
 31
0.0
  0
LINE
  5
395
330
1F
100
AcDbEntity
  8
0-E
  6
Continuous
 62
    92
370
    13
100
AcDbLine
 10
1090.264781684651
 20
-2365.52699076658
 30
0.0
 11
1084.264781684653
 21
-2371.52699076658
 31
0.0
  0
LINE
  5
396
330
1F
100
AcDbEntity
  8
0-E
  6
Continuous
 62
   120
370
     5
100
AcDbLine
 10
1264.264633220756
 20
-2415.193881284364
 30
0.0
 11
1262.597742702974
 21
-2413.526990766584
 31
0.0
  0
LINE
  5
397
330
1F
100
AcDbEntity
  8
0-E
  6
Continuous
 62
    40
370
    15
100
AcDbLine
 10
1264.264633220759
 20
-2884.757113649097
 30
0.0
 11
1911.546165439496
 21
-2884.757113649097
 31
0.0
  0
LINE
  5
398
330
1F
100
AcDbEntity
  8
0-E
  6
Continuous
 62
    40
370
    15
100
AcDbLine
 10
1264.264633220759
 20
-2959.757113649097
 30
0.0
 11
1911.546165439496
 21
-2959.757113649097
 31
0.0
  0
LINE
  5
399
330
1F
100
AcDbEntity
  8
0-E
  6
JWW_HOJO
 62
   120
370
     5
100
AcDbLine
 10
1911.546165439496
 20
-2884.757113649097
 30
0.0
 11
1911.546165439496
 21
-2959.757113649097
 31
0.0
  0
LINE
  5
39A
330
1F
100
AcDbEntity
  8
0-E
  6
JWW_DASHED1
 62
   120
370
     5
100
AcDbLine
 10
1901.911863568552
 20
-2959.757113649098
 30
0.0
 11
1911.546165439496
 21
-2950.122811778155
 31
0.0
  0
LINE
  5
39B
330
1F
100
AcDbEntity
  8
0-E
  6
JWW_DASHED1
 62
   120
370
     5
100
AcDbLine
 10
1859.485456697355
 20
-2959.757113649097
 30
0.0
 11
1911.546165439496
 21
-2907.696404906955
 31
0.0
  0
LINE
  5
39C
330
1F
100
AcDbEntity
  8
0-E
  6
JWW_DASHED1
 62
   120
370
     5
100
AcDbLine
 10
1817.059049826157
 20
-2959.757113649091
 30
0.0
 11
1892.059049826154
 21
-2884.757113649097
 31
0.0
  0
LINE
  5
39D
330
1F
100
AcDbEntity
  8
0-E
  6
JWW_DASHED1
 62
   120
370
     5
100
AcDbLine
 10
1774.632642954962
 20
-2959.75711364909
 30
0.0
 11
1849.632642954957
 21
-2884.757113649091
 31
0.0
  0
LINE
  5
39E
330
1F
100
AcDbEntity
  8
0-E
  6
JWW_DASHED1
 62
   120
370
     5
100
AcDbLine
 10
1732.206236083764
 20
-2959.757113649088
 30
0.0
 11
1807.206236083762
 21
-2884.75711364909
 31
0.0
  0
LINE
  5
39F
330
1F
100
AcDbEntity
  8
0-E
  6
JWW_DASHED1
 62
   120
370
     5
100
AcDbLine
 10
1689.77982921261
 20
-2959.757113649097
 30
0.0
 11
1764.779829212622
 21
-2884.757113649083
 31
0.0
  0
LINE
  5
3A0
330
1F
100
AcDbEntity
  8
0-E
  6
JWW_DASHED1
 62
   120
370
     5
100
AcDbLine
 10
1647.353422341403
 20
-2959.757113649103
 30
0.0
 11
1722.353422341414
 21
-2884.75711364909
 31
0.0
  0
LINE
  5
3A1
330
1F
100
AcDbEntity
  8
0-E
  6
JWW_DASHED1
 62
   120
370
     5
100
AcDbLine
 10
1604.927015470207
 20
-2959.757113649097
 30
0.0
 11
1679.927015470217
 21
-2884.757113649088
 31
0.0
  0
LINE
  5
3A2
330
1F
100
AcDbEntity
  8
0-E
  6
JWW_DASHED1
 62
   120
370
     5
100
AcDbLine
 10
1562.500608599003
 20
-2959.757113649103
 30
0.0
 11
1637.500608598998
 21
-2884.757113649105
 31
0.0
  0
LINE
  5
3A3
330
1F
100
AcDbEntity
  8
0-E
  6
JWW_DASHED1
 62
   120
370
     5
100
AcDbLine
 10
1520.074201727805
 20
-2959.757113649098
 30
0.0
 11
1595.074201727803
 21
-2884.757113649103
 31
0.0
  0
LINE
  5
3A4
330
1F
100
AcDbEntity
  8
0-E
  6
JWW_DASHED1
 62
   120
370
     5
100
AcDbLine
 10
1477.647794856608
 20
-2959.757113649097
 30
0.0
 11
1552.647794856605
 21
-2884.757113649101
 31
0.0
  0
LINE
  5
3A5
330
1F
100
AcDbEntity
  8
0-E
  6
JWW_DASHED1
 62
   120
370
     5
100
AcDbLine
 10
1435.221387985412
 20
-2959.757113649095
 30
0.0
 11
1510.221387985408
 21
-2884.757113649097
 31
0.0
  0
LINE
  5
3A6
330
1F
100
AcDbEntity
  8
0-E
  6
JWW_DASHED1
 62
   120
370
     5
100
AcDbLine
 10
1392.794981114273
 20
-2959.757113649088
 30
0.0
 11
1467.79498111427
 21
-2884.75711364909
 31
0.0
  0
LINE
  5
3A7
330
1F
100
AcDbEntity
  8
0-E
  6
JWW_DASHED1
 62
   120
370
     5
100
AcDbLine
 10
1350.368574243059
 20
-2959.757113649098
 30
0.0
 11
1425.368574243073
 21
-2884.757113649088
 31
0.0
  0
LINE
  5
3A8
330
1F
100
AcDbEntity
  8
0-E
  6
JWW_DASHED1
 62
   120
370
     5
100
AcDbLine
 10
1307.942167371863
 20
-2959.757113649097
 30
0.0
 11
1382.942167371873
 21
-2884.757113649088
 31
0.0
  0
LINE
  5
3A9
330
1F
100
AcDbEntity
  8
0-E
  6
JWW_DASHED1
 62
   120
370
     5
100
AcDbLine
 10
1265.515760500648
 20
-2959.757113649111
 30
0.0
 11
1340.515760500663
 21
-2884.757113649097
 31
0.0
  0
LINE
  5
3AA
330
1F
100
AcDbEntity
  8
0-E
  6
JWW_DASHED1
 62
   120
370
     5
100
AcDbLine
 10
1264.264633220769
 20
-2918.581834057792
 30
0.0
 11
1298.089353629449
 21
-2884.757113649111
 31
0.0
  0
LINE
  5
3AB
330
1F
100
AcDbEntity
  8
0-E
  6
Continuous
 62
    92
370
    13
100
AcDbLine
 10
1294.264732196687
 20
-2512.526490938138
 30
0.0
 11
1294.264732196687
 21
-2884.757113649097
 31
0.0
  0
LINE
  5
3AC
330
1F
100
AcDbEntity
  8
0-E
  6
Continuous
 62
   120
370
     5
100
AcDbLine
 10
1342.26528646189
 20
-2959.757113649098
 30
0.0
 11
1342.26528646189
 21
-3056.680281279713
 31
0.0
  0
LINE
  5
3AD
330
1F
100
AcDbEntity
  8
0-E
  6
Continuous
 62
   120
370
     5
100
AcDbLine
 10
1462.265286461889
 20
-2959.757113649097
 30
0.0
 11
1462.265286461889
 21
-3056.680281279713
 31
0.0
  0
LINE
  5
3AE
330
1F
100
AcDbEntity
  8
0-E
  6
Continuous
 62
   120
370
     5
100
AcDbLine
 10
1582.26528646189
 20
-2959.757113649097
 30
0.0
 11
1582.26528646189
 21
-3056.680281279713
 31
0.0
  0
LINE
  5
3AF
330
1F
100
AcDbEntity
  8
0-E
  6
Continuous
 62
   120
370
     5
100
AcDbLine
 10
1702.26528646189
 20
-2959.757113649097
 30
0.0
 11
1702.26528646189
 21
-3056.680281279713
 31
0.0
  0
LINE
  5
3B0
330
1F
100
AcDbEntity
  8
0-E
  6
Continuous
 62
    40
370
    15
100
AcDbLine
 10
1264.264633220759
 20
-2884.757113649097
 30
0.0
 11
1264.264633220759
 21
-2959.757113649097
 31
0.0
  0
MTEXT
  5
3B1
330
1F
100
AcDbEntity
  8
0-E
  6
Continuous
 62
     7
370
   211
100
AcDbMText
 10
1451.396217072317
 20
-2772.868324114143
 30
0.0
 40
91.44
 41
600.0
 46
0.0
 71
     7
 72
     1
  1
{\fＭＳ ゴシック|b0|i0|c128|p49;壁仕上げ面}
 73
     1
 44
1.0
  0
LINE
  5
3B2
330
1F
100
AcDbEntity
  8
0-E
  6
Continuous
 62
     7
370
     9
100
AcDbLine
 10
1443.553028319579
 20
-2767.421186765569
 30
0.0
 11
2047.935884851867
 21
-2767.421186765569
 31
0.0
  0
LINE
  5
3B3
330
1F
100
AcDbEntity
  8
0-E
  6
Continuous
 62
     7
370
     9
100
AcDbLine
 10
1332.088283516407
 20
-2960.48378801736
 30
0.0
 11
1443.553028319579
 21
-2767.421186765569
 31
0.0
  0
LINE
  5
3B4
330
1F
100
AcDbEntity
  8
0-E
  6
Continuous
 62
     7
370
     9
100
AcDbLine
 10
461.2639979607485
 20
-2055.153738836026
 30
0.0
 11
874.4768410080451
 21
-2055.153738836026
 31
0.0
  0
LINE
  5
3B5
330
1F
100
AcDbEntity
  8
0-E
  6
Continuous
 62
     7
370
     9
100
AcDbLine
 10
874.4768410080451
 20
-2055.153738836026
 30
0.0
 11
874.4768410080451
 21
-2194.831319584408
 31
0.0
  0
LINE
  5
3B6
330
1F
100
AcDbEntity
  8
0-E
  6
Continuous
 62
     7
370
     9
100
AcDbLine
 10
874.4768410080451
 20
-2194.831319584408
 30
0.0
 11
461.2639979607485
 21
-2194.831319584408
 31
0.0
  0
LINE
  5
3B7
330
1F
100
AcDbEntity
  8
0-E
  6
Continuous
 62
     7
370
     9
100
AcDbLine
 10
461.2639979607485
 20
-2194.831319584408
 30
0.0
 11
461.2639979607485
 21
-2055.153738836026
 31
0.0
  0
MTEXT
  5
3B8
330
1F
100
AcDbEntity
  8
0-E
  6
Continuous
 62
     7
370
     9
100
AcDbMText
 10
487.8704194843976
 20
-2199.272529210217
 30
0.0
 40
91.43999999999913
 41
359.9999999999966
 46
0.0
 71
     7
 72
     1
  1
{\fＭＳ ゴシック|b0|i0|c128|p49;収納側}
 73
     1
 44
1.0
  0
LINE
  5
3B9
330
1F
100
AcDbEntity
  8
0-E
  6
Continuous
 62
     7
370
     9
100
AcDbLine
 10
461.2639979607485
 20
-3237.373205557087
 30
0.0
 11
874.4768410080451
 21
-3237.373205557087
 31
0.0
  0
LINE
  5
3BA
330
1F
100
AcDbEntity
  8
0-E
  6
Continuous
 62
     7
370
     9
100
AcDbLine
 10
874.4768410080451
 20
-3237.373205557087
 30
0.0
 11
874.4768410080451
 21
-3097.695624808703
 31
0.0
  0
LINE
  5
3BB
330
1F
100
AcDbEntity
  8
0-E
  6
Continuous
 62
     7
370
     9
100
AcDbLine
 10
874.4768410080451
 20
-3097.695624808703
 30
0.0
 11
461.2639979607485
 21
-3097.695624808703
 31
0.0
  0
LINE
  5
3BC
330
1F
100
AcDbEntity
  8
0-E
  6
Continuous
 62
     7
370
     9
100
AcDbLine
 10
461.2639979607485
 20
-3097.695624808703
 30
0.0
 11
461.2639979607485
 21
-3237.373205557087
 31
0.0
  0
MTEXT
  5
3BD
330
1F
100
AcDbEntity
  8
0-E
  6
Continuous
 62
     7
370
     9
100
AcDbMText
 10
487.8704194843976
 20
-3241.814415182897
 30
0.0
 40
91.43999999999913
 41
359.9999999999966
 46
0.0
 71
     7
 72
     1
  1
{\fＭＳ ゴシック|b0|i0|c128|p49;室内側}
 73
     1
 44
1.0
  0
LINE
  5
3BE
330
1F
100
AcDbEntity
  8
1-E
  6
Continuous
 62
     7
370
     9
100
AcDbLine
 10
3227.498339138407
 20
-1055.819438934293
 30
0.0
 11
3354.17290389085
 21
-1198.504999416771
 31
0.0
  0
LINE
  5
3BF
330
1F
100
AcDbEntity
  8
1-E
  6
Continuous
 62
    40
370
    15
100
AcDbLine
 10
2586.892548548175
 20
-1087.287498605358
 30
0.0
 11
3666.892548548172
 21
-1087.287498605358
 31
0.0
  0
LINE
  5
3C0
330
1F
100
AcDbEntity
  8
1-E
  6
Continuous
 62
   120
370
     5
100
AcDbLine
 10
3696.892548548172
 20
-1087.287498605358
 30
0.0
 11
3966.892548548172
 21
-1087.287498605358
 31
0.0
  0
LWPOLYLINE
  5
3C1
330
1F
100
AcDbEntity
  8
1-E
  6
Continuous
 62
     7
370
     9
100
AcDbPolyline
 90
        4
 70
     1
 43
3.0
 10
3968.392548548173
 20
-1087.287498605358
 42
0.4142135623731
 10
3966.892548548172
 20
-1085.787498605359
 42
0.4142135623731
 10
3965.392548548172
 20
-1087.287498605358
 42
0.4142135623731
 10
3966.892548548172
 20
-1088.787498605358
 42
0.4142135623731
  0
LINE
  5
3C2
330
1F
100
AcDbEntity
  8
1-E
  6
Continuous
 62
   120
370
     5
100
AcDbLine
 10
2939.392548548175
 20
-1146.775523003422
 30
0.0
 11
2939.392548548175
 21
-1266.775523003422
 31
0.0
  0
LWPOLYLINE
  5
3C3
330
1F
100
AcDbEntity
  8
1-E
  6
Continuous
 62
     7
370
     9
100
AcDbPolyline
 90
        4
 70
     1
 43
3.0
 10
2940.892548548175
 20
-1266.775523003422
 42
0.4142135623731
 10
2939.392548548175
 20
-1265.275523003422
 42
0.4142135623731
 10
2937.892548548175
 20
-1266.775523003422
 42
0.4142135623731
 10
2939.392548548175
 20
-1268.275523003422
 42
0.4142135623731
  0
MTEXT
  5
3C4
330
1F
100
AcDbEntity
  8
1-E
  6
Continuous
 62
     7
370
     0
100
AcDbMText
 10
2929.886868154645
 20
-1391.48280824665
 30
0.0
 40
91.44
 41
60.0
 46
0.0
 71
     7
 72
     1
  1
{\fＭＳ ゴシック|b0|i0|c128|p49;1}
 73
     1
 44
1.0
  0
LINE
  5
3C5
330
1F
100
AcDbEntity
  8
1-E
  6
Continuous
 62
   120
370
     5
100
AcDbLine
 10
3314.392548548175
 20
-1146.775523003422
 30
0.0
 11
3314.392548548175
 21
-1266.775523003422
 31
0.0
  0
LWPOLYLINE
  5
3C6
330
1F
100
AcDbEntity
  8
1-E
  6
Continuous
 62
     7
370
     9
100
AcDbPolyline
 90
        4
 70
     1
 43
3.0
 10
3315.892548548175
 20
-1266.775523003422
 42
0.4142135623731
 10
3314.392548548175
 20
-1265.275523003422
 42
0.4142135623731
 10
3312.892548548175
 20
-1266.775523003422
 42
0.4142135623731
 10
3314.392548548175
 20
-1268.275523003422
 42
0.4142135623731
  0
MTEXT
  5
3C7
330
1F
100
AcDbEntity
  8
1-E
  6
Continuous
 62
     7
370
     0
100
AcDbMText
 10
3280.35231895701
 20
-1391.48280824665
 30
0.0
 40
91.44
 41
60.0
 46
0.0
 71
     7
 72
     1
  1
{\fＭＳ ゴシック|b0|i0|c128|p49;1}
 73
     1
 44
1.0
  0
LINE
  5
3C8
330
1F
100
AcDbEntity
  8
1-E
  6
Continuous
 62
   120
370
     5
100
AcDbLine
 10
2939.392548548175
 20
-1266.775523003422
 30
0.0
 11
3314.392548548175
 21
-1266.775523003422
 31
0.0
  0
LINE
  5
3C9
330
1F
100
AcDbEntity
  8
1-E
  6
Continuous
 62
   120
370
     5
100
AcDbLine
 10
3299.392548548175
 20
-1146.775523003422
 30
0.0
 11
3299.392548548175
 21
-1266.775523003422
 31
0.0
  0
LWPOLYLINE
  5
3CA
330
1F
100
AcDbEntity
  8
1-E
  6
Continuous
 62
     7
370
     9
100
AcDbPolyline
 90
        4
 70
     1
 43
3.0
 10
3300.892548548175
 20
-1266.775523003422
 42
0.4142135623731
 10
3299.392548548175
 20
-1265.275523003422
 42
0.4142135623731
 10
3297.892548548175
 20
-1266.775523003422
 42
0.4142135623731
 10
3299.392548548175
 20
-1268.275523003422
 42
0.4142135623731
  0
LINE
  5
3CB
330
1F
100
AcDbEntity
  8
1-E
  6
Continuous
 62
   120
370
     5
100
AcDbLine
 10
2954.392694348342
 20
-1146.775523003422
 30
0.0
 11
2954.392694348342
 21
-1266.775523003422
 31
0.0
  0
LWPOLYLINE
  5
3CC
330
1F
100
AcDbEntity
  8
1-E
  6
Continuous
 62
     7
370
     9
100
AcDbPolyline
 90
        4
 70
     1
 43
3.0
 10
2955.892694348341
 20
-1266.775523003422
 42
0.4142135623731
 10
2954.392694348342
 20
-1265.275523003422
 42
0.4142135623731
 10
2952.892694348342
 20
-1266.775523003422
 42
0.4142135623731
 10
2954.392694348342
 20
-1268.275523003422
 42
0.4142135623731
  0
MTEXT
  5
3CD
330
1F
100
AcDbEntity
  8
1-E
  6
Continuous
 62
     7
370
     0
100
AcDbMText
 10
3066.892621448256
 20
-1271.662389612536
 30
0.0
 40
91.44
 41
120.0
 46
0.0
 71
     7
 72
     1
  1
{\fＭＳ ゴシック|b0|i0|c128|p49;23}
 73
     1
 44
1.0
  0
LINE
  5
3CE
330
1F
100
AcDbEntity
  8
1-E
  6
Continuous
 62
   120
370
     5
100
AcDbLine
 10
3696.892548548172
 20
-1012.287498605359
 30
0.0
 11
3966.892548548172
 21
-1012.287498605359
 31
0.0
  0
LWPOLYLINE
  5
3CF
330
1F
100
AcDbEntity
  8
1-E
  6
Continuous
 62
     7
370
     9
100
AcDbPolyline
 90
        4
 70
     1
 43
3.0
 10
3968.392548548173
 20
-1012.287498605359
 42
0.4142135623731
 10
3966.892548548172
 20
-1010.787498605359
 42
0.4142135623731
 10
3965.392548548172
 20
-1012.287498605359
 42
0.4142135623731
 10
3966.892548548172
 20
-1013.787498605358
 42
0.4142135623731
  0
LINE
  5
3D0
330
1F
100
AcDbEntity
  8
1-E
  6
Continuous
 62
   120
370
     5
100
AcDbLine
 10
2886.892548548175
 20
-825.4475616530246
 30
0.0
 11
2886.892548548175
 21
-465.4475616530246
 31
0.0
  0
LWPOLYLINE
  5
3D1
330
1F
100
AcDbEntity
  8
1-E
  6
Continuous
 62
     7
370
     9
100
AcDbPolyline
 90
        4
 70
     1
 43
3.0
 10
2888.392548548175
 20
-705.4475616530246
 42
0.4142135623731
 10
2886.892548548175
 20
-703.9475616530245
 42
0.4142135623731
 10
2885.392548548175
 20
-705.4475616530246
 42
0.4142135623731
 10
2886.892548548175
 20
-706.9475616530246
 42
0.4142135623731
  0
LWPOLYLINE
  5
3D2
330
1F
100
AcDbEntity
  8
1-E
  6
Continuous
 62
     7
370
     9
100
AcDbPolyline
 90
        4
 70
     1
 43
3.0
 10
2888.392548548175
 20
-585.4475616530246
 42
0.4142135623731
 10
2886.892548548175
 20
-583.9475616530245
 42
0.4142135623731
 10
2885.392548548175
 20
-585.4475616530246
 42
0.4142135623731
 10
2886.892548548175
 20
-586.9475616530246
 42
0.4142135623731
  0
LWPOLYLINE
  5
3D3
330
1F
100
AcDbEntity
  8
1-E
  6
Continuous
 62
     7
370
     9
100
AcDbPolyline
 90
        4
 70
     1
 43
3.0
 10
2888.392548548175
 20
-465.4475616530246
 42
0.4142135623731
 10
2886.892548548175
 20
-463.9475616530246
 42
0.4142135623731
 10
2885.392548548175
 20
-465.4475616530246
 42
0.4142135623731
 10
2886.892548548175
 20
-466.9475616530246
 42
0.4142135623731
  0
MTEXT
  5
3D4
330
1F
100
AcDbEntity
  8
1-E
  6
Continuous
 62
     7
370
   211
100
AcDbMText
 10
2651.211433020477
 20
-599.4686170618502
 30
0.0
 40
91.44
 41
240.0
 46
0.0
 71
     7
 72
     1
  1
{\fＭＳ ゴシック|b0|i0|c128|p49;10.5}
 73
     1
 44
1.0
  0
LINE
  5
3D5
330
1F
100
AcDbEntity
  8
1-E
  6
Continuous
 62
   120
370
     5
100
AcDbLine
 10
2886.892548548175
 20
-585.4475616530246
 30
0.0
 11
3366.892548548175
 21
-585.4475616530246
 31
0.0
  0
LINE
  5
3D6
330
1F
100
AcDbEntity
  8
1-E
  6
Continuous
 62
   120
370
     5
100
AcDbLine
 10
2886.892548548175
 20
-465.4475616530246
 30
0.0
 11
3366.892548548175
 21
-465.4475616530246
 31
0.0
  0
LWPOLYLINE
  5
3D7
330
1F
100
AcDbEntity
  8
1-E
  6
Continuous
 62
     7
370
     9
100
AcDbPolyline
 90
        4
 70
     1
 43
3.0
 10
3368.392548548175
 20
-705.4475616530246
 42
0.4142135623731
 10
3366.892548548175
 20
-703.9475616530245
 42
0.4142135623731
 10
3365.392548548175
 20
-705.4475616530246
 42
0.4142135623731
 10
3366.892548548175
 20
-706.9475616530246
 42
0.4142135623731
  0
LWPOLYLINE
  5
3D8
330
1F
100
AcDbEntity
  8
1-E
  6
Continuous
 62
     7
370
     9
100
AcDbPolyline
 90
        4
 70
     1
 43
3.0
 10
3368.392548548175
 20
-585.4475616530246
 42
0.4142135623731
 10
3366.892548548175
 20
-583.9475616530245
 42
0.4142135623731
 10
3365.392548548175
 20
-585.4475616530246
 42
0.4142135623731
 10
3366.892548548175
 20
-586.9475616530246
 42
0.4142135623731
  0
LWPOLYLINE
  5
3D9
330
1F
100
AcDbEntity
  8
1-E
  6
Continuous
 62
     7
370
     9
100
AcDbPolyline
 90
        4
 70
     1
 43
3.0
 10
3368.392548548175
 20
-465.4475616530246
 42
0.4142135623731
 10
3366.892548548175
 20
-463.9475616530246
 42
0.4142135623731
 10
3365.392548548175
 20
-465.4475616530246
 42
0.4142135623731
 10
3366.892548548175
 20
-466.9475616530246
 42
0.4142135623731
  0
LINE
  5
3DA
330
1F
100
AcDbEntity
  8
1-E
  6
Continuous
 62
   120
370
     5
100
AcDbLine
 10
3366.892548548175
 20
-825.4475616530246
 30
0.0
 11
3366.892548548175
 21
-465.4475616530246
 31
0.0
  0
MTEXT
  5
3DB
330
1F
100
AcDbEntity
  8
1-E
  6
Continuous
 62
     7
370
   211
100
AcDbMText
 10
3368.144639033153
 20
-599.4686170618502
 30
0.0
 40
91.44
 41
240.0
 46
0.0
 71
     7
 72
     1
  1
{\fＭＳ ゴシック|b0|i0|c128|p49;10.5}
 73
     1
 44
1.0
  0
LINE
  5
3DC
330
1F
100
AcDbEntity
  8
1-E
  6
Continuous
 62
   120
370
     5
100
AcDbLine
 10
3696.892548548172
 20
-907.2874986053586
 30
0.0
 11
3966.892548548172
 21
-907.2874986053586
 31
0.0
  0
LWPOLYLINE
  5
3DD
330
1F
100
AcDbEntity
  8
1-E
  6
Continuous
 62
     7
370
     9
100
AcDbPolyline
 90
        4
 70
     1
 43
3.0
 10
3968.392548548173
 20
-907.2874986053586
 42
0.4142135623731
 10
3966.892548548172
 20
-905.7874986053586
 42
0.4142135623731
 10
3965.392548548172
 20
-907.2874986053586
 42
0.4142135623731
 10
3966.892548548172
 20
-908.7874986053586
 42
0.4142135623731
  0
LWPOLYLINE
  5
3DE
330
1F
100
AcDbEntity
  8
1-E
  6
Continuous
 62
     7
370
     9
100
AcDbPolyline
 90
        4
 70
     1
 43
3.0
 10
3045.892548548175
 20
-585.4475616530246
 42
0.4142135623731
 10
3044.392548548175
 20
-583.9475616530245
 42
0.4142135623731
 10
3042.892548548175
 20
-585.4475616530246
 42
0.4142135623731
 10
3044.392548548175
 20
-586.9475616530246
 42
0.4142135623731
  0
LINE
  5
3DF
330
1F
100
AcDbEntity
  8
1-E
  6
Continuous
 62
   120
370
     5
100
AcDbLine
 10
3044.392548548175
 20
-585.4475616530246
 30
0.0
 11
3044.392548548175
 21
-825.4475616530246
 31
0.0
  0
LWPOLYLINE
  5
3E0
330
1F
100
AcDbEntity
  8
1-E
  6
Continuous
 62
     7
370
     9
100
AcDbPolyline
 90
        4
 70
     1
 43
3.0
 10
3210.892548548175
 20
-585.4475616530246
 42
0.4142135623731
 10
3209.392548548175
 20
-583.9475616530245
 42
0.4142135623731
 10
3207.892548548175
 20
-585.4475616530246
 42
0.4142135623731
 10
3209.392548548175
 20
-586.9475616530246
 42
0.4142135623731
  0
LINE
  5
3E1
330
1F
100
AcDbEntity
  8
1-E
  6
Continuous
 62
   120
370
     5
100
AcDbLine
 10
3209.392548548175
 20
-585.4475616530246
 30
0.0
 11
3209.392548548175
 21
-825.4475616530246
 31
0.0
  0
MTEXT
  5
3E2
330
1F
100
AcDbEntity
  8
1-E
  6
Continuous
 62
     7
370
   211
100
AcDbMText
 10
3066.892548548175
 20
-599.4686170618502
 30
0.0
 40
91.44
 41
120.0
 46
0.0
 71
     7
 72
     1
  1
{\fＭＳ ゴシック|b0|i0|c128|p49;11}
 73
     1
 44
1.0
  0
LINE
  5
3E3
330
1F
100
AcDbEntity
  8
1-E
  6
Continuous
 62
    40
370
    15
100
AcDbLine
 10
2939.60805307524
 20
-907.2874986053586
 30
0.0
 11
2586.892548548175
 21
-907.2874986053586
 31
0.0
  0
LINE
  5
3E4
330
1F
100
AcDbEntity
  8
1-E
  6
Continuous
 62
    40
370
    15
100
AcDbLine
 10
3314.17704402111
 20
-907.2874986053586
 30
0.0
 11
3666.892548548172
 21
-907.2874986053586
 31
0.0
  0
MTEXT
  5
3E5
330
1F
100
AcDbEntity
  8
1-E
  6
Continuous
 62
     7
370
     0
100
AcDbMText
 10
3959.545319898649
 20
-1094.067498605358
 30
0.0
 40
91.44
 41
60.0
 46
0.0
 71
     7
 72
     1
  1
{\fＭＳ ゴシック|b0|i0|c128|p49;5}
 11
6.123031769111886E-17
 21
1.0
 31
0.0
 73
     1
 44
1.0
  0
MTEXT
  5
3E6
330
1F
100
AcDbEntity
  8
1-E
  6
Continuous
 62
     7
370
     0
100
AcDbMText
 10
3958.284830073361
 20
-1004.067498605359
 30
0.0
 40
91.44
 41
60.0
 46
0.0
 71
     7
 72
     1
  1
{\fＭＳ ゴシック|b0|i0|c128|p49;7}
 11
6.123031769111886E-17
 21
1.0
 31
0.0
 73
     1
 44
1.0
  0
MTEXT
  5
3E7
330
1F
100
AcDbEntity
  8
1-E
  6
Continuous
 62
     7
370
     0
100
AcDbMText
 10
3066.892548548175
 20
-479.4685269937526
 30
0.0
 40
91.44
 41
120.0
 46
0.0
 71
     7
 72
     1
  1
{\fＭＳ ゴシック|b0|i0|c128|p49;32}
 73
     1
 44
1.0
  0
LINE
  5
3E8
330
1F
100
AcDbEntity
  8
1-E
  6
Continuous
 62
     7
370
     9
100
AcDbLine
 10
2939.392548548175
 20
-943.2874986053582
 30
0.0
 11
2586.892548548175
 21
-943.2874986053582
 31
0.0
  0
LINE
  5
3E9
330
1F
100
AcDbEntity
  8
1-E
  6
Continuous
 62
     7
370
     9
100
AcDbLine
 10
2939.392548548175
 20
-979.2874986053579
 30
0.0
 11
2586.892548548175
 21
-979.2874986053579
 31
0.0
  0
LINE
  5
3EA
330
1F
100
AcDbEntity
  8
1-E
  6
Continuous
 62
     7
370
     9
100
AcDbLine
 10
2939.392548548175
 20
-1015.287498605358
 30
0.0
 11
2586.892548548175
 21
-1015.287498605358
 31
0.0
  0
LINE
  5
3EB
330
1F
100
AcDbEntity
  8
1-E
  6
Continuous
 62
     7
370
     9
100
AcDbLine
 10
2939.392548548175
 20
-1051.287498605358
 30
0.0
 11
2586.892548548175
 21
-1051.287498605358
 31
0.0
  0
LINE
  5
3EC
330
1F
100
AcDbEntity
  8
1-E
  6
Continuous
 62
     7
370
     9
100
AcDbLine
 10
3666.892548548172
 20
-943.715468843309
 30
0.0
 11
3314.392548548175
 21
-943.715468843309
 31
0.0
  0
LINE
  5
3ED
330
1F
100
AcDbEntity
  8
1-E
  6
Continuous
 62
     7
370
     9
100
AcDbLine
 10
3666.892548548172
 20
-979.7154688433096
 30
0.0
 11
3314.392548548175
 21
-979.7154688433096
 31
0.0
  0
LINE
  5
3EE
330
1F
100
AcDbEntity
  8
1-E
  6
Continuous
 62
     7
370
     9
100
AcDbLine
 10
3666.892548548172
 20
-1015.715468843309
 30
0.0
 11
3314.392548548175
 21
-1015.715468843309
 31
0.0
  0
LINE
  5
3EF
330
1F
100
AcDbEntity
  8
1-E
  6
Continuous
 62
     7
370
     9
100
AcDbLine
 10
3666.892548548172
 20
-1051.715468843309
 30
0.0
 11
3314.392548548175
 21
-1051.715468843309
 31
0.0
  0
LINE
  5
3F0
330
1F
100
AcDbEntity
  8
1-E
  6
Continuous
 62
   120
370
     5
100
AcDbLine
 10
3966.892548548172
 20
-1087.287498605358
 30
0.0
 11
3966.892548548172
 21
-889.2874986053579
 31
0.0
  0
LINE
  5
3F1
330
1F
100
AcDbEntity
  8
1-E
  6
Continuous
 62
   120
370
     5
100
AcDbLine
 10
3696.892548548172
 20
-889.2874986053579
 30
0.0
 11
3966.892548548172
 21
-889.2874986053579
 31
0.0
  0
LWPOLYLINE
  5
3F2
330
1F
100
AcDbEntity
  8
1-E
  6
Continuous
 62
     7
370
     9
100
AcDbPolyline
 90
        4
 70
     1
 43
3.0
 10
3968.392548548173
 20
-889.2874986053579
 42
0.4142135623731
 10
3966.892548548172
 20
-887.7874986053579
 42
0.4142135623731
 10
3965.392548548172
 20
-889.2874986053579
 42
0.4142135623731
 10
3966.892548548172
 20
-890.7874986053579
 42
0.4142135623731
  0
LINE
  5
3F3
330
1F
100
AcDbEntity
  8
1-E
  6
Continuous
 62
   120
370
     5
100
AcDbLine
 10
3272.392548548172
 20
-705.4475616530246
 30
0.0
 11
3366.892548548175
 21
-705.4475616530246
 31
0.0
  0
LWPOLYLINE
  5
3F4
330
1F
100
AcDbEntity
  8
1-E
  6
Continuous
 62
     7
370
     9
100
AcDbPolyline
 90
        4
 70
     1
 43
3.0
 10
3273.892548548172
 20
-705.4475616530246
 42
0.4142135623731
 10
3272.392548548172
 20
-703.9475616530245
 42
0.4142135623731
 10
3270.892548548172
 20
-705.4475616530246
 42
0.4142135623731
 10
3272.392548548172
 20
-706.9475616530246
 42
0.4142135623731
  0
LINE
  5
3F5
330
1F
100
AcDbEntity
  8
1-E
  6
Continuous
 62
   120
370
     5
100
AcDbLine
 10
3272.392548548172
 20
-705.4475616530246
 30
0.0
 11
3272.392548548172
 21
-825.4475616530246
 31
0.0
  0
LINE
  5
3F6
330
1F
100
AcDbEntity
  8
1-E
  6
Continuous
 62
   120
370
     5
100
AcDbLine
 10
2886.892548548175
 20
-705.4475616530246
 30
0.0
 11
2981.392548548174
 21
-705.4475616530246
 31
0.0
  0
LINE
  5
3F7
330
1F
100
AcDbEntity
  8
1-E
  6
Continuous
 62
   120
370
     5
100
AcDbLine
 10
2981.392548548174
 20
-705.4475616530246
 30
0.0
 11
2981.392548548174
 21
-825.4475616530246
 31
0.0
  0
LWPOLYLINE
  5
3F8
330
1F
100
AcDbEntity
  8
1-E
  6
Continuous
 62
     7
370
     9
100
AcDbPolyline
 90
        4
 70
     1
 43
3.0
 10
2982.892548548174
 20
-705.4475616530246
 42
0.4142135623731
 10
2981.392548548174
 20
-703.9475616530245
 42
0.4142135623731
 10
2979.892548548174
 20
-705.4475616530246
 42
0.4142135623731
 10
2981.392548548174
 20
-706.9475616530246
 42
0.4142135623731
  0
MTEXT
  5
3F9
330
1F
100
AcDbEntity
  8
1-E
  6
Continuous
 62
     7
370
   211
100
AcDbMText
 10
3282.293043922698
 20
-719.4686170618502
 30
0.0
 40
91.44
 41
180.0
 46
0.0
 71
     7
 72
     1
  1
{\fＭＳ ゴシック|b0|i0|c128|p49;6.3}
 73
     1
 44
1.0
  0
MTEXT
  5
3FA
330
1F
100
AcDbEntity
  8
1-E
  6
Continuous
 62
     7
370
   211
100
AcDbMText
 10
2788.738289625126
 20
-722.1761935068901
 30
0.0
 40
91.44
 41
180.0
 46
0.0
 71
     7
 72
     1
  1
{\fＭＳ ゴシック|b0|i0|c128|p49;6.3}
 73
     1
 44
1.0
  0
MTEXT
  5
3FB
330
1F
100
AcDbEntity
  8
1-E
  6
Continuous
 62
     7
370
     0
100
AcDbMText
 10
3960.805809723937
 20
-904.0525656568042
 30
0.0
 40
91.44
 41
180.0
 46
0.0
 71
     7
 72
     1
  1
{\fＭＳ ゴシック|b0|i0|c128|p49;1.2}
 11
6.123031769111886E-17
 21
1.0
 31
0.0
 73
     1
 44
1.0
  0
LINE
  5
3FC
330
1F
100
AcDbEntity
  8
1-E
  6
Continuous
 62
   120
370
     5
100
AcDbLine
 10
2954.392548548175
 20
-1032.586777783632
 30
0.0
 11
2976.892548548175
 21
-1010.086777783631
 31
0.0
  0
LINE
  5
3FD
330
1F
100
AcDbEntity
  8
1-E
  6
Continuous
 62
    92
370
    13
100
AcDbLine
 10
2976.892548548175
 20
-1012.287498605359
 30
0.0
 11
3276.892548548175
 21
-1012.287498605359
 31
0.0
  0
LINE
  5
3FE
330
1F
100
AcDbEntity
  8
1-E
  6
Continuous
 62
    92
370
    13
100
AcDbLine
 10
2976.892548548175
 20
-982.2874986053578
 30
0.0
 11
2976.892548548175
 21
-1012.287498605359
 31
0.0
  0
LINE
  5
3FF
330
1F
100
AcDbEntity
  8
1-E
  6
Continuous
 62
    92
370
    13
100
AcDbLine
 10
2976.892548548175
 20
-982.2874986053578
 30
0.0
 11
2954.392402748008
 21
-982.2874986053578
 31
0.0
  0
LINE
  5
400
330
1F
100
AcDbEntity
  8
1-E
  6
Continuous
 62
    92
370
    13
100
AcDbLine
 10
3276.892548548175
 20
-982.2874986053578
 30
0.0
 11
3298.919836847288
 21
-982.2874986053578
 31
0.0
  0
LINE
  5
401
330
1F
100
AcDbEntity
  8
1-E
  6
Continuous
 62
    92
370
    13
100
AcDbLine
 10
3276.892548548175
 20
-982.2874986053578
 30
0.0
 11
3276.892548548175
 21
-1012.287498605359
 31
0.0
  0
LINE
  5
402
330
1F
100
AcDbEntity
  8
1-E
  6
Continuous
 62
    92
370
    13
100
AcDbLine
 10
3298.919691047118
 20
-982.2869427796098
 30
0.0
 11
3298.919691047118
 21
-1087.287498605358
 31
0.0
  0
LINE
  5
403
330
1F
100
AcDbEntity
  8
1-E
  6
Continuous
 62
    92
370
    13
100
AcDbLine
 10
2954.392548548175
 20
-982.2869427796098
 30
0.0
 11
2954.392548548175
 21
-1087.287498605358
 31
0.0
  0
LINE
  5
404
330
1F
100
AcDbEntity
  8
1-E
  6
Continuous
 62
    92
370
    13
100
AcDbLine
 10
2954.392548548175
 20
-1087.287498605358
 30
0.0
 11
3298.919691047118
 21
-1087.287498605358
 31
0.0
  0
LINE
  5
405
330
1F
100
AcDbEntity
  8
1-E
  6
Continuous
 62
   120
370
     5
100
AcDbLine
 10
3281.529489567193
 20
-1087.287498605358
 30
0.0
 11
3298.919691047118
 21
-1069.897297125432
 31
0.0
  0
LINE
  5
406
330
1F
100
AcDbEntity
  8
1-E
  6
Continuous
 62
   120
370
     5
100
AcDbLine
 10
2963.331438033248
 20
-1087.287498605358
 30
0.0
 11
3038.331438033248
 21
-1012.287498605359
 31
0.0
  0
LINE
  5
407
330
1F
100
AcDbEntity
  8
1-E
  6
Continuous
 62
   120
370
     5
100
AcDbLine
 10
3154.250268953593
 20
-1087.287498605358
 30
0.0
 11
3229.250268953593
 21
-1012.287498605359
 31
0.0
  0
LINE
  5
408
330
1F
100
AcDbEntity
  8
1-E
  6
Continuous
 62
   120
370
     5
100
AcDbLine
 10
3090.610658646793
 20
-1087.287498605358
 30
0.0
 11
3165.6106586468
 21
-1012.287498605353
 31
0.0
  0
LINE
  5
409
330
1F
100
AcDbEntity
  8
1-E
  6
Continuous
 62
   120
370
     5
100
AcDbLine
 10
3026.971048339993
 20
-1087.287498605358
 30
0.0
 11
3101.971048340004
 21
-1012.287498605348
 31
0.0
  0
LINE
  5
40A
330
1F
100
AcDbEntity
  8
1-E
  6
Continuous
 62
   120
370
     5
100
AcDbLine
 10
3217.889879260393
 20
-1087.287498605358
 30
0.0
 11
3298.919691047118
 21
-1006.257686818633
 31
0.0
  0
LINE
  5
40B
330
1F
100
AcDbEntity
  8
1-E
  6
Continuous
 62
     7
370
     9
100
AcDbLine
 10
2999.392548548175
 20
-994.2874986053579
 30
0.0
 11
3029.392548548175
 21
-994.2874986053579
 31
0.0
  0
LINE
  5
40C
330
1F
100
AcDbEntity
  8
1-E
  6
Continuous
 62
     7
370
     9
100
AcDbLine
 10
3044.392548548175
 20
-994.2874986053579
 30
0.0
 11
3122.392548548175
 21
-994.2874986053579
 31
0.0
  0
LINE
  5
40D
330
1F
100
AcDbEntity
  8
1-E
  6
Continuous
 62
     7
370
     9
100
AcDbLine
 10
3122.392548548175
 20
-994.2874986053579
 30
0.0
 11
3126.892548548175
 21
-998.787498605358
 31
0.0
  0
LINE
  5
40E
330
1F
100
AcDbEntity
  8
1-E
  6
Continuous
 62
     7
370
     9
100
AcDbLine
 10
3126.892548548175
 20
-998.787498605358
 30
0.0
 11
3131.392548548177
 21
-994.2874986053579
 31
0.0
  0
LINE
  5
40F
330
1F
100
AcDbEntity
  8
1-E
  6
Continuous
 62
     7
370
     9
100
AcDbLine
 10
3131.392548548177
 20
-994.2874986053579
 30
0.0
 11
3209.392548548175
 21
-994.2874986053579
 31
0.0
  0
LINE
  5
410
330
1F
100
AcDbEntity
  8
1-E
  6
Continuous
 62
     7
370
     9
100
AcDbLine
 10
3224.392548548175
 20
-994.2874986053579
 30
0.0
 11
3254.392548548175
 21
-994.2874986053579
 31
0.0
  0
LINE
  5
411
330
1F
100
AcDbEntity
  8
1-E
  6
Continuous
 62
     7
370
     9
100
AcDbLine
 10
3362.392548548175
 20
-907.2874986053586
 30
0.0
 11
3272.392548548175
 21
-907.2874986053586
 31
0.0
  0
LINE
  5
412
330
1F
100
AcDbEntity
  8
1-E
  6
Continuous
 62
     7
370
     9
100
AcDbLine
 10
2981.392548548177
 20
-907.2874986053586
 30
0.0
 11
2891.392548548177
 21
-907.2874986053586
 31
0.0
  0
LINE
  5
413
330
1F
100
AcDbEntity
  8
1-E
  6
Continuous
 62
     7
370
     9
100
AcDbLine
 10
2981.392548548177
 20
-889.2874986053579
 30
0.0
 11
2891.392548548177
 21
-898.2874986053582
 31
0.0
  0
ARC
  5
414
330
1F
100
AcDbEntity
  8
1-E
  6
Continuous
 62
     7
370
     9
100
AcDbCircle
 10
2891.392548548177
 20
-902.7874986053585
 30
0.0
 40
4.500000000000001
100
AcDbArc
 50
90.0
 51
270.0
  0
ARC
  5
415
330
1F
100
AcDbEntity
  8
1-E
  6
Continuous
 62
     7
370
     9
100
AcDbCircle
 10
3362.392548548175
 20
-902.7874986053585
 30
0.0
 40
4.500000000000001
100
AcDbArc
 50
270.0
 51
89.99999999999997
  0
LINE
  5
416
330
1F
100
AcDbEntity
  8
1-E
  6
Continuous
 62
     7
370
     9
100
AcDbLine
 10
3362.392548548175
 20
-898.2874986053582
 30
0.0
 11
3272.392548548175
 21
-889.2874986053579
 31
0.0
  0
LINE
  5
417
330
1F
100
AcDbEntity
  8
1-E
  6
Continuous
 62
     7
370
     9
100
AcDbLine
 10
3035.392548548176
 20
-889.2874986053579
 30
0.0
 11
2981.392548548177
 21
-889.2874986053579
 31
0.0
  0
ARC
  5
418
330
1F
100
AcDbEntity
  8
1-E
  6
Continuous
 62
     7
370
     9
100
AcDbCircle
 10
3035.392548548176
 20
-898.2874986053582
 30
0.0
 40
9.000000000000002
100
AcDbArc
 50
0.0
 51
90.0
  0
ARC
  5
419
330
1F
100
AcDbEntity
  8
1-E
  6
Continuous
 62
     7
370
     9
100
AcDbCircle
 10
3035.392548548176
 20
-898.2874986053582
 30
0.0
 40
9.000000000000002
100
AcDbArc
 50
270.0
 51
0.0
  0
ARC
  5
41A
330
1F
100
AcDbEntity
  8
1-E
  6
Continuous
 62
     7
370
     9
100
AcDbCircle
 10
3218.392548548173
 20
-898.2874986053582
 30
0.0
 40
9.000000000000002
100
AcDbArc
 50
180.0
 51
270.0
  0
LINE
  5
41B
330
1F
100
AcDbEntity
  8
1-E
  6
Continuous
 62
     7
370
     9
100
AcDbLine
 10
3218.392548548173
 20
-889.2874986053579
 30
0.0
 11
3272.392548548175
 21
-889.2874986053579
 31
0.0
  0
ARC
  5
41C
330
1F
100
AcDbEntity
  8
1-E
  6
Continuous
 62
     7
370
     9
100
AcDbCircle
 10
3218.392548548173
 20
-898.2874986053582
 30
0.0
 40
9.000000000000002
100
AcDbArc
 50
90.0
 51
180.0
  0
LINE
  5
41D
330
1F
100
AcDbEntity
  8
1-E
  6
Continuous
 62
     7
370
     9
100
AcDbLine
 10
3272.392548548175
 20
-989.7874986053586
 30
0.0
 11
3272.392548548175
 21
-907.2874986053586
 31
0.0
  0
ARC
  5
41E
330
1F
100
AcDbEntity
  8
1-E
  6
Continuous
 62
     7
370
     9
100
AcDbCircle
 10
3249.892548548175
 20
-989.7874986053586
 30
0.0
 40
22.5
100
AcDbArc
 50
270.0
 51
0.0
  0
LINE
  5
41F
330
1F
100
AcDbEntity
  8
1-E
  6
Continuous
 62
     7
370
     9
100
AcDbLine
 10
2981.392548548177
 20
-989.7874986053586
 30
0.0
 11
2981.392548548177
 21
-907.2874986053586
 31
0.0
  0
LINE
  5
420
330
1F
100
AcDbEntity
  8
1-E
  6
Continuous
 62
     7
370
     9
100
AcDbLine
 10
3003.892548548177
 20
-1012.287498605359
 30
0.0
 11
3249.892548548175
 21
-1012.287498605359
 31
0.0
  0
ARC
  5
421
330
1F
100
AcDbEntity
  8
1-E
  6
Continuous
 62
     7
370
     9
100
AcDbCircle
 10
3003.892548548177
 20
-989.7874986053586
 30
0.0
 40
22.5
100
AcDbArc
 50
180.0
 51
270.0
  0
LINE
  5
422
330
1F
100
AcDbEntity
  8
1-E
  6
Continuous
 62
     7
370
     9
100
AcDbLine
 10
3006.892548548175
 20
-907.2874986053586
 30
0.0
 11
3035.392548548176
 21
-907.2874986053586
 31
0.0
  0
LINE
  5
423
330
1F
100
AcDbEntity
  8
1-E
  6
Continuous
 62
     7
370
     9
100
AcDbLine
 10
2999.392548548175
 20
-914.7874986053586
 30
0.0
 11
2999.392548548175
 21
-994.2874986053579
 31
0.0
  0
ARC
  5
424
330
1F
100
AcDbEntity
  8
1-E
  6
Continuous
 62
     7
370
     9
100
AcDbCircle
 10
3006.892548548175
 20
-914.7874986053586
 30
0.0
 40
7.5
100
AcDbArc
 50
90.0
 51
180.0
  0
LINE
  5
425
330
1F
100
AcDbEntity
  8
1-E
  6
Continuous
 62
     7
370
     9
100
AcDbLine
 10
3246.892548548175
 20
-907.2874986053586
 30
0.0
 11
3218.392548548173
 21
-907.2874986053586
 31
0.0
  0
LINE
  5
426
330
1F
100
AcDbEntity
  8
1-E
  6
Continuous
 62
     7
370
     9
100
AcDbLine
 10
3254.392548548175
 20
-914.7874986053586
 30
0.0
 11
3254.392548548175
 21
-994.2874986053579
 31
0.0
  0
ARC
  5
427
330
1F
100
AcDbEntity
  8
1-E
  6
Continuous
 62
     7
370
     9
100
AcDbCircle
 10
3246.892548548175
 20
-914.7874986053586
 30
0.0
 40
7.5
100
AcDbArc
 50
0.0
 51
90.0
  0
LINE
  5
428
330
1F
100
AcDbEntity
  8
1-E
  6
Continuous
 62
     7
370
     9
100
AcDbLine
 10
3029.392548548175
 20
-982.2874986053586
 30
0.0
 11
3029.392548548175
 21
-994.2874986053579
 31
0.0
  0
ARC
  5
429
330
1F
100
AcDbEntity
  8
1-E
  6
Continuous
 62
     7
370
     9
100
AcDbCircle
 10
3032.392548548175
 20
-982.2874986053586
 30
0.0
 40
3.0
100
AcDbArc
 50
90.0
 51
180.0
  0
LINE
  5
42A
330
1F
100
AcDbEntity
  8
1-E
  6
Continuous
 62
     7
370
     9
100
AcDbLine
 10
3041.392548548177
 20
-979.2874986053579
 30
0.0
 11
3032.392548548175
 21
-979.2874986053579
 31
0.0
  0
LINE
  5
42B
330
1F
100
AcDbEntity
  8
1-E
  6
Continuous
 62
     7
370
     9
100
AcDbLine
 10
3044.392548548175
 20
-982.2874986053586
 30
0.0
 11
3044.392548548175
 21
-994.2874986053579
 31
0.0
  0
ARC
  5
42C
330
1F
100
AcDbEntity
  8
1-E
  6
Continuous
 62
     7
370
     9
100
AcDbCircle
 10
3041.392548548177
 20
-982.2874986053586
 30
0.0
 40
3.0
100
AcDbArc
 50
0.0
 51
90.0
  0
LINE
  5
42D
330
1F
100
AcDbEntity
  8
1-E
  6
Continuous
 62
     7
370
     9
100
AcDbLine
 10
3209.392548548175
 20
-982.2874986053586
 30
0.0
 11
3209.392548548175
 21
-994.2874986053579
 31
0.0
  0
ARC
  5
42E
330
1F
100
AcDbEntity
  8
1-E
  6
Continuous
 62
     7
370
     9
100
AcDbCircle
 10
3212.392548548175
 20
-982.2874986053586
 30
0.0
 40
3.0
100
AcDbArc
 50
90.0
 51
180.0
  0
LINE
  5
42F
330
1F
100
AcDbEntity
  8
1-E
  6
Continuous
 62
     7
370
     9
100
AcDbLine
 10
3221.392548548177
 20
-979.2874986053579
 30
0.0
 11
3212.392548548175
 21
-979.2874986053579
 31
0.0
  0
LINE
  5
430
330
1F
100
AcDbEntity
  8
1-E
  6
Continuous
 62
     7
370
     9
100
AcDbLine
 10
3224.392548548175
 20
-982.2874986053586
 30
0.0
 11
3224.392548548175
 21
-994.2874986053579
 31
0.0
  0
ARC
  5
431
330
1F
100
AcDbEntity
  8
1-E
  6
Continuous
 62
     7
370
     9
100
AcDbCircle
 10
3221.392548548177
 20
-982.2874986053586
 30
0.0
 40
3.0
100
AcDbArc
 50
0.0
 51
90.0
  0
ARC
  5
432
330
1F
100
AcDbEntity
  8
1-E
  6
JWW_DASHED1
 62
     7
370
     9
100
AcDbCircle
 10
2891.392548548177
 20
-902.7874986053585
 30
0.0
 40
4.500000000000001
100
AcDbArc
 50
270.0
 51
90.0
  0
ARC
  5
433
330
1F
100
AcDbEntity
  8
1-E
  6
JWW_DASHED1
 62
     7
370
     9
100
AcDbCircle
 10
3362.392548548175
 20
-902.7874986053585
 30
0.0
 40
4.500000000000001
100
AcDbArc
 50
90.0
 51
270.0
  0
LINE
  5
434
330
1F
100
AcDbEntity
  8
1-E
  6
Continuous
 62
    40
370
    15
100
AcDbLine
 10
3314.392548548175
 20
-907.2874986053586
 30
0.0
 11
3314.392548548175
 21
-1087.287498605358
 31
0.0
  0
LINE
  5
435
330
1F
100
AcDbEntity
  8
1-E
  6
Continuous
 62
    40
370
    15
100
AcDbLine
 10
2939.392548548175
 20
-907.2874986053586
 30
0.0
 11
2939.392548548175
 21
-1087.287498605358
 31
0.0
  0
LINE
  5
436
330
1F
100
AcDbEntity
  8
1-E
  6
Continuous
 62
     7
370
     9
100
AcDbLine
 10
3354.17290389085
 20
-1198.504999416771
 30
0.0
 11
3420.725528367811
 21
-1198.504999416771
 31
0.0
  0
MTEXT
  5
437
330
1F
100
AcDbEntity
  8
1-E
  6
Continuous
 62
     7
370
     0
100
AcDbMText
 10
3407.7841343948
 20
-1273.126018199574
 30
0.0
 40
91.44
 41
600.0
 46
0.0
 71
     7
 72
     1
  1
{\fＭＳ ゴシック|b0|i0|c128|p49;下地ベース}
 73
     1
 44
1.0
  0
LINE
  5
438
330
1F
100
AcDbEntity
  8
1-E
  6
JWW_HOJO
 62
   120
370
     5
100
AcDbLine
 10
2586.892548548175
 20
-1266.775523003595
 30
0.0
 11
3666.892548548172
 21
-1266.775523003595
 31
0.0
  0
LINE
  5
439
330
1F
100
AcDbEntity
  8
1-E
  6
JWW_HOJO
 62
   120
370
     5
100
AcDbLine
 10
2586.892548548175
 20
-465.4475616530246
 30
0.0
 11
2586.892548548175
 21
-1266.775523003595
 31
0.0
  0
LINE
  5
43A
330
1F
100
AcDbEntity
  8
1-E
  6
JWW_HOJO
 62
   120
370
     5
100
AcDbLine
 10
2886.892548548175
 20
-705.4475616530246
 30
0.0
 11
3366.892548548175
 21
-705.4475616530246
 31
0.0
  0
LINE
  5
43B
330
1F
100
AcDbEntity
  8
1-E
  6
JWW_HOJO
 62
   120
370
     5
100
AcDbLine
 10
2886.892548548175
 20
-585.4475616530246
 30
0.0
 11
3366.892548548175
 21
-585.4475616530246
 31
0.0
  0
LINE
  5
43C
330
1F
100
AcDbEntity
  8
1-E
  6
JWW_HOJO
 62
   120
370
     5
100
AcDbLine
 10
2586.892548548175
 20
-465.4475616530246
 30
0.0
 11
3666.892548548172
 21
-465.4475616530246
 31
0.0
  0
LINE
  5
43D
330
1F
100
AcDbEntity
  8
1-E
  6
JWW_HOJO
 62
   120
370
     5
100
AcDbLine
 10
3666.892548548172
 20
-465.4475616530246
 30
0.0
 11
3666.892548548172
 21
-1266.775523003595
 31
0.0
  0
LINE
  5
43E
330
1F
100
AcDbEntity
  8
1-E
  6
JWW_HOJO
 62
   120
370
     5
100
AcDbLine
 10
3126.892548548175
 20
-892.7984910180317
 30
0.0
 11
3126.892548548175
 21
-1047.006274201672
 31
0.0
  0
LINE
  5
43F
330
1F
100
AcDbEntity
  8
1-E
  6
Continuous
 62
   120
370
     5
100
AcDbLine
 10
2954.392548548175
 20
-3006.272313713113
 30
0.0
 11
2976.892548548175
 21
-2983.772313713112
 31
0.0
  0
LINE
  5
440
330
1F
100
AcDbEntity
  8
1-E
  6
Continuous
 62
    92
370
    13
100
AcDbLine
 10
2976.892548548175
 20
-2985.97303453484
 30
0.0
 11
3276.892548548175
 21
-2985.97303453484
 31
0.0
  0
LINE
  5
441
330
1F
100
AcDbEntity
  8
1-E
  6
Continuous
 62
    92
370
    13
100
AcDbLine
 10
2976.892548548175
 20
-2955.973034534839
 30
0.0
 11
2976.892548548175
 21
-2985.97303453484
 31
0.0
  0
LINE
  5
442
330
1F
100
AcDbEntity
  8
1-E
  6
Continuous
 62
    92
370
    13
100
AcDbLine
 10
2976.892548548175
 20
-2955.973034534839
 30
0.0
 11
2954.392402748008
 21
-2955.973034534839
 31
0.0
  0
LINE
  5
443
330
1F
100
AcDbEntity
  8
1-E
  6
Continuous
 62
    92
370
    13
100
AcDbLine
 10
3276.892548548175
 20
-2955.973034534839
 30
0.0
 11
3298.919836847288
 21
-2955.973034534839
 31
0.0
  0
LINE
  5
444
330
1F
100
AcDbEntity
  8
1-E
  6
Continuous
 62
    92
370
    13
100
AcDbLine
 10
3276.892548548175
 20
-2955.973034534839
 30
0.0
 11
3276.892548548175
 21
-2985.97303453484
 31
0.0
  0
LINE
  5
445
330
1F
100
AcDbEntity
  8
1-E
  6
Continuous
 62
    92
370
    13
100
AcDbLine
 10
3298.919691047118
 20
-2955.972478709091
 30
0.0
 11
3298.919691047118
 21
-3060.97303453484
 31
0.0
  0
LINE
  5
446
330
1F
100
AcDbEntity
  8
1-E
  6
Continuous
 62
    92
370
    13
100
AcDbLine
 10
2954.392548548175
 20
-2955.972478709091
 30
0.0
 11
2954.392548548175
 21
-3060.97303453484
 31
0.0
  0
LINE
  5
447
330
1F
100
AcDbEntity
  8
1-E
  6
Continuous
 62
    92
370
    13
100
AcDbLine
 10
2954.392548548175
 20
-3060.97303453484
 30
0.0
 11
3298.919691047118
 21
-3060.97303453484
 31
0.0
  0
LINE
  5
448
330
1F
100
AcDbEntity
  8
1-E
  6
Continuous
 62
   120
370
     5
100
AcDbLine
 10
3281.529489567193
 20
-3060.97303453484
 30
0.0
 11
3298.919691047118
 21
-3043.582833054913
 31
0.0
  0
LINE
  5
449
330
1F
100
AcDbEntity
  8
1-E
  6
Continuous
 62
   120
370
     5
100
AcDbLine
 10
2963.331438033248
 20
-3060.97303453484
 30
0.0
 11
3038.331438033248
 21
-2985.97303453484
 31
0.0
  0
LINE
  5
44A
330
1F
100
AcDbEntity
  8
1-E
  6
Continuous
 62
   120
370
     5
100
AcDbLine
 10
3154.250268953593
 20
-3060.97303453484
 30
0.0
 11
3229.250268953593
 21
-2985.97303453484
 31
0.0
  0
LINE
  5
44B
330
1F
100
AcDbEntity
  8
1-E
  6
Continuous
 62
   120
370
     5
100
AcDbLine
 10
3090.610658646793
 20
-3060.97303453484
 30
0.0
 11
3165.6106586468
 21
-2985.973034534834
 31
0.0
  0
LINE
  5
44C
330
1F
100
AcDbEntity
  8
1-E
  6
Continuous
 62
   120
370
     5
100
AcDbLine
 10
3026.971048339993
 20
-3060.97303453484
 30
0.0
 11
3101.971048340004
 21
-2985.97303453483
 31
0.0
  0
LINE
  5
44D
330
1F
100
AcDbEntity
  8
1-E
  6
Continuous
 62
   120
370
     5
100
AcDbLine
 10
3217.889879260393
 20
-3060.97303453484
 30
0.0
 11
3298.919691047118
 21
-2979.943222748114
 31
0.0
  0
LINE
  5
44E
330
1F
100
AcDbEntity
  8
0-A_文字
  6
Continuous
 62
    92
370
    13
100
AcDbLine
 10
-5659.999495325861
 20
3730.000181455872
 30
0.0
 11
-5659.999495325861
 21
4000.000181455872
 31
0.0
  0
LINE
  5
44F
330
1F
100
AcDbEntity
  8
0-A_文字
  6
Continuous
 62
    92
370
    13
100
AcDbLine
 10
-2228.571428571424
 20
3730.000181455872
 30
0.0
 11
-2228.571428571424
 21
4000.000181455872
 31
0.0
  0
LINE
  5
450
330
1F
100
AcDbEntity
  8
0-A_文字
  6
Continuous
 62
    92
370
    13
100
AcDbLine
 10
-5659.999495325861
 20
4000.000181455872
 30
0.0
 11
-2228.571428571424
 21
4000.000181455872
 31
0.0
  0
LINE
  5
451
330
1F
100
AcDbEntity
  8
0-A_文字
  6
Continuous
 62
    92
370
    13
100
AcDbLine
 10
-5659.999495325861
 20
3730.000181455872
 30
0.0
 11
-2228.571428571424
 21
3730.000181455872
 31
0.0
  0
MTEXT
  5
452
330
1F
100
AcDbEntity
  8
0-A_文字
  6
Continuous
 62
    92
370
    13
100
AcDbMText
 10
-5592.499495325861
 20
3758.959004985284
 30
0.0
 40
147.9176470588236
 41
3300.000000000001
 46
0.0
 71
     7
 72
     1
  1
{\fＭＳ ゴシック|b0|i0|c128|p49;クローゼットドア　調整枠　間口６尺}
 73
     1
 44
1.0
  0
MTEXT
  5
453
330
1F
100
AcDbEntity
  8
F-A_文字
  6
Continuous
 62
     7
370
     0
100
AcDbMText
 10
4439.917891251784
 20
-3887.143854850754
 30
0.0
 40
45.72
 41
240.0
 46
0.0
 71
     7
 72
     1
  1
{\fＭＳ ゴシック|b0|i0|c128|p49;ＤＡＴＥ}
 73
     1
 44
1.0
  0
MTEXT
  5
454
330
1F
100
AcDbEntity
  8
F-A_文字
  6
Continuous
 62
     7
370
     0
100
AcDbMText
 10
4439.917891251784
 20
-4087.143857410839
 30
0.0
 40
45.72
 41
180.0
 46
0.0
 71
     7
 72
     1
  1
{\fＭＳ ゴシック|b0|i0|c128|p49;ＮＯ．}
 73
     1
 44
1.0
  0
MTEXT
  5
455
330
1F
100
AcDbEntity
  8
F-A_文字
  6
Continuous
 62
     7
370
     0
100
AcDbMText
 10
2939.917396372138
 20
-3887.142460617774
 30
0.0
 40
45.72
 41
300.0
 46
0.0
 71
     7
 72
     1
  1
{\fＭＳ ゴシック|b0|i0|c128|p49;ＳＣＡＬＥ}
 73
     1
 44
1.0
  0
MTEXT
  5
456
330
1F
100
AcDbEntity
  8
F-A_文字
  6
Continuous
 62
     7
370
     0
100
AcDbMText
 10
2939.917396372138
 20
-4087.14246317786
 30
0.0
 40
45.72
 41
240.0
 46
0.0
 71
     7
 72
     1
  1
{\fＭＳ ゴシック|b0|i0|c128|p49;ＦＩＬＥ}
 73
     1
 44
1.0
  0
MTEXT
  5
457
330
1F
100
AcDbEntity
  8
F-A_文字
  6
Continuous
 62
     7
370
     0
100
AcDbMText
 10
1604.917396372138
 20
-4164.281754523929
 30
0.0
 40
101.44125
 41
1065.0
 46
0.0
 71
     7
 72
     1
  1
{\fＭＳ ゴシック|b0|i0|c128|p49;ウッドワン・・・}
 73
     1
 44
1.0
  0
MTEXT
  5
458
330
1F
100
AcDbEntity
  8
F-A_文字
  6
Continuous
 62
     7
370
     0
100
AcDbMText
 10
1394.917396372138
 20
-4096.140669266149
 30
0.0
 40
45.72
 41
120.0
 46
0.0
 71
     7
 72
     1
  1
{\fＭＳ ゴシック|b0|i0|c128|p49;株式}
 73
     1
 44
1.0
  0
MTEXT
  5
459
330
1F
100
AcDbEntity
  8
F-A_文字
  6
Continuous
 62
     7
370
     0
100
AcDbMText
 10
1394.917396372138
 20
-4168.140669266187
 30
0.0
 40
45.72
 41
120.0
 46
0.0
 71
     7
 72
     1
  1
{\fＭＳ ゴシック|b0|i0|c128|p49;会社}
 73
     1
 44
1.0
  0
MTEXT
  5
45A
330
1F
100
AcDbEntity
  8
F-A_文字
  6
Continuous
 62
     7
370
     0
100
AcDbMText
 10
99.91854284331623
 20
-3887.139820871936
 30
0.0
 40
45.72
 41
180.0
 46
0.0
 71
     7
 72
     1
  1
{\fＭＳ ゴシック|b0|i0|c128|p49;図面名}
 73
     1
 44
1.0
  0
LINE
  5
45B
330
1F
100
AcDbEntity
  8
F-0_補助線
  6
JWW_HOJO
 62
     7
370
     9
100
AcDbLine
 10
509.9185840832865
 20
-3795.000003092998
 30
0.0
 11
509.9185840832865
 21
-4195.000008247994
 31
0.0
  0
LINE
  5
45C
330
1F
100
AcDbEntity
  8
F-1_枠
  6
Continuous
 62
   200
370
    20
100
AcDbLine
 10
4349.917891251784
 20
-3795.000003092998
 30
0.0
 11
4349.917891251784
 21
-4195.000008247994
 31
0.0
  0
LINE
  5
45D
330
1F
100
AcDbEntity
  8
F-1_枠
  6
Continuous
 62
   200
370
    20
100
AcDbLine
 10
2849.917396372138
 20
-3795.000003092998
 30
0.0
 11
2849.917396372138
 21
-4195.000008247994
 31
0.0
  0
LINE
  5
45E
330
1F
100
AcDbEntity
  8
F-1_枠
  6
Continuous
 62
   200
370
    20
100
AcDbLine
 10
9.918542843316231
 20
-3795.000003092998
 30
0.0
 11
9.918542843316231
 21
-4195.000008247994
 31
0.0
  0
LINE
  5
45F
330
1F
100
AcDbEntity
  8
F-0_補助線
  6
JWW_HOJO
 62
     7
370
     9
100
AcDbLine
 10
2939.917396372138
 20
-3795.000003092998
 30
0.0
 11
2939.917396372138
 21
-4195.000008247994
 31
0.0
  0
LINE
  5
460
330
1F
100
AcDbEntity
  8
F-0_補助線
  6
JWW_HOJO
 62
     7
370
     9
100
AcDbLine
 10
99.91854284331623
 20
-3795.000003092998
 30
0.0
 11
99.91854284331623
 21
-4195.000008247994
 31
0.0
  0
LINE
  5
461
330
1F
100
AcDbEntity
  8
F-0_補助線
  6
JWW_HOJO
 62
     7
370
     9
100
AcDbLine
 10
4439.917891251784
 20
-3795.000003092998
 30
0.0
 11
4439.917891251784
 21
-4195.000008247994
 31
0.0
  0
LINE
  5
462
330
1F
100
AcDbEntity
  8
F-0_補助線
  6
JWW_HOJO
 62
     7
370
     9
100
AcDbLine
 10
-5087.628710189611
 20
-3795.000003092999
 30
0.0
 11
-5087.628710189611
 21
-4205.000164959882
 31
0.0
  0
LINE
  5
463
330
1F
100
AcDbEntity
  8
F-0_補助線
  6
JWW_HOJO
 62
     7
370
     9
100
AcDbLine
 10
-50.08145715668377
 20
-3795.000003092998
 30
0.0
 11
-50.08145715668377
 21
-4195.000008247994
 31
0.0
  0
LINE
  5
464
330
1F
100
AcDbEntity
  8
F-0_補助線
  6
JWW_HOJO
 62
     7
370
     9
100
AcDbLine
 10
3764.917643811962
 20
-3795.000003092998
 30
0.0
 11
3764.917643811962
 21
-4195.000008247994
 31
0.0
  0
MTEXT
  5
465
330
1F
100
AcDbEntity
  8
F-A_文字
  6
Continuous
 62
     7
370
     0
100
AcDbMText
 10
3689.917643811962
 20
-3946.903115907308
 30
0.0
 40
76.19999999999999
 41
150.0
 46
0.0
 71
     7
 72
     1
  1
{\fＭＳ ゴシック|b0|i0|c128|p49;1/5}
 73
     1
 44
1.0
  0
LINE
  5
466
330
1F
100
AcDbEntity
  8
F-0_補助線
  6
JWW_HOJO
 62
     7
370
     9
100
AcDbLine
 10
1349.918584083287
 20
-3795.000003092998
 30
0.0
 11
1349.918584083287
 21
-4195.000008247994
 31
0.0
  0
LINE
  5
467
330
1F
100
AcDbEntity
  8
F-0_補助線
  6
JWW_HOJO
 62
     7
370
     9
100
AcDbLine
 10
4889.917891251784
 20
-3795.000003092998
 30
0.0
 11
4889.917891251784
 21
-4195.000008247994
 31
0.0
  0
MTEXT
  5
468
330
1F
100
AcDbEntity
  8
F-A_文字
  6
Continuous
 62
     7
370
     0
100
AcDbMText
 10
4889.917891251784
 20
-3945.570773120548
 30
0.0
 40
78.86699999999999
 41
517.5
 46
0.0
 71
     7
 72
     1
  1
{\fＭＳ ゴシック|b0|i0|c128|p49;2021.04.01}
 73
     1
 44
1.0
  0
MTEXT
  5
469
330
1F
100
AcDbEntity
  8
F-A_文字
  6
Continuous
 62
     7
370
     0
100
AcDbMText
 10
1349.918584083287
 20
-3945.948482732445
 30
0.0
 40
78.105
 41
615.0
 46
0.0
 71
     7
 72
     1
  1
{\fＭＳ ゴシック|b0|i0|c128|p49;建具納まり図}
 73
     1
 44
1.0
  0
MTEXT
  5
46A
330
1F
100
AcDbEntity
  8
F-A_文字
  6
Continuous
 62
     7
370
     0
100
AcDbMText
 10
509.9185840832865
 20
-3956.425201962234
 30
0.0
 40
57.15
 41
675.0
 46
0.0
 71
     7
 72
     1
  1
{\fＭＳ ゴシック|b0|i0|c128|p49;ＰＩＮＯＥＡＲＴＨ}
 73
     1
 44
1.0
  0
MTEXT
  5
46B
330
1F
100
AcDbEntity
  8
F-A_文字
  6
Continuous
 62
     7
370
     0
100
AcDbMText
 10
-5080.081323642279
 20
-4045.062971792676
 30
0.0
 40
79.87392857142851
 41
4402.5
 46
0.0
 71
     7
 72
     1
  1
{\fＭＳ ゴシック|b0|i0|c128|p49;ピノアース　クローゼットドア  調整枠　３方枠＋埋め込みレール　枠外H2,348　枠外W1,645}
 73
     1
 44
1.0
  0
MTEXT
  5
46C
330
1F
100
AcDbEntity
  8
F-A_文字
  6
Continuous
 62
     7
370
     9
100
AcDbMText
 10
5096.167700144057
 20
-4147.857012699985
 30
0.0
 40
74.295
 41
97.5
 46
0.0
 71
     7
 72
     1
  1
{\fＭＳ ゴシック|b0|i0|c128|p49;03}
 73
     1
 44
1.0
  0
ENDSEC
  0
SECTION
  2
OBJECTS
  0
DICTIONARY
  5
C
330
0
100
AcDbDictionary
281
     1
  3
ACAD_GROUP
350
D
  3
ACAD_LAYOUT
350
1A
  3
ACAD_MATERIAL
350
3B
  3
ACAD_MLEADERSTYLE
350
495
  3
ACAD_MLINESTYLE
350
17
  3
ACAD_PLOTSETTINGS
350
19
  3
ACAD_PLOTSTYLENAME
350
E
  3
ACAD_TABLESTYLE
350
494
  3
ACAD_VISUALSTYLE
350
2A
  0
DICTIONARY
  5
D
102
{ACAD_REACTORS
330
C
102
}
330
C
100
AcDbDictionary
281
     1
  0
DICTIONARY
  5
1A
102
{ACAD_REACTORS
330
C
102
}
330
C
100
AcDbDictionary
281
     1
  3
Layout1
350
1E
  3
Layout2
350
26
  3
Model
350
22
  0
DICTIONARY
  5
3B
102
{ACAD_REACTORS
330
C
102
}
330
C
100
AcDbDictionary
281
     1
  3
ByBlock
350
3D
  3
ByLayer
350
3C
  3
Global
350
3E
  0
DICTIONARY
  5
495
102
{ACAD_REACTORS
330
C
102
}
330
C
100
AcDbDictionary
281
     1
  0
DICTIONARY
  5
17
102
{ACAD_REACTORS
330
C
102
}
330
C
100
AcDbDictionary
281
     1
  3
Standard
350
18
  0
DICTIONARY
  5
19
102
{ACAD_REACTORS
330
C
102
}
330
C
100
AcDbDictionary
281
     1
  0
ACDBDICTIONARYWDFLT
  5
E
102
{ACAD_REACTORS
330
C
102
}
330
C
100
AcDbDictionary
281
     1
  3
Normal
350
F
100
AcDbDictionaryWithDefault
340
F
  0
DICTIONARY
  5
494
102
{ACAD_REACTORS
330
C
102
}
330
C
100
AcDbDictionary
281
     1
  0
DICTIONARY
  5
2A
102
{ACAD_REACTORS
330
C
102
}
330
C
100
AcDbDictionary
281
     1
  3
2dWireframe
350
2F
  3
3D Hidden
350
31
  3
3dWireframe
350
30
  3
Basic
350
32
  3
Brighten
350
36
  3
ColorChange
350
3A
  3
Conceptual
350
34
  3
Dim
350
35
  3
Facepattern
350
39
  3
Flat
350
2B
  3
FlatWithEdges
350
2C
  3
Gouraud
350
2D
  3
GouraudWithEdges
350
2E
  3
Linepattern
350
38
  3
Realistic
350
33
  3
Thicken
350
37
  0
LAYOUT
  5
1E
102
{ACAD_REACTORS
330
1A
102
}
330
1A
100
AcDbPlotSettings
  1

  2
none_device
  4

  6

 40
0.0
 41
0.0
 42
0.0
 43
0.0
 44
0.0
 45
0.0
 46
0.0
 47
0.0
 48
0.0
 49
0.0
140
0.0
141
0.0
142
1.0
143
1.0
 70
   688
 72
     0
 73
     0
 74
     5
  7

 75
    16
 76
     0
 77
     5
 78
   300
147
1.0
148
0.0
149
0.0
100
AcDbLayout
  1
Layout1
 70
     1
 71
     1
 10
0.0
 20
0.0
 11
420.0
 21
297.0
 12
0.0
 22
0.0
 32
0.0
 14
1.000000000000000E+20
 24
1.000000000000000E+20
 34
1.000000000000000E+20
 15
-1.000000000000000E+20
 25
-1.000000000000000E+20
 35
-1.000000000000000E+20
146
0.0
 13
0.0
 23
0.0
 33
0.0
 16
1.0
 26
0.0
 36
0.0
 17
0.0
 27
1.0
 37
0.0
 76
     0
330
1B
  0
LAYOUT
  5
26
102
{ACAD_REACTORS
330
1A
102
}
330
1A
100
AcDbPlotSettings
  1

  2
none_device
  4

  6

 40
0.0
 41
0.0
 42
0.0
 43
0.0
 44
0.0
 45
0.0
 46
0.0
 47
0.0
 48
0.0
 49
0.0
140
0.0
141
0.0
142
1.0
143
1.0
 70
   688
 72
     0
 73
     0
 74
     5
  7

 75
    16
 76
     0
 77
     5
 78
   300
147
1.0
148
0.0
149
0.0
100
AcDbLayout
  1
Layout2
 70
     1
 71
     2
 10
0.0
 20
0.0
 11
0.0
 21
0.0
 12
0.0
 22
0.0
 32
0.0
 14
0.0
 24
0.0
 34
0.0
 15
0.0
 25
0.0
 35
0.0
146
0.0
 13
0.0
 23
0.0
 33
0.0
 16
1.0
 26
0.0
 36
0.0
 17
0.0
 27
1.0
 37
0.0
 76
     0
330
23
  0
LAYOUT
  5
22
102
{ACAD_REACTORS
330
1A
102
}
330
1A
100
AcDbPlotSettings
  1

  2
none_device
  4

  6

 40
0.0
 41
0.0
 42
0.0
 43
0.0
 44
0.0
 45
0.0
 46
0.0
 47
0.0
 48
0.0
 49
0.0
140
0.0
141
0.0
142
1.0
143
1.0
 70
  1712
 72
     0
 73
     0
 74
     0
  7

 75
     0
 76
     0
 77
     5
 78
   300
147
1.0
148
0.0
149
0.0
100
AcDbLayout
  1
Model
 70
     1
 71
     0
 10
-6300.0
 20
-4455.0
 11
6300.0
 21
4455.0
 12
0.0
 22
0.0
 32
0.0
 14
-6300.0
 24
-4455.0
 34
0.0
 15
6300.0
 25
4455.0
 35
0.0
146
0.0
 13
0.0
 23
0.0
 33
0.0
 16
1.0
 26
0.0
 36
0.0
 17
0.0
 27
1.0
 37
0.0
 76
     0
330
1F
331
29
  0
MATERIAL
  5
3D
102
{ACAD_REACTORS
330
3B
102
}
330
3B
100
AcDbMaterial
  1
ByBlock
 72
     1
 94
      127
  0
MATERIAL
  5
3C
102
{ACAD_REACTORS
330
3B
102
}
330
3B
100
AcDbMaterial
  1
ByLayer
 72
     1
 94
      127
  0
MATERIAL
  5
3E
102
{ACAD_REACTORS
330
3B
102
}
330
3B
100
AcDbMaterial
  1
Global
 72
     1
 94
      127
  0
MLINESTYLE
  5
18
102
{ACAD_REACTORS
330
17
102
}
330
17
100
AcDbMlineStyle
  2
Standard
 70
     0
  3

 62
   256
 51
90.0
 52
90.0
 71
     2
 49
0.5
 62
   256
  6
BYLAYER
 49
-0.5
 62
   256
  6
BYLAYER
  0
ACDBPLACEHOLDER
  5
F
102
{ACAD_REACTORS
330
E
102
}
330
E
  0
VISUALSTYLE
  5
2F
102
{ACAD_REACTORS
330
2A
102
}
330
2A
100
AcDbVisualStyle
  2
2dWireframe
 70
     4
177
     2
291
     0
 71
     0
176
     1
 72
     2
176
     1
 73
     0
176
     1
 90
        0
176
     1
 40
-0.6
176
     1
 41
-30.0
176
     1
 62
     5
 63
     7
421
 16777215
176
     1
 74
     1
176
     1
 91
        4
176
     1
 64
     7
176
     1
 65
   257
176
     1
 75
     1
176
     1
175
     1
176
     1
 42
1.0
176
     1
 92
        0
176
     1
 66
   257
176
     1
 43
1.0
176
     1
 76
     1
176
     1
 77
     6
176
     1
 78
     2
176
     1
 67
     7
176
     1
 79
     5
176
     1
170
     0
176
     1
171
     0
176
     1
290
     0
176
     1
 93
        1
176
     1
 44
0.0
176
     1
173
     0
176
     1
  0
VISUALSTYLE
  5
31
102
{ACAD_REACTORS
330
2A
102
}
330
2A
100
AcDbVisualStyle
  2
3D Hidden
 70
     6
177
     2
291
     0
 71
     1
176
     1
 72
     2
176
     1
 73
     2
176
     1
 90
        0
176
     1
 40
-0.6
176
     1
 41
-30.0
176
     1
 62
     5
 63
     7
421
 16777215
176
     1
 74
     2
176
     1
 91
        2
176
     1
 64
     7
176
     1
 65
   257
176
     1
 75
     2
176
     1
175
     1
176
     1
 42
40.0
176
     1
 92
        0
176
     1
 66
   257
176
     1
 43
1.0
176
     1
 76
     1
176
     1
 77
     6
176
     1
 78
     2
176
     1
 67
     7
176
     1
 79
     3
176
     1
170
     0
176
     1
171
     0
176
     1
290
     0
176
     1
 93
        1
176
     1
 44
0.0
176
     1
173
     0
176
     1
  0
VISUALSTYLE
  5
30
102
{ACAD_REACTORS
330
2A
102
}
330
2A
100
AcDbVisualStyle
  2
3dWireframe
 70
     5
177
     2
291
     0
 71
     0
176
     1
 72
     2
176
     1
 73
     0
176
     1
 90
        0
176
     1
 40
-0.6
176
     1
 41
-30.0
176
     1
 62
     5
 63
     7
421
 16777215
176
     1
 74
     1
176
     1
 91
        4
176
     1
 64
     7
176
     1
 65
   257
176
     1
 75
     1
176
     1
175
     1
176
     1
 42
1.0
176
     1
 92
        0
176
     1
 66
   257
176
     1
 43
1.0
176
     1
 76
     1
176
     1
 77
     6
176
     1
 78
     2
176
     1
 67
     7
176
     1
 79
     5
176
     1
170
     0
176
     1
171
     0
176
     1
290
     0
176
     1
 93
        1
176
     1
 44
0.0
176
     1
173
     0
176
     1
  0
VISUALSTYLE
  5
32
102
{ACAD_REACTORS
330
2A
102
}
330
2A
100
AcDbVisualStyle
  2
Basic
 70
     7
177
     2
291
     1
 71
     1
176
     1
 72
     0
176
     1
 73
     1
176
     1
 90
        0
176
     1
 40
-0.6
176
     1
 41
-30.0
176
     1
 62
     5
 63
     7
421
 16777215
176
     1
 74
     0
176
     1
 91
        4
176
     1
 64
     7
176
     1
 65
   257
176
     1
 75
     1
176
     1
175
     1
176
     1
 42
1.0
176
     1
 92
        8
176
     1
 66
     7
176
     1
 43
1.0
176
     1
 76
     1
176
     1
 77
     6
176
     1
 78
     2
176
     1
 67
     7
176
     1
 79
     5
176
     1
170
     0
176
     1
171
     0
176
     1
290
     0
176
     1
 93
        1
176
     1
 44
0.0
176
     1
173
     0
176
     1
  0
VISUALSTYLE
  5
36
102
{ACAD_REACTORS
330
2A
102
}
330
2A
100
AcDbVisualStyle
  2
Brighten
 70
    12
177
     2
291
     1
 71
     2
176
     1
 72
     2
176
     1
 73
     0
176
     1
 90
        0
176
     1
 40
-0.6
176
     1
 41
-30.0
176
     1
 62
     5
 63
     7
421
 16777215
176
     1
 74
     1
176
     1
 91
        4
176
     1
 64
     7
176
     1
 65
   257
176
     1
 75
     1
176
     1
175
     1
176
     1
 42
1.0
176
     1
 92
        8
176
     1
 66
     7
176
     1
 43
1.0
176
     1
 76
     1
176
     1
 77
     6
176
     1
 78
     2
176
     1
 67
     7
176
     1
 79
     5
176
     1
170
     0
176
     1
171
     0
176
     1
290
     0
176
     1
 93
        1
176
     1
 44
50.0
176
     1
173
     0
176
     1
  0
VISUALSTYLE
  5
3A
102
{ACAD_REACTORS
330
2A
102
}
330
2A
100
AcDbVisualStyle
  2
ColorChange
 70
    16
177
     2
291
     1
 71
     2
176
     1
 72
     2
176
     1
 73
     3
176
     1
 90
        0
176
     1
 40
-0.6
176
     1
 41
-30.0
176
     1
 62
     5
 63
     8
421
  8421504
176
     1
 74
     1
176
     1
 91
        4
176
     1
 64
     7
176
     1
 65
   257
176
     1
 75
     1
176
     1
175
     1
176
     1
 42
1.0
176
     1
 92
        8
176
     1
 66
     8
424
  8421504
176
     1
 43
1.0
176
     1
 76
     1
176
     1
 77
     6
176
     1
 78
     2
176
     1
 67
     7
176
     1
 79
     5
176
     1
170
     0
176
     1
171
     0
176
     1
290
     0
176
     1
 93
        1
176
     1
 44
0.0
176
     1
173
     0
176
     1
  0
VISUALSTYLE
  5
34
102
{ACAD_REACTORS
330
2A
102
}
330
2A
100
AcDbVisualStyle
  2
Conceptual
 70
     9
177
     2
291
     0
 71
     3
176
     1
 72
     2
176
     1
 73
     0
176
     1
 90
        0
176
     1
 40
-0.6
176
     1
 41
-30.0
176
     1
 62
     5
 63
     7
421
 16777215
176
     1
 74
     2
176
     1
 91
        2
176
     1
 64
     7
176
     1
 65
   257
176
     1
 75
     1
176
     1
175
     1
176
     1
 42
40.0
176
     1
 92
        8
176
     1
 66
     7
176
     1
 43
1.0
176
     1
 76
     1
176
     1
 77
     6
176
     1
 78
     2
176
     1
 67
     7
176
     1
 79
     3
176
     1
170
     0
176
     1
171
     0
176
     1
290
     0
176
     1
 93
        1
176
     1
 44
0.0
176
     1
173
     0
176
     1
  0
VISUALSTYLE
  5
35
102
{ACAD_REACTORS
330
2A
102
}
330
2A
100
AcDbVisualStyle
  2
Dim
 70
    11
177
     2
291
     1
 71
     2
176
     1
 72
     2
176
     1
 73
     0
176
     1
 90
        0
176
     1
 40
-0.6
176
     1
 41
-30.0
176
     1
 62
     5
 63
     7
421
 16777215
176
     1
 74
     1
176
     1
 91
        4
176
     1
 64
     7
176
     1
 65
   257
176
     1
 75
     1
176
     1
175
     1
176
     1
 42
1.0
176
     1
 92
        8
176
     1
 66
     7
176
     1
 43
1.0
176
     1
 76
     1
176
     1
 77
     6
176
     1
 78
     2
176
     1
 67
     7
176
     1
 79
     5
176
     1
170
     0
176
     1
171
     0
176
     1
290
     0
176
     1
 93
        1
176
     1
 44
-50.0
176
     1
173
     0
176
     1
  0
VISUALSTYLE
  5
39
102
{ACAD_REACTORS
330
2A
102
}
330
2A
100
AcDbVisualStyle
  2
Facepattern
 70
    15
177
     2
291
     1
 71
     2
176
     1
 72
     2
176
     1
 73
     0
176
     1
 90
        0
176
     1
 40
-0.6
176
     1
 41
-30.0
176
     1
 62
     5
 63
     7
421
 16777215
176
     1
 74
     1
176
     1
 91
        4
176
     1
 64
     7
176
     1
 65
   257
176
     1
 75
     1
176
     1
175
     1
176
     1
 42
1.0
176
     1
 92
        8
176
     1
 66
     7
176
     1
 43
1.0
176
     1
 76
     1
176
     1
 77
     6
176
     1
 78
     2
176
     1
 67
     7
176
     1
 79
     5
176
     1
170
     0
176
     1
171
     0
176
     1
290
     0
176
     1
 93
        1
176
     1
 44
0.0
176
     1
173
     0
176
     1
  0
VISUALSTYLE
  5
2B
102
{ACAD_REACTORS
330
2A
102
}
330
2A
100
AcDbVisualStyle
  2
Flat
 70
     0
177
     2
291
     1
 71
     2
176
     1
 72
     1
176
     1
 73
     1
176
     1
 90
        2
176
     1
 40
-0.6
176
     1
 41
30.0
176
     1
 62
     5
 63
     7
421
 16777215
176
     1
 74
     0
176
     1
 91
        4
176
     1
 64
     7
176
     1
 65
   257
176
     1
 75
     1
176
     1
175
     1
176
     1
 42
1.0
176
     1
 92
        8
176
     1
 66
     7
176
     1
 43
1.0
176
     1
 76
     1
176
     1
 77
     6
176
     1
 78
     2
176
     1
 67
     7
176
     1
 79
     5
176
     1
170
     0
176
     1
171
     0
176
     1
290
     0
176
     1
 93
       13
176
     1
 44
0.0
176
     1
173
     0
176
     1
  0
VISUALSTYLE
  5
2C
102
{ACAD_REACTORS
330
2A
102
}
330
2A
100
AcDbVisualStyle
  2
FlatWithEdges
 70
     1
177
     2
291
     1
 71
     2
176
     1
 72
     1
176
     1
 73
     1
176
     1
 90
        2
176
     1
 40
-0.6
176
     1
 41
30.0
176
     1
 62
     5
 63
     7
421
 16777215
176
     1
 74
     1
176
     1
 91
        4
176
     1
 64
     7
176
     1
 65
   257
176
     1
 75
     1
176
     1
175
     1
176
     1
 42
1.0
176
     1
 92
        0
176
     1
 66
   257
176
     1
 43
1.0
176
     1
 76
     1
176
     1
 77
     6
176
     1
 78
     2
176
     1
 67
     7
176
     1
 79
     5
176
     1
170
     0
176
     1
171
     0
176
     1
290
     0
176
     1
 93
       13
176
     1
 44
0.0
176
     1
173
     0
176
     1
  0
VISUALSTYLE
  5
2D
102
{ACAD_REACTORS
330
2A
102
}
330
2A
100
AcDbVisualStyle
  2
Gouraud
 70
     2
177
     2
291
     1
 71
     2
176
     1
 72
     2
176
     1
 73
     1
176
     1
 90
        2
176
     1
 40
-0.6
176
     1
 41
30.0
176
     1
 62
     5
 63
     7
421
 16777215
176
     1
 74
     0
176
     1
 91
        4
176
     1
 64
     7
176
     1
 65
   257
176
     1
 75
     1
176
     1
175
     1
176
     1
 42
1.0
176
     1
 92
        0
176
     1
 66
     7
176
     1
 43
1.0
176
     1
 76
     1
176
     1
 77
     6
176
     1
 78
     2
176
     1
 67
     7
176
     1
 79
     5
176
     1
170
     0
176
     1
171
     0
176
     1
290
     0
176
     1
 93
       13
176
     1
 44
0.0
176
     1
173
     0
176
     1
  0
VISUALSTYLE
  5
2E
102
{ACAD_REACTORS
330
2A
102
}
330
2A
100
AcDbVisualStyle
  2
GouraudWithEdges
 70
     3
177
     2
291
     1
 71
     2
176
     1
 72
     2
176
     1
 73
     1
176
     1
 90
        2
176
     1
 40
-0.6
176
     1
 41
30.0
176
     1
 62
     5
 63
     7
421
 16777215
176
     1
 74
     1
176
     1
 91
        4
176
     1
 64
     7
176
     1
 65
   257
176
     1
 75
     1
176
     1
175
     1
176
     1
 42
1.0
176
     1
 92
        0
176
     1
 66
   257
176
     1
 43
1.0
176
     1
 76
     1
176
     1
 77
     6
176
     1
 78
     2
176
     1
 67
     7
176
     1
 79
     5
176
     1
170
     0
176
     1
171
     0
176
     1
290
     0
176
     1
 93
       13
176
     1
 44
0.0
176
     1
173
     0
176
     1
  0
VISUALSTYLE
  5
38
102
{ACAD_REACTORS
330
2A
102
}
330
2A
100
AcDbVisualStyle
  2
Linepattern
 70
    14
177
     2
291
     1
 71
     2
176
     1
 72
     2
176
     1
 73
     0
176
     1
 90
        0
176
     1
 40
-0.6
176
     1
 41
-30.0
176
     1
 62
     5
 63
     7
421
 16777215
176
     1
 74
     1
176
     1
 91
        4
176
     1
 64
     7
176
     1
 65
   257
176
     1
 75
     7
176
     1
175
     7
176
     1
 42
1.0
176
     1
 92
        8
176
     1
 66
     7
176
     1
 43
1.0
176
     1
 76
     1
176
     1
 77
     6
176
     1
 78
     2
176
     1
 67
     7
176
     1
 79
     5
176
     1
170
     0
176
     1
171
     0
176
     1
290
     0
176
     1
 93
        1
176
     1
 44
0.0
176
     1
173
     0
176
     1
  0
VISUALSTYLE
  5
33
102
{ACAD_REACTORS
330
2A
102
}
330
2A
100
AcDbVisualStyle
  2
Realistic
 70
     8
177
     2
291
     0
 71
     2
176
     1
 72
     2
176
     1
 73
     0
176
     1
 90
        0
176
     1
 40
-0.6
176
     1
 41
-30.0
176
     1
 62
     5
 63
     7
421
 16777215
176
     1
 74
     1
176
     1
 91
        0
176
     1
 64
     7
176
     1
 65
   257
176
     1
 75
     1
176
     1
175
     1
176
     1
 42
1.0
176
     1
 92
        8
176
     1
 66
     8
424
  7895160
176
     1
 43
1.0
176
     1
 76
     1
176
     1
 77
     6
176
     1
 78
     2
176
     1
 67
     7
176
     1
 79
     5
176
     1
170
     0
176
     1
171
     0
176
     1
290
     0
176
     1
 93
       13
176
     1
 44
0.0
176
     1
173
     0
176
     1
  0
VISUALSTYLE
  5
37
102
{ACAD_REACTORS
330
2A
102
}
330
2A
100
AcDbVisualStyle
  2
Thicken
 70
    13
177
     2
291
     1
 71
     2
176
     1
 72
     2
176
     1
 73
     0
176
     1
 90
        0
176
     1
 40
-0.6
176
     1
 41
-30.0
176
     1
 62
     5
 63
     7
421
 16777215
176
     1
 74
     1
176
     1
 91
        4
176
     1
 64
     7
176
     1
 65
   257
176
     1
 75
     1
176
     1
175
     1
176
     1
 42
1.0
176
     1
 92
       12
176
     1
 66
     7
176
     1
 43
1.0
176
     1
 76
     1
176
     1
 77
     6
176
     1
 78
     2
176
     1
 67
     7
176
     1
 79
     5
176
     1
170
     0
176
     1
171
     0
176
     1
290
     0
176
     1
 93
        1
176
     1
 44
0.0
176
     1
173
     0
176
     1
  0
ENDSEC
  0
EOF
