  0
SECTION
  2
HEADER
  9
$ACADVER
  1
AC1024
  9
$ACADMAINTVER
 70
     6
  9
$DWGCODEPAGE
  3
ANSI_932
  9
$INSBASE
 10
0.0
 20
0.0
 30
0.0
  9
$EXTMIN
 10
-6300.0
 20
-4455.0
 30
0.0
  9
$EXTMAX
 10
6300.0
 20
4455.0
 30
0.0
  9
$LIMMIN
 10
-6300.0
 20
-4455.0
  9
$LIMMAX
 10
6300.0
 20
4455.0
  9
$ORTHOMODE
 70
     0
  9
$REGENMODE
 70
     1
  9
$FILLMODE
 70
     1
  9
$QTEXTMODE
 70
     0
  9
$MIRRTEXT
 70
     1
  9
$LTSCALE
 40
30.0
  9
$ATTMODE
 70
     1
  9
$TEXTSIZE
 40
2.5
  9
$TRACEWID
 40
1.0
  9
$TEXTSTYLE
  7
Standard
  9
$CLAYER
  8
0
  9
$CELTYPE
  6
ByLayer
  9
$CECOLOR
 62
   256
  9
$CELTSCALE
 40
1.0
  9
$DISPSILH
 70
     0
  9
$DIMSCALE
 40
1.0
  9
$DIMASZ
 40
2.5
  9
$DIMEXO
 40
0.625
  9
$DIMDLI
 40
3.75
  9
$DIMRND
 40
0.0
  9
$DIMDLE
 40
0.0
  9
$DIMEXE
 40
1.25
  9
$DIMTP
 40
0.0
  9
$DIMTM
 40
0.0
  9
$DIMTXT
 40
2.5
  9
$DIMCEN
 40
2.5
  9
$DIMTSZ
 40
0.0
  9
$DIMTOL
 70
     0
  9
$DIMLIM
 70
     0
  9
$DIMTIH
 70
     0
  9
$DIMTOH
 70
     0
  9
$DIMSE1
 70
     0
  9
$DIMSE2
 70
     0
  9
$DIMTAD
 70
     1
  9
$DIMZIN
 70
     8
  9
$DIMBLK
  1

  9
$DIMASO
 70
     1
  9
$DIMSHO
 70
     1
  9
$DIMPOST
  1

  9
$DIMAPOST
  1

  9
$DIMALT
 70
     0
  9
$DIMALTD
 70
     3
  9
$DIMALTF
 40
0.03937007874016
  9
$DIMLFAC
 40
1.0
  9
$DIMTOFL
 70
     1
  9
$DIMTVP
 40
0.0
  9
$DIMTIX
 70
     0
  9
$DIMSOXD
 70
     0
  9
$DIMSAH
 70
     0
  9
$DIMBLK1
  1

  9
$DIMBLK2
  1

  9
$DIMSTYLE
  2
ISO-25
  9
$DIMCLRD
 70
     0
  9
$DIMCLRE
 70
     0
  9
$DIMCLRT
 70
     0
  9
$DIMTFAC
 40
1.0
  9
$DIMGAP
 40
0.625
  9
$DIMJUST
 70
     0
  9
$DIMSD1
 70
     0
  9
$DIMSD2
 70
     0
  9
$DIMTOLJ
 70
     0
  9
$DIMTZIN
 70
     8
  9
$DIMALTZ
 70
     0
  9
$DIMALTTZ
 70
     0
  9
$DIMUPT
 70
     0
  9
$DIMDEC
 70
     2
  9
$DIMTDEC
 70
     2
  9
$DIMALTU
 70
     2
  9
$DIMALTTD
 70
     3
  9
$DIMTXSTY
  7
Standard
  9
$DIMAUNIT
 70
     0
  9
$DIMADEC
 70
     0
  9
$DIMALTRND
 40
0.0
  9
$DIMAZIN
 70
     0
  9
$DIMDSEP
 70
    44
  9
$DIMATFIT
 70
     3
  9
$DIMFRAC
 70
     0
  9
$DIMLDRBLK
  1

  9
$DIMLUNIT
 70
     2
  9
$DIMLWD
 70
    -2
  9
$DIMLWE
 70
    -2
  9
$DIMTMOVE
 70
     0
  9
$DIMFXL
 40
1.0
  9
$DIMFXLON
 70
     0
  9
$DIMJOGANG
 40
0.7853981633974483
  9
$DIMTFILL
 70
     0
  9
$DIMTFILLCLR
 70
     0
  9
$DIMARCSYM
 70
     0
  9
$DIMLTYPE
  6

  9
$DIMLTEX1
  6

  9
$DIMLTEX2
  6

  9
$DIMTXTDIRECTION
 70
     0
  9
$LUNITS
 70
     2
  9
$LUPREC
 70
     4
  9
$SKETCHINC
 40
1.0
  9
$FILLETRAD
 40
10.0
  9
$AUNITS
 70
     0
  9
$AUPREC
 70
     0
  9
$MENU
  1
.
  9
$ELEVATION
 40
0.0
  9
$PELEVATION
 40
0.0
  9
$THICKNESS
 40
0.0
  9
$LIMCHECK
 70
     0
  9
$CHAMFERA
 40
10.0
  9
$CHAMFERB
 40
10.0
  9
$CHAMFERC
 40
20.0
  9
$CHAMFERD
 40
0.0
  9
$SKPOLY
 70
     0
  9
$TDCREATE
 40
2459380.624229653
  9
$TDUCREATE
 40
2459380.249229653
  9
$TDUPDATE
 40
2459380.624229664
  9
$TDUUPDATE
 40
2459380.249229664
  9
$TDINDWG
 40
0.0000000116
  9
$TDUSRTIMER
 40
0.0000000116
  9
$USRTIMER
 70
     1
  9
$ANGBASE
 50
0.0
  9
$ANGDIR
 70
     0
  9
$PDMODE
 70
     0
  9
$PDSIZE
 40
0.0
  9
$PLINEWID
 40
0.0
  9
$SPLFRAME
 70
     0
  9
$SPLINETYPE
 70
     6
  9
$SPLINESEGS
 70
     8
  9
$HANDSEED
  5
457
  9
$SURFTAB1
 70
     6
  9
$SURFTAB2
 70
     6
  9
$SURFTYPE
 70
     6
  9
$SURFU
 70
     6
  9
$SURFV
 70
     6
  9
$UCSBASE
  2

  9
$UCSNAME
  2

  9
$UCSORG
 10
0.0
 20
0.0
 30
0.0
  9
$UCSXDIR
 10
1.0
 20
0.0
 30
0.0
  9
$UCSYDIR
 10
0.0
 20
1.0
 30
0.0
  9
$UCSORTHOREF
  2

  9
$UCSORTHOVIEW
 70
     0
  9
$UCSORGTOP
 10
0.0
 20
0.0
 30
0.0
  9
$UCSORGBOTTOM
 10
0.0
 20
0.0
 30
0.0
  9
$UCSORGLEFT
 10
0.0
 20
0.0
 30
0.0
  9
$UCSORGRIGHT
 10
0.0
 20
0.0
 30
0.0
  9
$UCSORGFRONT
 10
0.0
 20
0.0
 30
0.0
  9
$UCSORGBACK
 10
0.0
 20
0.0
 30
0.0
  9
$PUCSBASE
  2

  9
$PUCSNAME
  2

  9
$PUCSORG
 10
0.0
 20
0.0
 30
0.0
  9
$PUCSXDIR
 10
1.0
 20
0.0
 30
0.0
  9
$PUCSYDIR
 10
0.0
 20
1.0
 30
0.0
  9
$PUCSORTHOREF
  2

  9
$PUCSORTHOVIEW
 70
     0
  9
$PUCSORGTOP
 10
0.0
 20
0.0
 30
0.0
  9
$PUCSORGBOTTOM
 10
0.0
 20
0.0
 30
0.0
  9
$PUCSORGLEFT
 10
0.0
 20
0.0
 30
0.0
  9
$PUCSORGRIGHT
 10
0.0
 20
0.0
 30
0.0
  9
$PUCSORGFRONT
 10
0.0
 20
0.0
 30
0.0
  9
$PUCSORGBACK
 10
0.0
 20
0.0
 30
0.0
  9
$USERI1
 70
     0
  9
$USERI2
 70
     0
  9
$USERI3
 70
     0
  9
$USERI4
 70
     0
  9
$USERI5
 70
     0
  9
$USERR1
 40
0.0
  9
$USERR2
 40
0.0
  9
$USERR3
 40
0.0
  9
$USERR4
 40
0.0
  9
$USERR5
 40
0.0
  9
$WORLDVIEW
 70
     1
  9
$SHADEDGE
 70
     3
  9
$SHADEDIF
 70
    70
  9
$TILEMODE
 70
     1
  9
$MAXACTVP
 70
    64
  9
$PINSBASE
 10
0.0
 20
0.0
 30
0.0
  9
$PLIMCHECK
 70
     0
  9
$PEXTMIN
 10
1.000000000000000E+20
 20
1.000000000000000E+20
 30
1.000000000000000E+20
  9
$PEXTMAX
 10
-1.000000000000000E+20
 20
-1.000000000000000E+20
 30
-1.000000000000000E+20
  9
$PLIMMIN
 10
0.0
 20
0.0
  9
$PLIMMAX
 10
420.0
 20
297.0
  9
$UNITMODE
 70
     0
  9
$VISRETAIN
 70
     1
  9
$PLINEGEN
 70
     0
  9
$PSLTSCALE
 70
     1
  9
$TREEDEPTH
 70
  3020
  9
$CMLSTYLE
  2
Standard
  9
$CMLJUST
 70
     0
  9
$CMLSCALE
 40
20.0
  9
$PROXYGRAPHICS
 70
     1
  9
$MEASUREMENT
 70
     1
  9
$CELWEIGHT
370
    -1
  9
$ENDCAPS
280
     0
  9
$JOINSTYLE
280
     0
  9
$LWDISPLAY
290
     0
  9
$INSUNITS
 70
     4
  9
$HYPERLINKBASE
  1

  9
$STYLESHEET
  1

  9
$XEDIT
290
     1
  9
$CEPSNTYPE
380
     0
  9
$PSTYLEMODE
290
     1
  9
$FINGERPRINTGUID
  2
{3A8DFDB6-5C9F-452C-9C9B-229BCA280F35}
  9
$VERSIONGUID
  2
{FAEB1C32-E019-11D5-929B-00C0DF256EC4}
  9
$EXTNAMES
290
     1
  9
$PSVPSCALE
 40
0.0
  9
$OLESTARTUP
290
     0
  9
$SORTENTS
280
   127
  9
$INDEXCTL
280
     0
  9
$HIDETEXT
280
     1
  9
$XCLIPFRAME
280
     2
  9
$HALOGAP
280
     0
  9
$OBSCOLOR
 70
   257
  9
$OBSLTYPE
280
     0
  9
$INTERSECTIONDISPLAY
280
     0
  9
$INTERSECTIONCOLOR
 70
   257
  9
$DIMASSOC
280
     2
  9
$PROJECTNAME
  1

  9
$CAMERADISPLAY
290
     0
  9
$LENSLENGTH
 40
50.0
  9
$CAMERAHEIGHT
 40
0.0
  9
$STEPSPERSEC
 40
2.0
  9
$STEPSIZE
 40
6.0
  9
$3DDWFPREC
 40
2.0
  9
$PSOLWIDTH
 40
5.0
  9
$PSOLHEIGHT
 40
80.0
  9
$LOFTANG1
 40
1.570796326794897
  9
$LOFTANG2
 40
1.570796326794897
  9
$LOFTMAG1
 40
0.0
  9
$LOFTMAG2
 40
0.0
  9
$LOFTPARAM
 70
     7
  9
$LOFTNORMALS
280
     1
  9
$LATITUDE
 40
37.795
  9
$LONGITUDE
 40
-122.394
  9
$NORTHDIRECTION
 40
0.0
  9
$TIMEZONE
 70
 -8000
  9
$LIGHTGLYPHDISPLAY
280
     1
  9
$TILEMODELIGHTSYNCH
280
     1
  9
$SOLIDHIST
280
     1
  9
$SHOWHIST
280
     1
  9
$DWFFRAME
280
     2
  9
$DGNFRAME
280
     2
  9
$REALWORLDSCALE
290
     1
  9
$INTERFERECOLOR
 62
   256
  9
$CSHADOW
280
     0
  9
$SHADOWPLANELOCATION
 40
0.0
  0
ENDSEC
  0
SECTION
  2
CLASSES
  0
CLASS
  1
ACDBDICTIONARYWDFLT
  2
AcDbDictionaryWithDefault
  3
ObjectDBX Classes
 90
        0
 91
        4
280
     0
281
     0
  0
CLASS
  1
VISUALSTYLE
  2
AcDbVisualStyle
  3
ObjectDBX Classes
 90
     4095
 91
        4
280
     0
281
     0
  0
CLASS
  1
MATERIAL
  2
AcDbMaterial
  3
ObjectDBX Classes
 90
     1153
 91
        4
280
     0
281
     0
  0
ENDSEC
  0
SECTION
  2
TABLES
  0
TABLE
  2
VPORT
  5
8
330
0
100
AcDbSymbolTable
 70
     1
  0
VPORT
  5
29
330
8
100
AcDbSymbolTableRecord
100
AcDbViewportTableRecord
  2
*Active
 70
     0
 10
0.0
 20
0.0
 11
1.0
 21
1.0
 12
0.0
 22
0.0
 13
0.0
 23
0.0
 14
10.0
 24
10.0
 15
10.0
 25
10.0
 16
0.0
 26
0.0
 36
1.0
 17
0.0
 27
0.0
 37
0.0
 40
9801.0
 41
1.414141414141414
 42
50.0
 43
0.0
 44
0.0
 50
0.0
 51
0.0
 71
     0
 72
 10000
 73
     1
 74
     3
 75
     0
 76
     0
 77
     0
 78
     0
281
     0
 65
     1
110
0.0
120
0.0
130
0.0
111
1.0
121
0.0
131
0.0
112
0.0
122
1.0
132
0.0
 79
     0
146
0.0
 60
     3
 61
     5
292
     1
282
     1
141
0.0
142
0.0
 63
   250
  0
ENDTAB
  0
TABLE
  2
LTYPE
  5
5
330
0
100
AcDbSymbolTable
 70
     5
  0
LTYPE
  5
14
330
5
100
AcDbSymbolTableRecord
100
AcDbLinetypeTableRecord
  2
ByBlock
 70
     0
  3

 72
    65
 73
     0
 40
0.0
  0
LTYPE
  5
15
330
5
100
AcDbSymbolTableRecord
100
AcDbLinetypeTableRecord
  2
ByLayer
 70
     0
  3

 72
    65
 73
     0
 40
0.0
  0
LTYPE
  5
16
330
5
100
AcDbSymbolTableRecord
100
AcDbLinetypeTableRecord
  2
Continuous
 70
     0
  3
Solid line
 72
    65
 73
     0
 40
0.0
  0
LTYPE
  5
3F
330
5
100
AcDbSymbolTableRecord
100
AcDbLinetypeTableRecord
  2
JWW_HOJO
 70
     0
  3
  -   -   -   -   -   -   -   - 
 72
    65
 73
     2
 40
1.693333333333333
 49
-1.27
 74
     0
 49
0.4233333333333333
 74
     0
  0
LTYPE
  5
40
330
5
100
AcDbSymbolTableRecord
100
AcDbLinetypeTableRecord
  2
JWW_DASHED2
 70
     0
  3
--    ----    ----    ----    --
 72
    65
 73
     2
 40
3.386666666666667
 49
1.693333333333333
 74
     0
 49
-1.693333333333333
 74
     0
  0
LTYPE
  5
41
330
5
100
AcDbSymbolTableRecord
100
AcDbLinetypeTableRecord
  2
JWW_CENTER1
 70
     0
  3
-----  --  ----------  --  -----
 72
    65
 73
     4
 40
6.773333333333333
 49
4.233333333333333
 74
     0
 49
-0.8466666666666667
 74
     0
 49
0.8466666666666667
 74
     0
 49
-0.8466666666666667
 74
     0
  0
LTYPE
  5
42
330
5
100
AcDbSymbolTableRecord
100
AcDbLinetypeTableRecord
  2
JWW_DASHED1
 70
     0
  3
-  --  --  --  --  --  --  --  -
 72
    65
 73
     2
 40
1.693333333333333
 49
0.8466666666666667
 74
     0
 49
-0.8466666666666667
 74
     0
  0
ENDTAB
  0
TABLE
  2
LAYER
  5
2
330
0
100
AcDbSymbolTable
 70
    15
  0
LAYER
  5
10
330
2
100
AcDbSymbolTableRecord
100
AcDbLayerTableRecord
  2
0
 70
     0
 62
     7
  6
Continuous
370
    -3
390
F
347
3E
  0
LAYER
  5
43
330
2
100
AcDbSymbolTableRecord
100
AcDbLayerTableRecord
  2
F-A_文字
 70
     0
 62
     7
  6
Continuous
370
    -3
390
F
347
3E
  0
LAYER
  5
44
330
2
100
AcDbSymbolTableRecord
100
AcDbLayerTableRecord
  2
0-B_寸法
 70
     0
 62
     7
  6
Continuous
370
    -3
390
F
347
3E
  0
LAYER
  5
45
330
2
100
AcDbSymbolTableRecord
100
AcDbLayerTableRecord
  2
F-0_補助線
 70
     0
 62
     7
  6
Continuous
370
    -3
390
F
347
3E
  0
LAYER
  5
46
330
2
100
AcDbSymbolTableRecord
100
AcDbLayerTableRecord
  2
F-1_枠
 70
     0
 62
     7
  6
Continuous
370
    -3
390
F
347
3E
  0
LAYER
  5
47
330
2
100
AcDbSymbolTableRecord
100
AcDbLayerTableRecord
  2
0-A_文字
 70
     0
 62
     7
  6
Continuous
370
    -3
390
F
347
3E
  0
LAYER
  5
48
330
2
100
AcDbSymbolTableRecord
100
AcDbLayerTableRecord
  2
0-0_補助線
 70
     0
 62
     7
  6
Continuous
370
    -3
390
F
347
3E
  0
LAYER
  5
49
330
2
100
AcDbSymbolTableRecord
100
AcDbLayerTableRecord
  2
0-C_ハッチ
 70
     0
 62
     7
  6
Continuous
370
    -3
390
F
347
3E
  0
LAYER
  5
4A
330
2
100
AcDbSymbolTableRecord
100
AcDbLayerTableRecord
  2
0-4_枠
 70
     0
 62
     7
  6
Continuous
370
    -3
390
F
347
3E
  0
LAYER
  5
4B
330
2
100
AcDbSymbolTableRecord
100
AcDbLayerTableRecord
  2
0-7_金物
 70
     0
 62
     7
  6
Continuous
370
    -3
390
F
347
3E
  0
LAYER
  5
4C
330
2
100
AcDbSymbolTableRecord
100
AcDbLayerTableRecord
  2
0-6_扉
 70
     0
 62
     7
  6
Continuous
370
    -3
390
F
347
3E
  0
LAYER
  5
4D
330
2
100
AcDbSymbolTableRecord
100
AcDbLayerTableRecord
  2
0-1_通り芯
 70
     0
 62
     7
  6
Continuous
370
    -3
390
F
347
3E
  0
LAYER
  5
4E
330
2
100
AcDbSymbolTableRecord
100
AcDbLayerTableRecord
  2
0-3_仕上げ
 70
     0
 62
     7
  6
Continuous
370
    -3
390
F
347
3E
  0
LAYER
  5
4F
330
2
100
AcDbSymbolTableRecord
100
AcDbLayerTableRecord
  2
0-E
 70
     0
 62
     7
  6
Continuous
370
    -3
390
F
347
3E
  0
LAYER
  5
50
330
2
100
AcDbSymbolTableRecord
100
AcDbLayerTableRecord
  2
1-E
 70
     0
 62
     7
  6
Continuous
370
    -3
390
F
347
3E
  0
ENDTAB
  0
TABLE
  2
STYLE
  5
3
330
0
100
AcDbSymbolTable
 70
     1
  0
STYLE
  5
11
330
3
100
AcDbSymbolTableRecord
100
AcDbTextStyleTableRecord
  2
Standard
 70
     0
 40
0.0
 41
1.0
 50
0.0
 71
     0
 42
2.5
  3
txt
  4

  0
ENDTAB
  0
TABLE
  2
VIEW
  5
6
330
0
100
AcDbSymbolTable
 70
     0
  0
ENDTAB
  0
TABLE
  2
UCS
  5
7
330
0
100
AcDbSymbolTable
 70
     0
  0
ENDTAB
  0
TABLE
  2
APPID
  5
9
330
0
100
AcDbSymbolTable
 70
     1
  0
APPID
  5
12
330
9
100
AcDbSymbolTableRecord
100
AcDbRegAppTableRecord
  2
ACAD
 70
     0
  0
ENDTAB
  0
TABLE
  2
DIMSTYLE
  5
A
330
0
100
AcDbSymbolTable
 70
     1
100
AcDbDimStyleTable
  0
DIMSTYLE
105
27
330
A
100
AcDbSymbolTableRecord
100
AcDbDimStyleTableRecord
  2
ISO-25
 70
     0
 41
2.5
 42
0.625
 43
3.75
 44
1.25
 73
     0
 74
     0
 77
     1
 78
     8
140
2.5
141
2.5
143
0.03937007874016
147
0.625
171
     3
172
     1
178
     0
271
     2
272
     2
274
     3
278
    44
283
     0
284
     8
340
11
  0
ENDTAB
  0
TABLE
  2
BLOCK_RECORD
  5
1
330
0
100
AcDbSymbolTable
 70
     2
  0
BLOCK_RECORD
  5
1F
330
1
100
AcDbSymbolTableRecord
100
AcDbBlockTableRecord
  2
*Model_Space
340
22
 70
     0
280
     1
281
     0
  0
BLOCK_RECORD
  5
1B
330
1
100
AcDbSymbolTableRecord
100
AcDbBlockTableRecord
  2
*Paper_Space
340
1E
 70
     0
280
     1
281
     0
  0
BLOCK_RECORD
  5
23
330
1
100
AcDbSymbolTableRecord
100
AcDbBlockTableRecord
  2
*Paper_Space0
340
26
 70
     0
280
     1
281
     0
  0
BLOCK_RECORD
  5
51
330
1
100
AcDbSymbolTableRecord
100
AcDbBlockTableRecord
  2
01@@SfigorgFlag@@4
340
0
102
{BLKREFS
331
2C5
102
}
 70
     0
280
     1
281
     0
  0
ENDTAB
  0
ENDSEC
  0
SECTION
  2
BLOCKS
  0
BLOCK
  5
20
330
1F
100
AcDbEntity
  8
0
100
AcDbBlockBegin
  2
*Model_Space
 70
     0
 10
0.0
 20
0.0
 30
0.0
  3
*Model_Space
  1

  0
ENDBLK
  5
21
330
1F
100
AcDbEntity
  8
0
100
AcDbBlockEnd
  0
BLOCK
  5
1C
330
1B
100
AcDbEntity
 67
     1
  8
0
100
AcDbBlockBegin
  2
*Paper_Space
 70
     0
 10
0.0
 20
0.0
 30
0.0
  3
*Paper_Space
  1

  0
ENDBLK
  5
1D
330
1B
100
AcDbEntity
 67
     1
  8
0
100
AcDbBlockEnd
  0
BLOCK
  5
24
330
23
100
AcDbEntity
  8
0
100
AcDbBlockBegin
  2
*Paper_Space0
 70
     0
 10
0.0
 20
0.0
 30
0.0
  3
*Paper_Space0
  1

  0
ENDBLK
  5
25
330
23
100
AcDbEntity
  8
0
100
AcDbBlockEnd
  0
BLOCK
  5
52
330
51
100
AcDbEntity
  8
0
100
AcDbBlockBegin
  2
01@@SfigorgFlag@@4
 70
     0
 10
0.0
 20
0.0
 30
0.0
  3
01@@SfigorgFlag@@4
  1

  0
LINE
  5
42E
330
51
100
AcDbEntity
  8
0-0_補助線
  6
Continuous
 62
     7
370
     9
100
AcDbLine
 10
-4.25
 20
-1.491025641025665
 30
0.0
 11
-3.25
 21
-1.491025641025665
 31
0.0
  0
LINE
  5
42F
330
51
100
AcDbEntity
  8
0-0_補助線
  6
Continuous
 62
     7
370
     9
100
AcDbLine
 10
-2.75
 20
-1.491025641025665
 30
0.0
 11
-0.1500000000000909
 21
-1.491025641025665
 31
0.0
  0
LINE
  5
430
330
51
100
AcDbEntity
  8
0-0_補助線
  6
Continuous
 62
     7
370
     9
100
AcDbLine
 10
-0.1500000000000909
 20
-1.491025641025665
 30
0.0
 11
0.0
 21
-1.641025641025642
 31
0.0
  0
LINE
  5
431
330
51
100
AcDbEntity
  8
0-0_補助線
  6
Continuous
 62
     7
370
     9
100
AcDbLine
 10
0.0
 20
-1.641025641025642
 30
0.0
 11
0.1500000000000909
 21
-1.491025641025665
 31
0.0
  0
LINE
  5
432
330
51
100
AcDbEntity
  8
0-0_補助線
  6
Continuous
 62
     7
370
     9
100
AcDbLine
 10
0.1500000000000909
 20
-1.491025641025665
 30
0.0
 11
2.75
 21
-1.491025641025665
 31
0.0
  0
LINE
  5
433
330
51
100
AcDbEntity
  8
0-0_補助線
  6
Continuous
 62
     7
370
     9
100
AcDbLine
 10
3.25
 20
-1.491025641025665
 30
0.0
 11
4.25
 21
-1.491025641025665
 31
0.0
  0
LINE
  5
434
330
51
100
AcDbEntity
  8
0-0_補助線
  6
Continuous
 62
     7
370
     9
100
AcDbLine
 10
7.849999999999909
 20
1.408974358974312
 30
0.0
 11
4.849999999999909
 21
1.408974358974312
 31
0.0
  0
LINE
  5
435
330
51
100
AcDbEntity
  8
0-0_補助線
  6
Continuous
 62
     7
370
     9
100
AcDbLine
 10
-4.849999999999909
 20
1.408974358974312
 30
0.0
 11
-7.849999999999909
 21
1.408974358974312
 31
0.0
  0
LINE
  5
436
330
51
100
AcDbEntity
  8
0-0_補助線
  6
Continuous
 62
     7
370
     9
100
AcDbLine
 10
-4.849999999999909
 20
2.008974358974335
 30
0.0
 11
-7.849999999999909
 21
1.70897435897438
 31
0.0
  0
ARC
  5
437
330
51
100
AcDbEntity
  8
0-0_補助線
  6
Continuous
 62
     7
370
     9
100
AcDbCircle
 10
-7.849999999999909
 20
1.558974358974403
 30
0.0
 40
0.15
100
AcDbArc
 50
90.0
 51
270.0
  0
ARC
  5
438
330
51
100
AcDbEntity
  8
0-0_補助線
  6
Continuous
 62
     7
370
     9
100
AcDbCircle
 10
7.849999999999909
 20
1.558974358974403
 30
0.0
 40
0.15
100
AcDbArc
 50
270.0
 51
89.99999999999997
  0
LINE
  5
439
330
51
100
AcDbEntity
  8
0-0_補助線
  6
Continuous
 62
     7
370
     9
100
AcDbLine
 10
7.849999999999909
 20
1.70897435897438
 30
0.0
 11
4.849999999999909
 21
2.008974358974335
 31
0.0
  0
LINE
  5
43A
330
51
100
AcDbEntity
  8
0-0_補助線
  6
Continuous
 62
     7
370
     9
100
AcDbLine
 10
-3.050000000000182
 20
2.008974358974335
 30
0.0
 11
-4.849999999999909
 21
2.008974358974335
 31
0.0
  0
ARC
  5
43B
330
51
100
AcDbEntity
  8
0-0_補助線
  6
Continuous
 62
     7
370
     9
100
AcDbCircle
 10
-3.050000000000182
 20
1.70897435897438
 30
0.0
 40
0.3
100
AcDbArc
 50
0.0
 51
90.0
  0
ARC
  5
43C
330
51
100
AcDbEntity
  8
0-0_補助線
  6
Continuous
 62
     7
370
     9
100
AcDbCircle
 10
-3.050000000000182
 20
1.70897435897438
 30
0.0
 40
0.3
100
AcDbArc
 50
270.0
 51
0.0
  0
ARC
  5
43D
330
51
100
AcDbEntity
  8
0-0_補助線
  6
Continuous
 62
     7
370
     9
100
AcDbCircle
 10
3.050000000000182
 20
1.70897435897438
 30
0.0
 40
0.3
100
AcDbArc
 50
180.0
 51
270.0
  0
LINE
  5
43E
330
51
100
AcDbEntity
  8
0-0_補助線
  6
Continuous
 62
     7
370
     9
100
AcDbLine
 10
3.050000000000182
 20
2.008974358974335
 30
0.0
 11
4.849999999999909
 21
2.008974358974335
 31
0.0
  0
ARC
  5
43F
330
51
100
AcDbEntity
  8
0-0_補助線
  6
Continuous
 62
     7
370
     9
100
AcDbCircle
 10
3.050000000000182
 20
1.70897435897438
 30
0.0
 40
0.3
100
AcDbArc
 50
90.0
 51
180.0
  0
LINE
  5
440
330
51
100
AcDbEntity
  8
0-0_補助線
  6
Continuous
 62
     7
370
     9
100
AcDbLine
 10
4.849999999999909
 20
-1.341025641025688
 30
0.0
 11
4.849999999999909
 21
1.408974358974312
 31
0.0
  0
ARC
  5
441
330
51
100
AcDbEntity
  8
0-0_補助線
  6
Continuous
 62
     7
370
     9
100
AcDbCircle
 10
4.099999999999909
 20
-1.341025641025688
 30
0.0
 40
0.75
100
AcDbArc
 50
270.0
 51
0.0
  0
LINE
  5
442
330
51
100
AcDbEntity
  8
0-0_補助線
  6
Continuous
 62
     7
370
     9
100
AcDbLine
 10
-4.849999999999909
 20
-1.341025641025688
 30
0.0
 11
-4.849999999999909
 21
1.408974358974312
 31
0.0
  0
LINE
  5
443
330
51
100
AcDbEntity
  8
0-0_補助線
  6
Continuous
 62
     7
370
     9
100
AcDbLine
 10
-4.099999999999909
 20
-2.091025641025688
 30
0.0
 11
4.099999999999909
 21
-2.091025641025688
 31
0.0
  0
ARC
  5
444
330
51
100
AcDbEntity
  8
0-0_補助線
  6
Continuous
 62
     7
370
     9
100
AcDbCircle
 10
-4.099999999999909
 20
-1.341025641025688
 30
0.0
 40
0.75
100
AcDbArc
 50
180.0
 51
270.0
  0
LINE
  5
445
330
51
100
AcDbEntity
  8
0-0_補助線
  6
Continuous
 62
     7
370
     9
100
AcDbLine
 10
-4.0
 20
1.408974358974312
 30
0.0
 11
-3.050000000000182
 21
1.408974358974312
 31
0.0
  0
LINE
  5
446
330
51
100
AcDbEntity
  8
0-0_補助線
  6
Continuous
 62
     7
370
     9
100
AcDbLine
 10
-4.25
 20
1.158974358974312
 30
0.0
 11
-4.25
 21
-1.491025641025665
 31
0.0
  0
ARC
  5
447
330
51
100
AcDbEntity
  8
0-0_補助線
  6
Continuous
 62
     7
370
     9
100
AcDbCircle
 10
-4.0
 20
1.158974358974312
 30
0.0
 40
0.25
100
AcDbArc
 50
90.0
 51
180.0
  0
LINE
  5
448
330
51
100
AcDbEntity
  8
0-0_補助線
  6
Continuous
 62
     7
370
     9
100
AcDbLine
 10
4.0
 20
1.408974358974312
 30
0.0
 11
3.050000000000182
 21
1.408974358974312
 31
0.0
  0
LINE
  5
449
330
51
100
AcDbEntity
  8
0-0_補助線
  6
Continuous
 62
     7
370
     9
100
AcDbLine
 10
4.25
 20
1.158974358974312
 30
0.0
 11
4.25
 21
-1.491025641025665
 31
0.0
  0
ARC
  5
44A
330
51
100
AcDbEntity
  8
0-0_補助線
  6
Continuous
 62
     7
370
     9
100
AcDbCircle
 10
4.0
 20
1.158974358974312
 30
0.0
 40
0.25
100
AcDbArc
 50
0.0
 51
90.0
  0
LINE
  5
44B
330
51
100
AcDbEntity
  8
0-0_補助線
  6
Continuous
 62
     7
370
     9
100
AcDbLine
 10
-3.25
 20
-1.091025641025688
 30
0.0
 11
-3.25
 21
-1.491025641025665
 31
0.0
  0
ARC
  5
44C
330
51
100
AcDbEntity
  8
0-0_補助線
  6
Continuous
 62
     7
370
     9
100
AcDbCircle
 10
-3.150000000000091
 20
-1.091025641025688
 30
0.0
 40
0.1
100
AcDbArc
 50
90.0
 51
180.0
  0
LINE
  5
44D
330
51
100
AcDbEntity
  8
0-0_補助線
  6
Continuous
 62
     7
370
     9
100
AcDbLine
 10
-2.849999999999909
 20
-0.991025641025665
 30
0.0
 11
-3.150000000000091
 21
-0.991025641025665
 31
0.0
  0
LINE
  5
44E
330
51
100
AcDbEntity
  8
0-0_補助線
  6
Continuous
 62
     7
370
     9
100
AcDbLine
 10
-2.75
 20
-1.091025641025688
 30
0.0
 11
-2.75
 21
-1.491025641025665
 31
0.0
  0
ARC
  5
44F
330
51
100
AcDbEntity
  8
0-0_補助線
  6
Continuous
 62
     7
370
     9
100
AcDbCircle
 10
-2.849999999999909
 20
-1.091025641025688
 30
0.0
 40
0.1
100
AcDbArc
 50
0.0
 51
90.0
  0
LINE
  5
450
330
51
100
AcDbEntity
  8
0-0_補助線
  6
Continuous
 62
     7
370
     9
100
AcDbLine
 10
2.75
 20
-1.091025641025688
 30
0.0
 11
2.75
 21
-1.491025641025665
 31
0.0
  0
ARC
  5
451
330
51
100
AcDbEntity
  8
0-0_補助線
  6
Continuous
 62
     7
370
     9
100
AcDbCircle
 10
2.849999999999909
 20
-1.091025641025688
 30
0.0
 40
0.1
100
AcDbArc
 50
90.0
 51
180.0
  0
LINE
  5
452
330
51
100
AcDbEntity
  8
0-0_補助線
  6
Continuous
 62
     7
370
     9
100
AcDbLine
 10
3.150000000000091
 20
-0.991025641025665
 30
0.0
 11
2.849999999999909
 21
-0.991025641025665
 31
0.0
  0
LINE
  5
453
330
51
100
AcDbEntity
  8
0-0_補助線
  6
Continuous
 62
     7
370
     9
100
AcDbLine
 10
3.25
 20
-1.091025641025688
 30
0.0
 11
3.25
 21
-1.491025641025665
 31
0.0
  0
ARC
  5
454
330
51
100
AcDbEntity
  8
0-0_補助線
  6
Continuous
 62
     7
370
     9
100
AcDbCircle
 10
3.150000000000091
 20
-1.091025641025688
 30
0.0
 40
0.1
100
AcDbArc
 50
0.0
 51
90.0
  0
ENDBLK
  5
53
330
51
100
AcDbEntity
  8
0
100
AcDbBlockEnd
  0
ENDSEC
  0
SECTION
  2
ENTITIES
  0
MTEXT
  5
54
330
1F
100
AcDbEntity
  8
F-A_文字
  6
Continuous
 62
     7
370
     0
100
AcDbMText
 10
5768.321977672939
 20
-4314.841419020919
 30
0.0
 40
68.58
 41
90.0
 46
0.0
 71
     7
 72
     1
  1
{\fＭＳ ゴシック|b0|i0|c128|p49;）}
 73
     1
 44
1.0
  0
MTEXT
  5
55
330
1F
100
AcDbEntity
  8
F-A_文字
  6
Continuous
 62
     7
370
     0
100
AcDbMText
 10
5548.066114483239
 20
-4314.771967288282
 30
0.0
 40
74.295
 41
195.0
 46
0.0
 71
     7
 72
     1
  1
{\fＭＳ ゴシック|b0|i0|c128|p49;印刷}
 73
     1
 44
1.0
  0
MTEXT
  5
56
330
1F
100
AcDbEntity
  8
F-A_文字
  6
Continuous
 62
     7
370
     0
100
AcDbMText
 10
5393.32938200033
 20
-4314.771967288282
 30
0.0
 40
74.295
 41
97.5
 46
0.0
 71
     7
 72
     1
  1
{\fＭＳ ゴシック|b0|i0|c128|p49;$d}
 73
     1
 44
1.0
  0
MTEXT
  5
57
330
1F
100
AcDbEntity
  8
F-A_文字
  6
Continuous
 62
     7
370
     0
100
AcDbMText
 10
5350.114617405298
 20
-4316.235443869856
 30
0.0
 40
68.58
 41
45.0
 46
0.0
 71
     7
 72
     1
  1
{\fＭＳ ゴシック|b0|i0|c128|p49;,}
 73
     1
 44
1.0
  0
MTEXT
  5
58
330
1F
100
AcDbEntity
  8
F-A_文字
  6
Continuous
 62
     7
370
     0
100
AcDbMText
 10
5238.592649517422
 20
-4314.771967288282
 30
0.0
 40
74.295
 41
97.5
 46
0.0
 71
     7
 72
     1
  1
{\fＭＳ ゴシック|b0|i0|c128|p49;$m}
 73
     1
 44
1.0
  0
MTEXT
  5
59
330
1F
100
AcDbEntity
  8
F-A_文字
  6
Continuous
 62
     7
370
     0
100
AcDbMText
 10
5191.195810375571
 20
-4319.023493567732
 30
0.0
 40
68.58
 41
45.0
 46
0.0
 71
     7
 72
     1
  1
{\fＭＳ ゴシック|b0|i0|c128|p49;,}
 73
     1
 44
1.0
  0
MTEXT
  5
5A
330
1F
100
AcDbEntity
  8
F-A_文字
  6
Continuous
 62
     7
370
     0
100
AcDbMText
 10
5083.855928478601
 20
-4314.771967288282
 30
0.0
 40
74.295
 41
97.5
 46
0.0
 71
     7
 72
     1
  1
{\fＭＳ ゴシック|b0|i0|c128|p49;$y}
 73
     1
 44
1.0
  0
MTEXT
  5
5B
330
1F
100
AcDbEntity
  8
F-A_文字
  6
Continuous
 62
     7
370
     0
100
AcDbMText
 10
4943.952040816226
 20
-4319.023493567732
 30
0.0
 40
68.58
 41
90.0
 46
0.0
 71
     7
 72
     1
  1
{\fＭＳ ゴシック|b0|i0|c128|p49;（}
 73
     1
 44
1.0
  0
MTEXT
  5
5C
330
1F
100
AcDbEntity
  8
F-A_文字
  6
Continuous
 62
     7
370
     0
100
AcDbMText
 10
4439.917891251784
 20
-3887.143854850754
 30
0.0
 40
45.72
 41
240.0
 46
0.0
 71
     7
 72
     1
  1
{\fＭＳ ゴシック|b0|i0|c128|p49;ＤＡＴＥ}
 73
     1
 44
1.0
  0
MTEXT
  5
5D
330
1F
100
AcDbEntity
  8
F-A_文字
  6
Continuous
 62
     7
370
     0
100
AcDbMText
 10
4439.917891251784
 20
-4087.143857410839
 30
0.0
 40
45.72
 41
180.0
 46
0.0
 71
     7
 72
     1
  1
{\fＭＳ ゴシック|b0|i0|c128|p49;ＮＯ．}
 73
     1
 44
1.0
  0
MTEXT
  5
5E
330
1F
100
AcDbEntity
  8
F-A_文字
  6
Continuous
 62
     7
370
     0
100
AcDbMText
 10
2939.917396372139
 20
-3887.142460617774
 30
0.0
 40
45.72
 41
300.0
 46
0.0
 71
     7
 72
     1
  1
{\fＭＳ ゴシック|b0|i0|c128|p49;ＳＣＡＬＥ}
 73
     1
 44
1.0
  0
MTEXT
  5
5F
330
1F
100
AcDbEntity
  8
F-A_文字
  6
Continuous
 62
     7
370
     0
100
AcDbMText
 10
2939.917396372139
 20
-4087.14246317786
 30
0.0
 40
45.72
 41
240.0
 46
0.0
 71
     7
 72
     1
  1
{\fＭＳ ゴシック|b0|i0|c128|p49;ＦＩＬＥ}
 73
     1
 44
1.0
  0
MTEXT
  5
60
330
1F
100
AcDbEntity
  8
F-A_文字
  6
Continuous
 62
     7
370
     0
100
AcDbMText
 10
1604.917396372138
 20
-4164.281754523929
 30
0.0
 40
101.44125
 41
1065.0
 46
0.0
 71
     7
 72
     1
  1
{\fＭＳ ゴシック|b0|i0|c128|p49;ウッドワン・・・}
 73
     1
 44
1.0
  0
MTEXT
  5
61
330
1F
100
AcDbEntity
  8
F-A_文字
  6
Continuous
 62
     7
370
     0
100
AcDbMText
 10
1394.917396372138
 20
-4096.140669266149
 30
0.0
 40
45.72
 41
120.0
 46
0.0
 71
     7
 72
     1
  1
{\fＭＳ ゴシック|b0|i0|c128|p49;株式}
 73
     1
 44
1.0
  0
MTEXT
  5
62
330
1F
100
AcDbEntity
  8
F-A_文字
  6
Continuous
 62
     7
370
     0
100
AcDbMText
 10
1394.917396372138
 20
-4168.140669266187
 30
0.0
 40
45.72
 41
120.0
 46
0.0
 71
     7
 72
     1
  1
{\fＭＳ ゴシック|b0|i0|c128|p49;会社}
 73
     1
 44
1.0
  0
MTEXT
  5
63
330
1F
100
AcDbEntity
  8
F-A_文字
  6
Continuous
 62
     7
370
     0
100
AcDbMText
 10
99.91854284331623
 20
-3887.139820871936
 30
0.0
 40
45.72
 41
180.0
 46
0.0
 71
     7
 72
     1
  1
{\fＭＳ ゴシック|b0|i0|c128|p49;図面名}
 73
     1
 44
1.0
  0
MTEXT
  5
64
330
1F
100
AcDbEntity
  8
0-B_寸法
  6
Continuous
 62
     7
370
     9
100
AcDbMText
 10
4278.667643811958
 20
3554.775383504013
 30
0.0
 40
63.55080000000001
 41
1042.5
 46
0.0
 71
     7
 72
     1
  1
{\fＭＳ ゴシック|b0|i0|c128|p49;上吊軸固定/フリーオープン}
 73
     1
 44
1.0
  0
LINE
  5
65
330
1F
100
AcDbEntity
  8
F-0_補助線
  6
JWW_HOJO
 62
   120
370
     5
100
AcDbLine
 10
-6140.081333436773
 20
-4455.0
 30
0.0
 11
-6140.081333436773
 21
4424.999604096284
 31
0.0
  0
LINE
  5
66
330
1F
100
AcDbEntity
  8
F-0_補助線
  6
JWW_HOJO
 62
   120
370
     5
100
AcDbLine
 10
-6140.081333436773
 20
4424.999604096284
 30
0.0
 11
6159.917676803936
 21
4424.999604096284
 31
0.0
  0
LINE
  5
67
330
1F
100
AcDbEntity
  8
F-0_補助線
  6
JWW_HOJO
 62
   120
370
     5
100
AcDbLine
 10
6159.917676803936
 20
4424.999604096284
 30
0.0
 11
6159.917676803936
 21
-4455.0
 31
0.0
  0
LINE
  5
68
330
1F
100
AcDbEntity
  8
F-0_補助線
  6
JWW_HOJO
 62
   120
370
     5
100
AcDbLine
 10
6159.917676803936
 20
-4455.0
 30
0.0
 11
-6140.081333436773
 21
-4455.0
 31
0.0
  0
LINE
  5
69
330
1F
100
AcDbEntity
  8
F-0_補助線
  6
JWW_HOJO
 62
     7
370
     9
100
AcDbLine
 10
509.9185840832865
 20
-3795.000003092998
 30
0.0
 11
509.9185840832865
 21
-4195.000008247994
 31
0.0
  0
LINE
  5
6A
330
1F
100
AcDbEntity
  8
F-1_枠
  6
Continuous
 62
   200
370
    20
100
AcDbLine
 10
5859.917429364114
 20
4174.999769056166
 30
0.0
 11
5859.917429364114
 21
-4205.000164959882
 31
0.0
  0
LINE
  5
6B
330
1F
100
AcDbEntity
  8
F-1_枠
  6
Continuous
 62
   200
370
    20
100
AcDbLine
 10
-5840.081317971782
 20
4174.999769056166
 30
0.0
 11
-5840.081317971782
 21
-4205.000164959882
 31
0.0
  0
LINE
  5
6C
330
1F
100
AcDbEntity
  8
F-1_枠
  6
Continuous
 62
   200
370
    20
100
AcDbLine
 10
5859.917429364114
 20
-4205.000002577498
 30
0.0
 11
-5840.081085996952
 21
-4205.000002577498
 31
0.0
  0
LINE
  5
6D
330
1F
100
AcDbEntity
  8
F-1_枠
  6
Continuous
 62
   200
370
    20
100
AcDbLine
 10
-5830.081323642279
 20
4174.999769056166
 30
0.0
 11
-5830.081323642279
 21
-4205.000164959882
 31
0.0
  0
LINE
  5
6E
330
1F
100
AcDbEntity
  8
F-1_枠
  6
Continuous
 62
   200
370
    20
100
AcDbLine
 10
-5835.081309208291
 20
4174.999769056166
 30
0.0
 11
-5835.081309208291
 21
-4205.000164959882
 31
0.0
  0
LINE
  5
6F
330
1F
100
AcDbEntity
  8
F-1_枠
  6
Continuous
 62
   200
370
    20
100
AcDbLine
 10
5854.917165428304
 20
4174.999769056166
 30
0.0
 11
5854.917165428304
 21
-4205.000164959882
 31
0.0
  0
LINE
  5
70
330
1F
100
AcDbEntity
  8
F-1_枠
  6
Continuous
 62
   200
370
    20
100
AcDbLine
 10
5849.917643811961
 20
4174.999769056166
 30
0.0
 11
5849.917643811961
 21
-4205.000164959882
 31
0.0
  0
LINE
  5
71
330
1F
100
AcDbEntity
  8
F-1_枠
  6
Continuous
 62
   200
370
    20
100
AcDbLine
 10
5859.917429364114
 20
-4199.999993814004
 30
0.0
 11
-5840.081085996952
 21
-4199.999993814004
 31
0.0
  0
LINE
  5
72
330
1F
100
AcDbEntity
  8
F-1_枠
  6
Continuous
 62
   200
370
    20
100
AcDbLine
 10
5859.917429364114
 20
-4195.000008247994
 30
0.0
 11
-5840.081085996952
 21
-4195.000008247994
 31
0.0
  0
LINE
  5
73
330
1F
100
AcDbEntity
  8
F-1_枠
  6
Continuous
 62
   200
370
    20
100
AcDbLine
 10
4349.917891251784
 20
-3795.000003092998
 30
0.0
 11
4349.917891251784
 21
-4195.000008247994
 31
0.0
  0
LINE
  5
74
330
1F
100
AcDbEntity
  8
F-1_枠
  6
Continuous
 62
   200
370
    20
100
AcDbLine
 10
2849.917396372139
 20
-3795.000003092998
 30
0.0
 11
2849.917396372139
 21
-4195.000008247994
 31
0.0
  0
LINE
  5
75
330
1F
100
AcDbEntity
  8
F-1_枠
  6
Continuous
 62
   200
370
    20
100
AcDbLine
 10
9.918542843316231
 20
-3795.000003092998
 30
0.0
 11
9.918542843316231
 21
-4195.000008247994
 31
0.0
  0
LINE
  5
76
330
1F
100
AcDbEntity
  8
F-1_枠
  6
Continuous
 62
   200
370
    20
100
AcDbLine
 10
9.918542843316231
 20
-3994.999936078046
 30
0.0
 11
5849.917643811961
 21
-3995.005364289155
 31
0.0
  0
LINE
  5
77
330
1F
100
AcDbEntity
  8
F-1_枠
  6
Continuous
 62
   200
370
    20
100
AcDbLine
 10
-5840.081085996952
 20
4174.999769056166
 30
0.0
 11
5859.917429364114
 21
4174.999769056166
 31
0.0
  0
LINE
  5
78
330
1F
100
AcDbEntity
  8
F-1_枠
  6
Continuous
 62
   200
370
    20
100
AcDbLine
 10
-5840.081085996952
 20
4164.999983504013
 30
0.0
 11
5859.917429364114
 21
4164.999983504013
 31
0.0
  0
LINE
  5
79
330
1F
100
AcDbEntity
  8
F-1_枠
  6
Continuous
 62
   200
370
    20
100
AcDbLine
 10
-5840.081085996952
 20
4169.999505120355
 30
0.0
 11
5859.917429364114
 21
4169.999505120355
 31
0.0
  0
LINE
  5
7A
330
1F
100
AcDbEntity
  8
F-0_補助線
  6
JWW_HOJO
 62
     7
370
     9
100
AcDbLine
 10
-5830.081323642279
 20
-3994.99993607839
 30
0.0
 11
9.918542843316231
 21
-3994.99993607839
 31
0.0
  0
LINE
  5
7B
330
1F
100
AcDbEntity
  8
F-0_補助線
  6
JWW_HOJO
 62
     7
370
     9
100
AcDbLine
 10
-5830.081323642279
 20
-3904.99993607839
 30
0.0
 11
9.918542843316231
 21
-3904.99993607839
 31
0.0
  0
LINE
  5
7C
330
1F
100
AcDbEntity
  8
F-0_補助線
  6
JWW_HOJO
 62
     7
370
     9
100
AcDbLine
 10
-5830.081323642279
 20
-4084.99993607839
 30
0.0
 11
9.918542843316231
 21
-4084.99993607839
 31
0.0
  0
LINE
  5
7D
330
1F
100
AcDbEntity
  8
F-0_補助線
  6
JWW_HOJO
 62
     7
370
     9
100
AcDbLine
 10
9.918408067688347
 20
-4139.999739777983
 30
0.0
 11
5849.917509036332
 21
-4140.005167989091
 31
0.0
  0
LINE
  5
7E
330
1F
100
AcDbEntity
  8
F-0_補助線
  6
JWW_HOJO
 62
     7
370
     9
100
AcDbLine
 10
9.918491721639953
 20
-4049.999739778022
 30
0.0
 11
5849.917592690284
 21
-4050.005167989131
 31
0.0
  0
LINE
  5
7F
330
1F
100
AcDbEntity
  8
F-0_補助線
  6
JWW_HOJO
 62
     7
370
     9
100
AcDbLine
 10
9.918593965360003
 20
-3939.99973721807
 30
0.0
 11
5849.917694934004
 21
-3940.005165429179
 31
0.0
  0
LINE
  5
80
330
1F
100
AcDbEntity
  8
F-0_補助線
  6
JWW_HOJO
 62
     7
370
     9
100
AcDbLine
 10
9.918677619311609
 20
-3849.999737218109
 30
0.0
 11
5849.917778587956
 21
-3850.005165429218
 31
0.0
  0
LINE
  5
81
330
1F
100
AcDbEntity
  8
F-0_補助線
  6
JWW_HOJO
 62
     7
370
     9
100
AcDbLine
 10
2939.917396372139
 20
-3795.000003092998
 30
0.0
 11
2939.917396372139
 21
-4195.000008247994
 31
0.0
  0
LINE
  5
82
330
1F
100
AcDbEntity
  8
F-0_補助線
  6
JWW_HOJO
 62
     7
370
     9
100
AcDbLine
 10
99.91854284331623
 20
-3795.000003092998
 30
0.0
 11
99.91854284331623
 21
-4195.000008247994
 31
0.0
  0
LINE
  5
83
330
1F
100
AcDbEntity
  8
F-0_補助線
  6
JWW_HOJO
 62
     7
370
     9
100
AcDbLine
 10
4439.917891251784
 20
-3795.000003092998
 30
0.0
 11
4439.917891251784
 21
-4195.000008247994
 31
0.0
  0
LINE
  5
84
330
1F
100
AcDbEntity
  8
F-1_枠
  6
Continuous
 62
   200
370
    20
100
AcDbLine
 10
5859.917429364114
 20
-3795.000003092998
 30
0.0
 11
-5840.081085996952
 21
-3795.000003092998
 31
0.0
  0
LINE
  5
85
330
1F
100
AcDbEntity
  8
F-1_枠
  6
Continuous
 62
   200
370
    20
100
AcDbLine
 10
5859.917429364114
 20
-3790.000017526987
 30
0.0
 11
-5840.081085996952
 21
-3790.000017526987
 31
0.0
  0
LINE
  5
86
330
1F
100
AcDbEntity
  8
F-0_補助線
  6
JWW_HOJO
 62
     7
370
     9
100
AcDbLine
 10
-5087.628710189611
 20
-3795.000003092999
 30
0.0
 11
-5087.628710189611
 21
-4205.000164959882
 31
0.0
  0
LINE
  5
87
330
1F
100
AcDbEntity
  8
F-0_補助線
  6
JWW_HOJO
 62
     7
370
     9
100
AcDbLine
 10
-50.08145715668377
 20
-3795.000003092998
 30
0.0
 11
-50.08145715668377
 21
-4195.000008247994
 31
0.0
  0
LINE
  5
88
330
1F
100
AcDbEntity
  8
0-B_寸法
  6
Continuous
 62
    40
370
    15
100
AcDbLine
 10
5159.917643811958
 20
3385.504011182749
 30
0.0
 11
5066.74278757505
 21
3037.770713718684
 31
0.0
  0
LINE
  5
89
330
1F
100
AcDbEntity
  8
0-B_寸法
  6
Continuous
 62
    40
370
    15
100
AcDbLine
 10
4973.567931338142
 20
3385.504011182749
 30
0.0
 11
5066.74278757505
 21
3037.770713718684
 31
0.0
  0
LINE
  5
8A
330
1F
100
AcDbEntity
  8
0-B_寸法
  6
JWW_DASHED2
 62
     7
370
     9
100
AcDbLine
 10
5159.917643811958
 20
3385.504011182749
 30
0.0
 11
4439.917643811958
 21
3385.504011182749
 31
0.0
  0
LINE
  5
8B
330
1F
100
AcDbEntity
  8
0-B_寸法
  6
Continuous
 62
    40
370
    15
100
AcDbLine
 10
5159.917643811958
 20
3439.504011182748
 30
0.0
 11
5159.917643811958
 21
3385.504011182749
 31
0.0
  0
LINE
  5
8C
330
1F
100
AcDbEntity
  8
0-B_寸法
  6
Continuous
 62
    40
370
    15
100
AcDbLine
 10
5159.917643811958
 20
3439.504011182748
 30
0.0
 11
5339.917643811958
 21
3439.504011182748
 31
0.0
  0
LINE
  5
8D
330
1F
100
AcDbEntity
  8
0-B_寸法
  6
Continuous
 62
    40
370
    15
100
AcDbLine
 10
5159.917643811958
 20
3385.504011182749
 30
0.0
 11
5339.917643811958
 21
3385.504011182749
 31
0.0
  0
LINE
  5
8E
330
1F
100
AcDbEntity
  8
0-B_寸法
  6
Continuous
 62
    40
370
    15
100
AcDbLine
 10
4439.917643811958
 20
3439.504011182748
 30
0.0
 11
4439.917643811958
 21
3385.504011182749
 31
0.0
  0
LINE
  5
8F
330
1F
100
AcDbEntity
  8
0-B_寸法
  6
Continuous
 62
    40
370
    15
100
AcDbLine
 10
4439.917643811958
 20
3439.504011182748
 30
0.0
 11
4259.917643811958
 21
3439.504011182748
 31
0.0
  0
LINE
  5
90
330
1F
100
AcDbEntity
  8
0-B_寸法
  6
Continuous
 62
    40
370
    15
100
AcDbLine
 10
4439.917643811958
 20
3385.504011182749
 30
0.0
 11
4259.917643811958
 21
3385.504011182749
 31
0.0
  0
ELLIPSE
  5
91
330
1F
100
AcDbEntity
  8
0-B_寸法
  6
Continuous
 62
    92
370
    13
100
AcDbEllipse
 10
4855.430917458074
 20
2876.053590301512
 30
0.0
 11
11.36181697857171
 21
42.40287823032828
 31
0.0
210
0.0
220
0.0
230
0.9999999999999999
 40
0.6
 41
1.570796326794897
 42
4.71238898038469
  0
LINE
  5
92
330
1F
100
AcDbEntity
  8
0-B_寸法
  6
Continuous
 62
    92
370
    13
100
AcDbLine
 10
4880.872644396269
 20
2869.236500114368
 30
0.0
 11
4829.989190519878
 21
2882.870680488653
 31
0.0
  0
LINE
  5
93
330
1F
100
AcDbEntity
  8
0-B_寸法
  6
Continuous
 62
    92
370
    13
100
AcDbLine
 10
4884.133764364557
 20
2881.40716552561
 30
0.0
 11
4833.250310488166
 21
2895.041345899896
 31
0.0
  0
ELLIPSE
  5
94
330
1F
100
AcDbEntity
  8
0-B_寸法
  6
Continuous
 62
    92
370
    13
100
AcDbEllipse
 10
4879.604310755754
 20
2966.269922279796
 30
0.0
 11
21.86569797210526
 21
81.6038957748525
 31
0.0
210
0.0
220
0.0
230
1.0
 40
0.5
 41
4.340591432030095
 42
8.225779182329084
  0
ELLIPSE
  5
95
330
1F
100
AcDbEntity
  8
0-B_寸法
  6
Continuous
 62
    92
370
    13
100
AcDbEllipse
 10
4878.978687882651
 20
2963.935065931004
 30
0.0
 11
26.49533313827761
 21
98.88192943551533
 31
0.0
210
0.0
220
0.0
230
0.9999999999999999
 40
0.4
 41
3.840308517104466
 42
4.432552034522944
  0
ELLIPSE
  5
96
330
1F
100
AcDbEntity
  8
0-B_寸法
  6
Continuous
 62
    92
370
    13
100
AcDbEllipse
 10
4878.978687882651
 20
2963.935065931004
 30
0.0
 11
26.49533313827761
 21
98.88192943551533
 31
0.0
210
0.0
220
0.0
230
0.9999999999999999
 40
0.4
 41
1.850633272656679
 42
2.442876790075129
  0
ELLIPSE
  5
97
330
1F
100
AcDbEntity
  8
0-B_寸法
  6
Continuous
 62
    92
370
    13
100
AcDbEllipse
 10
4740.316707711373
 20
2838.28484693721
 30
0.0
 11
-7.622927487939132
 21
43.23177007461331
 31
0.0
210
0.0
220
0.0
230
1.0
 40
0.6000000000000001
 41
1.570796326794897
 42
4.71238898038469
  0
LINE
  5
98
330
1F
100
AcDbEntity
  8
0-B_寸法
  6
Continuous
 62
    92
370
    13
100
AcDbLine
 10
4766.255769756141
 20
2842.858603429974
 30
0.0
 11
4714.377645666606
 21
2833.711090444447
 31
0.0
  0
LINE
  5
99
330
1F
100
AcDbEntity
  8
0-B_寸法
  6
Continuous
 62
    92
370
    13
100
AcDbLine
 10
4764.067802717537
 20
2855.267181117928
 30
0.0
 11
4712.189678628002
 21
2846.1196681324
 31
0.0
  0
ELLIPSE
  5
9A
330
1F
100
AcDbEntity
  8
0-B_寸法
  6
Continuous
 62
    92
370
    13
100
AcDbEllipse
 10
4724.098172894873
 20
2930.264728582853
 30
0.0
 11
-14.67024424252691
 21
83.19908946199426
 31
0.0
210
0.0
220
0.0
230
1.0
 40
0.5
 41
4.340591432030095
 42
8.225779182329084
  0
ELLIPSE
  5
9B
330
1F
100
AcDbEntity
  8
0-B_寸法
  6
Continuous
 62
    92
370
    13
100
AcDbEllipse
 10
4724.517918944772
 20
2927.884230441197
 30
0.0
 11
-17.7763823922528
 21
100.8148742797557
 31
0.0
210
0.0
220
0.0
230
1.0
 40
0.4000000000000001
 41
3.840308517104466
 42
4.432552034522944
  0
ELLIPSE
  5
9C
330
1F
100
AcDbEntity
  8
0-B_寸法
  6
Continuous
 62
    92
370
    13
100
AcDbEllipse
 10
4724.517918944772
 20
2927.884230441197
 30
0.0
 11
-17.7763823922528
 21
100.8148742797557
 31
0.0
210
0.0
220
0.0
230
1.0
 40
0.4000000000000001
 41
1.850633272656679
 42
2.442876790075129
  0
LINE
  5
9D
330
1F
100
AcDbEntity
  8
0-B_寸法
  6
Continuous
 62
    92
370
    13
100
AcDbLine
 10
5369.917643811958
 20
3684.999983504013
 30
0.0
 11
5369.917643811958
 21
2718.999983504013
 31
0.0
  0
LINE
  5
9E
330
1F
100
AcDbEntity
  8
0-B_寸法
  6
Continuous
 62
    92
370
    13
100
AcDbLine
 10
5369.917643811958
 20
2718.999983504013
 30
0.0
 11
4229.917643811958
 21
2718.999983504013
 31
0.0
  0
LINE
  5
9F
330
1F
100
AcDbEntity
  8
0-B_寸法
  6
Continuous
 62
    92
370
    13
100
AcDbLine
 10
4229.917643811958
 20
3684.999983504013
 30
0.0
 11
4229.917643811958
 21
2718.999983504013
 31
0.0
  0
LINE
  5
A0
330
1F
100
AcDbEntity
  8
0-B_寸法
  6
JWW_HOJO
 62
   120
370
     5
100
AcDbLine
 10
5339.917643811958
 20
3684.999983504013
 30
0.0
 11
5339.917643811958
 21
2718.999983504013
 31
0.0
  0
LINE
  5
A1
330
1F
100
AcDbEntity
  8
0-B_寸法
  6
JWW_HOJO
 62
   120
370
     5
100
AcDbLine
 10
4259.917643811958
 20
3684.999983504013
 30
0.0
 11
4259.917643811958
 21
2718.999983504013
 31
0.0
  0
LINE
  5
A2
330
1F
100
AcDbEntity
  8
0-B_寸法
  6
JWW_HOJO
 62
   120
370
     5
100
AcDbLine
 10
4799.917643811958
 20
3684.999983504013
 30
0.0
 11
4799.917643811958
 21
2718.999983504013
 31
0.0
  0
LINE
  5
A3
330
1F
100
AcDbEntity
  8
0-B_寸法
  6
Continuous
 62
    92
370
    13
100
AcDbLine
 10
5369.917643811958
 20
3540.999983504012
 30
0.0
 11
4229.917643811958
 21
3540.999983504012
 31
0.0
  0
LINE
  5
A4
330
1F
100
AcDbEntity
  8
0-B_寸法
  6
Continuous
 62
    92
370
    13
100
AcDbLine
 10
5369.917643811958
 20
3684.999983504013
 30
0.0
 11
4229.917643811958
 21
3684.999983504013
 31
0.0
  0
LINE
  5
A5
330
1F
100
AcDbEntity
  8
F-0_補助線
  6
JWW_HOJO
 62
     7
370
     9
100
AcDbLine
 10
3764.917643811961
 20
-3795.000003092998
 30
0.0
 11
3764.917643811961
 21
-4195.000008247994
 31
0.0
  0
MTEXT
  5
A6
330
1F
100
AcDbEntity
  8
0-A_文字
  6
Continuous
 62
     7
370
     9
100
AcDbMText
 10
-3620.690016072262
 20
3322.21360232394
 30
0.0
 40
100.584
 41
660.0
 46
0.0
 71
     7
 72
     1
  1
{\fＭＳ ゴシック|b0|i0|c128|p49;■横断面図}
 73
     1
 44
1.0
  0
MTEXT
  5
A7
330
1F
100
AcDbEntity
  8
0-A_文字
  6
Continuous
 62
     7
370
     9
100
AcDbMText
 10
-940.2913486665102
 20
931.6903738695657
 30
0.0
 40
79.49045454545455
 41
2295.0
 46
0.0
 71
     7
 72
     1
  1
{\fＭＳ ゴシック|b0|i0|c128|p49;※有効開口寸法にはハンドルの突出は含まない。}
 73
     1
 44
1.0
  0
MTEXT
  5
A8
330
1F
100
AcDbEntity
  8
0-A_文字
  6
Continuous
 62
     7
370
     9
100
AcDbMText
 10
-1465.291348666509
 20
826.7384799301717
 30
0.0
 40
79.58666666666657
 41
2819.999999999996
 46
0.0
 71
     7
 72
     1
  1
{\fＭＳ ゴシック|b0|i0|c128|p49;※有効開口寸法は扉の厚さや調整によって若干異なります。}
 73
     1
 44
1.0
  0
MTEXT
  5
A9
330
1F
100
AcDbEntity
  8
0-B_寸法
  6
Continuous
 62
     7
370
   211
100
AcDbMText
 10
-1177.290420767179
 20
3142.665146596842
 30
0.0
 40
91.43999999999997
 41
660.0
 46
0.0
 71
     7
 72
     1
  1
{\fＭＳ ゴシック|b0|i0|c128|p49;ＲＯＷ＝744}
 73
     1
 44
1.0
  0
MTEXT
  5
AA
330
1F
100
AcDbEntity
  8
0-B_寸法
  6
Continuous
 62
     7
370
     9
100
AcDbMText
 10
-2844.210914917473
 20
2311.828631193714
 30
0.0
 40
91.44
 41
180.0
 46
0.0
 71
     7
 72
     1
  1
{\fＭＳ ゴシック|b0|i0|c128|p49;2.5}
 73
     1
 44
1.0
  0
MTEXT
  5
AB
330
1F
100
AcDbEntity
  8
0-B_寸法
  6
Continuous
 62
     7
370
     0
100
AcDbMText
 10
-1883.329172599183
 20
2291.415017928133
 30
0.0
 40
91.44
 41
120.0
 46
0.0
 71
     7
 72
     1
  1
{\fＭＳ ゴシック|b0|i0|c128|p49;27}
 11
6.123031769111886E-17
 21
1.0
 31
0.0
 73
     1
 44
1.0
  0
MTEXT
  5
AC
330
1F
100
AcDbEntity
  8
0-B_寸法
  6
Continuous
 62
     7
370
     9
100
AcDbMText
 10
-2425.09021919662
 20
2287.87476317252
 30
0.0
 40
91.44
 41
120.0
 46
0.0
 71
     7
 72
     1
  1
{\fＭＳ ゴシック|b0|i0|c128|p49;92}
 11
6.123031769111886E-17
 21
1.0
 31
0.0
 73
     1
 44
1.0
  0
MTEXT
  5
AD
330
1F
100
AcDbEntity
  8
0-B_寸法
  6
Continuous
 62
     7
370
     0
100
AcDbMText
 10
-1721.037227597678
 20
2231.415017928132
 30
0.0
 40
91.44
 41
240.0
 46
0.0
 71
     7
 72
     1
  1
{\fＭＳ ゴシック|b0|i0|c128|p49;(24)}
 11
6.123031769111886E-17
 21
1.0
 31
0.0
 73
     1
 44
1.0
  0
MTEXT
  5
AE
330
1F
100
AcDbEntity
  8
0-B_寸法
  6
Continuous
 62
     7
370
   211
100
AcDbMText
 10
-2122.290383651211
 20
1627.665146596838
 30
0.0
 40
91.43999999999998
 41
540.0
 46
0.0
 71
     7
 72
     1
  1
{\fＭＳ ゴシック|b0|i0|c128|p49;ＤＷ＝334}
 73
     1
 44
1.0
  0
MTEXT
  5
AF
330
1F
100
AcDbEntity
  8
0-B_寸法
  6
Continuous
 62
     7
370
     0
100
AcDbMText
 10
-1297.290383651209
 20
1460.654699778651
 30
0.0
 40
91.43999999999998
 41
900.0
 46
0.0
 71
     7
 72
     1
  1
{\fＭＳ ゴシック|b0|i0|c128|p49;折戸：ＤＷ＝669}
 73
     1
 44
1.0
  0
MTEXT
  5
B0
330
1F
100
AcDbEntity
  8
0-B_寸法
  6
Continuous
 62
     7
370
     0
100
AcDbMText
 10
-3019.290544487094
 20
1267.665196084803
 30
0.0
 40
91.44
 41
120.0
 46
0.0
 71
     7
 72
     1
  1
{\fＭＳ ゴシック|b0|i0|c128|p49;30}
 73
     1
 44
1.0
  0
MTEXT
  5
B1
330
1F
100
AcDbEntity
  8
0-B_寸法
  6
Continuous
 62
     7
370
     0
100
AcDbMText
 10
-1117.290383651207
 20
1267.665196084803
 30
0.0
 40
91.43999999999998
 41
540.0
 46
0.0
 71
     7
 72
     1
  1
{\fＭＳ ゴシック|b0|i0|c128|p49;枠内＝674}
 73
     1
 44
1.0
  0
MTEXT
  5
B2
330
1F
100
AcDbEntity
  8
0-B_寸法
  6
Continuous
 62
     7
370
     0
100
AcDbMText
 10
-1117.290383651207
 20
1087.665196084804
 30
0.0
 40
91.43999999999998
 41
540.0
 46
0.0
 71
     7
 72
     1
  1
{\fＭＳ ゴシック|b0|i0|c128|p49;枠外＝734}
 73
     1
 44
1.0
  0
MTEXT
  5
B3
330
1F
100
AcDbEntity
  8
0-B_寸法
  6
Continuous
 62
     7
370
   211
100
AcDbMText
 10
-3034.290383651213
 20
1087.665146596838
 30
0.0
 40
91.44
 41
60.0
 46
0.0
 71
     7
 72
     1
  1
{\fＭＳ ゴシック|b0|i0|c128|p49;5}
 73
     1
 44
1.0
  0
LINE
  5
B4
330
1F
100
AcDbEntity
  8
0-B_寸法
  6
Continuous
 62
   120
370
     5
100
AcDbLine
 10
-2869.290383651208
 20
2961.94514659684
 30
0.0
 11
-2869.290383651208
 21
2781.94514659684
 31
0.0
  0
LWPOLYLINE
  5
B5
330
1F
100
AcDbEntity
  8
0-B_寸法
  6
Continuous
 62
     7
370
     9
100
AcDbPolyline
 90
        4
 70
     1
 43
3.0
 10
-2867.790383651208
 20
2961.94514659684
 42
0.4142135623731
 10
-2869.290383651208
 20
2963.445146596839
 42
0.4142135623731
 10
-2870.790383651208
 20
2961.94514659684
 42
0.4142135623731
 10
-2869.290383651208
 20
2960.44514659684
 42
0.4142135623731
  0
LINE
  5
B6
330
1F
100
AcDbEntity
  8
0-B_寸法
  6
Continuous
 62
   120
370
     5
100
AcDbLine
 10
-850.2903836512058
 20
1626.945146596838
 30
0.0
 11
-850.2903836512058
 21
1806.945146596838
 31
0.0
  0
LWPOLYLINE
  5
B7
330
1F
100
AcDbEntity
  8
0-B_寸法
  6
Continuous
 62
     7
370
     9
100
AcDbPolyline
 90
        4
 70
     1
 43
3.0
 10
-848.7903836512058
 20
1626.945146596838
 42
0.4142135623731
 10
-850.2903836512058
 20
1628.445146596838
 42
0.4142135623731
 10
-851.7903836512058
 20
1626.945146596838
 42
0.4142135623731
 10
-850.2903836512058
 20
1625.445146596839
 42
0.4142135623731
  0
LWPOLYLINE
  5
B8
330
1F
100
AcDbEntity
  8
0-B_寸法
  6
Continuous
 62
     7
370
     9
100
AcDbPolyline
 90
        4
 70
     1
 43
3.0
 10
-2852.790383651208
 20
1626.945146596838
 42
0.4142135623731
 10
-2854.290383651208
 20
1628.445146596838
 42
0.4142135623731
 10
-2855.790383651208
 20
1626.945146596838
 42
0.4142135623731
 10
-2854.290383651208
 20
1625.445146596839
 42
0.4142135623731
  0
LINE
  5
B9
330
1F
100
AcDbEntity
  8
0-B_寸法
  6
Continuous
 62
   120
370
     5
100
AcDbLine
 10
-2854.290383651208
 20
1626.945146596838
 30
0.0
 11
-850.2903836512058
 21
1626.945146596838
 31
0.0
  0
LINE
  5
BA
330
1F
100
AcDbEntity
  8
0-B_寸法
  6
Continuous
 62
   120
370
     5
100
AcDbLine
 10
-2869.290433139177
 20
1806.945146596838
 30
0.0
 11
-2869.290433139177
 21
1266.945146596838
 31
0.0
  0
LINE
  5
BB
330
1F
100
AcDbEntity
  8
0-B_寸法
  6
Continuous
 62
   120
370
     5
100
AcDbLine
 10
-2854.290383651208
 20
1446.945146596838
 30
0.0
 11
-2854.290383651208
 21
1806.945146596838
 31
0.0
  0
LINE
  5
BC
330
1F
100
AcDbEntity
  8
0-B_寸法
  6
Continuous
 62
   120
370
     5
100
AcDbLine
 10
-3049.290655835014
 20
1806.945146596838
 30
0.0
 11
-3049.290655835014
 21
1086.945146596838
 31
0.0
  0
LWPOLYLINE
  5
BD
330
1F
100
AcDbEntity
  8
0-B_寸法
  6
Continuous
 62
     7
370
     9
100
AcDbPolyline
 90
        4
 70
     1
 43
3.0
 10
-3047.790655835014
 20
1266.945146596838
 42
0.4142135623731
 10
-3049.290655835014
 20
1268.445146596838
 42
0.4142135623731
 10
-3050.790655835014
 20
1266.945146596838
 42
0.4142135623731
 10
-3049.290655835014
 20
1265.445146596839
 42
0.4142135623731
  0
LWPOLYLINE
  5
BE
330
1F
100
AcDbEntity
  8
0-B_寸法
  6
Continuous
 62
     7
370
     9
100
AcDbPolyline
 90
        4
 70
     1
 43
3.0
 10
-2867.790433139177
 20
1266.945146596838
 42
0.4142135623731
 10
-2869.290433139177
 20
1268.445146596838
 42
0.4142135623731
 10
-2870.790433139177
 20
1266.945146596838
 42
0.4142135623731
 10
-2869.290433139177
 20
1265.445146596839
 42
0.4142135623731
  0
LWPOLYLINE
  5
BF
330
1F
100
AcDbEntity
  8
0-B_寸法
  6
Continuous
 62
     7
370
     9
100
AcDbPolyline
 90
        4
 70
     1
 43
3.0
 10
-3047.790655835014
 20
1086.945146596838
 42
0.4142135623731
 10
-3049.290655835014
 20
1088.445146596838
 42
0.4142135623731
 10
-3050.790655835014
 20
1086.945146596838
 42
0.4142135623731
 10
-3049.290655835014
 20
1085.445146596839
 42
0.4142135623731
  0
LWPOLYLINE
  5
C0
330
1F
100
AcDbEntity
  8
0-B_寸法
  6
Continuous
 62
     7
370
     9
100
AcDbPolyline
 90
        4
 70
     1
 43
3.0
 10
-2852.790383651208
 20
1446.945146596838
 42
0.4142135623731
 10
-2854.290383651208
 20
1448.445146596838
 42
0.4142135623731
 10
-2855.790383651208
 20
1446.945146596838
 42
0.4142135623731
 10
-2854.290383651208
 20
1445.445146596839
 42
0.4142135623731
  0
LINE
  5
C1
330
1F
100
AcDbEntity
  8
0-0_補助線
  6
JWW_HOJO
 62
     7
370
     9
100
AcDbLine
 10
-847.2903836512086
 20
906.9451465968384
 30
0.0
 11
-847.2903836512086
 21
3141.945146596837
 31
0.0
  0
LINE
  5
C2
330
1F
100
AcDbEntity
  8
0-0_補助線
  6
JWW_HOJO
 62
     7
370
     9
100
AcDbLine
 10
-2834.791651772583
 20
906.9451465968384
 30
0.0
 11
-2834.791651772583
 21
3141.945146596837
 31
0.0
  0
LINE
  5
C3
330
1F
100
AcDbEntity
  8
0-0_補助線
  6
JWW_HOJO
 62
   120
370
     5
100
AcDbLine
 10
-3619.290185699352
 20
1086.945146596838
 30
0.0
 11
-3619.290185699352
 21
2961.945146596842
 31
0.0
  0
LINE
  5
C4
330
1F
100
AcDbEntity
  8
0-C_ハッチ
  6
Continuous
 62
   120
370
     5
100
AcDbLine
 10
-3049.290606347052
 20
2206.621849972578
 30
0.0
 11
-2983.290383651206
 21
2140.621994673312
 31
0.0
  0
LINE
  5
C5
330
1F
100
AcDbEntity
  8
0-4_枠
  6
Continuous
 62
    92
370
    13
100
AcDbLine
 10
-2929.290383651208
 20
2145.94594335307
 30
0.0
 11
-2929.290383651208
 21
2085.94594335307
 31
0.0
  0
LINE
  5
C6
330
1F
100
AcDbEntity
  8
0-4_枠
  6
Continuous
 62
    92
370
    13
100
AcDbLine
 10
-2929.290383651208
 20
2145.94594335307
 30
0.0
 11
-2983.290383651206
 21
2145.94594335307
 31
0.0
  0
LINE
  5
C7
330
1F
100
AcDbEntity
  8
0-4_枠
  6
Continuous
 62
    92
370
    13
100
AcDbLine
 10
-2983.290383651206
 20
2145.94594335307
 30
0.0
 11
-2983.290383651206
 21
2085.94594335307
 31
0.0
  0
LINE
  5
C8
330
1F
100
AcDbEntity
  8
0-C_ハッチ
  6
Continuous
 62
   120
370
     5
100
AcDbLine
 10
-3049.290383651208
 20
2588.278201642294
 30
0.0
 11
-3047.623493133427
 21
2589.945092160075
 31
0.0
  0
LINE
  5
C9
330
1F
100
AcDbEntity
  8
0-7_金物
  6
Continuous
 62
     7
370
     9
100
AcDbLine
 10
-3067.290046050492
 20
2271.944843328407
 30
0.0
 11
-3067.290046050492
 21
2451.944705999304
 31
0.0
  0
LINE
  5
CA
330
1F
100
AcDbEntity
  8
0-7_金物
  6
Continuous
 62
     7
370
     9
100
AcDbLine
 10
-3079.290383651201
 20
2451.944705999304
 30
0.0
 11
-3067.290046050492
 21
2451.944705999304
 31
0.0
  0
LINE
  5
CB
330
1F
100
AcDbEntity
  8
0-7_金物
  6
Continuous
 62
     7
370
     9
100
AcDbLine
 10
-3079.290383651201
 20
2271.944843328407
 30
0.0
 11
-3067.290046050492
 21
2271.944843328407
 31
0.0
  0
LINE
  5
CC
330
1F
100
AcDbEntity
  8
0-7_金物
  6
Continuous
 62
     7
370
     9
100
AcDbLine
 10
-3079.290383651201
 20
2271.944843328407
 30
0.0
 11
-3079.290383651201
 21
2451.944705999304
 31
0.0
  0
LINE
  5
CD
330
1F
100
AcDbEntity
  8
0-7_金物
  6
Continuous
 62
     7
370
     9
100
AcDbLine
 10
-3067.290046050492
 20
2301.944946325234
 30
0.0
 11
-3055.290452315749
 21
2301.944946325234
 31
0.0
  0
LINE
  5
CE
330
1F
100
AcDbEntity
  8
0-7_金物
  6
Continuous
 62
     7
370
     9
100
AcDbLine
 10
-3067.290046050492
 20
2421.944603002481
 30
0.0
 11
-3055.290452315749
 21
2421.944603002481
 31
0.0
  0
LINE
  5
CF
330
1F
100
AcDbEntity
  8
0-7_金物
  6
Continuous
 62
     7
370
     9
100
AcDbLine
 10
-3055.290452315749
 20
2301.944946325234
 30
0.0
 11
-3055.290452315749
 21
2421.944603002481
 31
0.0
  0
LINE
  5
D0
330
1F
100
AcDbEntity
  8
0-7_金物
  6
Continuous
 62
     7
370
     9
100
AcDbLine
 10
-3055.290452315749
 20
2307.945112264566
 30
0.0
 11
-3049.290383651208
 21
2307.945112264566
 31
0.0
  0
LINE
  5
D1
330
1F
100
AcDbEntity
  8
0-7_金物
  6
Continuous
 62
     7
370
     9
100
AcDbLine
 10
-3049.290383651208
 20
2415.945180929116
 30
0.0
 11
-3055.290452315749
 21
2415.945180929116
 31
0.0
  0
LINE
  5
D2
330
1F
100
AcDbEntity
  8
0-4_枠
  6
Continuous
 62
    92
370
    13
100
AcDbLine
 10
-2875.290383651209
 20
2637.945092160078
 30
0.0
 11
-2869.290383651208
 21
2631.945092160078
 31
0.0
  0
LINE
  5
D3
330
1F
100
AcDbEntity
  8
0-4_枠
  6
Continuous
 62
    92
370
    13
100
AcDbLine
 10
-2869.290383651208
 20
2631.945092160078
 30
0.0
 11
-2869.290383651208
 21
2091.94594335307
 31
0.0
  0
LINE
  5
D4
330
1F
100
AcDbEntity
  8
0-4_枠
  6
Continuous
 62
    92
370
    13
100
AcDbLine
 10
-2875.290383651209
 20
2637.945092160078
 30
0.0
 11
-3049.290383651208
 21
2637.945092160078
 31
0.0
  0
LINE
  5
D5
330
1F
100
AcDbEntity
  8
0-4_枠
  6
Continuous
 62
    92
370
    13
100
AcDbLine
 10
-2869.290383651208
 20
2091.94594335307
 30
0.0
 11
-2875.290383651209
 21
2085.94594335307
 31
0.0
  0
LINE
  5
D6
330
1F
100
AcDbEntity
  8
0-4_枠
  6
Continuous
 62
    92
370
    13
100
AcDbLine
 10
-2875.290383651209
 20
2085.94594335307
 30
0.0
 11
-2929.290383651208
 21
2085.94594335307
 31
0.0
  0
LINE
  5
D7
330
1F
100
AcDbEntity
  8
0-C_ハッチ
  6
Continuous
 62
   120
370
     5
100
AcDbLine
 10
-3019.290383651208
 20
2091.768740539306
 30
0.0
 11
-3013.467554051631
 21
2085.94594335307
 31
0.0
  0
LINE
  5
D8
330
1F
100
AcDbEntity
  8
0-C_ハッチ
  6
Continuous
 62
   120
370
     5
100
AcDbLine
 10
-3049.290606347052
 20
2546.033322602435
 30
0.0
 11
-2869.290383651208
 21
2366.032728746862
 31
0.0
  0
LINE
  5
D9
330
1F
100
AcDbEntity
  8
0-C_ハッチ
  6
Continuous
 62
   120
370
     5
100
AcDbLine
 10
-2869.290383651208
 20
2196.327363591666
 30
0.0
 11
-3049.290606347052
 21
2376.327957447241
 31
0.0
  0
LINE
  5
DA
330
1F
100
AcDbEntity
  8
0-C_ハッチ
  6
Continuous
 62
   120
370
     5
100
AcDbLine
 10
-2869.290383651208
 20
2281.180417328997
 30
0.0
 11
-3049.290606347052
 21
2461.180268865103
 31
0.0
  0
LINE
  5
DB
330
1F
100
AcDbEntity
  8
0-C_ハッチ
  6
Continuous
 62
   120
370
     5
100
AcDbLine
 10
-3049.290606347052
 20
2291.47490370991
 30
0.0
 11
-2869.290383651208
 21
2111.475052173803
 31
0.0
  0
LINE
  5
DC
330
1F
100
AcDbEntity
  8
0-C_ハッチ
  6
Continuous
 62
   120
370
     5
100
AcDbLine
 10
-3049.290606347052
 20
2630.886376339766
 30
0.0
 11
-2869.290383651208
 21
2450.88652480366
 31
0.0
  0
LINE
  5
DD
330
1F
100
AcDbEntity
  8
0-C_ハッチ
  6
Continuous
 62
   120
370
     5
100
AcDbLine
 10
-2971.496639589764
 20
2637.945092160078
 30
0.0
 11
-2869.290383651208
 21
2535.739578540991
 31
0.0
  0
LINE
  5
DE
330
1F
100
AcDbEntity
  8
0-4_枠
  6
Continuous
 62
    92
370
    13
100
AcDbLine
 10
-2983.290383651206
 20
2085.94594335307
 30
0.0
 11
-3019.290383651208
 21
2085.94594335307
 31
0.0
  0
LINE
  5
DF
330
1F
100
AcDbEntity
  8
0-4_枠
  6
Continuous
 62
    92
370
    13
100
AcDbLine
 10
-3019.290383651208
 20
2127.94594335307
 30
0.0
 11
-3019.290383651208
 21
2085.94594335307
 31
0.0
  0
LINE
  5
E0
330
1F
100
AcDbEntity
  8
0-4_枠
  6
Continuous
 62
    92
370
    13
100
AcDbLine
 10
-3019.290383651208
 20
2127.94594335307
 30
0.0
 11
-3049.290383651208
 21
2127.94594335307
 31
0.0
  0
LINE
  5
E1
330
1F
100
AcDbEntity
  8
0-4_枠
  6
Continuous
 62
    92
370
    13
100
AcDbLine
 10
-3049.290383651208
 20
2637.945092160078
 30
0.0
 11
-3049.290383651208
 21
2127.94594335307
 31
0.0
  0
LINE
  5
E2
330
1F
100
AcDbEntity
  8
0-B_寸法
  6
Continuous
 62
   120
370
     5
100
AcDbLine
 10
-1868.329123111221
 20
2280.945146596842
 30
0.0
 11
-1868.329123111221
 21
2442.944493355708
 31
0.0
  0
LWPOLYLINE
  5
E3
330
1F
100
AcDbEntity
  8
0-B_寸法
  6
Continuous
 62
     7
370
     9
100
AcDbPolyline
 90
        4
 70
     1
 43
3.0
 10
-1866.829123111221
 20
2280.945146596842
 42
0.4142135623731
 10
-1868.329123111221
 20
2282.445146596842
 42
0.4142135623731
 10
-1869.82912311122
 20
2280.945146596842
 42
0.4142135623731
 10
-1868.329123111221
 20
2279.445146596842
 42
0.4142135623731
  0
LWPOLYLINE
  5
E4
330
1F
100
AcDbEntity
  8
0-B_寸法
  6
Continuous
 62
     7
370
     9
100
AcDbPolyline
 90
        4
 70
     1
 43
3.0
 10
-1866.829123111221
 20
2442.944493355708
 42
0.4142135623731
 10
-1868.329123111221
 20
2444.444493355708
 42
0.4142135623731
 10
-1869.82912311122
 20
2442.944493355708
 42
0.4142135623731
 10
-1868.329123111221
 20
2441.444493355708
 42
0.4142135623731
  0
LINE
  5
E5
330
1F
100
AcDbEntity
  8
0-B_寸法
  6
Continuous
 62
   120
370
     5
100
AcDbLine
 10
-2410.089056229456
 20
2085.94594335307
 30
0.0
 11
-2410.089056229456
 21
2637.945092160081
 31
0.0
  0
LINE
  5
E6
330
1F
100
AcDbEntity
  8
0-B_寸法
  6
Continuous
 62
   120
370
     5
100
AcDbLine
 10
-2528.864625011126
 20
2637.945092160081
 30
0.0
 11
-2410.089056229456
 21
2637.945092160081
 31
0.0
  0
LWPOLYLINE
  5
E7
330
1F
100
AcDbEntity
  8
0-B_寸法
  6
Continuous
 62
     7
370
     9
100
AcDbPolyline
 90
        4
 70
     1
 43
3.0
 10
-2408.589056229456
 20
2637.945092160081
 42
0.4142135623731
 10
-2410.089056229456
 20
2639.445092160081
 42
0.4142135623731
 10
-2411.589056229456
 20
2637.945092160081
 42
0.4142135623731
 10
-2410.089056229456
 20
2636.445092160081
 42
0.4142135623731
  0
LINE
  5
E8
330
1F
100
AcDbEntity
  8
0-B_寸法
  6
Continuous
 62
   120
370
     5
100
AcDbLine
 10
-2869.290433139177
 20
2324.35919630438
 30
0.0
 11
-2854.290383651208
 21
2324.35919630438
 31
0.0
  0
LINE
  5
E9
330
1F
100
AcDbEntity
  8
0-B_寸法
  6
Continuous
 62
   120
370
     5
100
AcDbLine
 10
-2854.290383651208
 20
2405.688459527565
 30
0.0
 11
-2854.290383651208
 21
2324.35919630438
 31
0.0
  0
LINE
  5
EA
330
1F
100
AcDbEntity
  8
0-B_寸法
  6
Continuous
 62
   120
370
     5
100
AcDbLine
 10
-2869.290433139177
 20
2405.688459527565
 30
0.0
 11
-2869.290433139177
 21
2324.35919630438
 31
0.0
  0
LWPOLYLINE
  5
EB
330
1F
100
AcDbEntity
  8
0-B_寸法
  6
Continuous
 62
     7
370
     9
100
AcDbPolyline
 90
        4
 70
     1
 43
3.0
 10
-2867.790433139177
 20
2324.35919630438
 42
0.4142135623731
 10
-2869.290433139177
 20
2325.85919630438
 42
0.4142135623731
 10
-2870.790433139177
 20
2324.35919630438
 42
0.4142135623731
 10
-2869.290433139177
 20
2322.85919630438
 42
0.4142135623731
  0
LWPOLYLINE
  5
EC
330
1F
100
AcDbEntity
  8
0-B_寸法
  6
Continuous
 62
     7
370
     9
100
AcDbPolyline
 90
        4
 70
     1
 43
3.0
 10
-2852.790383651208
 20
2324.35919630438
 42
0.4142135623731
 10
-2854.290383651208
 20
2325.85919630438
 42
0.4142135623731
 10
-2855.790383651208
 20
2324.35919630438
 42
0.4142135623731
 10
-2854.290383651208
 20
2322.85919630438
 42
0.4142135623731
  0
CIRCLE
  5
ED
330
1F
100
AcDbEntity
  8
0-A_文字
  6
Continuous
 62
     7
370
     9
100
AcDbCircle
 10
-847.2904207671786
 20
2472.945146596818
 30
0.0
 40
21.00000000000001
  0
CIRCLE
  5
EE
330
1F
100
AcDbEntity
  8
0-A_文字
  6
Continuous
 62
     7
370
     9
100
AcDbCircle
 10
-847.2904207671786
 20
2472.945146596818
 30
0.0
 40
30.0
  0
LINE
  5
EF
330
1F
100
AcDbEntity
  8
0-6_扉
  6
Continuous
 62
   200
370
    20
100
AcDbLine
 10
-850.2903836512058
 20
2442.94514659684
 30
0.0
 11
-850.2903836512058
 21
2280.945146596842
 31
0.0
  0
LINE
  5
F0
330
1F
100
AcDbEntity
  8
0-6_扉
  6
Continuous
 62
   200
370
    20
100
AcDbLine
 10
-2854.290383651208
 20
2442.94514659684
 30
0.0
 11
-850.2903836512058
 21
2442.94514659684
 31
0.0
  0
LINE
  5
F1
330
1F
100
AcDbEntity
  8
0-6_扉
  6
Continuous
 62
   200
370
    20
100
AcDbLine
 10
-2854.290383651208
 20
2442.94514659684
 30
0.0
 11
-2854.290383651208
 21
2280.945146596842
 31
0.0
  0
LINE
  5
F2
330
1F
100
AcDbEntity
  8
0-6_扉
  6
Continuous
 62
   200
370
    20
100
AcDbLine
 10
-2854.290383651208
 20
2280.945146596842
 30
0.0
 11
-850.2903836512058
 21
2280.945146596842
 31
0.0
  0
LINE
  5
F3
330
1F
100
AcDbEntity
  8
0-B_寸法
  6
Continuous
 62
   120
370
     5
100
AcDbLine
 10
-2528.864625011126
 20
2085.94594335307
 30
0.0
 11
-2410.089056229456
 21
2085.94594335307
 31
0.0
  0
LWPOLYLINE
  5
F4
330
1F
100
AcDbEntity
  8
0-B_寸法
  6
Continuous
 62
     7
370
     9
100
AcDbPolyline
 90
        4
 70
     1
 43
3.0
 10
-2408.589056229456
 20
2085.94594335307
 42
0.4142135623731
 10
-2410.089056229456
 20
2087.44594335307
 42
0.4142135623731
 10
-2411.589056229456
 20
2085.94594335307
 42
0.4142135623731
 10
-2410.089056229456
 20
2084.44594335307
 42
0.4142135623731
  0
LWPOLYLINE
  5
F5
330
1F
100
AcDbEntity
  8
0-B_寸法
  6
Continuous
 62
     7
370
     9
100
AcDbPolyline
 90
        4
 70
     1
 43
3.0
 10
-3077.790383651201
 20
1086.945146596838
 42
0.4142135623731
 10
-3079.290383651201
 20
1088.445146596838
 42
0.4142135623731
 10
-3080.790383651201
 20
1086.945146596838
 42
0.4142135623731
 10
-3079.290383651201
 20
1085.445146596839
 42
0.4142135623731
  0
LWPOLYLINE
  5
F6
330
1F
100
AcDbEntity
  8
0-B_寸法
  6
Continuous
 62
     7
370
     9
100
AcDbPolyline
 90
        4
 70
     1
 43
3.0
 10
-3047.790383651208
 20
1086.945146596838
 42
0.4142135623731
 10
-3049.290383651208
 20
1088.445146596838
 42
0.4142135623731
 10
-3050.790383651208
 20
1086.945146596838
 42
0.4142135623731
 10
-3049.290383651208
 20
1085.445146596839
 42
0.4142135623731
  0
LINE
  5
F7
330
1F
100
AcDbEntity
  8
0-B_寸法
  6
Continuous
 62
   120
370
     5
100
AcDbLine
 10
-3079.290383651201
 20
1086.945146596838
 30
0.0
 11
-3079.290383651201
 21
1986.945146596838
 31
0.0
  0
LINE
  5
F8
330
1F
100
AcDbEntity
  8
0-B_寸法
  6
Continuous
 62
   120
370
     5
100
AcDbLine
 10
-3049.290383651208
 20
1086.945146596838
 30
0.0
 11
-3049.290383651208
 21
1986.945146596838
 31
0.0
  0
MTEXT
  5
F9
330
1F
100
AcDbEntity
  8
0-B_寸法
  6
Continuous
 62
     7
370
   211
100
AcDbMText
 10
-112.2903836512043
 20
1627.665146596838
 30
0.0
 40
91.43999999999998
 41
540.0
 46
0.0
 71
     7
 72
     1
  1
{\fＭＳ ゴシック|b0|i0|c128|p49;ＤＷ＝334}
 73
     1
 44
1.0
  0
MTEXT
  5
FA
330
1F
100
AcDbEntity
  8
0-B_寸法
  6
Continuous
 62
     7
370
     0
100
AcDbMText
 10
1200.958973005258
 20
1267.665196084803
 30
0.0
 40
91.44
 41
120.0
 46
0.0
 71
     7
 72
     1
  1
{\fＭＳ ゴシック|b0|i0|c128|p49;30}
 73
     1
 44
1.0
  0
MTEXT
  5
FB
330
1F
100
AcDbEntity
  8
0-B_寸法
  6
Continuous
 62
     7
370
   211
100
AcDbMText
 10
1279.709616348799
 20
1087.665146596838
 30
0.0
 40
91.44
 41
60.0
 46
0.0
 71
     7
 72
     1
  1
{\fＭＳ ゴシック|b0|i0|c128|p49;5}
 73
     1
 44
1.0
  0
LINE
  5
FC
330
1F
100
AcDbEntity
  8
0-0_補助線
  6
JWW_HOJO
 62
   120
370
     5
100
AcDbLine
 10
1924.709418396937
 20
1806.945146596838
 30
0.0
 11
-3619.290185699352
 21
1806.945146596838
 31
0.0
  0
LWPOLYLINE
  5
FD
330
1F
100
AcDbEntity
  8
0-B_寸法
  6
Continuous
 62
     7
370
     9
100
AcDbPolyline
 90
        4
 70
     1
 43
3.0
 10
1161.209616348795
 20
1626.945146596838
 42
0.4142135623731
 10
1159.709616348795
 20
1628.445146596838
 42
0.4142135623731
 10
1158.209616348795
 20
1626.945146596838
 42
0.4142135623731
 10
1159.709616348795
 20
1625.445146596839
 42
0.4142135623731
  0
LINE
  5
FE
330
1F
100
AcDbEntity
  8
0-B_寸法
  6
Continuous
 62
   120
370
     5
100
AcDbLine
 10
-844.2903836512087
 20
1626.945146596838
 30
0.0
 11
1159.709616348795
 21
1626.945146596838
 31
0.0
  0
LINE
  5
FF
330
1F
100
AcDbEntity
  8
0-B_寸法
  6
Continuous
 62
   120
370
     5
100
AcDbLine
 10
-844.2903836512087
 20
1626.945146596838
 30
0.0
 11
-844.2903836512087
 21
1806.945146596838
 31
0.0
  0
LWPOLYLINE
  5
100
330
1F
100
AcDbEntity
  8
0-B_寸法
  6
Continuous
 62
     7
370
     9
100
AcDbPolyline
 90
        4
 70
     1
 43
3.0
 10
-842.7903836512087
 20
1626.945146596838
 42
0.4142135623731
 10
-844.2903836512087
 20
1628.445146596838
 42
0.4142135623731
 10
-845.7903836512088
 20
1626.945146596838
 42
0.4142135623731
 10
-844.2903836512087
 20
1625.445146596839
 42
0.4142135623731
  0
LINE
  5
101
330
1F
100
AcDbEntity
  8
0-B_寸法
  6
Continuous
 62
   120
370
     5
100
AcDbLine
 10
1174.709616348795
 20
1806.945146596838
 30
0.0
 11
1174.709616348795
 21
1266.945146596838
 31
0.0
  0
LINE
  5
102
330
1F
100
AcDbEntity
  8
0-B_寸法
  6
Continuous
 62
   120
370
     5
100
AcDbLine
 10
1159.709616348795
 20
1446.945146596838
 30
0.0
 11
1159.709616348795
 21
1806.945146596838
 31
0.0
  0
LINE
  5
103
330
1F
100
AcDbEntity
  8
0-B_寸法
  6
Continuous
 62
   120
370
     5
100
AcDbLine
 10
1354.708725565433
 20
1806.945146596838
 30
0.0
 11
1354.708725565433
 21
1086.945146596838
 31
0.0
  0
LINE
  5
104
330
1F
100
AcDbEntity
  8
0-B_寸法
  6
Continuous
 62
   120
370
     5
100
AcDbLine
 10
-3049.290655835014
 20
1266.945146596838
 30
0.0
 11
1354.708725565433
 21
1266.945146596838
 31
0.0
  0
LINE
  5
105
330
1F
100
AcDbEntity
  8
0-B_寸法
  6
Continuous
 62
   120
370
     5
100
AcDbLine
 10
-3079.290383651201
 20
1086.945146596838
 30
0.0
 11
1354.708725565433
 21
1086.945146596838
 31
0.0
  0
LWPOLYLINE
  5
106
330
1F
100
AcDbEntity
  8
0-B_寸法
  6
Continuous
 62
     7
370
     9
100
AcDbPolyline
 90
        4
 70
     1
 43
3.0
 10
1176.209616348795
 20
1266.945146596838
 42
0.4142135623731
 10
1174.709616348795
 20
1268.445146596838
 42
0.4142135623731
 10
1173.209616348795
 20
1266.945146596838
 42
0.4142135623731
 10
1174.709616348795
 20
1265.445146596839
 42
0.4142135623731
  0
LWPOLYLINE
  5
107
330
1F
100
AcDbEntity
  8
0-B_寸法
  6
Continuous
 62
     7
370
     9
100
AcDbPolyline
 90
        4
 70
     1
 43
3.0
 10
1356.208725565433
 20
1266.945146596838
 42
0.4142135623731
 10
1354.708725565433
 20
1268.445146596838
 42
0.4142135623731
 10
1353.208725565433
 20
1266.945146596838
 42
0.4142135623731
 10
1354.708725565433
 20
1265.445146596839
 42
0.4142135623731
  0
LWPOLYLINE
  5
108
330
1F
100
AcDbEntity
  8
0-B_寸法
  6
Continuous
 62
     7
370
     9
100
AcDbPolyline
 90
        4
 70
     1
 43
3.0
 10
1356.208725565433
 20
1086.945146596838
 42
0.4142135623731
 10
1354.708725565433
 20
1088.445146596838
 42
0.4142135623731
 10
1353.208725565433
 20
1086.945146596838
 42
0.4142135623731
 10
1354.708725565433
 20
1085.445146596839
 42
0.4142135623731
  0
LINE
  5
109
330
1F
100
AcDbEntity
  8
0-B_寸法
  6
Continuous
 62
   120
370
     5
100
AcDbLine
 10
-2854.290383651208
 20
1446.945146596838
 30
0.0
 11
1159.709616348795
 21
1446.945146596838
 31
0.0
  0
LWPOLYLINE
  5
10A
330
1F
100
AcDbEntity
  8
0-B_寸法
  6
Continuous
 62
     7
370
     9
100
AcDbPolyline
 90
        4
 70
     1
 43
3.0
 10
1161.209616348795
 20
1446.945146596838
 42
0.4142135623731
 10
1159.709616348795
 20
1448.445146596838
 42
0.4142135623731
 10
1158.209616348795
 20
1446.945146596838
 42
0.4142135623731
 10
1159.709616348795
 20
1445.445146596839
 42
0.4142135623731
  0
LINE
  5
10B
330
1F
100
AcDbEntity
  8
0-0_補助線
  6
JWW_HOJO
 62
     7
370
     9
100
AcDbLine
 10
1144.710309180297
 20
906.9451465968384
 30
0.0
 11
1144.710309180297
 21
3141.945146596837
 31
0.0
  0
LINE
  5
10C
330
1F
100
AcDbEntity
  8
0-0_補助線
  6
JWW_HOJO
 62
   120
370
     5
100
AcDbLine
 10
1924.709418396937
 20
1626.945146596838
 30
0.0
 11
-3619.290185699352
 21
1626.945146596838
 31
0.0
  0
LINE
  5
10D
330
1F
100
AcDbEntity
  8
0-0_補助線
  6
JWW_HOJO
 62
   120
370
     5
100
AcDbLine
 10
1924.709418396937
 20
1086.945146596838
 30
0.0
 11
1924.709418396937
 21
2961.945146596842
 31
0.0
  0
LINE
  5
10E
330
1F
100
AcDbEntity
  8
0-0_補助線
  6
JWW_HOJO
 62
   120
370
     5
100
AcDbLine
 10
1924.709418396937
 20
1086.945146596838
 30
0.0
 11
-3619.290185699352
 21
1086.945146596838
 31
0.0
  0
LINE
  5
10F
330
1F
100
AcDbEntity
  8
0-0_補助線
  6
JWW_HOJO
 62
   120
370
     5
100
AcDbLine
 10
1924.709418396937
 20
1266.945146596838
 30
0.0
 11
-3619.290185699352
 21
1266.945146596838
 31
0.0
  0
LINE
  5
110
330
1F
100
AcDbEntity
  8
0-0_補助線
  6
JWW_HOJO
 62
   120
370
     5
100
AcDbLine
 10
1924.709418396937
 20
1446.945146596838
 30
0.0
 11
-3619.290185699352
 21
1446.945146596838
 31
0.0
  0
LINE
  5
111
330
1F
100
AcDbEntity
  8
0-C_ハッチ
  6
Continuous
 62
   120
370
     5
100
AcDbLine
 10
1354.709839044636
 20
2206.621849972578
 30
0.0
 11
1288.709616348794
 21
2140.621994673312
 31
0.0
  0
LINE
  5
112
330
1F
100
AcDbEntity
  8
0-4_枠
  6
Continuous
 62
    92
370
    13
100
AcDbLine
 10
1288.709616348794
 20
2145.94594335307
 30
0.0
 11
1288.709616348794
 21
2085.94594335307
 31
0.0
  0
LINE
  5
113
330
1F
100
AcDbEntity
  8
0-4_枠
  6
Continuous
 62
    92
370
    13
100
AcDbLine
 10
1234.709616348795
 20
2145.94594335307
 30
0.0
 11
1288.709616348794
 21
2145.94594335307
 31
0.0
  0
LINE
  5
114
330
1F
100
AcDbEntity
  8
0-4_枠
  6
Continuous
 62
    92
370
    13
100
AcDbLine
 10
1234.709616348795
 20
2145.94594335307
 30
0.0
 11
1234.709616348795
 21
2085.94594335307
 31
0.0
  0
LINE
  5
115
330
1F
100
AcDbEntity
  8
0-4_枠
  6
Continuous
 62
    92
370
    13
100
AcDbLine
 10
1354.709616348795
 20
2637.945092160078
 30
0.0
 11
1354.709616348795
 21
2127.94594335307
 31
0.0
  0
LINE
  5
116
330
1F
100
AcDbEntity
  8
0-4_枠
  6
Continuous
 62
    92
370
    13
100
AcDbLine
 10
1324.709616348795
 20
2127.94594335307
 30
0.0
 11
1354.709616348795
 21
2127.94594335307
 31
0.0
  0
LINE
  5
117
330
1F
100
AcDbEntity
  8
0-4_枠
  6
Continuous
 62
    92
370
    13
100
AcDbLine
 10
1324.709616348795
 20
2127.94594335307
 30
0.0
 11
1324.709616348795
 21
2085.94594335307
 31
0.0
  0
LINE
  5
118
330
1F
100
AcDbEntity
  8
0-4_枠
  6
Continuous
 62
    92
370
    13
100
AcDbLine
 10
1288.709616348794
 20
2085.94594335307
 30
0.0
 11
1324.709616348795
 21
2085.94594335307
 31
0.0
  0
LINE
  5
119
330
1F
100
AcDbEntity
  8
0-C_ハッチ
  6
Continuous
 62
   120
370
     5
100
AcDbLine
 10
1276.915872287351
 20
2637.945092160078
 30
0.0
 11
1174.709616348795
 21
2535.739578540991
 31
0.0
  0
LINE
  5
11A
330
1F
100
AcDbEntity
  8
0-C_ハッチ
  6
Continuous
 62
   120
370
     5
100
AcDbLine
 10
1354.709839044636
 20
2630.886376339766
 30
0.0
 11
1174.709616348795
 21
2450.88652480366
 31
0.0
  0
LINE
  5
11B
330
1F
100
AcDbEntity
  8
0-C_ハッチ
  6
Continuous
 62
   120
370
     5
100
AcDbLine
 10
1354.709839044636
 20
2291.47490370991
 30
0.0
 11
1174.709616348795
 21
2111.475052173803
 31
0.0
  0
LINE
  5
11C
330
1F
100
AcDbEntity
  8
0-C_ハッチ
  6
Continuous
 62
   120
370
     5
100
AcDbLine
 10
1174.709616348795
 20
2281.180417328997
 30
0.0
 11
1354.709839044636
 21
2461.180268865103
 31
0.0
  0
LINE
  5
11D
330
1F
100
AcDbEntity
  8
0-C_ハッチ
  6
Continuous
 62
   120
370
     5
100
AcDbLine
 10
1174.709616348795
 20
2196.327363591666
 30
0.0
 11
1354.709839044636
 21
2376.327957447241
 31
0.0
  0
LINE
  5
11E
330
1F
100
AcDbEntity
  8
0-C_ハッチ
  6
Continuous
 62
   120
370
     5
100
AcDbLine
 10
1354.709839044636
 20
2546.033322602435
 30
0.0
 11
1174.709616348795
 21
2366.032728746862
 31
0.0
  0
LINE
  5
11F
330
1F
100
AcDbEntity
  8
0-C_ハッチ
  6
Continuous
 62
   120
370
     5
100
AcDbLine
 10
1324.709616348795
 20
2091.768740539306
 30
0.0
 11
1318.886786749219
 21
2085.94594335307
 31
0.0
  0
LINE
  5
120
330
1F
100
AcDbEntity
  8
0-4_枠
  6
Continuous
 62
    92
370
    13
100
AcDbLine
 10
1180.709616348795
 20
2085.94594335307
 30
0.0
 11
1234.709616348795
 21
2085.94594335307
 31
0.0
  0
LINE
  5
121
330
1F
100
AcDbEntity
  8
0-4_枠
  6
Continuous
 62
    92
370
    13
100
AcDbLine
 10
1174.709616348795
 20
2091.94594335307
 30
0.0
 11
1180.709616348795
 21
2085.94594335307
 31
0.0
  0
LINE
  5
122
330
1F
100
AcDbEntity
  8
0-4_枠
  6
Continuous
 62
    92
370
    13
100
AcDbLine
 10
1180.709616348795
 20
2637.945092160078
 30
0.0
 11
1354.709616348795
 21
2637.945092160078
 31
0.0
  0
LINE
  5
123
330
1F
100
AcDbEntity
  8
0-4_枠
  6
Continuous
 62
    92
370
    13
100
AcDbLine
 10
1174.709616348795
 20
2631.945092160078
 30
0.0
 11
1174.709616348795
 21
2091.94594335307
 31
0.0
  0
LINE
  5
124
330
1F
100
AcDbEntity
  8
0-4_枠
  6
Continuous
 62
    92
370
    13
100
AcDbLine
 10
1180.709616348795
 20
2637.945092160078
 30
0.0
 11
1174.709616348795
 21
2631.945092160078
 31
0.0
  0
LINE
  5
125
330
1F
100
AcDbEntity
  8
0-7_金物
  6
Continuous
 62
     7
370
     9
100
AcDbLine
 10
1354.709616348795
 20
2415.945180929116
 30
0.0
 11
1360.709685013336
 21
2415.945180929116
 31
0.0
  0
LINE
  5
126
330
1F
100
AcDbEntity
  8
0-7_金物
  6
Continuous
 62
     7
370
     9
100
AcDbLine
 10
1360.709685013336
 20
2307.945112264566
 30
0.0
 11
1354.709616348795
 21
2307.945112264566
 31
0.0
  0
LINE
  5
127
330
1F
100
AcDbEntity
  8
0-7_金物
  6
Continuous
 62
     7
370
     9
100
AcDbLine
 10
1360.709685013336
 20
2301.944946325234
 30
0.0
 11
1360.709685013336
 21
2421.944603002481
 31
0.0
  0
LINE
  5
128
330
1F
100
AcDbEntity
  8
0-7_金物
  6
Continuous
 62
     7
370
     9
100
AcDbLine
 10
1372.709278748077
 20
2421.944603002481
 30
0.0
 11
1360.709685013336
 21
2421.944603002481
 31
0.0
  0
LINE
  5
129
330
1F
100
AcDbEntity
  8
0-7_金物
  6
Continuous
 62
     7
370
     9
100
AcDbLine
 10
1372.709278748077
 20
2301.944946325234
 30
0.0
 11
1360.709685013336
 21
2301.944946325234
 31
0.0
  0
LINE
  5
12A
330
1F
100
AcDbEntity
  8
0-7_金物
  6
Continuous
 62
     7
370
     9
100
AcDbLine
 10
1384.709616348787
 20
2271.944843328407
 30
0.0
 11
1384.709616348787
 21
2451.944705999304
 31
0.0
  0
LINE
  5
12B
330
1F
100
AcDbEntity
  8
0-7_金物
  6
Continuous
 62
     7
370
     9
100
AcDbLine
 10
1384.709616348787
 20
2271.944843328407
 30
0.0
 11
1372.709278748077
 21
2271.944843328407
 31
0.0
  0
LINE
  5
12C
330
1F
100
AcDbEntity
  8
0-7_金物
  6
Continuous
 62
     7
370
     9
100
AcDbLine
 10
1384.709616348787
 20
2451.944705999304
 30
0.0
 11
1372.709278748077
 21
2451.944705999304
 31
0.0
  0
LINE
  5
12D
330
1F
100
AcDbEntity
  8
0-7_金物
  6
Continuous
 62
     7
370
     9
100
AcDbLine
 10
1372.709278748077
 20
2271.944843328407
 30
0.0
 11
1372.709278748077
 21
2451.944705999304
 31
0.0
  0
LINE
  5
12E
330
1F
100
AcDbEntity
  8
0-C_ハッチ
  6
Continuous
 62
   120
370
     5
100
AcDbLine
 10
1354.709616348792
 20
2588.278201642294
 30
0.0
 11
1353.04272583101
 21
2589.945092160075
 31
0.0
  0
LINE
  5
12F
330
1F
100
AcDbEntity
  8
0-0_補助線
  6
JWW_HOJO
 62
   120
370
     5
100
AcDbLine
 10
1924.709418396937
 20
3141.945146596842
 30
0.0
 11
-3619.290185699352
 21
3141.945146596842
 31
0.0
  0
LINE
  5
130
330
1F
100
AcDbEntity
  8
0-6_扉
  6
Continuous
 62
   200
370
    20
100
AcDbLine
 10
-844.2903836512087
 20
2442.94514659684
 30
0.0
 11
-844.2903836512087
 21
2280.945146596842
 31
0.0
  0
LINE
  5
131
330
1F
100
AcDbEntity
  8
0-6_扉
  6
Continuous
 62
   200
370
    20
100
AcDbLine
 10
-844.2903836512045
 20
2442.94514659684
 30
0.0
 11
1159.709616348795
 21
2442.94514659684
 31
0.0
  0
LINE
  5
132
330
1F
100
AcDbEntity
  8
0-6_扉
  6
Continuous
 62
   200
370
    20
100
AcDbLine
 10
-844.2903836512045
 20
2280.945146596842
 30
0.0
 11
1159.709616348795
 21
2280.945146596842
 31
0.0
  0
LINE
  5
133
330
1F
100
AcDbEntity
  8
0-6_扉
  6
Continuous
 62
   200
370
    20
100
AcDbLine
 10
1159.709616348795
 20
2442.94514659684
 30
0.0
 11
1159.709616348795
 21
2280.945146596842
 31
0.0
  0
LINE
  5
134
330
1F
100
AcDbEntity
  8
0-1_通り芯
  6
JWW_CENTER1
 62
   120
370
     5
100
AcDbLine
 10
1925.573907195582
 20
2361.945146596841
 30
0.0
 11
-3620.690016072263
 21
2361.945146596841
 31
0.0
  0
LINE
  5
135
330
1F
100
AcDbEntity
  8
0-0_補助線
  6
JWW_HOJO
 62
   120
370
     5
100
AcDbLine
 10
1924.709418396937
 20
2961.945146596842
 30
0.0
 11
-3619.290185699352
 21
2961.945146596842
 31
0.0
  0
LINE
  5
136
330
1F
100
AcDbEntity
  8
0-0_補助線
  6
JWW_HOJO
 62
   120
370
     5
100
AcDbLine
 10
1924.709418396937
 20
2781.94514659684
 30
0.0
 11
-3619.290185699352
 21
2781.94514659684
 31
0.0
  0
LINE
  5
137
330
1F
100
AcDbEntity
  8
0-B_寸法
  6
Continuous
 62
   120
370
     5
100
AcDbLine
 10
1354.709616348795
 20
1086.945146596838
 30
0.0
 11
1384.709616348787
 21
1086.945146596838
 31
0.0
  0
LWPOLYLINE
  5
138
330
1F
100
AcDbEntity
  8
0-B_寸法
  6
Continuous
 62
     7
370
     9
100
AcDbPolyline
 90
        4
 70
     1
 43
3.0
 10
1356.209616348795
 20
1086.945146596838
 42
0.4142135623731
 10
1354.709616348795
 20
1088.445146596838
 42
0.4142135623731
 10
1353.209616348795
 20
1086.945146596838
 42
0.4142135623731
 10
1354.709616348795
 20
1085.445146596839
 42
0.4142135623731
  0
LWPOLYLINE
  5
139
330
1F
100
AcDbEntity
  8
0-B_寸法
  6
Continuous
 62
     7
370
     9
100
AcDbPolyline
 90
        4
 70
     1
 43
3.0
 10
1386.209616348786
 20
1086.945146596838
 42
0.4142135623731
 10
1384.709616348787
 20
1088.445146596838
 42
0.4142135623731
 10
1383.209616348787
 20
1086.945146596838
 42
0.4142135623731
 10
1384.709616348787
 20
1085.445146596839
 42
0.4142135623731
  0
LINE
  5
13A
330
1F
100
AcDbEntity
  8
0-B_寸法
  6
Continuous
 62
   120
370
     5
100
AcDbLine
 10
1354.709616348795
 20
1086.945146596838
 30
0.0
 11
1354.709616348795
 21
1986.945146596838
 31
0.0
  0
LINE
  5
13B
330
1F
100
AcDbEntity
  8
0-B_寸法
  6
Continuous
 62
   120
370
     5
100
AcDbLine
 10
1384.709616348787
 20
1086.945146596838
 30
0.0
 11
1384.709616348787
 21
1986.945146596838
 31
0.0
  0
LINE
  5
13C
330
1F
100
AcDbEntity
  8
0-B_寸法
  6
Continuous
 62
   120
370
     5
100
AcDbLine
 10
1174.709616348795
 20
2361.945146596841
 30
0.0
 11
1159.712646784964
 21
2361.643643858031
 31
0.0
  0
LINE
  5
13D
330
1F
100
AcDbEntity
  8
0-B_寸法
  6
Continuous
 62
   120
370
     5
100
AcDbLine
 10
1384.709616348787
 20
3141.945146596837
 30
0.0
 11
1384.709616348787
 21
2781.94514659684
 31
0.0
  0
LWPOLYLINE
  5
13E
330
1F
100
AcDbEntity
  8
0-B_寸法
  6
Continuous
 62
     7
370
     9
100
AcDbPolyline
 90
        4
 70
     1
 43
3.0
 10
1386.209616348786
 20
3141.945146596837
 42
0.4142135623731
 10
1384.709616348787
 20
3143.445146596837
 42
0.4142135623731
 10
1383.209616348787
 20
3141.945146596837
 42
0.4142135623731
 10
1384.709616348787
 20
3140.445146596837
 42
0.4142135623731
  0
LINE
  5
13F
330
1F
100
AcDbEntity
  8
0-B_寸法
  6
Continuous
 62
   120
370
     5
100
AcDbLine
 10
-3079.290383651201
 20
3141.945146596837
 30
0.0
 11
-3079.290383651201
 21
2781.94514659684
 31
0.0
  0
LWPOLYLINE
  5
140
330
1F
100
AcDbEntity
  8
0-B_寸法
  6
Continuous
 62
     7
370
     9
100
AcDbPolyline
 90
        4
 70
     1
 43
3.0
 10
-3077.790383651201
 20
3141.945146596837
 42
0.4142135623731
 10
-3079.290383651201
 20
3143.445146596837
 42
0.4142135623731
 10
-3080.790383651201
 20
3141.945146596837
 42
0.4142135623731
 10
-3079.290383651201
 20
3140.445146596837
 42
0.4142135623731
  0
LINE
  5
141
330
1F
100
AcDbEntity
  8
0-B_寸法
  6
Continuous
 62
   120
370
     5
100
AcDbLine
 10
-3079.290383651201
 20
3141.945146596837
 30
0.0
 11
1384.709616348787
 21
3141.945146596837
 31
0.0
  0
LINE
  5
142
330
1F
100
AcDbEntity
  8
0-1_通り芯
  6
JWW_CENTER1
 62
   120
370
     5
100
AcDbLine
 10
400.7096163487913
 20
2781.94514659684
 30
0.0
 11
400.7096163487913
 21
2528.529114612093
 31
0.0
  0
LINE
  5
143
330
1F
100
AcDbEntity
  8
0-B_寸法
  6
Continuous
 62
   120
370
     5
100
AcDbLine
 10
-2869.290383651208
 20
2961.94514659684
 30
0.0
 11
400.7096163487913
 21
2961.94514659684
 31
0.0
  0
LINE
  5
144
330
1F
100
AcDbEntity
  8
0-B_寸法
  6
Continuous
 62
   120
370
     5
100
AcDbLine
 10
400.7096163487913
 20
2961.94514659684
 30
0.0
 11
400.7096163487913
 21
2781.94514659684
 31
0.0
  0
LWPOLYLINE
  5
145
330
1F
100
AcDbEntity
  8
0-B_寸法
  6
Continuous
 62
     7
370
     9
100
AcDbPolyline
 90
        4
 70
     1
 43
3.0
 10
402.2096163487913
 20
2961.94514659684
 42
0.4142135623731
 10
400.7096163487913
 20
2963.445146596839
 42
0.4142135623731
 10
399.2096163487913
 20
2961.94514659684
 42
0.4142135623731
 10
400.7096163487913
 20
2960.44514659684
 42
0.4142135623731
  0
LINE
  5
146
330
1F
100
AcDbEntity
  8
0-6_扉
  6
JWW_DASHED2
 62
    40
370
    15
100
AcDbLine
 10
851.6262562384393
 20
2539.44138489364
 30
0.0
 11
817.161427672745
 21
2085.94594335307
 31
0.0
  0
LINE
  5
147
330
1F
100
AcDbEntity
  8
0-6_扉
  6
JWW_DASHED2
 62
    40
370
    15
100
AcDbLine
 10
562.2437995994599
 20
2538.077351108448
 30
0.0
 11
596.6049640788987
 21
2085.94594335307
 31
0.0
  0
LINE
  5
148
330
1F
100
AcDbEntity
  8
0-6_扉
  6
JWW_DASHED2
 62
    40
370
    15
100
AcDbLine
 10
1013.160439489109
 20
2527.165080826895
 30
0.0
 11
979.6285876996351
 21
2085.94594335307
 31
0.0
  0
LINE
  5
149
330
1F
100
AcDbEntity
  8
0-6_扉
  6
JWW_DASHED2
 62
    40
370
    15
100
AcDbLine
 10
400.7096163487913
 20
2525.801047041706
 30
0.0
 11
434.1378040520087
 21
2085.94594335307
 31
0.0
  0
ARC
  5
14A
330
1F
100
AcDbEntity
  8
0-6_扉
  6
JWW_DASHED2
 62
    40
370
    15
100
AcDbCircle
 10
995.2121969057015
 20
2528.529114612089
 30
0.0
 40
18.0
100
AcDbArc
 50
355.6539792783596
 51
85.65397927835917
  0
LINE
  5
14B
330
1F
100
AcDbEntity
  8
0-6_扉
  6
JWW_DASHED2
 62
    40
370
    15
100
AcDbLine
 10
996.576230690896
 20
2546.477357195495
 30
0.0
 11
870.9385326070401
 21
2556.025593691853
 31
0.0
  0
ARC
  5
14C
330
1F
100
AcDbEntity
  8
0-6_扉
  6
JWW_DASHED2
 62
    40
370
    15
100
AcDbCircle
 10
869.5744988218456
 20
2538.077351108444
 30
0.0
 40
18.0
100
AcDbArc
 50
85.65397927835929
 51
175.6539792783603
  0
ARC
  5
14D
330
1F
100
AcDbEntity
  8
0-6_扉
  6
JWW_DASHED2
 62
    40
370
    15
100
AcDbCircle
 10
544.2955570160527
 20
2536.713317323253
 30
0.0
 40
18.0
100
AcDbArc
 50
4.346020721638924
 51
94.34602072163929
  0
LINE
  5
14E
330
1F
100
AcDbEntity
  8
0-6_扉
  6
JWW_DASHED2
 62
    40
370
    15
100
AcDbLine
 10
542.9315232308581
 20
2554.661559906661
 30
0.0
 11
417.293825147004
 21
2545.113323410308
 31
0.0
  0
ARC
  5
14F
330
1F
100
AcDbEntity
  8
0-6_扉
  6
JWW_DASHED2
 62
    40
370
    15
100
AcDbCircle
 10
418.6578589322002
 20
2527.1650808269
 30
0.0
 40
18.0
100
AcDbArc
 50
94.34602072163928
 51
184.346020721639
  0
MTEXT
  5
150
330
1F
100
AcDbEntity
  8
0-B_寸法
  6
Continuous
 62
     7
370
   211
100
AcDbMText
 10
-1327.290273559817
 20
2962.665146596839
 30
0.0
 40
91.43999999999998
 41
1020.0
 46
0.0
 71
     7
 72
     1
  1
{\fＭＳ ゴシック|b0|i0|c128|p49;有効開口寸法＝545}
 73
     1
 44
1.0
  0
MTEXT
  5
151
330
1F
100
AcDbEntity
  8
F-A_文字
  6
Continuous
 62
     7
370
     0
100
AcDbMText
 10
3689.917643811961
 20
-3946.903115907308
 30
0.0
 40
76.19999999999999
 41
150.0
 46
0.0
 71
     7
 72
     1
  1
{\fＭＳ ゴシック|b0|i0|c128|p49;1/5}
 73
     1
 44
1.0
  0
LINE
  5
152
330
1F
100
AcDbEntity
  8
0-C_ハッチ
  6
JWW_DASHED1
 62
   120
370
     5
100
AcDbLine
 10
-3026.13951875381
 20
2052.94569591324
 30
0.0
 11
-3019.290383651208
 21
2059.794831015844
 31
0.0
  0
LINE
  5
153
330
1F
100
AcDbEntity
  8
0-C_ハッチ
  6
JWW_DASHED1
 62
   120
370
     5
100
AcDbLine
 10
-3068.56592562501
 20
2052.945695913242
 30
0.0
 11
-3019.290383651208
 21
2102.221237887044
 31
0.0
  0
LINE
  5
154
330
1F
100
AcDbEntity
  8
0-C_ハッチ
  6
JWW_DASHED1
 62
   120
370
     5
100
AcDbLine
 10
-3110.992332496217
 20
2052.945695913233
 30
0.0
 11
-3035.992085056387
 21
2127.945943353062
 31
0.0
  0
LINE
  5
155
330
1F
100
AcDbEntity
  8
0-C_ハッチ
  6
JWW_DASHED1
 62
   120
370
     5
100
AcDbLine
 10
-3153.418739367412
 20
2052.945695913237
 30
0.0
 11
-3078.418491927585
 21
2127.945943353067
 31
0.0
  0
LINE
  5
156
330
1F
100
AcDbEntity
  8
0-C_ハッチ
  6
JWW_DASHED1
 62
   120
370
     5
100
AcDbLine
 10
-3195.84514623861
 20
2052.945695913242
 30
0.0
 11
-3120.844898798778
 21
2127.945943353072
 31
0.0
  0
LINE
  5
157
330
1F
100
AcDbEntity
  8
0-C_ハッチ
  6
JWW_DASHED1
 62
   120
370
     5
100
AcDbLine
 10
-3238.27155310981
 20
2052.94569591324
 30
0.0
 11
-3163.271305669978
 21
2127.945943353072
 31
0.0
  0
LINE
  5
158
330
1F
100
AcDbEntity
  8
0-C_ハッチ
  6
JWW_DASHED1
 62
   120
370
     5
100
AcDbLine
 10
-3280.697959980969
 20
2052.945695913233
 30
0.0
 11
-3205.69771254113
 21
2127.945943353065
 31
0.0
  0
LINE
  5
159
330
1F
100
AcDbEntity
  8
0-C_ハッチ
  6
JWW_DASHED1
 62
   120
370
     5
100
AcDbLine
 10
-3323.124366852158
 20
2052.945695913235
 30
0.0
 11
-3248.12411941233
 21
2127.945943353067
 31
0.0
  0
LINE
  5
15A
330
1F
100
AcDbEntity
  8
0-C_ハッチ
  6
JWW_DASHED1
 62
   120
370
     5
100
AcDbLine
 10
-3365.550773723358
 20
2052.945695913237
 30
0.0
 11
-3290.55052628353
 21
2127.94594335307
 31
0.0
  0
LINE
  5
15B
330
1F
100
AcDbEntity
  8
0-C_ハッチ
  6
JWW_DASHED1
 62
   120
370
     5
100
AcDbLine
 10
-3407.977180594556
 20
2052.945695913242
 30
0.0
 11
-3332.976933154719
 21
2127.945943353074
 31
0.0
  0
LINE
  5
15C
330
1F
100
AcDbEntity
  8
0-C_ハッチ
  6
JWW_DASHED1
 62
   120
370
     5
100
AcDbLine
 10
-3450.403587465756
 20
2052.945695913242
 30
0.0
 11
-3375.403340025924
 21
2127.945943353072
 31
0.0
  0
LINE
  5
15D
330
1F
100
AcDbEntity
  8
0-C_ハッチ
  6
JWW_DASHED1
 62
   120
370
     5
100
AcDbLine
 10
-3492.829994336949
 20
2052.945695913247
 30
0.0
 11
-3417.829746897119
 21
2127.945943353074
 31
0.0
  0
LINE
  5
15E
330
1F
100
AcDbEntity
  8
0-C_ハッチ
  6
JWW_DASHED1
 62
   120
370
     5
100
AcDbLine
 10
-3535.256401208144
 20
2052.945695913249
 30
0.0
 11
-3460.256153768317
 21
2127.945943353081
 31
0.0
  0
LINE
  5
15F
330
1F
100
AcDbEntity
  8
0-C_ハッチ
  6
JWW_DASHED1
 62
   120
370
     5
100
AcDbLine
 10
-3577.682808079372
 20
2052.945695913222
 30
0.0
 11
-3502.682560639544
 21
2127.945943353056
 31
0.0
  0
LINE
  5
160
330
1F
100
AcDbEntity
  8
0-3_仕上げ
  6
Continuous
 62
    40
370
    15
100
AcDbLine
 10
-3019.290383651208
 20
2127.94594335307
 30
0.0
 11
-3620.690016072263
 21
2127.94594335307
 31
0.0
  0
LINE
  5
161
330
1F
100
AcDbEntity
  8
0-3_仕上げ
  6
Continuous
 62
    40
370
    15
100
AcDbLine
 10
-3019.290383651208
 20
2052.94594335307
 30
0.0
 11
-3619.290185699352
 21
2052.94594335307
 31
0.0
  0
LINE
  5
162
330
1F
100
AcDbEntity
  8
0-C_ハッチ
  6
JWW_DASHED1
 62
   120
370
     5
100
AcDbLine
 10
-3619.290185699352
 20
2053.764725164393
 30
0.0
 11
-3545.108967510678
 21
2127.945943353062
 31
0.0
  0
LINE
  5
163
330
1F
100
AcDbEntity
  8
0-C_ハッチ
  6
JWW_DASHED1
 62
   120
370
     5
100
AcDbLine
 10
-3619.290185699352
 20
2096.191132035653
 30
0.0
 11
-3587.535374381965
 21
2127.945943353043
 31
0.0
  0
LINE
  5
164
330
1F
100
AcDbEntity
  8
0-3_仕上げ
  6
Continuous
 62
    40
370
    15
100
AcDbLine
 10
-3019.290383651208
 20
2052.94594335307
 30
0.0
 11
-3019.290383651208
 21
2127.94594335307
 31
0.0
  0
MTEXT
  5
165
330
1F
100
AcDbEntity
  8
0-B_寸法
  6
Continuous
 62
     7
370
   211
100
AcDbMText
 10
-3173.998309538107
 20
1886.518662611358
 30
0.0
 40
91.44000000000001
 41
60.0
 46
0.0
 71
     7
 72
     1
  1
{\fＭＳ ゴシック|b0|i0|c128|p49;5}
 73
     1
 44
1.0
  0
LINE
  5
166
330
1F
100
AcDbEntity
  8
0-B_寸法
  6
Continuous
 62
   120
370
     5
100
AcDbLine
 10
-3049.290655835016
 20
1806.945146596838
 30
0.0
 11
-3049.290655835016
 21
1986.945146596838
 31
0.0
  0
LINE
  5
167
330
1F
100
AcDbEntity
  8
0-B_寸法
  6
Continuous
 62
   120
370
     5
100
AcDbLine
 10
-3019.290433139177
 20
1806.945146596838
 30
0.0
 11
-3019.290433139177
 21
1986.945146596838
 31
0.0
  0
LINE
  5
168
330
1F
100
AcDbEntity
  8
0-B_寸法
  6
Continuous
 62
   120
370
     5
100
AcDbLine
 10
-2983.290433139176
 20
1806.945146596838
 30
0.0
 11
-2983.290433139176
 21
1986.945146596838
 31
0.0
  0
LINE
  5
169
330
1F
100
AcDbEntity
  8
0-B_寸法
  6
Continuous
 62
   120
370
     5
100
AcDbLine
 10
-2929.290433139177
 20
1806.945146596838
 30
0.0
 11
-2929.290433139177
 21
1986.945146596838
 31
0.0
  0
LINE
  5
16A
330
1F
100
AcDbEntity
  8
0-B_寸法
  6
Continuous
 62
   120
370
     5
100
AcDbLine
 10
-2869.290433139177
 20
1806.945146596838
 30
0.0
 11
-2869.290433139177
 21
1986.945146596838
 31
0.0
  0
LINE
  5
16B
330
1F
100
AcDbEntity
  8
0-B_寸法
  6
Continuous
 62
   120
370
     5
100
AcDbLine
 10
-2869.290433139177
 20
1806.945146596838
 30
0.0
 11
-3049.290655835016
 21
1806.945146596838
 31
0.0
  0
LWPOLYLINE
  5
16C
330
1F
100
AcDbEntity
  8
0-B_寸法
  6
Continuous
 62
     7
370
     9
100
AcDbPolyline
 90
        4
 70
     1
 43
3.0
 10
-3047.790655835016
 20
1806.945146596838
 42
0.4142135623731
 10
-3049.290655835016
 20
1808.445146596838
 42
0.4142135623731
 10
-3050.790655835016
 20
1806.945146596838
 42
0.4142135623731
 10
-3049.290655835016
 20
1805.445146596839
 42
0.4142135623731
  0
LWPOLYLINE
  5
16D
330
1F
100
AcDbEntity
  8
0-B_寸法
  6
Continuous
 62
     7
370
     9
100
AcDbPolyline
 90
        4
 70
     1
 43
3.0
 10
-3017.790433139177
 20
1806.945146596838
 42
0.4142135623731
 10
-3019.290433139177
 20
1808.445146596838
 42
0.4142135623731
 10
-3020.790433139177
 20
1806.945146596838
 42
0.4142135623731
 10
-3019.290433139177
 20
1805.445146596839
 42
0.4142135623731
  0
LWPOLYLINE
  5
16E
330
1F
100
AcDbEntity
  8
0-B_寸法
  6
Continuous
 62
     7
370
     9
100
AcDbPolyline
 90
        4
 70
     1
 43
3.0
 10
-2981.790433139176
 20
1806.945146596838
 42
0.4142135623731
 10
-2983.290433139176
 20
1808.445146596838
 42
0.4142135623731
 10
-2984.790433139176
 20
1806.945146596838
 42
0.4142135623731
 10
-2983.290433139176
 20
1805.445146596839
 42
0.4142135623731
  0
LWPOLYLINE
  5
16F
330
1F
100
AcDbEntity
  8
0-B_寸法
  6
Continuous
 62
     7
370
     9
100
AcDbPolyline
 90
        4
 70
     1
 43
3.0
 10
-2927.790433139177
 20
1806.945146596838
 42
0.4142135623731
 10
-2929.290433139177
 20
1808.445146596838
 42
0.4142135623731
 10
-2930.790433139177
 20
1806.945146596838
 42
0.4142135623731
 10
-2929.290433139177
 20
1805.445146596839
 42
0.4142135623731
  0
LWPOLYLINE
  5
170
330
1F
100
AcDbEntity
  8
0-B_寸法
  6
Continuous
 62
     7
370
     9
100
AcDbPolyline
 90
        4
 70
     1
 43
3.0
 10
-2867.790433139177
 20
1806.945146596838
 42
0.4142135623731
 10
-2869.290433139177
 20
1808.445146596838
 42
0.4142135623731
 10
-2870.790433139177
 20
1806.945146596838
 42
0.4142135623731
 10
-2869.290433139177
 20
1805.445146596839
 42
0.4142135623731
  0
LINE
  5
171
330
1F
100
AcDbEntity
  8
0-B_寸法
  6
Continuous
 62
   120
370
     5
100
AcDbLine
 10
-3001.498309538107
 20
1806.945146596838
 30
0.0
 11
-3121.498309538107
 21
1689.247540204467
 31
0.0
  0
LINE
  5
172
330
1F
100
AcDbEntity
  8
0-B_寸法
  6
Continuous
 62
   120
370
     5
100
AcDbLine
 10
-3121.498309538107
 20
1689.247540204467
 30
0.0
 11
-3176.585023456475
 21
1689.247540204467
 31
0.0
  0
MTEXT
  5
173
330
1F
100
AcDbEntity
  8
0-B_寸法
  6
Continuous
 62
     7
370
   211
100
AcDbMText
 10
-2831.518643553573
 20
1885.445006222487
 30
0.0
 40
91.44000000000001
 41
120.0
 46
0.0
 71
     7
 72
     1
  1
{\fＭＳ ゴシック|b0|i0|c128|p49;10}
 73
     1
 44
1.0
  0
MTEXT
  5
174
330
1F
100
AcDbEntity
  8
0-B_寸法
  6
Continuous
 62
     7
370
   211
100
AcDbMText
 10
-2986.290433139175
 20
1807.665146596838
 30
0.0
 40
91.44
 41
60.0
 46
0.0
 71
     7
 72
     1
  1
{\fＭＳ ゴシック|b0|i0|c128|p49;9}
 73
     1
 44
1.0
  0
LINE
  5
175
330
1F
100
AcDbEntity
  8
0-B_寸法
  6
Continuous
 62
   120
370
     5
100
AcDbLine
 10
-2899.290433139177
 20
1806.945146596838
 30
0.0
 11
-2840.411804260239
 21
1893.743206341632
 31
0.0
  0
LINE
  5
176
330
1F
100
AcDbEntity
  8
0-B_寸法
  6
Continuous
 62
   120
370
     5
100
AcDbLine
 10
-2840.411804260239
 20
1893.743206341632
 30
0.0
 11
-2730.748322483751
 21
1893.743206341632
 31
0.0
  0
LINE
  5
177
330
1F
100
AcDbEntity
  8
0-B_寸法
  6
Continuous
 62
   120
370
     5
100
AcDbLine
 10
-3032.796896259997
 20
1806.945146596838
 30
0.0
 11
-3121.498309538107
 21
1893.743206341632
 31
0.0
  0
LINE
  5
178
330
1F
100
AcDbEntity
  8
0-B_寸法
  6
Continuous
 62
   120
370
     5
100
AcDbLine
 10
-3121.498309538107
 20
1893.743206341632
 30
0.0
 11
-3176.585023456475
 21
1893.743206341632
 31
0.0
  0
MTEXT
  5
179
330
1F
100
AcDbEntity
  8
0-B_寸法
  6
Continuous
 62
     7
370
   211
100
AcDbMText
 10
-3176.24604549893
 20
1684.92701472803
 30
0.0
 40
91.44
 41
60.0
 46
0.0
 71
     7
 72
     1
  1
{\fＭＳ ゴシック|b0|i0|c128|p49;6}
 73
     1
 44
1.0
  0
LINE
  5
17A
330
1F
100
AcDbEntity
  8
0-C_ハッチ
  6
JWW_DASHED1
 62
   120
370
     5
100
AcDbLine
 10
1324.709616348795
 20
2093.874898539029
 30
0.0
 11
1358.780661162855
 21
2127.945943353088
 31
0.0
  0
LINE
  5
17B
330
1F
100
AcDbEntity
  8
0-C_ハッチ
  6
JWW_DASHED1
 62
   120
370
     5
100
AcDbLine
 10
1792.897543617193
 20
2052.945943353081
 30
0.0
 11
1867.89754361719
 21
2127.945943353079
 31
0.0
  0
LINE
  5
17C
330
1F
100
AcDbEntity
  8
0-C_ハッチ
  6
JWW_DASHED1
 62
   120
370
     5
100
AcDbLine
 10
1750.471136745997
 20
2052.945943353086
 30
0.0
 11
1825.471136745993
 21
2127.945943353081
 31
0.0
  0
LINE
  5
17D
330
1F
100
AcDbEntity
  8
0-C_ハッチ
  6
JWW_DASHED1
 62
   120
370
     5
100
AcDbLine
 10
1708.04472987479
 20
2052.945943353079
 30
0.0
 11
1783.044729874784
 21
2127.945943353072
 31
0.0
  0
LINE
  5
17E
330
1F
100
AcDbEntity
  8
0-C_ハッチ
  6
JWW_DASHED1
 62
   120
370
     5
100
AcDbLine
 10
1665.618323003593
 20
2052.945943353081
 30
0.0
 11
1740.618323003587
 21
2127.945943353074
 31
0.0
  0
LINE
  5
17F
330
1F
100
AcDbEntity
  8
0-C_ハッチ
  6
JWW_DASHED1
 62
   120
370
     5
100
AcDbLine
 10
1623.191916132382
 20
2052.94594335307
 30
0.0
 11
1698.191916132391
 21
2127.945943353081
 31
0.0
  0
LINE
  5
180
330
1F
100
AcDbEntity
  8
0-C_ハッチ
  6
JWW_DASHED1
 62
   120
370
     5
100
AcDbLine
 10
1580.765509261178
 20
2052.945943353067
 30
0.0
 11
1655.76550926119
 21
2127.945943353079
 31
0.0
  0
LINE
  5
181
330
1F
100
AcDbEntity
  8
0-C_ハッチ
  6
JWW_DASHED1
 62
   120
370
     5
100
AcDbLine
 10
1538.339102389982
 20
2052.94594335307
 30
0.0
 11
1613.339102389977
 21
2127.945943353067
 31
0.0
  0
LINE
  5
182
330
1F
100
AcDbEntity
  8
0-C_ハッチ
  6
JWW_DASHED1
 62
   120
370
     5
100
AcDbLine
 10
1495.912695518843
 20
2052.945943353076
 30
0.0
 11
1570.912695518839
 21
2127.945943353072
 31
0.0
  0
LINE
  5
183
330
1F
100
AcDbEntity
  8
0-C_ハッチ
  6
JWW_DASHED1
 62
   120
370
     5
100
AcDbLine
 10
1453.486288647646
 20
2052.945943353081
 30
0.0
 11
1528.486288647644
 21
2127.945943353076
 31
0.0
  0
LINE
  5
184
330
1F
100
AcDbEntity
  8
0-C_ハッチ
  6
JWW_DASHED1
 62
   120
370
     5
100
AcDbLine
 10
1411.05988177645
 20
2052.945943353084
 30
0.0
 11
1486.059881776446
 21
2127.945943353081
 31
0.0
  0
LINE
  5
185
330
1F
100
AcDbEntity
  8
0-C_ハッチ
  6
JWW_DASHED1
 62
   120
370
     5
100
AcDbLine
 10
1368.633474905252
 20
2052.945943353086
 30
0.0
 11
1443.633474905245
 21
2127.945943353081
 31
0.0
  0
LINE
  5
186
330
1F
100
AcDbEntity
  8
0-C_ハッチ
  6
JWW_DASHED1
 62
   120
370
     5
100
AcDbLine
 10
1326.207068034039
 20
2052.945943353072
 30
0.0
 11
1401.20706803405
 21
2127.945943353084
 31
0.0
  0
LINE
  5
187
330
1F
100
AcDbEntity
  8
0-3_仕上げ
  6
Continuous
 62
    40
370
    15
100
AcDbLine
 10
1324.709616348795
 20
2127.94594335307
 30
0.0
 11
1924.709418396937
 21
2127.94594335307
 31
0.0
  0
LINE
  5
188
330
1F
100
AcDbEntity
  8
0-3_仕上げ
  6
Continuous
 62
    40
370
    15
100
AcDbLine
 10
1324.709616348795
 20
2052.94594335307
 30
0.0
 11
1924.709418396937
 21
2052.94594335307
 31
0.0
  0
LINE
  5
189
330
1F
100
AcDbEntity
  8
0-C_ハッチ
  6
JWW_DASHED1
 62
   120
370
     5
100
AcDbLine
 10
1835.32395048839
 20
2052.945943353079
 30
0.0
 11
1910.323950488383
 21
2127.94594335307
 31
0.0
  0
LINE
  5
18A
330
1F
100
AcDbEntity
  8
0-C_ハッチ
  6
JWW_DASHED1
 62
   120
370
     5
100
AcDbLine
 10
1877.750357359529
 20
2052.945943353072
 30
0.0
 11
1924.709418396937
 21
2099.90500439048
 31
0.0
  0
LINE
  5
18B
330
1F
100
AcDbEntity
  8
0-3_仕上げ
  6
Continuous
 62
    40
370
    15
100
AcDbLine
 10
1324.709616348795
 20
2052.94594335307
 30
0.0
 11
1324.709616348795
 21
2127.94594335307
 31
0.0
  0
LINE
  5
18C
330
1F
100
AcDbEntity
  8
F-0_補助線
  6
JWW_HOJO
 62
   120
370
     5
100
AcDbLine
 10
-6140.081333436773
 20
-4455.0
 30
0.0
 11
-6140.081333436773
 21
4424.999604096284
 31
0.0
  0
LINE
  5
18D
330
1F
100
AcDbEntity
  8
F-0_補助線
  6
JWW_HOJO
 62
   120
370
     5
100
AcDbLine
 10
-6140.081333436773
 20
4424.999604096284
 30
0.0
 11
6159.917676803936
 21
4424.999604096284
 31
0.0
  0
LINE
  5
18E
330
1F
100
AcDbEntity
  8
F-0_補助線
  6
JWW_HOJO
 62
   120
370
     5
100
AcDbLine
 10
6159.917676803936
 20
4424.999604096284
 30
0.0
 11
6159.917676803936
 21
-4455.0
 31
0.0
  0
LINE
  5
18F
330
1F
100
AcDbEntity
  8
F-0_補助線
  6
JWW_HOJO
 62
   120
370
     5
100
AcDbLine
 10
6159.917676803936
 20
-4455.0
 30
0.0
 11
-6140.081333436773
 21
-4455.0
 31
0.0
  0
LINE
  5
190
330
1F
100
AcDbEntity
  8
F-0_補助線
  6
JWW_HOJO
 62
   120
370
     5
100
AcDbLine
 10
-6140.081333436773
 20
194.9998020481422
 30
0.0
 11
6159.917676803936
 21
194.9998020481422
 31
0.0
  0
LINE
  5
191
330
1F
100
AcDbEntity
  8
F-0_補助線
  6
JWW_HOJO
 62
   120
370
     5
100
AcDbLine
 10
-5659.999495325861
 20
4424.999604096284
 30
0.0
 11
-5659.999495325861
 21
-4455.0
 31
0.0
  0
LINE
  5
192
330
1F
100
AcDbEntity
  8
F-0_補助線
  6
JWW_HOJO
 62
   120
370
     5
100
AcDbLine
 10
-6140.081333436773
 20
2438.999683277028
 30
0.0
 11
6159.917676803936
 21
2438.999683277028
 31
0.0
  0
LINE
  5
193
330
1F
100
AcDbEntity
  8
F-0_補助線
  6
JWW_HOJO
 62
   120
370
     5
100
AcDbLine
 10
-6140.081333436773
 20
-3159.000197951857
 30
0.0
 11
6159.917676803936
 21
-3159.000197951857
 31
0.0
  0
LINE
  5
194
330
1F
100
AcDbEntity
  8
F-0_補助線
  6
JWW_HOJO
 62
   120
370
     5
100
AcDbLine
 10
-200.0818283164182
 20
-4455.0
 30
0.0
 11
-200.0818283164182
 21
194.9998020481422
 31
0.0
  0
LINE
  5
195
330
1F
100
AcDbEntity
  8
F-0_補助線
  6
JWW_HOJO
 62
   120
370
     5
100
AcDbLine
 10
9.918171683581818
 20
-4455.0
 30
0.0
 11
9.918171683581818
 21
4424.999604096284
 31
0.0
  0
LINE
  5
196
330
1F
100
AcDbEntity
  8
F-0_補助線
  6
JWW_HOJO
 62
   120
370
     5
100
AcDbLine
 10
219.9181716835818
 20
-4455.0
 30
0.0
 11
219.9181716835818
 21
194.9998020481422
 31
0.0
  0
LINE
  5
197
330
1F
100
AcDbEntity
  8
F-0_補助線
  6
JWW_HOJO
 62
   120
370
     5
100
AcDbLine
 10
5679.835838693025
 20
4000.000181455872
 30
0.0
 11
5679.835838693025
 21
-4455.0
 31
0.0
  0
LINE
  5
198
330
1F
100
AcDbEntity
  8
F-0_補助線
  6
JWW_HOJO
 62
   120
370
     5
100
AcDbLine
 10
-6140.081333436773
 20
3730.000181455872
 30
0.0
 11
6159.917676803936
 21
3730.000181455872
 31
0.0
  0
LINE
  5
199
330
1F
100
AcDbEntity
  8
F-0_補助線
  6
JWW_HOJO
 62
   120
370
     5
100
AcDbLine
 10
-6140.081333436773
 20
4000.000181455872
 30
0.0
 11
6159.917676803936
 21
4000.000181455872
 31
0.0
  0
LINE
  5
19A
330
1F
100
AcDbEntity
  8
0-3_仕上げ
  6
Continuous
 62
    40
370
    15
100
AcDbLine
 10
-2431.046497954113
 20
-224.9999998463859
 30
0.0
 11
-2431.046497954113
 21
141.0005813299735
 31
0.0
  0
LINE
  5
19B
330
1F
100
AcDbEntity
  8
0-0_補助線
  6
JWW_HOJO
 62
   120
370
     5
100
AcDbLine
 10
-3619.290185699352
 20
141.0005813299735
 30
0.0
 11
-1495.045916212125
 21
141.0005813299735
 31
0.0
  0
MTEXT
  5
19C
330
1F
100
AcDbEntity
  8
0-A_文字
  6
Continuous
 62
     7
370
     9
100
AcDbMText
 10
-3679.563690282225
 20
189.2882521550883
 30
0.0
 40
91.44
 41
1800.0
 46
0.0
 71
     7
 72
     1
  1
{\fＭＳ ゴシック|b0|i0|c128|p49;　[３方枠＋レール(レール埋込)]}
 73
     1
 44
1.0
  0
LINE
  5
19D
330
1F
100
AcDbEntity
  8
0-0_補助線
  6
JWW_HOJO
 62
   120
370
     5
100
AcDbLine
 10
-3619.290185699352
 20
141.0005813299735
 30
0.0
 11
-3619.290185699352
 21
-3158.999804383373
 31
0.0
  0
LINE
  5
19E
330
1F
100
AcDbEntity
  8
0-0_補助線
  6
JWW_HOJO
 62
   120
370
     5
100
AcDbLine
 10
-3259.290185699352
 20
141.0005813299735
 30
0.0
 11
-3259.290185699352
 21
-3158.999804383373
 31
0.0
  0
LINE
  5
19F
330
1F
100
AcDbEntity
  8
0-0_補助線
  6
JWW_HOJO
 62
   120
370
     5
100
AcDbLine
 10
-3439.290185699352
 20
141.0005813299735
 30
0.0
 11
-3439.290185699352
 21
-3158.999804383373
 31
0.0
  0
LINE
  5
1A0
330
1F
100
AcDbEntity
  8
0-0_補助線
  6
JWW_HOJO
 62
   120
370
     5
100
AcDbLine
 10
-1675.046442641104
 20
141.0005813299735
 30
0.0
 11
-1675.045743279175
 21
-3158.999804383372
 31
0.0
  0
LINE
  5
1A1
330
1F
100
AcDbEntity
  8
0-0_補助線
  6
JWW_HOJO
 62
   120
370
     5
100
AcDbLine
 10
-1855.046442641105
 20
141.0005813299735
 30
0.0
 11
-1855.045743279175
 21
-3158.999804383372
 31
0.0
  0
LINE
  5
1A2
330
1F
100
AcDbEntity
  8
0-0_補助線
  6
JWW_HOJO
 62
   120
370
     5
100
AcDbLine
 10
-2065.04662383912
 20
141.0005813299735
 30
0.0
 11
-2065.045924477191
 21
-3158.999804383372
 31
0.0
  0
LINE
  5
1A3
330
1F
100
AcDbEntity
  8
0-0_補助線
  6
JWW_HOJO
 62
   120
370
     5
100
AcDbLine
 10
-2983.04650512059
 20
141.0005813299735
 30
0.0
 11
-2983.04650512059
 21
-3158.999804383373
 31
0.0
  0
LINE
  5
1A4
330
1F
100
AcDbEntity
  8
0-1_通り芯
  6
JWW_CENTER1
 62
   120
370
     5
100
AcDbLine
 10
-2656.046506219298
 20
141.0005813299735
 30
0.0
 11
-2656.046506219298
 21
-3259.135560870882
 31
0.0
  0
LINE
  5
1A5
330
1F
100
AcDbEntity
  8
0-0_補助線
  6
JWW_HOJO
 62
   120
370
     5
100
AcDbLine
 10
-1495.045852633937
 20
141.0005813299735
 30
0.0
 11
-1495.045153272008
 21
-3158.999804383372
 31
0.0
  0
MTEXT
  5
1A6
330
1F
100
AcDbEntity
  8
0-B_寸法
  6
Continuous
 62
     7
370
   211
100
AcDbMText
 10
-1930.046514484346
 20
-287.2795742498903
 30
0.0
 40
91.44
 41
60.0
 46
0.0
 71
     7
 72
     1
  1
{\fＭＳ ゴシック|b0|i0|c128|p49;6}
 11
6.123031769111886E-17
 21
1.0
 31
0.0
 73
     1
 44
1.0
  0
MTEXT
  5
1A7
330
1F
100
AcDbEntity
  8
0-B_寸法
  6
Continuous
 62
     7
370
   211
100
AcDbMText
 10
-2080.046514484346
 20
-527.2791486533948
 30
0.0
 40
91.44
 41
120.0
 46
0.0
 71
     7
 72
     1
  1
{\fＭＳ ゴシック|b0|i0|c128|p49;10}
 11
6.123031769111886E-17
 21
1.0
 31
0.0
 73
     1
 44
1.0
  0
MTEXT
  5
1A8
330
1F
100
AcDbEntity
  8
0-B_寸法
  6
Continuous
 62
     7
370
   211
100
AcDbMText
 10
-2080.046514484346
 20
-155.2793317588636
 30
0.0
 40
91.44
 41
120.0
 46
0.0
 71
     7
 72
     1
  1
{\fＭＳ ゴシック|b0|i0|c128|p49;11}
 11
6.123031769111886E-17
 21
1.0
 31
0.0
 73
     1
 44
1.0
  0
LINE
  5
1A9
330
1F
100
AcDbEntity
  8
0-B_寸法
  6
Continuous
 62
   120
370
     5
100
AcDbLine
 10
-2065.046514484346
 20
-374.9995742498905
 30
0.0
 11
-2197.046560260716
 21
-374.9995742498905
 31
0.0
  0
LWPOLYLINE
  5
1AA
330
1F
100
AcDbEntity
  8
0-B_寸法
  6
Continuous
 62
     7
370
     9
100
AcDbPolyline
 90
        4
 70
     1
 43
3.0
 10
-2063.546514484346
 20
-374.9995742498905
 42
0.4142135623731
 10
-2065.046514484346
 20
-373.4995742498905
 42
0.4142135623731
 10
-2066.546514484346
 20
-374.9995742498905
 42
0.4142135623731
 10
-2065.046514484346
 20
-376.4995742498905
 42
0.4142135623731
  0
LINE
  5
1AB
330
1F
100
AcDbEntity
  8
0-B_寸法
  6
Continuous
 62
   120
370
     5
100
AcDbLine
 10
-2065.046514484346
 20
-314.9995742498905
 30
0.0
 11
-2065.046514484346
 21
-374.9995742498905
 31
0.0
  0
LINE
  5
1AC
330
1F
100
AcDbEntity
  8
0-B_寸法
  6
Continuous
 62
   120
370
     5
100
AcDbLine
 10
-2065.046514484346
 20
-314.9995742498905
 30
0.0
 11
-2197.046560260716
 21
-314.9995742498905
 31
0.0
  0
LWPOLYLINE
  5
1AD
330
1F
100
AcDbEntity
  8
0-B_寸法
  6
Continuous
 62
     7
370
     9
100
AcDbPolyline
 90
        4
 70
     1
 43
3.0
 10
-2063.546514484346
 20
-314.9995742498905
 42
0.4142135623731
 10
-2065.046514484346
 20
-313.4995742498905
 42
0.4142135623731
 10
-2066.546514484346
 20
-314.9995742498905
 42
0.4142135623731
 10
-2065.046514484346
 20
-316.4995742498905
 42
0.4142135623731
  0
LINE
  5
1AE
330
1F
100
AcDbEntity
  8
0-B_寸法
  6
Continuous
 62
   120
370
     5
100
AcDbLine
 10
-2065.046514484346
 20
-260.9995742498905
 30
0.0
 11
-2065.046514484346
 21
-314.9995742498905
 31
0.0
  0
LINE
  5
1AF
330
1F
100
AcDbEntity
  8
0-B_寸法
  6
Continuous
 62
   120
370
     5
100
AcDbLine
 10
-2065.046514484346
 20
-260.9995742498905
 30
0.0
 11
-2197.046560260716
 21
-260.9995742498905
 31
0.0
  0
LWPOLYLINE
  5
1B0
330
1F
100
AcDbEntity
  8
0-B_寸法
  6
Continuous
 62
     7
370
     9
100
AcDbPolyline
 90
        4
 70
     1
 43
3.0
 10
-2063.546514484346
 20
-260.9995742498905
 42
0.4142135623731
 10
-2065.046514484346
 20
-259.4995742498905
 42
0.4142135623731
 10
-2066.546514484346
 20
-260.9995742498905
 42
0.4142135623731
 10
-2065.046514484346
 20
-262.4995742498906
 42
0.4142135623731
  0
LINE
  5
1B1
330
1F
100
AcDbEntity
  8
0-B_寸法
  6
Continuous
 62
   120
370
     5
100
AcDbLine
 10
-2065.046514484346
 20
-224.9995742498905
 30
0.0
 11
-2065.046514484346
 21
-260.9995742498905
 31
0.0
  0
LINE
  5
1B2
330
1F
100
AcDbEntity
  8
0-B_寸法
  6
Continuous
 62
   120
370
     5
100
AcDbLine
 10
-2065.046514484346
 20
-224.9995742498905
 30
0.0
 11
-2197.046560260716
 21
-224.9995742498905
 31
0.0
  0
LINE
  5
1B3
330
1F
100
AcDbEntity
  8
0-B_寸法
  6
Continuous
 62
   120
370
     5
100
AcDbLine
 10
-2065.046514484346
 20
-158.9997573553593
 30
0.0
 11
-2197.046560260716
 21
-158.9997573553593
 31
0.0
  0
LWPOLYLINE
  5
1B4
330
1F
100
AcDbEntity
  8
0-B_寸法
  6
Continuous
 62
     7
370
     9
100
AcDbPolyline
 90
        4
 70
     1
 43
3.0
 10
-2063.546514484346
 20
-224.9995742498905
 42
0.4142135623731
 10
-2065.046514484346
 20
-223.4995742498905
 42
0.4142135623731
 10
-2066.546514484346
 20
-224.9995742498905
 42
0.4142135623731
 10
-2065.046514484346
 20
-226.4995742498905
 42
0.4142135623731
  0
LWPOLYLINE
  5
1B5
330
1F
100
AcDbEntity
  8
0-B_寸法
  6
Continuous
 62
     7
370
     9
100
AcDbPolyline
 90
        4
 70
     1
 43
3.0
 10
-2063.546514484346
 20
-158.9997573553593
 42
0.4142135623731
 10
-2065.046514484346
 20
-157.4997573553593
 42
0.4142135623731
 10
-2066.546514484346
 20
-158.9997573553593
 42
0.4142135623731
 10
-2065.046514484346
 20
-160.4997573553593
 42
0.4142135623731
  0
LINE
  5
1B6
330
1F
100
AcDbEntity
  8
0-B_寸法
  6
Continuous
 62
   120
370
     5
100
AcDbLine
 10
-2065.046514484346
 20
-158.9997573553593
 30
0.0
 11
-2065.046514484346
 21
-224.9995742498905
 31
0.0
  0
MTEXT
  5
1B7
330
1F
100
AcDbEntity
  8
0-B_寸法
  6
Continuous
 62
     7
370
   211
100
AcDbMText
 10
-2080.046514484346
 20
-332.2795742498907
 30
0.0
 40
91.44
 41
60.0
 46
0.0
 71
     7
 72
     1
  1
{\fＭＳ ゴシック|b0|i0|c128|p49;9}
 11
6.123031769111886E-17
 21
1.0
 31
0.0
 73
     1
 44
1.0
  0
MTEXT
  5
1B8
330
1F
100
AcDbEntity
  8
0-A_文字
  6
Continuous
 62
     7
370
   211
100
AcDbMText
 10
-2716.046506219299
 20
-2762.781666063762
 30
0.0
 40
91.44
 41
120.0
 46
0.0
 71
     7
 72
     1
  1
{\fＭＳ ゴシック|b0|i0|c128|p49;32}
 73
     1
 44
1.0
  0
LINE
  5
1B9
330
1F
100
AcDbEntity
  8
0-A_文字
  6
Continuous
 62
   120
370
     5
100
AcDbLine
 10
-2560.046951610978
 20
-2763.501666063761
 30
0.0
 11
-2560.046951610978
 21
-2872.209375437029
 31
0.0
  0
LINE
  5
1BA
330
1F
100
AcDbEntity
  8
0-A_文字
  6
Continuous
 62
   120
370
     5
100
AcDbLine
 10
-2752.046060827618
 20
-2763.501666063761
 30
0.0
 11
-2752.046060827618
 21
-2872.209375437029
 31
0.0
  0
LWPOLYLINE
  5
1BB
330
1F
100
AcDbEntity
  8
0-A_文字
  6
Continuous
 62
     7
370
     9
100
AcDbPolyline
 90
        4
 70
     1
 43
3.0
 10
-2558.546951610978
 20
-2763.501666063761
 42
0.4142135623731
 10
-2560.046951610978
 20
-2762.001666063761
 42
0.4142135623731
 10
-2561.546951610978
 20
-2763.501666063761
 42
0.4142135623731
 10
-2560.046951610978
 20
-2765.001666063761
 42
0.4142135623731
  0
LWPOLYLINE
  5
1BC
330
1F
100
AcDbEntity
  8
0-A_文字
  6
Continuous
 62
     7
370
     9
100
AcDbPolyline
 90
        4
 70
     1
 43
3.0
 10
-2750.546060827618
 20
-2763.501666063761
 42
0.4142135623731
 10
-2752.046060827618
 20
-2762.001666063761
 42
0.4142135623731
 10
-2753.546060827618
 20
-2763.501666063761
 42
0.4142135623731
 10
-2752.046060827618
 20
-2765.001666063761
 42
0.4142135623731
  0
LINE
  5
1BD
330
1F
100
AcDbEntity
  8
0-A_文字
  6
Continuous
 62
   120
370
     5
100
AcDbLine
 10
-2752.046060827618
 20
-2763.501666063761
 30
0.0
 11
-2560.046951610978
 21
-2763.501666063761
 31
0.0
  0
LWPOLYLINE
  5
1BE
330
1F
100
AcDbEntity
  8
0-B_寸法
  6
Continuous
 62
     7
370
     9
100
AcDbPolyline
 90
        4
 70
     1
 43
3.0
 10
-1493.546506219296
 20
-3086.999849061707
 42
0.4142135623731
 10
-1495.046506219296
 20
-3085.499849061707
 42
0.4142135623731
 10
-1496.546506219296
 20
-3086.999849061707
 42
0.4142135623731
 10
-1495.046506219296
 20
-3088.499849061707
 42
0.4142135623731
  0
MTEXT
  5
1BF
330
1F
100
AcDbEntity
  8
0-B_寸法
  6
Continuous
 62
     7
370
     0
100
AcDbMText
 10
-1510.04522338063
 20
-3304.960208680092
 30
0.0
 40
91.44
 41
120.0
 46
0.0
 71
     7
 72
     1
  1
{\fＭＳ ゴシック|b0|i0|c128|p49;12}
 11
6.123031769111886E-17
 21
1.0
 31
0.0
 73
     1
 44
1.0
  0
LINE
  5
1C0
330
1F
100
AcDbEntity
  8
0-B_寸法
  6
Continuous
 62
   120
370
     5
100
AcDbLine
 10
-2065.045939736067
 20
-3086.999455786
 30
0.0
 11
-1495.046506219296
 21
-3086.999455786
 31
0.0
  0
LINE
  5
1C1
330
1F
100
AcDbEntity
  8
0-B_寸法
  6
Continuous
 62
   120
370
     5
100
AcDbLine
 10
-1675.046506219296
 20
-3086.999849061707
 30
0.0
 11
-1675.046506219296
 21
-159.0001977982436
 31
0.0
  0
LINE
  5
1C2
330
1F
100
AcDbEntity
  8
0-4_枠
  6
Continuous
 62
   120
370
     5
100
AcDbLine
 10
-2932.046506219297
 20
-3086.999826945734
 30
0.0
 11
-2932.046506219297
 21
-159.0001829518543
 31
0.0
  0
LINE
  5
1C3
330
1F
100
AcDbEntity
  8
0-0_補助線
  6
JWW_HOJO
 62
   120
370
     5
100
AcDbLine
 10
-2426.360738196916
 20
-1779.000301722971
 30
0.0
 11
-2885.732274241676
 21
-1779.000301722971
 31
0.0
  0
LINE
  5
1C4
330
1F
100
AcDbEntity
  8
0-0_補助線
  6
JWW_HOJO
 62
   120
370
     5
100
AcDbLine
 10
-2426.360738196916
 20
-1659.000301722969
 30
0.0
 11
-2885.732274241676
 21
-1659.000301722969
 31
0.0
  0
LINE
  5
1C5
330
1F
100
AcDbEntity
  8
0-0_補助線
  6
JWW_HOJO
 62
   120
370
     5
100
AcDbLine
 10
-3259.290185699352
 20
-3158.999804383373
 30
0.0
 11
-2065.045924477191
 21
-3158.999804383373
 31
0.0
  0
LINE
  5
1C6
330
1F
100
AcDbEntity
  8
0-3_仕上げ
  6
Continuous
 62
    40
370
    15
100
AcDbLine
 10
-3259.290185699352
 20
-3158.99980467615
 30
0.0
 11
-2065.045924477191
 21
-3158.99980467615
 31
0.0
  0
LINE
  5
1C7
330
1F
100
AcDbEntity
  8
0-B_寸法
  6
Continuous
 62
   120
370
     5
100
AcDbLine
 10
-3619.290185699352
 20
-110.8542619710281
 30
0.0
 11
-3619.290185699352
 21
-3158.999804383373
 31
0.0
  0
LWPOLYLINE
  5
1C8
330
1F
100
AcDbEntity
  8
0-B_寸法
  6
Continuous
 62
     7
370
     9
100
AcDbPolyline
 90
        4
 70
     1
 43
3.0
 10
-3617.790185699352
 20
-110.8542619710281
 42
0.4142135623731
 10
-3619.290185699352
 20
-109.3542619710281
 42
0.4142135623731
 10
-3620.790185699352
 20
-110.8542619710281
 42
0.4142135623731
 10
-3619.290185699352
 20
-112.3542619710281
 42
0.4142135623731
  0
LINE
  5
1C9
330
1F
100
AcDbEntity
  8
0-B_寸法
  6
Continuous
 62
   120
370
     5
100
AcDbLine
 10
-3619.290185699352
 20
-110.8542619710281
 30
0.0
 11
-2983.04650512282
 21
-110.8542619710281
 31
0.0
  0
LINE
  5
1CA
330
1F
100
AcDbEntity
  8
0-3_仕上げ
  6
Continuous
 62
     7
370
     9
100
AcDbLine
 10
-3259.290185699352
 20
-3134.999688379431
 30
0.0
 11
-2731.046506219298
 21
-3134.999688379431
 31
0.0
  0
LINE
  5
1CB
330
1F
100
AcDbEntity
  8
0-3_仕上げ
  6
Continuous
 62
     7
370
     9
100
AcDbLine
 10
-3259.290185699352
 20
-3122.999723021006
 30
0.0
 11
-2731.046506219298
 21
-3122.999723021006
 31
0.0
  0
LINE
  5
1CC
330
1F
100
AcDbEntity
  8
0-3_仕上げ
  6
Continuous
 62
     7
370
     9
100
AcDbLine
 10
-3259.290185699352
 20
-3110.999757662581
 30
0.0
 11
-2731.046506219298
 21
-3110.999757662581
 31
0.0
  0
LINE
  5
1CD
330
1F
100
AcDbEntity
  8
0-3_仕上げ
  6
Continuous
 62
     7
370
     9
100
AcDbLine
 10
-3259.290185699352
 20
-3098.999606724289
 30
0.0
 11
-2731.046506219298
 21
-3098.999606724289
 31
0.0
  0
LINE
  5
1CE
330
1F
100
AcDbEntity
  8
0-3_仕上げ
  6
Continuous
 62
     7
370
     9
100
AcDbLine
 10
-3259.290185699352
 20
-3146.999839317725
 30
0.0
 11
-2731.046506219298
 21
-3146.999839317725
 31
0.0
  0
LINE
  5
1CF
330
1F
100
AcDbEntity
  8
0-3_仕上げ
  6
Continuous
 62
    40
370
    15
100
AcDbLine
 10
-3259.290185699352
 20
-3086.999826945731
 30
0.0
 11
-2731.046506219298
 21
-3086.999826945731
 31
0.0
  0
LINE
  5
1D0
330
1F
100
AcDbEntity
  8
0-B_寸法
  6
Continuous
 62
   120
370
     5
100
AcDbLine
 10
-3619.290185699352
 20
-3158.999804383373
 30
0.0
 11
-3259.290185699352
 21
-3158.999804383373
 31
0.0
  0
LWPOLYLINE
  5
1D1
330
1F
100
AcDbEntity
  8
0-B_寸法
  6
Continuous
 62
     7
370
     9
100
AcDbPolyline
 90
        4
 70
     1
 43
3.0
 10
-3617.790185699352
 20
-3158.999804383373
 42
0.4142135623731
 10
-3619.290185699352
 20
-3157.499804383373
 42
0.4142135623731
 10
-3620.790185699352
 20
-3158.999804383373
 42
0.4142135623731
 10
-3619.290185699352
 20
-3160.499804383373
 42
0.4142135623731
  0
LWPOLYLINE
  5
1D2
330
1F
100
AcDbEntity
  8
0-B_寸法
  6
Continuous
 62
     7
370
     9
100
AcDbPolyline
 90
        4
 70
     1
 43
3.0
 10
-1493.545916212134
 20
-3158.99980467615
 42
0.4142135623731
 10
-1495.045916212134
 20
-3157.49980467615
 42
0.4142135623731
 10
-1496.545916212134
 20
-3158.99980467615
 42
0.4142135623731
 10
-1495.045916212134
 20
-3160.49980467615
 42
0.4142135623731
  0
LINE
  5
1D3
330
1F
100
AcDbEntity
  8
0-B_寸法
  6
Continuous
 62
   120
370
     5
100
AcDbLine
 10
-2065.045924477191
 20
-3158.99980467615
 30
0.0
 11
-1495.045916212134
 21
-3158.99980467615
 31
0.0
  0
LWPOLYLINE
  5
1D4
330
1F
100
AcDbEntity
  8
0-B_寸法
  6
Continuous
 62
     7
370
     9
100
AcDbPolyline
 90
        4
 70
     1
 43
3.0
 10
-1493.545916212134
 20
-159.0001977982436
 42
0.4142135623731
 10
-1495.045916212134
 20
-157.5001977982436
 42
0.4142135623731
 10
-1496.545916212134
 20
-159.0001977982436
 42
0.4142135623731
 10
-1495.045916212134
 20
-160.5001977982436
 42
0.4142135623731
  0
LINE
  5
1D5
330
1F
100
AcDbEntity
  8
0-B_寸法
  6
Continuous
 62
   120
370
     5
100
AcDbLine
 10
-2065.04656026062
 20
-159.0001977982436
 30
0.0
 11
-1495.045916212134
 21
-159.0001977982436
 31
0.0
  0
LINE
  5
1D6
330
1F
100
AcDbEntity
  8
0-B_寸法
  6
Continuous
 62
   120
370
     5
100
AcDbLine
 10
-1495.045916212134
 20
-110.8542619710281
 30
0.0
 11
-2065.04656026062
 21
-110.8542619710281
 31
0.0
  0
LINE
  5
1D7
330
1F
100
AcDbEntity
  8
0-B_寸法
  6
Continuous
 62
   120
370
     5
100
AcDbLine
 10
-1495.045916212134
 20
-3158.99980467615
 30
0.0
 11
-1495.045916212134
 21
-12.03051217500715
 31
0.0
  0
LWPOLYLINE
  5
1D8
330
1F
100
AcDbEntity
  8
0-B_寸法
  6
Continuous
 62
     7
370
     9
100
AcDbPolyline
 90
        4
 70
     1
 43
3.0
 10
-1493.545916212134
 20
-110.8542619710281
 42
0.4142135623731
 10
-1495.045916212134
 20
-109.3542619710281
 42
0.4142135623731
 10
-1496.545916212134
 20
-110.8542619710281
 42
0.4142135623731
 10
-1495.045916212134
 20
-112.3542619710281
 42
0.4142135623731
  0
MTEXT
  5
1D9
330
1F
100
AcDbEntity
  8
0-B_寸法
  6
Continuous
 62
     7
370
   211
100
AcDbMText
 10
-1506.955284504763
 20
-119.4885487806626
 30
0.0
 40
91.44
 41
60.0
 46
0.0
 71
     7
 72
     1
  1
{\fＭＳ ゴシック|b0|i0|c128|p49;8}
 11
6.123031769111886E-17
 21
1.0
 31
0.0
 73
     1
 44
1.0
  0
LWPOLYLINE
  5
1DA
330
1F
100
AcDbEntity
  8
0-B_寸法
  6
Continuous
 62
     7
370
     9
100
AcDbPolyline
 90
        4
 70
     1
 43
3.0
 10
-1673.546506219296
 20
-3086.999455786
 42
0.4142135623731
 10
-1675.046506219296
 20
-3085.499455786001
 42
0.4142135623731
 10
-1676.546506219296
 20
-3086.999455786
 42
0.4142135623731
 10
-1675.046506219296
 20
-3088.499455786
 42
0.4142135623731
  0
LWPOLYLINE
  5
1DB
330
1F
100
AcDbEntity
  8
0-B_寸法
  6
Continuous
 62
     7
370
     9
100
AcDbPolyline
 90
        4
 70
     1
 43
3.0
 10
-1673.546506219296
 20
-3158.999433516417
 42
0.4142135623731
 10
-1675.046506219296
 20
-3157.499433516417
 42
0.4142135623731
 10
-1676.546506219296
 20
-3158.999433516417
 42
0.4142135623731
 10
-1675.046506219296
 20
-3160.499433516417
 42
0.4142135623731
  0
LINE
  5
1DC
330
1F
100
AcDbEntity
  8
0-B_寸法
  6
Continuous
 62
   120
370
     5
100
AcDbLine
 10
-1855.046506219293
 20
-3158.999433516417
 30
0.0
 11
-1675.046506219296
 21
-3158.999433516417
 31
0.0
  0
LWPOLYLINE
  5
1DD
330
1F
100
AcDbEntity
  8
0-B_寸法
  6
Continuous
 62
     7
370
     9
100
AcDbPolyline
 90
        4
 70
     1
 43
3.0
 10
-1673.546506219296
 20
-159.0001977982436
 42
0.4142135623731
 10
-1675.046506219296
 20
-157.5001977982436
 42
0.4142135623731
 10
-1676.546506219296
 20
-159.0001977982436
 42
0.4142135623731
 10
-1675.046506219296
 20
-160.5001977982436
 42
0.4142135623731
  0
LWPOLYLINE
  5
1DE
330
1F
100
AcDbEntity
  8
0-B_寸法
  6
Continuous
 62
     7
370
     9
100
AcDbPolyline
 90
        4
 70
     1
 43
3.0
 10
-1673.546506219296
 20
-374.9992030901565
 42
0.4142135623731
 10
-1675.046506219296
 20
-373.4992030901565
 42
0.4142135623731
 10
-1676.546506219296
 20
-374.9992030901565
 42
0.4142135623731
 10
-1675.046506219296
 20
-376.4992030901565
 42
0.4142135623731
  0
MTEXT
  5
1DF
330
1F
100
AcDbEntity
  8
0-B_寸法
  6
Continuous
 62
     7
370
     0
100
AcDbMText
 10
-1690.045813387793
 20
-341.2797004442002
 30
0.0
 40
91.44
 41
120.0
 46
0.0
 71
     7
 72
     1
  1
{\fＭＳ ゴシック|b0|i0|c128|p49;36}
 11
6.123031769111886E-17
 21
1.0
 31
0.0
 73
     1
 44
1.0
  0
LINE
  5
1E0
330
1F
100
AcDbEntity
  8
0-B_寸法
  6
Continuous
 62
   120
370
     5
100
AcDbLine
 10
-1855.046506219293
 20
-374.9992030901565
 30
0.0
 11
-1675.046506219296
 21
-374.9992030901565
 31
0.0
  0
MTEXT
  5
1E1
330
1F
100
AcDbEntity
  8
0-B_寸法
  6
Continuous
 62
     7
370
     0
100
AcDbMText
 10
-1869.513001466704
 20
-3052.411593667748
 30
0.0
 40
91.44
 41
180.0
 46
0.0
 71
     7
 72
     1
  1
{\fＭＳ ゴシック|b0|i0|c128|p49;8.5}
 11
6.123031769111886E-17
 21
1.0
 31
0.0
 73
     1
 44
1.0
  0
LWPOLYLINE
  5
1E2
330
1F
100
AcDbEntity
  8
0-B_寸法
  6
Continuous
 62
     7
370
     9
100
AcDbPolyline
 90
        4
 70
     1
 43
3.0
 10
-1853.546506219293
 20
-3086.999455786
 42
0.4142135623731
 10
-1855.046506219293
 20
-3085.499455786001
 42
0.4142135623731
 10
-1856.546506219293
 20
-3086.999455786
 42
0.4142135623731
 10
-1855.046506219293
 20
-3088.499455786
 42
0.4142135623731
  0
LWPOLYLINE
  5
1E3
330
1F
100
AcDbEntity
  8
0-B_寸法
  6
Continuous
 62
     7
370
     9
100
AcDbPolyline
 90
        4
 70
     1
 43
3.0
 10
-1853.546506219293
 20
-3035.999324642893
 42
0.4142135623731
 10
-1855.046506219293
 20
-3034.499324642893
 42
0.4142135623731
 10
-1856.546506219293
 20
-3035.999324642893
 42
0.4142135623731
 10
-1855.046506219293
 20
-3037.499324642893
 42
0.4142135623731
  0
LINE
  5
1E4
330
1F
100
AcDbEntity
  8
0-B_寸法
  6
Continuous
 62
   120
370
     5
100
AcDbLine
 10
-2065.045950544412
 20
-3035.999324642893
 30
0.0
 11
-1855.046506219293
 21
-3035.999324642893
 31
0.0
  0
LINE
  5
1E5
330
1F
100
AcDbEntity
  8
0-B_寸法
  6
Continuous
 62
   120
370
     5
100
AcDbLine
 10
-1855.046506219293
 20
-3086.999455786
 30
0.0
 11
-1855.046506219293
 21
-374.9995742498905
 31
0.0
  0
LWPOLYLINE
  5
1E6
330
1F
100
AcDbEntity
  8
0-B_寸法
  6
Continuous
 62
     7
370
     9
100
AcDbPolyline
 90
        4
 70
     1
 43
3.0
 10
-1853.546506219293
 20
-419.9997227137843
 42
0.4142135623731
 10
-1855.046506219293
 20
-418.4997227137843
 42
0.4142135623731
 10
-1856.546506219293
 20
-419.9997227137843
 42
0.4142135623731
 10
-1855.046506219293
 20
-421.4997227137843
 42
0.4142135623731
  0
LWPOLYLINE
  5
1E7
330
1F
100
AcDbEntity
  8
0-B_寸法
  6
Continuous
 62
     7
370
     9
100
AcDbPolyline
 90
        4
 70
     1
 43
3.0
 10
-1853.546506219293
 20
-374.9995742498905
 42
0.4142135623731
 10
-1855.046506219293
 20
-373.4995742498905
 42
0.4142135623731
 10
-1856.546506219293
 20
-374.9995742498905
 42
0.4142135623731
 10
-1855.046506219293
 20
-376.4995742498905
 42
0.4142135623731
  0
MTEXT
  5
1E8
330
1F
100
AcDbEntity
  8
0-B_寸法
  6
Continuous
 62
     7
370
     0
100
AcDbMText
 10
-1869.474288799596
 20
-612.2359429048261
 30
0.0
 40
91.44
 41
180.0
 46
0.0
 71
     7
 72
     1
  1
{\fＭＳ ゴシック|b0|i0|c128|p49;7.5}
 11
6.123031769111886E-17
 21
1.0
 31
0.0
 73
     1
 44
1.0
  0
LINE
  5
1E9
330
1F
100
AcDbEntity
  8
0-B_寸法
  6
Continuous
 62
   120
370
     5
100
AcDbLine
 10
-2065.046504947562
 20
-419.9997227137843
 30
0.0
 11
-1855.046506219293
 21
-419.9997227137843
 31
0.0
  0
LINE
  5
1EA
330
1F
100
AcDbEntity
  8
0-B_寸法
  6
Continuous
 62
   120
370
     5
100
AcDbLine
 10
-2065.046514484346
 20
-374.9995742498905
 30
0.0
 11
-1855.046506219293
 21
-374.9995742498905
 31
0.0
  0
LINE
  5
1EB
330
1F
100
AcDbEntity
  8
0-3_仕上げ
  6
Continuous
 62
    40
370
    15
100
AcDbLine
 10
-2065.045941245276
 20
-3086.999826945731
 30
0.0
 11
-2581.046506219298
 21
-3086.999826945731
 31
0.0
  0
LINE
  5
1EC
330
1F
100
AcDbEntity
  8
0-3_仕上げ
  6
Continuous
 62
     7
370
     9
100
AcDbLine
 10
-2581.046506219298
 20
-3146.999839317725
 30
0.0
 11
-2065.045927271865
 21
-3146.999839317725
 31
0.0
  0
LINE
  5
1ED
330
1F
100
AcDbEntity
  8
0-3_仕上げ
  6
Continuous
 62
     7
370
     9
100
AcDbLine
 10
-2581.046506219298
 20
-3098.999606724289
 30
0.0
 11
-2065.045938450647
 21
-3098.999606724289
 31
0.0
  0
LINE
  5
1EE
330
1F
100
AcDbEntity
  8
0-3_仕上げ
  6
Continuous
 62
     7
370
     9
100
AcDbLine
 10
-2581.046506219298
 20
-3110.999757662581
 30
0.0
 11
-2065.045935655929
 21
-3110.999757662581
 31
0.0
  0
LINE
  5
1EF
330
1F
100
AcDbEntity
  8
0-3_仕上げ
  6
Continuous
 62
     7
370
     9
100
AcDbLine
 10
-2581.046506219298
 20
-3122.999723021006
 30
0.0
 11
-2065.045932861256
 21
-3122.999723021006
 31
0.0
  0
LINE
  5
1F0
330
1F
100
AcDbEntity
  8
0-3_仕上げ
  6
Continuous
 62
     7
370
     9
100
AcDbLine
 10
-2581.046506219298
 20
-3134.999688379431
 30
0.0
 11
-2065.045930066582
 21
-3134.999688379431
 31
0.0
  0
LINE
  5
1F1
330
1F
100
AcDbEntity
  8
0-4_枠
  6
Continuous
 62
   120
370
     5
100
AcDbLine
 10
-2932.046506219297
 20
-159.0001829518543
 30
0.0
 11
-2788.04652211388
 21
-159.0001829518543
 31
0.0
  0
LINE
  5
1F2
330
1F
100
AcDbEntity
  8
0-4_枠
  6
Continuous
 62
    92
370
    13
100
AcDbLine
 10
-2572.046929650694
 20
-254.999542082714
 30
0.0
 11
-2572.046929650694
 21
-374.9999998463859
 31
0.0
  0
LINE
  5
1F3
330
1F
100
AcDbEntity
  8
0-4_枠
  6
Continuous
 62
    92
370
    13
100
AcDbLine
 10
-2572.046929650694
 20
-374.9999998463859
 30
0.0
 11
-2389.046522113885
 21
-374.9999998463859
 31
0.0
  0
LINE
  5
1F4
330
1F
100
AcDbEntity
  8
0-4_枠
  6
Continuous
 62
    92
370
    13
100
AcDbLine
 10
-2740.047182493598
 20
-374.9999998463859
 30
0.0
 11
-2740.047182493598
 21
-254.999542082714
 31
0.0
  0
LINE
  5
1F5
330
1F
100
AcDbEntity
  8
0-4_枠
  6
Continuous
 62
    92
370
    13
100
AcDbLine
 10
-2923.046567890251
 20
-374.9999998463859
 30
0.0
 11
-2740.047182493598
 21
-374.9999998463859
 31
0.0
  0
LINE
  5
1F6
330
1F
100
AcDbEntity
  8
0-C_ハッチ
  6
Continuous
 62
   120
370
     5
100
AcDbLine
 10
-2495.996978725112
 20
-374.9999998463927
 30
0.0
 11
-2435.996978725104
 21
-314.9999998463859
 31
0.0
  0
LINE
  5
1F7
330
1F
100
AcDbEntity
  8
0-C_ハッチ
  6
Continuous
 62
   120
370
     5
100
AcDbLine
 10
-2441.393948344753
 20
-260.9999998463855
 30
0.0
 11
-2405.393948344753
 21
-224.9999998463859
 31
0.0
  0
LINE
  5
1F8
330
1F
100
AcDbEntity
  8
0-C_ハッチ
  6
Continuous
 62
   120
370
     5
100
AcDbLine
 10
-2555.393948344755
 20
-374.9999998463893
 30
0.0
 11
-2449.046499575898
 21
-268.652551077532
 31
0.0
  0
LINE
  5
1F9
330
1F
100
AcDbEntity
  8
0-C_ハッチ
  6
Continuous
 62
   120
370
     5
100
AcDbLine
 10
-2572.045829944998
 20
-332.254911826932
 30
0.0
 11
-2431.046497954113
 21
-191.2555798360449
 31
0.0
  0
LINE
  5
1FA
330
1F
100
AcDbEntity
  8
0-C_ハッチ
  6
Continuous
 62
   120
370
     5
100
AcDbLine
 10
-2572.045829944998
 20
-272.8579422072847
 30
0.0
 11
-2458.188070689569
 21
-159.0001829518543
 31
0.0
  0
LINE
  5
1FB
330
1F
100
AcDbEntity
  8
0-C_ハッチ
  6
Continuous
 62
   120
370
     5
100
AcDbLine
 10
-2613.584399440128
 20
-254.9995420827123
 30
0.0
 11
-2517.58504030927
 21
-159.0001829518543
 31
0.0
  0
LINE
  5
1FC
330
1F
100
AcDbEntity
  8
0-C_ハッチ
  6
Continuous
 62
   120
370
     5
100
AcDbLine
 10
-2923.046557690976
 20
-326.873821854915
 30
0.0
 11
-2791.172918787916
 21
-195.0001829518544
 31
0.0
  0
LINE
  5
1FD
330
1F
100
AcDbEntity
  8
0-C_ハッチ
  6
Continuous
 62
   120
370
     5
100
AcDbLine
 10
-2788.046529080712
 20
-191.8737932446506
 30
0.0
 11
-2755.172918787924
 21
-159.0001829518624
 31
0.0
  0
LINE
  5
1FE
330
1F
100
AcDbEntity
  8
0-C_ハッチ
  6
Continuous
 62
   120
370
     5
100
AcDbLine
 10
-2923.046545103104
 20
-267.4768396473415
 30
0.0
 11
-2850.569888407616
 21
-195.0001829518544
 31
0.0
  0
LINE
  5
1FF
330
1F
100
AcDbEntity
  8
0-C_ハッチ
  6
Continuous
 62
   120
370
     5
100
AcDbLine
 10
-2923.046532515231
 20
-208.0798574398341
 30
0.0
 11
-2909.966858027255
 21
-195.0001829518544
 31
0.0
  0
LINE
  5
200
330
1F
100
AcDbEntity
  8
0-4_枠
  6
Continuous
 62
    92
370
    13
100
AcDbLine
 10
-2449.04649795411
 20
-260.9999998463855
 30
0.0
 11
-2389.046497954113
 21
-260.9999998463855
 31
0.0
  0
LINE
  5
201
330
1F
100
AcDbEntity
  8
0-4_枠
  6
Continuous
 62
    92
370
    13
100
AcDbLine
 10
-2449.04649795411
 20
-260.9999998463855
 30
0.0
 11
-2449.046509398214
 21
-314.9999998463859
 31
0.0
  0
LINE
  5
202
330
1F
100
AcDbEntity
  8
0-4_枠
  6
Continuous
 62
    92
370
    13
100
AcDbLine
 10
-2449.046509398214
 20
-314.9999998463859
 30
0.0
 11
-2389.046509398214
 21
-314.9999998463859
 31
0.0
  0
LINE
  5
203
330
1F
100
AcDbEntity
  8
0-4_枠
  6
Continuous
 62
    92
370
    13
100
AcDbLine
 10
-2923.046529743284
 20
-195.0001829518544
 30
0.0
 11
-2923.046567890251
 21
-374.9999998463859
 31
0.0
  0
LINE
  5
204
330
1F
100
AcDbEntity
  8
0-4_枠
  6
Continuous
 62
    92
370
    13
100
AcDbLine
 10
-2923.046529743284
 20
-195.0001829518544
 30
0.0
 11
-2788.046529743281
 21
-195.0001829518544
 31
0.0
  0
LINE
  5
205
330
1F
100
AcDbEntity
  8
0-4_枠
  6
Continuous
 62
    92
370
    13
100
AcDbLine
 10
-2788.04652211388
 20
-159.0001829518543
 30
0.0
 11
-2788.046529743281
 21
-195.0001829518544
 31
0.0
  0
LINE
  5
206
330
1F
100
AcDbEntity
  8
0-4_枠
  6
Continuous
 62
    92
370
    13
100
AcDbLine
 10
-2788.04652211388
 20
-159.0001829518543
 30
0.0
 11
-2431.046497954113
 21
-159.0001829518543
 31
0.0
  0
LINE
  5
207
330
1F
100
AcDbEntity
  8
0-4_枠
  6
Continuous
 62
    92
370
    13
100
AcDbLine
 10
-2740.047182493598
 20
-254.999542082714
 30
0.0
 11
-2572.046929650694
 21
-254.999542082714
 31
0.0
  0
LINE
  5
208
330
1F
100
AcDbEntity
  8
0-4_枠
  6
Continuous
 62
    92
370
    13
100
AcDbLine
 10
-2431.046497954113
 20
-224.9999998463859
 30
0.0
 11
-2431.046497954113
 21
-159.0001829518543
 31
0.0
  0
LINE
  5
209
330
1F
100
AcDbEntity
  8
0-4_枠
  6
Continuous
 62
    92
370
    13
100
AcDbLine
 10
-2431.046497954113
 20
-224.9999998463859
 30
0.0
 11
-2389.046490324712
 21
-224.9999998463859
 31
0.0
  0
LINE
  5
20A
330
1F
100
AcDbEntity
  8
0-4_枠
  6
Continuous
 62
    92
370
    13
100
AcDbLine
 10
-2389.046490324712
 20
-224.9999998463859
 30
0.0
 11
-2389.046497954113
 21
-260.9999998463855
 31
0.0
  0
LINE
  5
20B
330
1F
100
AcDbEntity
  8
0-4_枠
  6
Continuous
 62
    92
370
    13
100
AcDbLine
 10
-2389.046509398214
 20
-314.9999998463859
 30
0.0
 11
-2389.046522113885
 21
-374.9999998463859
 31
0.0
  0
LINE
  5
20C
330
1F
100
AcDbEntity
  8
0-C_ハッチ
  6
Continuous
 62
   120
370
     5
100
AcDbLine
 10
-2792.98182682344
 20
-374.999999846377
 30
0.0
 11
-2740.046082787901
 21
-322.0642558108375
 31
0.0
  0
LINE
  5
20D
330
1F
100
AcDbEntity
  8
0-C_ハッチ
  6
Continuous
 62
   120
370
     5
100
AcDbLine
 10
-2732.37833867948
 20
-254.999542082714
 30
0.0
 11
-2636.378979548609
 21
-159.0001829518441
 31
0.0
  0
LINE
  5
20E
330
1F
100
AcDbEntity
  8
0-C_ハッチ
  6
Continuous
 62
   120
370
     5
100
AcDbLine
 10
-2852.378796443149
 20
-374.9999998463829
 30
0.0
 11
-2740.046082787901
 21
-262.6672861911356
 31
0.0
  0
LINE
  5
20F
330
1F
100
AcDbEntity
  8
0-C_ハッチ
  6
Continuous
 62
   120
370
     5
100
AcDbLine
 10
-2742.58482732202
 20
-374.9999998463855
 30
0.0
 11
-2740.046082787901
 21
-372.4612553122685
 31
0.0
  0
LINE
  5
210
330
1F
100
AcDbEntity
  8
0-C_ハッチ
  6
Continuous
 62
   120
370
     5
100
AcDbLine
 10
-2911.775766062806
 20
-374.9999998463957
 30
0.0
 11
-2695.775949168263
 21
-159.0001829518492
 31
0.0
  0
LINE
  5
211
330
1F
100
AcDbEntity
  8
0-C_ハッチ
  6
Continuous
 62
   120
370
     5
100
AcDbLine
 10
-2672.981369059785
 20
-254.9995420827226
 30
0.0
 11
-2576.982009928914
 21
-159.0001829518509
 31
0.0
  0
LINE
  5
212
330
1F
100
AcDbEntity
  8
0-C_ハッチ
  6
Continuous
 62
   120
370
     5
100
AcDbLine
 10
-2436.600009105451
 20
-374.9999998463795
 30
0.0
 11
-2389.046454626273
 21
-327.4464453672013
 31
0.0
  0
MTEXT
  5
213
330
1F
100
AcDbEntity
  8
0-B_寸法
  6
Continuous
 62
     7
370
     0
100
AcDbMText
 10
-2772.295951643779
 20
-1182.488395730619
 30
0.0
 40
91.43999999999986
 41
239.9999999999996
 46
0.0
 71
     7
 72
     1
  1
{\fＭＳ ゴシック|b0|i0|c128|p49;(24)}
 11
0.9999999999914964
 21
-4.124000483563069E-6
 31
0.0
 73
     1
 44
1.0
  0
LINE
  5
214
330
1F
100
AcDbEntity
  8
0-7_金物
  6
Continuous
 62
     7
370
     9
100
AcDbLine
 10
-2746.04680948773
 20
-122.8545995717366
 30
0.0
 11
-2566.046946816833
 21
-122.8545995717366
 31
0.0
  0
LINE
  5
215
330
1F
100
AcDbEntity
  8
0-7_金物
  6
Continuous
 62
     7
370
     9
100
AcDbLine
 10
-2566.046946816833
 20
-110.8542619710281
 30
0.0
 11
-2566.046946816833
 21
-122.8545995717366
 31
0.0
  0
LINE
  5
216
330
1F
100
AcDbEntity
  8
0-7_金物
  6
Continuous
 62
     7
370
     9
100
AcDbLine
 10
-2746.04680948773
 20
-110.8542619710281
 30
0.0
 11
-2746.04680948773
 21
-122.8545995717366
 31
0.0
  0
LINE
  5
217
330
1F
100
AcDbEntity
  8
0-7_金物
  6
Continuous
 62
     7
370
     9
100
AcDbLine
 10
-2746.04680948773
 20
-110.8542619710281
 30
0.0
 11
-2566.046946816833
 21
-110.8542619710281
 31
0.0
  0
LINE
  5
218
330
1F
100
AcDbEntity
  8
0-7_金物
  6
Continuous
 62
     7
370
     9
100
AcDbLine
 10
-2716.046706490904
 20
-122.8545995717366
 30
0.0
 11
-2716.046706490904
 21
-134.8541933064783
 31
0.0
  0
LINE
  5
219
330
1F
100
AcDbEntity
  8
0-7_金物
  6
Continuous
 62
     7
370
     9
100
AcDbLine
 10
-2596.047049813658
 20
-122.8545995717366
 30
0.0
 11
-2596.047049813658
 21
-134.8541933064783
 31
0.0
  0
LINE
  5
21A
330
1F
100
AcDbEntity
  8
0-7_金物
  6
Continuous
 62
     7
370
     9
100
AcDbLine
 10
-2716.046706490904
 20
-134.8541933064783
 30
0.0
 11
-2596.047049813658
 21
-134.8541933064783
 31
0.0
  0
LINE
  5
21B
330
1F
100
AcDbEntity
  8
0-7_金物
  6
Continuous
 62
     7
370
     9
100
AcDbLine
 10
-2710.046540551573
 20
-134.8541933064783
 30
0.0
 11
-2710.046540551573
 21
-159.0001829518543
 31
0.0
  0
LINE
  5
21C
330
1F
100
AcDbEntity
  8
0-7_金物
  6
Continuous
 62
     7
370
     9
100
AcDbLine
 10
-2602.046471887023
 20
-159.0001829518543
 30
0.0
 11
-2602.046471887023
 21
-134.8541933064783
 31
0.0
  0
LINE
  5
21D
330
1F
100
AcDbEntity
  8
0-6_扉
  6
Continuous
 62
   200
370
    20
100
AcDbLine
 10
-2575.046506219298
 20
-1659.000301722969
 30
0.0
 11
-2575.046506219298
 21
-420.0000913991199
 31
0.0
  0
LINE
  5
21E
330
1F
100
AcDbEntity
  8
0-6_扉
  6
Continuous
 62
   200
370
    20
100
AcDbLine
 10
-2737.046506219299
 20
-1659.000301722969
 30
0.0
 11
-2737.046506219299
 21
-420.0000913991199
 31
0.0
  0
LINE
  5
21F
330
1F
100
AcDbEntity
  8
0-6_扉
  6
Continuous
 62
   200
370
    20
100
AcDbLine
 10
-2575.046506219298
 20
-420.0000913991199
 30
0.0
 11
-2737.046506219299
 21
-420.0000913991199
 31
0.0
  0
LINE
  5
220
330
1F
100
AcDbEntity
  8
0-7_金物
  6
Continuous
 62
     7
370
     9
100
AcDbLine
 10
-2728.045750909239
 20
-266.9999082936512
 30
0.0
 11
-2728.045750909239
 21
-374.9999998463859
 31
0.0
  0
LINE
  5
221
330
1F
100
AcDbEntity
  8
0-7_金物
  6
Continuous
 62
     7
370
     9
100
AcDbLine
 10
-2584.045423322112
 20
-266.9999082936512
 30
0.0
 11
-2728.045750909239
 21
-266.9999082936512
 31
0.0
  0
LINE
  5
222
330
1F
100
AcDbEntity
  8
0-7_金物
  6
Continuous
 62
     7
370
     9
100
AcDbLine
 10
-2584.045423322112
 20
-374.9999998463859
 30
0.0
 11
-2584.045423322112
 21
-266.9999082936512
 31
0.0
  0
LINE
  5
223
330
1F
100
AcDbEntity
  8
0-7_金物
  6
Continuous
 62
     7
370
     9
100
AcDbLine
 10
-2589.866693787963
 20
-361.7877500905258
 30
0.0
 11
-2589.866693787963
 21
-295.7877500905262
 31
0.0
  0
LINE
  5
224
330
1F
100
AcDbEntity
  8
0-7_金物
  6
Continuous
 62
     7
370
     9
100
AcDbLine
 10
-2589.866693787963
 20
-295.7877500905262
 30
0.0
 11
-2626.045859628112
 21
-295.7877500905262
 31
0.0
  0
LINE
  5
225
330
1F
100
AcDbEntity
  8
0-7_金物
  6
Continuous
 62
     7
370
     9
100
AcDbLine
 10
-2626.045859628112
 20
-374.9999998463859
 30
0.0
 11
-2626.045859628112
 21
-278.9995420827144
 31
0.0
  0
LINE
  5
226
330
1F
100
AcDbEntity
  8
0-7_金物
  6
Continuous
 62
     7
370
     9
100
AcDbLine
 10
-2626.045859628112
 20
-278.9995420827144
 30
0.0
 11
-2686.047547631652
 21
-278.9995420827144
 31
0.0
  0
LINE
  5
227
330
1F
100
AcDbEntity
  8
0-7_金物
  6
Continuous
 62
     7
370
     9
100
AcDbLine
 10
-2686.047547631652
 20
-278.9995420827144
 30
0.0
 11
-2686.047547631652
 21
-374.9999998463859
 31
0.0
  0
LINE
  5
228
330
1F
100
AcDbEntity
  8
0-7_金物
  6
Continuous
 62
     7
370
     9
100
AcDbLine
 10
-2721.865941338927
 20
-295.7877500905262
 30
0.0
 11
-2721.865941338927
 21
-361.7877500905258
 31
0.0
  0
LINE
  5
229
330
1F
100
AcDbEntity
  8
0-7_金物
  6
Continuous
 62
     7
370
     9
100
AcDbLine
 10
-2686.047547631652
 20
-295.7877500905262
 30
0.0
 11
-2721.865941338927
 21
-295.7877500905262
 31
0.0
  0
LINE
  5
22A
330
1F
100
AcDbEntity
  8
0-7_金物
  6
Continuous
 62
     7
370
     9
100
AcDbLine
 10
-2740.046082787901
 20
-374.9999998463859
 30
0.0
 11
-2758.045853906066
 21
-374.9999998463859
 31
0.0
  0
LINE
  5
22B
330
1F
100
AcDbEntity
  8
0-7_金物
  6
Continuous
 62
     7
370
     9
100
AcDbLine
 10
-2721.041966729552
 20
-381.0000913991196
 30
0.0
 11
-2721.041966729552
 21
-374.9999998463859
 31
0.0
  0
LINE
  5
22C
330
1F
100
AcDbEntity
  8
0-7_金物
  6
Continuous
 62
     7
370
     9
100
AcDbLine
 10
-2728.045750909239
 20
-374.9999998463859
 30
0.0
 11
-2721.041966729552
 21
-374.9999998463859
 31
0.0
  0
LINE
  5
22D
330
1F
100
AcDbEntity
  8
0-7_金物
  6
Continuous
 62
     7
370
     9
100
AcDbLine
 10
-2572.045829944998
 20
-374.9999998463859
 30
0.0
 11
-2554.047551923187
 21
-374.9999998463859
 31
0.0
  0
LINE
  5
22E
330
1F
100
AcDbEntity
  8
0-7_金物
  6
Continuous
 62
     7
370
     9
100
AcDbLine
 10
-2591.832353883179
 20
-381.0000913991196
 30
0.0
 11
-2591.832353883179
 21
-374.9999998463859
 31
0.0
  0
LINE
  5
22F
330
1F
100
AcDbEntity
  8
0-7_金物
  6
Continuous
 62
     7
370
     9
100
AcDbLine
 10
-2591.832353883179
 20
-374.9999998463859
 30
0.0
 11
-2584.045423322112
 21
-374.9999998463859
 31
0.0
  0
LINE
  5
230
330
1F
100
AcDbEntity
  8
0-7_金物
  6
Continuous
 62
     7
370
     9
100
AcDbLine
 10
-2758.045853906066
 20
-374.9999998463859
 30
0.0
 11
-2758.045853906066
 21
-381.0000913991196
 31
0.0
  0
LINE
  5
231
330
1F
100
AcDbEntity
  8
0-7_金物
  6
Continuous
 62
     7
370
     9
100
AcDbLine
 10
-2591.832353883179
 20
-381.0000913991196
 30
0.0
 11
-2554.047551923187
 21
-381.0000913991196
 31
0.0
  0
LINE
  5
232
330
1F
100
AcDbEntity
  8
0-7_金物
  6
Continuous
 62
     7
370
     9
100
AcDbLine
 10
-2554.047551923187
 20
-374.9999998463859
 30
0.0
 11
-2554.047551923187
 21
-381.0000913991196
 31
0.0
  0
LINE
  5
233
330
1F
100
AcDbEntity
  8
0-7_金物
  6
Continuous
 62
     7
370
     9
100
AcDbLine
 10
-2668.046300225647
 20
-420.0000913991199
 30
0.0
 11
-2644.045619302184
 21
-420.0000913991199
 31
0.0
  0
LINE
  5
234
330
1F
100
AcDbEntity
  8
0-7_金物
  6
Continuous
 62
     7
370
     9
100
AcDbLine
 10
-2668.046300225647
 20
-374.9999998463859
 30
0.0
 11
-2668.046300225647
 21
-420.0000913991199
 31
0.0
  0
LINE
  5
235
330
1F
100
AcDbEntity
  8
0-7_金物
  6
Continuous
 62
     7
370
     9
100
AcDbLine
 10
-2644.045619302184
 20
-420.0000913991199
 30
0.0
 11
-2644.045619302184
 21
-374.9999998463859
 31
0.0
  0
LINE
  5
236
330
1F
100
AcDbEntity
  8
0-7_金物
  6
Continuous
 62
     7
370
     9
100
AcDbLine
 10
-2626.045859628112
 20
-361.7877500905258
 30
0.0
 11
-2589.866693787963
 21
-361.7877500905258
 31
0.0
  0
LINE
  5
237
330
1F
100
AcDbEntity
  8
0-7_金物
  6
Continuous
 62
     7
370
     9
100
AcDbLine
 10
-2721.865941338927
 20
-361.7877500905258
 30
0.0
 11
-2686.047547631652
 21
-361.7877500905258
 31
0.0
  0
LINE
  5
238
330
1F
100
AcDbEntity
  8
0-7_金物
  6
Continuous
 62
     7
370
     9
100
AcDbLine
 10
-2686.047547631652
 20
-374.9999998463859
 30
0.0
 11
-2626.045859628112
 21
-374.9999998463859
 31
0.0
  0
LINE
  5
239
330
1F
100
AcDbEntity
  8
0-7_金物
  6
Continuous
 62
     7
370
     9
100
AcDbLine
 10
-2721.041966729552
 20
-381.0000913991196
 30
0.0
 11
-2758.045853906066
 21
-381.0000913991196
 31
0.0
  0
LINE
  5
23A
330
1F
100
AcDbEntity
  8
0-B_寸法
  6
Continuous
 62
   120
370
     5
100
AcDbLine
 10
-2575.046506219298
 20
-1021.989772333716
 30
0.0
 11
-2737.046506219299
 21
-1021.989772333716
 31
0.0
  0
LWPOLYLINE
  5
23B
330
1F
100
AcDbEntity
  8
0-B_寸法
  6
Continuous
 62
     7
370
     9
100
AcDbPolyline
 90
        4
 70
     1
 43
3.0
 10
-2573.546506219298
 20
-1021.989772333716
 42
0.4142135623731
 10
-2575.046506219298
 20
-1020.489772333716
 42
0.4142135623731
 10
-2576.546506219298
 20
-1021.989772333716
 42
0.4142135623731
 10
-2575.046506219298
 20
-1023.489772333716
 42
0.4142135623731
  0
LINE
  5
23C
330
1F
100
AcDbEntity
  8
0-B_寸法
  6
Continuous
 62
   120
370
     5
100
AcDbLine
 10
-2575.046506219298
 20
-937.7528437547439
 30
0.0
 11
-2575.046506219298
 21
-1021.989772333716
 31
0.0
  0
LWPOLYLINE
  5
23D
330
1F
100
AcDbEntity
  8
0-B_寸法
  6
Continuous
 62
     7
370
     9
100
AcDbPolyline
 90
        4
 70
     1
 43
3.0
 10
-2735.546506219299
 20
-1021.989772333716
 42
0.4142135623731
 10
-2737.046506219299
 20
-1020.489772333716
 42
0.4142135623731
 10
-2738.546506219299
 20
-1021.989772333716
 42
0.4142135623731
 10
-2737.046506219299
 20
-1023.489772333716
 42
0.4142135623731
  0
LINE
  5
23E
330
1F
100
AcDbEntity
  8
0-B_寸法
  6
Continuous
 62
   120
370
     5
100
AcDbLine
 10
-2737.046506219299
 20
-937.7528437547439
 30
0.0
 11
-2737.046506219299
 21
-1021.989772333716
 31
0.0
  0
MTEXT
  5
23F
330
1F
100
AcDbEntity
  8
0-B_寸法
  6
Continuous
 62
     7
370
     0
100
AcDbMText
 10
-2712.295951644288
 20
-1021.269660985588
 30
0.0
 40
91.4399999999992
 41
119.999999999999
 46
0.0
 71
     7
 72
     1
  1
{\fＭＳ ゴシック|b0|i0|c128|p49;27}
 11
0.9999999999914964
 21
-4.124000483563069E-6
 31
0.0
 73
     1
 44
1.0
  0
MTEXT
  5
240
330
1F
100
AcDbEntity
  8
0-B_寸法
  6
Continuous
 62
     7
370
     0
100
AcDbMText
 10
-2707.046001582781
 20
-669.7625222559908
 30
0.0
 40
91.44
 41
120.0
 46
0.0
 71
     7
 72
     1
  1
{\fＭＳ ゴシック|b0|i0|c128|p49;89}
 73
     1
 44
1.0
  0
LINE
  5
241
330
1F
100
AcDbEntity
  8
0-B_寸法
  6
Continuous
 62
   120
370
     5
100
AcDbLine
 10
-2923.04650512282
 20
-670.4825222559908
 30
0.0
 11
-2389.046459346452
 21
-670.4825222559908
 31
0.0
  0
LWPOLYLINE
  5
242
330
1F
100
AcDbEntity
  8
0-B_寸法
  6
Continuous
 62
     7
370
     9
100
AcDbPolyline
 90
        4
 70
     1
 43
3.0
 10
-2387.546459346452
 20
-670.4825222559908
 42
0.4142135623731
 10
-2389.046459346452
 20
-668.9825222559908
 42
0.4142135623731
 10
-2390.546459346452
 20
-670.4825222559908
 42
0.4142135623731
 10
-2389.046459346452
 20
-671.9825222559908
 42
0.4142135623731
  0
LINE
  5
243
330
1F
100
AcDbEntity
  8
0-B_寸法
  6
Continuous
 62
   120
370
     5
100
AcDbLine
 10
-2389.046459346452
 20
-670.4825222559908
 30
0.0
 11
-2389.046459346452
 21
-516.7715748340961
 31
0.0
  0
LWPOLYLINE
  5
244
330
1F
100
AcDbEntity
  8
0-B_寸法
  6
Continuous
 62
     7
370
     9
100
AcDbPolyline
 90
        4
 70
     1
 43
3.0
 10
-2921.54650512282
 20
-670.4825222559908
 42
0.4142135623731
 10
-2923.04650512282
 20
-668.9825222559908
 42
0.4142135623731
 10
-2924.54650512282
 20
-670.4825222559908
 42
0.4142135623731
 10
-2923.04650512282
 20
-671.9825222559908
 42
0.4142135623731
  0
LINE
  5
245
330
1F
100
AcDbEntity
  8
0-B_寸法
  6
Continuous
 62
   120
370
     5
100
AcDbLine
 10
-2923.04650512282
 20
-670.4825222559908
 30
0.0
 11
-2923.04650512282
 21
-516.7715748340961
 31
0.0
  0
LINE
  5
246
330
1F
100
AcDbEntity
  8
0-6_扉
  6
Continuous
 62
   200
370
    20
100
AcDbLine
 10
-2575.046506219298
 20
-3035.999826945732
 30
0.0
 11
-2575.046506219298
 21
-1779.000301722971
 31
0.0
  0
LINE
  5
247
330
1F
100
AcDbEntity
  8
0-6_扉
  6
Continuous
 62
   200
370
    20
100
AcDbLine
 10
-2737.046506219299
 20
-3035.999826945732
 30
0.0
 11
-2737.046506219299
 21
-1779.000301722971
 31
0.0
  0
ARC
  5
248
330
1F
100
AcDbEntity
  8
0-7_金物
  6
JWW_DASHED1
 62
     7
370
     9
100
AcDbCircle
 10
-2561.846506219298
 20
-3085.200197951857
 30
0.0
 40
1.8
100
AcDbArc
 50
90.0
 51
270.0
  0
ARC
  5
249
330
1F
100
AcDbEntity
  8
0-7_金物
  6
JWW_DASHED1
 62
     7
370
     9
100
AcDbCircle
 10
-2750.246506219297
 20
-3085.200197951857
 30
0.0
 40
1.8
100
AcDbArc
 50
270.0
 51
90.0
  0
ARC
  5
24A
330
1F
100
AcDbEntity
  8
0-7_金物
  6
Continuous
 62
     7
370
     9
100
AcDbCircle
 10
-2618.246506219298
 20
-3117.000197951857
 30
0.0
 40
1.2
100
AcDbArc
 50
0.0
 51
90.0
  0
LINE
  5
24B
330
1F
100
AcDbEntity
  8
0-7_金物
  6
Continuous
 62
     7
370
     9
100
AcDbLine
 10
-2617.046506219297
 20
-3117.000197951857
 30
0.0
 11
-2617.046506219297
 21
-3121.800197951856
 31
0.0
  0
LINE
  5
24C
330
1F
100
AcDbEntity
  8
0-7_金物
  6
Continuous
 62
     7
370
     9
100
AcDbLine
 10
-2618.246506219298
 20
-3115.800197951856
 30
0.0
 11
-2621.846506219298
 21
-3115.800197951856
 31
0.0
  0
ARC
  5
24D
330
1F
100
AcDbEntity
  8
0-7_金物
  6
Continuous
 62
     7
370
     9
100
AcDbCircle
 10
-2621.846506219298
 20
-3117.000197951857
 30
0.0
 40
1.2
100
AcDbArc
 50
90.0
 51
180.0
  0
LINE
  5
24E
330
1F
100
AcDbEntity
  8
0-7_金物
  6
Continuous
 62
     7
370
     9
100
AcDbLine
 10
-2623.046506219298
 20
-3117.000197951857
 30
0.0
 11
-2623.046506219298
 21
-3121.800197951856
 31
0.0
  0
ARC
  5
24F
330
1F
100
AcDbEntity
  8
0-7_金物
  6
Continuous
 62
     7
370
     9
100
AcDbCircle
 10
-2690.246506219297
 20
-3117.000197951857
 30
0.0
 40
1.2
100
AcDbArc
 50
0.0
 51
90.0
  0
LINE
  5
250
330
1F
100
AcDbEntity
  8
0-7_金物
  6
Continuous
 62
     7
370
     9
100
AcDbLine
 10
-2689.046506219298
 20
-3117.000197951857
 30
0.0
 11
-2689.046506219298
 21
-3121.800197951856
 31
0.0
  0
LINE
  5
251
330
1F
100
AcDbEntity
  8
0-7_金物
  6
Continuous
 62
     7
370
     9
100
AcDbLine
 10
-2690.246506219297
 20
-3115.800197951856
 30
0.0
 11
-2693.846506219298
 21
-3115.800197951856
 31
0.0
  0
ARC
  5
252
330
1F
100
AcDbEntity
  8
0-7_金物
  6
Continuous
 62
     7
370
     9
100
AcDbCircle
 10
-2693.846506219298
 20
-3117.000197951857
 30
0.0
 40
1.2
100
AcDbArc
 50
90.0
 51
180.0
  0
LINE
  5
253
330
1F
100
AcDbEntity
  8
0-7_金物
  6
Continuous
 62
     7
370
     9
100
AcDbLine
 10
-2695.046506219298
 20
-3117.000197951857
 30
0.0
 11
-2695.046506219298
 21
-3121.800197951856
 31
0.0
  0
ARC
  5
254
330
1F
100
AcDbEntity
  8
0-7_金物
  6
Continuous
 62
     7
370
     9
100
AcDbCircle
 10
-2608.046506219298
 20
-3090.000197951856
 30
0.0
 40
3.0
100
AcDbArc
 50
0.0
 51
90.0
  0
LINE
  5
255
330
1F
100
AcDbEntity
  8
0-7_金物
  6
Continuous
 62
     7
370
     9
100
AcDbLine
 10
-2605.046506219298
 20
-3090.000197951856
 30
0.0
 11
-2605.046506219298
 21
-3121.800197951856
 31
0.0
  0
LINE
  5
256
330
1F
100
AcDbEntity
  8
0-7_金物
  6
Continuous
 62
     7
370
     9
100
AcDbLine
 10
-2608.046506219298
 20
-3087.000197951857
 30
0.0
 11
-2619.446506219298
 21
-3087.000197951857
 31
0.0
  0
ARC
  5
257
330
1F
100
AcDbEntity
  8
0-7_金物
  6
Continuous
 62
     7
370
     9
100
AcDbCircle
 10
-2704.046506219298
 20
-3090.000197951856
 30
0.0
 40
3.0
100
AcDbArc
 50
90.0
 51
180.0
  0
LINE
  5
258
330
1F
100
AcDbEntity
  8
0-7_金物
  6
Continuous
 62
     7
370
     9
100
AcDbLine
 10
-2707.046506219297
 20
-3090.000197951856
 30
0.0
 11
-2707.046506219297
 21
-3121.800197951856
 31
0.0
  0
LINE
  5
259
330
1F
100
AcDbEntity
  8
0-7_金物
  6
Continuous
 62
     7
370
     9
100
AcDbLine
 10
-2704.046506219298
 20
-3087.000197951857
 30
0.0
 11
-2692.646506219298
 21
-3087.000197951857
 31
0.0
  0
ARC
  5
25A
330
1F
100
AcDbEntity
  8
0-7_金物
  6
Continuous
 62
     7
370
     9
100
AcDbCircle
 10
-2705.246506219297
 20
-3120.000197951856
 30
0.0
 40
9.000000000000002
100
AcDbArc
 50
180.0
 51
270.0
  0
LINE
  5
25B
330
1F
100
AcDbEntity
  8
0-7_金物
  6
Continuous
 62
     7
370
     9
100
AcDbLine
 10
-2705.246506219297
 20
-3129.000197951857
 30
0.0
 11
-2606.846506219298
 21
-3129.000197951857
 31
0.0
  0
LINE
  5
25C
330
1F
100
AcDbEntity
  8
0-7_金物
  6
Continuous
 62
     7
370
     9
100
AcDbLine
 10
-2714.246506219298
 20
-3120.000197951856
 30
0.0
 11
-2714.246506219298
 21
-3087.000197951857
 31
0.0
  0
ARC
  5
25D
330
1F
100
AcDbEntity
  8
0-7_金物
  6
Continuous
 62
     7
370
     9
100
AcDbCircle
 10
-2606.846506219298
 20
-3120.000197951856
 30
0.0
 40
9.000000000000002
100
AcDbArc
 50
270.0
 51
0.0
  0
LINE
  5
25E
330
1F
100
AcDbEntity
  8
0-7_金物
  6
Continuous
 62
     7
370
     9
100
AcDbLine
 10
-2597.846506219298
 20
-3120.000197951856
 30
0.0
 11
-2597.846506219298
 21
-3087.000197951857
 31
0.0
  0
ARC
  5
25F
330
1F
100
AcDbEntity
  8
0-7_金物
  6
Continuous
 62
     7
370
     9
100
AcDbCircle
 10
-2619.446506219298
 20
-3083.400197951857
 30
0.0
 40
3.600000000000001
100
AcDbArc
 50
90.0
 51
180.0
  0
LINE
  5
260
330
1F
100
AcDbEntity
  8
0-7_金物
  6
Continuous
 62
     7
370
     9
100
AcDbLine
 10
-2619.446506219298
 20
-3079.800197951856
 30
0.0
 11
-2597.846506219298
 21
-3079.800197951856
 31
0.0
  0
ARC
  5
261
330
1F
100
AcDbEntity
  8
0-7_金物
  6
Continuous
 62
     7
370
     9
100
AcDbCircle
 10
-2619.446506219298
 20
-3083.400197951857
 30
0.0
 40
3.600000000000001
100
AcDbArc
 50
180.0
 51
270.0
  0
ARC
  5
262
330
1F
100
AcDbEntity
  8
0-7_金物
  6
Continuous
 62
     7
370
     9
100
AcDbCircle
 10
-2692.646506219298
 20
-3083.400197951857
 30
0.0
 40
3.600000000000001
100
AcDbArc
 50
270.0
 51
0.0
  0
ARC
  5
263
330
1F
100
AcDbEntity
  8
0-7_金物
  6
Continuous
 62
     7
370
     9
100
AcDbCircle
 10
-2692.646506219298
 20
-3083.400197951857
 30
0.0
 40
3.600000000000001
100
AcDbArc
 50
0.0
 51
90.0
  0
LINE
  5
264
330
1F
100
AcDbEntity
  8
0-7_金物
  6
Continuous
 62
     7
370
     9
100
AcDbLine
 10
-2692.646506219298
 20
-3079.800197951856
 30
0.0
 11
-2714.246506219298
 21
-3079.800197951856
 31
0.0
  0
LINE
  5
265
330
1F
100
AcDbEntity
  8
0-7_金物
  6
Continuous
 62
     7
370
     9
100
AcDbLine
 10
-2561.846506219298
 20
-3083.400197951857
 30
0.0
 11
-2597.846506219298
 21
-3079.800197951856
 31
0.0
  0
ARC
  5
266
330
1F
100
AcDbEntity
  8
0-7_金物
  6
Continuous
 62
     7
370
     9
100
AcDbCircle
 10
-2561.846506219298
 20
-3085.200197951857
 30
0.0
 40
1.8
100
AcDbArc
 50
270.0
 51
89.99999999999997
  0
ARC
  5
267
330
1F
100
AcDbEntity
  8
0-7_金物
  6
Continuous
 62
     7
370
     9
100
AcDbCircle
 10
-2750.246506219297
 20
-3085.200197951857
 30
0.0
 40
1.8
100
AcDbArc
 50
90.0
 51
270.0
  0
LINE
  5
268
330
1F
100
AcDbEntity
  8
0-7_金物
  6
Continuous
 62
     7
370
     9
100
AcDbLine
 10
-2714.246506219298
 20
-3079.800197951856
 30
0.0
 11
-2750.246506219297
 21
-3083.400197951857
 31
0.0
  0
LINE
  5
269
330
1F
100
AcDbEntity
  8
0-7_金物
  6
Continuous
 62
     7
370
     9
100
AcDbLine
 10
-2714.246506219298
 20
-3087.000197951857
 30
0.0
 11
-2750.246506219297
 21
-3087.000197951857
 31
0.0
  0
LINE
  5
26A
330
1F
100
AcDbEntity
  8
0-7_金物
  6
Continuous
 62
     7
370
     9
100
AcDbLine
 10
-2561.846506219298
 20
-3087.000197951857
 30
0.0
 11
-2597.846506219298
 21
-3087.000197951857
 31
0.0
  0
LINE
  5
26B
330
1F
100
AcDbEntity
  8
0-7_金物
  6
Continuous
 62
     7
370
     9
100
AcDbLine
 10
-2617.046506219297
 20
-3121.800197951856
 30
0.0
 11
-2605.046506219298
 21
-3121.800197951856
 31
0.0
  0
LINE
  5
26C
330
1F
100
AcDbEntity
  8
0-7_金物
  6
Continuous
 62
     7
370
     9
100
AcDbLine
 10
-2654.246506219298
 20
-3121.800197951856
 30
0.0
 11
-2623.046506219298
 21
-3121.800197951856
 31
0.0
  0
LINE
  5
26D
330
1F
100
AcDbEntity
  8
0-7_金物
  6
Continuous
 62
     7
370
     9
100
AcDbLine
 10
-2656.046506219298
 20
-3123.600197951856
 30
0.0
 11
-2654.246506219298
 21
-3121.800197951856
 31
0.0
  0
LINE
  5
26E
330
1F
100
AcDbEntity
  8
0-7_金物
  6
Continuous
 62
     7
370
     9
100
AcDbLine
 10
-2657.846506219298
 20
-3121.800197951856
 30
0.0
 11
-2656.046506219298
 21
-3123.600197951856
 31
0.0
  0
LINE
  5
26F
330
1F
100
AcDbEntity
  8
0-7_金物
  6
Continuous
 62
     7
370
     9
100
AcDbLine
 10
-2689.046506219298
 20
-3121.800197951856
 30
0.0
 11
-2657.846506219298
 21
-3121.800197951856
 31
0.0
  0
LINE
  5
270
330
1F
100
AcDbEntity
  8
0-7_金物
  6
Continuous
 62
     7
370
     9
100
AcDbLine
 10
-2707.046506219297
 20
-3121.800197951856
 30
0.0
 11
-2695.046506219298
 21
-3121.800197951856
 31
0.0
  0
LINE
  5
271
330
1F
100
AcDbEntity
  8
0-7_金物
  6
Continuous
 62
     7
370
     9
100
AcDbLine
 10
-2698.046741596426
 20
-3114.367238586081
 30
0.0
 11
-2614.045870608251
 21
-3114.367238586081
 31
0.0
  0
LINE
  5
272
330
1F
100
AcDbEntity
  8
0-7_金物
  6
Continuous
 62
     7
370
     9
100
AcDbLine
 10
-2698.046741596426
 20
-3090.367238586081
 30
0.0
 11
-2698.046741596426
 21
-3114.367238586081
 31
0.0
  0
LINE
  5
273
330
1F
100
AcDbEntity
  8
0-7_金物
  6
Continuous
 62
     7
370
     9
100
AcDbLine
 10
-2680.046979138657
 20
-3102.367238586082
 30
0.0
 11
-2680.046979138657
 21
-3114.367238586081
 31
0.0
  0
LINE
  5
274
330
1F
100
AcDbEntity
  8
0-7_金物
  6
Continuous
 62
     7
370
     9
100
AcDbLine
 10
-2614.045870608251
 20
-3090.367238586081
 30
0.0
 11
-2614.045870608251
 21
-3114.367238586081
 31
0.0
  0
LINE
  5
275
330
1F
100
AcDbEntity
  8
0-7_金物
  6
Continuous
 62
     7
370
     9
100
AcDbLine
 10
-2632.047117704957
 20
-3102.367238586082
 30
0.0
 11
-2632.047117704957
 21
-3114.367238586081
 31
0.0
  0
LINE
  5
276
330
1F
100
AcDbEntity
  8
0-7_金物
  6
Continuous
 62
     7
370
     9
100
AcDbLine
 10
-2665.046187331226
 20
-3102.367238586082
 30
0.0
 11
-2665.046187331226
 21
-3107.064636178988
 31
0.0
  0
LINE
  5
277
330
1F
100
AcDbEntity
  8
0-7_金物
  6
Continuous
 62
     7
370
     9
100
AcDbLine
 10
-2647.046424873454
 20
-3102.367238586082
 30
0.0
 11
-2647.046424873454
 21
-3107.064636178988
 31
0.0
  0
LINE
  5
278
330
1F
100
AcDbEntity
  8
0-7_金物
  6
Continuous
 62
     7
370
     9
100
AcDbLine
 10
-2647.046424873454
 20
-3107.064636178988
 30
0.0
 11
-2665.046187331226
 21
-3107.064636178988
 31
0.0
  0
LINE
  5
279
330
1F
100
AcDbEntity
  8
0-7_金物
  6
Continuous
 62
     7
370
     9
100
AcDbLine
 10
-2632.047117704957
 20
-3102.367238586082
 30
0.0
 11
-2680.046979138657
 21
-3102.367238586082
 31
0.0
  0
LINE
  5
27A
330
1F
100
AcDbEntity
  8
0-7_金物
  6
Continuous
 62
     7
370
     9
100
AcDbLine
 10
-2665.046187331226
 20
-3036.000197951855
 30
0.0
 11
-2665.046187331226
 21
-3090.367238586081
 31
0.0
  0
LINE
  5
27B
330
1F
100
AcDbEntity
  8
0-7_金物
  6
Continuous
 62
     7
370
     9
100
AcDbLine
 10
-2647.046424873454
 20
-3036.000197951855
 30
0.0
 11
-2647.046424873454
 21
-3090.367238586081
 31
0.0
  0
LINE
  5
27C
330
1F
100
AcDbEntity
  8
0-7_金物
  6
Continuous
 62
     7
370
     9
100
AcDbLine
 10
-2614.045870608251
 20
-3090.367238586081
 30
0.0
 11
-2698.046741596426
 21
-3090.367238586081
 31
0.0
  0
LINE
  5
27D
330
1F
100
AcDbEntity
  8
0-C_ハッチ
  6
Continuous
 62
   120
370
     5
100
AcDbLine
 10
-2619.647573934411
 20
-3159.000197951857
 30
0.0
 11
-2587.23564921972
 21
-3126.588273237165
 31
0.0
  0
LINE
  5
27E
330
1F
100
AcDbEntity
  8
0-C_ハッチ
  6
Continuous
 62
   120
370
     5
100
AcDbLine
 10
-2696.01510630257
 20
-3159.000197951857
 30
0.0
 11
-2666.015106302566
 21
-3129.000197951852
 31
0.0
  0
LINE
  5
27F
330
1F
100
AcDbEntity
  8
0-C_ハッチ
  6
Continuous
 62
   120
370
     5
100
AcDbLine
 10
-2670.559262179851
 20
-3159.000197951857
 30
0.0
 11
-2640.559262179848
 21
-3129.000197951854
 31
0.0
  0
LINE
  5
280
330
1F
100
AcDbEntity
  8
0-C_ハッチ
  6
Continuous
 62
   120
370
     5
100
AcDbLine
 10
-2645.103418057131
 20
-3159.000197951857
 30
0.0
 11
-2615.103418057131
 21
-3129.000197951857
 31
0.0
  0
LINE
  5
281
330
1F
100
AcDbEntity
  8
0-C_ハッチ
  6
Continuous
 62
   120
370
     5
100
AcDbLine
 10
-2721.470950425268
 20
-3159.000197951857
 30
0.0
 11
-2691.470950425268
 21
-3129.000197951857
 31
0.0
  0
LINE
  5
282
330
1F
100
AcDbEntity
  8
0-C_ハッチ
  6
Continuous
 62
   120
370
     5
100
AcDbLine
 10
-2594.19172981169
 20
-3159.000197951857
 30
0.0
 11
-2587.23564921972
 21
-3152.044117359885
 31
0.0
  0
LINE
  5
283
330
1F
100
AcDbEntity
  8
0-7_金物
  6
Continuous
 62
    92
370
    13
100
AcDbLine
 10
-2725.046506219298
 20
-3159.000197951857
 30
0.0
 11
-2587.23564921972
 21
-3159.000197951857
 31
0.0
  0
LINE
  5
284
330
1F
100
AcDbEntity
  8
0-7_金物
  6
Continuous
 62
    92
370
    13
100
AcDbLine
 10
-2725.046506219298
 20
-3116.999975621556
 30
0.0
 11
-2725.046506219298
 21
-3159.000197951857
 31
0.0
  0
LINE
  5
285
330
1F
100
AcDbEntity
  8
0-7_金物
  6
Continuous
 62
    92
370
    13
100
AcDbLine
 10
-2587.23564921972
 20
-3116.999975621556
 30
0.0
 11
-2587.23564921972
 21
-3159.000197951857
 31
0.0
  0
LINE
  5
286
330
1F
100
AcDbEntity
  8
0-7_金物
  6
Continuous
 62
    92
370
    13
100
AcDbLine
 10
-2596.046506219298
 20
-3117.000197951855
 30
0.0
 11
-2596.046506219298
 21
-3129.000197951857
 31
0.0
  0
LINE
  5
287
330
1F
100
AcDbEntity
  8
0-7_金物
  6
Continuous
 62
    92
370
    13
100
AcDbLine
 10
-2596.046506219298
 20
-3117.000197951855
 30
0.0
 11
-2587.235590899654
 21
-3117.000197951855
 31
0.0
  0
LINE
  5
288
330
1F
100
AcDbEntity
  8
0-7_金物
  6
Continuous
 62
    92
370
    13
100
AcDbLine
 10
-2716.046506219298
 20
-3117.000197951855
 30
0.0
 11
-2725.046564539365
 21
-3117.000197951855
 31
0.0
  0
LINE
  5
289
330
1F
100
AcDbEntity
  8
0-7_金物
  6
Continuous
 62
    92
370
    13
100
AcDbLine
 10
-2716.046506219298
 20
-3117.000197951855
 30
0.0
 11
-2716.046506219298
 21
-3129.000197951857
 31
0.0
  0
LINE
  5
28A
330
1F
100
AcDbEntity
  8
0-7_金物
  6
Continuous
 62
    92
370
    13
100
AcDbLine
 10
-2716.046506219298
 20
-3129.000197951857
 30
0.0
 11
-2596.046506219298
 21
-3129.000197951857
 31
0.0
  0
LINE
  5
28B
330
1F
100
AcDbEntity
  8
0-C_ハッチ
  6
Continuous
 62
   120
370
     5
100
AcDbLine
 10
-2725.046506219298
 20
-3137.119909623166
 30
0.0
 11
-2716.046506219298
 21
-3128.119909623166
 31
0.0
  0
LINE
  5
28C
330
1F
100
AcDbEntity
  8
0-6_扉
  6
Continuous
 62
   200
370
    20
100
AcDbLine
 10
-2737.046506219299
 20
-3035.999826945732
 30
0.0
 11
-2575.046506219298
 21
-3035.999826945732
 31
0.0
  0
LINE
  5
28D
330
1F
100
AcDbEntity
  8
0-3_仕上げ
  6
Continuous
 62
    40
370
    15
100
AcDbLine
 10
-2581.046506219298
 20
-3158.999990102405
 30
0.0
 11
-2581.046506219298
 21
-3087.000197951855
 31
0.0
  0
LINE
  5
28E
330
1F
100
AcDbEntity
  8
0-3_仕上げ
  6
Continuous
 62
    40
370
    15
100
AcDbLine
 10
-2731.046506219298
 20
-3158.999990102405
 30
0.0
 11
-2731.046506219298
 21
-3087.000197951855
 31
0.0
  0
MTEXT
  5
28F
330
1F
100
AcDbEntity
  8
0-A_文字
  6
Continuous
 62
     7
370
     9
100
AcDbMText
 10
-3679.563690282225
 20
337.8085173225312
 30
0.0
 40
91.44
 41
600.0
 46
0.0
 71
     7
 72
     1
  1
{\fＭＳ ゴシック|b0|i0|c128|p49;■縦断面図}
 73
     1
 44
1.0
  0
MTEXT
  5
290
330
1F
100
AcDbEntity
  8
0-B_寸法
  6
Continuous
 62
     7
370
   211
100
AcDbMText
 10
-3634.290185699352
 20
-2123.28030172297
 30
0.0
 40
91.43999999999997
 41
780.0
 46
0.0
 71
     7
 72
     1
  1
{\fＭＳ ゴシック|b0|i0|c128|p49;ＲＯＨ＝2,055}
 11
6.123031769111886E-17
 21
1.0
 31
0.0
 73
     1
 44
1.0
  0
MTEXT
  5
291
330
1F
100
AcDbEntity
  8
0-B_寸法
  6
Continuous
 62
     7
370
     0
100
AcDbMText
 10
-1870.04581338779
 20
-2063.28030172297
 30
0.0
 40
91.43999999999997
 41
660.0
 46
0.0
 71
     7
 72
     1
  1
{\fＭＳ ゴシック|b0|i0|c128|p49;ＤＨ＝1,983}
 11
6.123031769111886E-17
 21
1.0
 31
0.0
 73
     1
 44
1.0
  0
MTEXT
  5
292
330
1F
100
AcDbEntity
  8
0-B_寸法
  6
Continuous
 62
     7
370
     0
100
AcDbMText
 10
-1690.045813387793
 20
-2063.28030172297
 30
0.0
 40
91.43999999999997
 41
660.0
 46
0.0
 71
     7
 72
     1
  1
{\fＭＳ ゴシック|b0|i0|c128|p49;枠内＝1,999}
 11
6.123031769111886E-17
 21
1.0
 31
0.0
 73
     1
 44
1.0
  0
MTEXT
  5
293
330
1F
100
AcDbEntity
  8
0-B_寸法
  6
Continuous
 62
     7
370
     0
100
AcDbMText
 10
-1510.046708019565
 20
-2063.28030172297
 30
0.0
 40
91.43999999999997
 41
660.0
 46
0.0
 71
     7
 72
     1
  1
{\fＭＳ ゴシック|b0|i0|c128|p49;枠外＝2,047}
 11
6.123031769111886E-17
 21
1.0
 31
0.0
 73
     1
 44
1.0
  0
MTEXT
  5
294
330
1F
100
AcDbEntity
  8
0-A_文字
  6
Continuous
 62
     7
370
     0
100
AcDbMText
 10
-3619.290185699352
 20
-3402.55071179184
 30
0.0
 40
68.58000000000001
 41
1395.0
 46
0.0
 71
     7
 72
     1
  1
{\fＭＳ ゴシック|b0|i0|c128|p49;※ 扉厚（　）内はルーバーの場合}
 73
     1
 44
1.0
  0
LINE
  5
295
330
1F
100
AcDbEntity
  8
0-3_仕上げ
  6
Continuous
 62
    40
370
    15
100
AcDbLine
 10
-2356.046497954113
 20
-224.9999998463859
 30
0.0
 11
-2431.046497954113
 21
-224.9999998463859
 31
0.0
  0
LINE
  5
296
330
1F
100
AcDbEntity
  8
0-C_ハッチ
  6
JWW_DASHED1
 62
   120
370
     5
100
AcDbLine
 10
-2381.975450207116
 20
-224.9999998463876
 30
0.0
 11
-2356.046497954109
 21
-199.0710475933831
 31
0.0
  0
LINE
  5
297
330
1F
100
AcDbEntity
  8
0-C_ハッチ
  6
JWW_DASHED1
 62
   120
370
     5
100
AcDbLine
 10
-2424.401857078316
 20
-224.9999998463868
 30
0.0
 11
-2356.046497954116
 21
-156.6446407221865
 31
0.0
  0
LINE
  5
298
330
1F
100
AcDbEntity
  8
0-C_ハッチ
  6
JWW_DASHED1
 62
   120
370
     5
100
AcDbLine
 10
-2431.046497954116
 20
-189.2182338509856
 30
0.0
 11
-2356.046497954116
 21
-114.2182338509899
 31
0.0
  0
LINE
  5
299
330
1F
100
AcDbEntity
  8
0-C_ハッチ
  6
JWW_DASHED1
 62
   120
370
     5
100
AcDbLine
 10
-2431.046497954116
 20
-146.7918269797899
 30
0.0
 11
-2356.046497954106
 21
-71.79182697977751
 31
0.0
  0
LINE
  5
29A
330
1F
100
AcDbEntity
  8
0-C_ハッチ
  6
JWW_DASHED1
 62
   120
370
     5
100
AcDbLine
 10
-2431.046497954123
 20
-104.365420108592
 30
0.0
 11
-2356.046497954109
 21
-29.36542010858048
 31
0.0
  0
LINE
  5
29B
330
1F
100
AcDbEntity
  8
0-C_ハッチ
  6
JWW_DASHED1
 62
   120
370
     5
100
AcDbLine
 10
-2431.046497954102
 20
-61.93901323742736
 30
0.0
 11
-2356.046497954106
 21
13.0609867625671
 31
0.0
  0
LINE
  5
29C
330
1F
100
AcDbEntity
  8
0-C_ハッチ
  6
JWW_DASHED1
 62
   120
370
     5
100
AcDbLine
 10
-2431.046497954106
 20
-19.51260636623203
 30
0.0
 11
-2356.046497954109
 21
55.48739363376242
 31
0.0
  0
LINE
  5
29D
330
1F
100
AcDbEntity
  8
0-3_仕上げ
  6
Continuous
 62
    40
370
    15
100
AcDbLine
 10
-2356.046497954113
 20
-224.9999998463859
 30
0.0
 11
-2356.046497954113
 21
141.0005813299735
 31
0.0
  0
LINE
  5
29E
330
1F
100
AcDbEntity
  8
0-C_ハッチ
  6
JWW_DASHED1
 62
   120
370
     5
100
AcDbLine
 10
-2431.046497954102
 20
22.91380050497054
 30
0.0
 11
-2356.046497954113
 21
97.91380050496247
 31
0.0
  0
LINE
  5
29F
330
1F
100
AcDbEntity
  8
0-C_ハッチ
  6
JWW_DASHED1
 62
   120
370
     5
100
AcDbLine
 10
-2431.046497954106
 20
65.340207376168
 30
0.0
 11
-2356.046497954113
 21
140.3402073761595
 31
0.0
  0
LINE
  5
2A0
330
1F
100
AcDbEntity
  8
0-C_ハッチ
  6
JWW_DASHED1
 62
   120
370
     5
100
AcDbLine
 10
-2431.046497954106
 20
107.7666142473143
 30
0.0
 11
-2397.812530871446
 21
141.0005813299734
 31
0.0
  0
LINE
  5
2A1
330
1F
100
AcDbEntity
  8
0-4_枠
  6
Continuous
 62
   120
370
     5
100
AcDbLine
 10
-2380.046506219298
 20
-224.9999998463859
 30
0.0
 11
-2380.046506219298
 21
-3086.999826945734
 31
0.0
  0
LINE
  5
2A2
330
1F
100
AcDbEntity
  8
0-3_仕上げ
  6
Continuous
 62
   120
370
     5
100
AcDbLine
 10
-2851.046497954113
 20
-110.8542619710281
 30
0.0
 11
-2431.046497954113
 21
-110.8542619710281
 31
0.0
  0
LINE
  5
2A3
330
1F
100
AcDbEntity
  8
0-3_仕上げ
  6
Continuous
 62
   120
370
     5
100
AcDbLine
 10
-2431.046497954113
 20
69.14573802897152
 30
0.0
 11
-2851.046497954113
 21
-110.8542619710281
 31
0.0
  0
LINE
  5
2A4
330
1F
100
AcDbEntity
  8
0-3_仕上げ
  6
Continuous
 62
   120
370
     5
100
AcDbLine
 10
-2851.046497954113
 20
69.14573802897152
 30
0.0
 11
-2851.046497954113
 21
-110.8542619710281
 31
0.0
  0
LINE
  5
2A5
330
1F
100
AcDbEntity
  8
0-3_仕上げ
  6
Continuous
 62
   120
370
     5
100
AcDbLine
 10
-2431.046497954113
 20
69.14573802897152
 30
0.0
 11
-2851.046497954113
 21
69.14573802897152
 31
0.0
  0
LINE
  5
2A6
330
1F
100
AcDbEntity
  8
0-3_仕上げ
  6
Continuous
 62
   120
370
     5
100
AcDbLine
 10
-2431.046497954113
 20
-110.8542619710281
 30
0.0
 11
-2431.046497954113
 21
69.14573802897195
 31
0.0
  0
LINE
  5
2A7
330
1F
100
AcDbEntity
  8
0-E
  6
Continuous
 62
    92
370
    13
100
AcDbLine
 10
2205.587533354163
 20
194.9998020481422
 30
0.0
 11
4191.256895024741
 21
194.9998020481422
 31
0.0
  0
LINE
  5
2A8
330
1F
100
AcDbEntity
  8
0-E
  6
Continuous
 62
    92
370
    13
100
AcDbLine
 10
2205.587533354163
 20
14.99980204813966
 30
0.0
 11
4191.256895024741
 21
14.99980204813966
 31
0.0
  0
MTEXT
  5
2A9
330
1F
100
AcDbEntity
  8
0-E
  6
Continuous
 62
     7
370
   211
100
AcDbMText
 10
1095.049842043954
 20
-1507.883331990985
 30
0.0
 40
68.58
 41
90.0
 46
0.0
 71
     7
 72
     1
  1
{\fＭＳ ゴシック|b0|i0|c128|p49;23}
 73
     1
 44
1.0
  0
MTEXT
  5
2AA
330
1F
100
AcDbEntity
  8
0-E
  6
Continuous
 62
     7
370
   211
100
AcDbMText
 10
3081.892548548178
 20
-1769.833328253696
 30
0.0
 40
68.58
 41
90.0
 46
0.0
 71
     7
 72
     1
  1
{\fＭＳ ゴシック|b0|i0|c128|p49;32}
 73
     1
 44
1.0
  0
MTEXT
  5
2AB
330
1F
100
AcDbEntity
  8
0-E
  6
Continuous
 62
     7
370
   211
100
AcDbMText
 10
3081.892548548178
 20
-1929.295616244168
 30
0.0
 40
68.58
 41
90.0
 46
0.0
 71
     7
 72
     1
  1
{\fＭＳ ゴシック|b0|i0|c128|p49;11}
 73
     1
 44
1.0
  0
MTEXT
  5
2AC
330
1F
100
AcDbEntity
  8
0-E
  6
Continuous
 62
     7
370
   211
100
AcDbMText
 10
2654.040822809253
 20
-2065.452423114598
 30
0.0
 40
68.57999999999998
 41
135.0
 46
0.0
 71
     7
 72
     1
  1
{\fＭＳ ゴシック|b0|i0|c128|p49;1.2}
 11
6.123031769111886E-17
 21
1.0
 31
0.0
 73
     1
 44
1.0
  0
MTEXT
  5
2AD
330
1F
100
AcDbEntity
  8
0-E
  6
Continuous
 62
     7
370
   211
100
AcDbMText
 10
2654.040822809253
 20
-2177.475732176918
 30
0.0
 40
68.58
 41
45.0
 46
0.0
 71
     7
 72
     1
  1
{\fＭＳ ゴシック|b0|i0|c128|p49;7}
 11
6.123031769111886E-17
 21
1.0
 31
0.0
 73
     1
 44
1.0
  0
MTEXT
  5
2AE
330
1F
100
AcDbEntity
  8
0-E
  6
Continuous
 62
     7
370
   211
100
AcDbMText
 10
2497.597852565259
 20
-2213.475732176918
 30
0.0
 40
68.57999999999998
 41
135.0
 46
0.0
 71
     7
 72
     1
  1
{\fＭＳ ゴシック|b0|i0|c128|p49;8.2}
 11
6.123031769111886E-17
 21
1.0
 31
0.0
 73
     1
 44
1.0
  0
MTEXT
  5
2AF
330
1F
100
AcDbEntity
  8
0-E
  6
Continuous
 62
     7
370
   211
100
AcDbMText
 10
3036.892548548179
 20
-2403.372080987368
 30
0.0
 40
68.58
 41
180.0
 46
0.0
 71
     7
 72
     1
  1
{\fＭＳ ゴシック|b0|i0|c128|p49;19.4}
 73
     1
 44
1.0
  0
MTEXT
  5
2B0
330
1F
100
AcDbEntity
  8
0-E
  6
Continuous
 62
     7
370
   211
100
AcDbMText
 10
3081.656119797647
 20
-2613.041877124406
 30
0.0
 40
68.58
 41
90.0
 46
0.0
 71
     7
 72
     1
  1
{\fＭＳ ゴシック|b0|i0|c128|p49;23}
 73
     1
 44
1.0
  0
MTEXT
  5
2B1
330
1F
100
AcDbEntity
  8
0-E
  6
Continuous
 62
     7
370
   211
100
AcDbMText
 10
2805.007884449709
 20
-2774.989112782177
 30
0.0
 40
68.57999999999998
 41
135.0
 46
0.0
 71
     7
 72
     1
  1
{\fＭＳ ゴシック|b0|i0|c128|p49;1.5}
 73
     1
 44
1.0
  0
MTEXT
  5
2B2
330
1F
100
AcDbEntity
  8
0-E
  6
Continuous
 62
     7
370
   211
100
AcDbMText
 10
3081.892548548178
 20
-2774.989112782177
 30
0.0
 40
68.58
 41
90.0
 46
0.0
 71
     7
 72
     1
  1
{\fＭＳ ゴシック|b0|i0|c128|p49;20}
 73
     1
 44
1.0
  0
MTEXT
  5
2B3
330
1F
100
AcDbEntity
  8
0-E
  6
Continuous
 62
     7
370
   211
100
AcDbMText
 10
3325.75969601894
 20
-2774.989112782177
 30
0.0
 40
68.57999999999998
 41
135.0
 46
0.0
 71
     7
 72
     1
  1
{\fＭＳ ゴシック|b0|i0|c128|p49;1.5}
 73
     1
 44
1.0
  0
LINE
  5
2B4
330
1F
100
AcDbEntity
  8
0-E
  6
Continuous
 62
    92
370
    13
100
AcDbLine
 10
219.9181716835818
 20
14.99980204814221
 30
0.0
 11
2205.587533354163
 21
14.99980204814221
 31
0.0
  0
LINE
  5
2B5
330
1F
100
AcDbEntity
  8
0-E
  6
Continuous
 62
    92
370
    13
100
AcDbLine
 10
219.9181716835818
 20
194.9998020481422
 30
0.0
 11
2205.587533354163
 21
194.9998020481422
 31
0.0
  0
MTEXT
  5
2B6
330
1F
100
AcDbEntity
  8
0-E
  6
Continuous
 62
     7
370
   211
100
AcDbMText
 10
2654.040822809253
 20
-2955.103629875683
 30
0.0
 40
68.58
 41
45.0
 46
0.0
 71
     7
 72
     1
  1
{\fＭＳ ゴシック|b0|i0|c128|p49;2}
 11
6.123031769111886E-17
 21
1.0
 31
0.0
 73
     1
 44
1.0
  0
MTEXT
  5
2B7
330
1F
100
AcDbEntity
  8
0-E
  6
Continuous
 62
     7
370
   211
100
AcDbMText
 10
2497.597852565259
 20
-3041.682756621967
 30
0.0
 40
68.58
 41
45.0
 46
0.0
 71
     7
 72
     1
  1
{\fＭＳ ゴシック|b0|i0|c128|p49;7}
 11
6.123031769111886E-17
 21
1.0
 31
0.0
 73
     1
 44
1.0
  0
MTEXT
  5
2B8
330
1F
100
AcDbEntity
  8
0-E
  6
Continuous
 62
     7
370
   211
100
AcDbMText
 10
2654.040822809253
 20
-3056.683034534837
 30
0.0
 40
68.58
 41
45.0
 46
0.0
 71
     7
 72
     1
  1
{\fＭＳ ゴシック|b0|i0|c128|p49;5}
 11
6.123031769111886E-17
 21
1.0
 31
0.0
 73
     1
 44
1.0
  0
LWPOLYLINE
  5
2B9
330
1F
100
AcDbEntity
  8
0-E
  6
Continuous
 62
     7
370
     9
100
AcDbPolyline
 90
        4
 70
     1
 43
3.0
 10
1026.549710076047
 20
-1512.173331990985
 42
0.4142135623731
 10
1025.049710076048
 20
-1510.673331990985
 42
0.4142135623731
 10
1023.549710076048
 20
-1512.173331990985
 42
0.4142135623731
 10
1025.049710076048
 20
-1513.673331990985
 42
0.4142135623731
  0
LINE
  5
2BA
330
1F
100
AcDbEntity
  8
0-E
  6
Continuous
 62
   120
370
     5
100
AcDbLine
 10
1025.049710076048
 20
-1512.173331990985
 30
0.0
 11
1025.049710076048
 21
-1332.173331990985
 31
0.0
  0
MTEXT
  5
2BB
330
1F
100
AcDbEntity
  8
0-E
  6
Continuous
 62
     7
370
     0
100
AcDbMText
 10
492.7528525188735
 20
30.71980204814221
 30
0.0
 40
91.44
 41
1440.0
 46
0.0
 71
     7
 72
     1
  1
{\fＭＳ ゴシック|b0|i0|c128|p49;竪枠下端形状図（S＝1/3）}
 73
     1
 44
1.0
  0
LINE
  5
2BC
330
1F
100
AcDbEntity
  8
0-E
  6
Continuous
 62
   120
370
     5
100
AcDbLine
 10
1025.049710076048
 20
-1512.173331990985
 30
0.0
 11
1255.04997401186
 21
-1512.173331990985
 31
0.0
  0
LWPOLYLINE
  5
2BD
330
1F
100
AcDbEntity
  8
0-E
  6
Continuous
 62
     7
370
     9
100
AcDbPolyline
 90
        4
 70
     1
 43
3.0
 10
1256.54997401186
 20
-1512.173331990985
 42
0.4142135623731
 10
1255.04997401186
 20
-1510.673331990985
 42
0.4142135623731
 10
1253.54997401186
 20
-1512.173331990985
 42
0.4142135623731
 10
1255.04997401186
 20
-1513.673331990985
 42
0.4142135623731
  0
LINE
  5
2BE
330
1F
100
AcDbEntity
  8
0-E
  6
Continuous
 62
   120
370
     5
100
AcDbLine
 10
1255.04997401186
 20
-1512.173331990985
 30
0.0
 11
1255.04997401186
 21
-1332.173331990985
 31
0.0
  0
MTEXT
  5
2BF
330
1F
100
AcDbEntity
  8
0-E
  6
Continuous
 62
     7
370
     9
100
AcDbMText
 10
2538.422214189452
 20
30.71980204813966
 30
0.0
 40
91.44
 41
1320.0
 46
0.0
 71
     7
 72
     1
  1
{\fＭＳ ゴシック|b0|i0|c128|p49;レール拡大図（S＝1/2）}
 73
     1
 44
1.0
  0
MTEXT
  5
2C0
330
1F
100
AcDbEntity
  8
0-E
  6
Continuous
 62
     7
370
     9
100
AcDbMText
 10
342.7528525188735
 20
-1954.210654623817
 30
0.0
 40
91.43999999999996
 41
1740.0
 46
0.0
 71
     7
 72
     1
  1
{\fＭＳ ゴシック|b0|i0|c128|p49;レール埋込時 フロアー貼込位置}
 73
     1
 44
1.0
  0
LINE
  5
2C1
330
1F
100
AcDbEntity
  8
0-E
  6
Continuous
 62
    92
370
    13
100
AcDbLine
 10
219.9181716835818
 20
194.9998020481422
 30
0.0
 11
219.9181716835818
 21
-3409.930654623817
 31
0.0
  0
LINE
  5
2C2
330
1F
100
AcDbEntity
  8
0-E
  6
Continuous
 62
    92
370
    13
100
AcDbLine
 10
219.9181716835818
 20
-3409.930654623817
 30
0.0
 11
4191.256895024741
 21
-3409.930654623817
 31
0.0
  0
LINE
  5
2C3
330
1F
100
AcDbEntity
  8
0-E
  6
Continuous
 62
    92
370
    13
100
AcDbLine
 10
219.9181716835818
 20
-1789.930654623817
 30
0.0
 11
2205.587533354163
 21
-1789.930654623817
 31
0.0
  0
LINE
  5
2C4
330
1F
100
AcDbEntity
  8
0-E
  6
Continuous
 62
    92
370
    13
100
AcDbLine
 10
219.9181716835818
 20
-1969.930654623817
 30
0.0
 11
2205.587533354163
 21
-1969.930654623817
 31
0.0
  0
INSERT
  5
2C5
330
1F
100
AcDbEntity
  8
0-E
  6
Continuous
 62
     7
370
     9
100
AcDbBlockReference
  2
01@@SfigorgFlag@@4
 10
3126.892548548178
 20
-2134.034962946146
 30
0.0
 41
30.0
 42
30.0
  0
LWPOLYLINE
  5
2C6
330
1F
100
AcDbEntity
  8
0-E
  6
Continuous
 62
     7
370
     9
100
AcDbPolyline
 90
        4
 70
     1
 43
3.0
 10
2888.392548548181
 20
-2087.265732176915
 42
0.4142135623731
 10
2886.892548548181
 20
-2085.765732176915
 42
0.4142135623731
 10
2885.392548548181
 20
-2087.265732176915
 42
0.4142135623731
 10
2886.892548548181
 20
-2088.765732176915
 42
0.4142135623731
  0
LWPOLYLINE
  5
2C7
330
1F
100
AcDbEntity
  8
0-E
  6
Continuous
 62
     7
370
     9
100
AcDbPolyline
 90
        4
 70
     1
 43
3.0
 10
3368.392548548177
 20
-2087.265732176915
 42
0.4142135623731
 10
3366.892548548177
 20
-2085.765732176915
 42
0.4142135623731
 10
3365.392548548177
 20
-2087.265732176915
 42
0.4142135623731
 10
3366.892548548177
 20
-2088.765732176915
 42
0.4142135623731
  0
LWPOLYLINE
  5
2C8
330
1F
100
AcDbEntity
  8
0-E
  6
Continuous
 62
     7
370
     9
100
AcDbPolyline
 90
        4
 70
     1
 43
3.0
 10
3045.892548548174
 20
-2082.765732176915
 42
0.4142135623731
 10
3044.392548548174
 20
-2081.265732176916
 42
0.4142135623731
 10
3042.892548548174
 20
-2082.765732176915
 42
0.4142135623731
 10
3044.392548548174
 20
-2084.265732176915
 42
0.4142135623731
  0
LWPOLYLINE
  5
2C9
330
1F
100
AcDbEntity
  8
0-E
  6
Continuous
 62
     7
370
     9
100
AcDbPolyline
 90
        4
 70
     1
 43
3.0
 10
3210.892548548185
 20
-2082.765732176915
 42
0.4142135623731
 10
3209.392548548185
 20
-2081.265732176916
 42
0.4142135623731
 10
3207.892548548185
 20
-2082.765732176915
 42
0.4142135623731
 10
3209.392548548185
 20
-2084.265732176915
 42
0.4142135623731
  0
LINE
  5
2CA
330
1F
100
AcDbEntity
  8
0-E
  6
Continuous
 62
   120
370
     5
100
AcDbLine
 10
3044.392548548174
 20
-1933.585616244168
 30
0.0
 11
3209.392548548185
 21
-1933.585616244168
 31
0.0
  0
LWPOLYLINE
  5
2CB
330
1F
100
AcDbEntity
  8
0-E
  6
Continuous
 62
     7
370
     9
100
AcDbPolyline
 90
        4
 70
     1
 43
3.0
 10
3045.892548548174
 20
-1933.585616244168
 42
0.4142135623731
 10
3044.392548548174
 20
-1932.085616244168
 42
0.4142135623731
 10
3042.892548548174
 20
-1933.585616244168
 42
0.4142135623731
 10
3044.392548548174
 20
-1935.085616244168
 42
0.4142135623731
  0
LWPOLYLINE
  5
2CC
330
1F
100
AcDbEntity
  8
0-E
  6
Continuous
 62
     7
370
     9
100
AcDbPolyline
 90
        4
 70
     1
 43
3.0
 10
3210.892548548185
 20
-1933.585616244168
 42
0.4142135623731
 10
3209.392548548185
 20
-1932.085616244168
 42
0.4142135623731
 10
3207.892548548185
 20
-1933.585616244168
 42
0.4142135623731
 10
3209.392548548185
 20
-1935.085616244168
 42
0.4142135623731
  0
LINE
  5
2CD
330
1F
100
AcDbEntity
  8
0-E
  6
Continuous
 62
   120
370
     5
100
AcDbLine
 10
3044.392548548174
 20
-1933.585616244168
 30
0.0
 11
3044.392548548174
 21
-2019.449925162114
 31
0.0
  0
LINE
  5
2CE
330
1F
100
AcDbEntity
  8
0-E
  6
Continuous
 62
   120
370
     5
100
AcDbLine
 10
3209.392548548185
 20
-1933.585616244168
 30
0.0
 11
3209.392548548185
 21
-2019.449925162114
 31
0.0
  0
LINE
  5
2CF
330
1F
100
AcDbEntity
  8
0-E
  6
Continuous
 62
   120
370
     5
100
AcDbLine
 10
2886.892548548181
 20
-1774.123328253695
 30
0.0
 11
3366.892548548177
 21
-1774.123328253695
 31
0.0
  0
LWPOLYLINE
  5
2D0
330
1F
100
AcDbEntity
  8
0-E
  6
Continuous
 62
     7
370
     9
100
AcDbPolyline
 90
        4
 70
     1
 43
3.0
 10
2888.392548548181
 20
-1774.123328253695
 42
0.4142135623731
 10
2886.892548548181
 20
-1772.623328253696
 42
0.4142135623731
 10
2885.392548548181
 20
-1774.123328253695
 42
0.4142135623731
 10
2886.892548548181
 20
-1775.623328253695
 42
0.4142135623731
  0
LWPOLYLINE
  5
2D1
330
1F
100
AcDbEntity
  8
0-E
  6
Continuous
 62
     7
370
     9
100
AcDbPolyline
 90
        4
 70
     1
 43
3.0
 10
3368.392548548177
 20
-1774.123328253695
 42
0.4142135623731
 10
3366.892548548177
 20
-1772.623328253696
 42
0.4142135623731
 10
3365.392548548177
 20
-1774.123328253695
 42
0.4142135623731
 10
3366.892548548177
 20
-1775.623328253695
 42
0.4142135623731
  0
LINE
  5
2D2
330
1F
100
AcDbEntity
  8
0-E
  6
Continuous
 62
   120
370
     5
100
AcDbLine
 10
2886.892548548181
 20
-1774.123328253695
 30
0.0
 11
2886.892548548181
 21
-2019.449925162114
 31
0.0
  0
LINE
  5
2D3
330
1F
100
AcDbEntity
  8
0-E
  6
Continuous
 62
   120
370
     5
100
AcDbLine
 10
3366.892548548177
 20
-1774.123328253695
 30
0.0
 11
3366.892548548177
 21
-2019.449925162114
 31
0.0
  0
LWPOLYLINE
  5
2D4
330
1F
100
AcDbEntity
  8
0-E
  6
Continuous
 62
     7
370
     9
100
AcDbPolyline
 90
        4
 70
     1
 43
3.0
 10
2670.540822809253
 20
-2073.765732176917
 42
0.4142135623731
 10
2669.040822809253
 20
-2072.265732176917
 42
0.4142135623731
 10
2667.540822809253
 20
-2073.765732176917
 42
0.4142135623731
 10
2669.040822809253
 20
-2075.265732176917
 42
0.4142135623731
  0
LWPOLYLINE
  5
2D5
330
1F
100
AcDbEntity
  8
0-E
  6
Continuous
 62
     7
370
     9
100
AcDbPolyline
 90
        4
 70
     1
 43
3.0
 10
2670.540822809253
 20
-2091.765732176918
 42
0.4142135623731
 10
2669.040822809253
 20
-2090.265732176918
 42
0.4142135623731
 10
2667.540822809253
 20
-2091.765732176918
 42
0.4142135623731
 10
2669.040822809253
 20
-2093.265732176918
 42
0.4142135623731
  0
LINE
  5
2D6
330
1F
100
AcDbEntity
  8
0-E
  6
Continuous
 62
   120
370
     5
100
AcDbLine
 10
2669.040822809253
 20
-2073.765732176917
 30
0.0
 11
2799.881674493744
 21
-2073.765732176917
 31
0.0
  0
LINE
  5
2D7
330
1F
100
AcDbEntity
  8
0-E
  6
Continuous
 62
   120
370
     5
100
AcDbLine
 10
2669.040822809253
 20
-2091.765732176918
 30
0.0
 11
2799.881674493744
 21
-2091.765732176918
 31
0.0
  0
LINE
  5
2D8
330
1F
100
AcDbEntity
  8
0-E
  6
Continuous
 62
   120
370
     5
100
AcDbLine
 10
2669.040822809253
 20
-2091.765732176918
 30
0.0
 11
2669.040822809253
 21
-2196.765732176918
 31
0.0
  0
LWPOLYLINE
  5
2D9
330
1F
100
AcDbEntity
  8
0-E
  6
Continuous
 62
     7
370
     9
100
AcDbPolyline
 90
        4
 70
     1
 43
3.0
 10
2670.540822809253
 20
-2196.765732176918
 42
0.4142135623731
 10
2669.040822809253
 20
-2195.265732176918
 42
0.4142135623731
 10
2667.540822809253
 20
-2196.765732176918
 42
0.4142135623731
 10
2669.040822809253
 20
-2198.265732176918
 42
0.4142135623731
  0
LINE
  5
2DA
330
1F
100
AcDbEntity
  8
0-E
  6
Continuous
 62
   120
370
     5
100
AcDbLine
 10
2669.040822809253
 20
-2196.765732176918
 30
0.0
 11
2799.881674493744
 21
-2196.765732176918
 31
0.0
  0
LINE
  5
2DB
330
1F
100
AcDbEntity
  8
0-E
  6
Continuous
 62
   120
370
     5
100
AcDbLine
 10
2981.392548548181
 20
-2407.662080987368
 30
0.0
 11
3272.392548548175
 21
-2407.662080987368
 31
0.0
  0
LWPOLYLINE
  5
2DC
330
1F
100
AcDbEntity
  8
0-E
  6
Continuous
 62
     7
370
     9
100
AcDbPolyline
 90
        4
 70
     1
 43
3.0
 10
2982.89254854818
 20
-2407.662080987368
 42
0.4142135623731
 10
2981.392548548181
 20
-2406.162080987368
 42
0.4142135623731
 10
2979.892548548181
 20
-2407.662080987368
 42
0.4142135623731
 10
2981.392548548181
 20
-2409.162080987368
 42
0.4142135623731
  0
LWPOLYLINE
  5
2DD
330
1F
100
AcDbEntity
  8
0-E
  6
Continuous
 62
     7
370
     9
100
AcDbPolyline
 90
        4
 70
     1
 43
3.0
 10
3273.892548548175
 20
-2407.662080987368
 42
0.4142135623731
 10
3272.392548548175
 20
-2406.162080987368
 42
0.4142135623731
 10
3270.892548548175
 20
-2407.662080987368
 42
0.4142135623731
 10
3272.392548548175
 20
-2409.162080987368
 42
0.4142135623731
  0
LINE
  5
2DE
330
1F
100
AcDbEntity
  8
0-E
  6
Continuous
 62
   120
370
     5
100
AcDbLine
 10
2981.392548548181
 20
-2407.662080987368
 30
0.0
 11
2981.392548548181
 21
-2280.045998919218
 31
0.0
  0
LINE
  5
2DF
330
1F
100
AcDbEntity
  8
0-E
  6
Continuous
 62
   120
370
     5
100
AcDbLine
 10
3272.392548548175
 20
-2407.662080987368
 30
0.0
 11
3272.392548548175
 21
-2280.045998919218
 31
0.0
  0
LINE
  5
2E0
330
1F
100
AcDbEntity
  8
0-E
  6
Continuous
 62
   120
370
     5
100
AcDbLine
 10
2669.040822809253
 20
-1907.277887552609
 30
0.0
 11
2669.040822809253
 21
-2091.765732176918
 31
0.0
  0
LWPOLYLINE
  5
2E1
330
1F
100
AcDbEntity
  8
0-E
  6
Continuous
 62
     7
370
     9
100
AcDbPolyline
 90
        4
 70
     1
 43
3.0
 10
2955.892548548178
 20
-2779.279112782177
 42
0.4142135623731
 10
2954.392548548178
 20
-2777.779112782177
 42
0.4142135623731
 10
2952.892548548178
 20
-2779.279112782177
 42
0.4142135623731
 10
2954.392548548178
 20
-2780.779112782177
 42
0.4142135623731
  0
LWPOLYLINE
  5
2E2
330
1F
100
AcDbEntity
  8
0-E
  6
Continuous
 62
     7
370
     9
100
AcDbPolyline
 90
        4
 70
     1
 43
3.0
 10
2978.392548548178
 20
-2779.279112782177
 42
0.4142135623731
 10
2976.892548548178
 20
-2777.779112782177
 42
0.4142135623731
 10
2975.392548548178
 20
-2779.279112782177
 42
0.4142135623731
 10
2976.892548548178
 20
-2780.779112782177
 42
0.4142135623731
  0
LINE
  5
2E3
330
1F
100
AcDbEntity
  8
0-E
  6
Continuous
 62
   120
370
     5
100
AcDbLine
 10
2954.392548548178
 20
-2779.279112782177
 30
0.0
 11
2954.392548548178
 21
-2883.791464511077
 31
0.0
  0
LINE
  5
2E4
330
1F
100
AcDbEntity
  8
0-E
  6
Continuous
 62
   120
370
     5
100
AcDbLine
 10
2976.892548548178
 20
-2779.279112782177
 30
0.0
 11
2976.892548548178
 21
-2883.791464511077
 31
0.0
  0
LINE
  5
2E5
330
1F
100
AcDbEntity
  8
0-E
  6
Continuous
 62
   120
370
     5
100
AcDbLine
 10
2976.892548548178
 20
-2779.279112782177
 30
0.0
 11
3276.892548548178
 21
-2779.279112782177
 31
0.0
  0
LWPOLYLINE
  5
2E6
330
1F
100
AcDbEntity
  8
0-E
  6
Continuous
 62
     7
370
     9
100
AcDbPolyline
 90
        4
 70
     1
 43
3.0
 10
3278.392548548178
 20
-2779.279112782177
 42
0.4142135623731
 10
3276.892548548178
 20
-2777.779112782177
 42
0.4142135623731
 10
3275.392548548178
 20
-2779.279112782177
 42
0.4142135623731
 10
3276.892548548178
 20
-2780.779112782177
 42
0.4142135623731
  0
LINE
  5
2E7
330
1F
100
AcDbEntity
  8
0-E
  6
Continuous
 62
   120
370
     5
100
AcDbLine
 10
3276.892548548178
 20
-2779.279112782177
 30
0.0
 11
3276.892548548178
 21
-2883.791464511077
 31
0.0
  0
LWPOLYLINE
  5
2E8
330
1F
100
AcDbEntity
  8
0-E
  6
Continuous
 62
     7
370
     9
100
AcDbPolyline
 90
        4
 70
     1
 43
3.0
 10
3300.419691047115
 20
-2779.279112782177
 42
0.4142135623731
 10
3298.919691047116
 20
-2777.779112782177
 42
0.4142135623731
 10
3297.419691047116
 20
-2779.279112782177
 42
0.4142135623731
 10
3298.919691047116
 20
-2780.779112782177
 42
0.4142135623731
  0
LINE
  5
2E9
330
1F
100
AcDbEntity
  8
0-E
  6
Continuous
 62
   120
370
     5
100
AcDbLine
 10
3298.919691047116
 20
-2779.279112782177
 30
0.0
 11
3298.919691047116
 21
-2883.791464511077
 31
0.0
  0
LWPOLYLINE
  5
2EA
330
1F
100
AcDbEntity
  8
0-E
  6
Continuous
 62
     7
370
     9
100
AcDbPolyline
 90
        4
 70
     1
 43
3.0
 10
2670.540822809253
 20
-2955.972478709091
 42
0.4142135623731
 10
2669.040822809253
 20
-2954.472478709091
 42
0.4142135623731
 10
2667.540822809253
 20
-2955.972478709091
 42
0.4142135623731
 10
2669.040822809253
 20
-2957.472478709091
 42
0.4142135623731
  0
LWPOLYLINE
  5
2EB
330
1F
100
AcDbEntity
  8
0-E
  6
Continuous
 62
     7
370
     9
100
AcDbPolyline
 90
        4
 70
     1
 43
3.0
 10
2670.540822809253
 20
-2985.973034534834
 42
0.4142135623731
 10
2669.040822809253
 20
-2984.473034534834
 42
0.4142135623731
 10
2667.540822809253
 20
-2985.973034534834
 42
0.4142135623731
 10
2669.040822809253
 20
-2987.473034534834
 42
0.4142135623731
  0
LINE
  5
2EC
330
1F
100
AcDbEntity
  8
0-E
  6
Continuous
 62
   120
370
     5
100
AcDbLine
 10
2669.040822809253
 20
-2955.972478709091
 30
0.0
 11
2799.881674493744
 21
-2955.972478709091
 31
0.0
  0
LINE
  5
2ED
330
1F
100
AcDbEntity
  8
0-E
  6
Continuous
 62
   120
370
     5
100
AcDbLine
 10
2669.040822809253
 20
-2985.973034534834
 30
0.0
 11
2799.881674493744
 21
-2985.973034534834
 31
0.0
  0
LINE
  5
2EE
330
1F
100
AcDbEntity
  8
0-E
  6
Continuous
 62
   120
370
     5
100
AcDbLine
 10
2669.040822809253
 20
-2985.973034534834
 30
0.0
 11
2669.040822809253
 21
-3060.97303453484
 31
0.0
  0
LWPOLYLINE
  5
2EF
330
1F
100
AcDbEntity
  8
0-E
  6
Continuous
 62
     7
370
     9
100
AcDbPolyline
 90
        4
 70
     1
 43
3.0
 10
2670.540822809253
 20
-3060.97303453484
 42
0.4142135623731
 10
2669.040822809253
 20
-3059.47303453484
 42
0.4142135623731
 10
2667.540822809253
 20
-3060.97303453484
 42
0.4142135623731
 10
2669.040822809253
 20
-3062.47303453484
 42
0.4142135623731
  0
LINE
  5
2F0
330
1F
100
AcDbEntity
  8
0-E
  6
Continuous
 62
   120
370
     5
100
AcDbLine
 10
2669.040822809253
 20
-3060.97303453484
 30
0.0
 11
2799.881674493744
 21
-3060.97303453484
 31
0.0
  0
LINE
  5
2F1
330
1F
100
AcDbEntity
  8
0-E
  6
Continuous
 62
   120
370
     5
100
AcDbLine
 10
2512.597852565259
 20
-3060.97303453484
 30
0.0
 11
2512.597852565259
 21
-2955.972478709091
 31
0.0
  0
LWPOLYLINE
  5
2F2
330
1F
100
AcDbEntity
  8
0-E
  6
Continuous
 62
     7
370
     9
100
AcDbPolyline
 90
        4
 70
     1
 43
3.0
 10
2514.097852565259
 20
-3060.97303453484
 42
0.4142135623731
 10
2512.597852565259
 20
-3059.47303453484
 42
0.4142135623731
 10
2511.097852565259
 20
-3060.97303453484
 42
0.4142135623731
 10
2512.597852565259
 20
-3062.47303453484
 42
0.4142135623731
  0
LWPOLYLINE
  5
2F3
330
1F
100
AcDbEntity
  8
0-E
  6
Continuous
 62
     7
370
     9
100
AcDbPolyline
 90
        4
 70
     1
 43
3.0
 10
2514.097852565259
 20
-2955.972478709091
 42
0.4142135623731
 10
2512.597852565259
 20
-2954.472478709091
 42
0.4142135623731
 10
2511.097852565259
 20
-2955.972478709091
 42
0.4142135623731
 10
2512.597852565259
 20
-2957.472478709091
 42
0.4142135623731
  0
LINE
  5
2F4
330
1F
100
AcDbEntity
  8
0-E
  6
Continuous
 62
   120
370
     5
100
AcDbLine
 10
2512.597852565259
 20
-3060.97303453484
 30
0.0
 11
2669.040822809253
 21
-3060.97303453484
 31
0.0
  0
LINE
  5
2F5
330
1F
100
AcDbEntity
  8
0-E
  6
Continuous
 62
   120
370
     5
100
AcDbLine
 10
2512.597852565259
 20
-2955.972478709091
 30
0.0
 11
2669.040822809253
 21
-2955.972478709091
 31
0.0
  0
LWPOLYLINE
  5
2F6
330
1F
100
AcDbEntity
  8
0-E
  6
Continuous
 62
     7
370
     9
100
AcDbPolyline
 90
        4
 70
     1
 43
3.0
 10
2514.097852565259
 20
-2196.765732176918
 42
0.4142135623731
 10
2512.597852565259
 20
-2195.265732176918
 42
0.4142135623731
 10
2511.097852565259
 20
-2196.765732176918
 42
0.4142135623731
 10
2512.597852565259
 20
-2198.265732176918
 42
0.4142135623731
  0
LINE
  5
2F7
330
1F
100
AcDbEntity
  8
0-E
  6
Continuous
 62
   120
370
     5
100
AcDbLine
 10
2512.597852565259
 20
-2196.765732176918
 30
0.0
 11
2669.040822809253
 21
-2196.765732176918
 31
0.0
  0
LINE
  5
2F8
330
1F
100
AcDbEntity
  8
0-E
  6
Continuous
 62
   120
370
     5
100
AcDbLine
 10
2512.597852565259
 20
-2196.765732176918
 30
0.0
 11
2512.597852565259
 21
-2073.765732176917
 31
0.0
  0
LWPOLYLINE
  5
2F9
330
1F
100
AcDbEntity
  8
0-E
  6
Continuous
 62
     7
370
     9
100
AcDbPolyline
 90
        4
 70
     1
 43
3.0
 10
2514.097852565259
 20
-2073.765732176917
 42
0.4142135623731
 10
2512.597852565259
 20
-2072.265732176917
 42
0.4142135623731
 10
2511.097852565259
 20
-2073.765732176917
 42
0.4142135623731
 10
2512.597852565259
 20
-2075.265732176917
 42
0.4142135623731
  0
LINE
  5
2FA
330
1F
100
AcDbEntity
  8
0-E
  6
Continuous
 62
   120
370
     5
100
AcDbLine
 10
2512.597852565259
 20
-2073.765732176917
 30
0.0
 11
2669.040822809253
 21
-2073.765732176917
 31
0.0
  0
LINE
  5
2FB
330
1F
100
AcDbEntity
  8
0-E
  6
Continuous
 62
   120
370
     5
100
AcDbLine
 10
2669.040822809253
 20
-2889.451182300003
 30
0.0
 11
2669.040822809253
 21
-2985.973034534834
 31
0.0
  0
LINE
  5
2FC
330
1F
100
AcDbEntity
  8
0-E
  6
Continuous
 62
   120
370
     5
100
AcDbLine
 10
2954.392548548178
 20
-2617.331877124406
 30
0.0
 11
3298.919691047116
 21
-2617.331877124406
 31
0.0
  0
LWPOLYLINE
  5
2FD
330
1F
100
AcDbEntity
  8
0-E
  6
Continuous
 62
     7
370
     9
100
AcDbPolyline
 90
        4
 70
     1
 43
3.0
 10
2955.892548548178
 20
-2617.331877124406
 42
0.4142135623731
 10
2954.392548548178
 20
-2615.831877124406
 42
0.4142135623731
 10
2952.892548548178
 20
-2617.331877124406
 42
0.4142135623731
 10
2954.392548548178
 20
-2618.831877124406
 42
0.4142135623731
  0
LWPOLYLINE
  5
2FE
330
1F
100
AcDbEntity
  8
0-E
  6
Continuous
 62
     7
370
     9
100
AcDbPolyline
 90
        4
 70
     1
 43
3.0
 10
3300.419691047115
 20
-2617.331877124406
 42
0.4142135623731
 10
3298.919691047116
 20
-2615.831877124406
 42
0.4142135623731
 10
3297.419691047116
 20
-2617.331877124406
 42
0.4142135623731
 10
3298.919691047116
 20
-2618.831877124406
 42
0.4142135623731
  0
LINE
  5
2FF
330
1F
100
AcDbEntity
  8
0-E
  6
Continuous
 62
   120
370
     5
100
AcDbLine
 10
2954.392548548178
 20
-2617.331877124406
 30
0.0
 11
2954.392548548178
 21
-2779.279112782177
 31
0.0
  0
LINE
  5
300
330
1F
100
AcDbEntity
  8
0-E
  6
Continuous
 62
   120
370
     5
100
AcDbLine
 10
3298.919691047116
 20
-2617.331877124406
 30
0.0
 11
3298.919691047116
 21
-2779.279112782177
 31
0.0
  0
LINE
  5
301
330
1F
100
AcDbEntity
  8
0-E
  6
Continuous
 62
   120
370
     5
100
AcDbLine
 10
2789.990466770645
 20
-2779.279112782177
 30
0.0
 11
2976.892548548178
 21
-2779.279112782177
 31
0.0
  0
LINE
  5
302
330
1F
100
AcDbEntity
  8
0-E
  6
Continuous
 62
   120
370
     5
100
AcDbLine
 10
3276.892548548178
 20
-2779.279112782177
 30
0.0
 11
3470.201612503472
 21
-2779.279112782177
 31
0.0
  0
LINE
  5
303
330
1F
100
AcDbEntity
  8
0-E
  6
Continuous
 62
    92
370
    13
100
AcDbLine
 10
2205.587533354163
 20
194.9998020481422
 30
0.0
 11
2205.587533354163
 21
-3409.930654623817
 31
0.0
  0
LINE
  5
304
330
1F
100
AcDbEntity
  8
0-E
  6
Continuous
 62
    92
370
    13
100
AcDbLine
 10
4191.256895024741
 20
194.9998020481422
 30
0.0
 11
4191.256895024741
 21
-3409.930654623817
 31
0.0
  0
LINE
  5
305
330
1F
100
AcDbEntity
  8
0-E
  6
Continuous
 62
    92
370
    13
100
AcDbLine
 10
1255.04997401186
 20
-1184.663364290127
 30
0.0
 11
1255.04997401186
 21
-1134.663879789755
 31
0.0
  0
LINE
  5
306
330
1F
100
AcDbEntity
  8
0-E
  6
Continuous
 62
    92
370
    13
100
AcDbLine
 10
1025.049710076048
 20
-1184.663364290127
 30
0.0
 11
1025.049710076048
 21
-1134.663879789755
 31
0.0
  0
LINE
  5
307
330
1F
100
AcDbEntity
  8
0-E
  6
Continuous
 62
    92
370
    13
100
AcDbLine
 10
1040.049017244548
 20
-1204.663677713902
 30
0.0
 11
1240.049182204436
 21
-1204.663677713902
 31
0.0
  0
LINE
  5
308
330
1F
100
AcDbEntity
  8
0-E
  6
Continuous
 62
    92
370
    13
100
AcDbLine
 10
1025.049710076048
 20
-1184.663364290127
 30
0.0
 11
1040.049017244548
 21
-1184.663364290127
 31
0.0
  0
LINE
  5
309
330
1F
100
AcDbEntity
  8
0-E
  6
Continuous
 62
    92
370
    13
100
AcDbLine
 10
1040.049017244548
 20
-1204.663677713902
 30
0.0
 11
1040.049017244548
 21
-1184.663364290127
 31
0.0
  0
LINE
  5
30A
330
1F
100
AcDbEntity
  8
0-E
  6
Continuous
 62
    92
370
    13
100
AcDbLine
 10
1240.049182204436
 20
-1204.663677713902
 30
0.0
 11
1240.049182204436
 21
-1184.663364290127
 31
0.0
  0
LINE
  5
30B
330
1F
100
AcDbEntity
  8
0-E
  6
Continuous
 62
    92
370
    13
100
AcDbLine
 10
1255.04997401186
 20
-1184.663364290127
 30
0.0
 11
1240.049182204436
 21
-1184.663364290127
 31
0.0
  0
LWPOLYLINE
  5
30C
330
1F
100
AcDbEntity
  8
0-E
  6
Continuous
 62
     7
370
     9
100
AcDbPolyline
 90
        4
 70
     1
 43
3.0
 10
681.548918268619
 20
-1512.173331990985
 42
0.4142135623731
 10
680.048918268619
 20
-1510.673331990985
 42
0.4142135623731
 10
678.5489182686189
 20
-1512.173331990985
 42
0.4142135623731
 10
680.048918268619
 20
-1513.673331990985
 42
0.4142135623731
  0
LINE
  5
30D
330
1F
100
AcDbEntity
  8
0-E
  6
Continuous
 62
   120
370
     5
100
AcDbLine
 10
680.048918268619
 20
-1512.173331990985
 30
0.0
 11
680.048918268619
 21
-1332.173331990985
 31
0.0
  0
LWPOLYLINE
  5
30E
330
1F
100
AcDbEntity
  8
0-E
  6
Continuous
 62
     7
370
     9
100
AcDbPolyline
 90
        4
 70
     1
 43
3.0
 10
681.5489182686181
 20
-200.8306533089103
 42
0.4142135623731
 10
680.0489182686181
 20
-199.3306533089103
 42
0.4142135623731
 10
678.5489182686181
 20
-200.8306533089103
 42
0.4142135623731
 10
680.0489182686181
 20
-202.3306533089103
 42
0.4142135623731
  0
LINE
  5
30F
330
1F
100
AcDbEntity
  8
0-E
  6
Continuous
 62
   120
370
     5
100
AcDbLine
 10
680.0489182686181
 20
-200.8306533089103
 30
0.0
 11
680.0489182686181
 21
-344.3727031089111
 31
0.0
  0
MTEXT
  5
310
330
1F
100
AcDbEntity
  8
0-E
  6
Continuous
 62
     7
370
   211
100
AcDbMText
 10
1860.049627580352
 20
-1202.873778751829
 30
0.0
 40
68.58
 41
45.0
 46
0.0
 71
     7
 72
     1
  1
{\fＭＳ ゴシック|b0|i0|c128|p49;7}
 11
6.123031769111886E-17
 21
1.0
 31
0.0
 73
     1
 44
1.0
  0
LINE
  5
311
330
1F
100
AcDbEntity
  8
0-E
  6
Continuous
 62
   120
370
     5
100
AcDbLine
 10
1875.049627580352
 20
-1134.663879789755
 30
0.0
 11
1875.049627580352
 21
-1204.663677713902
 31
0.0
  0
LWPOLYLINE
  5
312
330
1F
100
AcDbEntity
  8
0-E
  6
Continuous
 62
     7
370
     9
100
AcDbPolyline
 90
        4
 70
     1
 43
3.0
 10
1876.549627580352
 20
-1134.663879789755
 42
0.4142135623731
 10
1875.049627580352
 20
-1133.163879789756
 42
0.4142135623731
 10
1873.549627580352
 20
-1134.663879789755
 42
0.4142135623731
 10
1875.049627580352
 20
-1136.163879789755
 42
0.4142135623731
  0
LWPOLYLINE
  5
313
330
1F
100
AcDbEntity
  8
0-E
  6
Continuous
 62
     7
370
     9
100
AcDbPolyline
 90
        4
 70
     1
 43
3.0
 10
1876.549627580352
 20
-1204.663677713902
 42
0.4142135623731
 10
1875.049627580352
 20
-1203.163677713903
 42
0.4142135623731
 10
1873.549627580352
 20
-1204.663677713902
 42
0.4142135623731
 10
1875.049627580352
 20
-1206.163677713902
 42
0.4142135623731
  0
LINE
  5
314
330
1F
100
AcDbEntity
  8
0-E
  6
Continuous
 62
   120
370
     5
100
AcDbLine
 10
1875.049627580352
 20
-1134.663879789755
 30
0.0
 11
1683.316319944081
 21
-1134.663879789755
 31
0.0
  0
LINE
  5
315
330
1F
100
AcDbEntity
  8
0-E
  6
Continuous
 62
   120
370
     5
100
AcDbLine
 10
1875.049627580352
 20
-1204.663677713902
 30
0.0
 11
1683.316319944081
 21
-1204.663677713902
 31
0.0
  0
LWPOLYLINE
  5
316
330
1F
100
AcDbEntity
  8
0-E
  6
Continuous
 62
     7
370
     9
100
AcDbPolyline
 90
        4
 70
     1
 43
3.0
 10
1601.549281180364
 20
-1512.173331990985
 42
0.4142135623731
 10
1600.049281180364
 20
-1510.673331990985
 42
0.4142135623731
 10
1598.549281180364
 20
-1512.173331990985
 42
0.4142135623731
 10
1600.049281180364
 20
-1513.673331990985
 42
0.4142135623731
  0
LINE
  5
317
330
1F
100
AcDbEntity
  8
0-E
  6
Continuous
 62
   120
370
     5
100
AcDbLine
 10
1600.049281180364
 20
-1512.173331990985
 30
0.0
 11
1600.049281180364
 21
-1332.173331990985
 31
0.0
  0
LWPOLYLINE
  5
318
330
1F
100
AcDbEntity
  8
0-E
  6
Continuous
 62
     7
370
     9
100
AcDbPolyline
 90
        4
 70
     1
 43
3.0
 10
1601.549281180364
 20
-200.8306533089103
 42
0.4142135623731
 10
1600.049281180364
 20
-199.3306533089103
 42
0.4142135623731
 10
1598.549281180364
 20
-200.8306533089103
 42
0.4142135623731
 10
1600.049281180364
 20
-202.3306533089103
 42
0.4142135623731
  0
LINE
  5
319
330
1F
100
AcDbEntity
  8
0-E
  6
Continuous
 62
   120
370
     5
100
AcDbLine
 10
1600.049281180364
 20
-200.8306533089103
 30
0.0
 11
1600.049281180364
 21
-344.3727031089111
 31
0.0
  0
LINE
  5
31A
330
1F
100
AcDbEntity
  8
0-E
  6
Continuous
 62
   120
370
     5
100
AcDbLine
 10
680.0489182686181
 20
-200.8306533089103
 30
0.0
 11
1600.049281180364
 21
-200.8306533089103
 31
0.0
  0
LWPOLYLINE
  5
31B
330
1F
100
AcDbEntity
  8
0-E
  6
Continuous
 62
     7
370
     9
100
AcDbPolyline
 90
        4
 70
     1
 43
3.0
 10
681.5489182686181
 20
-200.8306533089103
 42
0.4142135623731
 10
680.0489182686181
 20
-199.3306533089103
 42
0.4142135623731
 10
678.5489182686181
 20
-200.8306533089103
 42
0.4142135623731
 10
680.0489182686181
 20
-202.3306533089103
 42
0.4142135623731
  0
LWPOLYLINE
  5
31C
330
1F
100
AcDbEntity
  8
0-E
  6
Continuous
 62
     7
370
     9
100
AcDbPolyline
 90
        4
 70
     1
 43
3.0
 10
1601.549281180364
 20
-200.8306533089103
 42
0.4142135623731
 10
1600.049281180364
 20
-199.3306533089103
 42
0.4142135623731
 10
1598.549281180364
 20
-200.8306533089103
 42
0.4142135623731
 10
1600.049281180364
 20
-202.3306533089103
 42
0.4142135623731
  0
MTEXT
  5
31D
330
1F
100
AcDbEntity
  8
0-E
  6
Continuous
 62
     7
370
   211
100
AcDbMText
 10
1091.299099724492
 20
-193.6831533089103
 30
0.0
 40
74.295
 41
97.5
 46
0.0
 71
     7
 72
     1
  1
{\fＭＳ ゴシック|b0|i0|c128|p49;92}
 73
     1
 44
1.0
  0
LINE
  5
31E
330
1F
100
AcDbEntity
  8
0-E
  6
JWW_HOJO
 62
   120
370
     5
100
AcDbLine
 10
680.0485718528597
 20
-344.3727031089111
 30
0.0
 11
1600.049281180364
 21
-344.3727031089111
 31
0.0
  0
LINE
  5
31F
330
1F
100
AcDbEntity
  8
0-E
  6
JWW_HOJO
 62
   120
370
     5
100
AcDbLine
 10
680.0485718528597
 20
-394.3727031089108
 30
0.0
 11
1600.049281180364
 21
-394.3727031089108
 31
0.0
  0
LINE
  5
320
330
1F
100
AcDbEntity
  8
0-E
  6
Continuous
 62
   120
370
     5
100
AcDbLine
 10
680.048918268619
 20
-1512.173331990985
 30
0.0
 11
1025.049710076048
 21
-1512.173331990985
 31
0.0
  0
LWPOLYLINE
  5
321
330
1F
100
AcDbEntity
  8
0-E
  6
Continuous
 62
     7
370
     9
100
AcDbPolyline
 90
        4
 70
     1
 43
3.0
 10
681.548918268619
 20
-1512.173331990985
 42
0.4142135623731
 10
680.048918268619
 20
-1510.673331990985
 42
0.4142135623731
 10
678.5489182686189
 20
-1512.173331990985
 42
0.4142135623731
 10
680.048918268619
 20
-1513.673331990985
 42
0.4142135623731
  0
LWPOLYLINE
  5
322
330
1F
100
AcDbEntity
  8
0-E
  6
Continuous
 62
     7
370
     9
100
AcDbPolyline
 90
        4
 70
     1
 43
3.0
 10
1026.549710076047
 20
-1512.173331990985
 42
0.4142135623731
 10
1025.049710076048
 20
-1510.673331990985
 42
0.4142135623731
 10
1023.549710076048
 20
-1512.173331990985
 42
0.4142135623731
 10
1025.049710076048
 20
-1513.673331990985
 42
0.4142135623731
  0
MTEXT
  5
323
330
1F
100
AcDbEntity
  8
0-E
  6
Continuous
 62
     7
370
   211
100
AcDbMText
 10
751.299314172332
 20
-1503.597081990985
 30
0.0
 40
77.15249999999999
 41
202.5
 46
0.0
 71
     7
 72
     1
  1
{\fＭＳ ゴシック|b0|i0|c128|p49;34.5}
 73
     1
 44
1.0
  0
LINE
  5
324
330
1F
100
AcDbEntity
  8
0-E
  6
Continuous
 62
   120
370
     5
100
AcDbLine
 10
1600.049281180364
 20
-1512.173331990985
 30
0.0
 11
1255.04997401186
 21
-1512.173331990985
 31
0.0
  0
LWPOLYLINE
  5
325
330
1F
100
AcDbEntity
  8
0-E
  6
Continuous
 62
     7
370
     9
100
AcDbPolyline
 90
        4
 70
     1
 43
3.0
 10
1601.549281180364
 20
-1512.173331990985
 42
0.4142135623731
 10
1600.049281180364
 20
-1510.673331990985
 42
0.4142135623731
 10
1598.549281180364
 20
-1512.173331990985
 42
0.4142135623731
 10
1600.049281180364
 20
-1513.673331990985
 42
0.4142135623731
  0
LWPOLYLINE
  5
326
330
1F
100
AcDbEntity
  8
0-E
  6
Continuous
 62
     7
370
     9
100
AcDbPolyline
 90
        4
 70
     1
 43
3.0
 10
1256.54997401186
 20
-1512.173331990985
 42
0.4142135623731
 10
1255.04997401186
 20
-1510.673331990985
 42
0.4142135623731
 10
1253.54997401186
 20
-1512.173331990985
 42
0.4142135623731
 10
1255.04997401186
 20
-1513.673331990985
 42
0.4142135623731
  0
MTEXT
  5
327
330
1F
100
AcDbEntity
  8
0-E
  6
Continuous
 62
     7
370
   211
100
AcDbMText
 10
1326.299627596114
 20
-1503.597081990986
 30
0.0
 40
77.1524999999987
 41
202.4999999999966
 46
0.0
 71
     7
 72
     1
  1
{\fＭＳ ゴシック|b0|i0|c128|p49;34.5}
 73
     1
 44
1.0
  0
LINE
  5
328
330
1F
100
AcDbEntity
  8
0-E
  6
Continuous
 62
    92
370
    13
100
AcDbLine
 10
680.0489182686181
 20
-394.3727031089108
 30
0.0
 11
680.0489182686181
 21
-1134.663879789755
 31
0.0
  0
LINE
  5
329
330
1F
100
AcDbEntity
  8
0-E
  6
Continuous
 62
    92
370
    13
100
AcDbLine
 10
680.0489182686181
 20
-1134.663879789755
 30
0.0
 11
1025.049710076048
 21
-1134.663879789755
 31
0.0
  0
LINE
  5
32A
330
1F
100
AcDbEntity
  8
0-E
  6
Continuous
 62
    92
370
    13
100
AcDbLine
 10
1255.04997401186
 20
-1134.663879789755
 30
0.0
 11
1600.049281180364
 21
-1134.663879789755
 31
0.0
  0
LINE
  5
32B
330
1F
100
AcDbEntity
  8
0-E
  6
Continuous
 62
    92
370
    13
100
AcDbLine
 10
1600.049281180364
 20
-394.3727031089108
 30
0.0
 11
1600.049281180364
 21
-1134.663879789755
 31
0.0
  0
MTEXT
  5
32C
330
1F
100
AcDbEntity
  8
0-E
  6
Continuous
 62
     7
370
   211
100
AcDbMText
 10
823.0321097357703
 20
-2579.771936329818
 30
0.0
 40
80.00999999999999
 41
210.0
 46
0.0
 71
     7
 72
     1
  1
{\fＭＳ ゴシック|b0|i0|c128|p49;33.5}
 11
6.123031769111886E-17
 21
1.0
 31
0.0
 73
     1
 44
1.0
  0
MTEXT
  5
32D
330
1F
100
AcDbEntity
  8
0-E
  6
Continuous
 62
     7
370
   211
100
AcDbMText
 10
665.5102119910609
 20
-2712.056510733323
 30
0.0
 40
91.44
 41
120.0
 46
0.0
 71
     7
 72
     1
  1
{\fＭＳ ゴシック|b0|i0|c128|p49;25}
 11
6.123031769111886E-17
 21
1.0
 31
0.0
 73
     1
 44
1.0
  0
MTEXT
  5
32E
330
1F
100
AcDbEntity
  8
0-E
  6
Continuous
 62
     7
370
   211
100
AcDbMText
 10
939.4292802733755
 20
-2715.806936329818
 30
0.0
 40
91.44
 41
120.0
 46
0.0
 71
     7
 72
     1
  1
{\fＭＳ ゴシック|b0|i0|c128|p49;92}
 11
6.123031769111886E-17
 21
1.0
 31
0.0
 73
     1
 44
1.0
  0
MTEXT
  5
32F
330
1F
100
AcDbEntity
  8
0-E
  6
Continuous
 62
     7
370
   211
100
AcDbMText
 10
817.2122105379199
 20
-2930.771510733323
 30
0.0
 40
80.00999999999999
 41
210.0
 46
0.0
 71
     7
 72
     1
  1
{\fＭＳ ゴシック|b0|i0|c128|p49;33.5}
 11
6.123031769111886E-17
 21
1.0
 31
0.0
 73
     1
 44
1.0
  0
LINE
  5
330
330
1F
100
AcDbEntity
  8
0-E
  6
Continuous
 62
   120
370
     5
100
AcDbLine
 10
1102.26528646189
 20
-2365.527125601952
 30
0.0
 11
1102.26528646189
 21
-2226.372740186934
 31
0.0
  0
LINE
  5
331
330
1F
100
AcDbEntity
  8
0-E
  6
Continuous
 62
   120
370
     5
100
AcDbLine
 10
982.2652864618894
 20
-2566.526510733323
 30
0.0
 11
982.2652864618894
 21
-2226.372740186934
 31
0.0
  0
LINE
  5
332
330
1F
100
AcDbEntity
  8
0-E
  6
Continuous
 62
   120
370
     5
100
AcDbLine
 10
862.2652864618894
 20
-2566.526510733323
 30
0.0
 11
862.2652864618894
 21
-2226.372740186934
 31
0.0
  0
LINE
  5
333
330
1F
100
AcDbEntity
  8
0-E
  6
Continuous
 62
   120
370
     5
100
AcDbLine
 10
502.2652864618885
 20
-2566.526510733323
 30
0.0
 11
502.2652864618885
 21
-2226.372740186934
 31
0.0
  0
LINE
  5
334
330
1F
100
AcDbEntity
  8
0-E
  6
Continuous
 62
    92
370
    13
100
AcDbLine
 10
469.4719464588925
 20
-2566.526510733323
 30
0.0
 11
1084.264781684653
 21
-2566.526510733323
 31
0.0
  0
LINE
  5
335
330
1F
100
AcDbEntity
  8
0-E
  6
Continuous
 62
    92
370
    13
100
AcDbLine
 10
469.4719464588925
 20
-2716.526510733323
 30
0.0
 11
1084.264781684653
 21
-2716.526510733323
 31
0.0
  0
LINE
  5
336
330
1F
100
AcDbEntity
  8
0-E
  6
Continuous
 62
   120
370
     5
100
AcDbLine
 10
1102.26528646189
 20
-2917.525895864694
 30
0.0
 11
1102.26528646189
 21
-3056.680281279713
 31
0.0
  0
LINE
  5
337
330
1F
100
AcDbEntity
  8
0-E
  6
Continuous
 62
   120
370
     5
100
AcDbLine
 10
982.2652864618894
 20
-2716.526510733323
 30
0.0
 11
982.2652864618894
 21
-3056.680281279713
 31
0.0
  0
LINE
  5
338
330
1F
100
AcDbEntity
  8
0-E
  6
Continuous
 62
   120
370
     5
100
AcDbLine
 10
862.2652864618894
 20
-2716.526510733323
 30
0.0
 11
862.2652864618894
 21
-3056.680281279713
 31
0.0
  0
LINE
  5
339
330
1F
100
AcDbEntity
  8
0-E
  6
Continuous
 62
   120
370
     5
100
AcDbLine
 10
502.2652864618885
 20
-2716.526510733323
 30
0.0
 11
502.2652864618885
 21
-3056.680281279713
 31
0.0
  0
LINE
  5
33A
330
1F
100
AcDbEntity
  8
0-E
  6
Continuous
 62
   120
370
     5
100
AcDbLine
 10
742.2652864618894
 20
-2716.526510733323
 30
0.0
 11
742.2652864618894
 21
-3056.680281279713
 31
0.0
  0
LINE
  5
33B
330
1F
100
AcDbEntity
  8
0-E
  6
Continuous
 62
   120
370
     5
100
AcDbLine
 10
622.2652864618894
 20
-2716.526510733323
 30
0.0
 11
622.2652864618894
 21
-3056.680281279713
 31
0.0
  0
LINE
  5
33C
330
1F
100
AcDbEntity
  8
0-E
  6
Continuous
 62
   120
370
     5
100
AcDbLine
 10
742.2652864618894
 20
-2566.526510733323
 30
0.0
 11
742.2652864618894
 21
-2226.372740186934
 31
0.0
  0
LINE
  5
33D
330
1F
100
AcDbEntity
  8
0-E
  6
Continuous
 62
   120
370
     5
100
AcDbLine
 10
622.2652864618894
 20
-2566.526510733323
 30
0.0
 11
622.2652864618894
 21
-2226.372740186934
 31
0.0
  0
LINE
  5
33E
330
1F
100
AcDbEntity
  8
0-E
  6
Continuous
 62
   120
370
     5
100
AcDbLine
 10
680.5102119910609
 20
-2716.526510733323
 30
0.0
 11
795.1368660553348
 21
-2716.526510733323
 31
0.0
  0
LINE
  5
33F
330
1F
100
AcDbEntity
  8
0-E
  6
Continuous
 62
   120
370
     5
100
AcDbLine
 10
680.5102119910609
 20
-2566.526510733323
 30
0.0
 11
795.1368660553348
 21
-2566.526510733323
 31
0.0
  0
LWPOLYLINE
  5
340
330
1F
100
AcDbEntity
  8
0-E
  6
Continuous
 62
     7
370
     9
100
AcDbPolyline
 90
        4
 70
     1
 43
3.0
 10
682.0102119910609
 20
-2917.526510733323
 42
0.4142135623731
 10
680.5102119910609
 20
-2916.026510733323
 42
0.4142135623731
 10
679.0102119910608
 20
-2917.526510733323
 42
0.4142135623731
 10
680.5102119910609
 20
-2919.026510733322
 42
0.4142135623731
  0
LWPOLYLINE
  5
341
330
1F
100
AcDbEntity
  8
0-E
  6
Continuous
 62
     7
370
     9
100
AcDbPolyline
 90
        4
 70
     1
 43
3.0
 10
682.0102119910609
 20
-2716.526510733323
 42
0.4142135623731
 10
680.5102119910609
 20
-2715.026510733323
 42
0.4142135623731
 10
679.0102119910608
 20
-2716.526510733323
 42
0.4142135623731
 10
680.5102119910609
 20
-2718.026510733323
 42
0.4142135623731
  0
LWPOLYLINE
  5
342
330
1F
100
AcDbEntity
  8
0-E
  6
Continuous
 62
     7
370
     9
100
AcDbPolyline
 90
        4
 70
     1
 43
3.0
 10
682.0102119910609
 20
-2566.526510733323
 42
0.4142135623731
 10
680.5102119910609
 20
-2565.026510733323
 42
0.4142135623731
 10
679.0102119910608
 20
-2566.526510733323
 42
0.4142135623731
 10
680.5102119910609
 20
-2568.026510733323
 42
0.4142135623731
  0
LWPOLYLINE
  5
343
330
1F
100
AcDbEntity
  8
0-E
  6
Continuous
 62
     7
370
     9
100
AcDbPolyline
 90
        4
 70
     1
 43
3.0
 10
682.0102119910609
 20
-2365.527361926314
 42
0.4142135623731
 10
680.5102119910609
 20
-2364.027361926314
 42
0.4142135623731
 10
679.0102119910608
 20
-2365.527361926314
 42
0.4142135623731
 10
680.5102119910609
 20
-2367.027361926314
 42
0.4142135623731
  0
LINE
  5
344
330
1F
100
AcDbEntity
  8
0-E
  6
Continuous
 62
   120
370
     5
100
AcDbLine
 10
795.1368660553348
 20
-2917.526510733323
 30
0.0
 11
680.5102119910609
 21
-2917.526510733323
 31
0.0
  0
LINE
  5
345
330
1F
100
AcDbEntity
  8
0-E
  6
Continuous
 62
   120
370
     5
100
AcDbLine
 10
795.1368660553348
 20
-2365.527361926314
 30
0.0
 11
680.5102119910609
 21
-2365.527361926314
 31
0.0
  0
LINE
  5
346
330
1F
100
AcDbEntity
  8
0-E
  6
Continuous
 62
   120
370
     5
100
AcDbLine
 10
680.5102119910609
 20
-2917.526510733323
 30
0.0
 11
680.5102119910609
 21
-2365.527361926314
 31
0.0
  0
LINE
  5
347
330
1F
100
AcDbEntity
  8
0-E
  6
Continuous
 62
   120
370
     5
100
AcDbLine
 10
1222.26528646189
 20
-2917.525895864694
 30
0.0
 11
1222.26528646189
 21
-3056.680281279713
 31
0.0
  0
LINE
  5
348
330
1F
100
AcDbEntity
  8
0-E
  6
Continuous
 62
   120
370
     5
100
AcDbLine
 10
1822.26528646189
 20
-2857.526510733323
 30
0.0
 11
1822.26528646189
 21
-3056.680281279713
 31
0.0
  0
LINE
  5
349
330
1F
100
AcDbEntity
  8
0-E
  6
Continuous
 62
   120
370
     5
100
AcDbLine
 10
1942.26528646189
 20
-2857.526510733323
 30
0.0
 11
1942.26528646189
 21
-3056.680281279713
 31
0.0
  0
LINE
  5
34A
330
1F
100
AcDbEntity
  8
0-E
  6
Continuous
 62
   120
370
     5
100
AcDbLine
 10
954.4292802733755
 20
-2365.527361926314
 30
0.0
 11
954.4292802733755
 21
-2917.526510733323
 31
0.0
  0
LWPOLYLINE
  5
34B
330
1F
100
AcDbEntity
  8
0-E
  6
Continuous
 62
     7
370
     9
100
AcDbPolyline
 90
        4
 70
     1
 43
3.0
 10
955.9292802733756
 20
-2365.527361926314
 42
0.4142135623731
 10
954.4292802733755
 20
-2364.027361926314
 42
0.4142135623731
 10
952.9292802733755
 20
-2365.527361926314
 42
0.4142135623731
 10
954.4292802733755
 20
-2367.027361926314
 42
0.4142135623731
  0
LWPOLYLINE
  5
34C
330
1F
100
AcDbEntity
  8
0-E
  6
Continuous
 62
     7
370
     9
100
AcDbPolyline
 90
        4
 70
     1
 43
3.0
 10
955.9292802733756
 20
-2917.526510733323
 42
0.4142135623731
 10
954.4292802733755
 20
-2916.026510733323
 42
0.4142135623731
 10
952.9292802733755
 20
-2917.526510733323
 42
0.4142135623731
 10
954.4292802733755
 20
-2919.026510733322
 42
0.4142135623731
  0
LINE
  5
34D
330
1F
100
AcDbEntity
  8
0-E
  6
Continuous
 62
   120
370
     5
100
AcDbLine
 10
954.4292802733755
 20
-2365.527361926314
 30
0.0
 11
1056.277516235737
 21
-2365.527361926314
 31
0.0
  0
LINE
  5
34E
330
1F
100
AcDbEntity
  8
0-E
  6
Continuous
 62
   120
370
     5
100
AcDbLine
 10
954.4292802733755
 20
-2917.526510733323
 30
0.0
 11
1056.277516235737
 21
-2917.526510733323
 31
0.0
  0
LINE
  5
34F
330
1F
100
AcDbEntity
  8
0-E
  6
Continuous
 62
     7
370
     9
100
AcDbLine
 10
1294.264732196687
 20
-2701.527134281677
 30
0.0
 11
1282.265137997997
 21
-2701.527134281677
 31
0.0
  0
LINE
  5
350
330
1F
100
AcDbEntity
  8
0-E
  6
Continuous
 62
     7
370
     9
100
AcDbLine
 10
1282.265137997997
 20
-2701.527134281677
 30
0.0
 11
1282.265137997997
 21
-2581.52673837796
 31
0.0
  0
LINE
  5
351
330
1F
100
AcDbEntity
  8
0-E
  6
Continuous
 62
     7
370
     9
100
AcDbLine
 10
1282.265137997997
 20
-2581.52673837796
 30
0.0
 11
1294.264732196687
 21
-2581.52673837796
 31
0.0
  0
LINE
  5
352
330
1F
100
AcDbEntity
  8
0-E
  6
Continuous
 62
     7
370
     9
100
AcDbLine
 10
1282.265137997997
 20
-2671.527035305748
 30
0.0
 11
1264.264633220759
 21
-2671.527035305748
 31
0.0
  0
LINE
  5
353
330
1F
100
AcDbEntity
  8
0-E
  6
Continuous
 62
     7
370
     9
100
AcDbLine
 10
1264.264633220759
 20
-2611.52683735389
 30
0.0
 11
1282.265137997997
 21
-2611.52683735389
 31
0.0
  0
LINE
  5
354
330
1F
100
AcDbEntity
  8
0-E
  6
Continuous
 62
     7
370
     9
100
AcDbLine
 10
1270.264801479837
 20
-2671.527035305748
 30
0.0
 11
1270.264801479837
 21
-2611.52683735389
 31
0.0
  0
LINE
  5
355
330
1F
100
AcDbEntity
  8
0-E
  6
Continuous
 62
     7
370
     9
100
AcDbLine
 10
1276.264969738918
 20
-2671.527035305748
 30
0.0
 11
1276.264969738918
 21
-2611.52683735389
 31
0.0
  0
LINE
  5
356
330
1F
100
AcDbEntity
  8
0-E
  6
Continuous
 62
     7
370
     9
100
AcDbLine
 10
1264.264633220759
 20
-2671.527035305748
 30
0.0
 11
1264.264633220759
 21
-2611.52683735389
 31
0.0
  0
LINE
  5
357
330
1F
100
AcDbEntity
  8
0-E
  6
Continuous
 62
    92
370
    13
100
AcDbLine
 10
1234.264633220759
 20
-2875.526139573589
 30
0.0
 11
1264.264633220759
 21
-2875.526139573589
 31
0.0
  0
LINE
  5
358
330
1F
100
AcDbEntity
  8
0-E
  6
Continuous
 62
    92
370
    13
100
AcDbLine
 10
1234.264633220759
 20
-2875.526139573589
 30
0.0
 11
1234.264633220759
 21
-2917.526139573589
 31
0.0
  0
LINE
  5
359
330
1F
100
AcDbEntity
  8
0-E
  6
Continuous
 62
    92
370
    13
100
AcDbLine
 10
1198.264633220758
 20
-2917.526139573589
 30
0.0
 11
1234.264633220759
 21
-2917.526139573589
 31
0.0
  0
LINE
  5
35A
330
1F
100
AcDbEntity
  8
0-E
  6
Continuous
 62
    92
370
    13
100
AcDbLine
 10
1198.264633220758
 20
-2875.526139573589
 30
0.0
 11
1198.264633220758
 21
-2917.526139573589
 31
0.0
  0
LINE
  5
35B
330
1F
100
AcDbEntity
  8
0-E
  6
Continuous
 62
    92
370
    13
100
AcDbLine
 10
1144.264633220759
 20
-2875.526139573589
 30
0.0
 11
1198.264633220758
 21
-2875.526139573589
 31
0.0
  0
LINE
  5
35C
330
1F
100
AcDbEntity
  8
0-E
  6
Continuous
 62
    92
370
    13
100
AcDbLine
 10
1144.264633220759
 20
-2875.526139573589
 30
0.0
 11
1144.264633220759
 21
-2917.526139573589
 31
0.0
  0
LINE
  5
35D
330
1F
100
AcDbEntity
  8
0-E
  6
Continuous
 62
    92
370
    13
100
AcDbLine
 10
1264.264633220759
 20
-2875.526139573589
 30
0.0
 11
1264.264633220759
 21
-2365.52699076658
 31
0.0
  0
LINE
  5
35E
330
1F
100
AcDbEntity
  8
0-E
  6
Continuous
 62
   120
370
     5
100
AcDbLine
 10
1186.471037623209
 20
-2365.52699076658
 30
0.0
 11
1084.264781684653
 21
-2467.732504385668
 31
0.0
  0
LINE
  5
35F
330
1F
100
AcDbEntity
  8
0-E
  6
Continuous
 62
   120
370
     5
100
AcDbLine
 10
1264.264633220759
 20
-2372.585706586893
 30
0.0
 11
1084.264781684653
 21
-2552.585558122999
 31
0.0
  0
LINE
  5
360
330
1F
100
AcDbEntity
  8
0-E
  6
Continuous
 62
   120
370
     5
100
AcDbLine
 10
1264.264633220759
 20
-2457.438760324224
 30
0.0
 11
1084.264781684653
 21
-2637.439354179796
 31
0.0
  0
LINE
  5
361
330
1F
100
AcDbEntity
  8
0-E
  6
Continuous
 62
   120
370
     5
100
AcDbLine
 10
1264.264633220759
 20
-2542.291814061555
 30
0.0
 11
1084.264781684653
 21
-2722.291665597661
 31
0.0
  0
LINE
  5
362
330
1F
100
AcDbEntity
  8
0-E
  6
Continuous
 62
   120
370
     5
100
AcDbLine
 10
1264.264633220759
 20
-2627.144125479418
 30
0.0
 11
1084.264781684653
 21
-2807.144719334993
 31
0.0
  0
LINE
  5
363
330
1F
100
AcDbEntity
  8
0-E
  6
Continuous
 62
   120
370
     5
100
AcDbLine
 10
1264.264633220759
 20
-2711.997179216749
 30
0.0
 11
1084.264781684653
 21
-2891.997030752855
 31
0.0
  0
LINE
  5
364
330
1F
100
AcDbEntity
  8
0-E
  6
Continuous
 62
   120
370
     5
100
AcDbLine
 10
1264.264633220759
 20
-2796.85023295408
 30
0.0
 11
1185.588726601249
 21
-2875.526139573589
 31
0.0
  0
LINE
  5
365
330
1F
100
AcDbEntity
  8
0-E
  6
Continuous
 62
    92
370
    13
100
AcDbLine
 10
1090.264781684651
 20
-2917.526139573589
 30
0.0
 11
1144.264633220759
 21
-2917.526139573589
 31
0.0
  0
LINE
  5
366
330
1F
100
AcDbEntity
  8
0-E
  6
Continuous
 62
    92
370
    13
100
AcDbLine
 10
1084.264781684653
 20
-2911.526139573588
 30
0.0
 11
1090.264781684651
 21
-2917.526139573589
 31
0.0
  0
LINE
  5
367
330
1F
100
AcDbEntity
  8
0-E
  6
Continuous
 62
    92
370
    13
100
AcDbLine
 10
1090.264781684651
 20
-2365.52699076658
 30
0.0
 11
1264.264633220759
 21
-2365.52699076658
 31
0.0
  0
LINE
  5
368
330
1F
100
AcDbEntity
  8
0-E
  6
Continuous
 62
    92
370
    13
100
AcDbLine
 10
1084.264781684653
 20
-2371.52699076658
 30
0.0
 11
1084.264781684653
 21
-2911.526139573588
 31
0.0
  0
LINE
  5
369
330
1F
100
AcDbEntity
  8
0-E
  6
Continuous
 62
    92
370
    13
100
AcDbLine
 10
1090.264781684651
 20
-2365.52699076658
 30
0.0
 11
1084.264781684653
 21
-2371.52699076658
 31
0.0
  0
LINE
  5
36A
330
1F
100
AcDbEntity
  8
0-E
  6
Continuous
 62
   120
370
     5
100
AcDbLine
 10
1264.264633220756
 20
-2415.193881284364
 30
0.0
 11
1262.597742702974
 21
-2413.526990766584
 31
0.0
  0
LINE
  5
36B
330
1F
100
AcDbEntity
  8
0-E
  6
Continuous
 62
    40
370
    15
100
AcDbLine
 10
1264.264633220759
 20
-2884.757113649097
 30
0.0
 11
1911.546165439496
 21
-2884.757113649097
 31
0.0
  0
LINE
  5
36C
330
1F
100
AcDbEntity
  8
0-E
  6
Continuous
 62
    40
370
    15
100
AcDbLine
 10
1264.264633220759
 20
-2959.757113649097
 30
0.0
 11
1911.546165439496
 21
-2959.757113649097
 31
0.0
  0
LINE
  5
36D
330
1F
100
AcDbEntity
  8
0-E
  6
JWW_HOJO
 62
   120
370
     5
100
AcDbLine
 10
1911.546165439496
 20
-2884.757113649097
 30
0.0
 11
1911.546165439496
 21
-2959.757113649097
 31
0.0
  0
LINE
  5
36E
330
1F
100
AcDbEntity
  8
0-E
  6
JWW_DASHED1
 62
   120
370
     5
100
AcDbLine
 10
1901.911863568552
 20
-2959.757113649098
 30
0.0
 11
1911.546165439496
 21
-2950.122811778155
 31
0.0
  0
LINE
  5
36F
330
1F
100
AcDbEntity
  8
0-E
  6
JWW_DASHED1
 62
   120
370
     5
100
AcDbLine
 10
1859.485456697355
 20
-2959.757113649097
 30
0.0
 11
1911.546165439496
 21
-2907.696404906955
 31
0.0
  0
LINE
  5
370
330
1F
100
AcDbEntity
  8
0-E
  6
JWW_DASHED1
 62
   120
370
     5
100
AcDbLine
 10
1817.059049826157
 20
-2959.757113649091
 30
0.0
 11
1892.059049826154
 21
-2884.757113649097
 31
0.0
  0
LINE
  5
371
330
1F
100
AcDbEntity
  8
0-E
  6
JWW_DASHED1
 62
   120
370
     5
100
AcDbLine
 10
1774.632642954962
 20
-2959.75711364909
 30
0.0
 11
1849.632642954957
 21
-2884.757113649091
 31
0.0
  0
LINE
  5
372
330
1F
100
AcDbEntity
  8
0-E
  6
JWW_DASHED1
 62
   120
370
     5
100
AcDbLine
 10
1732.206236083764
 20
-2959.757113649088
 30
0.0
 11
1807.206236083762
 21
-2884.75711364909
 31
0.0
  0
LINE
  5
373
330
1F
100
AcDbEntity
  8
0-E
  6
JWW_DASHED1
 62
   120
370
     5
100
AcDbLine
 10
1689.77982921261
 20
-2959.757113649097
 30
0.0
 11
1764.779829212622
 21
-2884.757113649083
 31
0.0
  0
LINE
  5
374
330
1F
100
AcDbEntity
  8
0-E
  6
JWW_DASHED1
 62
   120
370
     5
100
AcDbLine
 10
1647.353422341403
 20
-2959.757113649103
 30
0.0
 11
1722.353422341414
 21
-2884.75711364909
 31
0.0
  0
LINE
  5
375
330
1F
100
AcDbEntity
  8
0-E
  6
JWW_DASHED1
 62
   120
370
     5
100
AcDbLine
 10
1604.927015470207
 20
-2959.757113649097
 30
0.0
 11
1679.927015470217
 21
-2884.757113649088
 31
0.0
  0
LINE
  5
376
330
1F
100
AcDbEntity
  8
0-E
  6
JWW_DASHED1
 62
   120
370
     5
100
AcDbLine
 10
1562.500608599003
 20
-2959.757113649103
 30
0.0
 11
1637.500608598998
 21
-2884.757113649105
 31
0.0
  0
LINE
  5
377
330
1F
100
AcDbEntity
  8
0-E
  6
JWW_DASHED1
 62
   120
370
     5
100
AcDbLine
 10
1520.074201727805
 20
-2959.757113649098
 30
0.0
 11
1595.074201727803
 21
-2884.757113649103
 31
0.0
  0
LINE
  5
378
330
1F
100
AcDbEntity
  8
0-E
  6
JWW_DASHED1
 62
   120
370
     5
100
AcDbLine
 10
1477.647794856608
 20
-2959.757113649097
 30
0.0
 11
1552.647794856605
 21
-2884.757113649101
 31
0.0
  0
LINE
  5
379
330
1F
100
AcDbEntity
  8
0-E
  6
JWW_DASHED1
 62
   120
370
     5
100
AcDbLine
 10
1435.221387985412
 20
-2959.757113649095
 30
0.0
 11
1510.221387985408
 21
-2884.757113649097
 31
0.0
  0
LINE
  5
37A
330
1F
100
AcDbEntity
  8
0-E
  6
JWW_DASHED1
 62
   120
370
     5
100
AcDbLine
 10
1392.794981114273
 20
-2959.757113649088
 30
0.0
 11
1467.79498111427
 21
-2884.75711364909
 31
0.0
  0
LINE
  5
37B
330
1F
100
AcDbEntity
  8
0-E
  6
JWW_DASHED1
 62
   120
370
     5
100
AcDbLine
 10
1350.368574243059
 20
-2959.757113649098
 30
0.0
 11
1425.368574243073
 21
-2884.757113649088
 31
0.0
  0
LINE
  5
37C
330
1F
100
AcDbEntity
  8
0-E
  6
JWW_DASHED1
 62
   120
370
     5
100
AcDbLine
 10
1307.942167371863
 20
-2959.757113649097
 30
0.0
 11
1382.942167371873
 21
-2884.757113649088
 31
0.0
  0
LINE
  5
37D
330
1F
100
AcDbEntity
  8
0-E
  6
JWW_DASHED1
 62
   120
370
     5
100
AcDbLine
 10
1265.515760500648
 20
-2959.757113649111
 30
0.0
 11
1340.515760500663
 21
-2884.757113649097
 31
0.0
  0
LINE
  5
37E
330
1F
100
AcDbEntity
  8
0-E
  6
JWW_DASHED1
 62
   120
370
     5
100
AcDbLine
 10
1264.264633220769
 20
-2918.581834057792
 30
0.0
 11
1298.089353629449
 21
-2884.757113649111
 31
0.0
  0
LINE
  5
37F
330
1F
100
AcDbEntity
  8
0-E
  6
Continuous
 62
    92
370
    13
100
AcDbLine
 10
1294.264732196687
 20
-2512.526490938138
 30
0.0
 11
1294.264732196687
 21
-2884.757113649097
 31
0.0
  0
LINE
  5
380
330
1F
100
AcDbEntity
  8
0-E
  6
Continuous
 62
   120
370
     5
100
AcDbLine
 10
1342.26528646189
 20
-2959.757113649098
 30
0.0
 11
1342.26528646189
 21
-3056.680281279713
 31
0.0
  0
LINE
  5
381
330
1F
100
AcDbEntity
  8
0-E
  6
Continuous
 62
   120
370
     5
100
AcDbLine
 10
1462.265286461889
 20
-2959.757113649097
 30
0.0
 11
1462.265286461889
 21
-3056.680281279713
 31
0.0
  0
LINE
  5
382
330
1F
100
AcDbEntity
  8
0-E
  6
Continuous
 62
   120
370
     5
100
AcDbLine
 10
1582.26528646189
 20
-2959.757113649097
 30
0.0
 11
1582.26528646189
 21
-3056.680281279713
 31
0.0
  0
LINE
  5
383
330
1F
100
AcDbEntity
  8
0-E
  6
Continuous
 62
   120
370
     5
100
AcDbLine
 10
1702.26528646189
 20
-2959.757113649097
 30
0.0
 11
1702.26528646189
 21
-3056.680281279713
 31
0.0
  0
LINE
  5
384
330
1F
100
AcDbEntity
  8
0-E
  6
Continuous
 62
    40
370
    15
100
AcDbLine
 10
1264.264633220759
 20
-2884.757113649097
 30
0.0
 11
1264.264633220759
 21
-2959.757113649097
 31
0.0
  0
MTEXT
  5
385
330
1F
100
AcDbEntity
  8
0-E
  6
Continuous
 62
     7
370
   211
100
AcDbMText
 10
1451.396217072317
 20
-2772.868324114143
 30
0.0
 40
91.44
 41
600.0
 46
0.0
 71
     7
 72
     1
  1
{\fＭＳ ゴシック|b0|i0|c128|p49;壁仕上げ面}
 73
     1
 44
1.0
  0
LINE
  5
386
330
1F
100
AcDbEntity
  8
0-E
  6
Continuous
 62
     7
370
     9
100
AcDbLine
 10
1443.553028319579
 20
-2767.421186765569
 30
0.0
 11
2047.935884851867
 21
-2767.421186765569
 31
0.0
  0
LINE
  5
387
330
1F
100
AcDbEntity
  8
0-E
  6
Continuous
 62
     7
370
     9
100
AcDbLine
 10
1332.088283516407
 20
-2960.48378801736
 30
0.0
 11
1443.553028319579
 21
-2767.421186765569
 31
0.0
  0
LINE
  5
388
330
1F
100
AcDbEntity
  8
0-E
  6
Continuous
 62
     7
370
     9
100
AcDbLine
 10
461.2639979607485
 20
-2055.153738836026
 30
0.0
 11
874.4768410080451
 21
-2055.153738836026
 31
0.0
  0
LINE
  5
389
330
1F
100
AcDbEntity
  8
0-E
  6
Continuous
 62
     7
370
     9
100
AcDbLine
 10
874.4768410080451
 20
-2055.153738836026
 30
0.0
 11
874.4768410080451
 21
-2194.831319584408
 31
0.0
  0
LINE
  5
38A
330
1F
100
AcDbEntity
  8
0-E
  6
Continuous
 62
     7
370
     9
100
AcDbLine
 10
874.4768410080451
 20
-2194.831319584408
 30
0.0
 11
461.2639979607485
 21
-2194.831319584408
 31
0.0
  0
LINE
  5
38B
330
1F
100
AcDbEntity
  8
0-E
  6
Continuous
 62
     7
370
     9
100
AcDbLine
 10
461.2639979607485
 20
-2194.831319584408
 30
0.0
 11
461.2639979607485
 21
-2055.153738836026
 31
0.0
  0
MTEXT
  5
38C
330
1F
100
AcDbEntity
  8
0-E
  6
Continuous
 62
     7
370
     9
100
AcDbMText
 10
487.8704194843976
 20
-2199.272529210217
 30
0.0
 40
91.43999999999913
 41
359.9999999999966
 46
0.0
 71
     7
 72
     1
  1
{\fＭＳ ゴシック|b0|i0|c128|p49;収納側}
 73
     1
 44
1.0
  0
LINE
  5
38D
330
1F
100
AcDbEntity
  8
0-E
  6
Continuous
 62
     7
370
     9
100
AcDbLine
 10
461.2639979607485
 20
-3237.373205557087
 30
0.0
 11
874.4768410080451
 21
-3237.373205557087
 31
0.0
  0
LINE
  5
38E
330
1F
100
AcDbEntity
  8
0-E
  6
Continuous
 62
     7
370
     9
100
AcDbLine
 10
874.4768410080451
 20
-3237.373205557087
 30
0.0
 11
874.4768410080451
 21
-3097.695624808703
 31
0.0
  0
LINE
  5
38F
330
1F
100
AcDbEntity
  8
0-E
  6
Continuous
 62
     7
370
     9
100
AcDbLine
 10
874.4768410080451
 20
-3097.695624808703
 30
0.0
 11
461.2639979607485
 21
-3097.695624808703
 31
0.0
  0
LINE
  5
390
330
1F
100
AcDbEntity
  8
0-E
  6
Continuous
 62
     7
370
     9
100
AcDbLine
 10
461.2639979607485
 20
-3097.695624808703
 30
0.0
 11
461.2639979607485
 21
-3237.373205557087
 31
0.0
  0
MTEXT
  5
391
330
1F
100
AcDbEntity
  8
0-E
  6
Continuous
 62
     7
370
     9
100
AcDbMText
 10
487.8704194843976
 20
-3241.814415182897
 30
0.0
 40
91.43999999999913
 41
359.9999999999966
 46
0.0
 71
     7
 72
     1
  1
{\fＭＳ ゴシック|b0|i0|c128|p49;室内側}
 73
     1
 44
1.0
  0
LINE
  5
392
330
1F
100
AcDbEntity
  8
1-E
  6
Continuous
 62
     7
370
     9
100
AcDbLine
 10
3227.498339138407
 20
-1055.819438934293
 30
0.0
 11
3354.17290389085
 21
-1198.504999416771
 31
0.0
  0
LINE
  5
393
330
1F
100
AcDbEntity
  8
1-E
  6
Continuous
 62
    40
370
    15
100
AcDbLine
 10
2586.892548548175
 20
-1087.287498605358
 30
0.0
 11
3666.892548548172
 21
-1087.287498605358
 31
0.0
  0
LINE
  5
394
330
1F
100
AcDbEntity
  8
1-E
  6
Continuous
 62
   120
370
     5
100
AcDbLine
 10
3696.892548548172
 20
-1087.287498605358
 30
0.0
 11
3966.892548548172
 21
-1087.287498605358
 31
0.0
  0
LWPOLYLINE
  5
395
330
1F
100
AcDbEntity
  8
1-E
  6
Continuous
 62
     7
370
     9
100
AcDbPolyline
 90
        4
 70
     1
 43
3.0
 10
3968.392548548173
 20
-1087.287498605358
 42
0.4142135623731
 10
3966.892548548172
 20
-1085.787498605359
 42
0.4142135623731
 10
3965.392548548172
 20
-1087.287498605358
 42
0.4142135623731
 10
3966.892548548172
 20
-1088.787498605358
 42
0.4142135623731
  0
LINE
  5
396
330
1F
100
AcDbEntity
  8
1-E
  6
Continuous
 62
   120
370
     5
100
AcDbLine
 10
2939.392548548175
 20
-1146.775523003422
 30
0.0
 11
2939.392548548175
 21
-1266.775523003422
 31
0.0
  0
LWPOLYLINE
  5
397
330
1F
100
AcDbEntity
  8
1-E
  6
Continuous
 62
     7
370
     9
100
AcDbPolyline
 90
        4
 70
     1
 43
3.0
 10
2940.892548548175
 20
-1266.775523003422
 42
0.4142135623731
 10
2939.392548548175
 20
-1265.275523003422
 42
0.4142135623731
 10
2937.892548548175
 20
-1266.775523003422
 42
0.4142135623731
 10
2939.392548548175
 20
-1268.275523003422
 42
0.4142135623731
  0
MTEXT
  5
398
330
1F
100
AcDbEntity
  8
1-E
  6
Continuous
 62
     7
370
     0
100
AcDbMText
 10
2929.886868154645
 20
-1391.48280824665
 30
0.0
 40
91.44
 41
60.0
 46
0.0
 71
     7
 72
     1
  1
{\fＭＳ ゴシック|b0|i0|c128|p49;1}
 73
     1
 44
1.0
  0
LINE
  5
399
330
1F
100
AcDbEntity
  8
1-E
  6
Continuous
 62
   120
370
     5
100
AcDbLine
 10
3314.392548548175
 20
-1146.775523003422
 30
0.0
 11
3314.392548548175
 21
-1266.775523003422
 31
0.0
  0
LWPOLYLINE
  5
39A
330
1F
100
AcDbEntity
  8
1-E
  6
Continuous
 62
     7
370
     9
100
AcDbPolyline
 90
        4
 70
     1
 43
3.0
 10
3315.892548548175
 20
-1266.775523003422
 42
0.4142135623731
 10
3314.392548548175
 20
-1265.275523003422
 42
0.4142135623731
 10
3312.892548548175
 20
-1266.775523003422
 42
0.4142135623731
 10
3314.392548548175
 20
-1268.275523003422
 42
0.4142135623731
  0
MTEXT
  5
39B
330
1F
100
AcDbEntity
  8
1-E
  6
Continuous
 62
     7
370
     0
100
AcDbMText
 10
3280.35231895701
 20
-1391.48280824665
 30
0.0
 40
91.44
 41
60.0
 46
0.0
 71
     7
 72
     1
  1
{\fＭＳ ゴシック|b0|i0|c128|p49;1}
 73
     1
 44
1.0
  0
LINE
  5
39C
330
1F
100
AcDbEntity
  8
1-E
  6
Continuous
 62
   120
370
     5
100
AcDbLine
 10
2939.392548548175
 20
-1266.775523003422
 30
0.0
 11
3314.392548548175
 21
-1266.775523003422
 31
0.0
  0
LINE
  5
39D
330
1F
100
AcDbEntity
  8
1-E
  6
Continuous
 62
   120
370
     5
100
AcDbLine
 10
3299.392548548175
 20
-1146.775523003422
 30
0.0
 11
3299.392548548175
 21
-1266.775523003422
 31
0.0
  0
LWPOLYLINE
  5
39E
330
1F
100
AcDbEntity
  8
1-E
  6
Continuous
 62
     7
370
     9
100
AcDbPolyline
 90
        4
 70
     1
 43
3.0
 10
3300.892548548175
 20
-1266.775523003422
 42
0.4142135623731
 10
3299.392548548175
 20
-1265.275523003422
 42
0.4142135623731
 10
3297.892548548175
 20
-1266.775523003422
 42
0.4142135623731
 10
3299.392548548175
 20
-1268.275523003422
 42
0.4142135623731
  0
LINE
  5
39F
330
1F
100
AcDbEntity
  8
1-E
  6
Continuous
 62
   120
370
     5
100
AcDbLine
 10
2954.392694348342
 20
-1146.775523003422
 30
0.0
 11
2954.392694348342
 21
-1266.775523003422
 31
0.0
  0
LWPOLYLINE
  5
3A0
330
1F
100
AcDbEntity
  8
1-E
  6
Continuous
 62
     7
370
     9
100
AcDbPolyline
 90
        4
 70
     1
 43
3.0
 10
2955.892694348341
 20
-1266.775523003422
 42
0.4142135623731
 10
2954.392694348342
 20
-1265.275523003422
 42
0.4142135623731
 10
2952.892694348342
 20
-1266.775523003422
 42
0.4142135623731
 10
2954.392694348342
 20
-1268.275523003422
 42
0.4142135623731
  0
MTEXT
  5
3A1
330
1F
100
AcDbEntity
  8
1-E
  6
Continuous
 62
     7
370
     0
100
AcDbMText
 10
3066.892621448256
 20
-1271.662389612536
 30
0.0
 40
91.44
 41
120.0
 46
0.0
 71
     7
 72
     1
  1
{\fＭＳ ゴシック|b0|i0|c128|p49;23}
 73
     1
 44
1.0
  0
LINE
  5
3A2
330
1F
100
AcDbEntity
  8
1-E
  6
Continuous
 62
   120
370
     5
100
AcDbLine
 10
3696.892548548172
 20
-1012.287498605359
 30
0.0
 11
3966.892548548172
 21
-1012.287498605359
 31
0.0
  0
LWPOLYLINE
  5
3A3
330
1F
100
AcDbEntity
  8
1-E
  6
Continuous
 62
     7
370
     9
100
AcDbPolyline
 90
        4
 70
     1
 43
3.0
 10
3968.392548548173
 20
-1012.287498605359
 42
0.4142135623731
 10
3966.892548548172
 20
-1010.787498605359
 42
0.4142135623731
 10
3965.392548548172
 20
-1012.287498605359
 42
0.4142135623731
 10
3966.892548548172
 20
-1013.787498605358
 42
0.4142135623731
  0
LINE
  5
3A4
330
1F
100
AcDbEntity
  8
1-E
  6
Continuous
 62
   120
370
     5
100
AcDbLine
 10
2886.892548548175
 20
-825.4475616530246
 30
0.0
 11
2886.892548548175
 21
-465.4475616530246
 31
0.0
  0
LWPOLYLINE
  5
3A5
330
1F
100
AcDbEntity
  8
1-E
  6
Continuous
 62
     7
370
     9
100
AcDbPolyline
 90
        4
 70
     1
 43
3.0
 10
2888.392548548175
 20
-705.4475616530246
 42
0.4142135623731
 10
2886.892548548175
 20
-703.9475616530245
 42
0.4142135623731
 10
2885.392548548175
 20
-705.4475616530246
 42
0.4142135623731
 10
2886.892548548175
 20
-706.9475616530246
 42
0.4142135623731
  0
LWPOLYLINE
  5
3A6
330
1F
100
AcDbEntity
  8
1-E
  6
Continuous
 62
     7
370
     9
100
AcDbPolyline
 90
        4
 70
     1
 43
3.0
 10
2888.392548548175
 20
-585.4475616530246
 42
0.4142135623731
 10
2886.892548548175
 20
-583.9475616530245
 42
0.4142135623731
 10
2885.392548548175
 20
-585.4475616530246
 42
0.4142135623731
 10
2886.892548548175
 20
-586.9475616530246
 42
0.4142135623731
  0
LWPOLYLINE
  5
3A7
330
1F
100
AcDbEntity
  8
1-E
  6
Continuous
 62
     7
370
     9
100
AcDbPolyline
 90
        4
 70
     1
 43
3.0
 10
2888.392548548175
 20
-465.4475616530246
 42
0.4142135623731
 10
2886.892548548175
 20
-463.9475616530246
 42
0.4142135623731
 10
2885.392548548175
 20
-465.4475616530246
 42
0.4142135623731
 10
2886.892548548175
 20
-466.9475616530246
 42
0.4142135623731
  0
MTEXT
  5
3A8
330
1F
100
AcDbEntity
  8
1-E
  6
Continuous
 62
     7
370
   211
100
AcDbMText
 10
2651.211433020477
 20
-599.4686170618502
 30
0.0
 40
91.44
 41
240.0
 46
0.0
 71
     7
 72
     1
  1
{\fＭＳ ゴシック|b0|i0|c128|p49;10.5}
 73
     1
 44
1.0
  0
LINE
  5
3A9
330
1F
100
AcDbEntity
  8
1-E
  6
Continuous
 62
   120
370
     5
100
AcDbLine
 10
2886.892548548175
 20
-585.4475616530246
 30
0.0
 11
3366.892548548175
 21
-585.4475616530246
 31
0.0
  0
LINE
  5
3AA
330
1F
100
AcDbEntity
  8
1-E
  6
Continuous
 62
   120
370
     5
100
AcDbLine
 10
2886.892548548175
 20
-465.4475616530246
 30
0.0
 11
3366.892548548175
 21
-465.4475616530246
 31
0.0
  0
LWPOLYLINE
  5
3AB
330
1F
100
AcDbEntity
  8
1-E
  6
Continuous
 62
     7
370
     9
100
AcDbPolyline
 90
        4
 70
     1
 43
3.0
 10
3368.392548548175
 20
-705.4475616530246
 42
0.4142135623731
 10
3366.892548548175
 20
-703.9475616530245
 42
0.4142135623731
 10
3365.392548548175
 20
-705.4475616530246
 42
0.4142135623731
 10
3366.892548548175
 20
-706.9475616530246
 42
0.4142135623731
  0
LWPOLYLINE
  5
3AC
330
1F
100
AcDbEntity
  8
1-E
  6
Continuous
 62
     7
370
     9
100
AcDbPolyline
 90
        4
 70
     1
 43
3.0
 10
3368.392548548175
 20
-585.4475616530246
 42
0.4142135623731
 10
3366.892548548175
 20
-583.9475616530245
 42
0.4142135623731
 10
3365.392548548175
 20
-585.4475616530246
 42
0.4142135623731
 10
3366.892548548175
 20
-586.9475616530246
 42
0.4142135623731
  0
LWPOLYLINE
  5
3AD
330
1F
100
AcDbEntity
  8
1-E
  6
Continuous
 62
     7
370
     9
100
AcDbPolyline
 90
        4
 70
     1
 43
3.0
 10
3368.392548548175
 20
-465.4475616530246
 42
0.4142135623731
 10
3366.892548548175
 20
-463.9475616530246
 42
0.4142135623731
 10
3365.392548548175
 20
-465.4475616530246
 42
0.4142135623731
 10
3366.892548548175
 20
-466.9475616530246
 42
0.4142135623731
  0
LINE
  5
3AE
330
1F
100
AcDbEntity
  8
1-E
  6
Continuous
 62
   120
370
     5
100
AcDbLine
 10
3366.892548548175
 20
-825.4475616530246
 30
0.0
 11
3366.892548548175
 21
-465.4475616530246
 31
0.0
  0
MTEXT
  5
3AF
330
1F
100
AcDbEntity
  8
1-E
  6
Continuous
 62
     7
370
   211
100
AcDbMText
 10
3368.144639033153
 20
-599.4686170618502
 30
0.0
 40
91.44
 41
240.0
 46
0.0
 71
     7
 72
     1
  1
{\fＭＳ ゴシック|b0|i0|c128|p49;10.5}
 73
     1
 44
1.0
  0
LINE
  5
3B0
330
1F
100
AcDbEntity
  8
1-E
  6
Continuous
 62
   120
370
     5
100
AcDbLine
 10
3696.892548548172
 20
-907.2874986053586
 30
0.0
 11
3966.892548548172
 21
-907.2874986053586
 31
0.0
  0
LWPOLYLINE
  5
3B1
330
1F
100
AcDbEntity
  8
1-E
  6
Continuous
 62
     7
370
     9
100
AcDbPolyline
 90
        4
 70
     1
 43
3.0
 10
3968.392548548173
 20
-907.2874986053586
 42
0.4142135623731
 10
3966.892548548172
 20
-905.7874986053586
 42
0.4142135623731
 10
3965.392548548172
 20
-907.2874986053586
 42
0.4142135623731
 10
3966.892548548172
 20
-908.7874986053586
 42
0.4142135623731
  0
LWPOLYLINE
  5
3B2
330
1F
100
AcDbEntity
  8
1-E
  6
Continuous
 62
     7
370
     9
100
AcDbPolyline
 90
        4
 70
     1
 43
3.0
 10
3045.892548548175
 20
-585.4475616530246
 42
0.4142135623731
 10
3044.392548548175
 20
-583.9475616530245
 42
0.4142135623731
 10
3042.892548548175
 20
-585.4475616530246
 42
0.4142135623731
 10
3044.392548548175
 20
-586.9475616530246
 42
0.4142135623731
  0
LINE
  5
3B3
330
1F
100
AcDbEntity
  8
1-E
  6
Continuous
 62
   120
370
     5
100
AcDbLine
 10
3044.392548548175
 20
-585.4475616530246
 30
0.0
 11
3044.392548548175
 21
-825.4475616530246
 31
0.0
  0
LWPOLYLINE
  5
3B4
330
1F
100
AcDbEntity
  8
1-E
  6
Continuous
 62
     7
370
     9
100
AcDbPolyline
 90
        4
 70
     1
 43
3.0
 10
3210.892548548175
 20
-585.4475616530246
 42
0.4142135623731
 10
3209.392548548175
 20
-583.9475616530245
 42
0.4142135623731
 10
3207.892548548175
 20
-585.4475616530246
 42
0.4142135623731
 10
3209.392548548175
 20
-586.9475616530246
 42
0.4142135623731
  0
LINE
  5
3B5
330
1F
100
AcDbEntity
  8
1-E
  6
Continuous
 62
   120
370
     5
100
AcDbLine
 10
3209.392548548175
 20
-585.4475616530246
 30
0.0
 11
3209.392548548175
 21
-825.4475616530246
 31
0.0
  0
MTEXT
  5
3B6
330
1F
100
AcDbEntity
  8
1-E
  6
Continuous
 62
     7
370
   211
100
AcDbMText
 10
3066.892548548175
 20
-599.4686170618502
 30
0.0
 40
91.44
 41
120.0
 46
0.0
 71
     7
 72
     1
  1
{\fＭＳ ゴシック|b0|i0|c128|p49;11}
 73
     1
 44
1.0
  0
LINE
  5
3B7
330
1F
100
AcDbEntity
  8
1-E
  6
Continuous
 62
    40
370
    15
100
AcDbLine
 10
2939.60805307524
 20
-907.2874986053586
 30
0.0
 11
2586.892548548175
 21
-907.2874986053586
 31
0.0
  0
LINE
  5
3B8
330
1F
100
AcDbEntity
  8
1-E
  6
Continuous
 62
    40
370
    15
100
AcDbLine
 10
3314.17704402111
 20
-907.2874986053586
 30
0.0
 11
3666.892548548172
 21
-907.2874986053586
 31
0.0
  0
MTEXT
  5
3B9
330
1F
100
AcDbEntity
  8
1-E
  6
Continuous
 62
     7
370
     0
100
AcDbMText
 10
3959.545319898649
 20
-1094.067498605358
 30
0.0
 40
91.44
 41
60.0
 46
0.0
 71
     7
 72
     1
  1
{\fＭＳ ゴシック|b0|i0|c128|p49;5}
 11
6.123031769111886E-17
 21
1.0
 31
0.0
 73
     1
 44
1.0
  0
MTEXT
  5
3BA
330
1F
100
AcDbEntity
  8
1-E
  6
Continuous
 62
     7
370
     0
100
AcDbMText
 10
3958.284830073361
 20
-1004.067498605359
 30
0.0
 40
91.44
 41
60.0
 46
0.0
 71
     7
 72
     1
  1
{\fＭＳ ゴシック|b0|i0|c128|p49;7}
 11
6.123031769111886E-17
 21
1.0
 31
0.0
 73
     1
 44
1.0
  0
MTEXT
  5
3BB
330
1F
100
AcDbEntity
  8
1-E
  6
Continuous
 62
     7
370
     0
100
AcDbMText
 10
3066.892548548175
 20
-479.4685269937526
 30
0.0
 40
91.44
 41
120.0
 46
0.0
 71
     7
 72
     1
  1
{\fＭＳ ゴシック|b0|i0|c128|p49;32}
 73
     1
 44
1.0
  0
LINE
  5
3BC
330
1F
100
AcDbEntity
  8
1-E
  6
Continuous
 62
     7
370
     9
100
AcDbLine
 10
2939.392548548175
 20
-943.2874986053582
 30
0.0
 11
2586.892548548175
 21
-943.2874986053582
 31
0.0
  0
LINE
  5
3BD
330
1F
100
AcDbEntity
  8
1-E
  6
Continuous
 62
     7
370
     9
100
AcDbLine
 10
2939.392548548175
 20
-979.2874986053579
 30
0.0
 11
2586.892548548175
 21
-979.2874986053579
 31
0.0
  0
LINE
  5
3BE
330
1F
100
AcDbEntity
  8
1-E
  6
Continuous
 62
     7
370
     9
100
AcDbLine
 10
2939.392548548175
 20
-1015.287498605358
 30
0.0
 11
2586.892548548175
 21
-1015.287498605358
 31
0.0
  0
LINE
  5
3BF
330
1F
100
AcDbEntity
  8
1-E
  6
Continuous
 62
     7
370
     9
100
AcDbLine
 10
2939.392548548175
 20
-1051.287498605358
 30
0.0
 11
2586.892548548175
 21
-1051.287498605358
 31
0.0
  0
LINE
  5
3C0
330
1F
100
AcDbEntity
  8
1-E
  6
Continuous
 62
     7
370
     9
100
AcDbLine
 10
3666.892548548172
 20
-943.715468843309
 30
0.0
 11
3314.392548548175
 21
-943.715468843309
 31
0.0
  0
LINE
  5
3C1
330
1F
100
AcDbEntity
  8
1-E
  6
Continuous
 62
     7
370
     9
100
AcDbLine
 10
3666.892548548172
 20
-979.7154688433096
 30
0.0
 11
3314.392548548175
 21
-979.7154688433096
 31
0.0
  0
LINE
  5
3C2
330
1F
100
AcDbEntity
  8
1-E
  6
Continuous
 62
     7
370
     9
100
AcDbLine
 10
3666.892548548172
 20
-1015.715468843309
 30
0.0
 11
3314.392548548175
 21
-1015.715468843309
 31
0.0
  0
LINE
  5
3C3
330
1F
100
AcDbEntity
  8
1-E
  6
Continuous
 62
     7
370
     9
100
AcDbLine
 10
3666.892548548172
 20
-1051.715468843309
 30
0.0
 11
3314.392548548175
 21
-1051.715468843309
 31
0.0
  0
LINE
  5
3C4
330
1F
100
AcDbEntity
  8
1-E
  6
Continuous
 62
   120
370
     5
100
AcDbLine
 10
3966.892548548172
 20
-1087.287498605358
 30
0.0
 11
3966.892548548172
 21
-889.2874986053579
 31
0.0
  0
LINE
  5
3C5
330
1F
100
AcDbEntity
  8
1-E
  6
Continuous
 62
   120
370
     5
100
AcDbLine
 10
3696.892548548172
 20
-889.2874986053579
 30
0.0
 11
3966.892548548172
 21
-889.2874986053579
 31
0.0
  0
LWPOLYLINE
  5
3C6
330
1F
100
AcDbEntity
  8
1-E
  6
Continuous
 62
     7
370
     9
100
AcDbPolyline
 90
        4
 70
     1
 43
3.0
 10
3968.392548548173
 20
-889.2874986053579
 42
0.4142135623731
 10
3966.892548548172
 20
-887.7874986053579
 42
0.4142135623731
 10
3965.392548548172
 20
-889.2874986053579
 42
0.4142135623731
 10
3966.892548548172
 20
-890.7874986053579
 42
0.4142135623731
  0
LINE
  5
3C7
330
1F
100
AcDbEntity
  8
1-E
  6
Continuous
 62
   120
370
     5
100
AcDbLine
 10
3272.392548548172
 20
-705.4475616530246
 30
0.0
 11
3366.892548548175
 21
-705.4475616530246
 31
0.0
  0
LWPOLYLINE
  5
3C8
330
1F
100
AcDbEntity
  8
1-E
  6
Continuous
 62
     7
370
     9
100
AcDbPolyline
 90
        4
 70
     1
 43
3.0
 10
3273.892548548172
 20
-705.4475616530246
 42
0.4142135623731
 10
3272.392548548172
 20
-703.9475616530245
 42
0.4142135623731
 10
3270.892548548172
 20
-705.4475616530246
 42
0.4142135623731
 10
3272.392548548172
 20
-706.9475616530246
 42
0.4142135623731
  0
LINE
  5
3C9
330
1F
100
AcDbEntity
  8
1-E
  6
Continuous
 62
   120
370
     5
100
AcDbLine
 10
3272.392548548172
 20
-705.4475616530246
 30
0.0
 11
3272.392548548172
 21
-825.4475616530246
 31
0.0
  0
LINE
  5
3CA
330
1F
100
AcDbEntity
  8
1-E
  6
Continuous
 62
   120
370
     5
100
AcDbLine
 10
2886.892548548175
 20
-705.4475616530246
 30
0.0
 11
2981.392548548174
 21
-705.4475616530246
 31
0.0
  0
LINE
  5
3CB
330
1F
100
AcDbEntity
  8
1-E
  6
Continuous
 62
   120
370
     5
100
AcDbLine
 10
2981.392548548174
 20
-705.4475616530246
 30
0.0
 11
2981.392548548174
 21
-825.4475616530246
 31
0.0
  0
LWPOLYLINE
  5
3CC
330
1F
100
AcDbEntity
  8
1-E
  6
Continuous
 62
     7
370
     9
100
AcDbPolyline
 90
        4
 70
     1
 43
3.0
 10
2982.892548548174
 20
-705.4475616530246
 42
0.4142135623731
 10
2981.392548548174
 20
-703.9475616530245
 42
0.4142135623731
 10
2979.892548548174
 20
-705.4475616530246
 42
0.4142135623731
 10
2981.392548548174
 20
-706.9475616530246
 42
0.4142135623731
  0
MTEXT
  5
3CD
330
1F
100
AcDbEntity
  8
1-E
  6
Continuous
 62
     7
370
   211
100
AcDbMText
 10
3282.293043922698
 20
-719.4686170618502
 30
0.0
 40
91.44
 41
180.0
 46
0.0
 71
     7
 72
     1
  1
{\fＭＳ ゴシック|b0|i0|c128|p49;6.3}
 73
     1
 44
1.0
  0
MTEXT
  5
3CE
330
1F
100
AcDbEntity
  8
1-E
  6
Continuous
 62
     7
370
   211
100
AcDbMText
 10
2788.738289625126
 20
-722.1761935068901
 30
0.0
 40
91.44
 41
180.0
 46
0.0
 71
     7
 72
     1
  1
{\fＭＳ ゴシック|b0|i0|c128|p49;6.3}
 73
     1
 44
1.0
  0
MTEXT
  5
3CF
330
1F
100
AcDbEntity
  8
1-E
  6
Continuous
 62
     7
370
     0
100
AcDbMText
 10
3960.805809723937
 20
-904.0525656568042
 30
0.0
 40
91.44
 41
180.0
 46
0.0
 71
     7
 72
     1
  1
{\fＭＳ ゴシック|b0|i0|c128|p49;1.2}
 11
6.123031769111886E-17
 21
1.0
 31
0.0
 73
     1
 44
1.0
  0
LINE
  5
3D0
330
1F
100
AcDbEntity
  8
1-E
  6
Continuous
 62
   120
370
     5
100
AcDbLine
 10
2954.392548548175
 20
-1032.586777783632
 30
0.0
 11
2976.892548548175
 21
-1010.086777783631
 31
0.0
  0
LINE
  5
3D1
330
1F
100
AcDbEntity
  8
1-E
  6
Continuous
 62
    92
370
    13
100
AcDbLine
 10
2976.892548548175
 20
-1012.287498605359
 30
0.0
 11
3276.892548548175
 21
-1012.287498605359
 31
0.0
  0
LINE
  5
3D2
330
1F
100
AcDbEntity
  8
1-E
  6
Continuous
 62
    92
370
    13
100
AcDbLine
 10
2976.892548548175
 20
-982.2874986053578
 30
0.0
 11
2976.892548548175
 21
-1012.287498605359
 31
0.0
  0
LINE
  5
3D3
330
1F
100
AcDbEntity
  8
1-E
  6
Continuous
 62
    92
370
    13
100
AcDbLine
 10
2976.892548548175
 20
-982.2874986053578
 30
0.0
 11
2954.392402748008
 21
-982.2874986053578
 31
0.0
  0
LINE
  5
3D4
330
1F
100
AcDbEntity
  8
1-E
  6
Continuous
 62
    92
370
    13
100
AcDbLine
 10
3276.892548548175
 20
-982.2874986053578
 30
0.0
 11
3298.919836847288
 21
-982.2874986053578
 31
0.0
  0
LINE
  5
3D5
330
1F
100
AcDbEntity
  8
1-E
  6
Continuous
 62
    92
370
    13
100
AcDbLine
 10
3276.892548548175
 20
-982.2874986053578
 30
0.0
 11
3276.892548548175
 21
-1012.287498605359
 31
0.0
  0
LINE
  5
3D6
330
1F
100
AcDbEntity
  8
1-E
  6
Continuous
 62
    92
370
    13
100
AcDbLine
 10
3298.919691047118
 20
-982.2869427796098
 30
0.0
 11
3298.919691047118
 21
-1087.287498605358
 31
0.0
  0
LINE
  5
3D7
330
1F
100
AcDbEntity
  8
1-E
  6
Continuous
 62
    92
370
    13
100
AcDbLine
 10
2954.392548548175
 20
-982.2869427796098
 30
0.0
 11
2954.392548548175
 21
-1087.287498605358
 31
0.0
  0
LINE
  5
3D8
330
1F
100
AcDbEntity
  8
1-E
  6
Continuous
 62
    92
370
    13
100
AcDbLine
 10
2954.392548548175
 20
-1087.287498605358
 30
0.0
 11
3298.919691047118
 21
-1087.287498605358
 31
0.0
  0
LINE
  5
3D9
330
1F
100
AcDbEntity
  8
1-E
  6
Continuous
 62
   120
370
     5
100
AcDbLine
 10
3281.529489567193
 20
-1087.287498605358
 30
0.0
 11
3298.919691047118
 21
-1069.897297125432
 31
0.0
  0
LINE
  5
3DA
330
1F
100
AcDbEntity
  8
1-E
  6
Continuous
 62
   120
370
     5
100
AcDbLine
 10
2963.331438033248
 20
-1087.287498605358
 30
0.0
 11
3038.331438033248
 21
-1012.287498605359
 31
0.0
  0
LINE
  5
3DB
330
1F
100
AcDbEntity
  8
1-E
  6
Continuous
 62
   120
370
     5
100
AcDbLine
 10
3154.250268953593
 20
-1087.287498605358
 30
0.0
 11
3229.250268953593
 21
-1012.287498605359
 31
0.0
  0
LINE
  5
3DC
330
1F
100
AcDbEntity
  8
1-E
  6
Continuous
 62
   120
370
     5
100
AcDbLine
 10
3090.610658646793
 20
-1087.287498605358
 30
0.0
 11
3165.6106586468
 21
-1012.287498605353
 31
0.0
  0
LINE
  5
3DD
330
1F
100
AcDbEntity
  8
1-E
  6
Continuous
 62
   120
370
     5
100
AcDbLine
 10
3026.971048339993
 20
-1087.287498605358
 30
0.0
 11
3101.971048340004
 21
-1012.287498605348
 31
0.0
  0
LINE
  5
3DE
330
1F
100
AcDbEntity
  8
1-E
  6
Continuous
 62
   120
370
     5
100
AcDbLine
 10
3217.889879260393
 20
-1087.287498605358
 30
0.0
 11
3298.919691047118
 21
-1006.257686818633
 31
0.0
  0
LINE
  5
3DF
330
1F
100
AcDbEntity
  8
1-E
  6
Continuous
 62
     7
370
     9
100
AcDbLine
 10
2999.392548548175
 20
-994.2874986053579
 30
0.0
 11
3029.392548548175
 21
-994.2874986053579
 31
0.0
  0
LINE
  5
3E0
330
1F
100
AcDbEntity
  8
1-E
  6
Continuous
 62
     7
370
     9
100
AcDbLine
 10
3044.392548548175
 20
-994.2874986053579
 30
0.0
 11
3122.392548548175
 21
-994.2874986053579
 31
0.0
  0
LINE
  5
3E1
330
1F
100
AcDbEntity
  8
1-E
  6
Continuous
 62
     7
370
     9
100
AcDbLine
 10
3122.392548548175
 20
-994.2874986053579
 30
0.0
 11
3126.892548548175
 21
-998.787498605358
 31
0.0
  0
LINE
  5
3E2
330
1F
100
AcDbEntity
  8
1-E
  6
Continuous
 62
     7
370
     9
100
AcDbLine
 10
3126.892548548175
 20
-998.787498605358
 30
0.0
 11
3131.392548548177
 21
-994.2874986053579
 31
0.0
  0
LINE
  5
3E3
330
1F
100
AcDbEntity
  8
1-E
  6
Continuous
 62
     7
370
     9
100
AcDbLine
 10
3131.392548548177
 20
-994.2874986053579
 30
0.0
 11
3209.392548548175
 21
-994.2874986053579
 31
0.0
  0
LINE
  5
3E4
330
1F
100
AcDbEntity
  8
1-E
  6
Continuous
 62
     7
370
     9
100
AcDbLine
 10
3224.392548548175
 20
-994.2874986053579
 30
0.0
 11
3254.392548548175
 21
-994.2874986053579
 31
0.0
  0
LINE
  5
3E5
330
1F
100
AcDbEntity
  8
1-E
  6
Continuous
 62
     7
370
     9
100
AcDbLine
 10
3362.392548548175
 20
-907.2874986053586
 30
0.0
 11
3272.392548548175
 21
-907.2874986053586
 31
0.0
  0
LINE
  5
3E6
330
1F
100
AcDbEntity
  8
1-E
  6
Continuous
 62
     7
370
     9
100
AcDbLine
 10
2981.392548548177
 20
-907.2874986053586
 30
0.0
 11
2891.392548548177
 21
-907.2874986053586
 31
0.0
  0
LINE
  5
3E7
330
1F
100
AcDbEntity
  8
1-E
  6
Continuous
 62
     7
370
     9
100
AcDbLine
 10
2981.392548548177
 20
-889.2874986053579
 30
0.0
 11
2891.392548548177
 21
-898.2874986053582
 31
0.0
  0
ARC
  5
3E8
330
1F
100
AcDbEntity
  8
1-E
  6
Continuous
 62
     7
370
     9
100
AcDbCircle
 10
2891.392548548177
 20
-902.7874986053585
 30
0.0
 40
4.500000000000001
100
AcDbArc
 50
90.0
 51
270.0
  0
ARC
  5
3E9
330
1F
100
AcDbEntity
  8
1-E
  6
Continuous
 62
     7
370
     9
100
AcDbCircle
 10
3362.392548548175
 20
-902.7874986053585
 30
0.0
 40
4.500000000000001
100
AcDbArc
 50
270.0
 51
89.99999999999997
  0
LINE
  5
3EA
330
1F
100
AcDbEntity
  8
1-E
  6
Continuous
 62
     7
370
     9
100
AcDbLine
 10
3362.392548548175
 20
-898.2874986053582
 30
0.0
 11
3272.392548548175
 21
-889.2874986053579
 31
0.0
  0
LINE
  5
3EB
330
1F
100
AcDbEntity
  8
1-E
  6
Continuous
 62
     7
370
     9
100
AcDbLine
 10
3035.392548548176
 20
-889.2874986053579
 30
0.0
 11
2981.392548548177
 21
-889.2874986053579
 31
0.0
  0
ARC
  5
3EC
330
1F
100
AcDbEntity
  8
1-E
  6
Continuous
 62
     7
370
     9
100
AcDbCircle
 10
3035.392548548176
 20
-898.2874986053582
 30
0.0
 40
9.000000000000002
100
AcDbArc
 50
0.0
 51
90.0
  0
ARC
  5
3ED
330
1F
100
AcDbEntity
  8
1-E
  6
Continuous
 62
     7
370
     9
100
AcDbCircle
 10
3035.392548548176
 20
-898.2874986053582
 30
0.0
 40
9.000000000000002
100
AcDbArc
 50
270.0
 51
0.0
  0
ARC
  5
3EE
330
1F
100
AcDbEntity
  8
1-E
  6
Continuous
 62
     7
370
     9
100
AcDbCircle
 10
3218.392548548173
 20
-898.2874986053582
 30
0.0
 40
9.000000000000002
100
AcDbArc
 50
180.0
 51
270.0
  0
LINE
  5
3EF
330
1F
100
AcDbEntity
  8
1-E
  6
Continuous
 62
     7
370
     9
100
AcDbLine
 10
3218.392548548173
 20
-889.2874986053579
 30
0.0
 11
3272.392548548175
 21
-889.2874986053579
 31
0.0
  0
ARC
  5
3F0
330
1F
100
AcDbEntity
  8
1-E
  6
Continuous
 62
     7
370
     9
100
AcDbCircle
 10
3218.392548548173
 20
-898.2874986053582
 30
0.0
 40
9.000000000000002
100
AcDbArc
 50
90.0
 51
180.0
  0
LINE
  5
3F1
330
1F
100
AcDbEntity
  8
1-E
  6
Continuous
 62
     7
370
     9
100
AcDbLine
 10
3272.392548548175
 20
-989.7874986053586
 30
0.0
 11
3272.392548548175
 21
-907.2874986053586
 31
0.0
  0
ARC
  5
3F2
330
1F
100
AcDbEntity
  8
1-E
  6
Continuous
 62
     7
370
     9
100
AcDbCircle
 10
3249.892548548175
 20
-989.7874986053586
 30
0.0
 40
22.5
100
AcDbArc
 50
270.0
 51
0.0
  0
LINE
  5
3F3
330
1F
100
AcDbEntity
  8
1-E
  6
Continuous
 62
     7
370
     9
100
AcDbLine
 10
2981.392548548177
 20
-989.7874986053586
 30
0.0
 11
2981.392548548177
 21
-907.2874986053586
 31
0.0
  0
LINE
  5
3F4
330
1F
100
AcDbEntity
  8
1-E
  6
Continuous
 62
     7
370
     9
100
AcDbLine
 10
3003.892548548177
 20
-1012.287498605359
 30
0.0
 11
3249.892548548175
 21
-1012.287498605359
 31
0.0
  0
ARC
  5
3F5
330
1F
100
AcDbEntity
  8
1-E
  6
Continuous
 62
     7
370
     9
100
AcDbCircle
 10
3003.892548548177
 20
-989.7874986053586
 30
0.0
 40
22.5
100
AcDbArc
 50
180.0
 51
270.0
  0
LINE
  5
3F6
330
1F
100
AcDbEntity
  8
1-E
  6
Continuous
 62
     7
370
     9
100
AcDbLine
 10
3006.892548548175
 20
-907.2874986053586
 30
0.0
 11
3035.392548548176
 21
-907.2874986053586
 31
0.0
  0
LINE
  5
3F7
330
1F
100
AcDbEntity
  8
1-E
  6
Continuous
 62
     7
370
     9
100
AcDbLine
 10
2999.392548548175
 20
-914.7874986053586
 30
0.0
 11
2999.392548548175
 21
-994.2874986053579
 31
0.0
  0
ARC
  5
3F8
330
1F
100
AcDbEntity
  8
1-E
  6
Continuous
 62
     7
370
     9
100
AcDbCircle
 10
3006.892548548175
 20
-914.7874986053586
 30
0.0
 40
7.5
100
AcDbArc
 50
90.0
 51
180.0
  0
LINE
  5
3F9
330
1F
100
AcDbEntity
  8
1-E
  6
Continuous
 62
     7
370
     9
100
AcDbLine
 10
3246.892548548175
 20
-907.2874986053586
 30
0.0
 11
3218.392548548173
 21
-907.2874986053586
 31
0.0
  0
LINE
  5
3FA
330
1F
100
AcDbEntity
  8
1-E
  6
Continuous
 62
     7
370
     9
100
AcDbLine
 10
3254.392548548175
 20
-914.7874986053586
 30
0.0
 11
3254.392548548175
 21
-994.2874986053579
 31
0.0
  0
ARC
  5
3FB
330
1F
100
AcDbEntity
  8
1-E
  6
Continuous
 62
     7
370
     9
100
AcDbCircle
 10
3246.892548548175
 20
-914.7874986053586
 30
0.0
 40
7.5
100
AcDbArc
 50
0.0
 51
90.0
  0
LINE
  5
3FC
330
1F
100
AcDbEntity
  8
1-E
  6
Continuous
 62
     7
370
     9
100
AcDbLine
 10
3029.392548548175
 20
-982.2874986053586
 30
0.0
 11
3029.392548548175
 21
-994.2874986053579
 31
0.0
  0
ARC
  5
3FD
330
1F
100
AcDbEntity
  8
1-E
  6
Continuous
 62
     7
370
     9
100
AcDbCircle
 10
3032.392548548175
 20
-982.2874986053586
 30
0.0
 40
3.0
100
AcDbArc
 50
90.0
 51
180.0
  0
LINE
  5
3FE
330
1F
100
AcDbEntity
  8
1-E
  6
Continuous
 62
     7
370
     9
100
AcDbLine
 10
3041.392548548177
 20
-979.2874986053579
 30
0.0
 11
3032.392548548175
 21
-979.2874986053579
 31
0.0
  0
LINE
  5
3FF
330
1F
100
AcDbEntity
  8
1-E
  6
Continuous
 62
     7
370
     9
100
AcDbLine
 10
3044.392548548175
 20
-982.2874986053586
 30
0.0
 11
3044.392548548175
 21
-994.2874986053579
 31
0.0
  0
ARC
  5
400
330
1F
100
AcDbEntity
  8
1-E
  6
Continuous
 62
     7
370
     9
100
AcDbCircle
 10
3041.392548548177
 20
-982.2874986053586
 30
0.0
 40
3.0
100
AcDbArc
 50
0.0
 51
90.0
  0
LINE
  5
401
330
1F
100
AcDbEntity
  8
1-E
  6
Continuous
 62
     7
370
     9
100
AcDbLine
 10
3209.392548548175
 20
-982.2874986053586
 30
0.0
 11
3209.392548548175
 21
-994.2874986053579
 31
0.0
  0
ARC
  5
402
330
1F
100
AcDbEntity
  8
1-E
  6
Continuous
 62
     7
370
     9
100
AcDbCircle
 10
3212.392548548175
 20
-982.2874986053586
 30
0.0
 40
3.0
100
AcDbArc
 50
90.0
 51
180.0
  0
LINE
  5
403
330
1F
100
AcDbEntity
  8
1-E
  6
Continuous
 62
     7
370
     9
100
AcDbLine
 10
3221.392548548177
 20
-979.2874986053579
 30
0.0
 11
3212.392548548175
 21
-979.2874986053579
 31
0.0
  0
LINE
  5
404
330
1F
100
AcDbEntity
  8
1-E
  6
Continuous
 62
     7
370
     9
100
AcDbLine
 10
3224.392548548175
 20
-982.2874986053586
 30
0.0
 11
3224.392548548175
 21
-994.2874986053579
 31
0.0
  0
ARC
  5
405
330
1F
100
AcDbEntity
  8
1-E
  6
Continuous
 62
     7
370
     9
100
AcDbCircle
 10
3221.392548548177
 20
-982.2874986053586
 30
0.0
 40
3.0
100
AcDbArc
 50
0.0
 51
90.0
  0
ARC
  5
406
330
1F
100
AcDbEntity
  8
1-E
  6
JWW_DASHED1
 62
     7
370
     9
100
AcDbCircle
 10
2891.392548548177
 20
-902.7874986053585
 30
0.0
 40
4.500000000000001
100
AcDbArc
 50
270.0
 51
90.0
  0
ARC
  5
407
330
1F
100
AcDbEntity
  8
1-E
  6
JWW_DASHED1
 62
     7
370
     9
100
AcDbCircle
 10
3362.392548548175
 20
-902.7874986053585
 30
0.0
 40
4.500000000000001
100
AcDbArc
 50
90.0
 51
270.0
  0
LINE
  5
408
330
1F
100
AcDbEntity
  8
1-E
  6
Continuous
 62
    40
370
    15
100
AcDbLine
 10
3314.392548548175
 20
-907.2874986053586
 30
0.0
 11
3314.392548548175
 21
-1087.287498605358
 31
0.0
  0
LINE
  5
409
330
1F
100
AcDbEntity
  8
1-E
  6
Continuous
 62
    40
370
    15
100
AcDbLine
 10
2939.392548548175
 20
-907.2874986053586
 30
0.0
 11
2939.392548548175
 21
-1087.287498605358
 31
0.0
  0
LINE
  5
40A
330
1F
100
AcDbEntity
  8
1-E
  6
Continuous
 62
     7
370
     9
100
AcDbLine
 10
3354.17290389085
 20
-1198.504999416771
 30
0.0
 11
3420.725528367811
 21
-1198.504999416771
 31
0.0
  0
MTEXT
  5
40B
330
1F
100
AcDbEntity
  8
1-E
  6
Continuous
 62
     7
370
     0
100
AcDbMText
 10
3407.7841343948
 20
-1273.126018199574
 30
0.0
 40
91.44
 41
600.0
 46
0.0
 71
     7
 72
     1
  1
{\fＭＳ ゴシック|b0|i0|c128|p49;下地ベース}
 73
     1
 44
1.0
  0
LINE
  5
40C
330
1F
100
AcDbEntity
  8
1-E
  6
JWW_HOJO
 62
   120
370
     5
100
AcDbLine
 10
2586.892548548175
 20
-1266.775523003595
 30
0.0
 11
3666.892548548172
 21
-1266.775523003595
 31
0.0
  0
LINE
  5
40D
330
1F
100
AcDbEntity
  8
1-E
  6
JWW_HOJO
 62
   120
370
     5
100
AcDbLine
 10
2586.892548548175
 20
-465.4475616530246
 30
0.0
 11
2586.892548548175
 21
-1266.775523003595
 31
0.0
  0
LINE
  5
40E
330
1F
100
AcDbEntity
  8
1-E
  6
JWW_HOJO
 62
   120
370
     5
100
AcDbLine
 10
2886.892548548175
 20
-705.4475616530246
 30
0.0
 11
3366.892548548175
 21
-705.4475616530246
 31
0.0
  0
LINE
  5
40F
330
1F
100
AcDbEntity
  8
1-E
  6
JWW_HOJO
 62
   120
370
     5
100
AcDbLine
 10
2886.892548548175
 20
-585.4475616530246
 30
0.0
 11
3366.892548548175
 21
-585.4475616530246
 31
0.0
  0
LINE
  5
410
330
1F
100
AcDbEntity
  8
1-E
  6
JWW_HOJO
 62
   120
370
     5
100
AcDbLine
 10
2586.892548548175
 20
-465.4475616530246
 30
0.0
 11
3666.892548548172
 21
-465.4475616530246
 31
0.0
  0
LINE
  5
411
330
1F
100
AcDbEntity
  8
1-E
  6
JWW_HOJO
 62
   120
370
     5
100
AcDbLine
 10
3666.892548548172
 20
-465.4475616530246
 30
0.0
 11
3666.892548548172
 21
-1266.775523003595
 31
0.0
  0
LINE
  5
412
330
1F
100
AcDbEntity
  8
1-E
  6
JWW_HOJO
 62
   120
370
     5
100
AcDbLine
 10
3126.892548548175
 20
-892.7984910180317
 30
0.0
 11
3126.892548548175
 21
-1047.006274201672
 31
0.0
  0
LINE
  5
413
330
1F
100
AcDbEntity
  8
1-E
  6
Continuous
 62
   120
370
     5
100
AcDbLine
 10
2954.392548548175
 20
-3006.272313713113
 30
0.0
 11
2976.892548548175
 21
-2983.772313713112
 31
0.0
  0
LINE
  5
414
330
1F
100
AcDbEntity
  8
1-E
  6
Continuous
 62
    92
370
    13
100
AcDbLine
 10
2976.892548548175
 20
-2985.97303453484
 30
0.0
 11
3276.892548548175
 21
-2985.97303453484
 31
0.0
  0
LINE
  5
415
330
1F
100
AcDbEntity
  8
1-E
  6
Continuous
 62
    92
370
    13
100
AcDbLine
 10
2976.892548548175
 20
-2955.973034534839
 30
0.0
 11
2976.892548548175
 21
-2985.97303453484
 31
0.0
  0
LINE
  5
416
330
1F
100
AcDbEntity
  8
1-E
  6
Continuous
 62
    92
370
    13
100
AcDbLine
 10
2976.892548548175
 20
-2955.973034534839
 30
0.0
 11
2954.392402748008
 21
-2955.973034534839
 31
0.0
  0
LINE
  5
417
330
1F
100
AcDbEntity
  8
1-E
  6
Continuous
 62
    92
370
    13
100
AcDbLine
 10
3276.892548548175
 20
-2955.973034534839
 30
0.0
 11
3298.919836847288
 21
-2955.973034534839
 31
0.0
  0
LINE
  5
418
330
1F
100
AcDbEntity
  8
1-E
  6
Continuous
 62
    92
370
    13
100
AcDbLine
 10
3276.892548548175
 20
-2955.973034534839
 30
0.0
 11
3276.892548548175
 21
-2985.97303453484
 31
0.0
  0
LINE
  5
419
330
1F
100
AcDbEntity
  8
1-E
  6
Continuous
 62
    92
370
    13
100
AcDbLine
 10
3298.919691047118
 20
-2955.972478709091
 30
0.0
 11
3298.919691047118
 21
-3060.97303453484
 31
0.0
  0
LINE
  5
41A
330
1F
100
AcDbEntity
  8
1-E
  6
Continuous
 62
    92
370
    13
100
AcDbLine
 10
2954.392548548175
 20
-2955.972478709091
 30
0.0
 11
2954.392548548175
 21
-3060.97303453484
 31
0.0
  0
LINE
  5
41B
330
1F
100
AcDbEntity
  8
1-E
  6
Continuous
 62
    92
370
    13
100
AcDbLine
 10
2954.392548548175
 20
-3060.97303453484
 30
0.0
 11
3298.919691047118
 21
-3060.97303453484
 31
0.0
  0
LINE
  5
41C
330
1F
100
AcDbEntity
  8
1-E
  6
Continuous
 62
   120
370
     5
100
AcDbLine
 10
3281.529489567193
 20
-3060.97303453484
 30
0.0
 11
3298.919691047118
 21
-3043.582833054913
 31
0.0
  0
LINE
  5
41D
330
1F
100
AcDbEntity
  8
1-E
  6
Continuous
 62
   120
370
     5
100
AcDbLine
 10
2963.331438033248
 20
-3060.97303453484
 30
0.0
 11
3038.331438033248
 21
-2985.97303453484
 31
0.0
  0
LINE
  5
41E
330
1F
100
AcDbEntity
  8
1-E
  6
Continuous
 62
   120
370
     5
100
AcDbLine
 10
3154.250268953593
 20
-3060.97303453484
 30
0.0
 11
3229.250268953593
 21
-2985.97303453484
 31
0.0
  0
LINE
  5
41F
330
1F
100
AcDbEntity
  8
1-E
  6
Continuous
 62
   120
370
     5
100
AcDbLine
 10
3090.610658646793
 20
-3060.97303453484
 30
0.0
 11
3165.6106586468
 21
-2985.973034534834
 31
0.0
  0
LINE
  5
420
330
1F
100
AcDbEntity
  8
1-E
  6
Continuous
 62
   120
370
     5
100
AcDbLine
 10
3026.971048339993
 20
-3060.97303453484
 30
0.0
 11
3101.971048340004
 21
-2985.97303453483
 31
0.0
  0
LINE
  5
421
330
1F
100
AcDbEntity
  8
1-E
  6
Continuous
 62
   120
370
     5
100
AcDbLine
 10
3217.889879260393
 20
-3060.97303453484
 30
0.0
 11
3298.919691047118
 21
-2979.943222748114
 31
0.0
  0
LINE
  5
422
330
1F
100
AcDbEntity
  8
0-A_文字
  6
Continuous
 62
    92
370
    13
100
AcDbLine
 10
-5659.999495325861
 20
3730.000181455872
 30
0.0
 11
-5659.999495325861
 21
4000.000181455872
 31
0.0
  0
LINE
  5
423
330
1F
100
AcDbEntity
  8
0-A_文字
  6
Continuous
 62
    92
370
    13
100
AcDbLine
 10
-2235.714285714282
 20
3730.000181455872
 30
0.0
 11
-2235.714285714282
 21
4000.000181455872
 31
0.0
  0
LINE
  5
424
330
1F
100
AcDbEntity
  8
0-A_文字
  6
Continuous
 62
    92
370
    13
100
AcDbLine
 10
-5659.999495325861
 20
4000.000181455872
 30
0.0
 11
-2235.714285714282
 21
4000.000181455872
 31
0.0
  0
LINE
  5
425
330
1F
100
AcDbEntity
  8
0-A_文字
  6
Continuous
 62
    92
370
    13
100
AcDbLine
 10
-5659.999495325861
 20
3730.000181455872
 30
0.0
 11
-2235.714285714282
 21
3730.000181455872
 31
0.0
  0
MTEXT
  5
426
330
1F
100
AcDbEntity
  8
0-A_文字
  6
Continuous
 62
    92
370
    13
100
AcDbMText
 10
-5592.499495325861
 20
3758.959004985284
 30
0.0
 40
147.9176470588235
 41
3300.0
 46
0.0
 71
     7
 72
     1
  1
{\fＭＳ ゴシック|b0|i0|c128|p49;クローゼットドア　調整枠　間口３尺}
 73
     1
 44
1.0
  0
MTEXT
  5
427
330
1F
100
AcDbEntity
  8
F-A_文字
  6
Continuous
 62
     7
370
     0
100
AcDbMText
 10
-5080.081323642279
 20
-4045.064631200342
 30
0.0
 40
79.87060975609751
 41
4297.5
 46
0.0
 71
     7
 72
     1
  1
{\fＭＳ ゴシック|b0|i0|c128|p49;ピノアース　クローゼットドア  調整枠　３方枠＋埋め込みレール　枠外H2,047　枠外W734}
 73
     1
 44
1.0
  0
LINE
  5
428
330
1F
100
AcDbEntity
  8
F-0_補助線
  6
JWW_HOJO
 62
     7
370
     9
100
AcDbLine
 10
1349.918584083287
 20
-3795.000003092998
 30
0.0
 11
1349.918584083287
 21
-4195.000008247994
 31
0.0
  0
LINE
  5
429
330
1F
100
AcDbEntity
  8
F-0_補助線
  6
JWW_HOJO
 62
     7
370
     9
100
AcDbLine
 10
4889.917891251784
 20
-3795.000003092998
 30
0.0
 11
4889.917891251784
 21
-4195.000008247994
 31
0.0
  0
MTEXT
  5
42A
330
1F
100
AcDbEntity
  8
F-A_文字
  6
Continuous
 62
     7
370
     0
100
AcDbMText
 10
4889.917891251784
 20
-3945.570773120548
 30
0.0
 40
78.86699999999999
 41
517.5
 46
0.0
 71
     7
 72
     1
  1
{\fＭＳ ゴシック|b0|i0|c128|p49;2021.04.01}
 73
     1
 44
1.0
  0
MTEXT
  5
42B
330
1F
100
AcDbEntity
  8
F-A_文字
  6
Continuous
 62
     7
370
     0
100
AcDbMText
 10
1349.918584083287
 20
-3945.948482732445
 30
0.0
 40
78.105
 41
615.0
 46
0.0
 71
     7
 72
     1
  1
{\fＭＳ ゴシック|b0|i0|c128|p49;建具納まり図}
 73
     1
 44
1.0
  0
MTEXT
  5
42C
330
1F
100
AcDbEntity
  8
F-A_文字
  6
Continuous
 62
     7
370
     0
100
AcDbMText
 10
509.9185840832865
 20
-3956.425201962234
 30
0.0
 40
57.15
 41
675.0
 46
0.0
 71
     7
 72
     1
  1
{\fＭＳ ゴシック|b0|i0|c128|p49;ＰＩＮＯＥＡＲＴＨ}
 73
     1
 44
1.0
  0
MTEXT
  5
42D
330
1F
100
AcDbEntity
  8
F-A_文字
  6
Continuous
 62
     7
370
     9
100
AcDbMText
 10
5096.167700144058
 20
-4147.857012699985
 30
0.0
 40
74.295
 41
97.5
 46
0.0
 71
     7
 72
     1
  1
{\fＭＳ ゴシック|b0|i0|c128|p49;01}
 73
     1
 44
1.0
  0
ENDSEC
  0
SECTION
  2
OBJECTS
  0
DICTIONARY
  5
C
330
0
100
AcDbDictionary
281
     1
  3
ACAD_GROUP
350
D
  3
ACAD_LAYOUT
350
1A
  3
ACAD_MATERIAL
350
3B
  3
ACAD_MLEADERSTYLE
350
456
  3
ACAD_MLINESTYLE
350
17
  3
ACAD_PLOTSETTINGS
350
19
  3
ACAD_PLOTSTYLENAME
350
E
  3
ACAD_TABLESTYLE
350
455
  3
ACAD_VISUALSTYLE
350
2A
  0
DICTIONARY
  5
D
102
{ACAD_REACTORS
330
C
102
}
330
C
100
AcDbDictionary
281
     1
  0
DICTIONARY
  5
1A
102
{ACAD_REACTORS
330
C
102
}
330
C
100
AcDbDictionary
281
     1
  3
Layout1
350
1E
  3
Layout2
350
26
  3
Model
350
22
  0
DICTIONARY
  5
3B
102
{ACAD_REACTORS
330
C
102
}
330
C
100
AcDbDictionary
281
     1
  3
ByBlock
350
3D
  3
ByLayer
350
3C
  3
Global
350
3E
  0
DICTIONARY
  5
456
102
{ACAD_REACTORS
330
C
102
}
330
C
100
AcDbDictionary
281
     1
  0
DICTIONARY
  5
17
102
{ACAD_REACTORS
330
C
102
}
330
C
100
AcDbDictionary
281
     1
  3
Standard
350
18
  0
DICTIONARY
  5
19
102
{ACAD_REACTORS
330
C
102
}
330
C
100
AcDbDictionary
281
     1
  0
ACDBDICTIONARYWDFLT
  5
E
102
{ACAD_REACTORS
330
C
102
}
330
C
100
AcDbDictionary
281
     1
  3
Normal
350
F
100
AcDbDictionaryWithDefault
340
F
  0
DICTIONARY
  5
455
102
{ACAD_REACTORS
330
C
102
}
330
C
100
AcDbDictionary
281
     1
  0
DICTIONARY
  5
2A
102
{ACAD_REACTORS
330
C
102
}
330
C
100
AcDbDictionary
281
     1
  3
2dWireframe
350
2F
  3
3D Hidden
350
31
  3
3dWireframe
350
30
  3
Basic
350
32
  3
Brighten
350
36
  3
ColorChange
350
3A
  3
Conceptual
350
34
  3
Dim
350
35
  3
Facepattern
350
39
  3
Flat
350
2B
  3
FlatWithEdges
350
2C
  3
Gouraud
350
2D
  3
GouraudWithEdges
350
2E
  3
Linepattern
350
38
  3
Realistic
350
33
  3
Thicken
350
37
  0
LAYOUT
  5
1E
102
{ACAD_REACTORS
330
1A
102
}
330
1A
100
AcDbPlotSettings
  1

  2
none_device
  4

  6

 40
0.0
 41
0.0
 42
0.0
 43
0.0
 44
0.0
 45
0.0
 46
0.0
 47
0.0
 48
0.0
 49
0.0
140
0.0
141
0.0
142
1.0
143
1.0
 70
   688
 72
     0
 73
     0
 74
     5
  7

 75
    16
 76
     0
 77
     5
 78
   300
147
1.0
148
0.0
149
0.0
100
AcDbLayout
  1
Layout1
 70
     1
 71
     1
 10
0.0
 20
0.0
 11
420.0
 21
297.0
 12
0.0
 22
0.0
 32
0.0
 14
1.000000000000000E+20
 24
1.000000000000000E+20
 34
1.000000000000000E+20
 15
-1.000000000000000E+20
 25
-1.000000000000000E+20
 35
-1.000000000000000E+20
146
0.0
 13
0.0
 23
0.0
 33
0.0
 16
1.0
 26
0.0
 36
0.0
 17
0.0
 27
1.0
 37
0.0
 76
     0
330
1B
  0
LAYOUT
  5
26
102
{ACAD_REACTORS
330
1A
102
}
330
1A
100
AcDbPlotSettings
  1

  2
none_device
  4

  6

 40
0.0
 41
0.0
 42
0.0
 43
0.0
 44
0.0
 45
0.0
 46
0.0
 47
0.0
 48
0.0
 49
0.0
140
0.0
141
0.0
142
1.0
143
1.0
 70
   688
 72
     0
 73
     0
 74
     5
  7

 75
    16
 76
     0
 77
     5
 78
   300
147
1.0
148
0.0
149
0.0
100
AcDbLayout
  1
Layout2
 70
     1
 71
     2
 10
0.0
 20
0.0
 11
0.0
 21
0.0
 12
0.0
 22
0.0
 32
0.0
 14
0.0
 24
0.0
 34
0.0
 15
0.0
 25
0.0
 35
0.0
146
0.0
 13
0.0
 23
0.0
 33
0.0
 16
1.0
 26
0.0
 36
0.0
 17
0.0
 27
1.0
 37
0.0
 76
     0
330
23
  0
LAYOUT
  5
22
102
{ACAD_REACTORS
330
1A
102
}
330
1A
100
AcDbPlotSettings
  1

  2
none_device
  4

  6

 40
0.0
 41
0.0
 42
0.0
 43
0.0
 44
0.0
 45
0.0
 46
0.0
 47
0.0
 48
0.0
 49
0.0
140
0.0
141
0.0
142
1.0
143
1.0
 70
  1712
 72
     0
 73
     0
 74
     0
  7

 75
     0
 76
     0
 77
     5
 78
   300
147
1.0
148
0.0
149
0.0
100
AcDbLayout
  1
Model
 70
     1
 71
     0
 10
-6300.0
 20
-4455.0
 11
6300.0
 21
4455.0
 12
0.0
 22
0.0
 32
0.0
 14
-6300.0
 24
-4455.0
 34
0.0
 15
6300.0
 25
4455.0
 35
0.0
146
0.0
 13
0.0
 23
0.0
 33
0.0
 16
1.0
 26
0.0
 36
0.0
 17
0.0
 27
1.0
 37
0.0
 76
     0
330
1F
331
29
  0
MATERIAL
  5
3D
102
{ACAD_REACTORS
330
3B
102
}
330
3B
100
AcDbMaterial
  1
ByBlock
 72
     1
 94
      127
  0
MATERIAL
  5
3C
102
{ACAD_REACTORS
330
3B
102
}
330
3B
100
AcDbMaterial
  1
ByLayer
 72
     1
 94
      127
  0
MATERIAL
  5
3E
102
{ACAD_REACTORS
330
3B
102
}
330
3B
100
AcDbMaterial
  1
Global
 72
     1
 94
      127
  0
MLINESTYLE
  5
18
102
{ACAD_REACTORS
330
17
102
}
330
17
100
AcDbMlineStyle
  2
Standard
 70
     0
  3

 62
   256
 51
90.0
 52
90.0
 71
     2
 49
0.5
 62
   256
  6
BYLAYER
 49
-0.5
 62
   256
  6
BYLAYER
  0
ACDBPLACEHOLDER
  5
F
102
{ACAD_REACTORS
330
E
102
}
330
E
  0
VISUALSTYLE
  5
2F
102
{ACAD_REACTORS
330
2A
102
}
330
2A
100
AcDbVisualStyle
  2
2dWireframe
 70
     4
177
     2
291
     0
 71
     0
176
     1
 72
     2
176
     1
 73
     0
176
     1
 90
        0
176
     1
 40
-0.6
176
     1
 41
-30.0
176
     1
 62
     5
 63
     7
421
 16777215
176
     1
 74
     1
176
     1
 91
        4
176
     1
 64
     7
176
     1
 65
   257
176
     1
 75
     1
176
     1
175
     1
176
     1
 42
1.0
176
     1
 92
        0
176
     1
 66
   257
176
     1
 43
1.0
176
     1
 76
     1
176
     1
 77
     6
176
     1
 78
     2
176
     1
 67
     7
176
     1
 79
     5
176
     1
170
     0
176
     1
171
     0
176
     1
290
     0
176
     1
 93
        1
176
     1
 44
0.0
176
     1
173
     0
176
     1
  0
VISUALSTYLE
  5
31
102
{ACAD_REACTORS
330
2A
102
}
330
2A
100
AcDbVisualStyle
  2
3D Hidden
 70
     6
177
     2
291
     0
 71
     1
176
     1
 72
     2
176
     1
 73
     2
176
     1
 90
        0
176
     1
 40
-0.6
176
     1
 41
-30.0
176
     1
 62
     5
 63
     7
421
 16777215
176
     1
 74
     2
176
     1
 91
        2
176
     1
 64
     7
176
     1
 65
   257
176
     1
 75
     2
176
     1
175
     1
176
     1
 42
40.0
176
     1
 92
        0
176
     1
 66
   257
176
     1
 43
1.0
176
     1
 76
     1
176
     1
 77
     6
176
     1
 78
     2
176
     1
 67
     7
176
     1
 79
     3
176
     1
170
     0
176
     1
171
     0
176
     1
290
     0
176
     1
 93
        1
176
     1
 44
0.0
176
     1
173
     0
176
     1
  0
VISUALSTYLE
  5
30
102
{ACAD_REACTORS
330
2A
102
}
330
2A
100
AcDbVisualStyle
  2
3dWireframe
 70
     5
177
     2
291
     0
 71
     0
176
     1
 72
     2
176
     1
 73
     0
176
     1
 90
        0
176
     1
 40
-0.6
176
     1
 41
-30.0
176
     1
 62
     5
 63
     7
421
 16777215
176
     1
 74
     1
176
     1
 91
        4
176
     1
 64
     7
176
     1
 65
   257
176
     1
 75
     1
176
     1
175
     1
176
     1
 42
1.0
176
     1
 92
        0
176
     1
 66
   257
176
     1
 43
1.0
176
     1
 76
     1
176
     1
 77
     6
176
     1
 78
     2
176
     1
 67
     7
176
     1
 79
     5
176
     1
170
     0
176
     1
171
     0
176
     1
290
     0
176
     1
 93
        1
176
     1
 44
0.0
176
     1
173
     0
176
     1
  0
VISUALSTYLE
  5
32
102
{ACAD_REACTORS
330
2A
102
}
330
2A
100
AcDbVisualStyle
  2
Basic
 70
     7
177
     2
291
     1
 71
     1
176
     1
 72
     0
176
     1
 73
     1
176
     1
 90
        0
176
     1
 40
-0.6
176
     1
 41
-30.0
176
     1
 62
     5
 63
     7
421
 16777215
176
     1
 74
     0
176
     1
 91
        4
176
     1
 64
     7
176
     1
 65
   257
176
     1
 75
     1
176
     1
175
     1
176
     1
 42
1.0
176
     1
 92
        8
176
     1
 66
     7
176
     1
 43
1.0
176
     1
 76
     1
176
     1
 77
     6
176
     1
 78
     2
176
     1
 67
     7
176
     1
 79
     5
176
     1
170
     0
176
     1
171
     0
176
     1
290
     0
176
     1
 93
        1
176
     1
 44
0.0
176
     1
173
     0
176
     1
  0
VISUALSTYLE
  5
36
102
{ACAD_REACTORS
330
2A
102
}
330
2A
100
AcDbVisualStyle
  2
Brighten
 70
    12
177
     2
291
     1
 71
     2
176
     1
 72
     2
176
     1
 73
     0
176
     1
 90
        0
176
     1
 40
-0.6
176
     1
 41
-30.0
176
     1
 62
     5
 63
     7
421
 16777215
176
     1
 74
     1
176
     1
 91
        4
176
     1
 64
     7
176
     1
 65
   257
176
     1
 75
     1
176
     1
175
     1
176
     1
 42
1.0
176
     1
 92
        8
176
     1
 66
     7
176
     1
 43
1.0
176
     1
 76
     1
176
     1
 77
     6
176
     1
 78
     2
176
     1
 67
     7
176
     1
 79
     5
176
     1
170
     0
176
     1
171
     0
176
     1
290
     0
176
     1
 93
        1
176
     1
 44
50.0
176
     1
173
     0
176
     1
  0
VISUALSTYLE
  5
3A
102
{ACAD_REACTORS
330
2A
102
}
330
2A
100
AcDbVisualStyle
  2
ColorChange
 70
    16
177
     2
291
     1
 71
     2
176
     1
 72
     2
176
     1
 73
     3
176
     1
 90
        0
176
     1
 40
-0.6
176
     1
 41
-30.0
176
     1
 62
     5
 63
     8
421
  8421504
176
     1
 74
     1
176
     1
 91
        4
176
     1
 64
     7
176
     1
 65
   257
176
     1
 75
     1
176
     1
175
     1
176
     1
 42
1.0
176
     1
 92
        8
176
     1
 66
     8
424
  8421504
176
     1
 43
1.0
176
     1
 76
     1
176
     1
 77
     6
176
     1
 78
     2
176
     1
 67
     7
176
     1
 79
     5
176
     1
170
     0
176
     1
171
     0
176
     1
290
     0
176
     1
 93
        1
176
     1
 44
0.0
176
     1
173
     0
176
     1
  0
VISUALSTYLE
  5
34
102
{ACAD_REACTORS
330
2A
102
}
330
2A
100
AcDbVisualStyle
  2
Conceptual
 70
     9
177
     2
291
     0
 71
     3
176
     1
 72
     2
176
     1
 73
     0
176
     1
 90
        0
176
     1
 40
-0.6
176
     1
 41
-30.0
176
     1
 62
     5
 63
     7
421
 16777215
176
     1
 74
     2
176
     1
 91
        2
176
     1
 64
     7
176
     1
 65
   257
176
     1
 75
     1
176
     1
175
     1
176
     1
 42
40.0
176
     1
 92
        8
176
     1
 66
     7
176
     1
 43
1.0
176
     1
 76
     1
176
     1
 77
     6
176
     1
 78
     2
176
     1
 67
     7
176
     1
 79
     3
176
     1
170
     0
176
     1
171
     0
176
     1
290
     0
176
     1
 93
        1
176
     1
 44
0.0
176
     1
173
     0
176
     1
  0
VISUALSTYLE
  5
35
102
{ACAD_REACTORS
330
2A
102
}
330
2A
100
AcDbVisualStyle
  2
Dim
 70
    11
177
     2
291
     1
 71
     2
176
     1
 72
     2
176
     1
 73
     0
176
     1
 90
        0
176
     1
 40
-0.6
176
     1
 41
-30.0
176
     1
 62
     5
 63
     7
421
 16777215
176
     1
 74
     1
176
     1
 91
        4
176
     1
 64
     7
176
     1
 65
   257
176
     1
 75
     1
176
     1
175
     1
176
     1
 42
1.0
176
     1
 92
        8
176
     1
 66
     7
176
     1
 43
1.0
176
     1
 76
     1
176
     1
 77
     6
176
     1
 78
     2
176
     1
 67
     7
176
     1
 79
     5
176
     1
170
     0
176
     1
171
     0
176
     1
290
     0
176
     1
 93
        1
176
     1
 44
-50.0
176
     1
173
     0
176
     1
  0
VISUALSTYLE
  5
39
102
{ACAD_REACTORS
330
2A
102
}
330
2A
100
AcDbVisualStyle
  2
Facepattern
 70
    15
177
     2
291
     1
 71
     2
176
     1
 72
     2
176
     1
 73
     0
176
     1
 90
        0
176
     1
 40
-0.6
176
     1
 41
-30.0
176
     1
 62
     5
 63
     7
421
 16777215
176
     1
 74
     1
176
     1
 91
        4
176
     1
 64
     7
176
     1
 65
   257
176
     1
 75
     1
176
     1
175
     1
176
     1
 42
1.0
176
     1
 92
        8
176
     1
 66
     7
176
     1
 43
1.0
176
     1
 76
     1
176
     1
 77
     6
176
     1
 78
     2
176
     1
 67
     7
176
     1
 79
     5
176
     1
170
     0
176
     1
171
     0
176
     1
290
     0
176
     1
 93
        1
176
     1
 44
0.0
176
     1
173
     0
176
     1
  0
VISUALSTYLE
  5
2B
102
{ACAD_REACTORS
330
2A
102
}
330
2A
100
AcDbVisualStyle
  2
Flat
 70
     0
177
     2
291
     1
 71
     2
176
     1
 72
     1
176
     1
 73
     1
176
     1
 90
        2
176
     1
 40
-0.6
176
     1
 41
30.0
176
     1
 62
     5
 63
     7
421
 16777215
176
     1
 74
     0
176
     1
 91
        4
176
     1
 64
     7
176
     1
 65
   257
176
     1
 75
     1
176
     1
175
     1
176
     1
 42
1.0
176
     1
 92
        8
176
     1
 66
     7
176
     1
 43
1.0
176
     1
 76
     1
176
     1
 77
     6
176
     1
 78
     2
176
     1
 67
     7
176
     1
 79
     5
176
     1
170
     0
176
     1
171
     0
176
     1
290
     0
176
     1
 93
       13
176
     1
 44
0.0
176
     1
173
     0
176
     1
  0
VISUALSTYLE
  5
2C
102
{ACAD_REACTORS
330
2A
102
}
330
2A
100
AcDbVisualStyle
  2
FlatWithEdges
 70
     1
177
     2
291
     1
 71
     2
176
     1
 72
     1
176
     1
 73
     1
176
     1
 90
        2
176
     1
 40
-0.6
176
     1
 41
30.0
176
     1
 62
     5
 63
     7
421
 16777215
176
     1
 74
     1
176
     1
 91
        4
176
     1
 64
     7
176
     1
 65
   257
176
     1
 75
     1
176
     1
175
     1
176
     1
 42
1.0
176
     1
 92
        0
176
     1
 66
   257
176
     1
 43
1.0
176
     1
 76
     1
176
     1
 77
     6
176
     1
 78
     2
176
     1
 67
     7
176
     1
 79
     5
176
     1
170
     0
176
     1
171
     0
176
     1
290
     0
176
     1
 93
       13
176
     1
 44
0.0
176
     1
173
     0
176
     1
  0
VISUALSTYLE
  5
2D
102
{ACAD_REACTORS
330
2A
102
}
330
2A
100
AcDbVisualStyle
  2
Gouraud
 70
     2
177
     2
291
     1
 71
     2
176
     1
 72
     2
176
     1
 73
     1
176
     1
 90
        2
176
     1
 40
-0.6
176
     1
 41
30.0
176
     1
 62
     5
 63
     7
421
 16777215
176
     1
 74
     0
176
     1
 91
        4
176
     1
 64
     7
176
     1
 65
   257
176
     1
 75
     1
176
     1
175
     1
176
     1
 42
1.0
176
     1
 92
        0
176
     1
 66
     7
176
     1
 43
1.0
176
     1
 76
     1
176
     1
 77
     6
176
     1
 78
     2
176
     1
 67
     7
176
     1
 79
     5
176
     1
170
     0
176
     1
171
     0
176
     1
290
     0
176
     1
 93
       13
176
     1
 44
0.0
176
     1
173
     0
176
     1
  0
VISUALSTYLE
  5
2E
102
{ACAD_REACTORS
330
2A
102
}
330
2A
100
AcDbVisualStyle
  2
GouraudWithEdges
 70
     3
177
     2
291
     1
 71
     2
176
     1
 72
     2
176
     1
 73
     1
176
     1
 90
        2
176
     1
 40
-0.6
176
     1
 41
30.0
176
     1
 62
     5
 63
     7
421
 16777215
176
     1
 74
     1
176
     1
 91
        4
176
     1
 64
     7
176
     1
 65
   257
176
     1
 75
     1
176
     1
175
     1
176
     1
 42
1.0
176
     1
 92
        0
176
     1
 66
   257
176
     1
 43
1.0
176
     1
 76
     1
176
     1
 77
     6
176
     1
 78
     2
176
     1
 67
     7
176
     1
 79
     5
176
     1
170
     0
176
     1
171
     0
176
     1
290
     0
176
     1
 93
       13
176
     1
 44
0.0
176
     1
173
     0
176
     1
  0
VISUALSTYLE
  5
38
102
{ACAD_REACTORS
330
2A
102
}
330
2A
100
AcDbVisualStyle
  2
Linepattern
 70
    14
177
     2
291
     1
 71
     2
176
     1
 72
     2
176
     1
 73
     0
176
     1
 90
        0
176
     1
 40
-0.6
176
     1
 41
-30.0
176
     1
 62
     5
 63
     7
421
 16777215
176
     1
 74
     1
176
     1
 91
        4
176
     1
 64
     7
176
     1
 65
   257
176
     1
 75
     7
176
     1
175
     7
176
     1
 42
1.0
176
     1
 92
        8
176
     1
 66
     7
176
     1
 43
1.0
176
     1
 76
     1
176
     1
 77
     6
176
     1
 78
     2
176
     1
 67
     7
176
     1
 79
     5
176
     1
170
     0
176
     1
171
     0
176
     1
290
     0
176
     1
 93
        1
176
     1
 44
0.0
176
     1
173
     0
176
     1
  0
VISUALSTYLE
  5
33
102
{ACAD_REACTORS
330
2A
102
}
330
2A
100
AcDbVisualStyle
  2
Realistic
 70
     8
177
     2
291
     0
 71
     2
176
     1
 72
     2
176
     1
 73
     0
176
     1
 90
        0
176
     1
 40
-0.6
176
     1
 41
-30.0
176
     1
 62
     5
 63
     7
421
 16777215
176
     1
 74
     1
176
     1
 91
        0
176
     1
 64
     7
176
     1
 65
   257
176
     1
 75
     1
176
     1
175
     1
176
     1
 42
1.0
176
     1
 92
        8
176
     1
 66
     8
424
  7895160
176
     1
 43
1.0
176
     1
 76
     1
176
     1
 77
     6
176
     1
 78
     2
176
     1
 67
     7
176
     1
 79
     5
176
     1
170
     0
176
     1
171
     0
176
     1
290
     0
176
     1
 93
       13
176
     1
 44
0.0
176
     1
173
     0
176
     1
  0
VISUALSTYLE
  5
37
102
{ACAD_REACTORS
330
2A
102
}
330
2A
100
AcDbVisualStyle
  2
Thicken
 70
    13
177
     2
291
     1
 71
     2
176
     1
 72
     2
176
     1
 73
     0
176
     1
 90
        0
176
     1
 40
-0.6
176
     1
 41
-30.0
176
     1
 62
     5
 63
     7
421
 16777215
176
     1
 74
     1
176
     1
 91
        4
176
     1
 64
     7
176
     1
 65
   257
176
     1
 75
     1
176
     1
175
     1
176
     1
 42
1.0
176
     1
 92
       12
176
     1
 66
     7
176
     1
 43
1.0
176
     1
 76
     1
176
     1
 77
     6
176
     1
 78
     2
176
     1
 67
     7
176
     1
 79
     5
176
     1
170
     0
176
     1
171
     0
176
     1
290
     0
176
     1
 93
        1
176
     1
 44
0.0
176
     1
173
     0
176
     1
  0
ENDSEC
  0
EOF
