  0
SECTION
  2
HEADER
  9
$ACADVER
  1
AC1024
  9
$ACADMAINTVER
 70
     6
  9
$DWGCODEPAGE
  3
ANSI_932
  9
$INSBASE
 10
0.0
 20
0.0
 30
0.0
  9
$EXTMIN
 10
-6300.0
 20
-4455.0
 30
0.0
  9
$EXTMAX
 10
6300.0
 20
4455.0
 30
0.0
  9
$LIMMIN
 10
-6300.0
 20
-4455.0
  9
$LIMMAX
 10
6300.0
 20
4455.0
  9
$ORTHOMODE
 70
     0
  9
$REGENMODE
 70
     1
  9
$FILLMODE
 70
     1
  9
$QTEXTMODE
 70
     0
  9
$MIRRTEXT
 70
     1
  9
$LTSCALE
 40
30.0
  9
$ATTMODE
 70
     1
  9
$TEXTSIZE
 40
2.5
  9
$TRACEWID
 40
1.0
  9
$TEXTSTYLE
  7
Standard
  9
$CLAYER
  8
0
  9
$CELTYPE
  6
ByLayer
  9
$CECOLOR
 62
   256
  9
$CELTSCALE
 40
1.0
  9
$DISPSILH
 70
     0
  9
$DIMSCALE
 40
1.0
  9
$DIMASZ
 40
2.5
  9
$DIMEXO
 40
0.625
  9
$DIMDLI
 40
3.75
  9
$DIMRND
 40
0.0
  9
$DIMDLE
 40
0.0
  9
$DIMEXE
 40
1.25
  9
$DIMTP
 40
0.0
  9
$DIMTM
 40
0.0
  9
$DIMTXT
 40
2.5
  9
$DIMCEN
 40
2.5
  9
$DIMTSZ
 40
0.0
  9
$DIMTOL
 70
     0
  9
$DIMLIM
 70
     0
  9
$DIMTIH
 70
     0
  9
$DIMTOH
 70
     0
  9
$DIMSE1
 70
     0
  9
$DIMSE2
 70
     0
  9
$DIMTAD
 70
     1
  9
$DIMZIN
 70
     8
  9
$DIMBLK
  1

  9
$DIMASO
 70
     1
  9
$DIMSHO
 70
     1
  9
$DIMPOST
  1

  9
$DIMAPOST
  1

  9
$DIMALT
 70
     0
  9
$DIMALTD
 70
     3
  9
$DIMALTF
 40
0.03937007874016
  9
$DIMLFAC
 40
1.0
  9
$DIMTOFL
 70
     1
  9
$DIMTVP
 40
0.0
  9
$DIMTIX
 70
     0
  9
$DIMSOXD
 70
     0
  9
$DIMSAH
 70
     0
  9
$DIMBLK1
  1

  9
$DIMBLK2
  1

  9
$DIMSTYLE
  2
ISO-25
  9
$DIMCLRD
 70
     0
  9
$DIMCLRE
 70
     0
  9
$DIMCLRT
 70
     0
  9
$DIMTFAC
 40
1.0
  9
$DIMGAP
 40
0.625
  9
$DIMJUST
 70
     0
  9
$DIMSD1
 70
     0
  9
$DIMSD2
 70
     0
  9
$DIMTOLJ
 70
     0
  9
$DIMTZIN
 70
     8
  9
$DIMALTZ
 70
     0
  9
$DIMALTTZ
 70
     0
  9
$DIMUPT
 70
     0
  9
$DIMDEC
 70
     2
  9
$DIMTDEC
 70
     2
  9
$DIMALTU
 70
     2
  9
$DIMALTTD
 70
     3
  9
$DIMTXSTY
  7
Standard
  9
$DIMAUNIT
 70
     0
  9
$DIMADEC
 70
     0
  9
$DIMALTRND
 40
0.0
  9
$DIMAZIN
 70
     0
  9
$DIMDSEP
 70
    44
  9
$DIMATFIT
 70
     3
  9
$DIMFRAC
 70
     0
  9
$DIMLDRBLK
  1

  9
$DIMLUNIT
 70
     2
  9
$DIMLWD
 70
    -2
  9
$DIMLWE
 70
    -2
  9
$DIMTMOVE
 70
     0
  9
$DIMFXL
 40
1.0
  9
$DIMFXLON
 70
     0
  9
$DIMJOGANG
 40
0.7853981633974483
  9
$DIMTFILL
 70
     0
  9
$DIMTFILLCLR
 70
     0
  9
$DIMARCSYM
 70
     0
  9
$DIMLTYPE
  6

  9
$DIMLTEX1
  6

  9
$DIMLTEX2
  6

  9
$DIMTXTDIRECTION
 70
     0
  9
$LUNITS
 70
     2
  9
$LUPREC
 70
     4
  9
$SKETCHINC
 40
1.0
  9
$FILLETRAD
 40
10.0
  9
$AUNITS
 70
     0
  9
$AUPREC
 70
     0
  9
$MENU
  1
.
  9
$ELEVATION
 40
0.0
  9
$PELEVATION
 40
0.0
  9
$THICKNESS
 40
0.0
  9
$LIMCHECK
 70
     0
  9
$CHAMFERA
 40
10.0
  9
$CHAMFERB
 40
10.0
  9
$CHAMFERC
 40
20.0
  9
$CHAMFERD
 40
0.0
  9
$SKPOLY
 70
     0
  9
$TDCREATE
 40
2459380.623469398
  9
$TDUCREATE
 40
2459380.248469398
  9
$TDUPDATE
 40
2459380.62346941
  9
$TDUUPDATE
 40
2459380.24846941
  9
$TDINDWG
 40
0.0000000116
  9
$TDUSRTIMER
 40
0.0000000116
  9
$USRTIMER
 70
     1
  9
$ANGBASE
 50
0.0
  9
$ANGDIR
 70
     0
  9
$PDMODE
 70
     0
  9
$PDSIZE
 40
0.0
  9
$PLINEWID
 40
0.0
  9
$SPLFRAME
 70
     0
  9
$SPLINETYPE
 70
     6
  9
$SPLINESEGS
 70
     8
  9
$HANDSEED
  5
4E7
  9
$SURFTAB1
 70
     6
  9
$SURFTAB2
 70
     6
  9
$SURFTYPE
 70
     6
  9
$SURFU
 70
     6
  9
$SURFV
 70
     6
  9
$UCSBASE
  2

  9
$UCSNAME
  2

  9
$UCSORG
 10
0.0
 20
0.0
 30
0.0
  9
$UCSXDIR
 10
1.0
 20
0.0
 30
0.0
  9
$UCSYDIR
 10
0.0
 20
1.0
 30
0.0
  9
$UCSORTHOREF
  2

  9
$UCSORTHOVIEW
 70
     0
  9
$UCSORGTOP
 10
0.0
 20
0.0
 30
0.0
  9
$UCSORGBOTTOM
 10
0.0
 20
0.0
 30
0.0
  9
$UCSORGLEFT
 10
0.0
 20
0.0
 30
0.0
  9
$UCSORGRIGHT
 10
0.0
 20
0.0
 30
0.0
  9
$UCSORGFRONT
 10
0.0
 20
0.0
 30
0.0
  9
$UCSORGBACK
 10
0.0
 20
0.0
 30
0.0
  9
$PUCSBASE
  2

  9
$PUCSNAME
  2

  9
$PUCSORG
 10
0.0
 20
0.0
 30
0.0
  9
$PUCSXDIR
 10
1.0
 20
0.0
 30
0.0
  9
$PUCSYDIR
 10
0.0
 20
1.0
 30
0.0
  9
$PUCSORTHOREF
  2

  9
$PUCSORTHOVIEW
 70
     0
  9
$PUCSORGTOP
 10
0.0
 20
0.0
 30
0.0
  9
$PUCSORGBOTTOM
 10
0.0
 20
0.0
 30
0.0
  9
$PUCSORGLEFT
 10
0.0
 20
0.0
 30
0.0
  9
$PUCSORGRIGHT
 10
0.0
 20
0.0
 30
0.0
  9
$PUCSORGFRONT
 10
0.0
 20
0.0
 30
0.0
  9
$PUCSORGBACK
 10
0.0
 20
0.0
 30
0.0
  9
$USERI1
 70
     0
  9
$USERI2
 70
     0
  9
$USERI3
 70
     0
  9
$USERI4
 70
     0
  9
$USERI5
 70
     0
  9
$USERR1
 40
0.0
  9
$USERR2
 40
0.0
  9
$USERR3
 40
0.0
  9
$USERR4
 40
0.0
  9
$USERR5
 40
0.0
  9
$WORLDVIEW
 70
     1
  9
$SHADEDGE
 70
     3
  9
$SHADEDIF
 70
    70
  9
$TILEMODE
 70
     1
  9
$MAXACTVP
 70
    64
  9
$PINSBASE
 10
0.0
 20
0.0
 30
0.0
  9
$PLIMCHECK
 70
     0
  9
$PEXTMIN
 10
1.000000000000000E+20
 20
1.000000000000000E+20
 30
1.000000000000000E+20
  9
$PEXTMAX
 10
-1.000000000000000E+20
 20
-1.000000000000000E+20
 30
-1.000000000000000E+20
  9
$PLIMMIN
 10
0.0
 20
0.0
  9
$PLIMMAX
 10
420.0
 20
297.0
  9
$UNITMODE
 70
     0
  9
$VISRETAIN
 70
     1
  9
$PLINEGEN
 70
     0
  9
$PSLTSCALE
 70
     1
  9
$TREEDEPTH
 70
  3020
  9
$CMLSTYLE
  2
Standard
  9
$CMLJUST
 70
     0
  9
$CMLSCALE
 40
20.0
  9
$PROXYGRAPHICS
 70
     1
  9
$MEASUREMENT
 70
     1
  9
$CELWEIGHT
370
    -1
  9
$ENDCAPS
280
     0
  9
$JOINSTYLE
280
     0
  9
$LWDISPLAY
290
     0
  9
$INSUNITS
 70
     4
  9
$HYPERLINKBASE
  1

  9
$STYLESHEET
  1

  9
$XEDIT
290
     1
  9
$CEPSNTYPE
380
     0
  9
$PSTYLEMODE
290
     1
  9
$FINGERPRINTGUID
  2
{DAF3C152-5FE5-4BD1-BA8E-920D148A8944}
  9
$VERSIONGUID
  2
{FAEB1C32-E019-11D5-929B-00C0DF256EC4}
  9
$EXTNAMES
290
     1
  9
$PSVPSCALE
 40
0.0
  9
$OLESTARTUP
290
     0
  9
$SORTENTS
280
   127
  9
$INDEXCTL
280
     0
  9
$HIDETEXT
280
     1
  9
$XCLIPFRAME
280
     2
  9
$HALOGAP
280
     0
  9
$OBSCOLOR
 70
   257
  9
$OBSLTYPE
280
     0
  9
$INTERSECTIONDISPLAY
280
     0
  9
$INTERSECTIONCOLOR
 70
   257
  9
$DIMASSOC
280
     2
  9
$PROJECTNAME
  1

  9
$CAMERADISPLAY
290
     0
  9
$LENSLENGTH
 40
50.0
  9
$CAMERAHEIGHT
 40
0.0
  9
$STEPSPERSEC
 40
2.0
  9
$STEPSIZE
 40
6.0
  9
$3DDWFPREC
 40
2.0
  9
$PSOLWIDTH
 40
5.0
  9
$PSOLHEIGHT
 40
80.0
  9
$LOFTANG1
 40
1.570796326794897
  9
$LOFTANG2
 40
1.570796326794897
  9
$LOFTMAG1
 40
0.0
  9
$LOFTMAG2
 40
0.0
  9
$LOFTPARAM
 70
     7
  9
$LOFTNORMALS
280
     1
  9
$LATITUDE
 40
37.795
  9
$LONGITUDE
 40
-122.394
  9
$NORTHDIRECTION
 40
0.0
  9
$TIMEZONE
 70
 -8000
  9
$LIGHTGLYPHDISPLAY
280
     1
  9
$TILEMODELIGHTSYNCH
280
     1
  9
$SOLIDHIST
280
     1
  9
$SHOWHIST
280
     1
  9
$DWFFRAME
280
     2
  9
$DGNFRAME
280
     2
  9
$REALWORLDSCALE
290
     1
  9
$INTERFERECOLOR
 62
   256
  9
$CSHADOW
280
     0
  9
$SHADOWPLANELOCATION
 40
0.0
  0
ENDSEC
  0
SECTION
  2
CLASSES
  0
CLASS
  1
ACDBDICTIONARYWDFLT
  2
AcDbDictionaryWithDefault
  3
ObjectDBX Classes
 90
        0
 91
        4
280
     0
281
     0
  0
CLASS
  1
VISUALSTYLE
  2
AcDbVisualStyle
  3
ObjectDBX Classes
 90
     4095
 91
        4
280
     0
281
     0
  0
CLASS
  1
MATERIAL
  2
AcDbMaterial
  3
ObjectDBX Classes
 90
     1153
 91
        4
280
     0
281
     0
  0
ENDSEC
  0
SECTION
  2
TABLES
  0
TABLE
  2
VPORT
  5
8
330
0
100
AcDbSymbolTable
 70
     1
  0
VPORT
  5
29
330
8
100
AcDbSymbolTableRecord
100
AcDbViewportTableRecord
  2
*Active
 70
     0
 10
0.0
 20
0.0
 11
1.0
 21
1.0
 12
0.0
 22
0.0
 13
0.0
 23
0.0
 14
10.0
 24
10.0
 15
10.0
 25
10.0
 16
0.0
 26
0.0
 36
1.0
 17
0.0
 27
0.0
 37
0.0
 40
9801.0
 41
1.414141414141414
 42
50.0
 43
0.0
 44
0.0
 50
0.0
 51
0.0
 71
     0
 72
 10000
 73
     1
 74
     3
 75
     0
 76
     0
 77
     0
 78
     0
281
     0
 65
     1
110
0.0
120
0.0
130
0.0
111
1.0
121
0.0
131
0.0
112
0.0
122
1.0
132
0.0
 79
     0
146
0.0
 60
     3
 61
     5
292
     1
282
     1
141
0.0
142
0.0
 63
   250
  0
ENDTAB
  0
TABLE
  2
LTYPE
  5
5
330
0
100
AcDbSymbolTable
 70
     5
  0
LTYPE
  5
14
330
5
100
AcDbSymbolTableRecord
100
AcDbLinetypeTableRecord
  2
ByBlock
 70
     0
  3

 72
    65
 73
     0
 40
0.0
  0
LTYPE
  5
15
330
5
100
AcDbSymbolTableRecord
100
AcDbLinetypeTableRecord
  2
ByLayer
 70
     0
  3

 72
    65
 73
     0
 40
0.0
  0
LTYPE
  5
16
330
5
100
AcDbSymbolTableRecord
100
AcDbLinetypeTableRecord
  2
Continuous
 70
     0
  3
Solid line
 72
    65
 73
     0
 40
0.0
  0
LTYPE
  5
3F
330
5
100
AcDbSymbolTableRecord
100
AcDbLinetypeTableRecord
  2
JWW_HOJO
 70
     0
  3
  -   -   -   -   -   -   -   - 
 72
    65
 73
     2
 40
1.693333333333333
 49
-1.27
 74
     0
 49
0.4233333333333333
 74
     0
  0
LTYPE
  5
40
330
5
100
AcDbSymbolTableRecord
100
AcDbLinetypeTableRecord
  2
JWW_DASHED2
 70
     0
  3
--    ----    ----    ----    --
 72
    65
 73
     2
 40
3.386666666666667
 49
1.693333333333333
 74
     0
 49
-1.693333333333333
 74
     0
  0
LTYPE
  5
41
330
5
100
AcDbSymbolTableRecord
100
AcDbLinetypeTableRecord
  2
JWW_CENTER1
 70
     0
  3
-----  --  ----------  --  -----
 72
    65
 73
     4
 40
6.773333333333333
 49
4.233333333333333
 74
     0
 49
-0.8466666666666667
 74
     0
 49
0.8466666666666667
 74
     0
 49
-0.8466666666666667
 74
     0
  0
LTYPE
  5
42
330
5
100
AcDbSymbolTableRecord
100
AcDbLinetypeTableRecord
  2
JWW_DASHED1
 70
     0
  3
-  --  --  --  --  --  --  --  -
 72
    65
 73
     2
 40
1.693333333333333
 49
0.8466666666666667
 74
     0
 49
-0.8466666666666667
 74
     0
  0
ENDTAB
  0
TABLE
  2
LAYER
  5
2
330
0
100
AcDbSymbolTable
 70
    14
  0
LAYER
  5
10
330
2
100
AcDbSymbolTableRecord
100
AcDbLayerTableRecord
  2
0
 70
     0
 62
     7
  6
Continuous
370
    -3
390
F
347
3E
  0
LAYER
  5
43
330
2
100
AcDbSymbolTableRecord
100
AcDbLayerTableRecord
  2
戸当り
 70
     0
 62
     7
  6
Continuous
370
    -3
390
F
347
3E
  0
LAYER
  5
44
330
2
100
AcDbSymbolTableRecord
100
AcDbLayerTableRecord
  2
0-A_文字
 70
     0
 62
     7
  6
Continuous
370
    -3
390
F
347
3E
  0
LAYER
  5
45
330
2
100
AcDbSymbolTableRecord
100
AcDbLayerTableRecord
  2
0-0_補助線
 70
     0
 62
     7
  6
Continuous
370
    -3
390
F
347
3E
  0
LAYER
  5
46
330
2
100
AcDbSymbolTableRecord
100
AcDbLayerTableRecord
  2
F-A_文字
 70
     0
 62
     7
  6
Continuous
370
    -3
390
F
347
3E
  0
LAYER
  5
47
330
2
100
AcDbSymbolTableRecord
100
AcDbLayerTableRecord
  2
F-0_補助線
 70
     0
 62
     7
  6
Continuous
370
    -3
390
F
347
3E
  0
LAYER
  5
48
330
2
100
AcDbSymbolTableRecord
100
AcDbLayerTableRecord
  2
F-1_枠
 70
     0
 62
     7
  6
Continuous
370
    -3
390
F
347
3E
  0
LAYER
  5
49
330
2
100
AcDbSymbolTableRecord
100
AcDbLayerTableRecord
  2
0-B_寸法
 70
     0
 62
     7
  6
Continuous
370
    -3
390
F
347
3E
  0
LAYER
  5
4A
330
2
100
AcDbSymbolTableRecord
100
AcDbLayerTableRecord
  2
0-C_ハッチ
 70
     0
 62
     7
  6
Continuous
370
    -3
390
F
347
3E
  0
LAYER
  5
4B
330
2
100
AcDbSymbolTableRecord
100
AcDbLayerTableRecord
  2
0-1_通り芯
 70
     0
 62
     7
  6
Continuous
370
    -3
390
F
347
3E
  0
LAYER
  5
4C
330
2
100
AcDbSymbolTableRecord
100
AcDbLayerTableRecord
  2
0-7_金物
 70
     0
 62
     7
  6
Continuous
370
    -3
390
F
347
3E
  0
LAYER
  5
4D
330
2
100
AcDbSymbolTableRecord
100
AcDbLayerTableRecord
  2
0-4_枠
 70
     0
 62
     7
  6
Continuous
370
    -3
390
F
347
3E
  0
LAYER
  5
4E
330
2
100
AcDbSymbolTableRecord
100
AcDbLayerTableRecord
  2
0-6_扉
 70
     0
 62
     7
  6
Continuous
370
    -3
390
F
347
3E
  0
LAYER
  5
4F
330
2
100
AcDbSymbolTableRecord
100
AcDbLayerTableRecord
  2
0-3_仕上げ
 70
     0
 62
     7
  6
Continuous
370
    -3
390
F
347
3E
  0
ENDTAB
  0
TABLE
  2
STYLE
  5
3
330
0
100
AcDbSymbolTable
 70
     1
  0
STYLE
  5
11
330
3
100
AcDbSymbolTableRecord
100
AcDbTextStyleTableRecord
  2
Standard
 70
     0
 40
0.0
 41
1.0
 50
0.0
 71
     0
 42
2.5
  3
txt
  4

  0
ENDTAB
  0
TABLE
  2
VIEW
  5
6
330
0
100
AcDbSymbolTable
 70
     0
  0
ENDTAB
  0
TABLE
  2
UCS
  5
7
330
0
100
AcDbSymbolTable
 70
     0
  0
ENDTAB
  0
TABLE
  2
APPID
  5
9
330
0
100
AcDbSymbolTable
 70
     1
  0
APPID
  5
12
330
9
100
AcDbSymbolTableRecord
100
AcDbRegAppTableRecord
  2
ACAD
 70
     0
  0
ENDTAB
  0
TABLE
  2
DIMSTYLE
  5
A
330
0
100
AcDbSymbolTable
 70
     1
100
AcDbDimStyleTable
  0
DIMSTYLE
105
27
330
A
100
AcDbSymbolTableRecord
100
AcDbDimStyleTableRecord
  2
ISO-25
 70
     0
 41
2.5
 42
0.625
 43
3.75
 44
1.25
 73
     0
 74
     0
 77
     1
 78
     8
140
2.5
141
2.5
143
0.03937007874016
147
0.625
171
     3
172
     1
178
     0
271
     2
272
     2
274
     3
278
    44
283
     0
284
     8
340
11
  0
ENDTAB
  0
TABLE
  2
BLOCK_RECORD
  5
1
330
0
100
AcDbSymbolTable
 70
     1
  0
BLOCK_RECORD
  5
1F
330
1
100
AcDbSymbolTableRecord
100
AcDbBlockTableRecord
  2
*Model_Space
340
22
 70
     0
280
     1
281
     0
  0
BLOCK_RECORD
  5
1B
330
1
100
AcDbSymbolTableRecord
100
AcDbBlockTableRecord
  2
*Paper_Space
340
1E
 70
     0
280
     1
281
     0
  0
BLOCK_RECORD
  5
23
330
1
100
AcDbSymbolTableRecord
100
AcDbBlockTableRecord
  2
*Paper_Space0
340
26
 70
     0
280
     1
281
     0
  0
ENDTAB
  0
ENDSEC
  0
SECTION
  2
BLOCKS
  0
BLOCK
  5
20
330
1F
100
AcDbEntity
  8
0
100
AcDbBlockBegin
  2
*Model_Space
 70
     0
 10
0.0
 20
0.0
 30
0.0
  3
*Model_Space
  1

  0
ENDBLK
  5
21
330
1F
100
AcDbEntity
  8
0
100
AcDbBlockEnd
  0
BLOCK
  5
1C
330
1B
100
AcDbEntity
 67
     1
  8
0
100
AcDbBlockBegin
  2
*Paper_Space
 70
     0
 10
0.0
 20
0.0
 30
0.0
  3
*Paper_Space
  1

  0
ENDBLK
  5
1D
330
1B
100
AcDbEntity
 67
     1
  8
0
100
AcDbBlockEnd
  0
BLOCK
  5
24
330
23
100
AcDbEntity
  8
0
100
AcDbBlockBegin
  2
*Paper_Space0
 70
     0
 10
0.0
 20
0.0
 30
0.0
  3
*Paper_Space0
  1

  0
ENDBLK
  5
25
330
23
100
AcDbEntity
  8
0
100
AcDbBlockEnd
  0
ENDSEC
  0
SECTION
  2
ENTITIES
  0
ELLIPSE
  5
50
330
1F
100
AcDbEntity
  8
戸当り
  6
Continuous
 62
    92
370
    13
100
AcDbEllipse
 10
4855.430917458078
 20
2876.053590301511
 30
0.0
 11
11.36181697857171
 21
42.40287823032828
 31
0.0
210
0.0
220
0.0
230
0.9999999999999999
 40
0.6
 41
1.570796326794897
 42
4.71238898038469
  0
LINE
  5
51
330
1F
100
AcDbEntity
  8
戸当り
  6
Continuous
 62
    92
370
    13
100
AcDbLine
 10
4880.872644396272
 20
2869.236500114367
 30
0.0
 11
4829.989190519878
 21
2882.870680488653
 31
0.0
  0
LINE
  5
52
330
1F
100
AcDbEntity
  8
戸当り
  6
Continuous
 62
    92
370
    13
100
AcDbLine
 10
4884.133764364564
 20
2881.407165525609
 30
0.0
 11
4833.25031048817
 21
2895.041345899896
 31
0.0
  0
ELLIPSE
  5
53
330
1F
100
AcDbEntity
  8
戸当り
  6
Continuous
 62
    92
370
    13
100
AcDbEllipse
 10
4879.604310755758
 20
2966.269922279796
 30
0.0
 11
21.86569797210526
 21
81.6038957748525
 31
0.0
210
0.0
220
0.0
230
1.0
 40
0.5
 41
4.340591432030095
 42
8.225779182329084
  0
ELLIPSE
  5
54
330
1F
100
AcDbEntity
  8
戸当り
  6
Continuous
 62
    92
370
    13
100
AcDbEllipse
 10
4878.978687882654
 20
2963.935065931004
 30
0.0
 11
26.49533313827761
 21
98.88192943551533
 31
0.0
210
0.0
220
0.0
230
0.9999999999999999
 40
0.4
 41
3.840308517104466
 42
4.432552034522944
  0
ELLIPSE
  5
55
330
1F
100
AcDbEntity
  8
戸当り
  6
Continuous
 62
    92
370
    13
100
AcDbEllipse
 10
4878.978687882654
 20
2963.935065931004
 30
0.0
 11
26.49533313827761
 21
98.88192943551533
 31
0.0
210
0.0
220
0.0
230
0.9999999999999999
 40
0.4
 41
1.850633272656679
 42
2.442876790075129
  0
ELLIPSE
  5
56
330
1F
100
AcDbEntity
  8
戸当り
  6
Continuous
 62
    92
370
    13
100
AcDbEllipse
 10
4740.316707711373
 20
2838.28484693721
 30
0.0
 11
-7.622927487939132
 21
43.23177007461331
 31
0.0
210
0.0
220
0.0
230
1.0
 40
0.6000000000000001
 41
1.570796326794897
 42
4.71238898038469
  0
LINE
  5
57
330
1F
100
AcDbEntity
  8
戸当り
  6
Continuous
 62
    92
370
    13
100
AcDbLine
 10
4766.255769756144
 20
2842.858603429973
 30
0.0
 11
4714.377645666606
 21
2833.711090444447
 31
0.0
  0
LINE
  5
58
330
1F
100
AcDbEntity
  8
戸当り
  6
Continuous
 62
    92
370
    13
100
AcDbLine
 10
4764.067802717541
 20
2855.267181117928
 30
0.0
 11
4712.189678628002
 21
2846.1196681324
 31
0.0
  0
ELLIPSE
  5
59
330
1F
100
AcDbEntity
  8
戸当り
  6
Continuous
 62
    92
370
    13
100
AcDbEllipse
 10
4724.098172894875
 20
2930.264728582853
 30
0.0
 11
-14.67024424252691
 21
83.19908946199426
 31
0.0
210
0.0
220
0.0
230
1.0
 40
0.5
 41
4.340591432030095
 42
8.225779182329084
  0
ELLIPSE
  5
5A
330
1F
100
AcDbEntity
  8
戸当り
  6
Continuous
 62
    92
370
    13
100
AcDbEllipse
 10
4724.517918944779
 20
2927.884230441196
 30
0.0
 11
-17.7763823922528
 21
100.8148742797557
 31
0.0
210
0.0
220
0.0
230
1.0
 40
0.4000000000000001
 41
3.840308517104466
 42
4.432552034522944
  0
ELLIPSE
  5
5B
330
1F
100
AcDbEntity
  8
戸当り
  6
Continuous
 62
    92
370
    13
100
AcDbEllipse
 10
4724.517918944779
 20
2927.884230441196
 30
0.0
 11
-17.7763823922528
 21
100.8148742797557
 31
0.0
210
0.0
220
0.0
230
1.0
 40
0.4000000000000001
 41
1.850633272656679
 42
2.442876790075129
  0
LINE
  5
5C
330
1F
100
AcDbEntity
  8
0-A_文字
  6
Continuous
 62
    92
370
    13
100
AcDbLine
 10
5369.917643811961
 20
3684.999983504013
 30
0.0
 11
5369.917643811961
 21
2718.999983504013
 31
0.0
  0
LINE
  5
5D
330
1F
100
AcDbEntity
  8
0-A_文字
  6
Continuous
 62
    92
370
    13
100
AcDbLine
 10
5369.917643811961
 20
2718.999983504013
 30
0.0
 11
4229.917643811961
 21
2718.999983504013
 31
0.0
  0
LINE
  5
5E
330
1F
100
AcDbEntity
  8
0-A_文字
  6
Continuous
 62
    92
370
    13
100
AcDbLine
 10
4229.917643811961
 20
3684.999983504013
 30
0.0
 11
4229.917643811961
 21
2718.999983504013
 31
0.0
  0
LINE
  5
5F
330
1F
100
AcDbEntity
  8
0-0_補助線
  6
JWW_HOJO
 62
   120
370
     5
100
AcDbLine
 10
5339.917643811961
 20
3684.999983504013
 30
0.0
 11
5339.917643811961
 21
2718.999983504013
 31
0.0
  0
LINE
  5
60
330
1F
100
AcDbEntity
  8
0-0_補助線
  6
JWW_HOJO
 62
   120
370
     5
100
AcDbLine
 10
4259.917643811961
 20
3684.999983504013
 30
0.0
 11
4259.917643811961
 21
2718.999983504013
 31
0.0
  0
LINE
  5
61
330
1F
100
AcDbEntity
  8
0-0_補助線
  6
JWW_HOJO
 62
   120
370
     5
100
AcDbLine
 10
4799.917643811961
 20
3684.999983504013
 30
0.0
 11
4799.917643811961
 21
2718.999983504013
 31
0.0
  0
CIRCLE
  5
62
330
1F
100
AcDbEntity
  8
0-0_補助線
  6
JWW_HOJO
 62
   120
370
     5
100
AcDbCircle
 10
5159.917643811961
 20
3385.504011182749
 30
0.0
 40
240.0
  0
CIRCLE
  5
63
330
1F
100
AcDbEntity
  8
0-0_補助線
  6
JWW_HOJO
 62
   120
370
     5
100
AcDbCircle
 10
4799.917643811961
 20
3385.504011182749
 30
0.0
 40
240.0
  0
CIRCLE
  5
64
330
1F
100
AcDbEntity
  8
0-0_補助線
  6
JWW_HOJO
 62
   120
370
     5
100
AcDbCircle
 10
4444.047372024825
 20
3385.504011182749
 30
0.0
 40
240.0
  0
LINE
  5
65
330
1F
100
AcDbEntity
  8
戸当り
  6
Continuous
 62
    40
370
    15
100
AcDbLine
 10
4502.034214636565
 20
3153.681812873372
 30
0.0
 11
4564.150785461171
 21
3385.504011182749
 31
0.0
  0
LINE
  5
66
330
1F
100
AcDbEntity
  8
戸当り
  6
Continuous
 62
    40
370
    15
100
AcDbLine
 10
4502.034214636565
 20
3153.681812873372
 30
0.0
 11
4439.917643811961
 21
3385.504011182749
 31
0.0
  0
LINE
  5
67
330
1F
100
AcDbEntity
  8
戸当り
  6
Continuous
 62
    40
370
    15
100
AcDbLine
 10
5035.684502162751
 20
3385.504011182749
 30
0.0
 11
5097.801072987355
 21
3153.681812873372
 31
0.0
  0
LINE
  5
68
330
1F
100
AcDbEntity
  8
戸当り
  6
Continuous
 62
    40
370
    15
100
AcDbLine
 10
5159.917643811961
 20
3385.504011182749
 30
0.0
 11
5097.801072987355
 21
3153.681812873372
 31
0.0
  0
LINE
  5
69
330
1F
100
AcDbEntity
  8
戸当り
  6
JWW_DASHED2
 62
     7
370
     9
100
AcDbLine
 10
5159.917643811961
 20
3385.504011182749
 30
0.0
 11
4439.917643811961
 21
3385.504011182749
 31
0.0
  0
LINE
  5
6A
330
1F
100
AcDbEntity
  8
戸当り
  6
Continuous
 62
    40
370
    15
100
AcDbLine
 10
5159.917643811961
 20
3439.504011182748
 30
0.0
 11
5159.917643811961
 21
3385.504011182749
 31
0.0
  0
LINE
  5
6B
330
1F
100
AcDbEntity
  8
戸当り
  6
Continuous
 62
    40
370
    15
100
AcDbLine
 10
5159.917643811961
 20
3439.504011182748
 30
0.0
 11
5339.917643811961
 21
3439.504011182748
 31
0.0
  0
LINE
  5
6C
330
1F
100
AcDbEntity
  8
戸当り
  6
Continuous
 62
    40
370
    15
100
AcDbLine
 10
5159.917643811961
 20
3385.504011182749
 30
0.0
 11
5339.917643811961
 21
3385.504011182749
 31
0.0
  0
LINE
  5
6D
330
1F
100
AcDbEntity
  8
戸当り
  6
Continuous
 62
    40
370
    15
100
AcDbLine
 10
4439.917643811961
 20
3439.504011182748
 30
0.0
 11
4439.917643811961
 21
3385.504011182749
 31
0.0
  0
LINE
  5
6E
330
1F
100
AcDbEntity
  8
戸当り
  6
Continuous
 62
    40
370
    15
100
AcDbLine
 10
4439.917643811961
 20
3439.504011182748
 30
0.0
 11
4259.917643811961
 21
3439.504011182748
 31
0.0
  0
LINE
  5
6F
330
1F
100
AcDbEntity
  8
戸当り
  6
Continuous
 62
    40
370
    15
100
AcDbLine
 10
4439.917643811961
 20
3385.504011182749
 30
0.0
 11
4259.917643811961
 21
3385.504011182749
 31
0.0
  0
LINE
  5
70
330
1F
100
AcDbEntity
  8
0-A_文字
  6
Continuous
 62
    92
370
    13
100
AcDbLine
 10
5369.917643811961
 20
3540.999983504012
 30
0.0
 11
4229.917643811961
 21
3540.999983504012
 31
0.0
  0
LINE
  5
71
330
1F
100
AcDbEntity
  8
0-A_文字
  6
Continuous
 62
    92
370
    13
100
AcDbLine
 10
5369.917643811961
 20
3684.999983504013
 30
0.0
 11
4229.917643811961
 21
3684.999983504013
 31
0.0
  0
MTEXT
  5
72
330
1F
100
AcDbEntity
  8
0-A_文字
  6
Continuous
 62
     7
370
     9
100
AcDbMText
 10
4278.667643811961
 20
3554.775383504013
 30
0.0
 40
63.55080000000001
 41
1042.5
 46
0.0
 71
     7
 72
     1
  1
{\fＭＳ ゴシック|b0|i0|c128|p49;上吊軸固定/フリーオープン}
 73
     1
 44
1.0
  0
MTEXT
  5
73
330
1F
100
AcDbEntity
  8
F-A_文字
  6
Continuous
 62
     7
370
     0
100
AcDbMText
 10
5768.321977672939
 20
-4314.841419020919
 30
0.0
 40
68.58
 41
90.0
 46
0.0
 71
     7
 72
     1
  1
{\fＭＳ ゴシック|b0|i0|c128|p49;）}
 73
     1
 44
1.0
  0
MTEXT
  5
74
330
1F
100
AcDbEntity
  8
F-A_文字
  6
Continuous
 62
     7
370
     0
100
AcDbMText
 10
5548.066114483239
 20
-4314.771967288282
 30
0.0
 40
74.295
 41
195.0
 46
0.0
 71
     7
 72
     1
  1
{\fＭＳ ゴシック|b0|i0|c128|p49;印刷}
 73
     1
 44
1.0
  0
MTEXT
  5
75
330
1F
100
AcDbEntity
  8
F-A_文字
  6
Continuous
 62
     7
370
     0
100
AcDbMText
 10
5393.32938200033
 20
-4314.771967288282
 30
0.0
 40
74.295
 41
97.5
 46
0.0
 71
     7
 72
     1
  1
{\fＭＳ ゴシック|b0|i0|c128|p49;$d}
 73
     1
 44
1.0
  0
MTEXT
  5
76
330
1F
100
AcDbEntity
  8
F-A_文字
  6
Continuous
 62
     7
370
     0
100
AcDbMText
 10
5350.114617405298
 20
-4316.235443869856
 30
0.0
 40
68.58
 41
45.0
 46
0.0
 71
     7
 72
     1
  1
{\fＭＳ ゴシック|b0|i0|c128|p49;,}
 73
     1
 44
1.0
  0
MTEXT
  5
77
330
1F
100
AcDbEntity
  8
F-A_文字
  6
Continuous
 62
     7
370
     0
100
AcDbMText
 10
5238.592649517422
 20
-4314.771967288282
 30
0.0
 40
74.295
 41
97.5
 46
0.0
 71
     7
 72
     1
  1
{\fＭＳ ゴシック|b0|i0|c128|p49;$m}
 73
     1
 44
1.0
  0
MTEXT
  5
78
330
1F
100
AcDbEntity
  8
F-A_文字
  6
Continuous
 62
     7
370
     0
100
AcDbMText
 10
5191.195810375571
 20
-4319.023493567732
 30
0.0
 40
68.58
 41
45.0
 46
0.0
 71
     7
 72
     1
  1
{\fＭＳ ゴシック|b0|i0|c128|p49;,}
 73
     1
 44
1.0
  0
MTEXT
  5
79
330
1F
100
AcDbEntity
  8
F-A_文字
  6
Continuous
 62
     7
370
     0
100
AcDbMText
 10
5083.855928478601
 20
-4314.771967288282
 30
0.0
 40
74.295
 41
97.5
 46
0.0
 71
     7
 72
     1
  1
{\fＭＳ ゴシック|b0|i0|c128|p49;$y}
 73
     1
 44
1.0
  0
MTEXT
  5
7A
330
1F
100
AcDbEntity
  8
F-A_文字
  6
Continuous
 62
     7
370
     0
100
AcDbMText
 10
4943.952040816226
 20
-4319.023493567732
 30
0.0
 40
68.58
 41
90.0
 46
0.0
 71
     7
 72
     1
  1
{\fＭＳ ゴシック|b0|i0|c128|p49;（}
 73
     1
 44
1.0
  0
LINE
  5
7B
330
1F
100
AcDbEntity
  8
F-0_補助線
  6
JWW_HOJO
 62
   120
370
     5
100
AcDbLine
 10
-6140.081333436773
 20
-4455.0
 30
0.0
 11
-6140.081333436773
 21
4424.999604096284
 31
0.0
  0
LINE
  5
7C
330
1F
100
AcDbEntity
  8
F-0_補助線
  6
JWW_HOJO
 62
   120
370
     5
100
AcDbLine
 10
-6140.081333436773
 20
4424.999604096284
 30
0.0
 11
6159.917676803936
 21
4424.999604096284
 31
0.0
  0
LINE
  5
7D
330
1F
100
AcDbEntity
  8
F-0_補助線
  6
JWW_HOJO
 62
   120
370
     5
100
AcDbLine
 10
6159.917676803936
 20
4424.999604096284
 30
0.0
 11
6159.917676803936
 21
-4455.0
 31
0.0
  0
LINE
  5
7E
330
1F
100
AcDbEntity
  8
F-0_補助線
  6
JWW_HOJO
 62
   120
370
     5
100
AcDbLine
 10
6159.917676803936
 20
-4455.0
 30
0.0
 11
-6140.081333436773
 21
-4455.0
 31
0.0
  0
LINE
  5
7F
330
1F
100
AcDbEntity
  8
F-1_枠
  6
Continuous
 62
   200
370
    20
100
AcDbLine
 10
5859.917429364114
 20
4174.999769056166
 30
0.0
 11
5859.917429364114
 21
-4205.000164959882
 31
0.0
  0
LINE
  5
80
330
1F
100
AcDbEntity
  8
F-1_枠
  6
Continuous
 62
   200
370
    20
100
AcDbLine
 10
-5840.081317971782
 20
4174.999769056166
 30
0.0
 11
-5840.081317971782
 21
-4205.000164959882
 31
0.0
  0
LINE
  5
81
330
1F
100
AcDbEntity
  8
F-1_枠
  6
Continuous
 62
   200
370
    20
100
AcDbLine
 10
5859.917429364114
 20
-4205.000002577498
 30
0.0
 11
-5840.081085996952
 21
-4205.000002577498
 31
0.0
  0
LINE
  5
82
330
1F
100
AcDbEntity
  8
F-1_枠
  6
Continuous
 62
   200
370
    20
100
AcDbLine
 10
-5830.081323642279
 20
4174.999769056166
 30
0.0
 11
-5830.081323642279
 21
-4205.000164959882
 31
0.0
  0
LINE
  5
83
330
1F
100
AcDbEntity
  8
F-1_枠
  6
Continuous
 62
   200
370
    20
100
AcDbLine
 10
-5835.081309208291
 20
4174.999769056166
 30
0.0
 11
-5835.081309208291
 21
-4205.000164959882
 31
0.0
  0
LINE
  5
84
330
1F
100
AcDbEntity
  8
F-1_枠
  6
Continuous
 62
   200
370
    20
100
AcDbLine
 10
5854.917165428304
 20
4174.999769056166
 30
0.0
 11
5854.917165428304
 21
-4205.000164959882
 31
0.0
  0
LINE
  5
85
330
1F
100
AcDbEntity
  8
F-1_枠
  6
Continuous
 62
   200
370
    20
100
AcDbLine
 10
5849.917643811961
 20
4174.999769056166
 30
0.0
 11
5849.917643811961
 21
-4205.000164959882
 31
0.0
  0
LINE
  5
86
330
1F
100
AcDbEntity
  8
F-1_枠
  6
Continuous
 62
   200
370
    20
100
AcDbLine
 10
5859.917429364114
 20
-4199.999993814004
 30
0.0
 11
-5840.081085996952
 21
-4199.999993814004
 31
0.0
  0
LINE
  5
87
330
1F
100
AcDbEntity
  8
F-1_枠
  6
Continuous
 62
   200
370
    20
100
AcDbLine
 10
5859.917429364114
 20
-4195.000008247994
 30
0.0
 11
-5840.081085996952
 21
-4195.000008247994
 31
0.0
  0
LINE
  5
88
330
1F
100
AcDbEntity
  8
F-1_枠
  6
Continuous
 62
   200
370
    20
100
AcDbLine
 10
9.918542843316231
 20
-3994.999936078046
 30
0.0
 11
5849.917643811961
 21
-3995.005364289155
 31
0.0
  0
LINE
  5
89
330
1F
100
AcDbEntity
  8
F-1_枠
  6
Continuous
 62
   200
370
    20
100
AcDbLine
 10
-5840.081085996952
 20
4174.999769056166
 30
0.0
 11
5859.917429364114
 21
4174.999769056166
 31
0.0
  0
LINE
  5
8A
330
1F
100
AcDbEntity
  8
F-1_枠
  6
Continuous
 62
   200
370
    20
100
AcDbLine
 10
-5840.081085996952
 20
4164.999983504013
 30
0.0
 11
5859.917429364114
 21
4164.999983504013
 31
0.0
  0
LINE
  5
8B
330
1F
100
AcDbEntity
  8
F-1_枠
  6
Continuous
 62
   200
370
    20
100
AcDbLine
 10
-5840.081085996952
 20
4169.999505120355
 30
0.0
 11
5859.917429364114
 21
4169.999505120355
 31
0.0
  0
LINE
  5
8C
330
1F
100
AcDbEntity
  8
F-0_補助線
  6
JWW_HOJO
 62
     7
370
     9
100
AcDbLine
 10
-5830.081323642279
 20
-3994.99993607839
 30
0.0
 11
9.918542843316231
 21
-3994.99993607839
 31
0.0
  0
LINE
  5
8D
330
1F
100
AcDbEntity
  8
F-0_補助線
  6
JWW_HOJO
 62
     7
370
     9
100
AcDbLine
 10
-5830.081323642279
 20
-3904.99993607839
 30
0.0
 11
9.918542843316231
 21
-3904.99993607839
 31
0.0
  0
LINE
  5
8E
330
1F
100
AcDbEntity
  8
F-0_補助線
  6
JWW_HOJO
 62
     7
370
     9
100
AcDbLine
 10
-5830.081323642279
 20
-4084.99993607839
 30
0.0
 11
9.918542843316231
 21
-4084.99993607839
 31
0.0
  0
LINE
  5
8F
330
1F
100
AcDbEntity
  8
F-0_補助線
  6
JWW_HOJO
 62
     7
370
     9
100
AcDbLine
 10
9.918408067688347
 20
-4139.999739777983
 30
0.0
 11
5849.917509036332
 21
-4140.005167989091
 31
0.0
  0
LINE
  5
90
330
1F
100
AcDbEntity
  8
F-0_補助線
  6
JWW_HOJO
 62
     7
370
     9
100
AcDbLine
 10
9.918491721639953
 20
-4049.999739778022
 30
0.0
 11
5849.917592690284
 21
-4050.005167989131
 31
0.0
  0
LINE
  5
91
330
1F
100
AcDbEntity
  8
F-0_補助線
  6
JWW_HOJO
 62
     7
370
     9
100
AcDbLine
 10
9.918593965360003
 20
-3939.99973721807
 30
0.0
 11
5849.917694934004
 21
-3940.005165429179
 31
0.0
  0
LINE
  5
92
330
1F
100
AcDbEntity
  8
F-0_補助線
  6
JWW_HOJO
 62
     7
370
     9
100
AcDbLine
 10
9.918677619311609
 20
-3849.999737218109
 30
0.0
 11
5849.917778587956
 21
-3850.005165429218
 31
0.0
  0
LINE
  5
93
330
1F
100
AcDbEntity
  8
F-1_枠
  6
Continuous
 62
   200
370
    20
100
AcDbLine
 10
5859.917429364114
 20
-3795.000003092998
 30
0.0
 11
-5840.081085996952
 21
-3795.000003092998
 31
0.0
  0
LINE
  5
94
330
1F
100
AcDbEntity
  8
F-1_枠
  6
Continuous
 62
   200
370
    20
100
AcDbLine
 10
5859.917429364114
 20
-3790.000017526987
 30
0.0
 11
-5840.081085996952
 21
-3790.000017526987
 31
0.0
  0
MTEXT
  5
95
330
1F
100
AcDbEntity
  8
0-A_文字
  6
Continuous
 62
     7
370
     9
100
AcDbMText
 10
-2765.095421270461
 20
3268.437834983325
 30
0.0
 40
100.584
 41
660.0
 46
0.0
 71
     7
 72
     1
  1
{\fＭＳ ゴシック|b0|i0|c128|p49;■横断面図}
 73
     1
 44
1.0
  0
MTEXT
  5
96
330
1F
100
AcDbEntity
  8
0-A_文字
  6
Continuous
 62
     7
370
     9
100
AcDbMText
 10
-83.08243453796808
 20
931.6903738695655
 30
0.0
 40
79.4904545454542
 41
2294.99999999999
 46
0.0
 71
     7
 72
     1
  1
{\fＭＳ ゴシック|b0|i0|c128|p49;※有効開口寸法にはハンドルの突出は含まない。}
 73
     1
 44
1.0
  0
MTEXT
  5
97
330
1F
100
AcDbEntity
  8
0-A_文字
  6
Continuous
 62
     7
370
     9
100
AcDbMText
 10
-608.0824345379749
 20
826.7384799301718
 30
0.0
 40
79.58666666666677
 41
2820.000000000004
 46
0.0
 71
     7
 72
     1
  1
{\fＭＳ ゴシック|b0|i0|c128|p49;※有効開口寸法は扉の厚さや調整によって若干異なります。}
 73
     1
 44
1.0
  0
MTEXT
  5
98
330
1F
100
AcDbEntity
  8
0-B_寸法
  6
Continuous
 62
     7
370
   211
100
AcDbMText
 10
-380.0815066386451
 20
3142.665146596841
 30
0.0
 40
91.43999999999997
 41
780.0
 46
0.0
 71
     7
 72
     1
  1
{\fＭＳ ゴシック|b0|i0|c128|p49;ＲＯＷ＝1,655}
 73
     1
 44
1.0
  0
MTEXT
  5
99
330
1F
100
AcDbEntity
  8
0-B_寸法
  6
Continuous
 62
     7
370
   211
100
AcDbMText
 10
-564.5807952688739
 20
2962.665146596838
 30
0.0
 40
91.43999999999998
 41
1140.0
 46
0.0
 71
     7
 72
     1
  1
{\fＭＳ ゴシック|b0|i0|c128|p49;有効開口寸法＝1,327}
 73
     1
 44
1.0
  0
MTEXT
  5
9A
330
1F
100
AcDbEntity
  8
0-B_寸法
  6
Continuous
 62
     7
370
     9
100
AcDbMText
 10
-1987.002075020878
 20
2311.828631193714
 30
0.0
 40
91.43999999999988
 41
179.9999999999998
 46
0.0
 71
     7
 72
     1
  1
{\fＭＳ ゴシック|b0|i0|c128|p49;2.5}
 73
     1
 44
1.0
  0
MTEXT
  5
9B
330
1F
100
AcDbEntity
  8
0-B_寸法
  6
Continuous
 62
     7
370
     9
100
AcDbMText
 10
-1572.380705046231
 20
2287.874763172515
 30
0.0
 40
91.44
 41
120.0
 46
0.0
 71
     7
 72
     1
  1
{\fＭＳ ゴシック|b0|i0|c128|p49;92}
 11
6.123031769111886E-17
 21
1.0
 31
0.0
 73
     1
 44
1.0
  0
MTEXT
  5
9C
330
1F
100
AcDbEntity
  8
0-B_寸法
  6
Continuous
 62
     7
370
     0
100
AcDbMText
 10
-1332.705484511202
 20
2285.414374584593
 30
0.0
 40
91.44
 41
120.0
 46
0.0
 71
     7
 72
     1
  1
{\fＭＳ ゴシック|b0|i0|c128|p49;27}
 11
6.123031769111886E-17
 21
1.0
 31
0.0
 73
     1
 44
1.0
  0
MTEXT
  5
9D
330
1F
100
AcDbEntity
  8
0-B_寸法
  6
Continuous
 62
     7
370
     0
100
AcDbMText
 10
-1170.413539509698
 20
2225.414374584594
 30
0.0
 40
91.44
 41
240.0
 46
0.0
 71
     7
 72
     1
  1
{\fＭＳ ゴシック|b0|i0|c128|p49;(24)}
 11
6.123031769111886E-17
 21
1.0
 31
0.0
 73
     1
 44
1.0
  0
LINE
  5
9E
330
1F
100
AcDbEntity
  8
0-B_寸法
  6
Continuous
 62
   120
370
     5
100
AcDbLine
 10
-2222.081444790676
 20
3141.945146596841
 30
0.0
 11
2241.91857996528
 21
3141.945146596841
 31
0.0
  0
LWPOLYLINE
  5
9F
330
1F
100
AcDbEntity
  8
0-B_寸法
  6
Continuous
 62
     7
370
     9
100
AcDbPolyline
 90
        4
 70
     1
 43
3.0
 10
2243.41857996528
 20
3141.945146596841
 42
0.4142135623731
 10
2241.91857996528
 20
3143.445146596841
 42
0.4142135623731
 10
2240.41857996528
 20
3141.945146596841
 42
0.4142135623731
 10
2241.91857996528
 20
3140.445146596841
 42
0.4142135623731
  0
LINE
  5
A0
330
1F
100
AcDbEntity
  8
0-B_寸法
  6
Continuous
 62
   120
370
     5
100
AcDbLine
 10
2241.91857996528
 20
3141.945146596841
 30
0.0
 11
2241.91857996528
 21
2781.94514659684
 31
0.0
  0
LINE
  5
A1
330
1F
100
AcDbEntity
  8
0-B_寸法
  6
Continuous
 62
   120
370
     5
100
AcDbLine
 10
-2222.081444790676
 20
3141.945146596841
 30
0.0
 11
-2222.081444790676
 21
2781.94514659684
 31
0.0
  0
LWPOLYLINE
  5
A2
330
1F
100
AcDbEntity
  8
0-B_寸法
  6
Continuous
 62
     7
370
     9
100
AcDbPolyline
 90
        4
 70
     1
 43
3.0
 10
-2220.581444790676
 20
3141.945146596841
 42
0.4142135623731
 10
-2222.081444790676
 20
3143.445146596841
 42
0.4142135623731
 10
-2223.581444790676
 20
3141.945146596841
 42
0.4142135623731
 10
-2222.081444790676
 20
3140.445146596841
 42
0.4142135623731
  0
LINE
  5
A3
330
1F
100
AcDbEntity
  8
0-C_ハッチ
  6
Continuous
 62
   120
370
     5
100
AcDbLine
 10
2211.91880266113
 20
2546.033322602435
 30
0.0
 11
2031.91857996529
 21
2366.032728746862
 31
0.0
  0
LINE
  5
A4
330
1F
100
AcDbEntity
  8
0-B_寸法
  6
Continuous
 62
   120
370
     5
100
AcDbLine
 10
-2192.081444790688
 20
1086.945146596838
 30
0.0
 11
2211.91857996529
 21
1086.945146596838
 31
0.0
  0
LINE
  5
A5
330
1F
100
AcDbEntity
  8
0-B_寸法
  6
Continuous
 62
   120
370
     5
100
AcDbLine
 10
-2012.081444790688
 20
1266.945146596838
 30
0.0
 11
2031.91857996529
 21
1266.945146596838
 31
0.0
  0
LINE
  5
A6
330
1F
100
AcDbEntity
  8
0-0_補助線
  6
JWW_HOJO
 62
   120
370
     5
100
AcDbLine
 10
-2762.081197362862
 20
2961.945146596839
 30
0.0
 11
2781.918332525468
 21
2961.945146596839
 31
0.0
  0
LINE
  5
A7
330
1F
100
AcDbEntity
  8
0-0_補助線
  6
JWW_HOJO
 62
   120
370
     5
100
AcDbLine
 10
-2762.081197362862
 20
2781.94514659684
 30
0.0
 11
2781.918332525468
 21
2781.94514659684
 31
0.0
  0
LINE
  5
A8
330
1F
100
AcDbEntity
  8
0-1_通り芯
  6
JWW_CENTER1
 62
   120
370
     5
100
AcDbLine
 10
-2762.081197362862
 20
2361.94514659684
 30
0.0
 11
2781.918332525468
 21
2361.94514659684
 31
0.0
  0
LINE
  5
A9
330
1F
100
AcDbEntity
  8
0-0_補助線
  6
JWW_HOJO
 62
   120
370
     5
100
AcDbLine
 10
-2762.081197362862
 20
3141.945146596839
 30
0.0
 11
2781.918332525468
 21
3141.945146596839
 31
0.0
  0
LINE
  5
AA
330
1F
100
AcDbEntity
  8
0-0_補助線
  6
JWW_HOJO
 62
   120
370
     5
100
AcDbLine
 10
-2762.081197362862
 20
1086.945146596838
 30
0.0
 11
2781.918332525468
 21
1086.945146596838
 31
0.0
  0
LINE
  5
AB
330
1F
100
AcDbEntity
  8
0-0_補助線
  6
JWW_HOJO
 62
   120
370
     5
100
AcDbLine
 10
-2762.081197362862
 20
1266.945146596838
 30
0.0
 11
2781.918332525468
 21
1266.945146596838
 31
0.0
  0
LINE
  5
AC
330
1F
100
AcDbEntity
  8
0-0_補助線
  6
JWW_HOJO
 62
   120
370
     5
100
AcDbLine
 10
2777.419006779266
 20
1446.945146596839
 30
0.0
 11
-2766.580622072993
 21
1446.945146596839
 31
0.0
  0
LINE
  5
AD
330
1F
100
AcDbEntity
  8
0-0_補助線
  6
JWW_HOJO
 62
   120
370
     5
100
AcDbLine
 10
2777.419006779266
 20
1626.945146596839
 30
0.0
 11
-2766.580622072993
 21
1626.945146596839
 31
0.0
  0
LINE
  5
AE
330
1F
100
AcDbEntity
  8
0-0_補助線
  6
JWW_HOJO
 62
   120
370
     5
100
AcDbLine
 10
2777.419006779266
 20
1986.945146596839
 30
0.0
 11
-2766.580622072993
 21
1986.945146596839
 31
0.0
  0
LINE
  5
AF
330
1F
100
AcDbEntity
  8
0-0_補助線
  6
JWW_HOJO
 62
   120
370
     5
100
AcDbLine
 10
2777.419006779266
 20
1806.945146596839
 30
0.0
 11
-2766.580622072993
 21
1806.945146596839
 31
0.0
  0
LINE
  5
B0
330
1F
100
AcDbEntity
  8
0-B_寸法
  6
Continuous
 62
   120
370
     5
100
AcDbLine
 10
2241.91857996528
 20
1086.945146596838
 30
0.0
 11
2241.91857996528
 21
1986.945146596839
 31
0.0
  0
LWPOLYLINE
  5
B1
330
1F
100
AcDbEntity
  8
0-B_寸法
  6
Continuous
 62
     7
370
     9
100
AcDbPolyline
 90
        4
 70
     1
 43
3.0
 10
2243.41857996528
 20
1086.945146596838
 42
0.4142135623731
 10
2241.91857996528
 20
1088.445146596838
 42
0.4142135623731
 10
2240.41857996528
 20
1086.945146596838
 42
0.4142135623731
 10
2241.91857996528
 20
1085.445146596839
 42
0.4142135623731
  0
LINE
  5
B2
330
1F
100
AcDbEntity
  8
0-B_寸法
  6
Continuous
 62
   120
370
     5
100
AcDbLine
 10
2211.91857996529
 20
1086.945146596838
 30
0.0
 11
2241.91857996528
 21
1086.945146596838
 31
0.0
  0
LINE
  5
B3
330
1F
100
AcDbEntity
  8
0-B_寸法
  6
Continuous
 62
   120
370
     5
100
AcDbLine
 10
2211.91857996529
 20
1086.945146596838
 30
0.0
 11
2211.91857996529
 21
1986.945146596839
 31
0.0
  0
LWPOLYLINE
  5
B4
330
1F
100
AcDbEntity
  8
0-B_寸法
  6
Continuous
 62
     7
370
     9
100
AcDbPolyline
 90
        4
 70
     1
 43
3.0
 10
2213.41857996529
 20
1086.945146596838
 42
0.4142135623731
 10
2211.91857996529
 20
1088.445146596838
 42
0.4142135623731
 10
2210.41857996529
 20
1086.945146596838
 42
0.4142135623731
 10
2211.91857996529
 20
1085.445146596839
 42
0.4142135623731
  0
MTEXT
  5
B5
330
1F
100
AcDbEntity
  8
0-B_寸法
  6
Continuous
 62
     7
370
   211
100
AcDbMText
 10
-2129.081395314719
 20
1807.665146596839
 30
0.0
 40
91.44
 41
60.0
 46
0.0
 71
     7
 72
     1
  1
{\fＭＳ ゴシック|b0|i0|c128|p49;9}
 73
     1
 44
1.0
  0
LWPOLYLINE
  5
B6
330
1F
100
AcDbEntity
  8
0-B_寸法
  6
Continuous
 62
     7
370
     9
100
AcDbPolyline
 90
        4
 70
     1
 43
3.0
 10
2213.41857996529
 20
1266.945146596838
 42
0.4142135623731
 10
2211.91857996529
 20
1268.445146596838
 42
0.4142135623731
 10
2210.41857996529
 20
1266.945146596838
 42
0.4142135623731
 10
2211.91857996529
 20
1265.445146596839
 42
0.4142135623731
  0
LINE
  5
B7
330
1F
100
AcDbEntity
  8
0-B_寸法
  6
Continuous
 62
   120
370
     5
100
AcDbLine
 10
2031.91857996529
 20
1266.945146596838
 30
0.0
 11
2211.91857996529
 21
1266.945146596838
 31
0.0
  0
LINE
  5
B8
330
1F
100
AcDbEntity
  8
0-B_寸法
  6
Continuous
 62
   120
370
     5
100
AcDbLine
 10
2031.91857996529
 20
1266.945146596838
 30
0.0
 11
2031.91857996529
 21
1986.945146596839
 31
0.0
  0
LWPOLYLINE
  5
B9
330
1F
100
AcDbEntity
  8
0-B_寸法
  6
Continuous
 62
     7
370
     9
100
AcDbPolyline
 90
        4
 70
     1
 43
3.0
 10
2033.41857996529
 20
1266.945146596838
 42
0.4142135623731
 10
2031.91857996529
 20
1268.445146596838
 42
0.4142135623731
 10
2030.41857996529
 20
1266.945146596838
 42
0.4142135623731
 10
2031.91857996529
 20
1265.445146596839
 42
0.4142135623731
  0
LINE
  5
BA
330
1F
100
AcDbEntity
  8
0-7_金物
  6
Continuous
 62
     7
370
     9
100
AcDbLine
 10
2229.91824236457
 20
2271.94484332841
 30
0.0
 11
2229.91824236457
 21
2451.944705999304
 31
0.0
  0
LINE
  5
BB
330
1F
100
AcDbEntity
  8
0-7_金物
  6
Continuous
 62
     7
370
     9
100
AcDbLine
 10
2241.91857996528
 20
2451.944705999304
 30
0.0
 11
2229.91824236457
 21
2451.944705999304
 31
0.0
  0
LINE
  5
BC
330
1F
100
AcDbEntity
  8
0-7_金物
  6
Continuous
 62
     7
370
     9
100
AcDbLine
 10
2241.91857996528
 20
2271.94484332841
 30
0.0
 11
2229.91824236457
 21
2271.94484332841
 31
0.0
  0
LINE
  5
BD
330
1F
100
AcDbEntity
  8
0-7_金物
  6
Continuous
 62
     7
370
     9
100
AcDbLine
 10
2241.91857996528
 20
2271.94484332841
 30
0.0
 11
2241.91857996528
 21
2451.944705999304
 31
0.0
  0
LINE
  5
BE
330
1F
100
AcDbEntity
  8
0-7_金物
  6
Continuous
 62
     7
370
     9
100
AcDbLine
 10
2229.91824236457
 20
2301.944946325233
 30
0.0
 11
2217.918648629828
 21
2301.944946325233
 31
0.0
  0
LINE
  5
BF
330
1F
100
AcDbEntity
  8
0-7_金物
  6
Continuous
 62
     7
370
     9
100
AcDbLine
 10
2229.91824236457
 20
2421.944603002479
 30
0.0
 11
2217.918648629828
 21
2421.944603002479
 31
0.0
  0
LINE
  5
C0
330
1F
100
AcDbEntity
  8
0-7_金物
  6
Continuous
 62
     7
370
     9
100
AcDbLine
 10
2217.918648629828
 20
2301.944946325233
 30
0.0
 11
2217.918648629828
 21
2421.944603002479
 31
0.0
  0
LINE
  5
C1
330
1F
100
AcDbEntity
  8
0-7_金物
  6
Continuous
 62
     7
370
     9
100
AcDbLine
 10
2217.918648629828
 20
2307.945112264564
 30
0.0
 11
2211.91857996529
 21
2307.945112264564
 31
0.0
  0
LINE
  5
C2
330
1F
100
AcDbEntity
  8
0-7_金物
  6
Continuous
 62
     7
370
     9
100
AcDbLine
 10
2211.91857996529
 20
2415.945180929115
 30
0.0
 11
2217.918648629828
 21
2415.945180929115
 31
0.0
  0
LINE
  5
C3
330
1F
100
AcDbEntity
  8
0-4_枠
  6
Continuous
 62
    92
370
    13
100
AcDbLine
 10
2037.918579965288
 20
2637.945092160078
 30
0.0
 11
2031.91857996529
 21
2631.945092160078
 31
0.0
  0
LINE
  5
C4
330
1F
100
AcDbEntity
  8
0-4_枠
  6
Continuous
 62
    92
370
    13
100
AcDbLine
 10
2037.918579965288
 20
2637.945092160078
 30
0.0
 11
2211.91857996529
 21
2637.945092160078
 31
0.0
  0
LINE
  5
C5
330
1F
100
AcDbEntity
  8
0-4_枠
  6
Continuous
 62
    92
370
    13
100
AcDbLine
 10
2031.91857996529
 20
2091.94594335307
 30
0.0
 11
2037.918579965288
 21
2085.945943353071
 31
0.0
  0
LINE
  5
C6
330
1F
100
AcDbEntity
  8
0-4_枠
  6
Continuous
 62
    92
370
    13
100
AcDbLine
 10
2037.918579965288
 20
2085.945943353071
 30
0.0
 11
2091.91857996529
 21
2085.945943353071
 31
0.0
  0
LINE
  5
C7
330
1F
100
AcDbEntity
  8
0-C_ハッチ
  6
Continuous
 62
   120
370
     5
100
AcDbLine
 10
2181.91857996529
 20
2091.768740539306
 30
0.0
 11
2176.09575036571
 21
2085.945943353071
 31
0.0
  0
LINE
  5
C8
330
1F
100
AcDbEntity
  8
0-C_ハッチ
  6
Continuous
 62
   120
370
     5
100
AcDbLine
 10
2031.91857996529
 20
2196.327363591666
 30
0.0
 11
2211.91880266113
 21
2376.327957447241
 31
0.0
  0
LINE
  5
C9
330
1F
100
AcDbEntity
  8
0-C_ハッチ
  6
Continuous
 62
   120
370
     5
100
AcDbLine
 10
2031.91857996529
 20
2281.180417328997
 30
0.0
 11
2211.91880266113
 21
2461.180268865103
 31
0.0
  0
LINE
  5
CA
330
1F
100
AcDbEntity
  8
0-C_ハッチ
  6
Continuous
 62
   120
370
     5
100
AcDbLine
 10
2211.91880266113
 20
2291.47490370991
 30
0.0
 11
2031.91857996529
 21
2111.475052173804
 31
0.0
  0
LINE
  5
CB
330
1F
100
AcDbEntity
  8
0-C_ハッチ
  6
Continuous
 62
   120
370
     5
100
AcDbLine
 10
2211.91880266113
 20
2630.886376339766
 30
0.0
 11
2031.91857996529
 21
2450.88652480366
 31
0.0
  0
LINE
  5
CC
330
1F
100
AcDbEntity
  8
0-C_ハッチ
  6
Continuous
 62
   120
370
     5
100
AcDbLine
 10
2134.124835903843
 20
2637.945092160078
 30
0.0
 11
2031.91857996529
 21
2535.739578540991
 31
0.0
  0
LINE
  5
CD
330
1F
100
AcDbEntity
  8
0-4_枠
  6
Continuous
 62
    92
370
    13
100
AcDbLine
 10
2145.918579965285
 20
2085.945943353071
 30
0.0
 11
2181.91857996529
 21
2085.945943353071
 31
0.0
  0
LINE
  5
CE
330
1F
100
AcDbEntity
  8
0-4_枠
  6
Continuous
 62
    92
370
    13
100
AcDbLine
 10
2181.91857996529
 20
2127.945943353069
 30
0.0
 11
2181.91857996529
 21
2085.945943353071
 31
0.0
  0
LINE
  5
CF
330
1F
100
AcDbEntity
  8
0-4_枠
  6
Continuous
 62
    92
370
    13
100
AcDbLine
 10
2181.91857996529
 20
2127.945943353069
 30
0.0
 11
2211.91857996529
 21
2127.945943353069
 31
0.0
  0
LINE
  5
D0
330
1F
100
AcDbEntity
  8
0-4_枠
  6
Continuous
 62
    92
370
    13
100
AcDbLine
 10
2211.91857996529
 20
2637.945092160078
 30
0.0
 11
2211.91857996529
 21
2127.945943353069
 31
0.0
  0
LINE
  5
D1
330
1F
100
AcDbEntity
  8
0-4_枠
  6
Continuous
 62
    92
370
    13
100
AcDbLine
 10
2091.91857996529
 20
2145.945943353071
 30
0.0
 11
2091.91857996529
 21
2085.945943353071
 31
0.0
  0
LINE
  5
D2
330
1F
100
AcDbEntity
  8
0-4_枠
  6
Continuous
 62
    92
370
    13
100
AcDbLine
 10
2091.91857996529
 20
2145.945943353071
 30
0.0
 11
2145.918579965285
 21
2145.945943353071
 31
0.0
  0
LINE
  5
D3
330
1F
100
AcDbEntity
  8
0-4_枠
  6
Continuous
 62
    92
370
    13
100
AcDbLine
 10
2145.918579965285
 20
2145.945943353071
 30
0.0
 11
2145.918579965285
 21
2085.945943353071
 31
0.0
  0
LINE
  5
D4
330
1F
100
AcDbEntity
  8
0-C_ハッチ
  6
Continuous
 62
   120
370
     5
100
AcDbLine
 10
2211.91880266113
 20
2206.621849972578
 30
0.0
 11
2145.918579965285
 21
2140.621994673312
 31
0.0
  0
LINE
  5
D5
330
1F
100
AcDbEntity
  8
0-0_補助線
  6
JWW_HOJO
 62
   120
370
     5
100
AcDbLine
 10
2781.918332525468
 20
2961.945146596839
 30
0.0
 11
2781.918332525468
 21
1086.945146596838
 31
0.0
  0
LINE
  5
D6
330
1F
100
AcDbEntity
  8
0-4_枠
  6
Continuous
 62
    92
370
    13
100
AcDbLine
 10
2031.91857996529
 20
2631.945092160078
 30
0.0
 11
2031.91857996529
 21
2091.94594335307
 31
0.0
  0
LINE
  5
D7
330
1F
100
AcDbEntity
  8
0-B_寸法
  6
Continuous
 62
   120
370
     5
100
AcDbLine
 10
-1287.981947776275
 20
2961.945146596839
 30
0.0
 11
1307.819033462914
 21
2961.945146596839
 31
0.0
  0
LINE
  5
D8
330
1F
100
AcDbEntity
  8
0-B_寸法
  6
Continuous
 62
   120
370
     5
100
AcDbLine
 10
3.918542843318278
 20
1446.945146596839
 30
0.0
 11
15.9185428433193
 21
1446.945146596839
 31
0.0
  0
LINE
  5
D9
330
1F
100
AcDbEntity
  8
0-0_補助線
  6
JWW_HOJO
 62
     7
370
     9
100
AcDbLine
 10
1005.918883076075
 20
906.9451465968384
 30
0.0
 11
1005.918883076075
 21
3141.945146596839
 31
0.0
  0
LINE
  5
DA
330
1F
100
AcDbEntity
  8
0-B_寸法
  6
Continuous
 62
   120
370
     5
100
AcDbLine
 10
2016.91857996529
 20
1446.945146596839
 30
0.0
 11
2016.91857996529
 21
1806.945146596839
 31
0.0
  0
LWPOLYLINE
  5
DB
330
1F
100
AcDbEntity
  8
0-B_寸法
  6
Continuous
 62
     7
370
     9
100
AcDbPolyline
 90
        4
 70
     1
 43
3.0
 10
2018.41857996529
 20
1446.945146596839
 42
0.4142135623731
 10
2016.91857996529
 20
1448.445146596839
 42
0.4142135623731
 10
2015.41857996529
 20
1446.945146596839
 42
0.4142135623731
 10
2016.91857996529
 20
1445.445146596839
 42
0.4142135623731
  0
LINE
  5
DC
330
1F
100
AcDbEntity
  8
0-B_寸法
  6
Continuous
 62
   120
370
     5
100
AcDbLine
 10
15.9185428433193
 20
1446.945146596839
 30
0.0
 11
2016.91857996529
 21
1446.945146596839
 31
0.0
  0
LINE
  5
DD
330
1F
100
AcDbEntity
  8
0-B_寸法
  6
Continuous
 62
   120
370
     5
100
AcDbLine
 10
1008.918883076076
 20
1626.945146596839
 30
0.0
 11
1008.918883076076
 21
1806.945146596839
 31
0.0
  0
LWPOLYLINE
  5
DE
330
1F
100
AcDbEntity
  8
0-B_寸法
  6
Continuous
 62
     7
370
     9
100
AcDbPolyline
 90
        4
 70
     1
 43
3.0
 10
2018.41857996529
 20
1626.945146596839
 42
0.4142135623731
 10
2016.91857996529
 20
1628.445146596839
 42
0.4142135623731
 10
2015.41857996529
 20
1626.945146596839
 42
0.4142135623731
 10
2016.91857996529
 20
1625.445146596839
 42
0.4142135623731
  0
LWPOLYLINE
  5
DF
330
1F
100
AcDbEntity
  8
0-B_寸法
  6
Continuous
 62
     7
370
     9
100
AcDbPolyline
 90
        4
 70
     1
 43
3.0
 10
1010.418883076076
 20
1626.945146596839
 42
0.4142135623731
 10
1008.918883076076
 20
1628.445146596839
 42
0.4142135623731
 10
1007.418883076076
 20
1626.945146596839
 42
0.4142135623731
 10
1008.918883076076
 20
1625.445146596839
 42
0.4142135623731
  0
LINE
  5
E0
330
1F
100
AcDbEntity
  8
0-B_寸法
  6
Continuous
 62
   120
370
     5
100
AcDbLine
 10
1008.918883076076
 20
1626.945146596839
 30
0.0
 11
2016.91857996529
 21
1626.945146596839
 31
0.0
  0
LINE
  5
E1
330
1F
100
AcDbEntity
  8
0-B_寸法
  6
Continuous
 62
   120
370
     5
100
AcDbLine
 10
1307.819033462914
 20
2961.945146596839
 30
0.0
 11
1307.819033462914
 21
2781.94514659684
 31
0.0
  0
LWPOLYLINE
  5
E2
330
1F
100
AcDbEntity
  8
0-B_寸法
  6
Continuous
 62
     7
370
     9
100
AcDbPolyline
 90
        4
 70
     1
 43
3.0
 10
1309.319033462914
 20
2961.945146596839
 42
0.4142135623731
 10
1307.819033462914
 20
2963.445146596838
 42
0.4142135623731
 10
1306.319033462914
 20
2961.945146596839
 42
0.4142135623731
 10
1307.819033462914
 20
2960.445146596839
 42
0.4142135623731
  0
LINE
  5
E3
330
1F
100
AcDbEntity
  8
0-1_通り芯
  6
JWW_CENTER1
 62
   120
370
     5
100
AcDbLine
 10
1307.819033462914
 20
2781.94514659684
 30
0.0
 11
1307.819033462914
 21
2528.529114612094
 31
0.0
  0
ARC
  5
E4
330
1F
100
AcDbEntity
  8
0-6_扉
  6
JWW_DASHED2
 62
    40
370
    15
100
AcDbCircle
 10
1325.767276046323
 20
2527.165080826899
 30
0.0
 40
18.0
100
AcDbArc
 50
94.34602072163928
 51
184.346020721639
  0
LINE
  5
E5
330
1F
100
AcDbEntity
  8
0-6_扉
  6
JWW_DASHED2
 62
    40
370
    15
100
AcDbLine
 10
1450.040940344983
 20
2554.661559906661
 30
0.0
 11
1324.40324226113
 21
2545.113323410306
 31
0.0
  0
ARC
  5
E6
330
1F
100
AcDbEntity
  8
0-6_扉
  6
JWW_DASHED2
 62
    40
370
    15
100
AcDbCircle
 10
1451.404974130176
 20
2536.713317323253
 30
0.0
 40
18.0
100
AcDbArc
 50
4.346020721638936
 51
94.34602072163932
  0
ARC
  5
E7
330
1F
100
AcDbEntity
  8
0-6_扉
  6
JWW_DASHED2
 62
    40
370
    15
100
AcDbCircle
 10
1776.683915935969
 20
2538.077351108446
 30
0.0
 40
18.0
100
AcDbArc
 50
85.65397927835929
 51
175.6539792783603
  0
LINE
  5
E8
330
1F
100
AcDbEntity
  8
0-6_扉
  6
JWW_DASHED2
 62
    40
370
    15
100
AcDbLine
 10
1903.685647805018
 20
2546.477357195496
 30
0.0
 11
1778.047949721162
 21
2556.025593691853
 31
0.0
  0
ARC
  5
E9
330
1F
100
AcDbEntity
  8
0-6_扉
  6
JWW_DASHED2
 62
    40
370
    15
100
AcDbCircle
 10
1902.321614019825
 20
2528.529114612089
 30
0.0
 40
18.0
100
AcDbArc
 50
355.6539792783596
 51
85.65397927835919
  0
LINE
  5
EA
330
1F
100
AcDbEntity
  8
0-6_扉
  6
JWW_DASHED2
 62
    40
370
    15
100
AcDbLine
 10
1307.819033462914
 20
2525.801047041704
 30
0.0
 11
1341.247221166135
 21
2085.945943353071
 31
0.0
  0
LINE
  5
EB
330
1F
100
AcDbEntity
  8
0-6_扉
  6
JWW_DASHED2
 62
    40
370
    15
100
AcDbLine
 10
1920.269856603231
 20
2527.165080826893
 30
0.0
 11
1886.738004813756
 21
2085.945943353071
 31
0.0
  0
LINE
  5
EC
330
1F
100
AcDbEntity
  8
0-6_扉
  6
JWW_DASHED2
 62
    40
370
    15
100
AcDbLine
 10
1469.353216713581
 20
2538.077351108446
 30
0.0
 11
1503.714381193021
 21
2085.945943353071
 31
0.0
  0
LINE
  5
ED
330
1F
100
AcDbEntity
  8
0-6_扉
  6
JWW_DASHED2
 62
    40
370
    15
100
AcDbLine
 10
1758.735673352564
 20
2539.441384893638
 30
0.0
 11
1724.270844786867
 21
2085.945943353071
 31
0.0
  0
LINE
  5
EE
330
1F
100
AcDbEntity
  8
0-6_扉
  6
Continuous
 62
   200
370
    20
100
AcDbLine
 10
1008.918883076076
 20
2442.946443181512
 30
0.0
 11
1008.918883076076
 21
2280.94514659684
 31
0.0
  0
LINE
  5
EF
330
1F
100
AcDbEntity
  8
0-6_扉
  6
Continuous
 62
   200
370
    20
100
AcDbLine
 10
1008.918883076076
 20
2280.94514659684
 30
0.0
 11
1473.919071750438
 21
2280.94514659684
 31
0.0
  0
LINE
  5
F0
330
1F
100
AcDbEntity
  8
0-6_扉
  6
Continuous
 62
   200
370
    20
100
AcDbLine
 10
1008.918883076076
 20
2442.946443181512
 30
0.0
 11
1473.919071750438
 21
2442.946443181512
 31
0.0
  0
LINE
  5
F1
330
1F
100
AcDbEntity
  8
0-0_補助線
  6
JWW_HOJO
 62
     7
370
     9
100
AcDbLine
 10
1473.919071750438
 20
2442.946443181512
 30
0.0
 11
1473.919071750438
 21
2280.94514659684
 31
0.0
  0
LINE
  5
F2
330
1F
100
AcDbEntity
  8
0-0_補助線
  6
JWW_HOJO
 62
     7
370
     9
100
AcDbLine
 10
1533.919071750438
 20
2442.946443181512
 30
0.0
 11
1533.919071750438
 21
2280.94514659684
 31
0.0
  0
LINE
  5
F3
330
1F
100
AcDbEntity
  8
0-6_扉
  6
Continuous
 62
   200
370
    20
100
AcDbLine
 10
1533.919071750438
 20
2280.94514659684
 30
0.0
 11
2016.91857996529
 21
2280.94514659684
 31
0.0
  0
LINE
  5
F4
330
1F
100
AcDbEntity
  8
0-6_扉
  6
Continuous
 62
   200
370
    20
100
AcDbLine
 10
1533.919071750438
 20
2442.946443181512
 30
0.0
 11
2016.91857996529
 21
2442.946443181512
 31
0.0
  0
LINE
  5
F5
330
1F
100
AcDbEntity
  8
0-6_扉
  6
Continuous
 62
   200
370
    20
100
AcDbLine
 10
2016.918530477328
 20
2442.946443181512
 30
0.0
 11
2016.918530477328
 21
2280.94514659684
 31
0.0
  0
LINE
  5
F6
330
1F
100
AcDbEntity
  8
0-6_扉
  6
Continuous
 62
   200
370
    20
100
AcDbLine
 10
2016.91857996529
 20
2442.946443181512
 30
0.0
 11
2016.91857996529
 21
2280.94514659684
 31
0.0
  0
LINE
  5
F7
330
1F
100
AcDbEntity
  8
0-0_補助線
  6
JWW_HOJO
 62
     7
370
     9
100
AcDbLine
 10
2001.919223308831
 20
906.9451465968384
 30
0.0
 11
2001.919223308831
 21
3141.945146596839
 31
0.0
  0
CIRCLE
  5
F8
330
1F
100
AcDbEntity
  8
0-A_文字
  6
Continuous
 62
     7
370
     9
100
AcDbCircle
 10
1005.918845960103
 20
2472.94514659684
 30
0.0
 40
21.00000000000001
  0
CIRCLE
  5
F9
330
1F
100
AcDbEntity
  8
0-A_文字
  6
Continuous
 62
     7
370
     9
100
AcDbCircle
 10
1005.918845960103
 20
2472.94514659684
 30
0.0
 40
30.0
  0
LINE
  5
FA
330
1F
100
AcDbEntity
  8
0-6_扉
  6
Continuous
 62
   200
370
    20
100
AcDbLine
 10
1002.918883076075
 20
2442.946443181512
 30
0.0
 11
1002.918883076075
 21
2280.94514659684
 31
0.0
  0
LINE
  5
FB
330
1F
100
AcDbEntity
  8
0-6_扉
  6
Continuous
 62
   200
370
    20
100
AcDbLine
 10
537.9186944017124
 20
2280.94514659684
 30
0.0
 11
1002.918883076075
 21
2280.94514659684
 31
0.0
  0
LINE
  5
FC
330
1F
100
AcDbEntity
  8
0-0_補助線
  6
JWW_HOJO
 62
     7
370
     9
100
AcDbLine
 10
537.9186944017124
 20
2442.946443181512
 30
0.0
 11
537.9186944017124
 21
2280.94514659684
 31
0.0
  0
LINE
  5
FD
330
1F
100
AcDbEntity
  8
0-6_扉
  6
Continuous
 62
   200
370
    20
100
AcDbLine
 10
537.9186944017124
 20
2442.946443181512
 30
0.0
 11
1002.918883076075
 21
2442.946443181512
 31
0.0
  0
LINE
  5
FE
330
1F
100
AcDbEntity
  8
0-0_補助線
  6
JWW_HOJO
 62
     7
370
     9
100
AcDbLine
 10
477.9186944017124
 20
2442.946443181512
 30
0.0
 11
477.9186944017124
 21
2280.94514659684
 31
0.0
  0
LINE
  5
FF
330
1F
100
AcDbEntity
  8
0-6_扉
  6
Continuous
 62
   200
370
    20
100
AcDbLine
 10
15.9185428433193
 20
2442.946443181512
 30
0.0
 11
477.9186944017124
 21
2442.946443181512
 31
0.0
  0
LINE
  5
100
330
1F
100
AcDbEntity
  8
0-6_扉
  6
Continuous
 62
   200
370
    20
100
AcDbLine
 10
15.9185428433193
 20
2280.94514659684
 30
0.0
 11
477.9186944017124
 21
2280.94514659684
 31
0.0
  0
LINE
  5
101
330
1F
100
AcDbEntity
  8
0-6_扉
  6
Continuous
 62
   200
370
    20
100
AcDbLine
 10
15.9185428433193
 20
2280.94514659684
 30
0.0
 11
15.9185428433193
 21
2442.946443181512
 31
0.0
  0
LINE
  5
102
330
1F
100
AcDbEntity
  8
0-B_寸法
  6
Continuous
 62
   120
370
     5
100
AcDbLine
 10
15.9185428433193
 20
1626.945146596839
 30
0.0
 11
1002.918883076075
 21
1626.945146596839
 31
0.0
  0
LWPOLYLINE
  5
103
330
1F
100
AcDbEntity
  8
0-B_寸法
  6
Continuous
 62
     7
370
     9
100
AcDbPolyline
 90
        4
 70
     1
 43
3.0
 10
17.4185428433193
 20
1626.945146596839
 42
0.4142135623731
 10
15.9185428433193
 20
1628.445146596839
 42
0.4142135623731
 10
14.4185428433193
 20
1626.945146596839
 42
0.4142135623731
 10
15.9185428433193
 20
1625.445146596839
 42
0.4142135623731
  0
LWPOLYLINE
  5
104
330
1F
100
AcDbEntity
  8
0-B_寸法
  6
Continuous
 62
     7
370
     9
100
AcDbPolyline
 90
        4
 70
     1
 43
3.0
 10
1004.418883076074
 20
1626.945146596839
 42
0.4142135623731
 10
1002.918883076075
 20
1628.445146596839
 42
0.4142135623731
 10
1001.418883076075
 20
1626.945146596839
 42
0.4142135623731
 10
1002.918883076075
 20
1625.445146596839
 42
0.4142135623731
  0
LINE
  5
105
330
1F
100
AcDbEntity
  8
0-B_寸法
  6
Continuous
 62
   120
370
     5
100
AcDbLine
 10
1002.918883076075
 20
1626.945146596839
 30
0.0
 11
1002.918883076075
 21
1806.945146596839
 31
0.0
  0
LWPOLYLINE
  5
106
330
1F
100
AcDbEntity
  8
0-B_寸法
  6
Continuous
 62
     7
370
     9
100
AcDbPolyline
 90
        4
 70
     1
 43
3.0
 10
17.4185428433193
 20
1446.945146596839
 42
0.4142135623731
 10
15.9185428433193
 20
1448.445146596839
 42
0.4142135623731
 10
14.4185428433193
 20
1446.945146596839
 42
0.4142135623731
 10
15.9185428433193
 20
1445.445146596839
 42
0.4142135623731
  0
LINE
  5
107
330
1F
100
AcDbEntity
  8
0-B_寸法
  6
Continuous
 62
   120
370
     5
100
AcDbLine
 10
15.9185428433193
 20
1446.945146596839
 30
0.0
 11
15.9185428433193
 21
1806.945146596839
 31
0.0
  0
LINE
  5
108
330
1F
100
AcDbEntity
  8
0-B_寸法
  6
Continuous
 62
   120
370
     5
100
AcDbLine
 10
-2012.081444790688
 20
2324.35919630438
 30
0.0
 11
-1997.081444790688
 21
2324.35919630438
 31
0.0
  0
LINE
  5
109
330
1F
100
AcDbEntity
  8
0-B_寸法
  6
Continuous
 62
   120
370
     5
100
AcDbLine
 10
-2012.081444790688
 20
2405.688459527563
 30
0.0
 11
-2012.081444790688
 21
2324.35919630438
 31
0.0
  0
LWPOLYLINE
  5
10A
330
1F
100
AcDbEntity
  8
0-B_寸法
  6
Continuous
 62
     7
370
     9
100
AcDbPolyline
 90
        4
 70
     1
 43
3.0
 10
-2010.581444790688
 20
2324.35919630438
 42
0.4142135623731
 10
-2012.081444790688
 20
2325.85919630438
 42
0.4142135623731
 10
-2013.581444790688
 20
2324.35919630438
 42
0.4142135623731
 10
-2012.081444790688
 20
2322.85919630438
 42
0.4142135623731
  0
LINE
  5
10B
330
1F
100
AcDbEntity
  8
0-0_補助線
  6
JWW_HOJO
 62
   120
370
     5
100
AcDbLine
 10
-2762.081197362862
 20
2961.945146596839
 30
0.0
 11
-2762.081197362862
 21
1086.945146596838
 31
0.0
  0
LINE
  5
10C
330
1F
100
AcDbEntity
  8
0-B_寸法
  6
Continuous
 62
   120
370
     5
100
AcDbLine
 10
-2162.081395314724
 20
1806.945146596839
 30
0.0
 11
-2162.081395314724
 21
1986.945146596839
 31
0.0
  0
LINE
  5
10D
330
1F
100
AcDbEntity
  8
0-B_寸法
  6
Continuous
 62
   120
370
     5
100
AcDbLine
 10
-2126.081395314723
 20
1806.945146596839
 30
0.0
 11
-2126.081395314723
 21
1986.945146596839
 31
0.0
  0
LINE
  5
10E
330
1F
100
AcDbEntity
  8
0-B_寸法
  6
Continuous
 62
   120
370
     5
100
AcDbLine
 10
-2072.081395314724
 20
1806.945146596839
 30
0.0
 11
-2072.081395314724
 21
1986.945146596839
 31
0.0
  0
LINE
  5
10F
330
1F
100
AcDbEntity
  8
0-B_寸法
  6
Continuous
 62
   120
370
     5
100
AcDbLine
 10
-2012.081395314724
 20
1806.945146596839
 30
0.0
 11
-2192.081618010562
 21
1806.945146596839
 31
0.0
  0
LWPOLYLINE
  5
110
330
1F
100
AcDbEntity
  8
0-B_寸法
  6
Continuous
 62
     7
370
     9
100
AcDbPolyline
 90
        4
 70
     1
 43
3.0
 10
-2190.581618010562
 20
1806.945146596839
 42
0.4142135623731
 10
-2192.081618010562
 20
1808.445146596839
 42
0.4142135623731
 10
-2193.581618010562
 20
1806.945146596839
 42
0.4142135623731
 10
-2192.081618010562
 20
1805.445146596839
 42
0.4142135623731
  0
LWPOLYLINE
  5
111
330
1F
100
AcDbEntity
  8
0-B_寸法
  6
Continuous
 62
     7
370
     9
100
AcDbPolyline
 90
        4
 70
     1
 43
3.0
 10
-2160.581395314724
 20
1806.945146596839
 42
0.4142135623731
 10
-2162.081395314724
 20
1808.445146596839
 42
0.4142135623731
 10
-2163.581395314724
 20
1806.945146596839
 42
0.4142135623731
 10
-2162.081395314724
 20
1805.445146596839
 42
0.4142135623731
  0
LWPOLYLINE
  5
112
330
1F
100
AcDbEntity
  8
0-B_寸法
  6
Continuous
 62
     7
370
     9
100
AcDbPolyline
 90
        4
 70
     1
 43
3.0
 10
-2124.581395314723
 20
1806.945146596839
 42
0.4142135623731
 10
-2126.081395314723
 20
1808.445146596839
 42
0.4142135623731
 10
-2127.581395314723
 20
1806.945146596839
 42
0.4142135623731
 10
-2126.081395314723
 20
1805.445146596839
 42
0.4142135623731
  0
LWPOLYLINE
  5
113
330
1F
100
AcDbEntity
  8
0-B_寸法
  6
Continuous
 62
     7
370
     9
100
AcDbPolyline
 90
        4
 70
     1
 43
3.0
 10
-2070.581395314724
 20
1806.945146596839
 42
0.4142135623731
 10
-2072.081395314724
 20
1808.445146596839
 42
0.4142135623731
 10
-2073.581395314724
 20
1806.945146596839
 42
0.4142135623731
 10
-2072.081395314724
 20
1805.445146596839
 42
0.4142135623731
  0
LWPOLYLINE
  5
114
330
1F
100
AcDbEntity
  8
0-B_寸法
  6
Continuous
 62
     7
370
     9
100
AcDbPolyline
 90
        4
 70
     1
 43
3.0
 10
-2010.581395314725
 20
1806.945146596839
 42
0.4142135623731
 10
-2012.081395314724
 20
1808.445146596839
 42
0.4142135623731
 10
-2013.581395314724
 20
1806.945146596839
 42
0.4142135623731
 10
-2012.081395314724
 20
1805.445146596839
 42
0.4142135623731
  0
LINE
  5
115
330
1F
100
AcDbEntity
  8
0-C_ハッチ
  6
Continuous
 62
   120
370
     5
100
AcDbLine
 10
-2192.081667486532
 20
2206.621849972578
 30
0.0
 11
-2126.081444790687
 21
2140.621994673312
 31
0.0
  0
LINE
  5
116
330
1F
100
AcDbEntity
  8
0-4_枠
  6
Continuous
 62
    92
370
    13
100
AcDbLine
 10
-2072.081444790688
 20
2145.945943353071
 30
0.0
 11
-2072.081444790688
 21
2085.945943353071
 31
0.0
  0
LINE
  5
117
330
1F
100
AcDbEntity
  8
0-4_枠
  6
Continuous
 62
    92
370
    13
100
AcDbLine
 10
-2072.081444790688
 20
2145.945943353071
 30
0.0
 11
-2126.081444790687
 21
2145.945943353071
 31
0.0
  0
LINE
  5
118
330
1F
100
AcDbEntity
  8
0-4_枠
  6
Continuous
 62
    92
370
    13
100
AcDbLine
 10
-2126.081444790687
 20
2145.945943353071
 30
0.0
 11
-2126.081444790687
 21
2085.945943353071
 31
0.0
  0
LINE
  5
119
330
1F
100
AcDbEntity
  8
0-C_ハッチ
  6
Continuous
 62
   120
370
     5
100
AcDbLine
 10
-2192.081444790688
 20
2588.278201642294
 30
0.0
 11
-2190.414554272907
 21
2589.945092160074
 31
0.0
  0
LINE
  5
11A
330
1F
100
AcDbEntity
  8
0-4_枠
  6
Continuous
 62
    92
370
    13
100
AcDbLine
 10
-2018.081444790685
 20
2637.945092160078
 30
0.0
 11
-2012.081444790688
 21
2631.945092160078
 31
0.0
  0
LINE
  5
11B
330
1F
100
AcDbEntity
  8
0-4_枠
  6
Continuous
 62
    92
370
    13
100
AcDbLine
 10
-2012.081444790688
 20
2631.945092160078
 30
0.0
 11
-2012.081444790688
 21
2091.94594335307
 31
0.0
  0
LINE
  5
11C
330
1F
100
AcDbEntity
  8
0-4_枠
  6
Continuous
 62
    92
370
    13
100
AcDbLine
 10
-2018.081444790685
 20
2637.945092160078
 30
0.0
 11
-2192.081444790688
 21
2637.945092160078
 31
0.0
  0
LINE
  5
11D
330
1F
100
AcDbEntity
  8
0-4_枠
  6
Continuous
 62
    92
370
    13
100
AcDbLine
 10
-2012.081444790688
 20
2091.94594335307
 30
0.0
 11
-2018.081444790685
 21
2085.945943353071
 31
0.0
  0
LINE
  5
11E
330
1F
100
AcDbEntity
  8
0-4_枠
  6
Continuous
 62
    92
370
    13
100
AcDbLine
 10
-2018.081444790685
 20
2085.945943353071
 30
0.0
 11
-2072.081444790688
 21
2085.945943353071
 31
0.0
  0
LINE
  5
11F
330
1F
100
AcDbEntity
  8
0-C_ハッチ
  6
Continuous
 62
   120
370
     5
100
AcDbLine
 10
-2162.081444790688
 20
2091.768740539306
 30
0.0
 11
-2156.258615191112
 21
2085.945943353071
 31
0.0
  0
LINE
  5
120
330
1F
100
AcDbEntity
  8
0-C_ハッチ
  6
Continuous
 62
   120
370
     5
100
AcDbLine
 10
-2192.081667486532
 20
2546.033322602435
 30
0.0
 11
-2012.081444790688
 21
2366.032728746862
 31
0.0
  0
LINE
  5
121
330
1F
100
AcDbEntity
  8
0-C_ハッチ
  6
Continuous
 62
   120
370
     5
100
AcDbLine
 10
-2012.081444790688
 20
2196.327363591666
 30
0.0
 11
-2192.081667486532
 21
2376.327957447241
 31
0.0
  0
LINE
  5
122
330
1F
100
AcDbEntity
  8
0-C_ハッチ
  6
Continuous
 62
   120
370
     5
100
AcDbLine
 10
-2012.081444790688
 20
2281.180417328997
 30
0.0
 11
-2192.081667486532
 21
2461.180268865103
 31
0.0
  0
LINE
  5
123
330
1F
100
AcDbEntity
  8
0-C_ハッチ
  6
Continuous
 62
   120
370
     5
100
AcDbLine
 10
-2192.081667486532
 20
2291.47490370991
 30
0.0
 11
-2012.081444790688
 21
2111.475052173804
 31
0.0
  0
LINE
  5
124
330
1F
100
AcDbEntity
  8
0-C_ハッチ
  6
Continuous
 62
   120
370
     5
100
AcDbLine
 10
-2192.081667486532
 20
2630.886376339766
 30
0.0
 11
-2012.081444790688
 21
2450.88652480366
 31
0.0
  0
LINE
  5
125
330
1F
100
AcDbEntity
  8
0-C_ハッチ
  6
Continuous
 62
   120
370
     5
100
AcDbLine
 10
-2114.287700729245
 20
2637.945092160078
 30
0.0
 11
-2012.081444790688
 21
2535.739578540991
 31
0.0
  0
LINE
  5
126
330
1F
100
AcDbEntity
  8
0-4_枠
  6
Continuous
 62
    92
370
    13
100
AcDbLine
 10
-2126.081444790687
 20
2085.945943353071
 30
0.0
 11
-2162.081444790688
 21
2085.945943353071
 31
0.0
  0
LINE
  5
127
330
1F
100
AcDbEntity
  8
0-4_枠
  6
Continuous
 62
    92
370
    13
100
AcDbLine
 10
-2162.081444790688
 20
2127.945943353069
 30
0.0
 11
-2162.081444790688
 21
2085.945943353071
 31
0.0
  0
LINE
  5
128
330
1F
100
AcDbEntity
  8
0-4_枠
  6
Continuous
 62
    92
370
    13
100
AcDbLine
 10
-2162.081444790688
 20
2127.945943353069
 30
0.0
 11
-2192.081444790688
 21
2127.945943353069
 31
0.0
  0
LINE
  5
129
330
1F
100
AcDbEntity
  8
0-4_枠
  6
Continuous
 62
    92
370
    13
100
AcDbLine
 10
-2192.081444790688
 20
2637.945092160078
 30
0.0
 11
-2192.081444790688
 21
2127.945943353069
 31
0.0
  0
LINE
  5
12A
330
1F
100
AcDbEntity
  8
0-7_金物
  6
Continuous
 62
     7
370
     9
100
AcDbLine
 10
-2210.081107189972
 20
2271.94484332841
 30
0.0
 11
-2210.081107189972
 21
2451.944705999304
 31
0.0
  0
LINE
  5
12B
330
1F
100
AcDbEntity
  8
0-7_金物
  6
Continuous
 62
     7
370
     9
100
AcDbLine
 10
-2222.081444790676
 20
2451.944705999304
 30
0.0
 11
-2210.081107189972
 21
2451.944705999304
 31
0.0
  0
LINE
  5
12C
330
1F
100
AcDbEntity
  8
0-7_金物
  6
Continuous
 62
     7
370
     9
100
AcDbLine
 10
-2222.081444790676
 20
2271.94484332841
 30
0.0
 11
-2210.081107189972
 21
2271.94484332841
 31
0.0
  0
LINE
  5
12D
330
1F
100
AcDbEntity
  8
0-7_金物
  6
Continuous
 62
     7
370
     9
100
AcDbLine
 10
-2222.081444790676
 20
2271.94484332841
 30
0.0
 11
-2222.081444790676
 21
2451.944705999304
 31
0.0
  0
LINE
  5
12E
330
1F
100
AcDbEntity
  8
0-7_金物
  6
Continuous
 62
     7
370
     9
100
AcDbLine
 10
-2210.081107189972
 20
2301.944946325233
 30
0.0
 11
-2198.081513455229
 21
2301.944946325233
 31
0.0
  0
LINE
  5
12F
330
1F
100
AcDbEntity
  8
0-7_金物
  6
Continuous
 62
     7
370
     9
100
AcDbLine
 10
-2210.081107189972
 20
2421.944603002479
 30
0.0
 11
-2198.081513455229
 21
2421.944603002479
 31
0.0
  0
LINE
  5
130
330
1F
100
AcDbEntity
  8
0-7_金物
  6
Continuous
 62
     7
370
     9
100
AcDbLine
 10
-2198.081513455229
 20
2301.944946325233
 30
0.0
 11
-2198.081513455229
 21
2421.944603002479
 31
0.0
  0
LINE
  5
131
330
1F
100
AcDbEntity
  8
0-7_金物
  6
Continuous
 62
     7
370
     9
100
AcDbLine
 10
-2198.081513455229
 20
2307.945112264564
 30
0.0
 11
-2192.081444790688
 21
2307.945112264564
 31
0.0
  0
LINE
  5
132
330
1F
100
AcDbEntity
  8
0-7_金物
  6
Continuous
 62
     7
370
     9
100
AcDbLine
 10
-2192.081444790688
 20
2415.945180929115
 30
0.0
 11
-2198.081513455229
 21
2415.945180929115
 31
0.0
  0
MTEXT
  5
133
330
1F
100
AcDbEntity
  8
0-B_寸法
  6
Continuous
 62
     7
370
   211
100
AcDbMText
 10
-1763.081670572028
 20
1627.665146596839
 30
0.0
 40
91.43999999999998
 41
540.0
 46
0.0
 71
     7
 72
     1
  1
{\fＭＳ ゴシック|b0|i0|c128|p49;ＤＷ＝394}
 73
     1
 44
1.0
  0
MTEXT
  5
134
330
1F
100
AcDbEntity
  8
0-B_寸法
  6
Continuous
 62
     7
370
   211
100
AcDbMText
 10
-759.5816272730576
 20
1627.665146596839
 30
0.0
 40
91.43999999999998
 41
540.0
 46
0.0
 71
     7
 72
     1
  1
{\fＭＳ ゴシック|b0|i0|c128|p49;ＤＷ＝394}
 73
     1
 44
1.0
  0
MTEXT
  5
135
330
1F
100
AcDbEntity
  8
0-B_寸法
  6
Continuous
 62
     7
370
   211
100
AcDbMText
 10
239.4187129596969
 20
1627.665146596839
 30
0.0
 40
91.43999999999998
 41
540.0
 46
0.0
 71
     7
 72
     1
  1
{\fＭＳ ゴシック|b0|i0|c128|p49;ＤＷ＝394}
 73
     1
 44
1.0
  0
LINE
  5
136
330
1F
100
AcDbEntity
  8
0-B_寸法
  6
Continuous
 62
   120
370
     5
100
AcDbLine
 10
-2192.081444790688
 20
1266.945146596838
 30
0.0
 11
-2012.081444790688
 21
1266.945146596838
 31
0.0
  0
LWPOLYLINE
  5
137
330
1F
100
AcDbEntity
  8
0-B_寸法
  6
Continuous
 62
     7
370
     9
100
AcDbPolyline
 90
        4
 70
     1
 43
3.0
 10
-2190.581444790688
 20
1266.945146596838
 42
0.4142135623731
 10
-2192.081444790688
 20
1268.445146596838
 42
0.4142135623731
 10
-2193.581444790688
 20
1266.945146596838
 42
0.4142135623731
 10
-2192.081444790688
 20
1265.445146596839
 42
0.4142135623731
  0
LWPOLYLINE
  5
138
330
1F
100
AcDbEntity
  8
0-B_寸法
  6
Continuous
 62
     7
370
     9
100
AcDbPolyline
 90
        4
 70
     1
 43
3.0
 10
-2010.581444790688
 20
1266.945146596838
 42
0.4142135623731
 10
-2012.081444790688
 20
1268.445146596838
 42
0.4142135623731
 10
-2013.581444790688
 20
1266.945146596838
 42
0.4142135623731
 10
-2012.081444790688
 20
1265.445146596839
 42
0.4142135623731
  0
LINE
  5
139
330
1F
100
AcDbEntity
  8
0-B_寸法
  6
Continuous
 62
   120
370
     5
100
AcDbLine
 10
-2012.081444790688
 20
1266.945146596838
 30
0.0
 11
-2012.081444790688
 21
1986.945146596839
 31
0.0
  0
MTEXT
  5
13A
330
1F
100
AcDbEntity
  8
0-B_寸法
  6
Continuous
 62
     7
370
   211
100
AcDbMText
 10
1242.918731520682
 20
1627.665146596839
 30
0.0
 40
91.43999999999998
 41
540.0
 46
0.0
 71
     7
 72
     1
  1
{\fＭＳ ゴシック|b0|i0|c128|p49;ＤＷ＝394}
 73
     1
 44
1.0
  0
LINE
  5
13B
330
1F
100
AcDbEntity
  8
0-B_寸法
  6
Continuous
 62
   120
370
     5
100
AcDbLine
 10
-2222.081444790676
 20
1086.945146596838
 30
0.0
 11
-2192.081444790688
 21
1086.945146596838
 31
0.0
  0
LWPOLYLINE
  5
13C
330
1F
100
AcDbEntity
  8
0-B_寸法
  6
Continuous
 62
     7
370
     9
100
AcDbPolyline
 90
        4
 70
     1
 43
3.0
 10
-2220.581444790676
 20
1086.945146596838
 42
0.4142135623731
 10
-2222.081444790676
 20
1088.445146596838
 42
0.4142135623731
 10
-2223.581444790676
 20
1086.945146596838
 42
0.4142135623731
 10
-2222.081444790676
 20
1085.445146596839
 42
0.4142135623731
  0
LWPOLYLINE
  5
13D
330
1F
100
AcDbEntity
  8
0-B_寸法
  6
Continuous
 62
     7
370
     9
100
AcDbPolyline
 90
        4
 70
     1
 43
3.0
 10
-2190.581444790688
 20
1086.945146596838
 42
0.4142135623731
 10
-2192.081444790688
 20
1088.445146596838
 42
0.4142135623731
 10
-2193.581444790688
 20
1086.945146596838
 42
0.4142135623731
 10
-2192.081444790688
 20
1085.445146596839
 42
0.4142135623731
  0
LINE
  5
13E
330
1F
100
AcDbEntity
  8
0-B_寸法
  6
Continuous
 62
   120
370
     5
100
AcDbLine
 10
-2222.081444790676
 20
1086.945146596838
 30
0.0
 11
-2222.081444790676
 21
1986.945146596839
 31
0.0
  0
LINE
  5
13F
330
1F
100
AcDbEntity
  8
0-B_寸法
  6
Continuous
 62
   120
370
     5
100
AcDbLine
 10
-2192.081444790688
 20
1086.945146596838
 30
0.0
 11
-2192.081444790688
 21
1986.945146596839
 31
0.0
  0
MTEXT
  5
140
330
1F
100
AcDbEntity
  8
0-B_寸法
  6
Continuous
 62
     7
370
   211
100
AcDbMText
 10
-1446.581463339678
 20
1447.665146596839
 30
0.0
 40
91.43999999999998
 41
900.0
 46
0.0
 71
     7
 72
     1
  1
{\fＭＳ ゴシック|b0|i0|c128|p49;折戸：ＤＷ＝789}
 73
     1
 44
1.0
  0
LINE
  5
141
330
1F
100
AcDbEntity
  8
0-B_寸法
  6
Continuous
 62
   120
370
     5
100
AcDbLine
 10
-1997.081444790688
 20
2405.688459527563
 30
0.0
 11
-1997.081444790688
 21
2324.35919630438
 31
0.0
  0
LWPOLYLINE
  5
142
330
1F
100
AcDbEntity
  8
0-B_寸法
  6
Continuous
 62
     7
370
     9
100
AcDbPolyline
 90
        4
 70
     1
 43
3.0
 10
-1995.581444790688
 20
2324.35919630438
 42
0.4142135623731
 10
-1997.081444790688
 20
2325.85919630438
 42
0.4142135623731
 10
-1998.581444790688
 20
2324.35919630438
 42
0.4142135623731
 10
-1997.081444790688
 20
2322.85919630438
 42
0.4142135623731
  0
LINE
  5
143
330
1F
100
AcDbEntity
  8
0-0_補助線
  6
JWW_HOJO
 62
     7
370
     9
100
AcDbLine
 10
-1982.082137622193
 20
906.9451465968384
 30
0.0
 11
-1982.082137622193
 21
3141.945146596839
 31
0.0
  0
LINE
  5
144
330
1F
100
AcDbEntity
  8
0-1_通り芯
  6
JWW_CENTER1
 62
   120
370
     5
100
AcDbLine
 10
-1287.981947776275
 20
2781.94514659684
 30
0.0
 11
-1287.981947776275
 21
2528.529114612094
 31
0.0
  0
LINE
  5
145
330
1F
100
AcDbEntity
  8
0-B_寸法
  6
Continuous
 62
   120
370
     5
100
AcDbLine
 10
-1287.981947776275
 20
2961.945146596839
 30
0.0
 11
-1287.981947776275
 21
2781.94514659684
 31
0.0
  0
LWPOLYLINE
  5
146
330
1F
100
AcDbEntity
  8
0-B_寸法
  6
Continuous
 62
     7
370
     9
100
AcDbPolyline
 90
        4
 70
     1
 43
3.0
 10
-1286.481947776275
 20
2961.945146596839
 42
0.4142135623731
 10
-1287.981947776275
 20
2963.445146596838
 42
0.4142135623731
 10
-1289.481947776275
 20
2961.945146596839
 42
0.4142135623731
 10
-1287.981947776275
 20
2960.445146596839
 42
0.4142135623731
  0
LINE
  5
147
330
1F
100
AcDbEntity
  8
0-6_扉
  6
JWW_DASHED2
 62
    40
370
    15
100
AcDbLine
 10
-1738.898587665926
 20
2539.441384893638
 30
0.0
 11
-1704.43375910023
 21
2085.945943353071
 31
0.0
  0
LINE
  5
148
330
1F
100
AcDbEntity
  8
0-6_扉
  6
JWW_DASHED2
 62
    40
370
    15
100
AcDbLine
 10
-1449.516131026942
 20
2538.077351108446
 30
0.0
 11
-1483.877295506381
 21
2085.945943353071
 31
0.0
  0
LINE
  5
149
330
1F
100
AcDbEntity
  8
0-6_扉
  6
JWW_DASHED2
 62
    40
370
    15
100
AcDbLine
 10
-1900.432770916593
 20
2527.165080826893
 30
0.0
 11
-1866.90091912712
 21
2085.945943353071
 31
0.0
  0
LINE
  5
14A
330
1F
100
AcDbEntity
  8
0-6_扉
  6
JWW_DASHED2
 62
    40
370
    15
100
AcDbLine
 10
-1287.981947776275
 20
2525.801047041704
 30
0.0
 11
-1321.410135479496
 21
2085.945943353071
 31
0.0
  0
ARC
  5
14B
330
1F
100
AcDbEntity
  8
0-6_扉
  6
JWW_DASHED2
 62
    40
370
    15
100
AcDbCircle
 10
-1882.484528333188
 20
2528.529114612089
 30
0.0
 40
18.0
100
AcDbArc
 50
94.34602072164084
 51
184.3460207216404
  0
LINE
  5
14C
330
1F
100
AcDbEntity
  8
0-6_扉
  6
JWW_DASHED2
 62
    40
370
    15
100
AcDbLine
 10
-1883.84856211838
 20
2546.477357195496
 30
0.0
 11
-1758.210864034525
 21
2556.025593691853
 31
0.0
  0
ARC
  5
14D
330
1F
100
AcDbEntity
  8
0-6_扉
  6
JWW_DASHED2
 62
    40
370
    15
100
AcDbCircle
 10
-1756.846830249332
 20
2538.077351108446
 30
0.0
 40
18.0
100
AcDbArc
 50
4.346020721639738
 51
94.3460207216407
  0
ARC
  5
14E
330
1F
100
AcDbEntity
  8
0-6_扉
  6
JWW_DASHED2
 62
    40
370
    15
100
AcDbCircle
 10
-1431.567888443538
 20
2536.713317323253
 30
0.0
 40
18.0
100
AcDbArc
 50
85.6539792783607
 51
175.6539792783611
  0
LINE
  5
14F
330
1F
100
AcDbEntity
  8
0-6_扉
  6
JWW_DASHED2
 62
    40
370
    15
100
AcDbLine
 10
-1430.203854658344
 20
2554.661559906661
 30
0.0
 11
-1304.566156574493
 21
2545.113323410306
 31
0.0
  0
ARC
  5
150
330
1F
100
AcDbEntity
  8
0-6_扉
  6
JWW_DASHED2
 62
    40
370
    15
100
AcDbCircle
 10
-1305.930190359684
 20
2527.165080826899
 30
0.0
 40
18.0
100
AcDbArc
 50
355.653979278361
 51
85.65397927836072
  0
MTEXT
  5
151
330
1F
100
AcDbEntity
  8
0-B_寸法
  6
Continuous
 62
     7
370
   211
100
AcDbMText
 10
-71.01590454956067
 20
1447.665146596839
 30
0.0
 40
91.44
 41
60.0
 46
0.0
 71
     7
 72
     1
  1
{\fＭＳ ゴシック|b0|i0|c128|p49;2}
 73
     1
 44
1.0
  0
MTEXT
  5
152
330
1F
100
AcDbEntity
  8
0-B_寸法
  6
Continuous
 62
     7
370
   211
100
AcDbMText
 10
566.418524288332
 20
1447.665146596839
 30
0.0
 40
91.43999999999998
 41
900.0
 46
0.0
 71
     7
 72
     1
  1
{\fＭＳ ゴシック|b0|i0|c128|p49;折戸：ＤＷ＝789}
 73
     1
 44
1.0
  0
LINE
  5
153
330
1F
100
AcDbEntity
  8
0-B_寸法
  6
Continuous
 62
   120
370
     5
100
AcDbLine
 10
-1557.379542079067
 20
2085.945943353071
 30
0.0
 11
-1557.379542079067
 21
2637.945092160078
 31
0.0
  0
LINE
  5
154
330
1F
100
AcDbEntity
  8
0-B_寸法
  6
Continuous
 62
   120
370
     5
100
AcDbLine
 10
-1676.155110860737
 20
2637.945092160078
 30
0.0
 11
-1557.379542079067
 21
2637.945092160078
 31
0.0
  0
LWPOLYLINE
  5
155
330
1F
100
AcDbEntity
  8
0-B_寸法
  6
Continuous
 62
     7
370
     9
100
AcDbPolyline
 90
        4
 70
     1
 43
3.0
 10
-1555.879542079067
 20
2637.945092160078
 42
0.4142135623731
 10
-1557.379542079067
 20
2639.445092160078
 42
0.4142135623731
 10
-1558.879542079067
 20
2637.945092160078
 42
0.4142135623731
 10
-1557.379542079067
 20
2636.445092160078
 42
0.4142135623731
  0
LINE
  5
156
330
1F
100
AcDbEntity
  8
0-B_寸法
  6
Continuous
 62
   120
370
     5
100
AcDbLine
 10
-1676.155110860737
 20
2085.945943353071
 30
0.0
 11
-1557.379542079067
 21
2085.945943353071
 31
0.0
  0
LWPOLYLINE
  5
157
330
1F
100
AcDbEntity
  8
0-B_寸法
  6
Continuous
 62
     7
370
     9
100
AcDbPolyline
 90
        4
 70
     1
 43
3.0
 10
-1555.879542079067
 20
2085.945943353071
 42
0.4142135623731
 10
-1557.379542079067
 20
2087.445943353071
 42
0.4142135623731
 10
-1558.879542079067
 20
2085.945943353071
 42
0.4142135623731
 10
-1557.379542079067
 20
2084.445943353071
 42
0.4142135623731
  0
MTEXT
  5
158
330
1F
100
AcDbEntity
  8
0-B_寸法
  6
Continuous
 62
     7
370
   211
100
AcDbMText
 10
-2162.081444790688
 20
1267.665146596838
 30
0.0
 40
91.44
 41
120.0
 46
0.0
 71
     7
 72
     1
  1
{\fＭＳ ゴシック|b0|i0|c128|p49;30}
 73
     1
 44
1.0
  0
LINE
  5
159
330
1F
100
AcDbEntity
  8
0-6_扉
  6
Continuous
 62
   200
370
    20
100
AcDbLine
 10
-1997.081444790688
 20
2442.946443181512
 30
0.0
 11
-1997.081444790688
 21
2280.94514659684
 31
0.0
  0
LINE
  5
15A
330
1F
100
AcDbEntity
  8
0-0_補助線
  6
JWW_HOJO
 62
     7
370
     9
100
AcDbLine
 10
-1454.0819860638
 20
2442.946443181512
 30
0.0
 11
-1454.0819860638
 21
2280.94514659684
 31
0.0
  0
LINE
  5
15B
330
1F
100
AcDbEntity
  8
0-0_補助線
  6
JWW_HOJO
 62
     7
370
     9
100
AcDbLine
 10
-1514.0819860638
 20
2442.946443181512
 30
0.0
 11
-1514.0819860638
 21
2280.94514659684
 31
0.0
  0
LINE
  5
15C
330
1F
100
AcDbEntity
  8
0-6_扉
  6
Continuous
 62
   200
370
    20
100
AcDbLine
 10
-1997.081444790688
 20
2442.946443181512
 30
0.0
 11
-1514.0819860638
 21
2442.946443181512
 31
0.0
  0
LINE
  5
15D
330
1F
100
AcDbEntity
  8
0-6_扉
  6
Continuous
 62
   200
370
    20
100
AcDbLine
 10
-1997.081444790688
 20
2280.94514659684
 30
0.0
 11
-1514.0819860638
 21
2280.94514659684
 31
0.0
  0
MTEXT
  5
15E
330
1F
100
AcDbEntity
  8
0-B_寸法
  6
Continuous
 62
     7
370
   211
100
AcDbMText
 10
-320.0814571506845
 20
1267.665146596838
 30
0.0
 40
91.43999999999997
 41
660.0
 46
0.0
 71
     7
 72
     1
  1
{\fＭＳ ゴシック|b0|i0|c128|p49;枠内＝1,585}
 73
     1
 44
1.0
  0
MTEXT
  5
15F
330
1F
100
AcDbEntity
  8
0-B_寸法
  6
Continuous
 62
     7
370
   211
100
AcDbMText
 10
2061.91857996529
 20
1267.665146596838
 30
0.0
 40
91.44
 41
120.0
 46
0.0
 71
     7
 72
     1
  1
{\fＭＳ ゴシック|b0|i0|c128|p49;30}
 73
     1
 44
1.0
  0
LINE
  5
160
330
1F
100
AcDbEntity
  8
0-B_寸法
  6
Continuous
 62
   120
370
     5
100
AcDbLine
 10
-1317.70543502324
 20
2280.9445032533
 30
0.0
 11
-1317.70543502324
 21
2442.94514659684
 31
0.0
  0
LWPOLYLINE
  5
161
330
1F
100
AcDbEntity
  8
0-B_寸法
  6
Continuous
 62
     7
370
     9
100
AcDbPolyline
 90
        4
 70
     1
 43
3.0
 10
-1316.20543502324
 20
2442.94514659684
 42
0.4142135623731
 10
-1317.70543502324
 20
2444.44514659684
 42
0.4142135623731
 10
-1319.20543502324
 20
2442.94514659684
 42
0.4142135623731
 10
-1317.70543502324
 20
2441.445146596841
 42
0.4142135623731
  0
LWPOLYLINE
  5
162
330
1F
100
AcDbEntity
  8
0-B_寸法
  6
Continuous
 62
     7
370
     9
100
AcDbPolyline
 90
        4
 70
     1
 43
3.0
 10
-1316.20543502324
 20
2280.94514659684
 42
0.4142135623731
 10
-1317.70543502324
 20
2282.44514659684
 42
0.4142135623731
 10
-1319.20543502324
 20
2280.94514659684
 42
0.4142135623731
 10
-1317.70543502324
 20
2279.44514659684
 42
0.4142135623731
  0
LINE
  5
163
330
1F
100
AcDbEntity
  8
0-6_扉
  6
Continuous
 62
   200
370
    20
100
AcDbLine
 10
-989.0817973894383
 20
2442.946443181512
 30
0.0
 11
-989.0817973894383
 21
2280.94514659684
 31
0.0
  0
LINE
  5
164
330
1F
100
AcDbEntity
  8
0-6_扉
  6
Continuous
 62
   200
370
    20
100
AcDbLine
 10
-1454.0819860638
 20
2442.946443181512
 30
0.0
 11
-989.0817973894383
 21
2442.946443181512
 31
0.0
  0
LINE
  5
165
330
1F
100
AcDbEntity
  8
0-6_扉
  6
Continuous
 62
   200
370
    20
100
AcDbLine
 10
-1454.0819860638
 20
2280.94514659684
 30
0.0
 11
-989.0817973894383
 21
2280.94514659684
 31
0.0
  0
LINE
  5
166
330
1F
100
AcDbEntity
  8
0-B_寸法
  6
Continuous
 62
   120
370
     5
100
AcDbLine
 10
-1997.081543754616
 20
1626.945146596839
 30
0.0
 11
-989.0817973894383
 21
1626.945146596839
 31
0.0
  0
LWPOLYLINE
  5
167
330
1F
100
AcDbEntity
  8
0-B_寸法
  6
Continuous
 62
     7
370
     9
100
AcDbPolyline
 90
        4
 70
     1
 43
3.0
 10
-1995.581543754616
 20
1626.945146596839
 42
0.4142135623731
 10
-1997.081543754616
 20
1628.445146596839
 42
0.4142135623731
 10
-1998.581543754616
 20
1626.945146596839
 42
0.4142135623731
 10
-1997.081543754616
 20
1625.445146596839
 42
0.4142135623731
  0
LWPOLYLINE
  5
168
330
1F
100
AcDbEntity
  8
0-B_寸法
  6
Continuous
 62
     7
370
     9
100
AcDbPolyline
 90
        4
 70
     1
 43
3.0
 10
-987.5817973894384
 20
1626.945146596839
 42
0.4142135623731
 10
-989.0817973894383
 20
1628.445146596839
 42
0.4142135623731
 10
-990.5817973894382
 20
1626.945146596839
 42
0.4142135623731
 10
-989.0817973894383
 20
1625.445146596839
 42
0.4142135623731
  0
LINE
  5
169
330
1F
100
AcDbEntity
  8
0-B_寸法
  6
Continuous
 62
   120
370
     5
100
AcDbLine
 10
-989.0817973894383
 20
1626.945146596839
 30
0.0
 11
-989.0817973894383
 21
1806.945146596839
 31
0.0
  0
LINE
  5
16A
330
1F
100
AcDbEntity
  8
0-B_寸法
  6
Continuous
 62
   120
370
     5
100
AcDbLine
 10
-1997.081543754616
 20
1446.945146596839
 30
0.0
 11
3.918542843318278
 21
1446.945146596839
 31
0.0
  0
LWPOLYLINE
  5
16B
330
1F
100
AcDbEntity
  8
0-B_寸法
  6
Continuous
 62
     7
370
     9
100
AcDbPolyline
 90
        4
 70
     1
 43
3.0
 10
-1995.581543754616
 20
1446.945146596839
 42
0.4142135623731
 10
-1997.081543754616
 20
1448.445146596839
 42
0.4142135623731
 10
-1998.581543754616
 20
1446.945146596839
 42
0.4142135623731
 10
-1997.081543754616
 20
1445.445146596839
 42
0.4142135623731
  0
LINE
  5
16C
330
1F
100
AcDbEntity
  8
0-B_寸法
  6
Continuous
 62
   120
370
     5
100
AcDbLine
 10
-1997.081543754616
 20
1446.945146596839
 30
0.0
 11
-1997.081543754616
 21
1806.945146596839
 31
0.0
  0
LINE
  5
16D
330
1F
100
AcDbEntity
  8
0-0_補助線
  6
JWW_HOJO
 62
     7
370
     9
100
AcDbLine
 10
-986.0817973894359
 20
906.9451465968384
 30
0.0
 11
-986.0817973894359
 21
3141.945146596839
 31
0.0
  0
CIRCLE
  5
16E
330
1F
100
AcDbEntity
  8
0-A_文字
  6
Continuous
 62
     7
370
     9
100
AcDbCircle
 10
-986.0817602734642
 20
2472.94514659684
 30
0.0
 40
21.00000000000001
  0
CIRCLE
  5
16F
330
1F
100
AcDbEntity
  8
0-A_文字
  6
Continuous
 62
     7
370
     9
100
AcDbCircle
 10
-986.0817602734642
 20
2472.94514659684
 30
0.0
 40
30.0
  0
LINE
  5
170
330
1F
100
AcDbEntity
  8
0-6_扉
  6
Continuous
 62
   200
370
    20
100
AcDbLine
 10
-983.0817973894386
 20
2442.946443181512
 30
0.0
 11
-983.0817973894386
 21
2280.94514659684
 31
0.0
  0
LINE
  5
171
330
1F
100
AcDbEntity
  8
0-0_補助線
  6
JWW_HOJO
 62
     7
370
     9
100
AcDbLine
 10
-458.0816087150748
 20
2442.946443181512
 30
0.0
 11
-458.0816087150748
 21
2280.94514659684
 31
0.0
  0
LINE
  5
172
330
1F
100
AcDbEntity
  8
0-0_補助線
  6
JWW_HOJO
 62
     7
370
     9
100
AcDbLine
 10
-518.0816087150748
 20
2442.946443181512
 30
0.0
 11
-518.0816087150748
 21
2280.94514659684
 31
0.0
  0
LINE
  5
173
330
1F
100
AcDbEntity
  8
0-6_扉
  6
Continuous
 62
   200
370
    20
100
AcDbLine
 10
-983.0817973894386
 20
2442.946443181512
 30
0.0
 11
-518.0816087150748
 21
2442.946443181512
 31
0.0
  0
LINE
  5
174
330
1F
100
AcDbEntity
  8
0-6_扉
  6
Continuous
 62
   200
370
    20
100
AcDbLine
 10
-983.0817973894386
 20
2442.94514659684
 30
0.0
 11
-518.0816087150748
 21
2442.94514659684
 31
0.0
  0
LINE
  5
175
330
1F
100
AcDbEntity
  8
0-6_扉
  6
Continuous
 62
   200
370
    20
100
AcDbLine
 10
-983.0817973894386
 20
2280.94514659684
 30
0.0
 11
-518.0816087150748
 21
2280.94514659684
 31
0.0
  0
LINE
  5
176
330
1F
100
AcDbEntity
  8
0-6_扉
  6
Continuous
 62
   200
370
    20
100
AcDbLine
 10
-458.0816087150748
 20
2442.946443181512
 30
0.0
 11
3.918542843318278
 21
2442.946443181512
 31
0.0
  0
LINE
  5
177
330
1F
100
AcDbEntity
  8
0-6_扉
  6
Continuous
 62
   200
370
    20
100
AcDbLine
 10
3.918542843318278
 20
2280.94514659684
 30
0.0
 11
3.918542843318278
 21
2442.946443181512
 31
0.0
  0
LINE
  5
178
330
1F
100
AcDbEntity
  8
0-6_扉
  6
Continuous
 62
   200
370
    20
100
AcDbLine
 10
-458.0816087150748
 20
2280.94514659684
 30
0.0
 11
3.918542843318278
 21
2280.94514659684
 31
0.0
  0
LINE
  5
179
330
1F
100
AcDbEntity
  8
0-B_寸法
  6
Continuous
 62
   120
370
     5
100
AcDbLine
 10
-983.0817973894386
 20
1626.945146596839
 30
0.0
 11
3.918542843318278
 21
1626.945146596839
 31
0.0
  0
LWPOLYLINE
  5
17A
330
1F
100
AcDbEntity
  8
0-B_寸法
  6
Continuous
 62
     7
370
     9
100
AcDbPolyline
 90
        4
 70
     1
 43
3.0
 10
-981.5817973894387
 20
1626.945146596839
 42
0.4142135623731
 10
-983.0817973894386
 20
1628.445146596839
 42
0.4142135623731
 10
-984.5817973894385
 20
1626.945146596839
 42
0.4142135623731
 10
-983.0817973894386
 20
1625.445146596839
 42
0.4142135623731
  0
LWPOLYLINE
  5
17B
330
1F
100
AcDbEntity
  8
0-B_寸法
  6
Continuous
 62
     7
370
     9
100
AcDbPolyline
 90
        4
 70
     1
 43
3.0
 10
5.418542843318278
 20
1626.945146596839
 42
0.4142135623731
 10
3.918542843318278
 20
1628.445146596839
 42
0.4142135623731
 10
2.418542843318278
 20
1626.945146596839
 42
0.4142135623731
 10
3.918542843318278
 20
1625.445146596839
 42
0.4142135623731
  0
LINE
  5
17C
330
1F
100
AcDbEntity
  8
0-B_寸法
  6
Continuous
 62
   120
370
     5
100
AcDbLine
 10
-983.0817973894386
 20
1626.945146596839
 30
0.0
 11
-983.0817973894386
 21
1806.945146596839
 31
0.0
  0
LWPOLYLINE
  5
17D
330
1F
100
AcDbEntity
  8
0-B_寸法
  6
Continuous
 62
     7
370
     9
100
AcDbPolyline
 90
        4
 70
     1
 43
3.0
 10
5.418542843318278
 20
1446.945146596839
 42
0.4142135623731
 10
3.918542843318278
 20
1448.445146596839
 42
0.4142135623731
 10
2.418542843318278
 20
1446.945146596839
 42
0.4142135623731
 10
3.918542843318278
 20
1445.445146596839
 42
0.4142135623731
  0
LINE
  5
17E
330
1F
100
AcDbEntity
  8
0-B_寸法
  6
Continuous
 62
   120
370
     5
100
AcDbLine
 10
3.918542843318278
 20
1446.945146596839
 30
0.0
 11
3.918542843318278
 21
1806.945146596839
 31
0.0
  0
MTEXT
  5
17F
330
1F
100
AcDbEntity
  8
0-B_寸法
  6
Continuous
 62
     7
370
   211
100
AcDbMText
 10
-320.0814571506845
 20
1087.665146596838
 30
0.0
 40
91.43999999999997
 41
660.0
 46
0.0
 71
     7
 72
     1
  1
{\fＭＳ ゴシック|b0|i0|c128|p49;枠外＝1,645}
 73
     1
 44
1.0
  0
LINE
  5
180
330
1F
100
AcDbEntity
  8
0-0_補助線
  6
JWW_HOJO
 62
     7
370
     9
100
AcDbLine
 10
9.918542843317937
 20
906.9451465968384
 30
0.0
 11
9.918542843317937
 21
3141.945146596839
 31
0.0
  0
LINE
  5
181
330
1F
100
AcDbEntity
  8
0-C_ハッチ
  6
JWW_DASHED1
 62
   120
370
     5
100
AcDbLine
 10
-2168.930579893292
 20
2052.945695913237
 30
0.0
 11
-2162.081444790688
 21
2059.794831015844
 31
0.0
  0
LINE
  5
182
330
1F
100
AcDbEntity
  8
0-C_ハッチ
  6
JWW_DASHED1
 62
   120
370
     5
100
AcDbLine
 10
-2211.356986764491
 20
2052.945695913241
 30
0.0
 11
-2162.081444790688
 21
2102.221237887044
 31
0.0
  0
LINE
  5
183
330
1F
100
AcDbEntity
  8
0-C_ハッチ
  6
JWW_DASHED1
 62
   120
370
     5
100
AcDbLine
 10
-2253.783393635704
 20
2052.94569591323
 30
0.0
 11
-2178.783146195872
 21
2127.945943353062
 31
0.0
  0
LINE
  5
184
330
1F
100
AcDbEntity
  8
0-C_ハッチ
  6
JWW_DASHED1
 62
   120
370
     5
100
AcDbLine
 10
-2296.209800506897
 20
2052.945695913237
 30
0.0
 11
-2221.209553067065
 21
2127.945943353066
 31
0.0
  0
LINE
  5
185
330
1F
100
AcDbEntity
  8
0-C_ハッチ
  6
JWW_DASHED1
 62
   120
370
     5
100
AcDbLine
 10
-2338.636207378091
 20
2052.945695913241
 30
0.0
 11
-2263.635959938265
 21
2127.945943353071
 31
0.0
  0
LINE
  5
186
330
1F
100
AcDbEntity
  8
0-C_ハッチ
  6
JWW_DASHED1
 62
   120
370
     5
100
AcDbLine
 10
-2381.062614249292
 20
2052.945695913237
 30
0.0
 11
-2306.062366809465
 21
2127.945943353071
 31
0.0
  0
LINE
  5
187
330
1F
100
AcDbEntity
  8
0-C_ハッチ
  6
JWW_DASHED1
 62
   120
370
     5
100
AcDbLine
 10
-2423.48902112045
 20
2052.94569591323
 30
0.0
 11
-2348.488773680613
 21
2127.945943353062
 31
0.0
  0
LINE
  5
188
330
1F
100
AcDbEntity
  8
0-C_ハッチ
  6
JWW_DASHED1
 62
   120
370
     5
100
AcDbLine
 10
-2465.915427991643
 20
2052.945695913235
 30
0.0
 11
-2390.915180551811
 21
2127.945943353066
 31
0.0
  0
LINE
  5
189
330
1F
100
AcDbEntity
  8
0-C_ハッチ
  6
JWW_DASHED1
 62
   120
370
     5
100
AcDbLine
 10
-2508.341834862843
 20
2052.945695913237
 30
0.0
 11
-2433.341587423011
 21
2127.945943353069
 31
0.0
  0
LINE
  5
18A
330
1F
100
AcDbEntity
  8
0-C_ハッチ
  6
JWW_DASHED1
 62
   120
370
     5
100
AcDbLine
 10
-2550.768241734036
 20
2052.945695913239
 30
0.0
 11
-2475.767994294204
 21
2127.945943353074
 31
0.0
  0
LINE
  5
18B
330
1F
100
AcDbEntity
  8
0-C_ハッチ
  6
JWW_DASHED1
 62
   120
370
     5
100
AcDbLine
 10
-2593.194648605236
 20
2052.945695913239
 30
0.0
 11
-2518.194401165411
 21
2127.945943353069
 31
0.0
  0
LINE
  5
18C
330
1F
100
AcDbEntity
  8
0-C_ハッチ
  6
JWW_DASHED1
 62
   120
370
     5
100
AcDbLine
 10
-2635.621055476436
 20
2052.945695913244
 30
0.0
 11
-2560.620808036604
 21
2127.945943353074
 31
0.0
  0
LINE
  5
18D
330
1F
100
AcDbEntity
  8
0-C_ハッチ
  6
JWW_DASHED1
 62
   120
370
     5
100
AcDbLine
 10
-2678.047462347629
 20
2052.945695913249
 30
0.0
 11
-2603.047214907797
 21
2127.945943353078
 31
0.0
  0
LINE
  5
18E
330
1F
100
AcDbEntity
  8
0-C_ハッチ
  6
JWW_DASHED1
 62
   120
370
     5
100
AcDbLine
 10
-2720.473869218857
 20
2052.945695913221
 30
0.0
 11
-2645.473621779025
 21
2127.945943353056
 31
0.0
  0
LINE
  5
18F
330
1F
100
AcDbEntity
  8
0-C_ハッチ
  6
Continuous
 62
    40
370
    15
100
AcDbLine
 10
-2162.081444790688
 20
2127.945943353069
 30
0.0
 11
-2162.081444790688
 21
2052.945943353069
 31
0.0
  0
LINE
  5
190
330
1F
100
AcDbEntity
  8
0-3_仕上げ
  6
Continuous
 62
    40
370
    15
100
AcDbLine
 10
-2162.081444790688
 20
2052.945943353069
 30
0.0
 11
-2762.081197362862
 21
2052.945943353069
 31
0.0
  0
LINE
  5
191
330
1F
100
AcDbEntity
  8
0-3_仕上げ
  6
Continuous
 62
    40
370
    15
100
AcDbLine
 10
-2162.081444790688
 20
2127.945943353069
 30
0.0
 11
-2762.081197362862
 21
2127.945943353069
 31
0.0
  0
LINE
  5
192
330
1F
100
AcDbEntity
  8
0-C_ハッチ
  6
JWW_DASHED1
 62
   120
370
     5
100
AcDbLine
 10
-2762.081197362862
 20
2053.764774640358
 30
0.0
 11
-2687.900028650163
 21
2127.945943353062
 31
0.0
  0
LINE
  5
193
330
1F
100
AcDbEntity
  8
0-C_ハッチ
  6
JWW_DASHED1
 62
   120
370
     5
100
AcDbLine
 10
2183.415982162571
 20
2052.945943353071
 30
0.0
 11
2258.415982162581
 21
2127.945943353083
 31
0.0
  0
LINE
  5
194
330
1F
100
AcDbEntity
  8
0-C_ハッチ
  6
JWW_DASHED1
 62
   120
370
     5
100
AcDbLine
 10
2225.842389033781
 20
2052.945943353083
 30
0.0
 11
2300.842389033778
 21
2127.945943353078
 31
0.0
  0
LINE
  5
195
330
1F
100
AcDbEntity
  8
0-C_ハッチ
  6
JWW_DASHED1
 62
   120
370
     5
100
AcDbLine
 10
2268.268795904981
 20
2052.945943353083
 30
0.0
 11
2343.268795904978
 21
2127.945943353078
 31
0.0
  0
LINE
  5
196
330
1F
100
AcDbEntity
  8
0-C_ハッチ
  6
JWW_DASHED1
 62
   120
370
     5
100
AcDbLine
 10
2310.695202776178
 20
2052.945943353078
 30
0.0
 11
2385.695202776174
 21
2127.945943353076
 31
0.0
  0
LINE
  5
197
330
1F
100
AcDbEntity
  8
0-C_ハッチ
  6
JWW_DASHED1
 62
   120
370
     5
100
AcDbLine
 10
2353.121609647374
 20
2052.945943353076
 30
0.0
 11
2428.121609647371
 21
2127.945943353071
 31
0.0
  0
LINE
  5
198
330
1F
100
AcDbEntity
  8
0-C_ハッチ
  6
JWW_DASHED1
 62
   120
370
     5
100
AcDbLine
 10
2395.548016518513
 20
2052.945943353069
 30
0.0
 11
2470.548016518509
 21
2127.945943353064
 31
0.0
  0
LINE
  5
199
330
1F
100
AcDbEntity
  8
0-C_ハッチ
  6
JWW_DASHED1
 62
   120
370
     5
100
AcDbLine
 10
2437.97442338971
 20
2052.945943353064
 30
0.0
 11
2512.974423389723
 21
2127.945943353076
 31
0.0
  0
LINE
  5
19A
330
1F
100
AcDbEntity
  8
0-C_ハッチ
  6
JWW_DASHED1
 62
   120
370
     5
100
AcDbLine
 10
2480.400830260913
 20
2052.945943353069
 30
0.0
 11
2555.400830260923
 21
2127.945943353078
 31
0.0
  0
LINE
  5
19B
330
1F
100
AcDbEntity
  8
0-C_ハッチ
  6
JWW_DASHED1
 62
   120
370
     5
100
AcDbLine
 10
2522.827237132126
 20
2052.94594335308
 30
0.0
 11
2597.82723713212
 21
2127.945943353074
 31
0.0
  0
LINE
  5
19C
330
1F
100
AcDbEntity
  8
0-C_ハッチ
  6
JWW_DASHED1
 62
   120
370
     5
100
AcDbLine
 10
2565.253644003323
 20
2052.945943353076
 30
0.0
 11
2640.253644003313
 21
2127.945943353069
 31
0.0
  0
LINE
  5
19D
330
1F
100
AcDbEntity
  8
0-C_ハッチ
  6
JWW_DASHED1
 62
   120
370
     5
100
AcDbLine
 10
2607.680050874526
 20
2052.945943353083
 30
0.0
 11
2682.680050874526
 21
2127.94594335308
 31
0.0
  0
LINE
  5
19E
330
1F
100
AcDbEntity
  8
0-C_ハッチ
  6
JWW_DASHED1
 62
   120
370
     5
100
AcDbLine
 10
2650.106457745726
 20
2052.94594335308
 30
0.0
 11
2725.106457745723
 21
2127.945943353076
 31
0.0
  0
LINE
  5
19F
330
1F
100
AcDbEntity
  8
0-C_ハッチ
  6
JWW_DASHED1
 62
   120
370
     5
100
AcDbLine
 10
2181.918530477328
 20
2093.874898539026
 30
0.0
 11
2215.989575291388
 21
2127.945943353087
 31
0.0
  0
LINE
  5
1A0
330
1F
100
AcDbEntity
  8
0-C_ハッチ
  6
JWW_DASHED1
 62
   120
370
     5
100
AcDbLine
 10
2734.959271488058
 20
2052.945943353069
 30
0.0
 11
2781.918332525468
 21
2099.90500439047
 31
0.0
  0
LINE
  5
1A1
330
1F
100
AcDbEntity
  8
0-C_ハッチ
  6
JWW_DASHED1
 62
   120
370
     5
100
AcDbLine
 10
2692.532864616923
 20
2052.945943353076
 30
0.0
 11
2767.532864616912
 21
2127.945943353069
 31
0.0
  0
LINE
  5
1A2
330
1F
100
AcDbEntity
  8
0-3_仕上げ
  6
Continuous
 62
    40
370
    15
100
AcDbLine
 10
2181.918530477328
 20
2052.945943353069
 30
0.0
 11
2781.918332525468
 21
2052.945943353069
 31
0.0
  0
LINE
  5
1A3
330
1F
100
AcDbEntity
  8
0-3_仕上げ
  6
Continuous
 62
    40
370
    15
100
AcDbLine
 10
2181.918530477328
 20
2127.945943353069
 30
0.0
 11
2781.918332525468
 21
2127.945943353069
 31
0.0
  0
LINE
  5
1A4
330
1F
100
AcDbEntity
  8
0-C_ハッチ
  6
Continuous
 62
    40
370
    15
100
AcDbLine
 10
2181.91857996529
 20
2127.945943353069
 30
0.0
 11
2181.918530477328
 21
2052.945943353069
 31
0.0
  0
MTEXT
  5
1A5
330
1F
100
AcDbEntity
  8
0-B_寸法
  6
Continuous
 62
     7
370
   211
100
AcDbMText
 10
-1974.309655205086
 20
1905.110051112383
 30
0.0
 40
91.44
 41
120.0
 46
0.0
 71
     7
 72
     1
  1
{\fＭＳ ゴシック|b0|i0|c128|p49;10}
 73
     1
 44
1.0
  0
LINE
  5
1A6
330
1F
100
AcDbEntity
  8
0-B_寸法
  6
Continuous
 62
   120
370
     5
100
AcDbLine
 10
-1983.202815911752
 20
1913.408251231527
 30
0.0
 11
-1873.539334135264
 21
1913.408251231527
 31
0.0
  0
LINE
  5
1A7
330
1F
100
AcDbEntity
  8
0-B_寸法
  6
Continuous
 62
   120
370
     5
100
AcDbLine
 10
-2042.08144479069
 20
1806.945146596839
 30
0.0
 11
-1983.202815911752
 21
1913.408251231527
 31
0.0
  0
LINE
  5
1A8
330
1F
100
AcDbEntity
  8
0-B_寸法
  6
Continuous
 62
   120
370
     5
100
AcDbLine
 10
-2264.081395314721
 20
1700.482041962152
 30
0.0
 11
-2319.168109233085
 21
1700.482041962152
 31
0.0
  0
LINE
  5
1A9
330
1F
100
AcDbEntity
  8
0-B_寸法
  6
Continuous
 62
   120
370
     5
100
AcDbLine
 10
-2144.081395314721
 20
1806.945146596839
 30
0.0
 11
-2264.081395314721
 21
1700.482041962152
 31
0.0
  0
MTEXT
  5
1AA
330
1F
100
AcDbEntity
  8
0-B_寸法
  6
Continuous
 62
     7
370
   211
100
AcDbMText
 10
-2316.581395314719
 20
1677.440462125013
 30
0.0
 40
91.44
 41
60.0
 46
0.0
 71
     7
 72
     1
  1
{\fＭＳ ゴシック|b0|i0|c128|p49;6}
 73
     1
 44
1.0
  0
LINE
  5
1AB
330
1F
100
AcDbEntity
  8
0-B_寸法
  6
Continuous
 62
   120
370
     5
100
AcDbLine
 10
-2296.024992794512
 20
1913.408251231527
 30
0.0
 11
-2351.111706712877
 21
1913.408251231527
 31
0.0
  0
LINE
  5
1AC
330
1F
100
AcDbEntity
  8
0-B_寸法
  6
Continuous
 62
   120
370
     5
100
AcDbLine
 10
-2176.024992794512
 20
1806.945146596839
 30
0.0
 11
-2296.024992794512
 21
1913.408251231527
 31
0.0
  0
MTEXT
  5
1AD
330
1F
100
AcDbEntity
  8
0-B_寸法
  6
Continuous
 62
     7
370
   211
100
AcDbMText
 10
-2354.387315270936
 20
1903.869630541872
 30
0.0
 40
91.44
 41
60.0
 46
0.0
 71
     7
 72
     1
  1
{\fＭＳ ゴシック|b0|i0|c128|p49;5}
 73
     1
 44
1.0
  0
MTEXT
  5
1AE
330
1F
100
AcDbEntity
  8
0-B_寸法
  6
Continuous
 62
     7
370
   211
100
AcDbMText
 10
-2165.714285714286
 20
1087.665146596838
 30
0.0
 40
91.44
 41
60.0
 46
0.0
 71
     7
 72
     1
  1
{\fＭＳ ゴシック|b0|i0|c128|p49;5}
 73
     1
 44
1.0
  0
MTEXT
  5
1AF
330
1F
100
AcDbEntity
  8
0-B_寸法
  6
Continuous
 62
     7
370
   211
100
AcDbMText
 10
2125.490008536714
 20
1087.665146596838
 30
0.0
 40
91.44
 41
60.0
 46
0.0
 71
     7
 72
     1
  1
{\fＭＳ ゴシック|b0|i0|c128|p49;5}
 73
     1
 44
1.0
  0
LINE
  5
1B0
330
1F
100
AcDbEntity
  8
0-3_仕上げ
  6
Continuous
 62
    40
370
    15
100
AcDbLine
 10
-2558.082016985902
 20
-436.1467696850488
 30
0.0
 11
-2558.082016985902
 21
229.998983036696
 31
0.0
  0
MTEXT
  5
1B1
330
1F
100
AcDbEntity
  8
0-A_文字
  6
Continuous
 62
     7
370
     9
100
AcDbMText
 10
-3806.599209314015
 20
426.8069190292516
 30
0.0
 40
91.44
 41
600.0
 46
0.0
 71
     7
 72
     1
  1
{\fＭＳ ゴシック|b0|i0|c128|p49;■縦断面図}
 73
     1
 44
1.0
  0
MTEXT
  5
1B2
330
1F
100
AcDbEntity
  8
0-A_文字
  6
Continuous
 62
     7
370
     9
100
AcDbMText
 10
-3806.599209314014
 20
278.2866538618066
 30
0.0
 40
91.44000000000001
 41
600.0
 46
0.0
 71
     7
 72
     1
  1
{\fＭＳ ゴシック|b0|i0|c128|p49;　[３方枠]}
 73
     1
 44
1.0
  0
LINE
  5
1B3
330
1F
100
AcDbEntity
  8
0-7_金物
  6
Continuous
 62
     7
370
     9
100
AcDbLine
 10
-2792.081157046611
 20
-3229.000232799634
 30
0.0
 11
-2792.081157046611
 21
-3286.000311980378
 31
0.0
  0
LINE
  5
1B4
330
1F
100
AcDbEntity
  8
0-7_金物
  6
Continuous
 62
     7
370
     9
100
AcDbLine
 10
-2792.081157046611
 20
-3286.000311980378
 30
0.0
 11
-2774.081394588843
 21
-3286.000311980378
 31
0.0
  0
LINE
  5
1B5
330
1F
100
AcDbEntity
  8
0-7_金物
  6
Continuous
 62
     7
370
     9
100
AcDbLine
 10
-2774.081394588843
 20
-3229.000232799634
 30
0.0
 11
-2774.081394588843
 21
-3286.000311980378
 31
0.0
  0
LINE
  5
1B6
330
1F
100
AcDbEntity
  8
0-6_扉
  6
Continuous
 62
   200
370
    20
100
AcDbLine
 10
-2702.081475934685
 20
-3229.000232799634
 30
0.0
 11
-2864.081475934684
 21
-3229.000232799634
 31
0.0
  0
LINE
  5
1B7
330
1F
100
AcDbEntity
  8
0-6_扉
  6
Continuous
 62
   200
370
    20
100
AcDbLine
 10
-2702.081475934685
 20
-3229.000603959368
 30
0.0
 11
-2702.081475934685
 21
-1990.001135734419
 31
0.0
  0
LINE
  5
1B8
330
1F
100
AcDbEntity
  8
0-6_扉
  6
Continuous
 62
   200
370
    20
100
AcDbLine
 10
-2864.081475934684
 20
-3229.000603959368
 30
0.0
 11
-2864.081475934684
 21
-1990.001135734419
 31
0.0
  0
LINE
  5
1B9
330
1F
100
AcDbEntity
  8
0-6_扉
  6
Continuous
 62
   200
370
    20
100
AcDbLine
 10
-2702.081475934685
 20
-631.0009254105684
 30
0.0
 11
-2864.081475934684
 21
-631.0009254105684
 31
0.0
  0
LINE
  5
1BA
330
1F
100
AcDbEntity
  8
0-7_金物
  6
Continuous
 62
     7
370
     9
100
AcDbLine
 10
-2718.086015424432
 20
-592.0009254105685
 30
0.0
 11
-2718.086015424432
 21
-586.0008338578348
 31
0.0
  0
LINE
  5
1BB
330
1F
100
AcDbEntity
  8
0-7_金物
  6
Continuous
 62
     7
370
     9
100
AcDbLine
 10
-2847.295628270806
 20
-592.0009254105685
 30
0.0
 11
-2847.295628270806
 21
-586.0008338578348
 31
0.0
  0
LINE
  5
1BC
330
1F
100
AcDbEntity
  8
0-7_金物
  6
Continuous
 62
     7
370
     9
100
AcDbLine
 10
-2681.082128247915
 20
-586.0008338578348
 30
0.0
 11
-2681.082128247915
 21
-592.0009254105685
 31
0.0
  0
LINE
  5
1BD
330
1F
100
AcDbEntity
  8
0-7_金物
  6
Continuous
 62
     7
370
     9
100
AcDbLine
 10
-2847.295628270806
 20
-592.0009254105685
 30
0.0
 11
-2885.080430230796
 21
-592.0009254105685
 31
0.0
  0
LINE
  5
1BE
330
1F
100
AcDbEntity
  8
0-7_金物
  6
Continuous
 62
     7
370
     9
100
AcDbLine
 10
-2885.080430230796
 20
-586.0008338578348
 30
0.0
 11
-2885.080430230796
 21
-592.0009254105685
 31
0.0
  0
LINE
  5
1BF
330
1F
100
AcDbEntity
  8
0-7_金物
  6
Continuous
 62
     7
370
     9
100
AcDbLine
 10
-2771.081681928337
 20
-631.0009254105684
 30
0.0
 11
-2795.082362851796
 21
-631.0009254105684
 31
0.0
  0
LINE
  5
1C0
330
1F
100
AcDbEntity
  8
0-7_金物
  6
Continuous
 62
     7
370
     9
100
AcDbLine
 10
-2771.081681928337
 20
-586.0008338578348
 30
0.0
 11
-2771.081681928337
 21
-631.0009254105684
 31
0.0
  0
LINE
  5
1C1
330
1F
100
AcDbEntity
  8
0-7_金物
  6
Continuous
 62
     7
370
     9
100
AcDbLine
 10
-2795.082362851796
 20
-631.0009254105684
 30
0.0
 11
-2795.082362851796
 21
-586.0008338578348
 31
0.0
  0
LINE
  5
1C2
330
1F
100
AcDbEntity
  8
0-7_金物
  6
Continuous
 62
     7
370
     9
100
AcDbLine
 10
-2718.086015424432
 20
-592.0009254105685
 30
0.0
 11
-2681.082128247915
 21
-592.0009254105685
 31
0.0
  0
LINE
  5
1C3
330
1F
100
AcDbEntity
  8
0-7_金物
  6
Continuous
 62
     7
370
     9
100
AcDbLine
 10
-2711.247869461631
 20
-478.1466781323149
 30
0.0
 11
-2711.247869461631
 21
-586.1467696850489
 31
0.0
  0
LINE
  5
1C4
330
1F
100
AcDbEntity
  8
0-7_金物
  6
Continuous
 62
     7
370
     9
100
AcDbLine
 10
-2855.248197048758
 20
-478.1466781323149
 30
0.0
 11
-2711.247869461631
 21
-478.1466781323149
 31
0.0
  0
LINE
  5
1C5
330
1F
100
AcDbEntity
  8
0-7_金物
  6
Continuous
 62
     7
370
     9
100
AcDbLine
 10
-2855.248197048758
 20
-586.1467696850489
 30
0.0
 11
-2855.248197048758
 21
-478.1466781323149
 31
0.0
  0
LINE
  5
1C6
330
1F
100
AcDbEntity
  8
0-7_金物
  6
Continuous
 62
     7
370
     9
100
AcDbLine
 10
-2849.426926582905
 20
-572.9345199291892
 30
0.0
 11
-2849.426926582905
 21
-506.9345199291899
 31
0.0
  0
LINE
  5
1C7
330
1F
100
AcDbEntity
  8
0-7_金物
  6
Continuous
 62
     7
370
     9
100
AcDbLine
 10
-2849.426926582905
 20
-506.9345199291899
 30
0.0
 11
-2813.247760742756
 21
-506.9345199291899
 31
0.0
  0
LINE
  5
1C8
330
1F
100
AcDbEntity
  8
0-7_金物
  6
Continuous
 62
     7
370
     9
100
AcDbLine
 10
-2813.247760742756
 20
-586.1467696850489
 30
0.0
 11
-2813.247760742756
 21
-490.1463119213781
 31
0.0
  0
LINE
  5
1C9
330
1F
100
AcDbEntity
  8
0-7_金物
  6
Continuous
 62
     7
370
     9
100
AcDbLine
 10
-2813.247760742756
 20
-490.1463119213781
 30
0.0
 11
-2753.246072739216
 21
-490.1463119213781
 31
0.0
  0
LINE
  5
1CA
330
1F
100
AcDbEntity
  8
0-7_金物
  6
Continuous
 62
     7
370
     9
100
AcDbLine
 10
-2753.246072739216
 20
-490.1463119213781
 30
0.0
 11
-2753.246072739216
 21
-586.1467696850489
 31
0.0
  0
LINE
  5
1CB
330
1F
100
AcDbEntity
  8
0-7_金物
  6
Continuous
 62
     7
370
     9
100
AcDbLine
 10
-2717.427679031943
 20
-506.9345199291899
 30
0.0
 11
-2717.427679031943
 21
-572.9345199291892
 31
0.0
  0
LINE
  5
1CC
330
1F
100
AcDbEntity
  8
0-7_金物
  6
Continuous
 62
     7
370
     9
100
AcDbLine
 10
-2753.246072739216
 20
-506.9345199291899
 30
0.0
 11
-2717.427679031943
 21
-506.9345199291899
 31
0.0
  0
LINE
  5
1CD
330
1F
100
AcDbEntity
  8
0-7_金物
  6
Continuous
 62
     7
370
     9
100
AcDbLine
 10
-2699.247537582969
 20
-586.1467696850489
 30
0.0
 11
-2681.247766464807
 21
-586.1467696850489
 31
0.0
  0
LINE
  5
1CE
330
1F
100
AcDbEntity
  8
0-7_金物
  6
Continuous
 62
     7
370
     9
100
AcDbLine
 10
-2718.251653641318
 20
-592.1468612377829
 30
0.0
 11
-2718.251653641318
 21
-586.1467696850489
 31
0.0
  0
LINE
  5
1CF
330
1F
100
AcDbEntity
  8
0-7_金物
  6
Continuous
 62
     7
370
     9
100
AcDbLine
 10
-2711.247869461631
 20
-586.1467696850489
 30
0.0
 11
-2718.251653641318
 21
-586.1467696850489
 31
0.0
  0
LINE
  5
1D0
330
1F
100
AcDbEntity
  8
0-7_金物
  6
Continuous
 62
     7
370
     9
100
AcDbLine
 10
-2867.247790425872
 20
-586.1467696850489
 30
0.0
 11
-2885.246068447685
 21
-586.1467696850489
 31
0.0
  0
LINE
  5
1D1
330
1F
100
AcDbEntity
  8
0-7_金物
  6
Continuous
 62
     7
370
     9
100
AcDbLine
 10
-2847.461266487691
 20
-592.1468612377829
 30
0.0
 11
-2847.461266487691
 21
-586.1467696850489
 31
0.0
  0
LINE
  5
1D2
330
1F
100
AcDbEntity
  8
0-7_金物
  6
Continuous
 62
     7
370
     9
100
AcDbLine
 10
-2847.461266487691
 20
-586.1467696850489
 30
0.0
 11
-2855.248197048758
 21
-586.1467696850489
 31
0.0
  0
LINE
  5
1D3
330
1F
100
AcDbEntity
  8
0-7_金物
  6
Continuous
 62
     7
370
     9
100
AcDbLine
 10
-2681.247766464807
 20
-586.1467696850489
 30
0.0
 11
-2681.247766464807
 21
-592.1468612377829
 31
0.0
  0
LINE
  5
1D4
330
1F
100
AcDbEntity
  8
0-7_金物
  6
Continuous
 62
     7
370
     9
100
AcDbLine
 10
-2847.461266487691
 20
-592.1468612377829
 30
0.0
 11
-2885.246068447685
 21
-592.1468612377829
 31
0.0
  0
LINE
  5
1D5
330
1F
100
AcDbEntity
  8
0-7_金物
  6
Continuous
 62
     7
370
     9
100
AcDbLine
 10
-2885.246068447685
 20
-586.1467696850489
 30
0.0
 11
-2885.246068447685
 21
-592.1468612377829
 31
0.0
  0
LINE
  5
1D6
330
1F
100
AcDbEntity
  8
0-7_金物
  6
Continuous
 62
     7
370
     9
100
AcDbLine
 10
-2813.247760742756
 20
-572.9345199291892
 30
0.0
 11
-2849.426926582905
 21
-572.9345199291892
 31
0.0
  0
LINE
  5
1D7
330
1F
100
AcDbEntity
  8
0-7_金物
  6
Continuous
 62
     7
370
     9
100
AcDbLine
 10
-2717.427679031943
 20
-572.9345199291892
 30
0.0
 11
-2753.246072739216
 21
-572.9345199291892
 31
0.0
  0
LINE
  5
1D8
330
1F
100
AcDbEntity
  8
0-7_金物
  6
Continuous
 62
     7
370
     9
100
AcDbLine
 10
-2753.246072739216
 20
-586.1467696850489
 30
0.0
 11
-2813.247760742756
 21
-586.1467696850489
 31
0.0
  0
LINE
  5
1D9
330
1F
100
AcDbEntity
  8
0-7_金物
  6
Continuous
 62
     7
370
     9
100
AcDbLine
 10
-2718.251653641318
 20
-592.1468612377829
 30
0.0
 11
-2681.247766464807
 21
-592.1468612377829
 31
0.0
  0
LINE
  5
1DA
330
1F
100
AcDbEntity
  8
0-6_扉
  6
Continuous
 62
   200
370
    20
100
AcDbLine
 10
-2702.081475934685
 20
-1870.001135734419
 30
0.0
 11
-2702.081475934685
 21
-631.0009254105684
 31
0.0
  0
LINE
  5
1DB
330
1F
100
AcDbEntity
  8
0-6_扉
  6
Continuous
 62
   200
370
    20
100
AcDbLine
 10
-2864.081475934684
 20
-1870.001135734419
 30
0.0
 11
-2864.081475934684
 21
-631.0009254105684
 31
0.0
  0
LINE
  5
1DC
330
1F
100
AcDbEntity
  8
0-7_金物
  6
Continuous
 62
     7
370
     9
100
AcDbLine
 10
-2837.082059583362
 20
-370.1469527905181
 30
0.0
 11
-2837.082059583362
 21
-364.0009631451414
 31
0.0
  0
LINE
  5
1DD
330
1F
100
AcDbEntity
  8
0-7_金物
  6
Continuous
 62
     7
370
     9
100
AcDbLine
 10
-2729.081990918812
 20
-364.0009631451423
 30
0.0
 11
-2729.081990918812
 21
-370.1469527905181
 31
0.0
  0
LINE
  5
1DE
330
1F
100
AcDbEntity
  8
0-7_金物
  6
Continuous
 62
     7
370
     9
100
AcDbLine
 10
-2723.081824979481
 20
-364.0009631451423
 30
0.0
 11
-2843.081481656727
 21
-364.0009631451423
 31
0.0
  0
LINE
  5
1DF
330
1F
100
AcDbEntity
  8
0-7_金物
  6
Continuous
 62
     7
370
     9
100
AcDbLine
 10
-2843.081481656727
 20
-352.0013694103997
 30
0.0
 11
-2843.081481656727
 21
-364.0009631451414
 31
0.0
  0
LINE
  5
1E0
330
1F
100
AcDbEntity
  8
0-7_金物
  6
Continuous
 62
     7
370
     9
100
AcDbLine
 10
-2723.081824979481
 20
-352.0013694103997
 30
0.0
 11
-2723.081824979481
 21
-364.0009631451414
 31
0.0
  0
LINE
  5
1E1
330
1F
100
AcDbEntity
  8
0-7_金物
  6
Continuous
 62
     7
370
     9
100
AcDbLine
 10
-2693.081721982657
 20
-340.0010318096929
 30
0.0
 11
-2873.081584653554
 21
-340.0010318096929
 31
0.0
  0
LINE
  5
1E2
330
1F
100
AcDbEntity
  8
0-7_金物
  6
Continuous
 62
     7
370
     9
100
AcDbLine
 10
-2693.081721982657
 20
-340.0010318096929
 30
0.0
 11
-2693.081721982657
 21
-352.001369410401
 31
0.0
  0
LINE
  5
1E3
330
1F
100
AcDbEntity
  8
0-7_金物
  6
Continuous
 62
     7
370
     9
100
AcDbLine
 10
-2873.081584653554
 20
-340.0010318096929
 30
0.0
 11
-2873.081584653554
 21
-352.001369410401
 31
0.0
  0
LINE
  5
1E4
330
1F
100
AcDbEntity
  8
0-7_金物
  6
Continuous
 62
     7
370
     9
100
AcDbLine
 10
-2693.081721982657
 20
-352.0013694103997
 30
0.0
 11
-2873.081584653554
 21
-352.0013694103997
 31
0.0
  0
LINE
  5
1E5
330
1F
100
AcDbEntity
  8
0-1_通り芯
  6
JWW_CENTER1
 62
   120
370
     5
100
AcDbLine
 10
-2783.082025251087
 20
229.998983036696
 30
0.0
 11
-2783.082025251087
 21
-3470.136788158038
 31
0.0
  0
LWPOLYLINE
  5
1E6
330
1F
100
AcDbEntity
  8
0-B_寸法
  6
Continuous
 62
     7
370
     9
100
AcDbPolyline
 90
        4
 70
     1
 43
3.0
 10
-1980.582201653187
 20
-3229.000603959368
 42
0.4142135623731
 10
-1982.082201653187
 20
-3227.500603959368
 42
0.4142135623731
 10
-1983.582201653187
 20
-3229.000603959368
 42
0.4142135623731
 10
-1982.082201653187
 20
-3230.500603959368
 42
0.4142135623731
  0
LINE
  5
1E7
330
1F
100
AcDbEntity
  8
0-B_寸法
  6
Continuous
 62
   120
370
     5
100
AcDbLine
 10
-2192.082201653187
 20
-3229.000603959368
 30
0.0
 11
-1982.082201653187
 21
-3229.000603959368
 31
0.0
  0
LWPOLYLINE
  5
1E8
330
1F
100
AcDbEntity
  8
0-B_寸法
  6
Continuous
 62
     7
370
     9
100
AcDbPolyline
 90
        4
 70
     1
 43
3.0
 10
-1980.582201653187
 20
-3298.000311980378
 42
0.4142135623731
 10
-1982.082201653187
 20
-3296.500311980378
 42
0.4142135623731
 10
-1983.582201653187
 20
-3298.000311980378
 42
0.4142135623731
 10
-1982.082201653187
 20
-3299.500311980378
 42
0.4142135623731
  0
LINE
  5
1E9
330
1F
100
AcDbEntity
  8
0-B_寸法
  6
Continuous
 62
   120
370
     5
100
AcDbLine
 10
-1982.082201653187
 20
-3298.000311980378
 30
0.0
 11
-1982.082201653187
 21
-586.0004082613398
 31
0.0
  0
LWPOLYLINE
  5
1EA
330
1F
100
AcDbEntity
  8
0-B_寸法
  6
Continuous
 62
     7
370
     9
100
AcDbPolyline
 90
        4
 70
     1
 43
3.0
 10
-1980.582201653187
 20
-586.0004082613398
 42
0.4142135623731
 10
-1982.082201653187
 20
-584.5004082613398
 42
0.4142135623731
 10
-1983.582201653187
 20
-586.0004082613398
 42
0.4142135623731
 10
-1982.082201653187
 20
-587.5004082613398
 42
0.4142135623731
  0
LWPOLYLINE
  5
1EB
330
1F
100
AcDbEntity
  8
0-B_寸法
  6
Continuous
 62
     7
370
     9
100
AcDbPolyline
 90
        4
 70
     1
 43
3.0
 10
-1980.582201653187
 20
-631.0005567252335
 42
0.4142135623731
 10
-1982.082201653187
 20
-629.5005567252335
 42
0.4142135623731
 10
-1983.582201653187
 20
-631.0005567252335
 42
0.4142135623731
 10
-1982.082201653187
 20
-632.5005567252335
 42
0.4142135623731
  0
LINE
  5
1EC
330
1F
100
AcDbEntity
  8
0-B_寸法
  6
Continuous
 62
   120
370
     5
100
AcDbLine
 10
-2192.082201653187
 20
-586.0004082613398
 30
0.0
 11
-1982.082201653187
 21
-586.0004082613398
 31
0.0
  0
LINE
  5
1ED
330
1F
100
AcDbEntity
  8
0-B_寸法
  6
Continuous
 62
   120
370
     5
100
AcDbLine
 10
-2192.082201653187
 20
-631.0005567252335
 30
0.0
 11
-1982.082201653187
 21
-631.0005567252335
 31
0.0
  0
LINE
  5
1EE
330
1F
100
AcDbEntity
  8
0-0_補助線
  6
JWW_HOJO
 62
   120
370
     5
100
AcDbLine
 10
-2192.081436817207
 20
-3370.000660769324
 30
0.0
 11
-2192.082137622193
 21
229.998983036696
 31
0.0
  0
LINE
  5
1EF
330
1F
100
AcDbEntity
  8
0-0_補助線
  6
JWW_HOJO
 62
   120
370
     5
100
AcDbLine
 10
-1982.081436817207
 20
-3370.000660769323
 30
0.0
 11
-1982.082137622193
 21
229.998983036696
 31
0.0
  0
LINE
  5
1F0
330
1F
100
AcDbEntity
  8
0-B_寸法
  6
Continuous
 62
   120
370
     5
100
AcDbLine
 10
-1982.082201653187
 20
-3370.000289710795
 30
0.0
 11
-1802.081455311693
 21
-3370.000289710795
 31
0.0
  0
LWPOLYLINE
  5
1F1
330
1F
100
AcDbEntity
  8
0-B_寸法
  6
Continuous
 62
     7
370
     9
100
AcDbPolyline
 90
        4
 70
     1
 43
3.0
 10
-1800.581455311693
 20
-3298.000311980378
 42
0.4142135623731
 10
-1802.081455311693
 20
-3296.500311980378
 42
0.4142135623731
 10
-1803.581455311693
 20
-3298.000311980378
 42
0.4142135623731
 10
-1802.081455311693
 20
-3299.500311980378
 42
0.4142135623731
  0
LINE
  5
1F2
330
1F
100
AcDbEntity
  8
0-B_寸法
  6
Continuous
 62
   120
370
     5
100
AcDbLine
 10
-1802.081455311693
 20
-3298.000311980378
 30
0.0
 11
-1802.081455311693
 21
-370.0010318096929
 31
0.0
  0
LINE
  5
1F3
330
1F
100
AcDbEntity
  8
0-B_寸法
  6
Continuous
 62
   120
370
     5
100
AcDbLine
 10
-1982.082201653187
 20
-586.0000371016054
 30
0.0
 11
-1802.081455311693
 21
-586.0000371016054
 31
0.0
  0
LWPOLYLINE
  5
1F4
330
1F
100
AcDbEntity
  8
0-B_寸法
  6
Continuous
 62
     7
370
     9
100
AcDbPolyline
 90
        4
 70
     1
 43
3.0
 10
-1800.581455311693
 20
-586.0000371016054
 42
0.4142135623731
 10
-1802.081455311693
 20
-584.5000371016054
 42
0.4142135623731
 10
-1803.581455311693
 20
-586.0000371016054
 42
0.4142135623731
 10
-1802.081455311693
 20
-587.5000371016054
 42
0.4142135623731
  0
LWPOLYLINE
  5
1F5
330
1F
100
AcDbEntity
  8
0-B_寸法
  6
Continuous
 62
     7
370
     9
100
AcDbPolyline
 90
        4
 70
     1
 43
3.0
 10
-1800.581455311693
 20
-370.0010318096929
 42
0.4142135623731
 10
-1802.081455311693
 20
-368.5010318096929
 42
0.4142135623731
 10
-1803.581455311693
 20
-370.0010318096929
 42
0.4142135623731
 10
-1802.081455311693
 20
-371.5010318096929
 42
0.4142135623731
  0
LINE
  5
1F6
330
1F
100
AcDbEntity
  8
0-0_補助線
  6
JWW_HOJO
 62
   120
370
     5
100
AcDbLine
 10
-1802.080690475709
 20
-3370.000660769324
 30
0.0
 11
-1802.081391280695
 21
229.998983036696
 31
0.0
  0
LWPOLYLINE
  5
1F7
330
1F
100
AcDbEntity
  8
0-B_寸法
  6
Continuous
 62
     7
370
     9
100
AcDbPolyline
 90
        4
 70
     1
 43
3.0
 10
-1620.581226976741
 20
-3298.000311980378
 42
0.4142135623731
 10
-1622.08122697674
 20
-3296.500311980378
 42
0.4142135623731
 10
-1623.58122697674
 20
-3298.000311980378
 42
0.4142135623731
 10
-1622.08122697674
 20
-3299.500311980378
 42
0.4142135623731
  0
LINE
  5
1F8
330
1F
100
AcDbEntity
  8
0-B_寸法
  6
Continuous
 62
   120
370
     5
100
AcDbLine
 10
-2192.082201653187
 20
-3298.000311980378
 30
0.0
 11
-1622.08122697674
 21
-3298.000311980378
 31
0.0
  0
LINE
  5
1F9
330
1F
100
AcDbEntity
  8
0-B_寸法
  6
Continuous
 62
   120
370
     5
100
AcDbLine
 10
-2192.082201653187
 20
-3370.000660870528
 30
0.0
 11
-1622.08122697674
 21
-3370.000660870528
 31
0.0
  0
LWPOLYLINE
  5
1FA
330
1F
100
AcDbEntity
  8
0-B_寸法
  6
Continuous
 62
     7
370
     9
100
AcDbPolyline
 90
        4
 70
     1
 43
3.0
 10
-1620.581226976741
 20
-3370.000660870528
 42
0.4142135623731
 10
-1622.08122697674
 20
-3368.500660870528
 42
0.4142135623731
 10
-1623.58122697674
 20
-3370.000660870528
 42
0.4142135623731
 10
-1622.08122697674
 20
-3371.500660870528
 42
0.4142135623731
  0
LINE
  5
1FB
330
1F
100
AcDbEntity
  8
0-B_寸法
  6
Continuous
 62
   120
370
     5
100
AcDbLine
 10
-2192.082201653187
 20
-370.0010318096929
 30
0.0
 11
-1622.08122697674
 21
-370.0010318096929
 31
0.0
  0
LWPOLYLINE
  5
1FC
330
1F
100
AcDbEntity
  8
0-B_寸法
  6
Continuous
 62
     7
370
     9
100
AcDbPolyline
 90
        4
 70
     1
 43
3.0
 10
-1620.581226976741
 20
-370.0010318096929
 42
0.4142135623731
 10
-1622.08122697674
 20
-368.5010318096929
 42
0.4142135623731
 10
-1623.58122697674
 20
-370.0010318096929
 42
0.4142135623731
 10
-1622.08122697674
 20
-371.5010318096929
 42
0.4142135623731
  0
LWPOLYLINE
  5
1FD
330
1F
100
AcDbEntity
  8
0-B_寸法
  6
Continuous
 62
     7
370
     9
100
AcDbPolyline
 90
        4
 70
     1
 43
3.0
 10
-1620.581226976741
 20
-340.0010318096929
 42
0.4142135623731
 10
-1622.08122697674
 20
-338.5010318096929
 42
0.4142135623731
 10
-1623.58122697674
 20
-340.0010318096929
 42
0.4142135623731
 10
-1622.08122697674
 20
-341.5010318096929
 42
0.4142135623731
  0
LINE
  5
1FE
330
1F
100
AcDbEntity
  8
0-B_寸法
  6
Continuous
 62
   120
370
     5
100
AcDbLine
 10
-1622.08122697674
 20
-340.0010318096929
 30
0.0
 11
-2192.082201653187
 21
-340.0010318096929
 31
0.0
  0
MTEXT
  5
1FF
330
1F
100
AcDbEntity
  8
0-B_寸法
  6
Continuous
 62
     7
370
   211
100
AcDbMText
 10
-1642.981780716142
 20
-345.8400681116656
 30
0.0
 40
91.44
 41
60.0
 46
0.0
 71
     7
 72
     1
  1
{\fＭＳ ゴシック|b0|i0|c128|p49;5}
 11
6.123031769111886E-17
 21
1.0
 31
0.0
 73
     1
 44
1.0
  0
LINE
  5
200
330
1F
100
AcDbEntity
  8
0-B_寸法
  6
Continuous
 62
   120
370
     5
100
AcDbLine
 10
-1622.08122697674
 20
-3370.000660870528
 30
0.0
 11
-1622.08122697674
 21
-340.0010318096917
 31
0.0
  0
LINE
  5
201
330
1F
100
AcDbEntity
  8
0-0_補助線
  6
JWW_HOJO
 62
   120
370
     5
100
AcDbLine
 10
-1622.080462140753
 20
-3370.000660769324
 30
0.0
 11
-1622.08116294574
 21
229.998983036696
 31
0.0
  0
LINE
  5
202
330
1F
100
AcDbEntity
  8
0-0_補助線
  6
JWW_HOJO
 62
   120
370
     5
100
AcDbLine
 10
-3386.081300019257
 20
-3370.000660769325
 30
0.0
 11
-3386.082000824246
 21
229.998983036696
 31
0.0
  0
LINE
  5
203
330
1F
100
AcDbEntity
  8
0-3_仕上げ
  6
Continuous
 62
     7
370
     9
100
AcDbLine
 10
-3386.081315278055
 20
-3346.000544573812
 30
0.0
 11
-2192.081452076005
 21
-3346.000544573812
 31
0.0
  0
LINE
  5
204
330
1F
100
AcDbEntity
  8
0-3_仕上げ
  6
Continuous
 62
     7
370
     9
100
AcDbLine
 10
-3386.081315278055
 20
-3334.000579215387
 30
0.0
 11
-2192.081452076005
 21
-3334.000579215387
 31
0.0
  0
LINE
  5
205
330
1F
100
AcDbEntity
  8
0-3_仕上げ
  6
Continuous
 62
     7
370
     9
100
AcDbLine
 10
-3386.081315278055
 20
-3322.000613856962
 30
0.0
 11
-2192.081452076005
 21
-3322.000613856962
 31
0.0
  0
LINE
  5
206
330
1F
100
AcDbEntity
  8
0-3_仕上げ
  6
Continuous
 62
     7
370
     9
100
AcDbLine
 10
-3386.081315278055
 20
-3310.000462918668
 30
0.0
 11
-2192.081452076005
 21
-3310.000462918668
 31
0.0
  0
LINE
  5
207
330
1F
100
AcDbEntity
  8
0-3_仕上げ
  6
Continuous
 62
     7
370
     9
100
AcDbLine
 10
-3386.081315278055
 20
-3358.000695512103
 30
0.0
 11
-2192.081452076005
 21
-3358.000695512103
 31
0.0
  0
LINE
  5
208
330
1F
100
AcDbEntity
  8
0-3_仕上げ
  6
Continuous
 62
    40
370
    15
100
AcDbLine
 10
-3386.081315278055
 20
-3298.000683140112
 30
0.0
 11
-2192.081452076005
 21
-3298.000683140112
 31
0.0
  0
LINE
  5
209
330
1F
100
AcDbEntity
  8
0-3_仕上げ
  6
Continuous
 62
    40
370
    15
100
AcDbLine
 10
-3386.081315278055
 20
-3370.000660870528
 30
0.0
 11
-2192.081452076005
 21
-3370.000660870528
 31
0.0
  0
LWPOLYLINE
  5
20A
330
1F
100
AcDbEntity
  8
0-B_寸法
  6
Continuous
 62
     7
370
     9
100
AcDbPolyline
 90
        4
 70
     1
 43
3.0
 10
-3744.582025251081
 20
-3370.000660870528
 42
0.4142135623731
 10
-3746.082025251081
 20
-3368.500660870528
 42
0.4142135623731
 10
-3747.582025251081
 20
-3370.000660870528
 42
0.4142135623731
 10
-3746.082025251081
 20
-3371.500660870528
 42
0.4142135623731
  0
LINE
  5
20B
330
1F
100
AcDbEntity
  8
0-B_寸法
  6
Continuous
 62
   120
370
     5
100
AcDbLine
 10
-3746.082025251081
 20
-3370.000660870528
 30
0.0
 11
-3386.082064855239
 21
-3370.000660870528
 31
0.0
  0
LWPOLYLINE
  5
20C
330
1F
100
AcDbEntity
  8
0-B_寸法
  6
Continuous
 62
     7
370
     9
100
AcDbPolyline
 90
        4
 70
     1
 43
3.0
 10
-3744.582025251081
 20
-340.0010318096929
 42
0.4142135623731
 10
-3746.082025251081
 20
-338.5010318096929
 42
0.4142135623731
 10
-3747.582025251081
 20
-340.0010318096929
 42
0.4142135623731
 10
-3746.082025251081
 20
-341.5010318096929
 42
0.4142135623731
  0
LINE
  5
20D
330
1F
100
AcDbEntity
  8
0-B_寸法
  6
Continuous
 62
   120
370
     5
100
AcDbLine
 10
-3746.082025251081
 20
-3370.000660870528
 30
0.0
 11
-3746.082025251081
 21
-340.0010318096917
 31
0.0
  0
LINE
  5
20E
330
1F
100
AcDbEntity
  8
0-B_寸法
  6
Continuous
 62
   120
370
     5
100
AcDbLine
 10
-3746.082025251081
 20
-340.0010318096929
 30
0.0
 11
-3110.082024154611
 21
-340.0010318096929
 31
0.0
  0
LINE
  5
20F
330
1F
100
AcDbEntity
  8
0-0_補助線
  6
JWW_HOJO
 62
   120
370
     5
100
AcDbLine
 10
-3746.082025251081
 20
-3370.000660769324
 30
0.0
 11
-3746.082726056073
 21
229.9989830366968
 31
0.0
  0
LINE
  5
210
330
1F
100
AcDbEntity
  8
0-0_補助線
  6
JWW_HOJO
 62
   120
370
     5
100
AcDbLine
 10
-1622.080462140753
 20
-3370.000660769324
 30
0.0
 11
-3746.082025251081
 21
-3370.000660769324
 31
0.0
  0
LINE
  5
211
330
1F
100
AcDbEntity
  8
0-0_補助線
  6
JWW_HOJO
 62
   120
370
     5
100
AcDbLine
 10
-1622.08116294574
 20
229.998983036696
 30
0.0
 11
-3746.082726056073
 21
229.998983036696
 31
0.0
  0
MTEXT
  5
212
330
1F
100
AcDbEntity
  8
0-B_寸法
  6
Continuous
 62
     7
370
   211
100
AcDbMText
 10
-2207.082025251083
 20
-366.2805913668075
 30
0.0
 40
91.44
 41
120.0
 46
0.0
 71
     7
 72
     1
  1
{\fＭＳ ゴシック|b0|i0|c128|p49;11}
 11
6.123031769111886E-17
 21
1.0
 31
0.0
 73
     1
 44
1.0
  0
LINE
  5
213
330
1F
100
AcDbEntity
  8
0-B_寸法
  6
Continuous
 62
   120
370
     5
100
AcDbLine
 10
-2192.082025251083
 20
-370.0010169633027
 30
0.0
 11
-2192.082025251083
 21
-436.0008338578348
 31
0.0
  0
LWPOLYLINE
  5
214
330
1F
100
AcDbEntity
  8
0-B_寸法
  6
Continuous
 62
     7
370
     9
100
AcDbPolyline
 90
        4
 70
     1
 43
3.0
 10
-2190.582025251083
 20
-370.0010169633027
 42
0.4142135623731
 10
-2192.082025251083
 20
-368.5010169633027
 42
0.4142135623731
 10
-2193.582025251082
 20
-370.0010169633027
 42
0.4142135623731
 10
-2192.082025251083
 20
-371.5010169633028
 42
0.4142135623731
  0
LWPOLYLINE
  5
215
330
1F
100
AcDbEntity
  8
0-B_寸法
  6
Continuous
 62
     7
370
     9
100
AcDbPolyline
 90
        4
 70
     1
 43
3.0
 10
-2190.582025251083
 20
-436.0008338578348
 42
0.4142135623731
 10
-2192.082025251083
 20
-434.5008338578348
 42
0.4142135623731
 10
-2193.582025251082
 20
-436.0008338578348
 42
0.4142135623731
 10
-2192.082025251083
 20
-437.5008338578348
 42
0.4142135623731
  0
LINE
  5
216
330
1F
100
AcDbEntity
  8
0-B_寸法
  6
Continuous
 62
   120
370
     5
100
AcDbLine
 10
-2192.082025251083
 20
-370.0010169633027
 30
0.0
 11
-2324.082071027453
 21
-370.0010169633027
 31
0.0
  0
LINE
  5
217
330
1F
100
AcDbEntity
  8
0-B_寸法
  6
Continuous
 62
   120
370
     5
100
AcDbLine
 10
-2192.082025251083
 20
-436.0008338578348
 30
0.0
 11
-2324.082071027453
 21
-436.0008338578348
 31
0.0
  0
LINE
  5
218
330
1F
100
AcDbEntity
  8
0-B_寸法
  6
Continuous
 62
   120
370
     5
100
AcDbLine
 10
-2192.082025251083
 20
-436.0008338578348
 30
0.0
 11
-2192.082025251083
 21
-472.000833857834
 31
0.0
  0
LWPOLYLINE
  5
219
330
1F
100
AcDbEntity
  8
0-B_寸法
  6
Continuous
 62
     7
370
     9
100
AcDbPolyline
 90
        4
 70
     1
 43
3.0
 10
-2190.582025251083
 20
-472.000833857834
 42
0.4142135623731
 10
-2192.082025251083
 20
-470.500833857834
 42
0.4142135623731
 10
-2193.582025251082
 20
-472.000833857834
 42
0.4142135623731
 10
-2192.082025251083
 20
-473.500833857834
 42
0.4142135623731
  0
LINE
  5
21A
330
1F
100
AcDbEntity
  8
0-B_寸法
  6
Continuous
 62
   120
370
     5
100
AcDbLine
 10
-2192.082025251083
 20
-472.000833857834
 30
0.0
 11
-2324.082071027453
 21
-472.000833857834
 31
0.0
  0
LINE
  5
21B
330
1F
100
AcDbEntity
  8
0-B_寸法
  6
Continuous
 62
   120
370
     5
100
AcDbLine
 10
-2192.082025251083
 20
-472.000833857834
 30
0.0
 11
-2192.082025251083
 21
-526.0008338578348
 31
0.0
  0
LWPOLYLINE
  5
21C
330
1F
100
AcDbEntity
  8
0-B_寸法
  6
Continuous
 62
     7
370
     9
100
AcDbPolyline
 90
        4
 70
     1
 43
3.0
 10
-2190.582025251083
 20
-526.0008338578348
 42
0.4142135623731
 10
-2192.082025251083
 20
-524.5008338578348
 42
0.4142135623731
 10
-2193.582025251082
 20
-526.0008338578348
 42
0.4142135623731
 10
-2192.082025251083
 20
-527.5008338578348
 42
0.4142135623731
  0
LINE
  5
21D
330
1F
100
AcDbEntity
  8
0-B_寸法
  6
Continuous
 62
   120
370
     5
100
AcDbLine
 10
-2192.082025251083
 20
-526.0008338578348
 30
0.0
 11
-2324.082071027453
 21
-526.0008338578348
 31
0.0
  0
LINE
  5
21E
330
1F
100
AcDbEntity
  8
0-B_寸法
  6
Continuous
 62
   120
370
     5
100
AcDbLine
 10
-2192.082025251083
 20
-526.0008338578348
 30
0.0
 11
-2192.082025251083
 21
-586.0008338578348
 31
0.0
  0
LWPOLYLINE
  5
21F
330
1F
100
AcDbEntity
  8
0-B_寸法
  6
Continuous
 62
     7
370
     9
100
AcDbPolyline
 90
        4
 70
     1
 43
3.0
 10
-2190.582025251083
 20
-586.0008338578348
 42
0.4142135623731
 10
-2192.082025251083
 20
-584.5008338578348
 42
0.4142135623731
 10
-2193.582025251082
 20
-586.0008338578348
 42
0.4142135623731
 10
-2192.082025251083
 20
-587.5008338578348
 42
0.4142135623731
  0
LINE
  5
220
330
1F
100
AcDbEntity
  8
0-B_寸法
  6
Continuous
 62
   120
370
     5
100
AcDbLine
 10
-2192.082025251083
 20
-586.0008338578348
 30
0.0
 11
-2324.082071027453
 21
-586.0008338578348
 31
0.0
  0
MTEXT
  5
221
330
1F
100
AcDbEntity
  8
0-B_寸法
  6
Continuous
 62
     7
370
   211
100
AcDbMText
 10
-2057.082025251083
 20
-498.2808338578342
 30
0.0
 40
91.44
 41
60.0
 46
0.0
 71
     7
 72
     1
  1
{\fＭＳ ゴシック|b0|i0|c128|p49;6}
 11
6.123031769111886E-17
 21
1.0
 31
0.0
 73
     1
 44
1.0
  0
MTEXT
  5
222
330
1F
100
AcDbEntity
  8
0-B_寸法
  6
Continuous
 62
     7
370
   211
100
AcDbMText
 10
-2207.082025251083
 20
-543.2808338578355
 30
0.0
 40
91.43999999999481
 41
59.99999999999659
 46
0.0
 71
     7
 72
     1
  1
{\fＭＳ ゴシック|b0|i0|c128|p49;9}
 11
6.123031769111886E-17
 21
1.0
 31
0.0
 73
     1
 44
1.0
  0
MTEXT
  5
223
330
1F
100
AcDbEntity
  8
0-B_寸法
  6
Continuous
 62
     7
370
     0
100
AcDbMText
 10
-1817.080762480186
 20
-552.2805344556491
 30
0.0
 40
91.44
 41
120.0
 46
0.0
 71
     7
 72
     1
  1
{\fＭＳ ゴシック|b0|i0|c128|p49;36}
 11
6.123031769111886E-17
 21
1.0
 31
0.0
 73
     1
 44
1.0
  0
LINE
  5
224
330
1F
100
AcDbEntity
  8
0-C_ハッチ
  6
Continuous
 62
   120
370
     5
100
AcDbLine
 10
-2563.63552813724
 20
-586.1467696850433
 30
0.0
 11
-2516.081973658062
 21
-538.5932152058647
 31
0.0
  0
LINE
  5
225
330
1F
100
AcDbEntity
  8
0-C_ハッチ
  6
Continuous
 62
   120
370
     5
100
AcDbLine
 10
-2800.016888091574
 20
-466.1463119213863
 30
0.0
 11
-2704.017528960703
 21
-370.1469527905147
 31
0.0
  0
LINE
  5
226
330
1F
100
AcDbEntity
  8
0-C_ハッチ
  6
Continuous
 62
   120
370
     5
100
AcDbLine
 10
-3038.811285094595
 20
-586.1467696850594
 30
0.0
 11
-2822.811468200052
 21
-370.1469527905121
 31
0.0
  0
LINE
  5
227
330
1F
100
AcDbEntity
  8
0-C_ハッチ
  6
Continuous
 62
   120
370
     5
100
AcDbLine
 10
-2869.62034635381
 20
-586.1467696850489
 30
0.0
 11
-2867.081601819691
 21
-583.6080251509327
 31
0.0
  0
LINE
  5
228
330
1F
100
AcDbEntity
  8
0-C_ハッチ
  6
Continuous
 62
   120
370
     5
100
AcDbLine
 10
-2979.414315474938
 20
-586.1467696850467
 30
0.0
 11
-2867.081601819691
 21
-473.8140560297994
 31
0.0
  0
LINE
  5
229
330
1F
100
AcDbEntity
  8
0-C_ハッチ
  6
Continuous
 62
   120
370
     5
100
AcDbLine
 10
-2859.413857711269
 20
-466.1463119213769
 30
0.0
 11
-2763.414498580398
 21
-370.1469527905078
 31
0.0
  0
LINE
  5
22A
330
1F
100
AcDbEntity
  8
0-C_ハッチ
  6
Continuous
 62
   120
370
     5
100
AcDbLine
 10
-2920.017345855229
 20
-586.1467696850411
 30
0.0
 11
-2867.081601819691
 21
-533.2110256495025
 31
0.0
  0
LINE
  5
22B
330
1F
100
AcDbEntity
  8
0-4_枠
  6
Continuous
 62
    92
370
    13
100
AcDbLine
 10
-2516.082028430004
 20
-526.1467696850489
 30
0.0
 11
-2516.082041145674
 21
-586.1467696850489
 31
0.0
  0
LINE
  5
22C
330
1F
100
AcDbEntity
  8
0-4_枠
  6
Continuous
 62
    92
370
    13
100
AcDbLine
 10
-2516.082009356502
 20
-436.1467696850488
 30
0.0
 11
-2516.082016985903
 21
-472.1467696850493
 31
0.0
  0
LINE
  5
22D
330
1F
100
AcDbEntity
  8
0-4_枠
  6
Continuous
 62
    92
370
    13
100
AcDbLine
 10
-2558.082016985902
 20
-436.1467696850488
 30
0.0
 11
-2516.082009356502
 21
-436.1467696850488
 31
0.0
  0
LINE
  5
22E
330
1F
100
AcDbEntity
  8
0-4_枠
  6
Continuous
 62
    92
370
    13
100
AcDbLine
 10
-2558.082016985902
 20
-436.1467696850488
 30
0.0
 11
-2558.082016985902
 21
-370.1469527905181
 31
0.0
  0
LINE
  5
22F
330
1F
100
AcDbEntity
  8
0-4_枠
  6
Continuous
 62
    92
370
    13
100
AcDbLine
 10
-2867.082701525387
 20
-466.1463119213769
 30
0.0
 11
-2699.082448682484
 21
-466.1463119213769
 31
0.0
  0
LINE
  5
230
330
1F
100
AcDbEntity
  8
0-4_枠
  6
Continuous
 62
    92
370
    13
100
AcDbLine
 10
-2915.082041145669
 20
-370.1469527905181
 30
0.0
 11
-2558.082016985902
 21
-370.1469527905181
 31
0.0
  0
LINE
  5
231
330
1F
100
AcDbEntity
  8
0-4_枠
  6
Continuous
 62
    92
370
    13
100
AcDbLine
 10
-2915.082041145669
 20
-370.1469527905181
 30
0.0
 11
-2915.08204877507
 21
-406.1469527905173
 31
0.0
  0
LINE
  5
232
330
1F
100
AcDbEntity
  8
0-4_枠
  6
Continuous
 62
    92
370
    13
100
AcDbLine
 10
-3050.082048775074
 20
-406.1469527905182
 30
0.0
 11
-2915.08204877507
 21
-406.1469527905182
 31
0.0
  0
LINE
  5
233
330
1F
100
AcDbEntity
  8
0-4_枠
  6
Continuous
 62
    92
370
    13
100
AcDbLine
 10
-3050.082048775074
 20
-406.1469527905182
 30
0.0
 11
-3050.082086922041
 21
-586.1467696850489
 31
0.0
  0
LINE
  5
234
330
1F
100
AcDbEntity
  8
0-4_枠
  6
Continuous
 62
    92
370
    13
100
AcDbLine
 10
-2576.082028430004
 20
-526.1467696850489
 30
0.0
 11
-2516.082028430004
 21
-526.1467696850489
 31
0.0
  0
LINE
  5
235
330
1F
100
AcDbEntity
  8
0-4_枠
  6
Continuous
 62
    92
370
    13
100
AcDbLine
 10
-2576.082016985899
 20
-472.1467696850493
 30
0.0
 11
-2576.082028430004
 21
-526.1467696850489
 31
0.0
  0
LINE
  5
236
330
1F
100
AcDbEntity
  8
0-4_枠
  6
Continuous
 62
    92
370
    13
100
AcDbLine
 10
-2576.082016985899
 20
-472.1467696850493
 30
0.0
 11
-2516.082016985903
 21
-472.1467696850493
 31
0.0
  0
LINE
  5
237
330
1F
100
AcDbEntity
  8
0-C_ハッチ
  6
Continuous
 62
   120
370
     5
100
AcDbLine
 10
-3050.08205154702
 20
-419.2266272784979
 30
0.0
 11
-3037.002377059044
 21
-406.1469527905182
 31
0.0
  0
LINE
  5
238
330
1F
100
AcDbEntity
  8
0-C_ハッチ
  6
Continuous
 62
   120
370
     5
100
AcDbLine
 10
-3050.082064134893
 20
-478.6236094860053
 30
0.0
 11
-2977.605407439406
 21
-406.1469527905182
 31
0.0
  0
LINE
  5
239
330
1F
100
AcDbEntity
  8
0-C_ハッチ
  6
Continuous
 62
   120
370
     5
100
AcDbLine
 10
-2915.082048112502
 20
-403.0205630833143
 30
0.0
 11
-2882.208437819713
 21
-370.1469527905257
 31
0.0
  0
LINE
  5
23A
330
1F
100
AcDbEntity
  8
0-C_ハッチ
  6
Continuous
 62
   120
370
     5
100
AcDbLine
 10
-3050.082076722765
 20
-538.0205916935788
 30
0.0
 11
-2918.208437819705
 21
-406.1469527905182
 31
0.0
  0
LINE
  5
23B
330
1F
100
AcDbEntity
  8
0-C_ハッチ
  6
Continuous
 62
   120
370
     5
100
AcDbLine
 10
-2740.619918471917
 20
-466.1463119213761
 30
0.0
 11
-2644.620559341059
 21
-370.1469527905181
 31
0.0
  0
LINE
  5
23C
330
1F
100
AcDbEntity
  8
0-C_ハッチ
  6
Continuous
 62
   120
370
     5
100
AcDbLine
 10
-2699.081348976787
 20
-484.0047120459485
 30
0.0
 11
-2585.223589721358
 21
-370.1469527905181
 31
0.0
  0
LINE
  5
23D
330
1F
100
AcDbEntity
  8
0-C_ハッチ
  6
Continuous
 62
   120
370
     5
100
AcDbLine
 10
-2699.081348976787
 20
-543.4016816655958
 30
0.0
 11
-2558.082016985902
 21
-402.4023496747074
 31
0.0
  0
LINE
  5
23E
330
1F
100
AcDbEntity
  8
0-C_ハッチ
  6
Continuous
 62
   120
370
     5
100
AcDbLine
 10
-2682.429467376545
 20
-586.1467696850526
 30
0.0
 11
-2576.082018607687
 21
-479.7993209161962
 31
0.0
  0
LINE
  5
23F
330
1F
100
AcDbEntity
  8
0-C_ハッチ
  6
Continuous
 62
   120
370
     5
100
AcDbLine
 10
-2568.429467376542
 20
-472.1467696850493
 30
0.0
 11
-2532.429467376542
 21
-436.1467696850488
 31
0.0
  0
LINE
  5
240
330
1F
100
AcDbEntity
  8
0-C_ハッチ
  6
Continuous
 62
   120
370
     5
100
AcDbLine
 10
-2623.032497756901
 20
-586.1467696850557
 30
0.0
 11
-2563.032497756894
 21
-526.1467696850489
 31
0.0
  0
LINE
  5
241
330
1F
100
AcDbEntity
  8
0-4_枠
  6
Continuous
 62
   120
370
     5
100
AcDbLine
 10
-2915.082041145669
 20
-370.1469527905181
 30
0.0
 11
-3059.082025251088
 21
-370.1469527905181
 31
0.0
  0
LINE
  5
242
330
1F
100
AcDbEntity
  8
0-4_枠
  6
Continuous
 62
    92
370
    13
100
AcDbLine
 10
-3050.082086922041
 20
-586.1467696850489
 30
0.0
 11
-2867.082701525387
 21
-586.1467696850489
 31
0.0
  0
LINE
  5
243
330
1F
100
AcDbEntity
  8
0-4_枠
  6
Continuous
 62
    92
370
    13
100
AcDbLine
 10
-2867.082701525387
 20
-586.1467696850489
 30
0.0
 11
-2867.082701525387
 21
-466.1463119213769
 31
0.0
  0
LINE
  5
244
330
1F
100
AcDbEntity
  8
0-4_枠
  6
Continuous
 62
    92
370
    13
100
AcDbLine
 10
-2699.082448682484
 20
-586.1467696850489
 30
0.0
 11
-2516.082041145674
 21
-586.1467696850489
 31
0.0
  0
LINE
  5
245
330
1F
100
AcDbEntity
  8
0-4_枠
  6
Continuous
 62
    92
370
    13
100
AcDbLine
 10
-2699.082448682484
 20
-466.1463119213769
 30
0.0
 11
-2699.082448682484
 21
-586.1467696850489
 31
0.0
  0
LINE
  5
246
330
1F
100
AcDbEntity
  8
0-0_補助線
  6
JWW_HOJO
 62
   120
370
     5
100
AcDbLine
 10
-3566.082025251084
 20
-3370.000625729071
 30
0.0
 11
-3566.082726056076
 21
229.9990180769504
 31
0.0
  0
LINE
  5
247
330
1F
100
AcDbEntity
  8
0-0_補助線
  6
JWW_HOJO
 62
   120
370
     5
100
AcDbLine
 10
-2553.396257228705
 20
-1870.001135734419
 30
0.0
 11
-3012.767793273466
 21
-1870.001135734419
 31
0.0
  0
LINE
  5
248
330
1F
100
AcDbEntity
  8
0-0_補助線
  6
JWW_HOJO
 62
   120
370
     5
100
AcDbLine
 10
-2553.396257228705
 20
-1990.001135734419
 30
0.0
 11
-3012.767793273466
 21
-1990.001135734419
 31
0.0
  0
LINE
  5
249
330
1F
100
AcDbEntity
  8
0-4_枠
  6
Continuous
 62
   120
370
     5
100
AcDbLine
 10
-3059.082025251088
 20
-3298.000683140112
 30
0.0
 11
-3059.082025251088
 21
-370.1469527905181
 31
0.0
  0
LINE
  5
24A
330
1F
100
AcDbEntity
  8
0-B_寸法
  6
Continuous
 62
   120
370
     5
100
AcDbLine
 10
-2864.081475934684
 20
-1232.990606345165
 30
0.0
 11
-2702.081475934685
 21
-1232.990606345165
 31
0.0
  0
LWPOLYLINE
  5
24B
330
1F
100
AcDbEntity
  8
0-B_寸法
  6
Continuous
 62
     7
370
     9
100
AcDbPolyline
 90
        4
 70
     1
 43
3.0
 10
-2862.581475934684
 20
-1232.990606345165
 42
0.4142135623731
 10
-2864.081475934684
 20
-1231.490606345165
 42
0.4142135623731
 10
-2865.581475934684
 20
-1232.990606345165
 42
0.4142135623731
 10
-2864.081475934684
 20
-1234.490606345165
 42
0.4142135623731
  0
LINE
  5
24C
330
1F
100
AcDbEntity
  8
0-B_寸法
  6
Continuous
 62
   120
370
     5
100
AcDbLine
 10
-2864.081475934684
 20
-1148.753677766193
 30
0.0
 11
-2864.081475934684
 21
-1232.990606345165
 31
0.0
  0
LWPOLYLINE
  5
24D
330
1F
100
AcDbEntity
  8
0-B_寸法
  6
Continuous
 62
     7
370
     9
100
AcDbPolyline
 90
        4
 70
     1
 43
3.0
 10
-2700.581475934685
 20
-1232.990606345165
 42
0.4142135623731
 10
-2702.081475934685
 20
-1231.490606345165
 42
0.4142135623731
 10
-2703.581475934685
 20
-1232.990606345165
 42
0.4142135623731
 10
-2702.081475934685
 20
-1234.490606345165
 42
0.4142135623731
  0
LINE
  5
24E
330
1F
100
AcDbEntity
  8
0-B_寸法
  6
Continuous
 62
   120
370
     5
100
AcDbLine
 10
-2702.081475934685
 20
-1148.753677766193
 30
0.0
 11
-2702.081475934685
 21
-1232.990606345165
 31
0.0
  0
MTEXT
  5
24F
330
1F
100
AcDbEntity
  8
0-B_寸法
  6
Continuous
 62
     7
370
   211
100
AcDbMText
 10
-2207.082025251083
 20
-738.2804082613387
 30
0.0
 40
91.44
 41
120.0
 46
0.0
 71
     7
 72
     1
  1
{\fＭＳ ゴシック|b0|i0|c128|p49;10}
 11
6.123031769111886E-17
 21
1.0
 31
0.0
 73
     1
 44
1.0
  0
MTEXT
  5
250
330
1F
100
AcDbEntity
  8
0-B_寸法
  6
Continuous
 62
     7
370
     0
100
AcDbMText
 10
-1996.509984233489
 20
-823.2367769162767
 30
0.0
 40
91.44000000000347
 41
180.0000000000068
 46
0.0
 71
     7
 72
     1
  1
{\fＭＳ ゴシック|b0|i0|c128|p49;7.5}
 11
6.123031769111886E-17
 21
1.0
 31
0.0
 73
     1
 44
1.0
  0
MTEXT
  5
251
330
1F
100
AcDbEntity
  8
0-B_寸法
  6
Continuous
 62
     7
370
     0
100
AcDbMText
 10
-2843.082025250579
 20
-1232.270989877092
 30
0.0
 40
91.44000000000311
 41
120.0000000000041
 46
0.0
 71
     7
 72
     1
  1
{\fＭＳ ゴシック|b0|i0|c128|p49;27}
 11
0.9999999999914964
 21
4.124000465566128E-6
 31
0.0
 73
     1
 44
1.0
  0
MTEXT
  5
252
330
1F
100
AcDbEntity
  8
0-B_寸法
  6
Continuous
 62
     7
370
     0
100
AcDbMText
 10
-2899.330921359165
 20
-1393.489229742067
 30
0.0
 40
91.43999999999986
 41
239.9999999999996
 46
0.0
 71
     7
 72
     1
  1
{\fＭＳ ゴシック|b0|i0|c128|p49;(24)}
 11
0.9999999999914964
 21
-4.124000483563069E-6
 31
0.0
 73
     1
 44
1.0
  0
MTEXT
  5
253
330
1F
100
AcDbEntity
  8
0-B_寸法
  6
Continuous
 62
     7
370
     0
100
AcDbMText
 10
-1996.548696900597
 20
-3252.912872984223
 30
0.0
 40
91.44
 41
240.0
 46
0.0
 71
     7
 72
     1
  1
{\fＭＳ ゴシック|b0|i0|c128|p49;11.5}
 11
6.123031769111886E-17
 21
1.0
 31
0.0
 73
     1
 44
1.0
  0
MTEXT
  5
254
330
1F
100
AcDbEntity
  8
0-B_寸法
  6
Continuous
 62
     7
370
     0
100
AcDbMText
 10
-1637.082018784172
 20
-3309.918529654263
 30
0.0
 40
91.44
 41
120.0
 46
0.0
 71
     7
 72
     1
  1
{\fＭＳ ゴシック|b0|i0|c128|p49;12}
 11
6.123031769111886E-17
 21
1.0
 31
0.0
 73
     1
 44
1.0
  0
MTEXT
  5
255
330
1F
100
AcDbEntity
  8
0-B_寸法
  6
Continuous
 62
     7
370
     0
100
AcDbMText
 10
-1997.081508821681
 20
-2256.810207048482
 30
0.0
 40
91.43999999999997
 41
660.0
 46
0.0
 71
     7
 72
     1
  1
{\fＭＳ ゴシック|b0|i0|c128|p49;ＤＨ＝2,284}
 11
6.123031769111886E-17
 21
1.0
 31
0.0
 73
     1
 44
1.0
  0
MTEXT
  5
256
330
1F
100
AcDbEntity
  8
0-B_寸法
  6
Continuous
 62
     7
370
     0
100
AcDbMText
 10
-1817.080762480186
 20
-2256.810207048482
 30
0.0
 40
91.43999999999997
 41
660.0
 46
0.0
 71
     7
 72
     1
  1
{\fＭＳ ゴシック|b0|i0|c128|p49;枠内＝2,303}
 11
6.123031769111886E-17
 21
1.0
 31
0.0
 73
     1
 44
1.0
  0
MTEXT
  5
257
330
1F
100
AcDbEntity
  8
0-B_寸法
  6
Continuous
 62
     7
370
     0
100
AcDbMText
 10
-1637.082018784172
 20
-2256.810207048482
 30
0.0
 40
91.43999999999997
 41
660.0
 46
0.0
 71
     7
 72
     1
  1
{\fＭＳ ゴシック|b0|i0|c128|p49;枠外＝2,339}
 11
6.123031769111886E-17
 21
1.0
 31
0.0
 73
     1
 44
1.0
  0
MTEXT
  5
258
330
1F
100
AcDbEntity
  8
0-B_寸法
  6
Continuous
 62
     7
370
   211
100
AcDbMText
 10
-3761.082025251081
 20
-2316.810207048482
 30
0.0
 40
91.43999999999997
 41
780.0
 46
0.0
 71
     7
 72
     1
  1
{\fＭＳ ゴシック|b0|i0|c128|p49;ＲＯＨ＝2,356}
 11
6.123031769111886E-17
 21
1.0
 31
0.0
 73
     1
 44
1.0
  0
MTEXT
  5
259
330
1F
100
AcDbEntity
  8
0-A_文字
  6
Continuous
 62
     7
370
     0
100
AcDbMText
 10
-3746.082025251081
 20
-3613.551939285387
 30
0.0
 40
68.58000000000001
 41
1395.0
 46
0.0
 71
     7
 72
     1
  1
{\fＭＳ ゴシック|b0|i0|c128|p49;※ 扉厚（　）内はルーバーの場合}
 73
     1
 44
1.0
  0
LINE
  5
25A
330
1F
100
AcDbEntity
  8
0-3_仕上げ
  6
Continuous
 62
   120
370
     5
100
AcDbLine
 10
-2558.082016985902
 20
-208.0008487042221
 30
0.0
 11
-2558.082016985902
 21
-406.0008487042236
 31
0.0
  0
LINE
  5
25B
330
1F
100
AcDbEntity
  8
0-C_ハッチ
  6
JWW_DASHED1
 62
   120
370
     5
100
AcDbLine
 10
-2558.082016985898
 20
66.32547189344848
 30
0.0
 11
-2483.082016985905
 21
141.3254718934434
 31
0.0
  0
LINE
  5
25C
330
1F
100
AcDbEntity
  8
0-C_ハッチ
  6
JWW_DASHED1
 62
   120
370
     5
100
AcDbLine
 10
-2558.082016985908
 20
23.89906502229195
 30
0.0
 11
-2483.082016985898
 21
98.89906502230474
 31
0.0
  0
LINE
  5
25D
330
1F
100
AcDbEntity
  8
0-C_ハッチ
  6
JWW_DASHED1
 62
   120
370
     5
100
AcDbLine
 10
-2558.082016985905
 20
-18.5273418489038
 30
0.0
 11
-2483.082016985892
 21
56.47265815110728
 31
0.0
  0
LINE
  5
25E
330
1F
100
AcDbEntity
  8
0-C_ハッチ
  6
JWW_DASHED1
 62
   120
370
     5
100
AcDbLine
 10
-2558.082016985902
 20
-60.95374872010126
 30
0.0
 11
-2483.082016985905
 21
14.04625127989533
 31
0.0
  0
LINE
  5
25F
330
1F
100
AcDbEntity
  8
0-C_ハッチ
  6
JWW_DASHED1
 62
   120
370
     5
100
AcDbLine
 10
-2558.082016985898
 20
-103.380155591297
 30
0.0
 11
-2483.082016985902
 21
-28.38015559130213
 31
0.0
  0
LINE
  5
260
330
1F
100
AcDbEntity
  8
0-C_ハッチ
  6
JWW_DASHED1
 62
   120
370
     5
100
AcDbLine
 10
-2558.082016985895
 20
-145.8065624624945
 30
0.0
 11
-2483.082016985898
 21
-70.80656246249958
 31
0.0
  0
LINE
  5
261
330
1F
100
AcDbEntity
  8
0-C_ハッチ
  6
JWW_DASHED1
 62
   120
370
     5
100
AcDbLine
 10
-2558.082016985892
 20
-188.2329693336928
 30
0.0
 11
-2483.082016985898
 21
-113.232969333697
 31
0.0
  0
LINE
  5
262
330
1F
100
AcDbEntity
  8
0-C_ハッチ
  6
JWW_DASHED1
 62
   120
370
     5
100
AcDbLine
 10
-2558.082016985895
 20
-230.6593762048941
 30
0.0
 11
-2483.082016985898
 21
-155.6593762048996
 31
0.0
  0
LINE
  5
263
330
1F
100
AcDbEntity
  8
0-C_ハッチ
  6
JWW_DASHED1
 62
   120
370
     5
100
AcDbLine
 10
-2558.082016985892
 20
-273.0857830760903
 30
0.0
 11
-2483.082016985895
 21
-198.0857830760954
 31
0.0
  0
LINE
  5
264
330
1F
100
AcDbEntity
  8
0-C_ハッチ
  6
JWW_DASHED1
 62
   120
370
     5
100
AcDbLine
 10
-2558.082016985912
 20
-315.5121899472545
 30
0.0
 11
-2483.082016985898
 21
-240.5121899472425
 31
0.0
  0
LINE
  5
265
330
1F
100
AcDbEntity
  8
0-C_ハッチ
  6
JWW_DASHED1
 62
   120
370
     5
100
AcDbLine
 10
-2558.082016985905
 20
-357.9385968184528
 30
0.0
 11
-2483.082016985895
 21
-282.9385968184396
 31
0.0
  0
LINE
  5
266
330
1F
100
AcDbEntity
  8
0-C_ハッチ
  6
JWW_DASHED1
 62
   120
370
     5
100
AcDbLine
 10
-2558.082016985905
 20
-400.3650036896485
 30
0.0
 11
-2483.082016985905
 21
-325.3650036896519
 31
0.0
  0
LINE
  5
267
330
1F
100
AcDbEntity
  8
0-C_ハッチ
  6
JWW_DASHED1
 62
   120
370
     5
100
AcDbLine
 10
-2551.437376110106
 20
-436.1467696850497
 30
0.0
 11
-2483.082016985905
 21
-367.7914105608494
 31
0.0
  0
LINE
  5
268
330
1F
100
AcDbEntity
  8
0-C_ハッチ
  6
JWW_DASHED1
 62
   120
370
     5
100
AcDbLine
 10
-2509.010969238906
 20
-436.1467696850497
 30
0.0
 11
-2483.082016985898
 21
-410.2178174320451
 31
0.0
  0
LINE
  5
269
330
1F
100
AcDbEntity
  8
0-3_仕上げ
  6
Continuous
 62
    40
370
    15
100
AcDbLine
 10
-2483.082016985902
 20
-436.1467696850488
 30
0.0
 11
-2558.082016985902
 21
-436.1467696850488
 31
0.0
  0
LINE
  5
26A
330
1F
100
AcDbEntity
  8
0-3_仕上げ
  6
Continuous
 62
   120
370
     5
100
AcDbLine
 10
-2558.082016985902
 20
-340.0010318096929
 30
0.0
 11
-2978.082016985905
 21
-340.0010318096929
 31
0.0
  0
LINE
  5
26B
330
1F
100
AcDbEntity
  8
0-3_仕上げ
  6
Continuous
 62
   120
370
     5
100
AcDbLine
 10
-2978.082016985905
 20
-340.0010318096929
 30
0.0
 11
-2978.082016985905
 21
-160.0010318096929
 31
0.0
  0
LINE
  5
26C
330
1F
100
AcDbEntity
  8
0-3_仕上げ
  6
Continuous
 62
   120
370
     5
100
AcDbLine
 10
-2978.082016985905
 20
-160.0010318096929
 30
0.0
 11
-2558.082016985902
 21
-160.0010318096929
 31
0.0
  0
LINE
  5
26D
330
1F
100
AcDbEntity
  8
0-3_仕上げ
  6
Continuous
 62
   120
370
     5
100
AcDbLine
 10
-2978.082016985905
 20
-160.0010318096929
 30
0.0
 11
-2558.082016985902
 21
-340.0010318096929
 31
0.0
  0
LINE
  5
26E
330
1F
100
AcDbEntity
  8
0-3_仕上げ
  6
Continuous
 62
    40
370
    15
100
AcDbLine
 10
-2483.082016985902
 20
-436.1467696850488
 30
0.0
 11
-2483.082016985902
 21
229.998983036696
 31
0.0
  0
LINE
  5
26F
330
1F
100
AcDbEntity
  8
0-C_ハッチ
  6
JWW_DASHED1
 62
   120
370
     5
100
AcDbLine
 10
-2558.082016985892
 20
151.1782856358553
 30
0.0
 11
-2483.082016985902
 21
226.1782856358299
 31
0.0
  0
LINE
  5
270
330
1F
100
AcDbEntity
  8
0-C_ハッチ
  6
JWW_DASHED1
 62
   120
370
     5
100
AcDbLine
 10
-2558.082016985902
 20
108.7518787646442
 30
0.0
 11
-2483.082016985902
 21
183.7518787646454
 31
0.0
  0
LWPOLYLINE
  5
271
330
1F
100
AcDbEntity
  8
0-B_寸法
  6
Continuous
 62
     7
370
     9
100
AcDbPolyline
 90
        4
 70
     1
 43
3.0
 10
-2514.582041145674
 20
-881.4833562674393
 42
0.4142135623731
 10
-2516.082041145674
 20
-879.9833562674393
 42
0.4142135623731
 10
-2517.582041145674
 20
-881.4833562674393
 42
0.4142135623731
 10
-2516.082041145674
 20
-882.9833562674393
 42
0.4142135623731
  0
LINE
  5
272
330
1F
100
AcDbEntity
  8
0-B_寸法
  6
Continuous
 62
   120
370
     5
100
AcDbLine
 10
-2516.082041145674
 20
-881.4833562674393
 30
0.0
 11
-2516.082041145674
 21
-727.7724088455454
 31
0.0
  0
LWPOLYLINE
  5
273
330
1F
100
AcDbEntity
  8
0-B_寸法
  6
Continuous
 62
     7
370
     9
100
AcDbPolyline
 90
        4
 70
     1
 43
3.0
 10
-3048.582086922041
 20
-881.4833562674393
 42
0.4142135623731
 10
-3050.082086922041
 20
-879.9833562674393
 42
0.4142135623731
 10
-3051.582086922041
 20
-881.4833562674393
 42
0.4142135623731
 10
-3050.082086922041
 20
-882.9833562674393
 42
0.4142135623731
  0
LINE
  5
274
330
1F
100
AcDbEntity
  8
0-B_寸法
  6
Continuous
 62
   120
370
     5
100
AcDbLine
 10
-3050.082086922041
 20
-881.4833562674393
 30
0.0
 11
-3050.082086922041
 21
-727.7724088455454
 31
0.0
  0
LINE
  5
275
330
1F
100
AcDbEntity
  8
0-B_寸法
  6
Continuous
 62
   120
370
     5
100
AcDbLine
 10
-2516.082041145674
 20
-881.4833562674393
 30
0.0
 11
-3050.082086922041
 21
-881.4833562674393
 31
0.0
  0
MTEXT
  5
276
330
1F
100
AcDbEntity
  8
0-B_寸法
  6
Continuous
 62
     7
370
     0
100
AcDbMText
 10
-2843.082025251087
 20
-880.7633562674392
 30
0.0
 40
91.44
 41
120.0
 46
0.0
 71
     7
 72
     1
  1
{\fＭＳ ゴシック|b0|i0|c128|p49;89}
 73
     1
 44
1.0
  0
LINE
  5
277
330
1F
100
AcDbEntity
  8
0-4_枠
  6
Continuous
 62
   120
370
     5
100
AcDbLine
 10
-2507.082025251093
 20
-436.1467696850488
 30
0.0
 11
-2507.082025251093
 21
-3298.000683140111
 31
0.0
  0
MTEXT
  5
278
330
1F
100
AcDbEntity
  8
0-B_寸法
  6
Continuous
 62
     7
370
     0
100
AcDbMText
 10
-989.2457813054694
 20
-456.9447688221741
 30
0.0
 40
91.44
 41
1440.0
 46
0.0
 71
     7
 72
     1
  1
{\fＭＳ ゴシック|b0|i0|c128|p49;竪枠下端形状図（S＝1/3）}
 73
     1
 44
1.0
  0
MTEXT
  5
279
330
1F
100
AcDbEntity
  8
0-B_寸法
  6
Continuous
 62
     7
370
   211
100
AcDbMText
 10
-294.1283260317199
 20
-1241.601345170036
 30
0.0
 40
91.44
 41
120.0
 46
0.0
 71
     7
 72
     1
  1
{\fＭＳ ゴシック|b0|i0|c128|p49;92}
 73
     1
 44
1.0
  0
MTEXT
  5
27A
330
1F
100
AcDbEntity
  8
0-B_寸法
  6
Continuous
 62
     7
370
     9
100
AcDbMText
 10
728.907709466
 20
-232.1502819863373
 30
0.0
 40
91.43999999999997
 41
2520.0
 46
0.0
 71
     7
 72
     1
  1
{\fＭＳ ゴシック|b0|i0|c128|p49;■ガイドランナーの取り付け(ＭＵＫＵ調整枠)}
 73
     1
 44
1.0
  0
MTEXT
  5
27B
330
1F
100
AcDbEntity
  8
0-B_寸法
  6
Continuous
 62
     7
370
     9
100
AcDbMText
 10
1427.988899529824
 20
-453.183145859918
 30
0.0
 40
91.44
 41
960.0
 46
0.0
 71
     7
 72
     1
  1
{\fＭＳ ゴシック|b0|i0|c128|p49;下固定ストッパー}
 73
     1
 44
1.0
  0
MTEXT
  5
27C
330
1F
100
AcDbEntity
  8
0-B_寸法
  6
Continuous
 62
     7
370
     9
100
AcDbMText
 10
3196.788899529828
 20
-453.183145859918
 30
0.0
 40
91.44
 41
2160.0
 46
0.0
 71
     7
 72
     1
  1
{\fＭＳ ゴシック|b0|i0|c128|p49;ストライク(可動側受け金具)の取り付け}
 73
     1
 44
1.0
  0
MTEXT
  5
27D
330
1F
100
AcDbEntity
  8
0-B_寸法
  6
Continuous
 62
     7
370
     9
100
AcDbMText
 10
837.0422859517784
 20
-687.8618730146139
 30
0.0
 40
64.00799999999997
 41
1973.999999999999
 46
0.0
 71
     7
 72
     1
  1
{\fＭＳ ゴシック|b0|i0|c128|p49;竪枠の後ろ面から6.5㎜内側に取り付けてください。}
 73
     1
 44
1.0
  0
MTEXT
  5
27E
330
1F
100
AcDbEntity
  8
0-B_寸法
  6
Continuous
 62
     7
370
     9
100
AcDbMText
 10
3154.584991983555
 20
-687.8618730146139
 30
0.0
 40
64.00799999999998
 41
2100.0
 46
0.0
 71
     7
 72
     1
  1
{\fＭＳ ゴシック|b0|i0|c128|p49;扉を吊った後ストライクを取り付ける際は、下図のよう}
 73
     1
 44
1.0
  0
MTEXT
  5
27F
330
1F
100
AcDbEntity
  8
0-B_寸法
  6
Continuous
 62
     7
370
     9
100
AcDbMText
 10
837.0422859517776
 20
-810.2618730146152
 30
0.0
 40
64.00800000000005
 41
1806.000000000001
 46
0.0
 71
     7
 72
     1
  1
{\fＭＳ ゴシック|b0|i0|c128|p49;ストッパー側面は竪枠から6.5㎜離して下さい。}
 73
     1
 44
1.0
  0
MTEXT
  5
280
330
1F
100
AcDbEntity
  8
0-B_寸法
  6
Continuous
 62
     7
370
     9
100
AcDbMText
 10
3154.584991983555
 20
-810.2618730146118
 30
0.0
 40
64.00799999999998
 41
2100.0
 46
0.0
 71
     7
 72
     1
  1
{\fＭＳ ゴシック|b0|i0|c128|p49;に下用ガイド軸とストライクの位置決め溝をそろえて、}
 73
     1
 44
1.0
  0
MTEXT
  5
281
330
1F
100
AcDbEntity
  8
0-B_寸法
  6
Continuous
 62
     7
370
     9
100
AcDbMText
 10
3154.584991983555
 20
-932.661873014613
 30
0.0
 40
64.00799999999995
 41
1511.999999999999
 46
0.0
 71
     7
 72
     1
  1
{\fＭＳ ゴシック|b0|i0|c128|p49;床に付属のビスで取り付けてください。}
 73
     1
 44
1.0
  0
MTEXT
  5
282
330
1F
100
AcDbEntity
  8
0-B_寸法
  6
Continuous
 62
     7
370
     9
100
AcDbMText
 10
1700.85258622284
 20
-1211.530445922841
 30
0.0
 40
45.72
 41
300.0
 46
0.0
 71
     7
 72
     1
  1
{\fＭＳ ゴシック|b0|i0|c128|p49;枠センター}
 73
     1
 44
1.0
  0
MTEXT
  5
283
330
1F
100
AcDbEntity
  8
0-B_寸法
  6
Continuous
 62
     7
370
     9
100
AcDbMText
 10
2404.068671471848
 20
-1406.694391408799
 30
0.0
 40
45.71999999999998
 41
600.0
 46
0.0
 71
     7
 72
     1
  1
{\fＭＳ ゴシック|b0|i0|c128|p49;取り付けビス(同梱品)}
 73
     1
 44
1.0
  0
MTEXT
  5
284
330
1F
100
AcDbEntity
  8
0-B_寸法
  6
Continuous
 62
     7
370
   211
100
AcDbMText
 10
1838.292266220173
 20
-1826.289881453685
 30
0.0
 40
68.57999999999998
 41
225.0
 46
0.0
 71
     7
 72
     1
  1
{\fＭＳ ゴシック|b0|i0|c128|p49;6.5㎜}
 73
     1
 44
1.0
  0
MTEXT
  5
285
330
1F
100
AcDbEntity
  8
0-B_寸法
  6
Continuous
 62
     7
370
     9
100
AcDbMText
 10
4702.898056849041
 20
-1886.856903101274
 30
0.0
 40
45.72
 41
180.0
 46
0.0
 71
     7
 72
     1
  1
{\fＭＳ ゴシック|b0|i0|c128|p49;ガイド}
 73
     1
 44
1.0
  0
MTEXT
  5
286
330
1F
100
AcDbEntity
  8
0-B_寸法
  6
Continuous
 62
     7
370
     9
100
AcDbMText
 10
4571.326121402773
 20
-2106.334284798695
 30
0.0
 40
45.71999999999999
 41
600.0
 46
0.0
 71
     7
 72
     1
  1
{\fＭＳ ゴシック|b0|i0|c128|p49;ストライクとガイドの}
 73
     1
 44
1.0
  0
MTEXT
  5
287
330
1F
100
AcDbEntity
  8
0-B_寸法
  6
Continuous
 62
     7
370
     9
100
AcDbMText
 10
3941.396932484727
 20
-2135.621925852282
 30
0.0
 40
45.72
 41
360.0
 46
0.0
 71
     7
 72
     1
  1
{\fＭＳ ゴシック|b0|i0|c128|p49;枠の前面より}
 73
     1
 44
1.0
  0
MTEXT
  5
288
330
1F
100
AcDbEntity
  8
0-B_寸法
  6
Continuous
 62
     7
370
     9
100
AcDbMText
 10
4571.326121402773
 20
-2174.362810414883
 30
0.0
 40
45.72
 41
300.0
 46
0.0
 71
     7
 72
     1
  1
{\fＭＳ ゴシック|b0|i0|c128|p49;位置決め溝}
 73
     1
 44
1.0
  0
LINE
  5
289
330
1F
100
AcDbEntity
  8
0-B_寸法
  6
Continuous
 62
    92
370
    13
100
AcDbLine
 10
5461.188899529829
 20
-486.9031458599165
 30
0.0
 11
723.5888995298195
 21
-486.9031458599165
 31
0.0
  0
LINE
  5
28A
330
1F
100
AcDbEntity
  8
0-B_寸法
  6
JWW_HOJO
 62
   120
370
     5
100
AcDbLine
 10
3154.584991983555
 20
-568.665873014615
 30
0.0
 11
5248.598750943557
 21
-568.665873014615
 31
0.0
  0
LINE
  5
28B
330
1F
100
AcDbEntity
  8
0-B_寸法
  6
JWW_HOJO
 62
   120
370
     5
100
AcDbLine
 10
3154.584991983555
 20
-935.8658730146119
 30
0.0
 11
5248.598750943557
 21
-935.8658730146119
 31
0.0
  0
LINE
  5
28C
330
1F
100
AcDbEntity
  8
0-B_寸法
  6
JWW_HOJO
 62
   120
370
     5
100
AcDbLine
 10
3154.584991983555
 20
-691.0658730146129
 30
0.0
 11
5248.598750943557
 21
-691.0658730146129
 31
0.0
  0
LINE
  5
28D
330
1F
100
AcDbEntity
  8
0-B_寸法
  6
JWW_HOJO
 62
   120
370
     5
100
AcDbLine
 10
3154.584991983555
 20
-813.4658730146128
 30
0.0
 11
5248.598750943557
 21
-813.4658730146128
 31
0.0
  0
LINE
  5
28E
330
1F
100
AcDbEntity
  8
0-B_寸法
  6
JWW_HOJO
 62
   120
370
     5
100
AcDbLine
 10
5248.598750943557
 20
-568.665873014615
 30
0.0
 11
5248.598750943557
 21
-935.8658730146119
 31
0.0
  0
LINE
  5
28F
330
1F
100
AcDbEntity
  8
0-B_寸法
  6
Continuous
 62
   120
370
     5
100
AcDbLine
 10
4308.160525921397
 20
-1849.716903101274
 30
0.0
 11
4674.098056849032
 21
-1849.716903101274
 31
0.0
  0
LINE
  5
290
330
1F
100
AcDbEntity
  8
0-B_寸法
  6
Continuous
 62
   120
370
     5
100
AcDbLine
 10
4512.451376079793
 20
-2069.194284798695
 30
0.0
 11
4571.326121402773
 21
-2069.194284798695
 31
0.0
  0
LINE
  5
291
330
1F
100
AcDbEntity
  8
0-B_寸法
  6
Continuous
 62
   120
370
     5
100
AcDbLine
 10
4388.61983692322
 20
-1945.362745642122
 30
0.0
 11
4512.451376079793
 21
-2069.194284798695
 31
0.0
  0
LINE
  5
292
330
1F
100
AcDbEntity
  8
0-B_寸法
  6
Continuous
 62
   120
370
     5
100
AcDbLine
 10
3809.221238187605
 20
-1983.927935414742
 30
0.0
 11
3927.798656446733
 21
-2095.530211423336
 31
0.0
  0
LINE
  5
293
330
1F
100
AcDbEntity
  8
0-B_寸法
  6
Continuous
 62
    92
370
    13
100
AcDbLine
 10
3092.388899529825
 20
-3370.000590688819
 30
0.0
 11
3092.388899529825
 21
-270.9031458599169
 31
0.0
  0
LINE
  5
294
330
1F
100
AcDbEntity
  8
0-B_寸法
  6
Continuous
 62
    92
370
    13
100
AcDbLine
 10
723.5888995298195
 20
-270.9031458599169
 30
0.0
 11
5461.188899529829
 21
-270.9031458599169
 31
0.0
  0
LINE
  5
295
330
1F
100
AcDbEntity
  8
0-B_寸法
  6
Continuous
 62
    92
370
    13
100
AcDbLine
 10
5461.188899529829
 20
-3370.000590688819
 30
0.0
 11
5461.188899529829
 21
-270.9031458599169
 31
0.0
  0
LINE
  5
296
330
1F
100
AcDbEntity
  8
0-B_寸法
  6
Continuous
 62
    92
370
    13
100
AcDbLine
 10
723.5888995298195
 20
-3370.000590688819
 30
0.0
 11
723.5888995298195
 21
-270.9031458599169
 31
0.0
  0
LINE
  5
297
330
1F
100
AcDbEntity
  8
0-B_寸法
  6
JWW_HOJO
 62
   120
370
     5
100
AcDbLine
 10
837.0422859517784
 20
-568.665873014615
 30
0.0
 11
2905.653263391773
 21
-568.665873014615
 31
0.0
  0
LINE
  5
298
330
1F
100
AcDbEntity
  8
0-B_寸法
  6
JWW_HOJO
 62
   120
370
     5
100
AcDbLine
 10
837.0422859517784
 20
-691.065873014615
 30
0.0
 11
2905.653263391773
 21
-691.065873014615
 31
0.0
  0
LINE
  5
299
330
1F
100
AcDbEntity
  8
0-B_寸法
  6
JWW_HOJO
 62
   120
370
     5
100
AcDbLine
 10
2905.653263391773
 20
-568.665873014615
 30
0.0
 11
2905.653263391773
 21
-813.4658730146141
 31
0.0
  0
LINE
  5
29A
330
1F
100
AcDbEntity
  8
0-B_寸法
  6
JWW_HOJO
 62
   120
370
     5
100
AcDbLine
 10
837.0422859517784
 20
-568.665873014615
 30
0.0
 11
837.0422859517784
 21
-813.4658730146141
 31
0.0
  0
LINE
  5
29B
330
1F
100
AcDbEntity
  8
0-B_寸法
  6
JWW_HOJO
 62
   120
370
     5
100
AcDbLine
 10
2905.653263391773
 20
-813.4658730146141
 30
0.0
 11
837.0422859517784
 21
-813.4658730146141
 31
0.0
  0
LINE
  5
29C
330
1F
100
AcDbEntity
  8
0-B_寸法
  6
Continuous
 62
     7
370
     9
100
AcDbLine
 10
3441.779583387292
 20
-3169.416993632703
 30
0.0
 11
3441.779583387292
 21
-2289.481458179871
 31
0.0
  0
LINE
  5
29D
330
1F
100
AcDbEntity
  8
0-B_寸法
  6
Continuous
 62
     7
370
     9
100
AcDbLine
 10
5111.798215672364
 20
-3169.416993632703
 30
0.0
 11
5111.798215672364
 21
-2289.481458179871
 31
0.0
  0
LINE
  5
29E
330
1F
100
AcDbEntity
  8
0-B_寸法
  6
Continuous
 62
     7
370
     9
100
AcDbLine
 10
3441.779583387292
 20
-3169.416993632703
 30
0.0
 11
5111.798215672364
 21
-3169.416993632703
 31
0.0
  0
LINE
  5
29F
330
1F
100
AcDbEntity
  8
0-B_寸法
  6
Continuous
 62
     7
370
     9
100
AcDbLine
 10
5111.798215672364
 20
-2289.481458179871
 30
0.0
 11
3441.779583387292
 21
-2289.481458179871
 31
0.0
  0
LINE
  5
2A0
330
1F
100
AcDbEntity
  8
0-B_寸法
  6
JWW_CENTER1
 62
   120
370
     5
100
AcDbLine
 10
3374.188365705241
 20
-2058.994111943112
 30
0.0
 11
5225.854537688641
 21
-1700.834801760563
 31
0.0
  0
LINE
  5
2A1
330
1F
100
AcDbEntity
  8
0-B_寸法
  6
Continuous
 62
    40
370
    15
100
AcDbLine
 10
3471.123283847435
 20
-1867.522399676036
 30
0.0
 11
3471.123283847435
 21
-1283.020549061819
 31
0.0
  0
LINE
  5
2A2
330
1F
100
AcDbEntity
  8
0-B_寸法
  6
Continuous
 62
    40
370
    15
100
AcDbLine
 10
3713.816478969523
 20
-1910.196776410471
 30
0.0
 11
3713.816478969523
 21
-1304.362986688132
 31
0.0
  0
LINE
  5
2A3
330
1F
100
AcDbEntity
  8
0-B_寸法
  6
Continuous
 62
    40
370
    15
100
AcDbLine
 10
3713.816478969523
 20
-1910.196776410471
 30
0.0
 11
3471.123283847435
 21
-1867.522399676036
 31
0.0
  0
LINE
  5
2A4
330
1F
100
AcDbEntity
  8
0-B_寸法
  6
Continuous
 62
    40
370
    15
100
AcDbLine
 10
4052.783185587902
 20
-1850.779362868302
 30
0.0
 11
3713.816478969523
 21
-1910.196776410471
 31
0.0
  0
LINE
  5
2A5
330
1F
100
AcDbEntity
  8
0-B_寸法
  6
Continuous
 62
    40
370
    15
100
AcDbLine
 10
1342.398528701683
 20
-2086.202602162684
 30
0.0
 11
1342.398528701683
 21
-1213.944685106652
 31
0.0
  0
LINE
  5
2A6
330
1F
100
AcDbEntity
  8
0-B_寸法
  6
Continuous
 62
    40
370
    15
100
AcDbLine
 10
1229.390363468929
 20
-2144.369743959227
 30
0.0
 11
1342.398445847495
 21
-2086.202441192647
 31
0.0
  0
LINE
  5
2A7
330
1F
100
AcDbEntity
  8
0-B_寸法
  6
Continuous
 62
    40
370
    15
100
AcDbLine
 10
1229.390363468929
 20
-2144.369743959227
 30
0.0
 11
1229.390363468929
 21
-1273.688972799721
 31
0.0
  0
LINE
  5
2A8
330
1F
100
AcDbEntity
  8
0-B_寸法
  6
Continuous
 62
    40
370
    15
100
AcDbLine
 10
1229.390363468929
 20
-2144.369743959227
 30
0.0
 11
1039.148372284449
 21
-1950.181524821013
 31
0.0
  0
LINE
  5
2A9
330
1F
100
AcDbEntity
  8
0-B_寸法
  6
Continuous
 62
    40
370
    15
100
AcDbLine
 10
1039.148372284449
 20
-1146.219609508335
 30
0.0
 11
1039.148372284449
 21
-1950.181524821013
 31
0.0
  0
LINE
  5
2AA
330
1F
100
AcDbEntity
  8
0-B_寸法
  6
Continuous
 62
    40
370
    15
100
AcDbLine
 10
1428.672404186973
 20
-1272.730181766921
 30
0.0
 11
1428.672404186973
 21
-2154.60643232898
 31
0.0
  0
LINE
  5
2AB
330
1F
100
AcDbEntity
  8
0-B_寸法
  6
Continuous
 62
    40
370
    15
100
AcDbLine
 10
1403.595308331108
 20
-1266.460907802955
 30
0.0
 11
1403.595308331108
 21
-2148.668798922095
 31
0.0
  0
LINE
  5
2AC
330
1F
100
AcDbEntity
  8
0-B_寸法
  6
Continuous
 62
    40
370
    15
100
AcDbLine
 10
1403.595308331108
 20
-2148.668798922095
 30
0.0
 11
1342.398528701683
 21
-2086.202602162684
 31
0.0
  0
LINE
  5
2AD
330
1F
100
AcDbEntity
  8
0-B_寸法
  6
Continuous
 62
    40
370
    15
100
AcDbLine
 10
1428.672404186973
 20
-2154.60643232898
 30
0.0
 11
1403.595308331108
 21
-2148.668798922095
 31
0.0
  0
LINE
  5
2AE
330
1F
100
AcDbEntity
  8
0-B_寸法
  6
JWW_CENTER1
 62
   120
370
     5
100
AcDbLine
 10
1813.381195628436
 20
-1244.064315829967
 30
0.0
 11
1813.381195628436
 21
-1956.568997243808
 31
0.0
  0
LINE
  5
2AF
330
1F
100
AcDbEntity
  8
0-B_寸法
  6
JWW_CENTER1
 62
   120
370
     5
100
AcDbLine
 10
1813.479195381837
 20
-1956.455468451471
 30
0.0
 11
2453.595405440105
 21
-2509.013365362023
 31
0.0
  0
LWPOLYLINE
  5
2B0
330
1F
100
AcDbEntity
  8
0-B_寸法
  6
Continuous
 62
   120
370
     5
100
AcDbPolyline
 90
        4
 70
     1
 43
3.0
 10
2907.330650986287
 20
-2370.501431117155
 42
0.4142135623731
 10
2905.830650986287
 20
-2369.001431117155
 42
0.4142135623731
 10
2904.330650986288
 20
-2370.501431117155
 42
0.4142135623731
 10
2905.830650986287
 20
-2372.001431117155
 42
0.4142135623731
  0
LINE
  5
2B1
330
1F
100
AcDbEntity
  8
0-B_寸法
  6
JWW_DASHED1
 62
     7
370
     9
100
AcDbLine
 10
2279.409626621406
 20
-1716.615670802075
 30
0.0
 11
2844.11547776342
 21
-2204.078216785265
 31
0.0
  0
LINE
  5
2B2
330
1F
100
AcDbEntity
  8
0-B_寸法
  6
Continuous
 62
   120
370
     5
100
AcDbLine
 10
2905.830650986287
 20
-2370.501431117155
 30
0.0
 11
2985.869033933644
 21
-2326.667426286346
 31
0.0
  0
LWPOLYLINE
  5
2B3
330
1F
100
AcDbEntity
  8
0-B_寸法
  6
Continuous
 62
   120
370
     5
100
AcDbPolyline
 90
        4
 70
     1
 43
3.0
 10
2987.369033933644
 20
-2326.667426286346
 42
0.4142135623731
 10
2985.869033933644
 20
-2325.167426286346
 42
0.4142135623731
 10
2984.369033933644
 20
-2326.667426286346
 42
0.4142135623731
 10
2985.869033933644
 20
-2328.167426286346
 42
0.4142135623731
  0
LINE
  5
2B4
330
1F
100
AcDbEntity
  8
0-B_寸法
  6
Continuous
 62
   120
370
     5
100
AcDbLine
 10
2985.869033933644
 20
-2326.667426286346
 30
0.0
 11
2844.349788739449
 21
-2204.506055211177
 31
0.0
  0
LINE
  5
2B5
330
1F
100
AcDbEntity
  8
0-B_寸法
  6
Continuous
 62
    40
370
    15
100
AcDbLine
 10
2279.409626621406
 20
-1716.615670802075
 30
0.0
 11
2279.409626621406
 21
-1186.902893769671
 31
0.0
  0
LINE
  5
2B6
330
1F
100
AcDbEntity
  8
0-B_寸法
  6
Continuous
 62
   120
370
     5
100
AcDbLine
 10
2905.830650986287
 20
-2370.501431117155
 30
0.0
 11
2763.965515105876
 21
-2248.041482414523
 31
0.0
  0
LINE
  5
2B7
330
1F
100
AcDbEntity
  8
0-B_寸法
  6
Continuous
 62
    40
370
    15
100
AcDbLine
 10
1428.672532347826
 20
-2154.606681309678
 30
0.0
 11
2279.468258781265
 21
-1716.666282960357
 31
0.0
  0
ARC
  5
2B8
330
1F
100
AcDbEntity
  8
0-B_寸法
  6
Continuous
 62
     7
370
     9
100
AcDbCircle
 10
4456.076839218414
 20
-1720.114533217168
 30
0.0
 40
30.0
100
AcDbArc
 50
247.1651394203828
 51
5.793612550752308
  0
LINE
  5
2B9
330
1F
100
AcDbEntity
  8
0-B_寸法
  6
Continuous
 62
     7
370
     9
100
AcDbLine
 10
4485.923598276612
 20
-1717.086171659849
 30
0.0
 11
4478.890742730006
 21
-1647.772141278164
 31
0.0
  0
ARC
  5
2BA
330
1F
100
AcDbEntity
  8
0-B_寸法
  6
Continuous
 62
     7
370
     9
100
AcDbCircle
 10
4448.855775948215
 20
-1416.038041030972
 30
0.0
 40
180.0
100
AcDbArc
 50
0.0
 51
48.66116247688833
  0
LINE
  5
2BB
330
1F
100
AcDbEntity
  8
0-B_寸法
  6
Continuous
 62
     7
370
     9
100
AcDbLine
 10
4628.855775948215
 20
-1727.436472073628
 30
0.0
 11
4628.855775948215
 21
-1416.038041030972
 31
0.0
  0
LINE
  5
2BC
330
1F
100
AcDbEntity
  8
0-B_寸法
  6
Continuous
 62
     7
370
     9
100
AcDbLine
 10
4363.709137512467
 20
-1836.835231010721
 30
0.0
 11
4358.272742331274
 21
-1875.457910956824
 31
0.0
  0
LINE
  5
2BD
330
1F
100
AcDbEntity
  8
0-B_寸法
  6
Continuous
 62
     7
370
     9
100
AcDbLine
 10
4316.19179433747
 20
-1898.548145553924
 30
0.0
 11
4313.939599722987
 21
-1898.944989541467
 31
0.0
  0
LINE
  5
2BE
330
1F
100
AcDbEntity
  8
0-B_寸法
  6
Continuous
 62
     7
370
     9
100
AcDbLine
 10
4313.939599722987
 20
-1898.944989541467
 30
0.0
 11
4311.822835993138
 21
-1899.318211863083
 31
0.0
  0
LINE
  5
2BF
330
1F
100
AcDbEntity
  8
0-B_寸法
  6
Continuous
 62
     7
370
     9
100
AcDbLine
 10
4311.822835993138
 20
-1899.318211863083
 30
0.0
 11
4309.841765610885
 21
-1899.667287592866
 31
0.0
  0
LINE
  5
2C0
330
1F
100
AcDbEntity
  8
0-B_寸法
  6
Continuous
 62
     7
370
     9
100
AcDbLine
 10
4309.841765610885
 20
-1899.667287592866
 30
0.0
 11
4307.996126113268
 21
-1899.992741656723
 31
0.0
  0
LINE
  5
2C1
330
1F
100
AcDbEntity
  8
0-B_寸法
  6
Continuous
 62
     7
370
     9
100
AcDbLine
 10
4307.996126113268
 20
-1899.992741656723
 30
0.0
 11
4306.286179963242
 21
-1900.294049128745
 31
0.0
  0
LINE
  5
2C2
330
1F
100
AcDbEntity
  8
0-B_寸法
  6
Continuous
 62
     7
370
     9
100
AcDbLine
 10
4306.286179963242
 20
-1900.294049128745
 30
0.0
 11
4304.727150012184
 21
-1900.492471122517
 31
0.0
  0
LINE
  5
2C3
330
1F
100
AcDbEntity
  8
0-B_寸法
  6
Continuous
 62
     7
370
     9
100
AcDbLine
 10
4304.727150012184
 20
-1900.492471122517
 30
0.0
 11
4302.847127867498
 21
-1900.709265523119
 31
0.0
  0
LINE
  5
2C4
330
1F
100
AcDbEntity
  8
0-B_寸法
  6
Continuous
 62
     7
370
     9
100
AcDbLine
 10
4302.847127867498
 20
-1900.709265523119
 30
0.0
 11
4300.646113529185
 21
-1900.94495725646
 31
0.0
  0
LINE
  5
2C5
330
1F
100
AcDbEntity
  8
0-B_寸法
  6
Continuous
 62
     7
370
     9
100
AcDbLine
 10
4300.646113529185
 20
-1900.94495725646
 30
0.0
 11
4298.124106997246
 21
-1901.199546322543
 31
0.0
  0
LINE
  5
2C6
330
1F
100
AcDbEntity
  8
0-B_寸法
  6
Continuous
 62
     7
370
     9
100
AcDbLine
 10
4298.124106997246
 20
-1901.199546322543
 30
0.0
 11
4295.281370734634
 21
-1901.473557647275
 31
0.0
  0
LINE
  5
2C7
330
1F
100
AcDbEntity
  8
0-B_寸法
  6
Continuous
 62
     7
370
     9
100
AcDbLine
 10
4295.281370734634
 20
-1901.473557647275
 30
0.0
 11
4292.117379815439
 21
-1901.765941378837
 31
0.0
  0
LINE
  5
2C8
330
1F
100
AcDbEntity
  8
0-B_寸法
  6
Continuous
 62
     7
370
     9
100
AcDbLine
 10
4292.117379815439
 20
-1901.765941378837
 30
0.0
 11
4288.632659165572
 21
-1902.077222443139
 31
0.0
  0
LINE
  5
2C9
330
1F
100
AcDbEntity
  8
0-B_寸法
  6
Continuous
 62
     7
370
     9
100
AcDbLine
 10
4288.632659165572
 20
-1902.077222443139
 30
0.0
 11
4284.826946322079
 21
-1902.407400840182
 31
0.0
  0
LINE
  5
2CA
330
1F
100
AcDbEntity
  8
0-B_寸法
  6
Continuous
 62
     7
370
     9
100
AcDbLine
 10
4284.826946322079
 20
-1902.407400840182
 30
0.0
 11
4280.796827652295
 21
-1902.732329978129
 31
0.0
  0
LINE
  5
2CB
330
1F
100
AcDbEntity
  8
0-B_寸法
  6
Continuous
 62
     7
370
     9
100
AcDbLine
 10
4280.796827652295
 20
-1902.732329978129
 30
0.0
 11
4276.638627060609
 21
-1903.02681341333
 31
0.0
  0
LINE
  5
2CC
330
1F
100
AcDbEntity
  8
0-B_寸法
  6
Continuous
 62
     7
370
     9
100
AcDbLine
 10
4276.638627060609
 20
-1903.02681341333
 30
0.0
 11
4272.352869472926
 21
-1903.291376071691
 31
0.0
  0
LINE
  5
2CD
330
1F
100
AcDbEntity
  8
0-B_寸法
  6
Continuous
 62
     7
370
     9
100
AcDbLine
 10
4272.352869472926
 20
-1903.291376071691
 30
0.0
 11
4267.939292426292
 21
-1903.525493027304
 31
0.0
  0
LINE
  5
2CE
330
1F
100
AcDbEntity
  8
0-B_寸法
  6
Continuous
 62
     7
370
     9
100
AcDbLine
 10
4267.939292426292
 20
-1903.525493027304
 30
0.0
 11
4263.397895920709
 21
-1903.729689206079
 31
0.0
  0
LINE
  5
2CF
330
1F
100
AcDbEntity
  8
0-B_寸法
  6
Continuous
 62
     7
370
     9
100
AcDbLine
 10
4263.397895920709
 20
-1903.729689206079
 30
0.0
 11
4258.728679956173
 21
-1903.903964608016
 31
0.0
  0
LINE
  5
2D0
330
1F
100
AcDbEntity
  8
0-B_寸法
  6
Continuous
 62
     7
370
     9
100
AcDbLine
 10
4258.728679956173
 20
-1903.903964608016
 30
0.0
 11
4253.931644532688
 21
-1904.047794307205
 31
0.0
  0
LINE
  5
2D1
330
1F
100
AcDbEntity
  8
0-B_寸法
  6
Continuous
 62
     7
370
     9
100
AcDbLine
 10
4253.931644532688
 20
-1904.047794307205
 30
0.0
 11
4249.006789650252
 21
-1904.162228155464
 31
0.0
  0
LINE
  5
2D2
330
1F
100
AcDbEntity
  8
0-B_寸法
  6
Continuous
 62
     7
370
     9
100
AcDbLine
 10
4249.006789650252
 20
-1904.162228155464
 30
0.0
 11
4244.059625416666
 21
-1904.209471487314
 31
0.0
  0
LINE
  5
2D3
330
1F
100
AcDbEntity
  8
0-B_寸法
  6
Continuous
 62
     7
370
     9
100
AcDbLine
 10
4244.059625416666
 20
-1904.209471487314
 30
0.0
 11
4239.196186865636
 21
-1904.153304415003
 31
0.0
  0
LINE
  5
2D4
330
1F
100
AcDbEntity
  8
0-B_寸法
  6
Continuous
 62
     7
370
     9
100
AcDbLine
 10
4239.196186865636
 20
-1904.153304415003
 30
0.0
 11
4234.416473997161
 21
-1903.994776790351
 31
0.0
  0
LINE
  5
2D5
330
1F
100
AcDbEntity
  8
0-B_寸法
  6
Continuous
 62
     7
370
     9
100
AcDbLine
 10
4234.416473997161
 20
-1903.994776790351
 30
0.0
 11
4229.719961885337
 21
-1903.732313835627
 31
0.0
  0
LINE
  5
2D6
330
1F
100
AcDbEntity
  8
0-B_寸法
  6
Continuous
 62
     7
370
     9
100
AcDbLine
 10
4229.719961885337
 20
-1903.732313835627
 30
0.0
 11
4225.107175456066
 21
-1903.366965402651
 31
0.0
  0
LINE
  5
2D7
330
1F
100
AcDbEntity
  8
0-B_寸法
  6
Continuous
 62
     7
370
     9
100
AcDbLine
 10
4225.107175456066
 20
-1903.366965402651
 30
0.0
 11
4220.578114709354
 21
-1902.898731491424
 31
0.0
  0
LINE
  5
2D8
330
1F
100
AcDbEntity
  8
0-B_寸法
  6
Continuous
 62
     7
370
     9
100
AcDbLine
 10
4220.578114709354
 20
-1902.898731491424
 30
0.0
 11
4216.132254719289
 21
-1902.327087176036
 31
0.0
  0
LINE
  5
2D9
330
1F
100
AcDbEntity
  8
0-B_寸法
  6
Continuous
 62
     7
370
     9
100
AcDbLine
 10
4216.132254719289
 20
-1902.327087176036
 30
0.0
 11
4211.770120411783
 21
-1901.652557382396
 31
0.0
  0
LINE
  5
2DA
330
1F
100
AcDbEntity
  8
0-B_寸法
  6
Continuous
 62
     7
370
     9
100
AcDbLine
 10
4211.770120411783
 20
-1901.652557382396
 30
0.0
 11
4207.686984225146
 21
-1900.91713618326
 31
0.0
  0
LINE
  5
2DB
330
1F
100
AcDbEntity
  8
0-B_寸法
  6
Continuous
 62
     7
370
     9
100
AcDbLine
 10
4207.686984225146
 20
-1900.91713618326
 30
0.0
 11
4204.078118597694
 21
-1900.163342577294
 31
0.0
  0
LINE
  5
2DC
330
1F
100
AcDbEntity
  8
0-B_寸法
  6
Continuous
 62
     7
370
     9
100
AcDbLine
 10
4204.078118597694
 20
-1900.163342577294
 30
0.0
 11
4200.943261066476
 21
-1899.391701490407
 31
0.0
  0
LINE
  5
2DD
330
1F
100
AcDbEntity
  8
0-B_寸法
  6
Continuous
 62
     7
370
     9
100
AcDbLine
 10
4200.943261066476
 20
-1899.391701490407
 30
0.0
 11
4198.282936557395
 21
-1898.602212922597
 31
0.0
  0
LINE
  5
2DE
330
1F
100
AcDbEntity
  8
0-B_寸法
  6
Continuous
 62
     7
370
     9
100
AcDbLine
 10
4198.282936557395
 20
-1898.602212922597
 30
0.0
 11
4196.096882607502
 21
-1897.793827022049
 31
0.0
  0
LINE
  5
2DF
330
1F
100
AcDbEntity
  8
0-B_寸法
  6
Continuous
 62
     7
370
     9
100
AcDbLine
 10
4196.096882607502
 20
-1897.793827022049
 30
0.0
 11
4194.384836753839
 21
-1896.968118566487
 31
0.0
  0
LINE
  5
2E0
330
1F
100
AcDbEntity
  8
0-B_寸法
  6
Continuous
 62
     7
370
     9
100
AcDbLine
 10
4194.384836753839
 20
-1896.968118566487
 30
0.0
 11
4193.147323922316
 21
-1896.123512778186
 31
0.0
  0
LINE
  5
2E1
330
1F
100
AcDbEntity
  8
0-B_寸法
  6
Continuous
 62
     7
370
     9
100
AcDbLine
 10
4193.147323922316
 20
-1896.123512778186
 30
0.0
 11
4192.383819187026
 21
-1895.261059508965
 31
0.0
  0
LINE
  5
2E2
330
1F
100
AcDbEntity
  8
0-B_寸法
  6
Continuous
 62
     7
370
     9
100
AcDbLine
 10
4192.383819187026
 20
-1895.261059508965
 30
0.0
 11
4191.994849088125
 21
-1894.403330572927
 31
0.0
  0
LINE
  5
2E3
330
1F
100
AcDbEntity
  8
0-B_寸法
  6
Continuous
 62
     7
370
     9
100
AcDbLine
 10
4191.994849088125
 20
-1894.403330572927
 30
0.0
 11
4191.880415239867
 21
-1893.572372858272
 31
0.0
  0
LINE
  5
2E4
330
1F
100
AcDbEntity
  8
0-B_寸法
  6
Continuous
 62
     7
370
     9
100
AcDbLine
 10
4191.880415239867
 20
-1893.572372858272
 30
0.0
 11
4192.040255179293
 21
-1892.768711290908
 31
0.0
  0
LINE
  5
2E5
330
1F
100
AcDbEntity
  8
0-B_寸法
  6
Continuous
 62
     7
370
     9
100
AcDbLine
 10
4192.040255179293
 20
-1892.768711290908
 30
0.0
 11
4192.47463136936
 21
-1891.991296019017
 31
0.0
  0
LINE
  5
2E6
330
1F
100
AcDbEntity
  8
0-B_寸法
  6
Continuous
 62
     7
370
     9
100
AcDbLine
 10
4192.47463136936
 20
-1891.991296019017
 30
0.0
 11
4193.183281347115
 21
-1891.241701820326
 31
0.0
  0
LINE
  5
2E7
330
1F
100
AcDbEntity
  8
0-B_寸法
  6
Continuous
 62
     7
370
     9
100
AcDbLine
 10
4193.183281347115
 20
-1891.241701820326
 30
0.0
 11
4194.166730038463
 21
-1890.518878843018
 31
0.0
  0
LINE
  5
2E8
330
1F
100
AcDbEntity
  8
0-B_寸法
  6
Continuous
 62
     7
370
     9
100
AcDbLine
 10
4194.166730038463
 20
-1890.518878843018
 30
0.0
 11
4195.424190054545
 21
-1889.82282708709
 31
0.0
  0
LINE
  5
2E9
330
1F
100
AcDbEntity
  8
0-B_寸法
  6
Continuous
 62
     7
370
     9
100
AcDbLine
 10
4195.424190054545
 20
-1889.82282708709
 30
0.0
 11
4196.956448784224
 21
-1889.154071478453
 31
0.0
  0
LINE
  5
2EA
330
1F
100
AcDbEntity
  8
0-B_寸法
  6
Continuous
 62
     7
370
     9
100
AcDbLine
 10
4196.956448784224
 20
-1889.154071478453
 30
0.0
 11
4198.593955158743
 21
-1888.524160387117
 31
0.0
  0
LINE
  5
2EB
330
1F
100
AcDbEntity
  8
0-B_寸法
  6
Continuous
 62
     7
370
     9
100
AcDbLine
 10
4198.593955158743
 20
-1888.524160387117
 30
0.0
 11
4200.167945498222
 21
-1887.945167108997
 31
0.0
  0
LINE
  5
2EC
330
1F
100
AcDbEntity
  8
0-B_寸法
  6
Continuous
 62
     7
370
     9
100
AcDbLine
 10
4200.167945498222
 20
-1887.945167108997
 30
0.0
 11
4201.678157339701
 21
-1887.417091644092
 31
0.0
  0
LINE
  5
2ED
330
1F
100
AcDbEntity
  8
0-B_寸法
  6
Continuous
 62
     7
370
     9
100
AcDbLine
 10
4201.678157339701
 20
-1887.417091644092
 30
0.0
 11
4203.124853146139
 21
-1886.939933992405
 31
0.0
  0
LINE
  5
2EE
330
1F
100
AcDbEntity
  8
0-B_寸法
  6
Continuous
 62
     7
370
     9
100
AcDbLine
 10
4203.124853146139
 20
-1886.939933992405
 30
0.0
 11
4204.508032917532
 21
-1886.513694153933
 31
0.0
  0
LINE
  5
2EF
330
1F
100
AcDbEntity
  8
0-B_寸法
  6
Continuous
 62
     7
370
     9
100
AcDbLine
 10
4204.508032917532
 20
-1886.513694153933
 30
0.0
 11
4205.827696653884
 21
-1886.138372128678
 31
0.0
  0
LINE
  5
2F0
330
1F
100
AcDbEntity
  8
0-B_寸法
  6
Continuous
 62
     7
370
     9
100
AcDbLine
 10
4205.827696653884
 20
-1886.138372128678
 30
0.0
 11
4207.083581892237
 21
-1885.81344299073
 31
0.0
  0
LINE
  5
2F1
330
1F
100
AcDbEntity
  8
0-B_寸法
  6
Continuous
 62
     7
370
     9
100
AcDbLine
 10
4207.083581892237
 20
-1885.81344299073
 30
0.0
 11
4208.275951095547
 21
-1885.539956591909
 31
0.0
  0
LINE
  5
2F2
330
1F
100
AcDbEntity
  8
0-B_寸法
  6
Continuous
 62
     7
370
     9
100
AcDbLine
 10
4208.275951095547
 20
-1885.539956591909
 30
0.0
 11
4209.39456820858
 21
-1885.30164022902
 31
0.0
  0
LINE
  5
2F3
330
1F
100
AcDbEntity
  8
0-B_寸法
  6
Continuous
 62
     7
370
     9
100
AcDbLine
 10
4209.39456820858
 20
-1885.30164022902
 30
0.0
 11
4210.428934713143
 21
-1885.083271050689
 31
0.0
  0
LINE
  5
2F4
330
1F
100
AcDbEntity
  8
0-B_寸法
  6
Continuous
 62
     7
370
     9
100
AcDbLine
 10
4210.428934713143
 20
-1885.083271050689
 30
0.0
 11
4211.379575535155
 21
-1884.884849056918
 31
0.0
  0
LINE
  5
2F5
330
1F
100
AcDbEntity
  8
0-B_寸法
  6
Continuous
 62
     7
370
     9
100
AcDbLine
 10
4211.379575535155
 20
-1884.884849056918
 30
0.0
 11
4212.245703285741
 21
-1884.706374247706
 31
0.0
  0
LINE
  5
2F6
330
1F
100
AcDbEntity
  8
0-B_寸法
  6
Continuous
 62
     7
370
     9
100
AcDbLine
 10
4212.245703285741
 20
-1884.706374247706
 30
0.0
 11
4213.028105353775
 21
-1884.547846623052
 31
0.0
  0
LINE
  5
2F7
330
1F
100
AcDbEntity
  8
0-B_寸法
  6
Continuous
 62
     7
370
     9
100
AcDbLine
 10
4213.028105353775
 20
-1884.547846623052
 30
0.0
 11
4213.726256813338
 21
-1884.409266182958
 31
0.0
  0
LINE
  5
2F8
330
1F
100
AcDbEntity
  8
0-B_寸法
  6
Continuous
 62
     7
370
     9
100
AcDbLine
 10
4213.726256813338
 20
-1884.409266182958
 30
0.0
 11
4214.340420127392
 21
-1884.290632927424
 31
0.0
  0
LINE
  5
2F9
330
1F
100
AcDbEntity
  8
0-B_寸法
  6
Continuous
 62
     7
370
     9
100
AcDbLine
 10
4214.340420127392
 20
-1884.290632927424
 30
0.0
 11
4214.87033283298
 21
-1884.191946856448
 31
0.0
  0
LINE
  5
2FA
330
1F
100
AcDbEntity
  8
0-B_寸法
  6
Continuous
 62
     7
370
     9
100
AcDbLine
 10
4214.87033283298
 20
-1884.191946856448
 30
0.0
 11
4218.0857664913
 21
-1883.625026874244
 31
0.0
  0
LINE
  5
2FB
330
1F
100
AcDbEntity
  8
0-B_寸法
  6
Continuous
 62
     7
370
     9
100
AcDbLine
 10
4218.0857664913
 20
-1883.625026874244
 30
0.0
 11
4221.603295010505
 21
-1883.004564449277
 31
0.0
  0
LINE
  5
2FC
330
1F
100
AcDbEntity
  8
0-B_寸法
  6
Continuous
 62
     7
370
     9
100
AcDbLine
 10
4221.603295010505
 20
-1883.004564449277
 30
0.0
 11
4225.423705779463
 21
-1882.331609433366
 31
0.0
  0
LINE
  5
2FD
330
1F
100
AcDbEntity
  8
0-B_寸法
  6
Continuous
 62
     7
370
     9
100
AcDbLine
 10
4225.423705779463
 20
-1882.331609433366
 30
0.0
 11
4229.54621140931
 21
-1881.604587048781
 31
0.0
  0
LINE
  5
2FE
330
1F
100
AcDbEntity
  8
0-B_寸法
  6
Continuous
 62
     7
370
     9
100
AcDbLine
 10
4229.54621140931
 20
-1881.604587048781
 30
0.0
 11
4233.971599288906
 21
-1880.824547147343
 31
0.0
  0
LINE
  5
2FF
330
1F
100
AcDbEntity
  8
0-B_寸法
  6
Continuous
 62
     7
370
     9
100
AcDbLine
 10
4115.352696644413
 20
-1876.651541098679
 30
0.0
 11
4121.692091374412
 21
-1875.425340999641
 31
0.0
  0
LINE
  5
300
330
1F
100
AcDbEntity
  8
0-B_寸法
  6
Continuous
 62
     7
370
     9
100
AcDbLine
 10
4327.816260537355
 20
-1913.838634686955
 30
0.0
 11
4334.575794310196
 21
-1912.685970725691
 31
0.0
  0
LINE
  5
301
330
1F
100
AcDbEntity
  8
0-B_寸法
  6
Continuous
 62
     7
370
     9
100
AcDbLine
 10
4327.816260537355
 20
-1913.838634686955
 30
0.0
 11
4380.405149485233
 21
-1923.043167921621
 31
0.0
  0
LINE
  5
302
330
1F
100
AcDbEntity
  8
0-B_寸法
  6
Continuous
 62
     7
370
     9
100
AcDbLine
 10
4334.575794310196
 20
-1912.685970725691
 30
0.0
 11
4387.164683258074
 21
-1921.890503960357
 31
0.0
  0
LINE
  5
303
330
1F
100
AcDbEntity
  8
0-B_寸法
  6
Continuous
 62
     7
370
     9
100
AcDbLine
 10
4327.322806086011
 20
-1835.75342633667
 30
0.0
 11
4327.322806086011
 21
-1860.80941352599
 31
0.0
  0
ELLIPSE
  5
304
330
1F
100
AcDbEntity
  8
0-B_寸法
  6
Continuous
 62
     7
370
     9
100
AcDbEllipse
 10
4290.425045657756
 20
-1860.80941352599
 30
0.0
 11
36.89776042825395
 21
0.0
 31
0.0
210
0.0
220
0.0
230
1.0
 40
0.5
 41
3.141592653589793
 42
6.283185307179586
  0
LINE
  5
305
330
1F
100
AcDbEntity
  8
0-B_寸法
  6
Continuous
 62
     7
370
     9
100
AcDbLine
 10
4253.527285229501
 20
-1835.75342633667
 30
0.0
 11
4253.527285229501
 21
-1860.80941352599
 31
0.0
  0
LINE
  5
306
330
1F
100
AcDbEntity
  8
0-B_寸法
  6
Continuous
 62
     7
370
     9
100
AcDbLine
 10
4270.887801259658
 20
-1792.228077076721
 30
0.0
 11
4116.633598435357
 21
-1820.795069994757
 31
0.0
  0
LINE
  5
307
330
1F
100
AcDbEntity
  8
0-B_寸法
  6
Continuous
 62
     7
370
     9
100
AcDbLine
 10
4270.887801259658
 20
-1792.228077076721
 30
0.0
 11
4289.408499659736
 21
-1805.457259846614
 31
0.0
  0
LINE
  5
308
330
1F
100
AcDbEntity
  8
0-B_寸法
  6
Continuous
 62
     7
370
     9
100
AcDbLine
 10
4269.564725504894
 20
-1669.19699227226
 30
0.0
 11
4270.887801259658
 21
-1792.228077076721
 31
0.0
  0
LINE
  5
309
330
1F
100
AcDbEntity
  8
0-B_寸法
  6
Continuous
 62
     7
370
     9
100
AcDbLine
 10
4289.408499659736
 20
-1682.467644188999
 30
0.0
 11
4478.890742730006
 21
-1647.772141278164
 31
0.0
  0
LINE
  5
30A
330
1F
100
AcDbEntity
  8
0-B_寸法
  6
Continuous
 62
     7
370
     9
100
AcDbLine
 10
4305.066514612641
 20
-1661.766141098122
 30
0.0
 11
4269.564725504894
 21
-1669.19699227226
 31
0.0
  0
LINE
  5
30B
330
1F
100
AcDbEntity
  8
0-B_寸法
  6
Continuous
 62
     7
370
     9
100
AcDbLine
 10
4305.066514612641
 20
-1661.766141098122
 30
0.0
 11
4330.202066860621
 21
-1666.551365688645
 31
0.0
  0
LINE
  5
30C
330
1F
100
AcDbEntity
  8
0-B_寸法
  6
Continuous
 62
     7
370
     9
100
AcDbLine
 10
4434.800378354837
 20
-1646.707591533804
 30
0.0
 11
4450.6754501713
 21
-1638.769661931141
 31
0.0
  0
LINE
  5
30D
330
1F
100
AcDbEntity
  8
0-B_寸法
  6
Continuous
 62
     7
370
     9
100
AcDbLine
 10
4450.6754501713
 20
-1638.769661931141
 30
0.0
 11
4490.48688099561
 21
-1634.801222055718
 31
0.0
  0
LINE
  5
30E
330
1F
100
AcDbEntity
  8
0-B_寸法
  6
Continuous
 62
     7
370
     9
100
AcDbLine
 10
4490.48688099561
 20
-1634.801222055718
 30
0.0
 11
4490.48688099561
 21
-1753.517077222645
 31
0.0
  0
LINE
  5
30F
330
1F
100
AcDbEntity
  8
0-B_寸法
  6
Continuous
 62
     7
370
     9
100
AcDbLine
 10
4329.722284579387
 20
-1278.206978472187
 30
0.0
 11
4330.202066860621
 21
-1666.551365688645
 31
0.0
  0
LINE
  5
310
330
1F
100
AcDbEntity
  8
0-B_寸法
  6
Continuous
 62
     7
370
     9
100
AcDbLine
 10
4305.066514612641
 20
-1661.766141098122
 30
0.0
 11
4305.066514612641
 21
-1282.384833641862
 31
0.0
  0
LINE
  5
311
330
1F
100
AcDbEntity
  8
0-B_寸法
  6
Continuous
 62
     7
370
     9
100
AcDbLine
 10
4434.800378354837
 20
-1260.990626759486
 30
0.0
 11
4434.800378354837
 21
-1646.707591533804
 31
0.0
  0
LINE
  5
312
330
1F
100
AcDbEntity
  8
0-B_寸法
  6
Continuous
 62
     7
370
     9
100
AcDbLine
 10
4450.6754501713
 20
-1638.769661931141
 30
0.0
 11
4450.6754501713
 21
-1258.37269370086
 31
0.0
  0
ELLIPSE
  5
313
330
1F
100
AcDbEntity
  8
0-B_寸法
  6
Continuous
 62
     7
370
     9
100
AcDbEllipse
 10
4585.360809953625
 20
-1628.354195291934
 30
0.0
 11
2.171034762115338E-15
 21
35.45685934649716
 31
0.0
210
0.0
220
0.0
230
1.0
 40
0.8
 41
0.0
 42
6.283185307179586
  0
ELLIPSE
  5
314
330
1F
100
AcDbEntity
  8
0-B_寸法
  6
Continuous
 62
     7
370
     9
100
AcDbEllipse
 10
4585.360809953625
 20
-1628.354195291934
 30
0.0
 11
1.068889043675199E-15
 21
17.45685934649716
 31
0.0
210
0.0
220
0.0
230
1.0
 40
0.5937773382631759
 41
0.0
 42
6.283185307179586
  0
LINE
  5
315
330
1F
100
AcDbEntity
  8
0-B_寸法
  6
Continuous
 62
     7
370
     9
100
AcDbLine
 10
4558.039518881795
 20
-1657.092388730266
 30
0.0
 11
4577.458875157591
 21
-1662.407469416328
 31
0.0
  0
ELLIPSE
  5
316
330
1F
100
AcDbEntity
  8
0-B_寸法
  6
Continuous
 62
     7
370
     9
100
AcDbEllipse
 10
4562.521277391522
 20
-1622.080901318998
 30
0.0
 11
2.171034762115338E-15
 21
35.45685934649716
 31
0.0
210
0.0
220
0.0
230
1.0
 40
0.8
 41
5.997256757456505
 42
9.266112668701924
  0
ELLIPSE
  5
317
330
1F
100
AcDbEntity
  8
0-B_寸法
  6
Continuous
 62
     7
370
     9
100
AcDbEllipse
 10
4195.813271789184
 20
-1693.994031162544
 30
0.0
 11
2.171034762115338E-15
 21
35.45685934649716
 31
0.0
210
0.0
220
0.0
230
1.0
 40
0.8
 41
0.0
 42
6.283185307179586
  0
ELLIPSE
  5
318
330
1F
100
AcDbEntity
  8
0-B_寸法
  6
Continuous
 62
     7
370
     9
100
AcDbEllipse
 10
4195.813271789184
 20
-1693.994031162544
 30
0.0
 11
1.068889043675199E-15
 21
17.45685934649716
 31
0.0
210
0.0
220
0.0
230
1.0
 40
0.5937773382631759
 41
0.0
 42
6.283185307179586
  0
LINE
  5
319
330
1F
100
AcDbEntity
  8
0-B_寸法
  6
Continuous
 62
     7
370
     9
100
AcDbLine
 10
4168.491980717356
 20
-1722.732224600874
 30
0.0
 11
4187.911336993152
 21
-1728.047305286938
 31
0.0
  0
ELLIPSE
  5
31A
330
1F
100
AcDbEntity
  8
0-B_寸法
  6
Continuous
 62
     7
370
     9
100
AcDbEllipse
 10
4172.973739227083
 20
-1687.720737189608
 30
0.0
 11
2.171034762115338E-15
 21
35.45685934649716
 31
0.0
210
0.0
220
0.0
230
1.0
 40
0.8
 41
5.997256757456505
 42
9.266112668701924
  0
LINE
  5
31B
330
1F
100
AcDbEntity
  8
0-B_寸法
  6
Continuous
 62
     7
370
     9
100
AcDbLine
 10
4180.974180252443
 20
-1653.703420293954
 30
0.0
 11
4200.393536528238
 21
-1659.018500980017
 31
0.0
  0
LINE
  5
31C
330
1F
100
AcDbEntity
  8
0-B_寸法
  6
Continuous
 62
     7
370
     9
100
AcDbLine
 10
4570.521718416883
 20
-1588.063584423345
 30
0.0
 11
4589.94107469268
 21
-1593.378665109407
 31
0.0
  0
LINE
  5
31D
330
1F
100
AcDbEntity
  8
0-B_寸法
  6
Continuous
 62
     7
370
     9
100
AcDbLine
 10
4079.916159655349
 20
-1868.113379107874
 30
0.0
 11
4121.692091374412
 21
-1875.425340999641
 31
0.0
  0
LINE
  5
31E
330
1F
100
AcDbEntity
  8
0-B_寸法
  6
Continuous
 62
     7
370
     9
100
AcDbLine
 10
4073.117174968538
 20
-1869.259138050682
 30
0.0
 11
4115.352696644413
 21
-1876.651541098679
 31
0.0
  0
LINE
  5
31F
330
1F
100
AcDbEntity
  8
0-B_寸法
  6
Continuous
 62
     7
370
     9
100
AcDbLine
 10
4363.709137512467
 20
-1820.288835111357
 30
0.0
 11
4323.054414140669
 21
-1827.139933476235
 31
0.0
  0
LINE
  5
320
330
1F
100
AcDbEntity
  8
0-B_寸法
  6
Continuous
 62
     7
370
     9
100
AcDbLine
 10
4363.709137512467
 20
-1820.288835111357
 30
0.0
 11
4358.272742331274
 21
-1858.911515057461
 31
0.0
  0
LINE
  5
321
330
1F
100
AcDbEntity
  8
0-B_寸法
  6
Continuous
 62
     7
370
     9
100
AcDbLine
 10
4326.576177214635
 20
-1864.501987552939
 30
0.0
 11
4358.272742331274
 21
-1858.911515057461
 31
0.0
  0
LINE
  5
322
330
1F
100
AcDbEntity
  8
0-B_寸法
  6
Continuous
 62
     7
370
     9
100
AcDbLine
 10
4233.973403224269
 20
-1880.834775004608
 30
0.0
 11
4266.908682402216
 21
-1875.025824675208
 31
0.0
  0
LINE
  5
323
330
1F
100
AcDbEntity
  8
0-B_寸法
  6
Continuous
 62
     7
370
     9
100
AcDbLine
 10
4210.773480019653
 20
-1901.473050640817
 30
0.0
 11
4358.272742331036
 21
-1875.457910955471
 31
0.0
  0
LINE
  5
324
330
1F
100
AcDbEntity
  8
0-B_寸法
  6
Continuous
 62
     7
370
     9
100
AcDbLine
 10
4358.272742331274
 20
-1858.911515057461
 30
0.0
 11
4358.272742331036
 21
-1875.457910955471
 31
0.0
  0
LINE
  5
325
330
1F
100
AcDbEntity
  8
0-B_寸法
  6
Continuous
 62
     7
370
     9
100
AcDbLine
 10
4363.709137512467
 20
-1836.835231009742
 30
0.0
 11
4363.709137512467
 21
-1820.288835111357
 31
0.0
  0
LINE
  5
326
330
1F
100
AcDbEntity
  8
0-B_寸法
  6
Continuous
 62
     7
370
     9
100
AcDbLine
 10
4454.333921297193
 20
-1874.197357540568
 30
0.0
 11
4316.193045465783
 21
-1898.555241078493
 31
0.0
  0
ELLIPSE
  5
327
330
1F
100
AcDbEntity
  8
0-B_寸法
  6
Continuous
 62
     7
370
     9
100
AcDbEllipse
 10
4290.425045657756
 20
-1835.75342633667
 30
0.0
 11
18.52285489353675
 21
0.0
 31
0.0
210
0.0
220
0.0
230
1.0
 40
0.5
 41
3.141592653589793
 42
6.283185307179586
  0
ARC
  5
328
330
1F
100
AcDbEntity
  8
0-B_寸法
  6
Continuous
 62
     7
370
     9
100
AcDbCircle
 10
4191.137196237712
 20
-1772.719619380857
 30
0.0
 40
180.0
100
AcDbArc
 50
260.070167268476
 51
279.6772325660855
  0
LINE
  5
329
330
1F
100
AcDbEntity
  8
0-B_寸法
  6
Continuous
 62
     7
370
     9
100
AcDbLine
 10
4222.971912513971
 20
-1985.558832022009
 30
0.0
 11
4690.393645817904
 21
-1904.645889931886
 31
0.0
  0
LINE
  5
32A
330
1F
100
AcDbEntity
  8
0-B_寸法
  6
Continuous
 62
     7
370
     9
100
AcDbLine
 10
4161.016085135132
 20
-1985.462514117931
 30
0.0
 11
3868.234983603482
 21
-1933.842588927439
 31
0.0
  0
ARC
  5
32B
330
1F
100
AcDbEntity
  8
0-B_寸法
  6
Continuous
 62
     7
370
     9
100
AcDbCircle
 10
4192.2696552613
 20
-1808.196571663187
 30
0.0
 40
180.0
100
AcDbArc
 50
260.0010025806856
 51
279.8208509823177
  0
ELLIPSE
  5
32C
330
1F
100
AcDbEntity
  8
0-B_寸法
  6
Continuous
 62
     7
370
     9
100
AcDbEllipse
 10
4455.313103178245
 20
-1892.756753693996
 30
0.0
 11
19.86135961083638
 21
0.0
 31
0.0
210
0.0
220
0.0
230
1.0
 40
0.5
 41
0.0
 42
6.283185307179586
  0
ELLIPSE
  5
32D
330
1F
100
AcDbEntity
  8
0-B_寸法
  6
Continuous
 62
     7
370
     9
100
AcDbEllipse
 10
4456.073015173877
 20
-1898.329441661966
 30
0.0
 11
13.10465733292201
 21
0.0
 31
0.0
210
0.0
220
0.0
230
1.0
 40
0.4
 41
0.0
 42
6.283185307179586
  0
ELLIPSE
  5
32E
330
1F
100
AcDbEntity
  8
0-B_寸法
  6
Continuous
 62
     7
370
     9
100
AcDbEllipse
 10
4132.706713782479
 20
-1908.532843353321
 30
0.0
 11
19.86135961083638
 21
0.0
 31
0.0
210
0.0
220
0.0
230
1.0
 40
0.5
 41
0.0
 42
6.283185307179586
  0
ELLIPSE
  5
32F
330
1F
100
AcDbEntity
  8
0-B_寸法
  6
Continuous
 62
     7
370
     9
100
AcDbEllipse
 10
4133.466625778111
 20
-1914.10553132129
 30
0.0
 11
13.10465733292201
 21
0.0
 31
0.0
210
0.0
220
0.0
230
1.0
 40
0.4
 41
0.0
 42
6.283185307179586
  0
LINE
  5
330
330
1F
100
AcDbEntity
  8
0-B_寸法
  6
Continuous
 62
     7
370
     9
100
AcDbLine
 10
3885.812589518968
 20
-1902.005578596935
 30
0.0
 11
4160.097635684459
 21
-1950.023160464111
 31
0.0
  0
LINE
  5
331
330
1F
100
AcDbEntity
  8
0-B_寸法
  6
Continuous
 62
     7
370
     9
100
AcDbLine
 10
3885.816349090218
 20
-1900.822909132824
 30
0.0
 11
4253.527285229501
 21
-1838.856584327398
 31
0.0
  0
LINE
  5
332
330
1F
100
AcDbEntity
  8
0-B_寸法
  6
Continuous
 62
     7
370
     9
100
AcDbLine
 10
4271.902190764218
 20
-1835.75342633667
 30
0.0
 11
4271.902190764218
 21
-1826.243398271617
 31
0.0
  0
LINE
  5
333
330
1F
100
AcDbEntity
  8
0-B_寸法
  6
Continuous
 62
     7
370
     9
100
AcDbLine
 10
4308.947900551292
 20
-1835.75342633667
 30
0.0
 11
4308.947900551292
 21
-1819.711239042656
 31
0.0
  0
ELLIPSE
  5
334
330
1F
100
AcDbEntity
  8
0-B_寸法
  6
Continuous
 62
     7
370
     9
100
AcDbEllipse
 10
4290.425045657756
 20
-1835.75342633667
 30
0.0
 11
36.89776042825395
 21
0.0
 31
0.0
210
0.0
220
0.0
230
1.0
 40
0.5
 41
2.768968464067914
 42
7.32806629937406
  0
LINE
  5
335
330
1F
100
AcDbEntity
  8
0-B_寸法
  6
Continuous
 62
     7
370
     9
100
AcDbLine
 10
4387.164683258074
 20
-1921.890503960357
 30
0.0
 11
4387.164683258074
 21
-1957.136276534638
 31
0.0
  0
LINE
  5
336
330
1F
100
AcDbEntity
  8
0-B_寸法
  6
Continuous
 62
     7
370
     9
100
AcDbLine
 10
4380.405149485233
 20
-1923.043167921621
 30
0.0
 11
4380.405149485233
 21
-1958.306384224865
 31
0.0
  0
LINE
  5
337
330
1F
100
AcDbEntity
  8
0-B_寸法
  6
Continuous
 62
     7
370
     9
100
AcDbLine
 10
4052.783185587902
 20
-1850.779362868302
 30
0.0
 11
4098.825663855684
 21
-1856.762108118184
 31
0.0
  0
LINE
  5
338
330
1F
100
AcDbEntity
  8
0-B_寸法
  6
Continuous
 62
     7
370
     9
100
AcDbLine
 10
4116.633598435357
 20
-1466.206605934554
 30
0.0
 11
4116.633598435357
 21
-1838.789005244705
 31
0.0
  0
ARC
  5
339
330
1F
100
AcDbEntity
  8
0-B_寸法
  6
Continuous
 62
     7
370
     9
100
AcDbCircle
 10
4296.633598435357
 20
-1466.206605934554
 30
0.0
 40
180.0
100
AcDbArc
 50
99.36427710995552
 51
180.0
  0
LINE
  5
33A
330
1F
100
AcDbEntity
  8
0-B_寸法
  6
Continuous
 62
     7
370
     9
100
AcDbLine
 10
4098.825749420308
 20
-1454.292540035943
 30
0.0
 11
4098.825749420308
 21
-1856.761943458274
 31
0.0
  0
ARC
  5
33B
330
1F
100
AcDbEntity
  8
0-B_寸法
  6
Continuous
 62
     7
370
     9
100
AcDbCircle
 10
4278.825749420308
 20
-1454.292540035943
 30
0.0
 40
180.0
100
AcDbArc
 50
100.4830549659711
 51
180.0
  0
LINE
  5
33C
330
1F
100
AcDbEntity
  8
0-B_寸法
  6
Continuous
 62
     7
370
     9
100
AcDbLine
 10
4052.213640976152
 20
-1429.693077368598
 30
0.0
 11
4052.213640976152
 21
-1850.70534831507
 31
0.0
  0
ARC
  5
33D
330
1F
100
AcDbEntity
  8
0-B_寸法
  6
Continuous
 62
     7
370
     9
100
AcDbCircle
 10
4232.213640976152
 20
-1429.693077368598
 30
0.0
 40
180.0
100
AcDbArc
 50
99.74095296447314
 51
180.0
  0
LINE
  5
33E
330
1F
100
AcDbEntity
  8
0-B_寸法
  6
Continuous
 62
     7
370
     9
100
AcDbLine
 10
4457.650199487327
 20
-1238.148665709873
 30
0.0
 11
4246.07569924507
 21
-1277.296963216861
 31
0.0
  0
LINE
  5
33F
330
1F
100
AcDbEntity
  8
0-B_寸法
  6
Continuous
 62
     7
370
     9
100
AcDbLine
 10
4670.400249662564
 20
-1415.144242528955
 30
0.0
 11
4670.400249662564
 21
-1755.977427174904
 31
0.0
  0
LINE
  5
340
330
1F
100
AcDbEntity
  8
0-B_寸法
  6
Continuous
 62
     7
370
     9
100
AcDbLine
 10
4439.842350472278
 20
-1256.687713066463
 30
0.0
 11
4267.345650628647
 21
-1288.605321836516
 31
0.0
  0
LINE
  5
341
330
1F
100
AcDbEntity
  8
0-B_寸法
  6
Continuous
 62
     7
370
     9
100
AcDbLine
 10
4652.592400647515
 20
-1433.683289885543
 30
0.0
 11
4652.592400647515
 21
-1740.779038839963
 31
0.0
  0
ARC
  5
342
330
1F
100
AcDbEntity
  8
0-B_寸法
  6
Continuous
 62
     7
370
     9
100
AcDbCircle
 10
4472.592400647515
 20
-1433.683289885543
 30
0.0
 40
180.0
100
AcDbArc
 50
0.0
 51
100.4830549659711
  0
LINE
  5
343
330
1F
100
AcDbEntity
  8
0-B_寸法
  6
Continuous
 62
     7
370
     9
100
AcDbLine
 10
4201.758742236429
 20
-1252.288175681095
 30
0.0
 11
4358.882819265451
 21
-1225.314863162818
 31
0.0
  0
ARC
  5
344
330
1F
100
AcDbEntity
  8
0-B_寸法
  6
Continuous
 62
     7
370
     9
100
AcDbCircle
 10
4391.632869440688
 20
-1402.310439981899
 30
0.0
 40
180.0
100
AcDbArc
 50
82.78560205276084
 51
100.4830549659711
  0
LINE
  5
345
330
1F
100
AcDbEntity
  8
0-B_寸法
  6
Continuous
 62
     7
370
     9
100
AcDbLine
 10
4414.237726583104
 20
-1223.735468517332
 30
0.0
 11
4514.183449077522
 21
-1236.722384491358
 31
0.0
  0
ARC
  5
346
330
1F
100
AcDbEntity
  8
0-B_寸法
  6
Continuous
 62
     7
370
     9
100
AcDbCircle
 10
4490.400249662564
 20
-1415.144242528955
 30
0.0
 40
180.0
100
AcDbArc
 50
0.0
 51
82.48094193237357
  0
ARC
  5
347
330
1F
100
AcDbEntity
  8
0-B_寸法
  6
Continuous
 62
     7
370
     9
100
AcDbCircle
 10
4490.400249662564
 20
-1415.144242528955
 30
0.0
 40
180.0
100
AcDbArc
 50
82.48094193237357
 51
100.4830549659711
  0
ARC
  5
348
330
1F
100
AcDbEntity
  8
0-B_寸法
  6
Continuous
 62
     7
370
     9
100
AcDbCircle
 10
4271.21804840962
 20
-1374.03362122151
 30
0.0
 40
12.0
100
AcDbArc
 50
0.0
 51
139.3154869822215
  0
LINE
  5
349
330
1F
100
AcDbEntity
  8
0-B_寸法
  6
Continuous
 62
     7
370
     9
100
AcDbLine
 10
4283.218048409621
 20
-1565.264136826015
 30
0.0
 11
4283.218048409621
 21
-1374.03362122151
 31
0.0
  0
ARC
  5
34A
330
1F
100
AcDbEntity
  8
0-B_寸法
  6
Continuous
 62
     7
370
     9
100
AcDbCircle
 10
4271.21804840962
 20
-1565.264136826015
 30
0.0
 40
12.0
100
AcDbArc
 50
226.7801567871272
 51
0.0
  0
LINE
  5
34B
330
1F
100
AcDbEntity
  8
0-B_寸法
  6
Continuous
 62
     7
370
     9
100
AcDbLine
 10
4238.540292892624
 20
-1393.637879048393
 30
0.0
 11
4262.118321570382
 21
-1366.210899735273
 31
0.0
  0
LINE
  5
34C
330
1F
100
AcDbEntity
  8
0-B_寸法
  6
Continuous
 62
     7
370
     9
100
AcDbLine
 10
4247.361617908635
 20
-1559.312874501262
 30
0.0
 11
4263.000454071984
 21
-1574.008914885064
 31
0.0
  0
ARC
  5
34D
330
1F
100
AcDbEntity
  8
0-B_寸法
  6
Continuous
 62
     7
370
     9
100
AcDbCircle
 10
4329.537561285008
 20
-1471.865093910768
 30
0.0
 40
120.0
100
AcDbArc
 50
139.3154869822216
 51
226.7801567871272
  0
ARC
  5
34E
330
1F
100
AcDbEntity
  8
0-B_寸法
  6
Continuous
 62
     7
370
     9
100
AcDbCircle
 10
4248.729402669373
 20
-1545.379959265225
 30
0.0
 40
12.0
100
AcDbArc
 50
249.9839863783417
 51
0.0
  0
LINE
  5
34F
330
1F
100
AcDbEntity
  8
0-B_寸法
  6
Continuous
 62
     7
370
     9
100
AcDbLine
 10
4260.729402669372
 20
-1545.379959265225
 30
0.0
 11
4260.729402669372
 21
-1367.826550071705
 31
0.0
  0
ARC
  5
350
330
1F
100
AcDbEntity
  8
0-B_寸法
  6
Continuous
 62
     7
370
     9
100
AcDbCircle
 10
4392.200992166797
 20
-1437.17264948044
 30
0.0
 40
120.0
100
AcDbArc
 50
313.2198432128728
 51
40.68451301777836
  0
ARC
  5
351
330
1F
100
AcDbEntity
  8
0-B_寸法
  6
Continuous
 62
     7
370
     9
100
AcDbCircle
 10
4476.500825017612
 20
-1340.391053837535
 30
0.0
 40
12.0
100
AcDbArc
 50
40.68451301777846
 51
180.0
  0
LINE
  5
352
330
1F
100
AcDbEntity
  8
0-B_寸法
  6
Continuous
 62
     7
370
     9
100
AcDbLine
 10
4464.500825017611
 20
-1531.62156944204
 30
0.0
 11
4464.500825017611
 21
-1340.391053837535
 31
0.0
  0
ARC
  5
353
330
1F
100
AcDbEntity
  8
0-B_寸法
  6
Continuous
 62
     7
370
     9
100
AcDbCircle
 10
4476.500825017612
 20
-1531.62156944204
 30
0.0
 40
12.0
100
AcDbArc
 50
180.0
 51
313.2198432128728
  0
LINE
  5
354
330
1F
100
AcDbEntity
  8
0-B_寸法
  6
Continuous
 62
     7
370
     9
100
AcDbLine
 10
4509.178580534609
 20
-1359.995311664417
 30
0.0
 11
4485.600551856849
 21
-1332.568332351298
 31
0.0
  0
LINE
  5
355
330
1F
100
AcDbEntity
  8
0-B_寸法
  6
Continuous
 62
     7
370
     9
100
AcDbLine
 10
4500.357255518598
 20
-1525.670307117287
 30
0.0
 11
4484.718419355248
 21
-1540.366347501089
 31
0.0
  0
ARC
  5
356
330
1F
100
AcDbEntity
  8
0-B_寸法
  6
Continuous
 62
     7
370
     9
100
AcDbCircle
 10
4418.181312142224
 20
-1438.222526526792
 30
0.0
 40
120.0
100
AcDbArc
 50
313.2198432128728
 51
40.68451301777836
  0
LINE
  5
357
330
1F
100
AcDbEntity
  8
0-B_寸法
  6
Continuous
 62
     7
370
     9
100
AcDbLine
 10
4483.198260559182
 20
-1358.945434618065
 30
0.0
 11
4464.833936059512
 21
-1337.583260746974
 31
0.0
  0
LINE
  5
358
330
1F
100
AcDbEntity
  8
0-B_寸法
  6
Continuous
 62
     7
370
     9
100
AcDbLine
 10
4474.37693554317
 20
-1524.620430070934
 30
0.0
 11
4464.68685288626
 21
-1533.726340802457
 31
0.0
  0
LINE
  5
359
330
1F
100
AcDbEntity
  8
0-B_寸法
  6
Continuous
 62
     7
370
     9
100
AcDbLine
 10
4116.633598435357
 20
-1838.789005244705
 30
0.0
 11
4333.488478716359
 21
-1798.937972424023
 31
0.0
  0
LINE
  5
35A
330
1F
100
AcDbEntity
  8
0-B_寸法
  6
Continuous
 62
     7
370
     9
100
AcDbLine
 10
4098.825749420308
 20
-1856.761449623268
 30
0.0
 11
4361.017735326132
 21
-1810.529920781247
 31
0.0
  0
LINE
  5
35B
330
1F
100
AcDbEntity
  8
0-B_寸法
  6
Continuous
 62
     7
370
     9
100
AcDbLine
 10
4289.408499659736
 20
-1682.467644188999
 30
0.0
 11
4289.408499659736
 21
-1805.457259846614
 31
0.0
  0
LINE
  5
35C
330
1F
100
AcDbEntity
  8
0-B_寸法
  6
Continuous
 62
     7
370
     9
100
AcDbLine
 10
4444.434547049415
 20
-1747.76334934104
 30
0.0
 11
4289.402155801745
 21
-1682.482709964753
 31
0.0
  0
LINE
  5
35D
330
1F
100
AcDbEntity
  8
0-B_寸法
  6
Continuous
 62
     7
370
     9
100
AcDbLine
 10
4444.434547049415
 20
-1845.654856674986
 30
0.0
 11
4289.408499659736
 21
-1780.376888554054
 31
0.0
  0
LINE
  5
35E
330
1F
100
AcDbEntity
  8
0-B_寸法
  6
Continuous
 62
     7
370
     9
100
AcDbLine
 10
4486.076839218414
 20
-1720.114533217168
 30
0.0
 11
4486.076839218414
 21
-1818.006040551114
 31
0.0
  0
ARC
  5
35F
330
1F
100
AcDbEntity
  8
0-B_寸法
  6
Continuous
 62
     7
370
     9
100
AcDbCircle
 10
4456.076839218414
 20
-1818.006040551114
 30
0.0
 40
30.0
100
AcDbArc
 50
247.1651394203828
 51
0.0
  0
LINE
  5
360
330
1F
100
AcDbEntity
  8
0-B_寸法
  6
Continuous
 62
     7
370
     9
100
AcDbLine
 10
4486.076839218414
 20
-1754.348228377233
 30
0.0
 11
4628.855775948215
 21
-1727.436472073628
 31
0.0
  0
LINE
  5
361
330
1F
100
AcDbEntity
  8
0-B_寸法
  6
Continuous
 62
     7
370
     9
100
AcDbLine
 10
4652.592400647515
 20
-1740.779038839963
 30
0.0
 11
4486.076839218414
 21
-1772.67721640347
 31
0.0
  0
LINE
  5
362
330
1F
100
AcDbEntity
  8
0-B_寸法
  6
Continuous
 62
     7
370
     9
100
AcDbLine
 10
4486.076839218414
 20
-1788.478622956186
 30
0.0
 11
4670.400249662564
 21
-1755.977427174904
 31
0.0
  0
LINE
  5
363
330
1F
100
AcDbEntity
  8
0-B_寸法
  6
Continuous
 62
     7
370
     9
100
AcDbLine
 10
4359.171738372237
 20
-1655.40788292604
 30
0.0
 11
4337.539833784125
 21
-1659.935639631037
 31
0.0
  0
LINE
  5
364
330
1F
100
AcDbEntity
  8
0-B_寸法
  6
Continuous
 62
     7
370
     9
100
AcDbLine
 10
4430.935339775307
 20
-1640.387100724269
 30
0.0
 11
4409.303435187197
 21
-1644.914857429267
 31
0.0
  0
LINE
  5
365
330
1F
100
AcDbEntity
  8
0-B_寸法
  6
Continuous
 62
     7
370
     9
100
AcDbLine
 10
4359.171738372237
 20
-1628.237597815438
 30
0.0
 11
4359.171738372237
 21
-1655.40788292604
 31
0.0
  0
ARC
  5
366
330
1F
100
AcDbEntity
  8
0-B_寸法
  6
Continuous
 62
     7
370
     9
100
AcDbCircle
 10
4383.171738372238
 20
-1628.237597815438
 30
0.0
 40
24.0
100
AcDbArc
 50
101.82186584
 51
180.0
  0
LINE
  5
367
330
1F
100
AcDbEntity
  8
0-B_寸法
  6
Continuous
 62
     7
370
     9
100
AcDbLine
 10
4380.386564715548
 20
-1604.300471443177
 30
0.0
 11
4378.254867900589
 21
-1604.746655204189
 31
0.0
  0
LINE
  5
368
330
1F
100
AcDbEntity
  8
0-B_寸法
  6
Continuous
 62
     7
370
     9
100
AcDbLine
 10
4409.303435187197
 20
-1627.791414054428
 30
0.0
 11
4409.303435187197
 21
-1644.914857429267
 31
0.0
  0
ARC
  5
369
330
1F
100
AcDbEntity
  8
0-B_寸法
  6
Continuous
 62
     7
370
     9
100
AcDbCircle
 10
4385.303435187197
 20
-1627.791414054428
 30
0.0
 40
24.0
100
AcDbArc
 50
0.0
 51
101.82186584
  0
LINE
  5
36A
330
1F
100
AcDbEntity
  8
0-B_寸法
  6
Continuous
 62
     7
370
     9
100
AcDbLine
 10
4369.834224774847
 20
-1643.117763593698
 30
0.0
 11
4369.834224774847
 21
-1662.13696317112
 31
0.0
  0
ARC
  5
36B
330
1F
100
AcDbEntity
  8
0-B_寸法
  6
Continuous
 62
     7
370
     9
100
AcDbCircle
 10
4386.634224774847
 20
-1643.117763593698
 30
0.0
 40
16.8
100
AcDbArc
 50
101.82186584
 51
180.0
  0
LINE
  5
36C
330
1F
100
AcDbEntity
  8
0-B_寸法
  6
Continuous
 62
     7
370
     9
100
AcDbLine
 10
4384.684603215164
 20
-1626.361775133116
 30
0.0
 11
4383.192415444692
 21
-1626.674103765824
 31
0.0
  0
LINE
  5
36D
330
1F
100
AcDbEntity
  8
0-B_寸法
  6
Continuous
 62
     7
370
     9
100
AcDbLine
 10
4404.926412545318
 20
-1642.805434960992
 30
0.0
 11
4404.926412545318
 21
-1654.791845323379
 31
0.0
  0
ARC
  5
36E
330
1F
100
AcDbEntity
  8
0-B_寸法
  6
Continuous
 62
     7
370
     9
100
AcDbCircle
 10
4388.126412545318
 20
-1642.805434960992
 30
0.0
 40
16.8
100
AcDbArc
 50
0.0
 51
101.82186584
  0
LINE
  5
36F
330
1F
100
AcDbEntity
  8
0-B_寸法
  6
Continuous
 62
     7
370
     9
100
AcDbLine
 10
4420.068745756996
 20
-1651.62241562988
 30
0.0
 11
4404.926412545318
 21
-1654.791845323379
 31
0.0
  0
LINE
  5
370
330
1F
100
AcDbEntity
  8
0-B_寸法
  6
Continuous
 62
     7
370
     9
100
AcDbLine
 10
4369.834224774847
 20
-1662.13696317112
 30
0.0
 11
4354.69189156317
 21
-1665.306392864618
 31
0.0
  0
LINE
  5
371
330
1F
100
AcDbEntity
  8
0-B_寸法
  6
Continuous
 62
     7
370
     9
100
AcDbLine
 10
3868.234983603482
 20
-1933.842588927439
 30
0.0
 11
3885.405036996756
 21
-1901.100145283722
 31
0.0
  0
ARC
  5
372
330
1F
100
AcDbEntity
  8
0-B_寸法
  6
Continuous
 62
     7
370
     9
100
AcDbCircle
 10
3885.916054720813
 20
-1901.414566793324
 30
0.0
 40
0.6000000000000001
100
AcDbArc
 50
99.56556047057619
 51
260.070167268476
  0
LINE
  5
373
330
1F
100
AcDbEntity
  8
0-B_寸法
  6
Continuous
 62
     7
370
     9
100
AcDbLine
 10
4663.699637910867
 20
-1873.525621054068
 30
0.0
 11
4454.333921297193
 21
-1874.197357540568
 31
0.0
  0
LINE
  5
374
330
1F
100
AcDbEntity
  8
0-B_寸法
  6
Continuous
 62
     7
370
     9
100
AcDbLine
 10
4663.802421570845
 20
-1874.717080171872
 30
0.0
 11
4221.394778737449
 21
-1950.158281180566
 31
0.0
  0
ARC
  5
375
330
1F
100
AcDbEntity
  8
0-B_寸法
  6
Continuous
 62
     7
370
     9
100
AcDbCircle
 10
4663.701562962512
 20
-1874.125617965874
 30
0.0
 40
0.6000000000000001
100
AcDbArc
 50
279.6772325660855
 51
90.18382920651953
  0
LINE
  5
376
330
1F
100
AcDbEntity
  8
0-B_寸法
  6
Continuous
 62
     7
370
     9
100
AcDbLine
 10
4690.393645817904
 20
-1904.645889931886
 30
0.0
 11
4664.122201245953
 21
-1873.695425694273
 31
0.0
  0
LINE
  5
377
330
1F
100
AcDbEntity
  8
0-B_寸法
  6
Continuous
 62
     7
370
     9
100
AcDbLine
 10
4652.592400647515
 20
-1740.779038839963
 30
0.0
 11
4628.855775948215
 21
-1727.436472073628
 31
0.0
  0
LINE
  5
378
330
1F
100
AcDbEntity
  8
0-B_寸法
  6
Continuous
 62
    40
370
    15
100
AcDbLine
 10
4670.400249662564
 20
-1738.414752341973
 30
0.0
 11
5025.970100333808
 21
-1675.502927222451
 31
0.0
  0
LINE
  5
379
330
1F
100
AcDbEntity
  8
0-B_寸法
  6
Continuous
 62
     7
370
     9
100
AcDbLine
 10
1797.230826276925
 20
-2108.672299363986
 30
0.0
 11
1797.230826276925
 21
-2102.672299363988
 31
0.0
  0
LINE
  5
37A
330
1F
100
AcDbEntity
  8
0-B_寸法
  6
Continuous
 62
     7
370
     9
100
AcDbLine
 10
2036.793132694276
 20
-1957.900748224175
 30
0.0
 11
1797.230826276925
 21
-2102.672299363988
 31
0.0
  0
LINE
  5
37B
330
1F
100
AcDbEntity
  8
0-B_寸法
  6
Continuous
 62
     7
370
     9
100
AcDbLine
 10
2450.194333272295
 20
-2357.070976173397
 30
0.0
 11
2195.823906598433
 21
-2513.557252116148
 31
0.0
  0
LINE
  5
37C
330
1F
100
AcDbEntity
  8
0-B_寸法
  6
Continuous
 62
     7
370
     9
100
AcDbLine
 10
2195.829546631067
 20
-2507.566420109491
 30
0.0
 11
2195.823906598433
 21
-2513.557252116148
 31
0.0
  0
LINE
  5
37D
330
1F
100
AcDbEntity
  8
0-B_寸法
  6
Continuous
 62
     7
370
     9
100
AcDbLine
 10
2450.194333272295
 20
-2351.070976173396
 30
0.0
 11
2195.829546631067
 21
-2507.566420109491
 31
0.0
  0
LINE
  5
37E
330
1F
100
AcDbEntity
  8
0-B_寸法
  6
Continuous
 62
     7
370
     9
100
AcDbLine
 10
1880.524515031137
 20
-2207.477400751155
 30
0.0
 11
1880.524515031135
 21
-2213.47740075115
 31
0.0
  0
LINE
  5
37F
330
1F
100
AcDbEntity
  8
0-B_寸法
  6
Continuous
 62
     7
370
     9
100
AcDbLine
 10
1879.567588814414
 20
-2206.150464059568
 30
0.0
 11
1879.567588814412
 21
-2212.150464059562
 31
0.0
  0
LINE
  5
380
330
1F
100
AcDbEntity
  8
0-B_寸法
  6
Continuous
 62
     7
370
     9
100
AcDbLine
 10
1882.044339022402
 20
-2209.022326278066
 30
0.0
 11
1882.0443390224
 21
-2215.022326278062
 31
0.0
  0
LINE
  5
381
330
1F
100
AcDbEntity
  8
0-B_寸法
  6
Continuous
 62
     7
370
     9
100
AcDbLine
 10
2091.232168637227
 20
-2421.514032918562
 30
0.0
 11
2091.232168637225
 21
-2427.514032918561
 31
0.0
  0
LINE
  5
382
330
1F
100
AcDbEntity
  8
0-B_寸法
  6
Continuous
 62
     7
370
     9
100
AcDbLine
 10
2094.436223690534
 20
-2424.097865084318
 30
0.0
 11
2094.436223690532
 21
-2430.097865084317
 31
0.0
  0
LINE
  5
383
330
1F
100
AcDbEntity
  8
0-B_寸法
  6
Continuous
 62
     7
370
     9
100
AcDbLine
 10
2097.602523672335
 20
-2425.688260215493
 30
0.0
 11
2097.602523672333
 21
-2431.688260215493
 31
0.0
  0
LINE
  5
384
330
1F
100
AcDbEntity
  8
0-B_寸法
  6
Continuous
 62
     7
370
     9
100
AcDbLine
 10
2101.285458916825
 20
-2426.671191627311
 30
0.0
 11
2101.285458916822
 21
-2432.67119162731
 31
0.0
  0
LINE
  5
385
330
1F
100
AcDbEntity
  8
0-B_寸法
  6
Continuous
 62
     7
370
     9
100
AcDbLine
 10
2105.454947627202
 20
-2426.832043632945
 30
0.0
 11
2105.4549476272
 21
-2432.832043632944
 31
0.0
  0
LINE
  5
386
330
1F
100
AcDbEntity
  8
0-B_寸法
  6
Continuous
 62
     7
370
     9
100
AcDbLine
 10
2109.254507605363
 20
-2426.120231454586
 30
0.0
 11
2109.254507605361
 21
-2432.120231454585
 31
0.0
  0
ARC
  5
387
330
1F
100
AcDbEntity
  8
0-B_寸法
  6
Continuous
 62
     7
370
     9
100
AcDbCircle
 10
1884.867154342563
 20
-2209.337173244014
 30
0.0
 40
6.0
100
AcDbArc
 50
180.0
 51
224.5510943265451
  0
LINE
  5
388
330
1F
100
AcDbEntity
  8
0-B_寸法
  6
Continuous
 62
     7
370
     9
100
AcDbLine
 10
1878.867154342563
 20
-2203.337173244016
 30
0.0
 11
1878.867154342563
 21
-2209.337173244014
 31
0.0
  0
LINE
  5
389
330
1F
100
AcDbEntity
  8
0-B_寸法
  6
Continuous
 62
     7
370
     9
100
AcDbLine
 10
1797.230826276925
 20
-2108.672299363986
 30
0.0
 11
1884.008685295705
 21
-2196.820713128006
 31
0.0
  0
ARC
  5
38A
330
1F
100
AcDbEntity
  8
0-B_寸法
  6
Continuous
 62
     7
370
     9
100
AcDbCircle
 10
1884.867154342563
 20
-2203.337173244016
 30
0.0
 40
6.0
100
AcDbArc
 50
121.6015005399993
 51
224.5510943265456
  0
LINE
  5
38B
330
1F
100
AcDbEntity
  8
0-B_寸法
  6
Continuous
 62
     7
370
     9
100
AcDbLine
 10
1881.723105070703
 20
-2198.226893978054
 30
0.0
 11
1887.687333236423
 21
-2194.5574610086
 31
0.0
  0
LINE
  5
38C
330
1F
100
AcDbEntity
  8
0-B_寸法
  6
Continuous
 62
     7
370
     9
100
AcDbLine
 10
1880.591403623615
 20
-2207.546443464544
 30
0.0
 11
2091.232168637227
 21
-2421.514032918562
 31
0.0
  0
LINE
  5
38D
330
1F
100
AcDbEntity
  8
0-B_寸法
  6
Continuous
 62
     7
370
     9
100
AcDbLine
 10
1880.591403623615
 20
-2213.546443464542
 30
0.0
 11
2091.232168637225
 21
-2427.514032918561
 31
0.0
  0
LINE
  5
38E
330
1F
100
AcDbEntity
  8
0-B_寸法
  6
Continuous
 62
     7
370
     9
100
AcDbLine
 10
2113.667924017371
 20
-2424.107150803157
 30
0.0
 11
2113.667924017371
 21
-2430.108033743487
 31
0.0
  0
LINE
  5
38F
330
1F
100
AcDbEntity
  8
0-B_寸法
  6
Continuous
 62
     7
370
     9
100
AcDbLine
 10
2113.667924017373
 20
-2430.107150803155
 30
0.0
 11
2195.821287965408
 21
-2513.558031007867
 31
0.0
  0
ARC
  5
390
330
1F
100
AcDbEntity
  8
0-B_寸法
  6
Continuous
 62
     7
370
     9
100
AcDbCircle
 10
2104.059420794069
 20
-2414.88622225698
 30
0.0
 40
18.0
100
AcDbArc
 50
224.5510943265451
 51
302.2629554764407
  0
LINE
  5
391
330
1F
100
AcDbEntity
  8
0-B_寸法
  6
Continuous
 62
     7
370
     9
100
AcDbLine
 10
2113.667924017371
 20
-2424.107150803157
 30
0.0
 11
2195.829546631067
 21
-2507.566420109491
 31
0.0
  0
ARC
  5
392
330
1F
100
AcDbEntity
  8
0-B_寸法
  6
Continuous
 62
     7
370
     9
100
AcDbCircle
 10
2104.059420794071
 20
-2408.886222256981
 30
0.0
 40
18.0
100
AcDbArc
 50
224.5510943265456
 51
302.2629554764285
  0
LINE
  5
393
330
1F
100
AcDbEntity
  8
0-B_寸法
  6
Continuous
 62
     7
370
     9
100
AcDbLine
 10
1797.230826276925
 20
-2102.672299363988
 30
0.0
 11
1887.687333236423
 21
-2194.5574610086
 31
0.0
  0
LINE
  5
394
330
1F
100
AcDbEntity
  8
0-B_寸法
  6
Continuous
 62
   120
370
     5
100
AcDbLine
 10
2288.644914491836
 20
-1582.907843262692
 30
0.0
 11
2604.431918278526
 21
-1415.905100875501
 31
0.0
  0
LINE
  5
395
330
1F
100
AcDbEntity
  8
0-B_寸法
  6
Continuous
 62
   120
370
     5
100
AcDbLine
 10
2585.1191226674
 20
-1829.198926953609
 30
0.0
 11
2604.431918278526
 21
-1415.905100875501
 31
0.0
  0
LINE
  5
396
330
1F
100
AcDbEntity
  8
0-B_寸法
  6
Continuous
 62
     7
370
     9
100
AcDbLine
 10
2261.687830426655
 20
-1534.180972260044
 30
0.0
 11
2261.687830426655
 21
-1668.043178500307
 31
0.0
  0
LINE
  5
397
330
1F
100
AcDbEntity
  8
0-B_寸法
  6
Continuous
 62
     7
370
     9
100
AcDbLine
 10
2235.66569339249
 20
-1533.95531856773
 30
0.0
 11
2235.66569339249
 21
-1668.043178500307
 31
0.0
  0
ELLIPSE
  5
398
330
1F
100
AcDbEntity
  8
0-B_寸法
  6
Continuous
 62
     7
370
     9
100
AcDbEllipse
 10
2249.004614160404
 20
-1520.457422718269
 30
0.0
 11
26.15375705822504
 21
0.0
 31
0.0
210
0.0
220
0.0
230
1.0
 40
0.6
 41
3.230595867857267
 42
6.465060446500363
  0
LINE
  5
399
330
1F
100
AcDbEntity
  8
0-B_寸法
  6
Continuous
 62
     7
370
     9
100
AcDbLine
 10
2261.687830426655
 20
-1566.772912590079
 30
0.0
 11
2235.66569339249
 21
-1579.243261376584
 31
0.0
  0
LINE
  5
39A
330
1F
100
AcDbEntity
  8
0-B_寸法
  6
Continuous
 62
     7
370
     9
100
AcDbLine
 10
2261.687830426655
 20
-1554.609297781812
 30
0.0
 11
2235.66569339249
 21
-1567.079646568314
 31
0.0
  0
LINE
  5
39B
330
1F
100
AcDbEntity
  8
0-B_寸法
  6
Continuous
 62
     7
370
     9
100
AcDbLine
 10
2261.687830426655
 20
-1542.445682973542
 30
0.0
 11
2235.66569339249
 21
-1554.916031760044
 31
0.0
  0
LINE
  5
39C
330
1F
100
AcDbEntity
  8
0-B_寸法
  6
Continuous
 62
     7
370
     9
100
AcDbLine
 10
2261.687830426655
 20
-1591.100142208385
 30
0.0
 11
2235.66569339249
 21
-1603.570490994889
 31
0.0
  0
LINE
  5
39D
330
1F
100
AcDbEntity
  8
0-B_寸法
  6
Continuous
 62
     7
370
     9
100
AcDbLine
 10
2261.687830426655
 20
-1603.263757018422
 30
0.0
 11
2235.66569339249
 21
-1615.734105804924
 31
0.0
  0
LINE
  5
39E
330
1F
100
AcDbEntity
  8
0-B_寸法
  6
Continuous
 62
     7
370
     9
100
AcDbLine
 10
2261.687830426655
 20
-1627.590986638494
 30
0.0
 11
2235.66569339249
 21
-1640.061335424994
 31
0.0
  0
LINE
  5
39F
330
1F
100
AcDbEntity
  8
0-B_寸法
  6
Continuous
 62
     7
370
     9
100
AcDbLine
 10
2261.687830426655
 20
-1615.427371828457
 30
0.0
 11
2235.66569339249
 21
-1627.89772061496
 31
0.0
  0
LINE
  5
3A0
330
1F
100
AcDbEntity
  8
0-B_寸法
  6
Continuous
 62
     7
370
     9
100
AcDbLine
 10
2261.687830426655
 20
-1639.754601448529
 30
0.0
 11
2235.66569339249
 21
-1652.224950235032
 31
0.0
  0
LINE
  5
3A1
330
1F
100
AcDbEntity
  8
0-B_寸法
  6
Continuous
 62
     7
370
     9
100
AcDbLine
 10
2261.687830426655
 20
-1651.918216258565
 30
0.0
 11
2235.66569339249
 21
-1664.388565045067
 31
0.0
  0
LINE
  5
3A2
330
1F
100
AcDbEntity
  8
0-B_寸法
  6
Continuous
 62
     7
370
     9
100
AcDbLine
 10
2261.687830426655
 20
-1578.936527398349
 30
0.0
 11
2235.66569339249
 21
-1591.406876184854
 31
0.0
  0
LINE
  5
3A3
330
1F
100
AcDbEntity
  8
0-B_寸法
  6
Continuous
 62
     7
370
     9
100
AcDbLine
 10
2261.687830426655
 20
-1668.043178500307
 30
0.0
 11
2248.676761909571
 21
-1690.579010232654
 31
0.0
  0
LINE
  5
3A4
330
1F
100
AcDbEntity
  8
0-B_寸法
  6
Continuous
 62
     7
370
     9
100
AcDbLine
 10
2235.66569339249
 20
-1668.043178500307
 30
0.0
 11
2248.676761909571
 21
-1690.579010232654
 31
0.0
  0
LINE
  5
3A5
330
1F
100
AcDbEntity
  8
0-B_寸法
  6
Continuous
 62
     7
370
     9
100
AcDbLine
 10
2248.676761909358
 20
-1522.032609938864
 30
0.0
 11
2257.02269174637
 21
-1527.397850548371
 31
0.0
  0
LINE
  5
3A6
330
1F
100
AcDbEntity
  8
0-B_寸法
  6
Continuous
 62
     7
370
     9
100
AcDbLine
 10
2235.635089319596
 20
-1513.648677559733
 30
0.0
 11
2243.981019156608
 21
-1519.01391816924
 31
0.0
  0
LINE
  5
3A7
330
1F
100
AcDbEntity
  8
0-B_寸法
  6
Continuous
 62
     7
370
     9
100
AcDbLine
 10
2248.676761909358
 20
-1522.032609938864
 30
0.0
 11
2240.330832072346
 21
-1527.397850548371
 31
0.0
  0
LINE
  5
3A8
330
1F
100
AcDbEntity
  8
0-B_寸法
  6
Continuous
 62
     7
370
     9
100
AcDbLine
 10
2261.718434499118
 20
-1513.648677559733
 30
0.0
 11
2253.372504662108
 21
-1519.01391816924
 31
0.0
  0
LINE
  5
3A9
330
1F
100
AcDbEntity
  8
0-B_寸法
  6
Continuous
 62
     7
370
     9
100
AcDbLine
 10
2253.372504662108
 20
-1519.01391816924
 30
0.0
 11
2261.718434499118
 21
-1524.379158778747
 31
0.0
  0
LINE
  5
3AA
330
1F
100
AcDbEntity
  8
0-B_寸法
  6
Continuous
 62
     7
370
     9
100
AcDbLine
 10
2240.330832072346
 20
-1510.629985790109
 30
0.0
 11
2248.676761909358
 21
-1515.995226399616
 31
0.0
  0
LINE
  5
3AB
330
1F
100
AcDbEntity
  8
0-B_寸法
  6
Continuous
 62
     7
370
     9
100
AcDbLine
 10
2243.981019156608
 20
-1519.01391816924
 30
0.0
 11
2235.635089319596
 21
-1524.379158778747
 31
0.0
  0
LINE
  5
3AC
330
1F
100
AcDbEntity
  8
0-B_寸法
  6
Continuous
 62
     7
370
     9
100
AcDbLine
 10
2257.02269174637
 20
-1510.629985790109
 30
0.0
 11
2248.676761909358
 21
-1515.995226399616
 31
0.0
  0
LINE
  5
3AD
330
1F
100
AcDbEntity
  8
0-B_寸法
  6
Continuous
 62
     7
370
     9
100
AcDbLine
 10
2240.330832072346
 20
-1510.629985790109
 30
0.0
 11
2235.635089319596
 21
-1513.648677559733
 31
0.0
  0
LINE
  5
3AE
330
1F
100
AcDbEntity
  8
0-B_寸法
  6
Continuous
 62
     7
370
     9
100
AcDbLine
 10
2257.02269174637
 20
-1510.629985790109
 30
0.0
 11
2261.718434499118
 21
-1513.648677559733
 31
0.0
  0
LINE
  5
3AF
330
1F
100
AcDbEntity
  8
0-B_寸法
  6
Continuous
 62
     7
370
     9
100
AcDbLine
 10
2261.718434499118
 20
-1524.379158778747
 30
0.0
 11
2257.02269174637
 21
-1527.397850548371
 31
0.0
  0
LINE
  5
3B0
330
1F
100
AcDbEntity
  8
0-B_寸法
  6
Continuous
 62
     7
370
     9
100
AcDbLine
 10
2235.635089319596
 20
-1524.379158778747
 30
0.0
 11
2240.330832072346
 21
-1527.397850548371
 31
0.0
  0
ELLIPSE
  5
3B1
330
1F
100
AcDbEntity
  8
0-B_寸法
  6
Continuous
 62
     7
370
     9
100
AcDbEllipse
 10
2248.676761909358
 20
-1519.01391816924
 30
0.0
 11
26.15375705822504
 21
0.0
 31
0.0
210
0.0
220
0.0
230
1.0
 40
0.6
 41
0.0
 42
6.283185307179586
  0
LINE
  5
3B2
330
1F
100
AcDbEntity
  8
0-B_寸法
  6
Continuous
 62
     7
370
     9
100
AcDbLine
 10
2565.961342927793
 20
-1800.447011354634
 30
0.0
 11
2565.961342927793
 21
-1934.309217594898
 31
0.0
  0
LINE
  5
3B3
330
1F
100
AcDbEntity
  8
0-B_寸法
  6
Continuous
 62
     7
370
     9
100
AcDbLine
 10
2539.939205893628
 20
-1800.22135766232
 30
0.0
 11
2539.939205893628
 21
-1934.309217594898
 31
0.0
  0
ELLIPSE
  5
3B4
330
1F
100
AcDbEntity
  8
0-B_寸法
  6
Continuous
 62
     7
370
     9
100
AcDbEllipse
 10
2553.278126661543
 20
-1786.723461812859
 30
0.0
 11
26.15375705822504
 21
0.0
 31
0.0
210
0.0
220
0.0
230
1.0
 40
0.6
 41
3.230595867857267
 42
6.465060446500363
  0
LINE
  5
3B5
330
1F
100
AcDbEntity
  8
0-B_寸法
  6
Continuous
 62
     7
370
     9
100
AcDbLine
 10
2565.961342927793
 20
-1833.03895168467
 30
0.0
 11
2539.939205893628
 21
-1845.509300471174
 31
0.0
  0
LINE
  5
3B6
330
1F
100
AcDbEntity
  8
0-B_寸法
  6
Continuous
 62
     7
370
     9
100
AcDbLine
 10
2565.961342927793
 20
-1820.875336876402
 30
0.0
 11
2539.939205893628
 21
-1833.345685662906
 31
0.0
  0
LINE
  5
3B7
330
1F
100
AcDbEntity
  8
0-B_寸法
  6
Continuous
 62
     7
370
     9
100
AcDbLine
 10
2565.961342927793
 20
-1808.711722068132
 30
0.0
 11
2539.939205893628
 21
-1821.182070854636
 31
0.0
  0
LINE
  5
3B8
330
1F
100
AcDbEntity
  8
0-B_寸法
  6
Continuous
 62
     7
370
     9
100
AcDbLine
 10
2565.961342927793
 20
-1857.366181302976
 30
0.0
 11
2539.939205893628
 21
-1869.836530089479
 31
0.0
  0
LINE
  5
3B9
330
1F
100
AcDbEntity
  8
0-B_寸法
  6
Continuous
 62
     7
370
     9
100
AcDbLine
 10
2565.961342927793
 20
-1869.529796113012
 30
0.0
 11
2539.939205893628
 21
-1882.000144899514
 31
0.0
  0
LINE
  5
3BA
330
1F
100
AcDbEntity
  8
0-B_寸法
  6
Continuous
 62
     7
370
     9
100
AcDbLine
 10
2565.961342927793
 20
-1893.857025733084
 30
0.0
 11
2539.939205893628
 21
-1906.327374519584
 31
0.0
  0
LINE
  5
3BB
330
1F
100
AcDbEntity
  8
0-B_寸法
  6
Continuous
 62
     7
370
     9
100
AcDbLine
 10
2565.961342927793
 20
-1881.693410923047
 30
0.0
 11
2539.939205893628
 21
-1894.163759709551
 31
0.0
  0
LINE
  5
3BC
330
1F
100
AcDbEntity
  8
0-B_寸法
  6
Continuous
 62
     7
370
     9
100
AcDbLine
 10
2565.961342927793
 20
-1906.020640543119
 30
0.0
 11
2539.939205893628
 21
-1918.490989329623
 31
0.0
  0
LINE
  5
3BD
330
1F
100
AcDbEntity
  8
0-B_寸法
  6
Continuous
 62
     7
370
     9
100
AcDbLine
 10
2565.961342927793
 20
-1918.184255353156
 30
0.0
 11
2539.939205893628
 21
-1930.654604139658
 31
0.0
  0
LINE
  5
3BE
330
1F
100
AcDbEntity
  8
0-B_寸法
  6
Continuous
 62
     7
370
     9
100
AcDbLine
 10
2565.961342927793
 20
-1845.202566492941
 30
0.0
 11
2539.939205893628
 21
-1857.672915279444
 31
0.0
  0
LINE
  5
3BF
330
1F
100
AcDbEntity
  8
0-B_寸法
  6
Continuous
 62
     7
370
     9
100
AcDbLine
 10
2565.961342927793
 20
-1934.309217594898
 30
0.0
 11
2552.950274410709
 21
-1956.845049327245
 31
0.0
  0
LINE
  5
3C0
330
1F
100
AcDbEntity
  8
0-B_寸法
  6
Continuous
 62
     7
370
     9
100
AcDbLine
 10
2539.939205893628
 20
-1934.309217594898
 30
0.0
 11
2552.950274410709
 21
-1956.845049327245
 31
0.0
  0
LINE
  5
3C1
330
1F
100
AcDbEntity
  8
0-B_寸法
  6
Continuous
 62
     7
370
     9
100
AcDbLine
 10
2552.950274410497
 20
-1788.298649033454
 30
0.0
 11
2561.296204247508
 21
-1793.663889642961
 31
0.0
  0
LINE
  5
3C2
330
1F
100
AcDbEntity
  8
0-B_寸法
  6
Continuous
 62
     7
370
     9
100
AcDbLine
 10
2539.908601820734
 20
-1779.914716654323
 30
0.0
 11
2548.254531657746
 21
-1785.27995726383
 31
0.0
  0
LINE
  5
3C3
330
1F
100
AcDbEntity
  8
0-B_寸法
  6
Continuous
 62
     7
370
     9
100
AcDbLine
 10
2552.950274410497
 20
-1788.298649033454
 30
0.0
 11
2544.604344573484
 21
-1793.663889642961
 31
0.0
  0
LINE
  5
3C4
330
1F
100
AcDbEntity
  8
0-B_寸法
  6
Continuous
 62
     7
370
     9
100
AcDbLine
 10
2565.991947000256
 20
-1779.914716654323
 30
0.0
 11
2557.646017163247
 21
-1785.27995726383
 31
0.0
  0
LINE
  5
3C5
330
1F
100
AcDbEntity
  8
0-B_寸法
  6
Continuous
 62
     7
370
     9
100
AcDbLine
 10
2557.646017163247
 20
-1785.27995726383
 30
0.0
 11
2565.991947000256
 21
-1790.645197873337
 31
0.0
  0
LINE
  5
3C6
330
1F
100
AcDbEntity
  8
0-B_寸法
  6
Continuous
 62
     7
370
     9
100
AcDbLine
 10
2544.604344573484
 20
-1776.896024884699
 30
0.0
 11
2552.950274410497
 21
-1782.261265494206
 31
0.0
  0
LINE
  5
3C7
330
1F
100
AcDbEntity
  8
0-B_寸法
  6
Continuous
 62
     7
370
     9
100
AcDbLine
 10
2548.254531657746
 20
-1785.27995726383
 30
0.0
 11
2539.908601820734
 21
-1790.645197873337
 31
0.0
  0
LINE
  5
3C8
330
1F
100
AcDbEntity
  8
0-B_寸法
  6
Continuous
 62
     7
370
     9
100
AcDbLine
 10
2561.296204247508
 20
-1776.896024884699
 30
0.0
 11
2552.950274410497
 21
-1782.261265494206
 31
0.0
  0
LINE
  5
3C9
330
1F
100
AcDbEntity
  8
0-B_寸法
  6
Continuous
 62
     7
370
     9
100
AcDbLine
 10
2544.604344573484
 20
-1776.896024884699
 30
0.0
 11
2539.908601820734
 21
-1779.914716654323
 31
0.0
  0
LINE
  5
3CA
330
1F
100
AcDbEntity
  8
0-B_寸法
  6
Continuous
 62
     7
370
     9
100
AcDbLine
 10
2561.296204247508
 20
-1776.896024884699
 30
0.0
 11
2565.991947000256
 21
-1779.914716654323
 31
0.0
  0
LINE
  5
3CB
330
1F
100
AcDbEntity
  8
0-B_寸法
  6
Continuous
 62
     7
370
     9
100
AcDbLine
 10
2565.991947000256
 20
-1790.645197873337
 30
0.0
 11
2561.296204247508
 21
-1793.663889642961
 31
0.0
  0
LINE
  5
3CC
330
1F
100
AcDbEntity
  8
0-B_寸法
  6
Continuous
 62
     7
370
     9
100
AcDbLine
 10
2539.908601820734
 20
-1790.645197873337
 30
0.0
 11
2544.604344573484
 21
-1793.663889642961
 31
0.0
  0
ELLIPSE
  5
3CD
330
1F
100
AcDbEntity
  8
0-B_寸法
  6
Continuous
 62
     7
370
     9
100
AcDbEllipse
 10
2552.950274410497
 20
-1785.27995726383
 30
0.0
 11
26.15375705822504
 21
0.0
 31
0.0
210
0.0
220
0.0
230
1.0
 40
0.6
 41
0.0
 42
6.283185307179586
  0
LINE
  5
3CE
330
1F
100
AcDbEntity
  8
0-B_寸法
  6
Continuous
 62
     7
370
     9
100
AcDbLine
 10
2248.676761909571
 20
-1915.952757570327
 30
0.0
 11
2248.676761909571
 21
-1695.228006901479
 31
0.0
  0
LINE
  5
3CF
330
1F
100
AcDbEntity
  8
0-B_寸法
  6
Continuous
 62
     7
370
     9
100
AcDbLine
 10
2552.950274410709
 20
-2182.218796664917
 30
0.0
 11
2552.950274410709
 21
-1961.494045996069
 31
0.0
  0
LINE
  5
3D0
330
1F
100
AcDbEntity
  8
0-B_寸法
  6
Continuous
 62
     7
370
     9
100
AcDbLine
 10
2407.055783195655
 20
-2016.37096766126
 30
0.0
 11
2423.747642869679
 21
-2027.101448880275
 31
0.0
  0
LINE
  5
3D1
330
1F
100
AcDbEntity
  8
0-B_寸法
  6
Continuous
 62
     7
370
     9
100
AcDbLine
 10
2380.972438016132
 20
-1999.603102902997
 30
0.0
 11
2397.664297690155
 21
-2010.333584122011
 31
0.0
  0
LINE
  5
3D2
330
1F
100
AcDbEntity
  8
0-B_寸法
  6
Continuous
 62
     7
370
     9
100
AcDbLine
 10
2407.055783195655
 20
-2016.37096766126
 30
0.0
 11
2390.363923521632
 21
-2027.101448880275
 31
0.0
  0
LINE
  5
3D3
330
1F
100
AcDbEntity
  8
0-B_寸法
  6
Continuous
 62
     7
370
     9
100
AcDbLine
 10
2433.139128375175
 20
-1999.603102902997
 30
0.0
 11
2416.447268701156
 21
-2010.333584122011
 31
0.0
  0
LINE
  5
3D4
330
1F
100
AcDbEntity
  8
0-B_寸法
  6
Continuous
 62
     7
370
     9
100
AcDbLine
 10
2416.447268701156
 20
-2010.333584122011
 30
0.0
 11
2433.139128375175
 21
-2021.064065341024
 31
0.0
  0
LINE
  5
3D5
330
1F
100
AcDbEntity
  8
0-B_寸法
  6
Continuous
 62
     7
370
     9
100
AcDbLine
 10
2390.363923521632
 20
-1993.565719363746
 30
0.0
 11
2407.055783195655
 21
-2004.296200582762
 31
0.0
  0
LINE
  5
3D6
330
1F
100
AcDbEntity
  8
0-B_寸法
  6
Continuous
 62
     7
370
     9
100
AcDbLine
 10
2397.664297690155
 20
-2010.333584122011
 30
0.0
 11
2380.972438016132
 21
-2021.064065341024
 31
0.0
  0
LINE
  5
3D7
330
1F
100
AcDbEntity
  8
0-B_寸法
  6
Continuous
 62
     7
370
     9
100
AcDbLine
 10
2423.747642869679
 20
-1993.565719363746
 30
0.0
 11
2407.055783195655
 21
-2004.296200582762
 31
0.0
  0
LINE
  5
3D8
330
1F
100
AcDbEntity
  8
0-B_寸法
  6
Continuous
 62
     7
370
     9
100
AcDbLine
 10
2390.363923521632
 20
-1993.565719363746
 30
0.0
 11
2380.972438016132
 21
-1999.603102902997
 31
0.0
  0
LINE
  5
3D9
330
1F
100
AcDbEntity
  8
0-B_寸法
  6
Continuous
 62
     7
370
     9
100
AcDbLine
 10
2423.747642869679
 20
-1993.565719363746
 30
0.0
 11
2433.139128375175
 21
-1999.603102902997
 31
0.0
  0
LINE
  5
3DA
330
1F
100
AcDbEntity
  8
0-B_寸法
  6
Continuous
 62
     7
370
     9
100
AcDbLine
 10
2433.139128375175
 20
-2021.064065341024
 30
0.0
 11
2423.747642869679
 21
-2027.101448880275
 31
0.0
  0
LINE
  5
3DB
330
1F
100
AcDbEntity
  8
0-B_寸法
  6
Continuous
 62
     7
370
     9
100
AcDbLine
 10
2380.972438016132
 20
-2021.064065341024
 30
0.0
 11
2390.363923521632
 21
-2027.101448880275
 31
0.0
  0
ARC
  5
3DC
330
1F
100
AcDbEntity
  8
0-B_寸法
  6
Continuous
 62
     7
370
     9
100
AcDbCircle
 10
2485.204011876065
 20
-2215.21951855788
 30
0.0
 40
12.0
100
AcDbArc
 50
117.3949267100002
 51
165.5224878140668
  0
LINE
  5
3DD
330
1F
100
AcDbEntity
  8
0-B_寸法
  6
Continuous
 62
     7
370
     9
100
AcDbLine
 10
2474.234008088537
 20
-2204.355465011543
 30
0.0
 11
2474.234008088537
 21
-2210.355465011544
 31
0.0
  0
LINE
  5
3DE
330
1F
100
AcDbEntity
  8
0-B_寸法
  6
Continuous
 62
     7
370
     9
100
AcDbLine
 10
2475.434856674228
 20
-2202.250759224797
 30
0.0
 11
2475.434856674228
 21
-2208.250759224798
 31
0.0
  0
LINE
  5
3DF
330
1F
100
AcDbEntity
  8
0-B_寸法
  6
Continuous
 62
     7
370
     9
100
AcDbLine
 10
2479.682557826211
 20
-2198.565244993935
 30
0.0
 11
2479.682557826211
 21
-2204.565244993936
 31
0.0
  0
LINE
  5
3E0
330
1F
100
AcDbEntity
  8
0-B_寸法
  6
Continuous
 62
     7
370
     9
100
AcDbLine
 10
2584.135589102317
 20
-2152.719451287227
 30
0.0
 11
2584.135589102317
 21
-2158.71945128723
 31
0.0
  0
LINE
  5
3E1
330
1F
100
AcDbEntity
  8
0-B_寸法
  6
Continuous
 62
     7
370
     9
100
AcDbLine
 10
2579.82532394151
 20
-2150.418592001345
 30
0.0
 11
2579.82532394151
 21
-2156.418592001346
 31
0.0
  0
LINE
  5
3E2
330
1F
100
AcDbEntity
  8
0-B_寸法
  6
Continuous
 62
     7
370
     9
100
AcDbLine
 10
2578.199174815054
 20
-2150.061961619946
 30
0.0
 11
2578.199174815054
 21
-2156.061961619947
 31
0.0
  0
LINE
  5
3E3
330
1F
100
AcDbEntity
  8
0-B_寸法
  6
Continuous
 62
     7
370
     9
100
AcDbLine
 10
2574.846805846669
 20
-2150.040752706631
 30
0.0
 11
2574.846805846669
 21
-2156.040752706633
 31
0.0
  0
LINE
  5
3E4
330
1F
100
AcDbEntity
  8
0-B_寸法
  6
Continuous
 62
     7
370
     9
100
AcDbLine
 10
2573.395780472292
 20
-2150.328081875666
 30
0.0
 11
2573.395780472292
 21
-2156.328081875667
 31
0.0
  0
LINE
  5
3E5
330
1F
100
AcDbEntity
  8
0-B_寸法
  6
Continuous
 62
     7
370
     9
100
AcDbLine
 10
2570.926363549043
 20
-2151.279197981087
 30
0.0
 11
2570.926363549043
 21
-2157.279197981087
 31
0.0
  0
ARC
  5
3E6
330
1F
100
AcDbEntity
  8
0-B_寸法
  6
Continuous
 62
     7
370
     9
100
AcDbCircle
 10
2587.330712350075
 20
-2177.013678208561
 30
0.0
 40
12.0
100
AcDbArc
 50
20.75540117989427
 51
50.15987174704777
  0
LINE
  5
3E7
330
1F
100
AcDbEntity
  8
0-B_寸法
  6
Continuous
 62
     7
370
     9
100
AcDbLine
 10
2570.926363549046
 20
-2157.279197981087
 30
0.0
 11
2479.682557826211
 21
-2204.565244993936
 31
0.0
  0
LINE
  5
3E8
330
1F
100
AcDbEntity
  8
0-B_寸法
  6
Continuous
 62
     7
370
     9
100
AcDbLine
 10
2584.135589102317
 20
-2158.719451287228
 30
0.0
 11
2595.018483853496
 21
-2167.79965795076
 31
0.0
  0
ARC
  5
3E9
330
1F
100
AcDbEntity
  8
0-B_寸法
  6
Continuous
 62
     7
370
     9
100
AcDbCircle
 10
2576.447817598899
 20
-2167.933471545033
 30
0.0
 40
12.0
100
AcDbArc
 50
50.15987174704691
 51
117.3949267100002
  0
LINE
  5
3EA
330
1F
100
AcDbEntity
  8
0-B_寸法
  6
Continuous
 62
     7
370
     9
100
AcDbLine
 10
2576.447817598899
 20
-2149.933471545032
 30
0.0
 11
2576.447817598899
 21
-2155.933471545033
 31
0.0
  0
ARC
  5
3EB
330
1F
100
AcDbEntity
  8
0-B_寸法
  6
Continuous
 62
     7
370
     9
100
AcDbCircle
 10
2180.930499374927
 20
-1948.95347946329
 30
0.0
 40
12.0
100
AcDbArc
 50
117.3949267100002
 51
165.5224878140668
  0
LINE
  5
3EC
330
1F
100
AcDbEntity
  8
0-B_寸法
  6
Continuous
 62
     7
370
     9
100
AcDbLine
 10
2169.9604955874
 20
-1938.089425916952
 30
0.0
 11
2169.9604955874
 21
-1944.089425916954
 31
0.0
  0
LINE
  5
3ED
330
1F
100
AcDbEntity
  8
0-B_寸法
  6
Continuous
 62
     7
370
     9
100
AcDbLine
 10
2171.16134417309
 20
-1935.984720130206
 30
0.0
 11
2171.16134417309
 21
-1941.984720130207
 31
0.0
  0
LINE
  5
3EE
330
1F
100
AcDbEntity
  8
0-B_寸法
  6
Continuous
 62
     7
370
     9
100
AcDbLine
 10
2175.409045325074
 20
-1932.299205899344
 30
0.0
 11
2175.409045325074
 21
-1938.299205899346
 31
0.0
  0
LINE
  5
3EF
330
1F
100
AcDbEntity
  8
0-B_寸法
  6
Continuous
 62
     7
370
     9
100
AcDbLine
 10
2279.86207660118
 20
-1886.453412192636
 30
0.0
 11
2279.86207660118
 21
-1892.453412192639
 31
0.0
  0
LINE
  5
3F0
330
1F
100
AcDbEntity
  8
0-B_寸法
  6
Continuous
 62
     7
370
     9
100
AcDbLine
 10
2275.551811440372
 20
-1884.152552906754
 30
0.0
 11
2275.551811440372
 21
-1890.152552906756
 31
0.0
  0
LINE
  5
3F1
330
1F
100
AcDbEntity
  8
0-B_寸法
  6
Continuous
 62
     7
370
     9
100
AcDbLine
 10
2273.925662313916
 20
-1883.795922525355
 30
0.0
 11
2273.925662313916
 21
-1889.795922525356
 31
0.0
  0
LINE
  5
3F2
330
1F
100
AcDbEntity
  8
0-B_寸法
  6
Continuous
 62
     7
370
     9
100
AcDbLine
 10
2270.573293345531
 20
-1883.774713612041
 30
0.0
 11
2270.573293345531
 21
-1889.774713612042
 31
0.0
  0
LINE
  5
3F3
330
1F
100
AcDbEntity
  8
0-B_寸法
  6
Continuous
 62
     7
370
     9
100
AcDbLine
 10
2269.122267971154
 20
-1884.062042781075
 30
0.0
 11
2269.122267971154
 21
-1890.062042781077
 31
0.0
  0
LINE
  5
3F4
330
1F
100
AcDbEntity
  8
0-B_寸法
  6
Continuous
 62
     7
370
     9
100
AcDbLine
 10
2266.652851047905
 20
-1885.013158886497
 30
0.0
 11
2266.652851047905
 21
-1891.013158886496
 31
0.0
  0
ARC
  5
3F5
330
1F
100
AcDbEntity
  8
0-B_寸法
  6
Continuous
 62
     7
370
     9
100
AcDbCircle
 10
2283.057199848939
 20
-1910.747639113971
 30
0.0
 40
12.0
100
AcDbArc
 50
20.75540117989427
 51
50.15987174704777
  0
LINE
  5
3F6
330
1F
100
AcDbEntity
  8
0-B_寸法
  6
Continuous
 62
     7
370
     9
100
AcDbLine
 10
2266.652851047907
 20
-1891.013158886496
 30
0.0
 11
2175.409045325074
 21
-1938.299205899346
 31
0.0
  0
LINE
  5
3F7
330
1F
100
AcDbEntity
  8
0-B_寸法
  6
Continuous
 62
     7
370
     9
100
AcDbLine
 10
2279.86207660118
 20
-1892.453412192637
 30
0.0
 11
2290.744971352358
 21
-1901.533618856169
 31
0.0
  0
ARC
  5
3F8
330
1F
100
AcDbEntity
  8
0-B_寸法
  6
Continuous
 62
     7
370
     9
100
AcDbCircle
 10
2272.174305097761
 20
-1901.667432450442
 30
0.0
 40
12.0
100
AcDbArc
 50
50.15987174704691
 51
117.3949267100002
  0
LINE
  5
3F9
330
1F
100
AcDbEntity
  8
0-B_寸法
  6
Continuous
 62
     7
370
     9
100
AcDbLine
 10
2272.174305097761
 20
-1883.667432450442
 30
0.0
 11
2272.174305097761
 21
-1889.667432450443
 31
0.0
  0
ELLIPSE
  5
3FA
330
1F
100
AcDbEntity
  8
0-B_寸法
  6
Continuous
 62
     7
370
     9
100
AcDbEllipse
 10
2102.805280904235
 20
-2224.370255748599
 30
0.0
 11
79.69551291525261
 21
0.0
 31
0.0
210
0.0
220
0.0
230
1.0
 40
0.7
 41
0.2111186597640594
 42
2.949786527099673
  0
ARC
  5
3FB
330
1F
100
AcDbEntity
  8
0-B_寸法
  6
Continuous
 62
     7
370
     9
100
AcDbCircle
 10
2576.447817598897
 20
-2161.933471545031
 30
0.0
 40
12.0
100
AcDbArc
 50
50.15987174704691
 51
117.3949267100002
  0
LINE
  5
3FC
330
1F
100
AcDbEntity
  8
0-B_寸法
  6
Continuous
 62
     7
370
     9
100
AcDbLine
 10
2570.926363549043
 20
-2151.279197981087
 30
0.0
 11
2479.682557826211
 21
-2198.565244993937
 31
0.0
  0
LINE
  5
3FD
330
1F
100
AcDbEntity
  8
0-B_寸法
  6
Continuous
 62
     7
370
     9
100
AcDbLine
 10
2584.135589102317
 20
-2152.719451287227
 30
0.0
 11
2595.018483853494
 21
-2161.799657950759
 31
0.0
  0
ARC
  5
3FE
330
1F
100
AcDbEntity
  8
0-B_寸法
  6
Continuous
 62
     7
370
     9
100
AcDbCircle
 10
2587.330712350075
 20
-2171.013678208561
 30
0.0
 40
12.0
100
AcDbArc
 50
297.3949267103216
 51
50.15987174704777
  0
LINE
  5
3FF
330
1F
100
AcDbEntity
  8
0-B_寸法
  6
Continuous
 62
     7
370
     9
100
AcDbLine
 10
2592.852166399989
 20
-2181.667951772475
 30
0.0
 11
2501.608360677636
 21
-2228.953998785724
 31
0.0
  0
ARC
  5
400
330
1F
100
AcDbEntity
  8
0-B_寸法
  6
Continuous
 62
     7
370
     9
100
AcDbCircle
 10
2496.086906627722
 20
-2218.29972522181
 30
0.0
 40
12.0
100
AcDbArc
 50
230.159871747048
 51
297.3949267103217
  0
LINE
  5
401
330
1F
100
AcDbEntity
  8
0-B_寸法
  6
Continuous
 62
     7
370
     9
100
AcDbLine
 10
2488.399135124302
 20
-2227.513745479615
 30
0.0
 11
2477.516240372644
 21
-2218.433538815684
 31
0.0
  0
ARC
  5
402
330
1F
100
AcDbEntity
  8
0-B_寸法
  6
Continuous
 62
     7
370
     9
100
AcDbCircle
 10
2485.204011876065
 20
-2209.219518557879
 30
0.0
 40
12.0
100
AcDbArc
 50
117.3949267100002
 51
230.1598717470478
  0
ARC
  5
403
330
1F
100
AcDbEntity
  8
0-B_寸法
  6
Continuous
 62
     7
370
     9
100
AcDbCircle
 10
2272.174305097761
 20
-1895.667432450441
 30
0.0
 40
12.0
100
AcDbArc
 50
50.15987174704691
 51
117.3949267100002
  0
LINE
  5
404
330
1F
100
AcDbEntity
  8
0-B_寸法
  6
Continuous
 62
     7
370
     9
100
AcDbLine
 10
2266.652851047907
 20
-1885.013158886495
 30
0.0
 11
2175.409045325074
 21
-1932.299205899344
 31
0.0
  0
LINE
  5
405
330
1F
100
AcDbEntity
  8
0-B_寸法
  6
Continuous
 62
     7
370
     9
100
AcDbLine
 10
2279.86207660118
 20
-1886.453412192636
 30
0.0
 11
2290.744971352358
 21
-1895.533618856168
 31
0.0
  0
ARC
  5
406
330
1F
100
AcDbEntity
  8
0-B_寸法
  6
Continuous
 62
     7
370
     9
100
AcDbCircle
 10
2283.057199848939
 20
-1904.747639113969
 30
0.0
 40
12.0
100
AcDbArc
 50
297.3949267103216
 51
50.15987174704777
  0
LINE
  5
407
330
1F
100
AcDbEntity
  8
0-B_寸法
  6
Continuous
 62
     7
370
     9
100
AcDbLine
 10
2288.578653898851
 20
-1915.401912677883
 30
0.0
 11
2197.334848176498
 21
-1962.687959691131
 31
0.0
  0
ARC
  5
408
330
1F
100
AcDbEntity
  8
0-B_寸法
  6
Continuous
 62
     7
370
     9
100
AcDbCircle
 10
2191.813394126585
 20
-1952.03368612722
 30
0.0
 40
12.0
100
AcDbArc
 50
230.159871747048
 51
297.3949267103217
  0
LINE
  5
409
330
1F
100
AcDbEntity
  8
0-B_寸法
  6
Continuous
 62
     7
370
     9
100
AcDbLine
 10
2184.125622623165
 20
-1961.247706385024
 30
0.0
 11
2173.242727871508
 21
-1952.167499721092
 31
0.0
  0
ARC
  5
40A
330
1F
100
AcDbEntity
  8
0-B_寸法
  6
Continuous
 62
     7
370
     9
100
AcDbCircle
 10
2180.930499374927
 20
-1942.953479463289
 30
0.0
 40
12.0
100
AcDbArc
 50
117.3949267100002
 51
230.1598717470478
  0
ELLIPSE
  5
40B
330
1F
100
AcDbEntity
  8
0-B_寸法
  6
Continuous
 62
     7
370
     9
100
AcDbEllipse
 10
2407.055783195653
 20
-2010.333584122011
 30
0.0
 11
45.7135540476191
 21
0.0
 31
0.0
210
0.0
220
0.0
230
1.0
 40
0.7
 41
0.0
 42
6.283185307179586
  0
LINE
  5
40C
330
1F
100
AcDbEntity
  8
0-B_寸法
  6
Continuous
 62
     7
370
     9
100
AcDbLine
 10
2714.317628647573
 20
-2209.110766234846
 30
0.0
 11
2711.155474969061
 21
-2233.636551423264
 31
0.0
  0
LINE
  5
40D
330
1F
100
AcDbEntity
  8
0-B_寸法
  6
Continuous
 62
     7
370
     9
100
AcDbLine
 10
2714.317628647573
 20
-2203.110766234848
 30
0.0
 11
2714.317628647573
 21
-2209.110766234846
 31
0.0
  0
LINE
  5
40E
330
1F
100
AcDbEntity
  8
0-B_寸法
  6
Continuous
 62
     7
370
     9
100
AcDbLine
 10
2711.155474969061
 20
-2233.636551423264
 30
0.0
 11
2711.155474969061
 21
-2227.636551423263
 31
0.0
  0
LINE
  5
40F
330
1F
100
AcDbEntity
  8
0-B_寸法
  6
Continuous
 62
     7
370
     9
100
AcDbLine
 10
2491.803897799414
 20
-2367.92296634662
 30
0.0
 11
2711.155474969061
 21
-2233.636551423264
 31
0.0
  0
LINE
  5
410
330
1F
100
AcDbEntity
  8
0-B_寸法
  6
Continuous
 62
     7
370
     9
100
AcDbLine
 10
2462.487835608597
 20
-2363.582037654548
 30
0.0
 11
2450.194271746418
 21
-2357.070876163077
 31
0.0
  0
LINE
  5
411
330
1F
100
AcDbEntity
  8
0-B_寸法
  6
Continuous
 62
     7
370
     9
100
AcDbLine
 10
2462.487835608597
 20
-2357.582091538445
 30
0.0
 11
2462.487835608597
 21
-2363.582037654548
 31
0.0
  0
LINE
  5
412
330
1F
100
AcDbEntity
  8
0-B_寸法
  6
Continuous
 62
     7
370
     9
100
AcDbLine
 10
2491.803897799414
 20
-2367.92296634662
 30
0.0
 11
2462.487835608597
 21
-2363.582037654548
 31
0.0
  0
LINE
  5
413
330
1F
100
AcDbEntity
  8
0-B_寸法
  6
Continuous
 62
     7
370
     9
100
AcDbLine
 10
2491.803897799414
 20
-2361.922966346619
 30
0.0
 11
2491.803897799414
 21
-2367.92296634662
 31
0.0
  0
LINE
  5
414
330
1F
100
AcDbEntity
  8
0-B_寸法
  6
Continuous
 62
     7
370
     9
100
AcDbLine
 10
2450.194333272295
 20
-2351.070976173396
 30
0.0
 11
2450.194333272295
 21
-2357.070976173397
 31
0.0
  0
LINE
  5
415
330
1F
100
AcDbEntity
  8
0-B_寸法
  6
Continuous
 62
     7
370
     9
100
AcDbLine
 10
2381.774032924039
 20
-1917.665001473606
 30
0.0
 11
2114.208162863165
 21
-2056.671852556762
 31
0.0
  0
LINE
  5
416
330
1F
100
AcDbEntity
  8
0-B_寸法
  6
Continuous
 62
     7
370
     9
100
AcDbLine
 10
2238.530846561458
 20
-2173.647297741182
 30
0.0
 11
2516.226725244039
 21
-2017.027805728578
 31
0.0
  0
LINE
  5
417
330
1F
100
AcDbEntity
  8
0-B_寸法
  6
Continuous
 62
     7
370
     9
100
AcDbLine
 10
2411.191347762574
 20
-1932.282856643667
 30
0.0
 11
2122.613501795162
 21
-2082.205930356932
 31
0.0
  0
LINE
  5
418
330
1F
100
AcDbEntity
  8
0-B_寸法
  6
Continuous
 62
     7
370
     9
100
AcDbLine
 10
2424.529461527229
 20
-1935.593810128197
 30
0.0
 11
2131.017464249786
 21
-2088.080293129128
 31
0.0
  0
LINE
  5
419
330
1F
100
AcDbEntity
  8
0-B_寸法
  6
Continuous
 62
     7
370
     9
100
AcDbLine
 10
1927.18702802393
 20
-2195.778010590038
 30
0.0
 11
1892.646640719338
 21
-2179.282804427302
 31
0.0
  0
LINE
  5
41A
330
1F
100
AcDbEntity
  8
0-B_寸法
  6
Continuous
 62
     7
370
     9
100
AcDbLine
 10
2067.27138084861
 20
-2343.009295287583
 30
0.0
 11
1927.18702802393
 21
-2195.778010590038
 31
0.0
  0
LINE
  5
41B
330
1F
100
AcDbEntity
  8
0-B_寸法
  6
Continuous
 62
     7
370
     9
100
AcDbLine
 10
2104.555818344841
 20
-2410.15250274926
 30
0.0
 11
2067.27138084861
 21
-2343.009295287583
 31
0.0
  0
LINE
  5
41C
330
1F
100
AcDbEntity
  8
0-B_寸法
  6
Continuous
 62
     7
370
     9
100
AcDbLine
 10
1940.891531204828
 20
-2170.058543883537
 30
0.0
 11
2075.333455428858
 21
-2299.58558681741
 31
0.0
  0
LINE
  5
41D
330
1F
100
AcDbEntity
  8
0-B_寸法
  6
Continuous
 62
     7
370
     9
100
AcDbLine
 10
1838.15381959665
 20
-2121.208741903149
 30
0.0
 11
1940.891531204828
 21
-2170.058543883537
 31
0.0
  0
LINE
  5
41E
330
1F
100
AcDbEntity
  8
0-B_寸法
  6
Continuous
 62
     7
370
     9
100
AcDbLine
 10
2141.902459561339
 20
-2435.530833230358
 30
0.0
 11
2075.333455428858
 21
-2299.58558681741
 31
0.0
  0
LINE
  5
41F
330
1F
100
AcDbEntity
  8
0-B_寸法
  6
Continuous
 62
     7
370
     9
100
AcDbLine
 10
2357.976899878436
 20
-2309.07421128523
 30
0.0
 11
2157.848339675585
 21
-2416.738400746463
 31
0.0
  0
LINE
  5
420
330
1F
100
AcDbEntity
  8
0-B_寸法
  6
Continuous
 62
     7
370
     9
100
AcDbLine
 10
2238.517435361723
 20
-2223.760826586599
 30
0.0
 11
2095.440217464331
 21
-2300.732812392507
 31
0.0
  0
LINE
  5
421
330
1F
100
AcDbEntity
  8
0-B_寸法
  6
Continuous
 62
     7
370
     9
100
AcDbLine
 10
2109.144720645229
 20
-2099.42720375358
 30
0.0
 11
1966.0682901367
 21
-2176.38383547664
 31
0.0
  0
LINE
  5
422
330
1F
100
AcDbEntity
  8
0-B_寸法
  6
Continuous
 62
     7
370
     9
100
AcDbLine
 10
2057.489648989013
 20
-1999.154216137476
 30
0.0
 11
1858.757424005413
 21
-2112.496087273879
 31
0.0
  0
LINE
  5
423
330
1F
100
AcDbEntity
  8
0-B_寸法
  6
Continuous
 62
     7
370
     9
100
AcDbLine
 10
2116.198937479337
 20
-2094.605824891048
 30
0.0
 11
2066.620210257941
 21
-1993.40253733192
 31
0.0
  0
LINE
  5
424
330
1F
100
AcDbEntity
  8
0-B_寸法
  6
Continuous
 62
     7
370
     9
100
AcDbLine
 10
2246.687382216364
 20
-2215.730247560916
 30
0.0
 11
2116.198937479337
 21
-2094.605824891048
 31
0.0
  0
LINE
  5
425
330
1F
100
AcDbEntity
  8
0-B_寸法
  6
Continuous
 62
     7
370
     9
100
AcDbLine
 10
2382.52377211884
 20
-2299.973178985801
 30
0.0
 11
2246.687382216364
 21
-2215.730247560916
 31
0.0
  0
LINE
  5
426
330
1F
100
AcDbEntity
  8
0-B_寸法
  6
Continuous
 62
     7
370
     9
100
AcDbLine
 10
2401.949442786804
 20
-2301.709568278512
 30
0.0
 11
2450.194333272295
 21
-2351.070976173396
 31
0.0
  0
LINE
  5
427
330
1F
100
AcDbEntity
  8
0-B_寸法
  6
Continuous
 62
     7
370
     9
100
AcDbLine
 10
2256.639977459486
 20
-2207.141606677756
 30
0.0
 11
2401.949442786804
 21
-2301.709568278512
 31
0.0
  0
LINE
  5
428
330
1F
100
AcDbEntity
  8
0-B_寸法
  6
Continuous
 62
     7
370
     9
100
AcDbLine
 10
2121.888609411837
 20
-2086.094741811007
 30
0.0
 11
2256.639977459486
 21
-2207.141606677756
 31
0.0
  0
LINE
  5
429
330
1F
100
AcDbEntity
  8
0-B_寸法
  6
Continuous
 62
     7
370
     9
100
AcDbLine
 10
2070.232750366757
 20
-1985.806203264829
 30
0.0
 11
2121.888609411837
 21
-2086.094741811007
 31
0.0
  0
LINE
  5
42A
330
1F
100
AcDbEntity
  8
0-B_寸法
  6
Continuous
 62
     7
370
     9
100
AcDbLine
 10
2044.622140170728
 20
-1962.520752384697
 30
0.0
 11
2070.232750366757
 21
-1985.806203264829
 31
0.0
  0
LINE
  5
42B
330
1F
100
AcDbEntity
  8
0-B_寸法
  6
Continuous
 62
     7
370
     9
100
AcDbLine
 10
2361.641432052157
 20
-2256.859504880894
 30
0.0
 11
2384.182800455647
 21
-2282.051814742833
 31
0.0
  0
LINE
  5
42C
330
1F
100
AcDbEntity
  8
0-B_寸法
  6
Continuous
 62
     7
370
     9
100
AcDbLine
 10
2258.624197397197
 20
-2192.987504455416
 30
0.0
 11
2361.641432052157
 21
-2256.859504880894
 31
0.0
  0
LINE
  5
42D
330
1F
100
AcDbEntity
  8
0-B_寸法
  6
Continuous
 62
     7
370
     9
100
AcDbLine
 10
2572.249055885183
 20
-2096.280010463491
 30
0.0
 11
2334.898556669451
 21
-2232.674855917879
 31
0.0
  0
LINE
  5
42E
330
1F
100
AcDbEntity
  8
0-B_寸法
  6
Continuous
 62
     7
370
     9
100
AcDbLine
 10
2559.071315854416
 20
-2068.126724777838
 30
0.0
 11
2296.916492639566
 21
-2215.172185703436
 31
0.0
  0
LINE
  5
42F
330
1F
100
AcDbEntity
  8
0-B_寸法
  6
Continuous
 62
     7
370
     9
100
AcDbLine
 10
2512.500414094151
 20
-2049.802217436415
 30
0.0
 11
2258.624197397197
 21
-2192.987504455416
 31
0.0
  0
LINE
  5
430
330
1F
100
AcDbEntity
  8
0-B_寸法
  6
Continuous
 62
     7
370
     9
100
AcDbLine
 10
2397.282588988861
 20
-1920.058052023247
 30
0.0
 11
2113.795826665888
 21
-2067.336186358211
 31
0.0
  0
LINE
  5
431
330
1F
100
AcDbEntity
  8
0-B_寸法
  6
Continuous
 62
     7
370
     9
100
AcDbLine
 10
2238.868610795144
 20
-1831.887034402233
 30
0.0
 11
2038.96317640393
 21
-1934.336561686126
 31
0.0
  0
LINE
  5
432
330
1F
100
AcDbEntity
  8
0-B_寸法
  6
Continuous
 62
     7
370
     9
100
AcDbLine
 10
2462.487835608597
 20
-2357.582091538445
 30
0.0
 11
2450.194333272295
 21
-2351.070976173396
 31
0.0
  0
LINE
  5
433
330
1F
100
AcDbEntity
  8
0-B_寸法
  6
Continuous
 62
     7
370
     9
100
AcDbLine
 10
2491.803897799414
 20
-2361.922966346619
 30
0.0
 11
2462.487835608597
 21
-2357.582091538445
 31
0.0
  0
LINE
  5
434
330
1F
100
AcDbEntity
  8
0-B_寸法
  6
Continuous
 62
     7
370
     9
100
AcDbLine
 10
2711.155474969061
 20
-2227.636551423263
 30
0.0
 11
2491.803897799414
 21
-2361.922966346619
 31
0.0
  0
LINE
  5
435
330
1F
100
AcDbEntity
  8
0-B_寸法
  6
Continuous
 62
     7
370
     9
100
AcDbLine
 10
2714.317628647573
 20
-2203.110766234848
 30
0.0
 11
2711.155474969061
 21
-2227.636551423263
 31
0.0
  0
LINE
  5
436
330
1F
100
AcDbEntity
  8
0-B_寸法
  6
Continuous
 62
     7
370
     9
100
AcDbLine
 10
2572.249055885183
 20
-2084.01721629289
 30
0.0
 11
2714.317628647573
 21
-2203.110766234848
 31
0.0
  0
LINE
  5
437
330
1F
100
AcDbEntity
  8
0-B_寸法
  6
Continuous
 62
     7
370
     9
100
AcDbLine
 10
2558.327233377774
 20
-2059.677648570849
 30
0.0
 11
2572.249055885183
 21
-2084.01721629289
 31
0.0
  0
LINE
  5
438
330
1F
100
AcDbEntity
  8
0-B_寸法
  6
Continuous
 62
     7
370
     9
100
AcDbLine
 10
2526.975770973074
 20
-2036.513652423014
 30
0.0
 11
2558.327233377774
 21
-2059.677648570849
 31
0.0
  0
LINE
  5
439
330
1F
100
AcDbEntity
  8
0-B_寸法
  6
Continuous
 62
     7
370
     9
100
AcDbLine
 10
2520.127850021376
 20
-2014.827585173232
 30
0.0
 11
2526.975770973074
 21
-2036.513652423014
 31
0.0
  0
LINE
  5
43A
330
1F
100
AcDbEntity
  8
0-B_寸法
  6
Continuous
 62
     7
370
     9
100
AcDbLine
 10
2426.350623687465
 20
-1933.8712148674
 30
0.0
 11
2520.127850021376
 21
-2014.827585173232
 31
0.0
  0
LINE
  5
43B
330
1F
100
AcDbEntity
  8
0-B_寸法
  6
Continuous
 62
     7
370
     9
100
AcDbLine
 10
2413.266582931534
 20
-1931.204722478885
 30
0.0
 11
2426.350623687465
 21
-1933.8712148674
 31
0.0
  0
LINE
  5
43C
330
1F
100
AcDbEntity
  8
0-B_寸法
  6
Continuous
 62
     7
370
     9
100
AcDbLine
 10
2402.724233429149
 20
-1920.972997883416
 30
0.0
 11
2413.266582931534
 21
-1931.204722478885
 31
0.0
  0
LINE
  5
43D
330
1F
100
AcDbEntity
  8
0-B_寸法
  6
Continuous
 62
     7
370
     9
100
AcDbLine
 10
2384.120596735378
 20
-1916.445905608864
 30
0.0
 11
2402.724233429149
 21
-1920.972997883416
 31
0.0
  0
LINE
  5
43E
330
1F
100
AcDbEntity
  8
0-B_寸法
  6
Continuous
 62
     7
370
     9
100
AcDbLine
 10
2267.057919521333
 20
-1826.29657346662
 30
0.0
 11
2384.120596735378
 21
-1916.445905608864
 31
0.0
  0
LINE
  5
43F
330
1F
100
AcDbEntity
  8
0-B_寸法
  6
Continuous
 62
     7
370
     9
100
AcDbLine
 10
2243.788216418486
 20
-1829.365815259159
 30
0.0
 11
2267.057919521333
 21
-1826.29657346662
 31
0.0
  0
LINE
  5
440
330
1F
100
AcDbEntity
  8
0-B_寸法
  6
Continuous
 62
     7
370
     9
100
AcDbLine
 10
2238.868610795144
 20
-1831.887034402233
 30
0.0
 11
2243.788216418486
 21
-1829.365815259159
 31
0.0
  0
LINE
  5
441
330
1F
100
AcDbEntity
  8
0-B_寸法
  6
Continuous
 62
     7
370
     9
100
AcDbLine
 10
2038.96317640393
 20
-1934.336561686126
 30
0.0
 11
2036.793132694276
 21
-1957.900748224175
 31
0.0
  0
ELLIPSE
  5
442
330
1F
100
AcDbEntity
  8
0-B_寸法
  6
Continuous
 62
     7
370
     9
100
AcDbEllipse
 10
2102.497303696156
 20
-2202.045132270118
 30
0.0
 11
79.69551291525261
 21
0.0
 31
0.0
210
0.0
220
0.0
230
1.0
 40
0.7
 41
0.0
 42
6.283185307179586
  0
MTEXT
  5
443
330
1F
100
AcDbEntity
  8
0-B_寸法
  6
Continuous
 62
     7
370
     9
100
AcDbMText
 10
3941.396932484727
 20
-2210.138330563705
 30
0.0
 40
45.72
 41
240.0
 46
0.0
 71
     7
 72
     1
  1
{\fＭＳ ゴシック|b0|i0|c128|p49;46㎜後ろ}
 73
     1
 44
1.0
  0
LINE
  5
444
330
1F
100
AcDbEntity
  8
0-B_寸法
  6
Continuous
 62
   120
370
     5
100
AcDbLine
 10
4709.382240634854
 20
-2953.821324562283
 30
0.0
 11
4643.382017939012
 21
-3019.821179861549
 31
0.0
  0
LINE
  5
445
330
1F
100
AcDbEntity
  8
0-B_寸法
  6
Continuous
 62
    92
370
    13
100
AcDbLine
 10
4643.382017939012
 20
-3014.497231181791
 30
0.0
 11
4643.382017939012
 21
-3074.497231181791
 31
0.0
  0
LINE
  5
446
330
1F
100
AcDbEntity
  8
0-B_寸法
  6
Continuous
 62
    92
370
    13
100
AcDbLine
 10
4589.382017939014
 20
-3014.497231181791
 30
0.0
 11
4643.382017939012
 21
-3014.497231181791
 31
0.0
  0
LINE
  5
447
330
1F
100
AcDbEntity
  8
0-B_寸法
  6
Continuous
 62
    92
370
    13
100
AcDbLine
 10
4589.382017939014
 20
-3014.497231181791
 30
0.0
 11
4589.382017939014
 21
-3074.497231181791
 31
0.0
  0
LINE
  5
448
330
1F
100
AcDbEntity
  8
0-B_寸法
  6
Continuous
 62
    92
370
    13
100
AcDbLine
 10
4709.382017939014
 20
-2522.498082374783
 30
0.0
 11
4709.382017939014
 21
-3032.497231181791
 31
0.0
  0
LINE
  5
449
330
1F
100
AcDbEntity
  8
0-B_寸法
  6
Continuous
 62
    92
370
    13
100
AcDbLine
 10
4679.382017939014
 20
-3032.497231181791
 30
0.0
 11
4709.382017939014
 21
-3032.497231181791
 31
0.0
  0
LINE
  5
44A
330
1F
100
AcDbEntity
  8
0-B_寸法
  6
Continuous
 62
    92
370
    13
100
AcDbLine
 10
4679.382017939014
 20
-3032.497231181791
 30
0.0
 11
4679.382017939014
 21
-3074.497231181791
 31
0.0
  0
LINE
  5
44B
330
1F
100
AcDbEntity
  8
0-B_寸法
  6
Continuous
 62
    92
370
    13
100
AcDbLine
 10
4643.382017939012
 20
-3074.497231181791
 30
0.0
 11
4679.382017939014
 21
-3074.497231181791
 31
0.0
  0
LINE
  5
44C
330
1F
100
AcDbEntity
  8
0-B_寸法
  6
Continuous
 62
   120
370
     5
100
AcDbLine
 10
4631.58827387757
 20
-2522.498082374783
 30
0.0
 11
4529.382017939014
 21
-2624.703595993871
 31
0.0
  0
LINE
  5
44D
330
1F
100
AcDbEntity
  8
0-B_寸法
  6
Continuous
 62
   120
370
     5
100
AcDbLine
 10
4709.382240634854
 20
-2529.556798195096
 30
0.0
 11
4529.382017939014
 21
-2709.556649731202
 31
0.0
  0
LINE
  5
44E
330
1F
100
AcDbEntity
  8
0-B_寸法
  6
Continuous
 62
   120
370
     5
100
AcDbLine
 10
4709.382240634854
 20
-2868.968270824952
 30
0.0
 11
4529.382017939014
 21
-3048.968122361058
 31
0.0
  0
LINE
  5
44F
330
1F
100
AcDbEntity
  8
0-B_寸法
  6
Continuous
 62
   120
370
     5
100
AcDbLine
 10
4529.382017939014
 20
-2879.262757205865
 30
0.0
 11
4709.382240634854
 21
-2699.262905669758
 31
0.0
  0
LINE
  5
450
330
1F
100
AcDbEntity
  8
0-B_寸法
  6
Continuous
 62
   120
370
     5
100
AcDbLine
 10
4529.382017939014
 20
-2964.115810943196
 30
0.0
 11
4709.382240634854
 21
-2784.115217087621
 31
0.0
  0
LINE
  5
451
330
1F
100
AcDbEntity
  8
0-B_寸法
  6
Continuous
 62
   120
370
     5
100
AcDbLine
 10
4709.382240634854
 20
-2614.409851932427
 30
0.0
 11
4529.382017939014
 21
-2794.410445787998
 31
0.0
  0
LINE
  5
452
330
1F
100
AcDbEntity
  8
0-B_寸法
  6
Continuous
 62
   120
370
     5
100
AcDbLine
 10
4679.382017939014
 20
-3068.674433995555
 30
0.0
 11
4673.559188339437
 21
-3074.497231181791
 31
0.0
  0
LINE
  5
453
330
1F
100
AcDbEntity
  8
0-B_寸法
  6
Continuous
 62
    92
370
    13
100
AcDbLine
 10
4535.382017939015
 20
-3074.497231181791
 30
0.0
 11
4589.382017939014
 21
-3074.497231181791
 31
0.0
  0
LINE
  5
454
330
1F
100
AcDbEntity
  8
0-B_寸法
  6
Continuous
 62
    92
370
    13
100
AcDbLine
 10
4529.382017939014
 20
-3068.497231181791
 30
0.0
 11
4535.382017939015
 21
-3074.497231181791
 31
0.0
  0
LINE
  5
455
330
1F
100
AcDbEntity
  8
0-B_寸法
  6
Continuous
 62
    92
370
    13
100
AcDbLine
 10
4535.382017939015
 20
-2522.498082374783
 30
0.0
 11
4709.382017939014
 21
-2522.498082374783
 31
0.0
  0
LINE
  5
456
330
1F
100
AcDbEntity
  8
0-B_寸法
  6
Continuous
 62
    92
370
    13
100
AcDbLine
 10
4529.382017939014
 20
-2528.498082374783
 30
0.0
 11
4529.382017939014
 21
-3068.497231181791
 31
0.0
  0
LINE
  5
457
330
1F
100
AcDbEntity
  8
0-B_寸法
  6
Continuous
 62
    92
370
    13
100
AcDbLine
 10
4535.382017939015
 20
-2522.498082374783
 30
0.0
 11
4529.382017939014
 21
-2528.498082374783
 31
0.0
  0
LINE
  5
458
330
1F
100
AcDbEntity
  8
0-B_寸法
  6
Continuous
 62
     7
370
     9
100
AcDbLine
 10
4709.382017939014
 20
-2744.497993605745
 30
0.0
 11
4715.382086603555
 21
-2744.497993605745
 31
0.0
  0
LINE
  5
459
330
1F
100
AcDbEntity
  8
0-B_寸法
  6
Continuous
 62
     7
370
     9
100
AcDbLine
 10
4715.382086603555
 20
-2852.498062270296
 30
0.0
 11
4709.382017939014
 21
-2852.498062270296
 31
0.0
  0
LINE
  5
45A
330
1F
100
AcDbEntity
  8
0-B_寸法
  6
Continuous
 62
     7
370
     9
100
AcDbLine
 10
4715.382086603555
 20
-2858.498228209627
 30
0.0
 11
4715.382086603555
 21
-2738.498571532381
 31
0.0
  0
LINE
  5
45B
330
1F
100
AcDbEntity
  8
0-B_寸法
  6
Continuous
 62
     7
370
     9
100
AcDbLine
 10
4727.381680338298
 20
-2738.498571532381
 30
0.0
 11
4715.382086603555
 21
-2738.498571532381
 31
0.0
  0
LINE
  5
45C
330
1F
100
AcDbEntity
  8
0-B_寸法
  6
Continuous
 62
     7
370
     9
100
AcDbLine
 10
4727.381680338298
 20
-2858.498228209627
 30
0.0
 11
4715.382086603555
 21
-2858.498228209627
 31
0.0
  0
LINE
  5
45D
330
1F
100
AcDbEntity
  8
0-B_寸法
  6
Continuous
 62
     7
370
     9
100
AcDbLine
 10
4739.382017939007
 20
-2888.498331206453
 30
0.0
 11
4739.382017939007
 21
-2708.498468535556
 31
0.0
  0
LINE
  5
45E
330
1F
100
AcDbEntity
  8
0-B_寸法
  6
Continuous
 62
     7
370
     9
100
AcDbLine
 10
4739.382017939007
 20
-2888.498331206453
 30
0.0
 11
4727.381680338298
 21
-2888.498331206453
 31
0.0
  0
LINE
  5
45F
330
1F
100
AcDbEntity
  8
0-B_寸法
  6
Continuous
 62
     7
370
     9
100
AcDbLine
 10
4739.382017939007
 20
-2708.498468535556
 30
0.0
 11
4727.381680338298
 21
-2708.498468535556
 31
0.0
  0
LINE
  5
460
330
1F
100
AcDbEntity
  8
0-B_寸法
  6
Continuous
 62
     7
370
     9
100
AcDbLine
 10
4727.381680338298
 20
-2888.498331206453
 30
0.0
 11
4727.381680338298
 21
-2708.498468535556
 31
0.0
  0
LINE
  5
461
330
1F
100
AcDbEntity
  8
0-B_寸法
  6
Continuous
 62
   120
370
     5
100
AcDbLine
 10
4709.38201793901
 20
-2572.164972892567
 30
0.0
 11
4707.715127421229
 21
-2570.498082374786
 31
0.0
  0
LINE
  5
462
330
1F
100
AcDbEntity
  8
0-B_寸法
  6
Continuous
 62
   200
370
    20
100
AcDbLine
 10
4514.382017939014
 20
-2717.498027938021
 30
0.0
 11
4514.382017939014
 21
-2879.49802793802
 31
0.0
  0
LINE
  5
463
330
1F
100
AcDbEntity
  8
0-B_寸法
  6
JWW_CENTER1
 62
   120
370
     5
100
AcDbLine
 10
4304.382017939014
 20
-2735.49673135335
 30
0.0
 11
4304.382017939014
 21
-2861.497384594482
 31
0.0
  0
ARC
  5
464
330
1F
100
AcDbEntity
  8
0-B_寸法
  6
Continuous
 62
     7
370
     9
100
AcDbCircle
 10
4313.382017939012
 20
-2798.498027938021
 30
0.0
 40
27.00000000000017
100
AcDbArc
 50
270.0
 51
90.0
  0
ARC
  5
465
330
1F
100
AcDbEntity
  8
0-B_寸法
  6
Continuous
 62
     7
370
     9
100
AcDbCircle
 10
4169.38201793901
 20
-2910.998027938021
 30
0.0
 40
6.0
100
AcDbArc
 50
135.0000000000086
 51
270.0
  0
ARC
  5
466
330
1F
100
AcDbEntity
  8
0-B_寸法
  6
Continuous
 62
     7
370
     9
100
AcDbCircle
 10
4169.38201793901
 20
-2685.998027938021
 30
0.0
 40
6.0
100
AcDbArc
 50
90.0
 51
224.9999999999913
  0
CIRCLE
  5
467
330
1F
100
AcDbEntity
  8
0-B_寸法
  6
Continuous
 62
     7
370
     9
100
AcDbCircle
 10
4262.382017939011
 20
-2873.498027938021
 30
0.0
 40
11.7
  0
CIRCLE
  5
468
330
1F
100
AcDbEntity
  8
0-B_寸法
  6
Continuous
 62
     7
370
     9
100
AcDbCircle
 10
4262.382017939011
 20
-2723.498027938021
 30
0.0
 40
11.7
  0
CIRCLE
  5
469
330
1F
100
AcDbEntity
  8
0-B_寸法
  6
Continuous
 62
     7
370
     9
100
AcDbCircle
 10
4262.382017939011
 20
-2723.498027938021
 30
0.0
 40
22.5
  0
CIRCLE
  5
46A
330
1F
100
AcDbEntity
  8
0-B_寸法
  6
Continuous
 62
     7
370
     9
100
AcDbCircle
 10
4262.382017939011
 20
-2873.498027938021
 30
0.0
 40
22.5
  0
CIRCLE
  5
46B
330
1F
100
AcDbEntity
  8
0-B_寸法
  6
Continuous
 62
     7
370
     9
100
AcDbCircle
 10
4391.382017939011
 20
-2798.498027938021
 30
0.0
 40
11.7
  0
CIRCLE
  5
46C
330
1F
100
AcDbEntity
  8
0-B_寸法
  6
Continuous
 62
     7
370
     9
100
AcDbCircle
 10
4391.382017939011
 20
-2798.498027938021
 30
0.0
 40
22.5
  0
LINE
  5
46D
330
1F
100
AcDbEntity
  8
0-B_寸法
  6
Continuous
 62
     7
370
     9
100
AcDbLine
 10
4363.955611067819
 20
-2916.998027938021
 30
0.0
 11
4169.38201793901
 21
-2916.998027938021
 31
0.0
  0
ARC
  5
46E
330
1F
100
AcDbEntity
  8
0-B_寸法
  6
Continuous
 62
     7
370
     9
100
AcDbCircle
 10
4363.955611067819
 20
-2886.998027938021
 30
0.0
 40
30.0
100
AcDbArc
 50
270.0
 51
315.0
  0
LINE
  5
46F
330
1F
100
AcDbEntity
  8
0-B_寸法
  6
Continuous
 62
     7
370
     9
100
AcDbLine
 10
4427.595221374608
 20
-2865.784824502424
 30
0.0
 11
4385.168814503415
 21
-2908.211231373617
 31
0.0
  0
ARC
  5
470
330
1F
100
AcDbEntity
  8
0-B_寸法
  6
Continuous
 62
     7
370
     9
100
AcDbCircle
 10
4406.382017939011
 20
-2844.571621066828
 30
0.0
 40
30.0
100
AcDbArc
 50
314.9999999999999
 51
359.9999999999999
  0
LINE
  5
471
330
1F
100
AcDbEntity
  8
0-B_寸法
  6
Continuous
 62
     7
370
     9
100
AcDbLine
 10
4436.382017939011
 20
-2752.424434809213
 30
0.0
 11
4436.382017939011
 21
-2844.571621066828
 31
0.0
  0
ARC
  5
472
330
1F
100
AcDbEntity
  8
0-B_寸法
  6
Continuous
 62
     7
370
     9
100
AcDbCircle
 10
4406.382017939011
 20
-2752.424434809213
 30
0.0
 40
30.0
100
AcDbArc
 50
0.0000000000000127
 51
45.00000000000001
  0
LINE
  5
473
330
1F
100
AcDbEntity
  8
0-B_寸法
  6
Continuous
 62
     7
370
     9
100
AcDbLine
 10
4385.168814503415
 20
-2688.784824502424
 30
0.0
 11
4427.595221374608
 21
-2731.211231373617
 31
0.0
  0
LINE
  5
474
330
1F
100
AcDbEntity
  8
0-B_寸法
  6
Continuous
 62
     7
370
     9
100
AcDbLine
 10
4363.955611067819
 20
-2679.998027938021
 30
0.0
 11
4169.38201793901
 21
-2679.998027938021
 31
0.0
  0
ARC
  5
475
330
1F
100
AcDbEntity
  8
0-B_寸法
  6
Continuous
 62
     7
370
     9
100
AcDbCircle
 10
4363.955611067819
 20
-2709.998027938021
 30
0.0
 40
30.0
100
AcDbArc
 50
45.00000000000006
 51
90.00000000000006
  0
LINE
  5
476
330
1F
100
AcDbEntity
  8
0-B_寸法
  6
Continuous
 62
     7
370
     9
100
AcDbLine
 10
4237.609940000369
 20
-2762.711231373617
 30
0.0
 11
4165.13937725189
 21
-2690.24066862514
 31
0.0
  0
LINE
  5
477
330
1F
100
AcDbEntity
  8
0-B_寸法
  6
Continuous
 62
     7
370
     9
100
AcDbLine
 10
4258.823143435965
 20
-2771.498027938021
 30
0.0
 11
4313.382017939012
 21
-2771.498027938021
 31
0.0
  0
ARC
  5
478
330
1F
100
AcDbEntity
  8
0-B_寸法
  6
Continuous
 62
     7
370
     9
100
AcDbCircle
 10
4258.823143435965
 20
-2741.498027938021
 30
0.0
 40
30.0
100
AcDbArc
 50
225.0000000000006
 51
270.0
  0
LINE
  5
479
330
1F
100
AcDbEntity
  8
0-B_寸法
  6
Continuous
 62
     7
370
     9
100
AcDbLine
 10
4258.823143435965
 20
-2825.49802793802
 30
0.0
 11
4313.382017939012
 21
-2825.49802793802
 31
0.0
  0
LINE
  5
47A
330
1F
100
AcDbEntity
  8
0-B_寸法
  6
Continuous
 62
     7
370
     9
100
AcDbLine
 10
4237.609940000369
 20
-2834.284824502423
 30
0.0
 11
4165.13937725189
 21
-2906.755387250902
 31
0.0
  0
ARC
  5
47B
330
1F
100
AcDbEntity
  8
0-B_寸法
  6
Continuous
 62
     7
370
     9
100
AcDbCircle
 10
4258.823143435965
 20
-2855.49802793802
 30
0.0
 40
30.0
100
AcDbArc
 50
90.0
 51
134.9999999999995
  0
LINE
  5
47C
330
1F
100
AcDbEntity
  8
0-B_寸法
  6
JWW_CENTER1
 62
   120
370
     5
100
AcDbLine
 10
4262.382017939011
 20
-2690.552596425264
 30
0.0
 11
4262.382017939011
 21
-2756.488692891821
 31
0.0
  0
LINE
  5
47D
330
1F
100
AcDbEntity
  8
0-B_寸法
  6
JWW_CENTER1
 62
   120
370
     5
100
AcDbLine
 10
4262.382017939011
 20
-2838.192116774294
 30
0.0
 11
4262.382017939011
 21
-2903.411516540128
 31
0.0
  0
LINE
  5
47E
330
1F
100
AcDbEntity
  8
0-B_寸法
  6
JWW_CENTER1
 62
   120
370
     5
100
AcDbLine
 10
4391.382017939011
 20
-2765.089053300502
 30
0.0
 11
4391.382017939011
 21
-2831.741846467783
 31
0.0
  0
LINE
  5
47F
330
1F
100
AcDbEntity
  8
0-B_寸法
  6
JWW_CENTER1
 62
   120
370
     5
100
AcDbLine
 10
4230.425115923571
 20
-2873.498027938021
 30
0.0
 11
4297.077909090852
 21
-2873.498027938021
 31
0.0
  0
LINE
  5
480
330
1F
100
AcDbEntity
  8
0-B_寸法
  6
JWW_CENTER1
 62
   120
370
     5
100
AcDbLine
 10
4230.425115923571
 20
-2723.498027938021
 30
0.0
 11
4297.077909090852
 21
-2723.498027938021
 31
0.0
  0
LWPOLYLINE
  5
481
330
1F
100
AcDbEntity
  8
0-B_寸法
  6
Continuous
 62
     7
370
     9
100
AcDbPolyline
 90
        4
 70
     1
 43
3.0
 10
4164.882017939011
 20
-2685.998027938021
 42
0.4142135623731
 10
4163.38201793901
 20
-2684.498027938021
 42
0.4142135623731
 10
4161.88201793901
 20
-2685.998027938021
 42
0.4142135623731
 10
4163.38201793901
 20
-2687.498027938021
 42
0.4142135623731
  0
LWPOLYLINE
  5
482
330
1F
100
AcDbEntity
  8
0-B_寸法
  6
Continuous
 62
     7
370
     9
100
AcDbPolyline
 90
        4
 70
     1
 43
3.0
 10
4164.882017939011
 20
-2910.998027938021
 42
0.4142135623731
 10
4163.38201793901
 20
-2909.498027938021
 42
0.4142135623731
 10
4161.88201793901
 20
-2910.998027938021
 42
0.4142135623731
 10
4163.38201793901
 20
-2912.498027938021
 42
0.4142135623731
  0
LWPOLYLINE
  5
483
330
1F
100
AcDbEntity
  8
0-B_寸法
  6
Continuous
 62
     7
370
     9
100
AcDbPolyline
 90
        4
 70
     1
 43
3.0
 10
3924.273515841168
 20
-2798.498027938021
 42
0.4142135623731
 10
3922.773515841168
 20
-2796.998027938021
 42
0.4142135623731
 10
3921.273515841167
 20
-2798.498027938021
 42
0.4142135623731
 10
3922.773515841168
 20
-2799.998027938021
 42
0.4142135623731
  0
MTEXT
  5
484
330
1F
100
AcDbEntity
  8
0-B_寸法
  6
Continuous
 62
     7
370
   211
100
AcDbMText
 10
4407.882017939013
 20
-2403.571404988014
 30
0.0
 40
57.15
 41
150.0
 46
0.0
 71
     7
 72
     1
  1
{\fＭＳ ゴシック|b0|i0|c128|p49;15.5}
 73
     1
 44
1.0
  0
LINE
  5
485
330
1F
100
AcDbEntity
  8
0-B_寸法
  6
Continuous
 62
   120
370
     5
100
AcDbLine
 10
3922.773515841168
 20
-2798.498027938021
 30
0.0
 11
3940.715122488947
 21
-2798.498027938021
 31
0.0
  0
LWPOLYLINE
  5
486
330
1F
100
AcDbEntity
  8
0-B_寸法
  6
Continuous
 62
     7
370
     9
100
AcDbPolyline
 90
        4
 70
     1
 43
3.0
 10
4023.103444833814
 20
-2679.996954049199
 42
0.4142135623731
 10
4021.603444833813
 20
-2678.496954049199
 42
0.4142135623731
 10
4020.103444833813
 20
-2679.996954049199
 42
0.4142135623731
 10
4021.603444833813
 20
-2681.496954049199
 42
0.4142135623731
  0
LINE
  5
487
330
1F
100
AcDbEntity
  8
0-B_寸法
  6
Continuous
 62
   120
370
     5
100
AcDbLine
 10
4021.603444833813
 20
-2679.996954049199
 30
0.0
 11
4120.433373826459
 21
-2679.996954049199
 31
0.0
  0
LWPOLYLINE
  5
488
330
1F
100
AcDbEntity
  8
0-B_寸法
  6
Continuous
 62
     7
370
     9
100
AcDbPolyline
 90
        4
 70
     1
 43
3.0
 10
4023.103444833814
 20
-2916.996954049192
 42
0.4142135623731
 10
4021.603444833813
 20
-2915.496954049192
 42
0.4142135623731
 10
4020.103444833813
 20
-2916.996954049192
 42
0.4142135623731
 10
4021.603444833813
 20
-2918.496954049192
 42
0.4142135623731
  0
LINE
  5
489
330
1F
100
AcDbEntity
  8
0-B_寸法
  6
Continuous
 62
   120
370
     5
100
AcDbLine
 10
4021.603444833813
 20
-2916.996954049192
 30
0.0
 11
4120.433373826459
 21
-2916.996954049192
 31
0.0
  0
LINE
  5
48A
330
1F
100
AcDbEntity
  8
0-B_寸法
  6
Continuous
 62
   120
370
     5
100
AcDbLine
 10
4021.603444833813
 20
-2679.996954049199
 30
0.0
 11
4021.603444833813
 21
-2916.996954049192
 31
0.0
  0
LWPOLYLINE
  5
48B
330
1F
100
AcDbEntity
  8
0-B_寸法
  6
Continuous
 62
     7
370
     9
100
AcDbPolyline
 90
        4
 70
     1
 43
3.0
 10
4437.882017939011
 20
-2400.646404988014
 42
0.4142135623731
 10
4436.382017939011
 20
-2399.146404988014
 42
0.4142135623731
 10
4434.882017939011
 20
-2400.646404988014
 42
0.4142135623731
 10
4436.382017939011
 20
-2402.146404988014
 42
0.4142135623731
  0
LINE
  5
48C
330
1F
100
AcDbEntity
  8
0-B_寸法
  6
Continuous
 62
   120
370
     5
100
AcDbLine
 10
4436.382017939011
 20
-2400.646404988014
 30
0.0
 11
4436.382017939011
 21
-2468.146404988014
 31
0.0
  0
LWPOLYLINE
  5
48D
330
1F
100
AcDbEntity
  8
0-B_寸法
  6
Continuous
 62
     7
370
     9
100
AcDbPolyline
 90
        4
 70
     1
 43
3.0
 10
4023.103444833814
 20
-2522.498082374783
 42
0.4142135623731
 10
4021.603444833813
 20
-2520.998082374784
 42
0.4142135623731
 10
4020.103444833813
 20
-2522.498082374783
 42
0.4142135623731
 10
4021.603444833813
 20
-2523.998082374783
 42
0.4142135623731
  0
LINE
  5
48E
330
1F
100
AcDbEntity
  8
0-B_寸法
  6
Continuous
 62
   120
370
     5
100
AcDbLine
 10
3920.225727795414
 20
-2522.498082374783
 30
0.0
 11
4479.615442431869
 21
-2522.498082374783
 31
0.0
  0
LWPOLYLINE
  5
48F
330
1F
100
AcDbEntity
  8
0-B_寸法
  6
Continuous
 62
     7
370
     9
100
AcDbPolyline
 90
        4
 70
     1
 43
3.0
 10
3924.273515841168
 20
-2522.498082374783
 42
0.4142135623731
 10
3922.773515841168
 20
-2520.998082374784
 42
0.4142135623731
 10
3921.273515841167
 20
-2522.498082374783
 42
0.4142135623731
 10
3922.773515841168
 20
-2523.998082374783
 42
0.4142135623731
  0
LINE
  5
490
330
1F
100
AcDbEntity
  8
0-B_寸法
  6
Continuous
 62
   120
370
     5
100
AcDbLine
 10
3922.773515841168
 20
-2522.498082374783
 30
0.0
 11
3922.773515841168
 21
-2798.498027938021
 31
0.0
  0
LINE
  5
491
330
1F
100
AcDbEntity
  8
0-B_寸法
  6
Continuous
 62
   120
370
     5
100
AcDbLine
 10
3823.943586848524
 20
-2522.498082374783
 30
0.0
 11
3920.225727795414
 21
-2522.498082374783
 31
0.0
  0
LWPOLYLINE
  5
492
330
1F
100
AcDbEntity
  8
0-B_寸法
  6
Continuous
 62
     7
370
     9
100
AcDbPolyline
 90
        4
 70
     1
 43
3.0
 10
3825.443586848524
 20
-2522.498082374783
 42
0.4142135623731
 10
3823.943586848524
 20
-2520.998082374784
 42
0.4142135623731
 10
3822.443586848524
 20
-2522.498082374783
 42
0.4142135623731
 10
3823.943586848524
 20
-2523.998082374783
 42
0.4142135623731
  0
LINE
  5
493
330
1F
100
AcDbEntity
  8
0-B_寸法
  6
Continuous
 62
   120
370
     5
100
AcDbLine
 10
4021.603444833813
 20
-2522.498082374783
 30
0.0
 11
4021.603444833813
 21
-2679.996954049199
 31
0.0
  0
LWPOLYLINE
  5
494
330
1F
100
AcDbEntity
  8
0-B_寸法
  6
Continuous
 62
     7
370
     9
100
AcDbPolyline
 90
        4
 70
     1
 43
3.0
 10
4023.103444833814
 20
-3074.497231181791
 42
0.4142135623731
 10
4021.603444833813
 20
-3072.997231181791
 42
0.4142135623731
 10
4020.103444833813
 20
-3074.497231181791
 42
0.4142135623731
 10
4021.603444833813
 20
-3075.997231181791
 42
0.4142135623731
  0
LINE
  5
495
330
1F
100
AcDbEntity
  8
0-B_寸法
  6
Continuous
 62
   120
370
     5
100
AcDbLine
 10
3920.225727795414
 20
-3074.497231181791
 30
0.0
 11
4479.615442431869
 21
-3074.497231181791
 31
0.0
  0
LWPOLYLINE
  5
496
330
1F
100
AcDbEntity
  8
0-B_寸法
  6
Continuous
 62
     7
370
     9
100
AcDbPolyline
 90
        4
 70
     1
 43
3.0
 10
3924.273515841168
 20
-3074.497231181791
 42
0.4142135623731
 10
3922.773515841168
 20
-3072.997231181791
 42
0.4142135623731
 10
3921.273515841167
 20
-3074.497231181791
 42
0.4142135623731
 10
3922.773515841168
 20
-3075.997231181791
 42
0.4142135623731
  0
LINE
  5
497
330
1F
100
AcDbEntity
  8
0-B_寸法
  6
Continuous
 62
   120
370
     5
100
AcDbLine
 10
3922.773515841168
 20
-2798.498027938021
 30
0.0
 11
3922.773515841168
 21
-3074.497231181791
 31
0.0
  0
LINE
  5
498
330
1F
100
AcDbEntity
  8
0-B_寸法
  6
Continuous
 62
   120
370
     5
100
AcDbLine
 10
3823.943586848524
 20
-3074.497231181791
 30
0.0
 11
3920.225727795414
 21
-3074.497231181791
 31
0.0
  0
LWPOLYLINE
  5
499
330
1F
100
AcDbEntity
  8
0-B_寸法
  6
Continuous
 62
     7
370
     9
100
AcDbPolyline
 90
        4
 70
     1
 43
3.0
 10
3825.443586848524
 20
-3074.497231181791
 42
0.4142135623731
 10
3823.943586848524
 20
-3072.997231181791
 42
0.4142135623731
 10
3822.443586848524
 20
-3074.497231181791
 42
0.4142135623731
 10
3823.943586848524
 20
-3075.997231181791
 42
0.4142135623731
  0
LINE
  5
49A
330
1F
100
AcDbEntity
  8
0-B_寸法
  6
Continuous
 62
   120
370
     5
100
AcDbLine
 10
4021.603444833813
 20
-2916.996954049192
 30
0.0
 11
4021.603444833813
 21
-3074.497231181791
 31
0.0
  0
LINE
  5
49B
330
1F
100
AcDbEntity
  8
0-B_寸法
  6
Continuous
 62
   120
370
     5
100
AcDbLine
 10
3823.943586848524
 20
-2522.498082374783
 30
0.0
 11
3823.943586848524
 21
-3074.497231181791
 31
0.0
  0
MTEXT
  5
49C
330
1F
100
AcDbEntity
  8
0-B_寸法
  6
Continuous
 62
     7
370
     9
100
AcDbMText
 10
3532.871029141421
 20
-2412.81549050359
 30
0.0
 40
57.15
 41
225.0
 46
0.0
 71
     7
 72
     1
  1
{\fＭＳ ゴシック|b0|i0|c128|p49;平面図}
 73
     1
 44
1.0
  0
MTEXT
  5
49D
330
1F
100
AcDbEntity
  8
0-B_寸法
  6
Continuous
 62
     7
370
   211
100
AcDbMText
 10
2755.954510619957
 20
-2508.965782286337
 30
0.0
 40
68.57999999999998
 41
225.0
 46
0.0
 71
     7
 72
     1
  1
{\fＭＳ ゴシック|b0|i0|c128|p49;6.5㎜}
 73
     1
 44
1.0
  0
LWPOLYLINE
  5
49E
330
1F
100
AcDbEntity
  8
0-B_寸法
  6
Continuous
 62
     7
370
     9
100
AcDbPolyline
 90
        4
 70
     1
 43
3.0
 10
4530.882017939014
 20
-2400.646404988014
 42
0.4142135623731
 10
4529.382017939014
 20
-2399.146404988014
 42
0.4142135623731
 10
4527.882017939013
 20
-2400.646404988014
 42
0.4142135623731
 10
4529.382017939014
 20
-2402.146404988014
 42
0.4142135623731
  0
LINE
  5
49F
330
1F
100
AcDbEntity
  8
0-B_寸法
  6
Continuous
 62
   120
370
     5
100
AcDbLine
 10
4529.382017939014
 20
-2400.646404988014
 30
0.0
 11
4529.382017939014
 21
-2468.146404988014
 31
0.0
  0
MTEXT
  5
4A0
330
1F
100
AcDbEntity
  8
0-B_寸法
  6
Continuous
 62
     7
370
   211
100
AcDbMText
 10
4015.895287836675
 20
-2647.672518211991
 30
0.0
 40
57.15
 41
75.0
 46
0.0
 71
     7
 72
     1
  1
{\fＭＳ ゴシック|b0|i0|c128|p49;26}
 11
6.123031769111886E-17
 21
1.0
 31
0.0
 73
     1
 44
1.0
  0
LINE
  5
4A1
330
1F
100
AcDbEntity
  8
0-B_寸法
  6
Continuous
 62
   120
370
     5
100
AcDbLine
 10
4529.382017939014
 20
-2400.646404988014
 30
0.0
 11
4436.382017939011
 21
-2400.646404988014
 31
0.0
  0
MTEXT
  5
4A2
330
1F
100
AcDbEntity
  8
0-B_寸法
  6
Continuous
 62
     7
370
   211
100
AcDbMText
 10
3916.773515841168
 20
-2706.923055156402
 30
0.0
 40
57.15
 41
75.0
 46
0.0
 71
     7
 72
     1
  1
{\fＭＳ ゴシック|b0|i0|c128|p49;46}
 11
6.123031769111886E-17
 21
1.0
 31
0.0
 73
     1
 44
1.0
  0
MTEXT
  5
4A3
330
1F
100
AcDbEntity
  8
0-B_寸法
  6
Continuous
 62
     7
370
   211
100
AcDbMText
 10
3818.235429851386
 20
-2844.921954049196
 30
0.0
 40
57.15
 41
75.0
 46
0.0
 71
     7
 72
     1
  1
{\fＭＳ ゴシック|b0|i0|c128|p49;92}
 11
6.123031769111886E-17
 21
1.0
 31
0.0
 73
     1
 44
1.0
  0
MTEXT
  5
4A4
330
1F
100
AcDbEntity
  8
0-B_寸法
  6
Continuous
 62
     7
370
   211
100
AcDbMText
 10
4015.603444833814
 20
-2850.923027938021
 30
0.0
 40
57.15
 41
75.0
 46
0.0
 71
     7
 72
     1
  1
{\fＭＳ ゴシック|b0|i0|c128|p49;40}
 11
6.123031769111886E-17
 21
1.0
 31
0.0
 73
     1
 44
1.0
  0
LINE
  5
4A5
330
1F
100
AcDbEntity
  8
0-B_寸法
  6
JWW_CENTER1
 62
   120
370
     5
100
AcDbLine
 10
4080.614445482727
 20
-2798.498027938021
 30
0.0
 11
4723.51877043827
 21
-2798.498027938021
 31
0.0
  0
LINE
  5
4A6
330
1F
100
AcDbEntity
  8
0-B_寸法
  6
Continuous
 62
   200
370
    20
100
AcDbLine
 10
4080.614445482727
 20
-2717.498027938021
 30
0.0
 11
4514.382017939014
 21
-2717.498027938021
 31
0.0
  0
LINE
  5
4A7
330
1F
100
AcDbEntity
  8
0-B_寸法
  6
Continuous
 62
   200
370
    20
100
AcDbLine
 10
4080.614445482727
 20
-2879.49802793802
 30
0.0
 11
4514.382017939014
 21
-2879.49802793802
 31
0.0
  0
LINE
  5
4A8
330
1F
100
AcDbEntity
  8
0-B_寸法
  6
JWW_HOJO
 62
   120
370
     5
100
AcDbLine
 10
3433.706095116127
 20
-2916.32914768816
 30
0.0
 11
5103.724727401192
 21
-2916.32914768816
 31
0.0
  0
LWPOLYLINE
  5
4A9
330
1F
100
AcDbEntity
  8
0-B_寸法
  6
Continuous
 62
   120
370
     5
100
AcDbPolyline
 90
        4
 70
     1
 43
3.0
 10
2151.291733932055
 20
-1877.538039110238
 42
0.4142135623731
 10
2149.791733932055
 20
-1876.038039110238
 42
0.4142135623731
 10
2148.291733932055
 20
-1877.538039110238
 42
0.4142135623731
 10
2149.791733932055
 20
-1879.038039110238
 42
0.4142135623731
  0
LWPOLYLINE
  5
4AA
330
1F
100
AcDbEntity
  8
0-B_寸法
  6
Continuous
 62
   120
370
     5
100
AcDbPolyline
 90
        4
 70
     1
 43
3.0
 10
2082.93080339069
 20
-1818.527860306383
 42
0.4142135623731
 10
2081.430803390691
 20
-1817.027860306383
 42
0.4142135623731
 10
2079.930803390691
 20
-1818.527860306383
 42
0.4142135623731
 10
2081.430803390691
 20
-1820.027860306383
 42
0.4142135623731
  0
LINE
  5
4AB
330
1F
100
AcDbEntity
  8
0-B_寸法
  6
Continuous
 62
   120
370
     5
100
AcDbLine
 10
2081.430803390691
 20
-1818.527860306383
 30
0.0
 11
2149.791733932055
 21
-1877.538039110238
 31
0.0
  0
MTEXT
  5
4AC
330
1F
100
AcDbEntity
  8
0-B_寸法
  6
Continuous
 62
     7
370
   211
100
AcDbMText
 10
3916.773515841168
 20
-2982.922629559906
 30
0.0
 40
57.15
 41
75.0
 46
0.0
 71
     7
 72
     1
  1
{\fＭＳ ゴシック|b0|i0|c128|p49;46}
 11
6.123031769111886E-17
 21
1.0
 31
0.0
 73
     1
 44
1.0
  0
LWPOLYLINE
  5
4AD
330
1F
100
AcDbEntity
  8
0-B_寸法
  6
Continuous
 62
     7
370
     9
100
AcDbPolyline
 90
        4
 70
     1
 43
3.0
 10
-676.9303369360198
 20
-1242.321345170036
 42
0.4142135623731
 10
-678.4303369360198
 20
-1240.821345170036
 42
0.4142135623731
 10
-679.9303369360198
 20
-1242.321345170036
 42
0.4142135623731
 10
-678.4303369360198
 20
-1243.821345170036
 42
0.4142135623731
  0
LINE
  5
4AE
330
1F
100
AcDbEntity
  8
0-B_寸法
  6
Continuous
 62
   120
370
     5
100
AcDbLine
 10
-678.4303369360198
 20
-1242.321345170036
 30
0.0
 11
-678.4303369360198
 21
-1385.863394970037
 31
0.0
  0
LINE
  5
4AF
330
1F
100
AcDbEntity
  8
0-B_寸法
  6
Continuous
 62
    92
370
    13
100
AcDbLine
 10
-678.4303369360198
 20
-1435.863394970036
 30
0.0
 11
-678.4303369360198
 21
-2311.154600518863
 31
0.0
  0
MTEXT
  5
4B0
330
1F
100
AcDbEntity
  8
0-B_寸法
  6
Continuous
 62
     7
370
   211
100
AcDbMText
 10
4015.895287836675
 20
-3031.113843436616
 30
0.0
 40
57.15
 41
75.0
 46
0.0
 71
     7
 72
     1
  1
{\fＭＳ ゴシック|b0|i0|c128|p49;26}
 11
6.123031769111886E-17
 21
1.0
 31
0.0
 73
     1
 44
1.0
  0
LWPOLYLINE
  5
4B1
330
1F
100
AcDbEntity
  8
0-B_寸法
  6
Continuous
 62
     7
370
     9
100
AcDbPolyline
 90
        4
 70
     1
 43
3.0
 10
243.0700259757267
 20
-1242.321345170036
 42
0.4142135623731
 10
241.5700259757267
 20
-1240.821345170036
 42
0.4142135623731
 10
240.0700259757266
 20
-1242.321345170036
 42
0.4142135623731
 10
241.5700259757267
 20
-1243.821345170036
 42
0.4142135623731
  0
LINE
  5
4B2
330
1F
100
AcDbEntity
  8
0-B_寸法
  6
JWW_HOJO
 62
   120
370
     5
100
AcDbLine
 10
-713.4306833517787
 20
-1385.863394970037
 30
0.0
 11
241.5700259757267
 21
-1385.863394970037
 31
0.0
  0
LINE
  5
4B3
330
1F
100
AcDbEntity
  8
0-B_寸法
  6
JWW_HOJO
 62
   120
370
     5
100
AcDbLine
 10
-713.4306833517787
 20
-1435.863394970036
 30
0.0
 11
241.5700259757267
 21
-1435.863394970036
 31
0.0
  0
LINE
  5
4B4
330
1F
100
AcDbEntity
  8
0-B_寸法
  6
Continuous
 62
    92
370
    13
100
AcDbLine
 10
241.5700259757267
 20
-1435.863394970036
 30
0.0
 11
241.5700259757267
 21
-2311.154600518863
 31
0.0
  0
LINE
  5
4B5
330
1F
100
AcDbEntity
  8
0-B_寸法
  6
Continuous
 62
    92
370
    13
100
AcDbLine
 10
-678.4303369360198
 20
-2311.154600518863
 30
0.0
 11
241.5700259757267
 21
-2311.154600518863
 31
0.0
  0
LINE
  5
4B6
330
1F
100
AcDbEntity
  8
0-B_寸法
  6
Continuous
 62
   120
370
     5
100
AcDbLine
 10
-678.4303369360198
 20
-1242.321345170036
 30
0.0
 11
241.5700259757267
 21
-1242.321345170036
 31
0.0
  0
LINE
  5
4B7
330
1F
100
AcDbEntity
  8
0-B_寸法
  6
Continuous
 62
   120
370
     5
100
AcDbLine
 10
241.5700259757267
 20
-1242.321345170036
 30
0.0
 11
241.5700259757267
 21
-1385.863394970037
 31
0.0
  0
MTEXT
  5
4B8
330
1F
100
AcDbEntity
  8
0-B_寸法
  6
Continuous
 62
     7
370
     9
100
AcDbMText
 10
1649.592864669157
 20
-3310.358301734623
 30
0.0
 40
57.14999999999998
 41
1425.0
 46
0.0
 71
     7
 72
     1
  1
{\fＭＳ ゴシック|b0|i0|c128|p49;※現場にて左右どちらでも施工可能です。}
 73
     1
 44
1.0
  0
LINE
  5
4B9
330
1F
100
AcDbEntity
  8
0-B_寸法
  6
Continuous
 62
    92
370
    13
100
AcDbLine
 10
-1262.08046214076
 20
-486.9031458599175
 30
0.0
 11
723.5888995298195
 21
-486.9031458599175
 31
0.0
  0
LINE
  5
4BA
330
1F
100
AcDbEntity
  8
0-B_寸法
  6
Continuous
 62
    92
370
    13
100
AcDbLine
 10
-1262.08046214076
 20
-270.9031458599169
 30
0.0
 11
723.5888995298195
 21
-270.9031458599169
 31
0.0
  0
LINE
  5
4BB
330
1F
100
AcDbEntity
  8
0-B_寸法
  6
Continuous
 62
    92
370
    13
100
AcDbLine
 10
-1262.08046214076
 20
-270.9031458599169
 30
0.0
 11
-1262.08046214076
 21
-3370.000590688819
 31
0.0
  0
LINE
  5
4BC
330
1F
100
AcDbEntity
  8
0-B_寸法
  6
Continuous
 62
    92
370
    13
100
AcDbLine
 10
-1262.08046214076
 20
-3370.000590688819
 30
0.0
 11
5461.188899529829
 21
-3370.000590688819
 31
0.0
  0
LINE
  5
4BD
330
1F
100
AcDbEntity
  8
0-B_寸法
  6
JWW_DASHED1
 62
   120
370
     5
100
AcDbLine
 10
4679.382017939014
 20
-3066.568275995832
 30
0.0
 11
4713.453062753074
 21
-3032.497231181773
 31
0.0
  0
LINE
  5
4BE
330
1F
100
AcDbEntity
  8
0-B_寸法
  6
JWW_DASHED1
 62
   120
370
     5
100
AcDbLine
 10
4765.73228336667
 20
-3107.497231181777
 30
0.0
 11
4840.732283366666
 21
-3032.49723118178
 31
0.0
  0
LINE
  5
4BF
330
1F
100
AcDbEntity
  8
0-B_寸法
  6
JWW_DASHED1
 62
   120
370
     5
100
AcDbLine
 10
4723.30587649547
 20
-3107.497231181776
 30
0.0
 11
4798.305876495464
 21
-3032.49723118178
 31
0.0
  0
LINE
  5
4C0
330
1F
100
AcDbEntity
  8
0-B_寸法
  6
JWW_DASHED1
 62
   120
370
     5
100
AcDbLine
 10
4680.879469624258
 20
-3107.497231181787
 30
0.0
 11
4755.87946962427
 21
-3032.497231181777
 31
0.0
  0
LINE
  5
4C1
330
1F
100
AcDbEntity
  8
0-B_寸法
  6
Continuous
 62
    40
370
    15
100
AcDbLine
 10
4679.382017939014
 20
-3032.497231181791
 30
0.0
 11
4868.654659165813
 21
-3032.497231181791
 31
0.0
  0
LINE
  5
4C2
330
1F
100
AcDbEntity
  8
0-B_寸法
  6
Continuous
 62
    40
370
    15
100
AcDbLine
 10
4679.382017939014
 20
-3107.497231181791
 30
0.0
 11
4868.654659165813
 21
-3107.497231181791
 31
0.0
  0
LINE
  5
4C3
330
1F
100
AcDbEntity
  8
0-B_寸法
  6
JWW_DASHED1
 62
   120
370
     5
100
AcDbLine
 10
4850.585097109064
 20
-3107.497231181784
 30
0.0
 11
4868.654659165813
 21
-3089.427669125034
 31
0.0
  0
LINE
  5
4C4
330
1F
100
AcDbEntity
  8
0-B_寸法
  6
JWW_DASHED1
 62
   120
370
     5
100
AcDbLine
 10
4808.158690237866
 20
-3107.49723118178
 30
0.0
 11
4868.654659165813
 21
-3047.001262253834
 31
0.0
  0
LINE
  5
4C5
330
1F
100
AcDbEntity
  8
0-B_寸法
  6
Continuous
 62
    40
370
    15
100
AcDbLine
 10
4679.382017939014
 20
-3032.497231181791
 30
0.0
 11
4679.382017939014
 21
-3107.497231181791
 31
0.0
  0
LINE
  5
4C6
330
1F
100
AcDbEntity
  8
0-A_文字
  6
Continuous
 62
    92
370
    13
100
AcDbLine
 10
-5659.999495325868
 20
3730.000181456216
 30
0.0
 11
-5659.999495325868
 21
4000.000181456216
 31
0.0
  0
LINE
  5
4C7
330
1F
100
AcDbEntity
  8
0-A_文字
  6
Continuous
 62
    92
370
    13
100
AcDbLine
 10
-5659.999495325868
 20
3730.000181456216
 30
0.0
 11
-2221.428571428574
 21
3730.000181456216
 31
0.0
  0
LINE
  5
4C8
330
1F
100
AcDbEntity
  8
0-A_文字
  6
Continuous
 62
    92
370
    13
100
AcDbLine
 10
-5659.999495325868
 20
4000.000181456216
 30
0.0
 11
-2221.428571428574
 21
4000.000181456216
 31
0.0
  0
LINE
  5
4C9
330
1F
100
AcDbEntity
  8
0-A_文字
  6
Continuous
 62
    92
370
    13
100
AcDbLine
 10
-2221.428571428574
 20
3730.000181456216
 30
0.0
 11
-2221.428571428574
 21
4000.000181456216
 31
0.0
  0
MTEXT
  5
4CA
330
1F
100
AcDbEntity
  8
0-A_文字
  6
Continuous
 62
    92
370
    13
100
AcDbMText
 10
-5592.499495325868
 20
3758.959004985627
 30
0.0
 40
147.9176470588235
 41
3300.0
 46
0.0
 71
     7
 72
     1
  1
{\fＭＳ ゴシック|b0|i0|c128|p49;クローゼットドア　調整枠　間口６尺}
 73
     1
 44
1.0
  0
MTEXT
  5
4CB
330
1F
100
AcDbEntity
  8
F-A_文字
  6
Continuous
 62
     7
370
     0
100
AcDbMText
 10
4439.917891251784
 20
-3887.143854850754
 30
0.0
 40
45.72
 41
240.0
 46
0.0
 71
     7
 72
     1
  1
{\fＭＳ ゴシック|b0|i0|c128|p49;ＤＡＴＥ}
 73
     1
 44
1.0
  0
MTEXT
  5
4CC
330
1F
100
AcDbEntity
  8
F-A_文字
  6
Continuous
 62
     7
370
     0
100
AcDbMText
 10
4439.917891251784
 20
-4087.143857410839
 30
0.0
 40
45.72
 41
180.0
 46
0.0
 71
     7
 72
     1
  1
{\fＭＳ ゴシック|b0|i0|c128|p49;ＮＯ．}
 73
     1
 44
1.0
  0
MTEXT
  5
4CD
330
1F
100
AcDbEntity
  8
F-A_文字
  6
Continuous
 62
     7
370
     0
100
AcDbMText
 10
2939.917396372138
 20
-3887.142460617774
 30
0.0
 40
45.72
 41
300.0
 46
0.0
 71
     7
 72
     1
  1
{\fＭＳ ゴシック|b0|i0|c128|p49;ＳＣＡＬＥ}
 73
     1
 44
1.0
  0
MTEXT
  5
4CE
330
1F
100
AcDbEntity
  8
F-A_文字
  6
Continuous
 62
     7
370
     0
100
AcDbMText
 10
2939.917396372138
 20
-4087.14246317786
 30
0.0
 40
45.72
 41
240.0
 46
0.0
 71
     7
 72
     1
  1
{\fＭＳ ゴシック|b0|i0|c128|p49;ＦＩＬＥ}
 73
     1
 44
1.0
  0
MTEXT
  5
4CF
330
1F
100
AcDbEntity
  8
F-A_文字
  6
Continuous
 62
     7
370
     0
100
AcDbMText
 10
1604.917396372138
 20
-4164.281754523929
 30
0.0
 40
101.44125
 41
1065.0
 46
0.0
 71
     7
 72
     1
  1
{\fＭＳ ゴシック|b0|i0|c128|p49;ウッドワン・・・}
 73
     1
 44
1.0
  0
MTEXT
  5
4D0
330
1F
100
AcDbEntity
  8
F-A_文字
  6
Continuous
 62
     7
370
     0
100
AcDbMText
 10
1394.917396372138
 20
-4096.140669266149
 30
0.0
 40
45.72
 41
120.0
 46
0.0
 71
     7
 72
     1
  1
{\fＭＳ ゴシック|b0|i0|c128|p49;株式}
 73
     1
 44
1.0
  0
MTEXT
  5
4D1
330
1F
100
AcDbEntity
  8
F-A_文字
  6
Continuous
 62
     7
370
     0
100
AcDbMText
 10
1394.917396372138
 20
-4168.140669266187
 30
0.0
 40
45.72
 41
120.0
 46
0.0
 71
     7
 72
     1
  1
{\fＭＳ ゴシック|b0|i0|c128|p49;会社}
 73
     1
 44
1.0
  0
MTEXT
  5
4D2
330
1F
100
AcDbEntity
  8
F-A_文字
  6
Continuous
 62
     7
370
     0
100
AcDbMText
 10
99.91854284331623
 20
-3887.139820871936
 30
0.0
 40
45.72
 41
180.0
 46
0.0
 71
     7
 72
     1
  1
{\fＭＳ ゴシック|b0|i0|c128|p49;図面名}
 73
     1
 44
1.0
  0
LINE
  5
4D3
330
1F
100
AcDbEntity
  8
F-0_補助線
  6
JWW_HOJO
 62
     7
370
     9
100
AcDbLine
 10
509.9185840832865
 20
-3795.000003092998
 30
0.0
 11
509.9185840832865
 21
-4195.000008247994
 31
0.0
  0
LINE
  5
4D4
330
1F
100
AcDbEntity
  8
F-1_枠
  6
Continuous
 62
   200
370
    20
100
AcDbLine
 10
4349.917891251784
 20
-3795.000003092998
 30
0.0
 11
4349.917891251784
 21
-4195.000008247994
 31
0.0
  0
LINE
  5
4D5
330
1F
100
AcDbEntity
  8
F-1_枠
  6
Continuous
 62
   200
370
    20
100
AcDbLine
 10
2849.917396372138
 20
-3795.000003092998
 30
0.0
 11
2849.917396372138
 21
-4195.000008247994
 31
0.0
  0
LINE
  5
4D6
330
1F
100
AcDbEntity
  8
F-1_枠
  6
Continuous
 62
   200
370
    20
100
AcDbLine
 10
9.918542843316231
 20
-3795.000003092998
 30
0.0
 11
9.918542843316231
 21
-4195.000008247994
 31
0.0
  0
LINE
  5
4D7
330
1F
100
AcDbEntity
  8
F-0_補助線
  6
JWW_HOJO
 62
     7
370
     9
100
AcDbLine
 10
2939.917396372138
 20
-3795.000003092998
 30
0.0
 11
2939.917396372138
 21
-4195.000008247994
 31
0.0
  0
LINE
  5
4D8
330
1F
100
AcDbEntity
  8
F-0_補助線
  6
JWW_HOJO
 62
     7
370
     9
100
AcDbLine
 10
99.91854284331623
 20
-3795.000003092998
 30
0.0
 11
99.91854284331623
 21
-4195.000008247994
 31
0.0
  0
LINE
  5
4D9
330
1F
100
AcDbEntity
  8
F-0_補助線
  6
JWW_HOJO
 62
     7
370
     9
100
AcDbLine
 10
4439.917891251784
 20
-3795.000003092998
 30
0.0
 11
4439.917891251784
 21
-4195.000008247994
 31
0.0
  0
LINE
  5
4DA
330
1F
100
AcDbEntity
  8
F-0_補助線
  6
JWW_HOJO
 62
     7
370
     9
100
AcDbLine
 10
-5087.628710189611
 20
-3795.000003092999
 30
0.0
 11
-5087.628710189611
 21
-4205.000164959882
 31
0.0
  0
LINE
  5
4DB
330
1F
100
AcDbEntity
  8
F-0_補助線
  6
JWW_HOJO
 62
     7
370
     9
100
AcDbLine
 10
-50.08145715668377
 20
-3795.000003092998
 30
0.0
 11
-50.08145715668377
 21
-4195.000008247994
 31
0.0
  0
LINE
  5
4DC
330
1F
100
AcDbEntity
  8
F-0_補助線
  6
JWW_HOJO
 62
     7
370
     9
100
AcDbLine
 10
3764.917643811962
 20
-3795.000003092998
 30
0.0
 11
3764.917643811962
 21
-4195.000008247994
 31
0.0
  0
MTEXT
  5
4DD
330
1F
100
AcDbEntity
  8
F-A_文字
  6
Continuous
 62
     7
370
     0
100
AcDbMText
 10
3689.917643811962
 20
-3946.903115907308
 30
0.0
 40
76.19999999999999
 41
150.0
 46
0.0
 71
     7
 72
     1
  1
{\fＭＳ ゴシック|b0|i0|c128|p49;1/5}
 73
     1
 44
1.0
  0
LINE
  5
4DE
330
1F
100
AcDbEntity
  8
F-0_補助線
  6
JWW_HOJO
 62
     7
370
     9
100
AcDbLine
 10
1349.918584083287
 20
-3795.000003092998
 30
0.0
 11
1349.918584083287
 21
-4195.000008247994
 31
0.0
  0
LINE
  5
4DF
330
1F
100
AcDbEntity
  8
F-0_補助線
  6
JWW_HOJO
 62
     7
370
     9
100
AcDbLine
 10
4889.917891251784
 20
-3795.000003092998
 30
0.0
 11
4889.917891251784
 21
-4195.000008247994
 31
0.0
  0
MTEXT
  5
4E0
330
1F
100
AcDbEntity
  8
F-A_文字
  6
Continuous
 62
     7
370
     0
100
AcDbMText
 10
4889.917891251784
 20
-3945.570773120548
 30
0.0
 40
78.86699999999999
 41
517.5
 46
0.0
 71
     7
 72
     1
  1
{\fＭＳ ゴシック|b0|i0|c128|p49;2021.04.01}
 73
     1
 44
1.0
  0
MTEXT
  5
4E1
330
1F
100
AcDbEntity
  8
F-A_文字
  6
Continuous
 62
     7
370
     0
100
AcDbMText
 10
1349.918584083287
 20
-3945.948482732445
 30
0.0
 40
78.105
 41
615.0
 46
0.0
 71
     7
 72
     1
  1
{\fＭＳ ゴシック|b0|i0|c128|p49;建具納まり図}
 73
     1
 44
1.0
  0
MTEXT
  5
4E2
330
1F
100
AcDbEntity
  8
F-A_文字
  6
Continuous
 62
     7
370
     0
100
AcDbMText
 10
509.9185840832865
 20
-3956.425201962234
 30
0.0
 40
57.15
 41
675.0
 46
0.0
 71
     7
 72
     1
  1
{\fＭＳ ゴシック|b0|i0|c128|p49;ＰＩＮＯＥＡＲＴＨ}
 73
     1
 44
1.0
  0
MTEXT
  5
4E3
330
1F
100
AcDbEntity
  8
F-A_文字
  6
Continuous
 62
     7
370
     0
100
AcDbMText
 10
-5080.081323642279
 20
-4045.066373578391
 30
0.0
 40
79.86712499999994
 41
4192.5
 46
0.0
 71
     7
 72
     1
  1
{\fＭＳ ゴシック|b0|i0|c128|p49;ピノアース　クローゼットドア  調整枠　３方枠下レール無し　枠外H2,339　枠外W1,645}
 73
     1
 44
1.0
  0
MTEXT
  5
4E4
330
1F
100
AcDbEntity
  8
F-A_文字
  6
Continuous
 62
     7
370
     9
100
AcDbMText
 10
5096.167700144057
 20
-4147.857012699985
 30
0.0
 40
74.295
 41
97.5
 46
0.0
 71
     7
 72
     1
  1
{\fＭＳ ゴシック|b0|i0|c128|p49;03}
 73
     1
 44
1.0
  0
ENDSEC
  0
SECTION
  2
OBJECTS
  0
DICTIONARY
  5
C
330
0
100
AcDbDictionary
281
     1
  3
ACAD_GROUP
350
D
  3
ACAD_LAYOUT
350
1A
  3
ACAD_MATERIAL
350
3B
  3
ACAD_MLEADERSTYLE
350
4E6
  3
ACAD_MLINESTYLE
350
17
  3
ACAD_PLOTSETTINGS
350
19
  3
ACAD_PLOTSTYLENAME
350
E
  3
ACAD_TABLESTYLE
350
4E5
  3
ACAD_VISUALSTYLE
350
2A
  0
DICTIONARY
  5
D
102
{ACAD_REACTORS
330
C
102
}
330
C
100
AcDbDictionary
281
     1
  0
DICTIONARY
  5
1A
102
{ACAD_REACTORS
330
C
102
}
330
C
100
AcDbDictionary
281
     1
  3
Layout1
350
1E
  3
Layout2
350
26
  3
Model
350
22
  0
DICTIONARY
  5
3B
102
{ACAD_REACTORS
330
C
102
}
330
C
100
AcDbDictionary
281
     1
  3
ByBlock
350
3D
  3
ByLayer
350
3C
  3
Global
350
3E
  0
DICTIONARY
  5
4E6
102
{ACAD_REACTORS
330
C
102
}
330
C
100
AcDbDictionary
281
     1
  0
DICTIONARY
  5
17
102
{ACAD_REACTORS
330
C
102
}
330
C
100
AcDbDictionary
281
     1
  3
Standard
350
18
  0
DICTIONARY
  5
19
102
{ACAD_REACTORS
330
C
102
}
330
C
100
AcDbDictionary
281
     1
  0
ACDBDICTIONARYWDFLT
  5
E
102
{ACAD_REACTORS
330
C
102
}
330
C
100
AcDbDictionary
281
     1
  3
Normal
350
F
100
AcDbDictionaryWithDefault
340
F
  0
DICTIONARY
  5
4E5
102
{ACAD_REACTORS
330
C
102
}
330
C
100
AcDbDictionary
281
     1
  0
DICTIONARY
  5
2A
102
{ACAD_REACTORS
330
C
102
}
330
C
100
AcDbDictionary
281
     1
  3
2dWireframe
350
2F
  3
3D Hidden
350
31
  3
3dWireframe
350
30
  3
Basic
350
32
  3
Brighten
350
36
  3
ColorChange
350
3A
  3
Conceptual
350
34
  3
Dim
350
35
  3
Facepattern
350
39
  3
Flat
350
2B
  3
FlatWithEdges
350
2C
  3
Gouraud
350
2D
  3
GouraudWithEdges
350
2E
  3
Linepattern
350
38
  3
Realistic
350
33
  3
Thicken
350
37
  0
LAYOUT
  5
1E
102
{ACAD_REACTORS
330
1A
102
}
330
1A
100
AcDbPlotSettings
  1

  2
none_device
  4

  6

 40
0.0
 41
0.0
 42
0.0
 43
0.0
 44
0.0
 45
0.0
 46
0.0
 47
0.0
 48
0.0
 49
0.0
140
0.0
141
0.0
142
1.0
143
1.0
 70
   688
 72
     0
 73
     0
 74
     5
  7

 75
    16
 76
     0
 77
     5
 78
   300
147
1.0
148
0.0
149
0.0
100
AcDbLayout
  1
Layout1
 70
     1
 71
     1
 10
0.0
 20
0.0
 11
420.0
 21
297.0
 12
0.0
 22
0.0
 32
0.0
 14
1.000000000000000E+20
 24
1.000000000000000E+20
 34
1.000000000000000E+20
 15
-1.000000000000000E+20
 25
-1.000000000000000E+20
 35
-1.000000000000000E+20
146
0.0
 13
0.0
 23
0.0
 33
0.0
 16
1.0
 26
0.0
 36
0.0
 17
0.0
 27
1.0
 37
0.0
 76
     0
330
1B
  0
LAYOUT
  5
26
102
{ACAD_REACTORS
330
1A
102
}
330
1A
100
AcDbPlotSettings
  1

  2
none_device
  4

  6

 40
0.0
 41
0.0
 42
0.0
 43
0.0
 44
0.0
 45
0.0
 46
0.0
 47
0.0
 48
0.0
 49
0.0
140
0.0
141
0.0
142
1.0
143
1.0
 70
   688
 72
     0
 73
     0
 74
     5
  7

 75
    16
 76
     0
 77
     5
 78
   300
147
1.0
148
0.0
149
0.0
100
AcDbLayout
  1
Layout2
 70
     1
 71
     2
 10
0.0
 20
0.0
 11
0.0
 21
0.0
 12
0.0
 22
0.0
 32
0.0
 14
0.0
 24
0.0
 34
0.0
 15
0.0
 25
0.0
 35
0.0
146
0.0
 13
0.0
 23
0.0
 33
0.0
 16
1.0
 26
0.0
 36
0.0
 17
0.0
 27
1.0
 37
0.0
 76
     0
330
23
  0
LAYOUT
  5
22
102
{ACAD_REACTORS
330
1A
102
}
330
1A
100
AcDbPlotSettings
  1

  2
none_device
  4

  6

 40
0.0
 41
0.0
 42
0.0
 43
0.0
 44
0.0
 45
0.0
 46
0.0
 47
0.0
 48
0.0
 49
0.0
140
0.0
141
0.0
142
1.0
143
1.0
 70
  1712
 72
     0
 73
     0
 74
     0
  7

 75
     0
 76
     0
 77
     5
 78
   300
147
1.0
148
0.0
149
0.0
100
AcDbLayout
  1
Model
 70
     1
 71
     0
 10
-6300.0
 20
-4455.0
 11
6300.0
 21
4455.0
 12
0.0
 22
0.0
 32
0.0
 14
-6300.0
 24
-4455.0
 34
0.0
 15
6300.0
 25
4455.0
 35
0.0
146
0.0
 13
0.0
 23
0.0
 33
0.0
 16
1.0
 26
0.0
 36
0.0
 17
0.0
 27
1.0
 37
0.0
 76
     0
330
1F
331
29
  0
MATERIAL
  5
3D
102
{ACAD_REACTORS
330
3B
102
}
330
3B
100
AcDbMaterial
  1
ByBlock
 72
     1
 94
      127
  0
MATERIAL
  5
3C
102
{ACAD_REACTORS
330
3B
102
}
330
3B
100
AcDbMaterial
  1
ByLayer
 72
     1
 94
      127
  0
MATERIAL
  5
3E
102
{ACAD_REACTORS
330
3B
102
}
330
3B
100
AcDbMaterial
  1
Global
 72
     1
 94
      127
  0
MLINESTYLE
  5
18
102
{ACAD_REACTORS
330
17
102
}
330
17
100
AcDbMlineStyle
  2
Standard
 70
     0
  3

 62
   256
 51
90.0
 52
90.0
 71
     2
 49
0.5
 62
   256
  6
BYLAYER
 49
-0.5
 62
   256
  6
BYLAYER
  0
ACDBPLACEHOLDER
  5
F
102
{ACAD_REACTORS
330
E
102
}
330
E
  0
VISUALSTYLE
  5
2F
102
{ACAD_REACTORS
330
2A
102
}
330
2A
100
AcDbVisualStyle
  2
2dWireframe
 70
     4
177
     2
291
     0
 71
     0
176
     1
 72
     2
176
     1
 73
     0
176
     1
 90
        0
176
     1
 40
-0.6
176
     1
 41
-30.0
176
     1
 62
     5
 63
     7
421
 16777215
176
     1
 74
     1
176
     1
 91
        4
176
     1
 64
     7
176
     1
 65
   257
176
     1
 75
     1
176
     1
175
     1
176
     1
 42
1.0
176
     1
 92
        0
176
     1
 66
   257
176
     1
 43
1.0
176
     1
 76
     1
176
     1
 77
     6
176
     1
 78
     2
176
     1
 67
     7
176
     1
 79
     5
176
     1
170
     0
176
     1
171
     0
176
     1
290
     0
176
     1
 93
        1
176
     1
 44
0.0
176
     1
173
     0
176
     1
  0
VISUALSTYLE
  5
31
102
{ACAD_REACTORS
330
2A
102
}
330
2A
100
AcDbVisualStyle
  2
3D Hidden
 70
     6
177
     2
291
     0
 71
     1
176
     1
 72
     2
176
     1
 73
     2
176
     1
 90
        0
176
     1
 40
-0.6
176
     1
 41
-30.0
176
     1
 62
     5
 63
     7
421
 16777215
176
     1
 74
     2
176
     1
 91
        2
176
     1
 64
     7
176
     1
 65
   257
176
     1
 75
     2
176
     1
175
     1
176
     1
 42
40.0
176
     1
 92
        0
176
     1
 66
   257
176
     1
 43
1.0
176
     1
 76
     1
176
     1
 77
     6
176
     1
 78
     2
176
     1
 67
     7
176
     1
 79
     3
176
     1
170
     0
176
     1
171
     0
176
     1
290
     0
176
     1
 93
        1
176
     1
 44
0.0
176
     1
173
     0
176
     1
  0
VISUALSTYLE
  5
30
102
{ACAD_REACTORS
330
2A
102
}
330
2A
100
AcDbVisualStyle
  2
3dWireframe
 70
     5
177
     2
291
     0
 71
     0
176
     1
 72
     2
176
     1
 73
     0
176
     1
 90
        0
176
     1
 40
-0.6
176
     1
 41
-30.0
176
     1
 62
     5
 63
     7
421
 16777215
176
     1
 74
     1
176
     1
 91
        4
176
     1
 64
     7
176
     1
 65
   257
176
     1
 75
     1
176
     1
175
     1
176
     1
 42
1.0
176
     1
 92
        0
176
     1
 66
   257
176
     1
 43
1.0
176
     1
 76
     1
176
     1
 77
     6
176
     1
 78
     2
176
     1
 67
     7
176
     1
 79
     5
176
     1
170
     0
176
     1
171
     0
176
     1
290
     0
176
     1
 93
        1
176
     1
 44
0.0
176
     1
173
     0
176
     1
  0
VISUALSTYLE
  5
32
102
{ACAD_REACTORS
330
2A
102
}
330
2A
100
AcDbVisualStyle
  2
Basic
 70
     7
177
     2
291
     1
 71
     1
176
     1
 72
     0
176
     1
 73
     1
176
     1
 90
        0
176
     1
 40
-0.6
176
     1
 41
-30.0
176
     1
 62
     5
 63
     7
421
 16777215
176
     1
 74
     0
176
     1
 91
        4
176
     1
 64
     7
176
     1
 65
   257
176
     1
 75
     1
176
     1
175
     1
176
     1
 42
1.0
176
     1
 92
        8
176
     1
 66
     7
176
     1
 43
1.0
176
     1
 76
     1
176
     1
 77
     6
176
     1
 78
     2
176
     1
 67
     7
176
     1
 79
     5
176
     1
170
     0
176
     1
171
     0
176
     1
290
     0
176
     1
 93
        1
176
     1
 44
0.0
176
     1
173
     0
176
     1
  0
VISUALSTYLE
  5
36
102
{ACAD_REACTORS
330
2A
102
}
330
2A
100
AcDbVisualStyle
  2
Brighten
 70
    12
177
     2
291
     1
 71
     2
176
     1
 72
     2
176
     1
 73
     0
176
     1
 90
        0
176
     1
 40
-0.6
176
     1
 41
-30.0
176
     1
 62
     5
 63
     7
421
 16777215
176
     1
 74
     1
176
     1
 91
        4
176
     1
 64
     7
176
     1
 65
   257
176
     1
 75
     1
176
     1
175
     1
176
     1
 42
1.0
176
     1
 92
        8
176
     1
 66
     7
176
     1
 43
1.0
176
     1
 76
     1
176
     1
 77
     6
176
     1
 78
     2
176
     1
 67
     7
176
     1
 79
     5
176
     1
170
     0
176
     1
171
     0
176
     1
290
     0
176
     1
 93
        1
176
     1
 44
50.0
176
     1
173
     0
176
     1
  0
VISUALSTYLE
  5
3A
102
{ACAD_REACTORS
330
2A
102
}
330
2A
100
AcDbVisualStyle
  2
ColorChange
 70
    16
177
     2
291
     1
 71
     2
176
     1
 72
     2
176
     1
 73
     3
176
     1
 90
        0
176
     1
 40
-0.6
176
     1
 41
-30.0
176
     1
 62
     5
 63
     8
421
  8421504
176
     1
 74
     1
176
     1
 91
        4
176
     1
 64
     7
176
     1
 65
   257
176
     1
 75
     1
176
     1
175
     1
176
     1
 42
1.0
176
     1
 92
        8
176
     1
 66
     8
424
  8421504
176
     1
 43
1.0
176
     1
 76
     1
176
     1
 77
     6
176
     1
 78
     2
176
     1
 67
     7
176
     1
 79
     5
176
     1
170
     0
176
     1
171
     0
176
     1
290
     0
176
     1
 93
        1
176
     1
 44
0.0
176
     1
173
     0
176
     1
  0
VISUALSTYLE
  5
34
102
{ACAD_REACTORS
330
2A
102
}
330
2A
100
AcDbVisualStyle
  2
Conceptual
 70
     9
177
     2
291
     0
 71
     3
176
     1
 72
     2
176
     1
 73
     0
176
     1
 90
        0
176
     1
 40
-0.6
176
     1
 41
-30.0
176
     1
 62
     5
 63
     7
421
 16777215
176
     1
 74
     2
176
     1
 91
        2
176
     1
 64
     7
176
     1
 65
   257
176
     1
 75
     1
176
     1
175
     1
176
     1
 42
40.0
176
     1
 92
        8
176
     1
 66
     7
176
     1
 43
1.0
176
     1
 76
     1
176
     1
 77
     6
176
     1
 78
     2
176
     1
 67
     7
176
     1
 79
     3
176
     1
170
     0
176
     1
171
     0
176
     1
290
     0
176
     1
 93
        1
176
     1
 44
0.0
176
     1
173
     0
176
     1
  0
VISUALSTYLE
  5
35
102
{ACAD_REACTORS
330
2A
102
}
330
2A
100
AcDbVisualStyle
  2
Dim
 70
    11
177
     2
291
     1
 71
     2
176
     1
 72
     2
176
     1
 73
     0
176
     1
 90
        0
176
     1
 40
-0.6
176
     1
 41
-30.0
176
     1
 62
     5
 63
     7
421
 16777215
176
     1
 74
     1
176
     1
 91
        4
176
     1
 64
     7
176
     1
 65
   257
176
     1
 75
     1
176
     1
175
     1
176
     1
 42
1.0
176
     1
 92
        8
176
     1
 66
     7
176
     1
 43
1.0
176
     1
 76
     1
176
     1
 77
     6
176
     1
 78
     2
176
     1
 67
     7
176
     1
 79
     5
176
     1
170
     0
176
     1
171
     0
176
     1
290
     0
176
     1
 93
        1
176
     1
 44
-50.0
176
     1
173
     0
176
     1
  0
VISUALSTYLE
  5
39
102
{ACAD_REACTORS
330
2A
102
}
330
2A
100
AcDbVisualStyle
  2
Facepattern
 70
    15
177
     2
291
     1
 71
     2
176
     1
 72
     2
176
     1
 73
     0
176
     1
 90
        0
176
     1
 40
-0.6
176
     1
 41
-30.0
176
     1
 62
     5
 63
     7
421
 16777215
176
     1
 74
     1
176
     1
 91
        4
176
     1
 64
     7
176
     1
 65
   257
176
     1
 75
     1
176
     1
175
     1
176
     1
 42
1.0
176
     1
 92
        8
176
     1
 66
     7
176
     1
 43
1.0
176
     1
 76
     1
176
     1
 77
     6
176
     1
 78
     2
176
     1
 67
     7
176
     1
 79
     5
176
     1
170
     0
176
     1
171
     0
176
     1
290
     0
176
     1
 93
        1
176
     1
 44
0.0
176
     1
173
     0
176
     1
  0
VISUALSTYLE
  5
2B
102
{ACAD_REACTORS
330
2A
102
}
330
2A
100
AcDbVisualStyle
  2
Flat
 70
     0
177
     2
291
     1
 71
     2
176
     1
 72
     1
176
     1
 73
     1
176
     1
 90
        2
176
     1
 40
-0.6
176
     1
 41
30.0
176
     1
 62
     5
 63
     7
421
 16777215
176
     1
 74
     0
176
     1
 91
        4
176
     1
 64
     7
176
     1
 65
   257
176
     1
 75
     1
176
     1
175
     1
176
     1
 42
1.0
176
     1
 92
        8
176
     1
 66
     7
176
     1
 43
1.0
176
     1
 76
     1
176
     1
 77
     6
176
     1
 78
     2
176
     1
 67
     7
176
     1
 79
     5
176
     1
170
     0
176
     1
171
     0
176
     1
290
     0
176
     1
 93
       13
176
     1
 44
0.0
176
     1
173
     0
176
     1
  0
VISUALSTYLE
  5
2C
102
{ACAD_REACTORS
330
2A
102
}
330
2A
100
AcDbVisualStyle
  2
FlatWithEdges
 70
     1
177
     2
291
     1
 71
     2
176
     1
 72
     1
176
     1
 73
     1
176
     1
 90
        2
176
     1
 40
-0.6
176
     1
 41
30.0
176
     1
 62
     5
 63
     7
421
 16777215
176
     1
 74
     1
176
     1
 91
        4
176
     1
 64
     7
176
     1
 65
   257
176
     1
 75
     1
176
     1
175
     1
176
     1
 42
1.0
176
     1
 92
        0
176
     1
 66
   257
176
     1
 43
1.0
176
     1
 76
     1
176
     1
 77
     6
176
     1
 78
     2
176
     1
 67
     7
176
     1
 79
     5
176
     1
170
     0
176
     1
171
     0
176
     1
290
     0
176
     1
 93
       13
176
     1
 44
0.0
176
     1
173
     0
176
     1
  0
VISUALSTYLE
  5
2D
102
{ACAD_REACTORS
330
2A
102
}
330
2A
100
AcDbVisualStyle
  2
Gouraud
 70
     2
177
     2
291
     1
 71
     2
176
     1
 72
     2
176
     1
 73
     1
176
     1
 90
        2
176
     1
 40
-0.6
176
     1
 41
30.0
176
     1
 62
     5
 63
     7
421
 16777215
176
     1
 74
     0
176
     1
 91
        4
176
     1
 64
     7
176
     1
 65
   257
176
     1
 75
     1
176
     1
175
     1
176
     1
 42
1.0
176
     1
 92
        0
176
     1
 66
     7
176
     1
 43
1.0
176
     1
 76
     1
176
     1
 77
     6
176
     1
 78
     2
176
     1
 67
     7
176
     1
 79
     5
176
     1
170
     0
176
     1
171
     0
176
     1
290
     0
176
     1
 93
       13
176
     1
 44
0.0
176
     1
173
     0
176
     1
  0
VISUALSTYLE
  5
2E
102
{ACAD_REACTORS
330
2A
102
}
330
2A
100
AcDbVisualStyle
  2
GouraudWithEdges
 70
     3
177
     2
291
     1
 71
     2
176
     1
 72
     2
176
     1
 73
     1
176
     1
 90
        2
176
     1
 40
-0.6
176
     1
 41
30.0
176
     1
 62
     5
 63
     7
421
 16777215
176
     1
 74
     1
176
     1
 91
        4
176
     1
 64
     7
176
     1
 65
   257
176
     1
 75
     1
176
     1
175
     1
176
     1
 42
1.0
176
     1
 92
        0
176
     1
 66
   257
176
     1
 43
1.0
176
     1
 76
     1
176
     1
 77
     6
176
     1
 78
     2
176
     1
 67
     7
176
     1
 79
     5
176
     1
170
     0
176
     1
171
     0
176
     1
290
     0
176
     1
 93
       13
176
     1
 44
0.0
176
     1
173
     0
176
     1
  0
VISUALSTYLE
  5
38
102
{ACAD_REACTORS
330
2A
102
}
330
2A
100
AcDbVisualStyle
  2
Linepattern
 70
    14
177
     2
291
     1
 71
     2
176
     1
 72
     2
176
     1
 73
     0
176
     1
 90
        0
176
     1
 40
-0.6
176
     1
 41
-30.0
176
     1
 62
     5
 63
     7
421
 16777215
176
     1
 74
     1
176
     1
 91
        4
176
     1
 64
     7
176
     1
 65
   257
176
     1
 75
     7
176
     1
175
     7
176
     1
 42
1.0
176
     1
 92
        8
176
     1
 66
     7
176
     1
 43
1.0
176
     1
 76
     1
176
     1
 77
     6
176
     1
 78
     2
176
     1
 67
     7
176
     1
 79
     5
176
     1
170
     0
176
     1
171
     0
176
     1
290
     0
176
     1
 93
        1
176
     1
 44
0.0
176
     1
173
     0
176
     1
  0
VISUALSTYLE
  5
33
102
{ACAD_REACTORS
330
2A
102
}
330
2A
100
AcDbVisualStyle
  2
Realistic
 70
     8
177
     2
291
     0
 71
     2
176
     1
 72
     2
176
     1
 73
     0
176
     1
 90
        0
176
     1
 40
-0.6
176
     1
 41
-30.0
176
     1
 62
     5
 63
     7
421
 16777215
176
     1
 74
     1
176
     1
 91
        0
176
     1
 64
     7
176
     1
 65
   257
176
     1
 75
     1
176
     1
175
     1
176
     1
 42
1.0
176
     1
 92
        8
176
     1
 66
     8
424
  7895160
176
     1
 43
1.0
176
     1
 76
     1
176
     1
 77
     6
176
     1
 78
     2
176
     1
 67
     7
176
     1
 79
     5
176
     1
170
     0
176
     1
171
     0
176
     1
290
     0
176
     1
 93
       13
176
     1
 44
0.0
176
     1
173
     0
176
     1
  0
VISUALSTYLE
  5
37
102
{ACAD_REACTORS
330
2A
102
}
330
2A
100
AcDbVisualStyle
  2
Thicken
 70
    13
177
     2
291
     1
 71
     2
176
     1
 72
     2
176
     1
 73
     0
176
     1
 90
        0
176
     1
 40
-0.6
176
     1
 41
-30.0
176
     1
 62
     5
 63
     7
421
 16777215
176
     1
 74
     1
176
     1
 91
        4
176
     1
 64
     7
176
     1
 65
   257
176
     1
 75
     1
176
     1
175
     1
176
     1
 42
1.0
176
     1
 92
       12
176
     1
 66
     7
176
     1
 43
1.0
176
     1
 76
     1
176
     1
 77
     6
176
     1
 78
     2
176
     1
 67
     7
176
     1
 79
     5
176
     1
170
     0
176
     1
171
     0
176
     1
290
     0
176
     1
 93
        1
176
     1
 44
0.0
176
     1
173
     0
176
     1
  0
ENDSEC
  0
EOF
