  0
SECTION
  2
HEADER
  9
$ACADVER
  1
AC1024
  9
$ACADMAINTVER
 70
     6
  9
$DWGCODEPAGE
  3
ANSI_932
  9
$INSBASE
 10
0.0
 20
0.0
 30
0.0
  9
$EXTMIN
 10
-6300.0
 20
-4455.0
 30
0.0
  9
$EXTMAX
 10
6300.0
 20
4455.0
 30
0.0
  9
$LIMMIN
 10
-6300.0
 20
-4455.0
  9
$LIMMAX
 10
6300.0
 20
4455.0
  9
$ORTHOMODE
 70
     0
  9
$REGENMODE
 70
     1
  9
$FILLMODE
 70
     1
  9
$QTEXTMODE
 70
     0
  9
$MIRRTEXT
 70
     1
  9
$LTSCALE
 40
30.0
  9
$ATTMODE
 70
     1
  9
$TEXTSIZE
 40
2.5
  9
$TRACEWID
 40
1.0
  9
$TEXTSTYLE
  7
Standard
  9
$CLAYER
  8
0
  9
$CELTYPE
  6
ByLayer
  9
$CECOLOR
 62
   256
  9
$CELTSCALE
 40
1.0
  9
$DISPSILH
 70
     0
  9
$DIMSCALE
 40
1.0
  9
$DIMASZ
 40
2.5
  9
$DIMEXO
 40
0.625
  9
$DIMDLI
 40
3.75
  9
$DIMRND
 40
0.0
  9
$DIMDLE
 40
0.0
  9
$DIMEXE
 40
1.25
  9
$DIMTP
 40
0.0
  9
$DIMTM
 40
0.0
  9
$DIMTXT
 40
2.5
  9
$DIMCEN
 40
2.5
  9
$DIMTSZ
 40
0.0
  9
$DIMTOL
 70
     0
  9
$DIMLIM
 70
     0
  9
$DIMTIH
 70
     0
  9
$DIMTOH
 70
     0
  9
$DIMSE1
 70
     0
  9
$DIMSE2
 70
     0
  9
$DIMTAD
 70
     1
  9
$DIMZIN
 70
     8
  9
$DIMBLK
  1

  9
$DIMASO
 70
     1
  9
$DIMSHO
 70
     1
  9
$DIMPOST
  1

  9
$DIMAPOST
  1

  9
$DIMALT
 70
     0
  9
$DIMALTD
 70
     3
  9
$DIMALTF
 40
0.03937007874016
  9
$DIMLFAC
 40
1.0
  9
$DIMTOFL
 70
     1
  9
$DIMTVP
 40
0.0
  9
$DIMTIX
 70
     0
  9
$DIMSOXD
 70
     0
  9
$DIMSAH
 70
     0
  9
$DIMBLK1
  1

  9
$DIMBLK2
  1

  9
$DIMSTYLE
  2
ISO-25
  9
$DIMCLRD
 70
     0
  9
$DIMCLRE
 70
     0
  9
$DIMCLRT
 70
     0
  9
$DIMTFAC
 40
1.0
  9
$DIMGAP
 40
0.625
  9
$DIMJUST
 70
     0
  9
$DIMSD1
 70
     0
  9
$DIMSD2
 70
     0
  9
$DIMTOLJ
 70
     0
  9
$DIMTZIN
 70
     8
  9
$DIMALTZ
 70
     0
  9
$DIMALTTZ
 70
     0
  9
$DIMUPT
 70
     0
  9
$DIMDEC
 70
     2
  9
$DIMTDEC
 70
     2
  9
$DIMALTU
 70
     2
  9
$DIMALTTD
 70
     3
  9
$DIMTXSTY
  7
Standard
  9
$DIMAUNIT
 70
     0
  9
$DIMADEC
 70
     0
  9
$DIMALTRND
 40
0.0
  9
$DIMAZIN
 70
     0
  9
$DIMDSEP
 70
    44
  9
$DIMATFIT
 70
     3
  9
$DIMFRAC
 70
     0
  9
$DIMLDRBLK
  1

  9
$DIMLUNIT
 70
     2
  9
$DIMLWD
 70
    -2
  9
$DIMLWE
 70
    -2
  9
$DIMTMOVE
 70
     0
  9
$DIMFXL
 40
1.0
  9
$DIMFXLON
 70
     0
  9
$DIMJOGANG
 40
0.7853981633974483
  9
$DIMTFILL
 70
     0
  9
$DIMTFILLCLR
 70
     0
  9
$DIMARCSYM
 70
     0
  9
$DIMLTYPE
  6

  9
$DIMLTEX1
  6

  9
$DIMLTEX2
  6

  9
$DIMTXTDIRECTION
 70
     0
  9
$LUNITS
 70
     2
  9
$LUPREC
 70
     4
  9
$SKETCHINC
 40
1.0
  9
$FILLETRAD
 40
10.0
  9
$AUNITS
 70
     0
  9
$AUPREC
 70
     0
  9
$MENU
  1
.
  9
$ELEVATION
 40
0.0
  9
$PELEVATION
 40
0.0
  9
$THICKNESS
 40
0.0
  9
$LIMCHECK
 70
     0
  9
$CHAMFERA
 40
10.0
  9
$CHAMFERB
 40
10.0
  9
$CHAMFERC
 40
20.0
  9
$CHAMFERD
 40
0.0
  9
$SKPOLY
 70
     0
  9
$TDCREATE
 40
2459380.623448588
  9
$TDUCREATE
 40
2459380.248448588
  9
$TDUPDATE
 40
2459380.6234486
  9
$TDUUPDATE
 40
2459380.2484486
  9
$TDINDWG
 40
0.0000000116
  9
$TDUSRTIMER
 40
0.0000000116
  9
$USRTIMER
 70
     1
  9
$ANGBASE
 50
0.0
  9
$ANGDIR
 70
     0
  9
$PDMODE
 70
     0
  9
$PDSIZE
 40
0.0
  9
$PLINEWID
 40
0.0
  9
$SPLFRAME
 70
     0
  9
$SPLINETYPE
 70
     6
  9
$SPLINESEGS
 70
     8
  9
$HANDSEED
  5
4E7
  9
$SURFTAB1
 70
     6
  9
$SURFTAB2
 70
     6
  9
$SURFTYPE
 70
     6
  9
$SURFU
 70
     6
  9
$SURFV
 70
     6
  9
$UCSBASE
  2

  9
$UCSNAME
  2

  9
$UCSORG
 10
0.0
 20
0.0
 30
0.0
  9
$UCSXDIR
 10
1.0
 20
0.0
 30
0.0
  9
$UCSYDIR
 10
0.0
 20
1.0
 30
0.0
  9
$UCSORTHOREF
  2

  9
$UCSORTHOVIEW
 70
     0
  9
$UCSORGTOP
 10
0.0
 20
0.0
 30
0.0
  9
$UCSORGBOTTOM
 10
0.0
 20
0.0
 30
0.0
  9
$UCSORGLEFT
 10
0.0
 20
0.0
 30
0.0
  9
$UCSORGRIGHT
 10
0.0
 20
0.0
 30
0.0
  9
$UCSORGFRONT
 10
0.0
 20
0.0
 30
0.0
  9
$UCSORGBACK
 10
0.0
 20
0.0
 30
0.0
  9
$PUCSBASE
  2

  9
$PUCSNAME
  2

  9
$PUCSORG
 10
0.0
 20
0.0
 30
0.0
  9
$PUCSXDIR
 10
1.0
 20
0.0
 30
0.0
  9
$PUCSYDIR
 10
0.0
 20
1.0
 30
0.0
  9
$PUCSORTHOREF
  2

  9
$PUCSORTHOVIEW
 70
     0
  9
$PUCSORGTOP
 10
0.0
 20
0.0
 30
0.0
  9
$PUCSORGBOTTOM
 10
0.0
 20
0.0
 30
0.0
  9
$PUCSORGLEFT
 10
0.0
 20
0.0
 30
0.0
  9
$PUCSORGRIGHT
 10
0.0
 20
0.0
 30
0.0
  9
$PUCSORGFRONT
 10
0.0
 20
0.0
 30
0.0
  9
$PUCSORGBACK
 10
0.0
 20
0.0
 30
0.0
  9
$USERI1
 70
     0
  9
$USERI2
 70
     0
  9
$USERI3
 70
     0
  9
$USERI4
 70
     0
  9
$USERI5
 70
     0
  9
$USERR1
 40
0.0
  9
$USERR2
 40
0.0
  9
$USERR3
 40
0.0
  9
$USERR4
 40
0.0
  9
$USERR5
 40
0.0
  9
$WORLDVIEW
 70
     1
  9
$SHADEDGE
 70
     3
  9
$SHADEDIF
 70
    70
  9
$TILEMODE
 70
     1
  9
$MAXACTVP
 70
    64
  9
$PINSBASE
 10
0.0
 20
0.0
 30
0.0
  9
$PLIMCHECK
 70
     0
  9
$PEXTMIN
 10
1.000000000000000E+20
 20
1.000000000000000E+20
 30
1.000000000000000E+20
  9
$PEXTMAX
 10
-1.000000000000000E+20
 20
-1.000000000000000E+20
 30
-1.000000000000000E+20
  9
$PLIMMIN
 10
0.0
 20
0.0
  9
$PLIMMAX
 10
420.0
 20
297.0
  9
$UNITMODE
 70
     0
  9
$VISRETAIN
 70
     1
  9
$PLINEGEN
 70
     0
  9
$PSLTSCALE
 70
     1
  9
$TREEDEPTH
 70
  3020
  9
$CMLSTYLE
  2
Standard
  9
$CMLJUST
 70
     0
  9
$CMLSCALE
 40
20.0
  9
$PROXYGRAPHICS
 70
     1
  9
$MEASUREMENT
 70
     1
  9
$CELWEIGHT
370
    -1
  9
$ENDCAPS
280
     0
  9
$JOINSTYLE
280
     0
  9
$LWDISPLAY
290
     0
  9
$INSUNITS
 70
     4
  9
$HYPERLINKBASE
  1

  9
$STYLESHEET
  1

  9
$XEDIT
290
     1
  9
$CEPSNTYPE
380
     0
  9
$PSTYLEMODE
290
     1
  9
$FINGERPRINTGUID
  2
{E0DAB36C-1A84-4C27-810A-73C842C16554}
  9
$VERSIONGUID
  2
{FAEB1C32-E019-11D5-929B-00C0DF256EC4}
  9
$EXTNAMES
290
     1
  9
$PSVPSCALE
 40
0.0
  9
$OLESTARTUP
290
     0
  9
$SORTENTS
280
   127
  9
$INDEXCTL
280
     0
  9
$HIDETEXT
280
     1
  9
$XCLIPFRAME
280
     2
  9
$HALOGAP
280
     0
  9
$OBSCOLOR
 70
   257
  9
$OBSLTYPE
280
     0
  9
$INTERSECTIONDISPLAY
280
     0
  9
$INTERSECTIONCOLOR
 70
   257
  9
$DIMASSOC
280
     2
  9
$PROJECTNAME
  1

  9
$CAMERADISPLAY
290
     0
  9
$LENSLENGTH
 40
50.0
  9
$CAMERAHEIGHT
 40
0.0
  9
$STEPSPERSEC
 40
2.0
  9
$STEPSIZE
 40
6.0
  9
$3DDWFPREC
 40
2.0
  9
$PSOLWIDTH
 40
5.0
  9
$PSOLHEIGHT
 40
80.0
  9
$LOFTANG1
 40
1.570796326794897
  9
$LOFTANG2
 40
1.570796326794897
  9
$LOFTMAG1
 40
0.0
  9
$LOFTMAG2
 40
0.0
  9
$LOFTPARAM
 70
     7
  9
$LOFTNORMALS
280
     1
  9
$LATITUDE
 40
37.795
  9
$LONGITUDE
 40
-122.394
  9
$NORTHDIRECTION
 40
0.0
  9
$TIMEZONE
 70
 -8000
  9
$LIGHTGLYPHDISPLAY
280
     1
  9
$TILEMODELIGHTSYNCH
280
     1
  9
$SOLIDHIST
280
     1
  9
$SHOWHIST
280
     1
  9
$DWFFRAME
280
     2
  9
$DGNFRAME
280
     2
  9
$REALWORLDSCALE
290
     1
  9
$INTERFERECOLOR
 62
   256
  9
$CSHADOW
280
     0
  9
$SHADOWPLANELOCATION
 40
0.0
  0
ENDSEC
  0
SECTION
  2
CLASSES
  0
CLASS
  1
ACDBDICTIONARYWDFLT
  2
AcDbDictionaryWithDefault
  3
ObjectDBX Classes
 90
        0
 91
        4
280
     0
281
     0
  0
CLASS
  1
VISUALSTYLE
  2
AcDbVisualStyle
  3
ObjectDBX Classes
 90
     4095
 91
        4
280
     0
281
     0
  0
CLASS
  1
MATERIAL
  2
AcDbMaterial
  3
ObjectDBX Classes
 90
     1153
 91
        4
280
     0
281
     0
  0
ENDSEC
  0
SECTION
  2
TABLES
  0
TABLE
  2
VPORT
  5
8
330
0
100
AcDbSymbolTable
 70
     1
  0
VPORT
  5
29
330
8
100
AcDbSymbolTableRecord
100
AcDbViewportTableRecord
  2
*Active
 70
     0
 10
0.0
 20
0.0
 11
1.0
 21
1.0
 12
0.0
 22
0.0
 13
0.0
 23
0.0
 14
10.0
 24
10.0
 15
10.0
 25
10.0
 16
0.0
 26
0.0
 36
1.0
 17
0.0
 27
0.0
 37
0.0
 40
9801.0
 41
1.414141414141414
 42
50.0
 43
0.0
 44
0.0
 50
0.0
 51
0.0
 71
     0
 72
 10000
 73
     1
 74
     3
 75
     0
 76
     0
 77
     0
 78
     0
281
     0
 65
     1
110
0.0
120
0.0
130
0.0
111
1.0
121
0.0
131
0.0
112
0.0
122
1.0
132
0.0
 79
     0
146
0.0
 60
     3
 61
     5
292
     1
282
     1
141
0.0
142
0.0
 63
   250
  0
ENDTAB
  0
TABLE
  2
LTYPE
  5
5
330
0
100
AcDbSymbolTable
 70
     5
  0
LTYPE
  5
14
330
5
100
AcDbSymbolTableRecord
100
AcDbLinetypeTableRecord
  2
ByBlock
 70
     0
  3

 72
    65
 73
     0
 40
0.0
  0
LTYPE
  5
15
330
5
100
AcDbSymbolTableRecord
100
AcDbLinetypeTableRecord
  2
ByLayer
 70
     0
  3

 72
    65
 73
     0
 40
0.0
  0
LTYPE
  5
16
330
5
100
AcDbSymbolTableRecord
100
AcDbLinetypeTableRecord
  2
Continuous
 70
     0
  3
Solid line
 72
    65
 73
     0
 40
0.0
  0
LTYPE
  5
3F
330
5
100
AcDbSymbolTableRecord
100
AcDbLinetypeTableRecord
  2
JWW_HOJO
 70
     0
  3
  -   -   -   -   -   -   -   - 
 72
    65
 73
     2
 40
1.693333333333333
 49
-1.27
 74
     0
 49
0.4233333333333333
 74
     0
  0
LTYPE
  5
40
330
5
100
AcDbSymbolTableRecord
100
AcDbLinetypeTableRecord
  2
JWW_CENTER1
 70
     0
  3
-----  --  ----------  --  -----
 72
    65
 73
     4
 40
6.773333333333333
 49
4.233333333333333
 74
     0
 49
-0.8466666666666667
 74
     0
 49
0.8466666666666667
 74
     0
 49
-0.8466666666666667
 74
     0
  0
LTYPE
  5
41
330
5
100
AcDbSymbolTableRecord
100
AcDbLinetypeTableRecord
  2
JWW_DASHED2
 70
     0
  3
--    ----    ----    ----    --
 72
    65
 73
     2
 40
3.386666666666667
 49
1.693333333333333
 74
     0
 49
-1.693333333333333
 74
     0
  0
LTYPE
  5
42
330
5
100
AcDbSymbolTableRecord
100
AcDbLinetypeTableRecord
  2
JWW_DASHED1
 70
     0
  3
-  --  --  --  --  --  --  --  -
 72
    65
 73
     2
 40
1.693333333333333
 49
0.8466666666666667
 74
     0
 49
-0.8466666666666667
 74
     0
  0
ENDTAB
  0
TABLE
  2
LAYER
  5
2
330
0
100
AcDbSymbolTable
 70
    14
  0
LAYER
  5
10
330
2
100
AcDbSymbolTableRecord
100
AcDbLayerTableRecord
  2
0
 70
     0
 62
     7
  6
Continuous
370
    -3
390
F
347
3E
  0
LAYER
  5
43
330
2
100
AcDbSymbolTableRecord
100
AcDbLayerTableRecord
  2
0-B_寸法
 70
     0
 62
     7
  6
Continuous
370
    -3
390
F
347
3E
  0
LAYER
  5
44
330
2
100
AcDbSymbolTableRecord
100
AcDbLayerTableRecord
  2
0-C_ハッチ
 70
     0
 62
     7
  6
Continuous
370
    -3
390
F
347
3E
  0
LAYER
  5
45
330
2
100
AcDbSymbolTableRecord
100
AcDbLayerTableRecord
  2
0-0_補助線
 70
     0
 62
     7
  6
Continuous
370
    -3
390
F
347
3E
  0
LAYER
  5
46
330
2
100
AcDbSymbolTableRecord
100
AcDbLayerTableRecord
  2
0-1_通り芯
 70
     0
 62
     7
  6
Continuous
370
    -3
390
F
347
3E
  0
LAYER
  5
47
330
2
100
AcDbSymbolTableRecord
100
AcDbLayerTableRecord
  2
0-7_金物
 70
     0
 62
     7
  6
Continuous
370
    -3
390
F
347
3E
  0
LAYER
  5
48
330
2
100
AcDbSymbolTableRecord
100
AcDbLayerTableRecord
  2
0-4_枠
 70
     0
 62
     7
  6
Continuous
370
    -3
390
F
347
3E
  0
LAYER
  5
49
330
2
100
AcDbSymbolTableRecord
100
AcDbLayerTableRecord
  2
0-6_扉
 70
     0
 62
     7
  6
Continuous
370
    -3
390
F
347
3E
  0
LAYER
  5
4A
330
2
100
AcDbSymbolTableRecord
100
AcDbLayerTableRecord
  2
0-A_文字
 70
     0
 62
     7
  6
Continuous
370
    -3
390
F
347
3E
  0
LAYER
  5
4B
330
2
100
AcDbSymbolTableRecord
100
AcDbLayerTableRecord
  2
F-A_文字
 70
     0
 62
     7
  6
Continuous
370
    -3
390
F
347
3E
  0
LAYER
  5
4C
330
2
100
AcDbSymbolTableRecord
100
AcDbLayerTableRecord
  2
F-0_補助線
 70
     0
 62
     7
  6
Continuous
370
    -3
390
F
347
3E
  0
LAYER
  5
4D
330
2
100
AcDbSymbolTableRecord
100
AcDbLayerTableRecord
  2
F-1_枠
 70
     0
 62
     7
  6
Continuous
370
    -3
390
F
347
3E
  0
LAYER
  5
4E
330
2
100
AcDbSymbolTableRecord
100
AcDbLayerTableRecord
  2
0-3_仕上げ
 70
     0
 62
     7
  6
Continuous
370
    -3
390
F
347
3E
  0
LAYER
  5
4F
330
2
100
AcDbSymbolTableRecord
100
AcDbLayerTableRecord
  2
戸当り
 70
     0
 62
     7
  6
Continuous
370
    -3
390
F
347
3E
  0
ENDTAB
  0
TABLE
  2
STYLE
  5
3
330
0
100
AcDbSymbolTable
 70
     1
  0
STYLE
  5
11
330
3
100
AcDbSymbolTableRecord
100
AcDbTextStyleTableRecord
  2
Standard
 70
     0
 40
0.0
 41
1.0
 50
0.0
 71
     0
 42
2.5
  3
txt
  4

  0
ENDTAB
  0
TABLE
  2
VIEW
  5
6
330
0
100
AcDbSymbolTable
 70
     0
  0
ENDTAB
  0
TABLE
  2
UCS
  5
7
330
0
100
AcDbSymbolTable
 70
     0
  0
ENDTAB
  0
TABLE
  2
APPID
  5
9
330
0
100
AcDbSymbolTable
 70
     1
  0
APPID
  5
12
330
9
100
AcDbSymbolTableRecord
100
AcDbRegAppTableRecord
  2
ACAD
 70
     0
  0
ENDTAB
  0
TABLE
  2
DIMSTYLE
  5
A
330
0
100
AcDbSymbolTable
 70
     1
100
AcDbDimStyleTable
  0
DIMSTYLE
105
27
330
A
100
AcDbSymbolTableRecord
100
AcDbDimStyleTableRecord
  2
ISO-25
 70
     0
 41
2.5
 42
0.625
 43
3.75
 44
1.25
 73
     0
 74
     0
 77
     1
 78
     8
140
2.5
141
2.5
143
0.03937007874016
147
0.625
171
     3
172
     1
178
     0
271
     2
272
     2
274
     3
278
    44
283
     0
284
     8
340
11
  0
ENDTAB
  0
TABLE
  2
BLOCK_RECORD
  5
1
330
0
100
AcDbSymbolTable
 70
     1
  0
BLOCK_RECORD
  5
1F
330
1
100
AcDbSymbolTableRecord
100
AcDbBlockTableRecord
  2
*Model_Space
340
22
 70
     0
280
     1
281
     0
  0
BLOCK_RECORD
  5
1B
330
1
100
AcDbSymbolTableRecord
100
AcDbBlockTableRecord
  2
*Paper_Space
340
1E
 70
     0
280
     1
281
     0
  0
BLOCK_RECORD
  5
23
330
1
100
AcDbSymbolTableRecord
100
AcDbBlockTableRecord
  2
*Paper_Space0
340
26
 70
     0
280
     1
281
     0
  0
ENDTAB
  0
ENDSEC
  0
SECTION
  2
BLOCKS
  0
BLOCK
  5
20
330
1F
100
AcDbEntity
  8
0
100
AcDbBlockBegin
  2
*Model_Space
 70
     0
 10
0.0
 20
0.0
 30
0.0
  3
*Model_Space
  1

  0
ENDBLK
  5
21
330
1F
100
AcDbEntity
  8
0
100
AcDbBlockEnd
  0
BLOCK
  5
1C
330
1B
100
AcDbEntity
 67
     1
  8
0
100
AcDbBlockBegin
  2
*Paper_Space
 70
     0
 10
0.0
 20
0.0
 30
0.0
  3
*Paper_Space
  1

  0
ENDBLK
  5
1D
330
1B
100
AcDbEntity
 67
     1
  8
0
100
AcDbBlockEnd
  0
BLOCK
  5
24
330
23
100
AcDbEntity
  8
0
100
AcDbBlockBegin
  2
*Paper_Space0
 70
     0
 10
0.0
 20
0.0
 30
0.0
  3
*Paper_Space0
  1

  0
ENDBLK
  5
25
330
23
100
AcDbEntity
  8
0
100
AcDbBlockEnd
  0
ENDSEC
  0
SECTION
  2
ENTITIES
  0
MTEXT
  5
50
330
1F
100
AcDbEntity
  8
0-B_寸法
  6
Continuous
 62
     7
370
   211
100
AcDbMText
 10
-320.0814571566829
 20
1087.665997789479
 30
0.0
 40
91.43999999999997
 41
660.0
 46
0.0
 71
     7
 72
     1
  1
{\fＭＳ ゴシック|b0|i0|c128|p49;枠外＝1,199}
 73
     1
 44
1.0
  0
MTEXT
  5
51
330
1F
100
AcDbEntity
  8
0-B_寸法
  6
Continuous
 62
     7
370
   211
100
AcDbMText
 10
-320.0814571566829
 20
1267.665997789479
 30
0.0
 40
91.43999999999997
 41
660.0
 46
0.0
 71
     7
 72
     1
  1
{\fＭＳ ゴシック|b0|i0|c128|p49;枠内＝1,139}
 73
     1
 44
1.0
  0
MTEXT
  5
52
330
1F
100
AcDbEntity
  8
0-B_寸法
  6
Continuous
 62
     7
370
   211
100
AcDbMText
 10
-500.0814571566829
 20
2962.665997789481
 30
0.0
 40
91.43999999999998
 41
1020.0
 46
0.0
 71
     7
 72
     1
  1
{\fＭＳ ゴシック|b0|i0|c128|p49;有効開口寸法＝881}
 73
     1
 44
1.0
  0
MTEXT
  5
53
330
1F
100
AcDbEntity
  8
0-B_寸法
  6
Continuous
 62
     7
370
   211
100
AcDbMText
 10
-380.0814571566829
 20
3142.665997789481
 30
0.0
 40
91.43999999999997
 41
780.0
 46
0.0
 71
     7
 72
     1
  1
{\fＭＳ ゴシック|b0|i0|c128|p49;ＲＯＷ＝1,209}
 73
     1
 44
1.0
  0
LINE
  5
54
330
1F
100
AcDbEntity
  8
0-B_寸法
  6
Continuous
 62
   120
370
     5
100
AcDbLine
 10
-2222.081444790678
 20
3141.945997789481
 30
0.0
 11
2241.918579965278
 21
3141.945997789481
 31
0.0
  0
LWPOLYLINE
  5
55
330
1F
100
AcDbEntity
  8
0-B_寸法
  6
Continuous
 62
     7
370
     5
100
AcDbPolyline
 90
        4
 70
     1
 43
3.0
 10
2243.418579965278
 20
3141.945997789481
 42
0.4142135623731
 10
2241.918579965278
 20
3143.445997789481
 42
0.4142135623731
 10
2240.418579965278
 20
3141.945997789481
 42
0.4142135623731
 10
2241.918579965278
 20
3140.445997789482
 42
0.4142135623731
  0
LINE
  5
56
330
1F
100
AcDbEntity
  8
0-B_寸法
  6
Continuous
 62
   120
370
     5
100
AcDbLine
 10
2241.918579965278
 20
3141.945997789481
 30
0.0
 11
2241.918579965278
 21
2781.945997789481
 31
0.0
  0
LINE
  5
57
330
1F
100
AcDbEntity
  8
0-B_寸法
  6
Continuous
 62
   120
370
     5
100
AcDbLine
 10
-2222.081444790678
 20
3141.945997789481
 30
0.0
 11
-2222.081444790678
 21
2781.945997789481
 31
0.0
  0
LWPOLYLINE
  5
58
330
1F
100
AcDbEntity
  8
0-B_寸法
  6
Continuous
 62
     7
370
     5
100
AcDbPolyline
 90
        4
 70
     1
 43
3.0
 10
-2220.581444790678
 20
3141.945997789481
 42
0.4142135623731
 10
-2222.081444790678
 20
3143.445997789481
 42
0.4142135623731
 10
-2223.581444790678
 20
3141.945997789481
 42
0.4142135623731
 10
-2222.081444790678
 20
3140.445997789482
 42
0.4142135623731
  0
LINE
  5
59
330
1F
100
AcDbEntity
  8
0-C_ハッチ
  6
Continuous
 62
   120
370
     5
100
AcDbLine
 10
2211.918802661127
 20
2546.034173795075
 30
0.0
 11
2031.918579965286
 21
2366.033579939502
 31
0.0
  0
LINE
  5
5A
330
1F
100
AcDbEntity
  8
0-B_寸法
  6
Continuous
 62
   120
370
     5
100
AcDbLine
 10
-2192.081444790688
 20
1086.945997789479
 30
0.0
 11
2211.918579965286
 21
1086.945997789479
 31
0.0
  0
LINE
  5
5B
330
1F
100
AcDbEntity
  8
0-B_寸法
  6
Continuous
 62
   120
370
     5
100
AcDbLine
 10
-2012.081444790688
 20
1266.945997789479
 30
0.0
 11
2031.918579965286
 21
1266.945997789479
 31
0.0
  0
LINE
  5
5C
330
1F
100
AcDbEntity
  8
0-0_補助線
  6
JWW_HOJO
 62
   120
370
     5
100
AcDbLine
 10
-2762.081197362861
 20
2961.945997789481
 30
0.0
 11
2781.918332525465
 21
2961.945997789481
 31
0.0
  0
LINE
  5
5D
330
1F
100
AcDbEntity
  8
0-0_補助線
  6
JWW_HOJO
 62
   120
370
     5
100
AcDbLine
 10
-2762.081197362861
 20
2781.945997789481
 30
0.0
 11
2781.918332525465
 21
2781.945997789481
 31
0.0
  0
LINE
  5
5E
330
1F
100
AcDbEntity
  8
0-1_通り芯
  6
JWW_CENTER1
 62
   120
370
     5
100
AcDbLine
 10
-2762.081197362861
 20
2361.945997789481
 30
0.0
 11
2781.918332525465
 21
2361.945997789481
 31
0.0
  0
LINE
  5
5F
330
1F
100
AcDbEntity
  8
0-0_補助線
  6
JWW_HOJO
 62
   120
370
     5
100
AcDbLine
 10
-2762.081197362861
 20
3141.945997789481
 30
0.0
 11
2781.918332525465
 21
3141.945997789481
 31
0.0
  0
LINE
  5
60
330
1F
100
AcDbEntity
  8
0-0_補助線
  6
JWW_HOJO
 62
   120
370
     5
100
AcDbLine
 10
-2762.081197362861
 20
1086.945997789479
 30
0.0
 11
2781.918332525465
 21
1086.945997789479
 31
0.0
  0
LINE
  5
61
330
1F
100
AcDbEntity
  8
0-0_補助線
  6
JWW_HOJO
 62
   120
370
     5
100
AcDbLine
 10
-2762.081197362861
 20
1266.945997789479
 30
0.0
 11
2781.918332525465
 21
1266.945997789479
 31
0.0
  0
LINE
  5
62
330
1F
100
AcDbEntity
  8
0-0_補助線
  6
JWW_HOJO
 62
   120
370
     5
100
AcDbLine
 10
2777.419006779264
 20
1446.945997789481
 30
0.0
 11
-2766.580622072993
 21
1446.945997789481
 31
0.0
  0
LINE
  5
63
330
1F
100
AcDbEntity
  8
0-0_補助線
  6
JWW_HOJO
 62
   120
370
     5
100
AcDbLine
 10
2777.419006779264
 20
1626.945997789481
 30
0.0
 11
-2766.580622072993
 21
1626.945997789481
 31
0.0
  0
LINE
  5
64
330
1F
100
AcDbEntity
  8
0-0_補助線
  6
JWW_HOJO
 62
   120
370
     5
100
AcDbLine
 10
2777.419006779264
 20
1986.945997789481
 30
0.0
 11
-2766.580622072993
 21
1986.945997789481
 31
0.0
  0
LINE
  5
65
330
1F
100
AcDbEntity
  8
0-0_補助線
  6
JWW_HOJO
 62
   120
370
     5
100
AcDbLine
 10
2777.419006779264
 20
1806.945997789481
 30
0.0
 11
-2766.580622072993
 21
1806.945997789481
 31
0.0
  0
LINE
  5
66
330
1F
100
AcDbEntity
  8
0-B_寸法
  6
Continuous
 62
   120
370
     5
100
AcDbLine
 10
2241.918579965278
 20
1086.945997789479
 30
0.0
 11
2241.918579965278
 21
1986.945997789481
 31
0.0
  0
LWPOLYLINE
  5
67
330
1F
100
AcDbEntity
  8
0-B_寸法
  6
Continuous
 62
     7
370
     5
100
AcDbPolyline
 90
        4
 70
     1
 43
3.0
 10
2243.418579965278
 20
1086.945997789479
 42
0.4142135623731
 10
2241.918579965278
 20
1088.445997789479
 42
0.4142135623731
 10
2240.418579965278
 20
1086.945997789479
 42
0.4142135623731
 10
2241.918579965278
 20
1085.445997789479
 42
0.4142135623731
  0
LINE
  5
68
330
1F
100
AcDbEntity
  8
0-B_寸法
  6
Continuous
 62
   120
370
     5
100
AcDbLine
 10
2211.918579965286
 20
1086.945997789479
 30
0.0
 11
2241.918579965278
 21
1086.945997789479
 31
0.0
  0
LINE
  5
69
330
1F
100
AcDbEntity
  8
0-B_寸法
  6
Continuous
 62
   120
370
     5
100
AcDbLine
 10
2211.918579965286
 20
1086.945997789479
 30
0.0
 11
2211.918579965286
 21
1986.945997789481
 31
0.0
  0
LWPOLYLINE
  5
6A
330
1F
100
AcDbEntity
  8
0-B_寸法
  6
Continuous
 62
     7
370
     5
100
AcDbPolyline
 90
        4
 70
     1
 43
3.0
 10
2213.418579965286
 20
1086.945997789479
 42
0.4142135623731
 10
2211.918579965286
 20
1088.445997789479
 42
0.4142135623731
 10
2210.418579965286
 20
1086.945997789479
 42
0.4142135623731
 10
2211.918579965286
 20
1085.445997789479
 42
0.4142135623731
  0
MTEXT
  5
6B
330
1F
100
AcDbEntity
  8
0-B_寸法
  6
Continuous
 62
     7
370
   211
100
AcDbMText
 10
2061.918579965287
 20
1267.665997789479
 30
0.0
 40
91.44
 41
120.0
 46
0.0
 71
     7
 72
     1
  1
{\fＭＳ ゴシック|b0|i0|c128|p49;30}
 73
     1
 44
1.0
  0
LWPOLYLINE
  5
6C
330
1F
100
AcDbEntity
  8
0-B_寸法
  6
Continuous
 62
     7
370
     5
100
AcDbPolyline
 90
        4
 70
     1
 43
3.0
 10
2213.418579965286
 20
1266.945997789479
 42
0.4142135623731
 10
2211.918579965286
 20
1268.445997789479
 42
0.4142135623731
 10
2210.418579965286
 20
1266.945997789479
 42
0.4142135623731
 10
2211.918579965286
 20
1265.445997789479
 42
0.4142135623731
  0
LINE
  5
6D
330
1F
100
AcDbEntity
  8
0-B_寸法
  6
Continuous
 62
   120
370
     5
100
AcDbLine
 10
2031.918579965286
 20
1266.945997789479
 30
0.0
 11
2211.918579965286
 21
1266.945997789479
 31
0.0
  0
LINE
  5
6E
330
1F
100
AcDbEntity
  8
0-B_寸法
  6
Continuous
 62
   120
370
     5
100
AcDbLine
 10
2031.918579965286
 20
1266.945997789479
 30
0.0
 11
2031.918579965286
 21
1986.945997789481
 31
0.0
  0
LWPOLYLINE
  5
6F
330
1F
100
AcDbEntity
  8
0-B_寸法
  6
Continuous
 62
     7
370
     5
100
AcDbPolyline
 90
        4
 70
     1
 43
3.0
 10
2033.418579965286
 20
1266.945997789479
 42
0.4142135623731
 10
2031.918579965286
 20
1268.445997789479
 42
0.4142135623731
 10
2030.418579965287
 20
1266.945997789479
 42
0.4142135623731
 10
2031.918579965286
 20
1265.445997789479
 42
0.4142135623731
  0
LINE
  5
70
330
1F
100
AcDbEntity
  8
0-7_金物
  6
Continuous
 62
     7
370
     5
100
AcDbLine
 10
2229.918242364569
 20
2271.945694521051
 30
0.0
 11
2229.918242364569
 21
2451.945557191944
 31
0.0
  0
LINE
  5
71
330
1F
100
AcDbEntity
  8
0-7_金物
  6
Continuous
 62
     7
370
     5
100
AcDbLine
 10
2241.918579965278
 20
2451.945557191944
 30
0.0
 11
2229.918242364569
 21
2451.945557191944
 31
0.0
  0
LINE
  5
72
330
1F
100
AcDbEntity
  8
0-7_金物
  6
Continuous
 62
     7
370
     5
100
AcDbLine
 10
2241.918579965278
 20
2271.945694521051
 30
0.0
 11
2229.918242364569
 21
2271.945694521051
 31
0.0
  0
LINE
  5
73
330
1F
100
AcDbEntity
  8
0-7_金物
  6
Continuous
 62
     7
370
     5
100
AcDbLine
 10
2241.918579965278
 20
2271.945694521051
 30
0.0
 11
2241.918579965278
 21
2451.945557191944
 31
0.0
  0
LINE
  5
74
330
1F
100
AcDbEntity
  8
0-7_金物
  6
Continuous
 62
     7
370
     5
100
AcDbLine
 10
2229.918242364569
 20
2301.945797517874
 30
0.0
 11
2217.918648629828
 21
2301.945797517874
 31
0.0
  0
LINE
  5
75
330
1F
100
AcDbEntity
  8
0-7_金物
  6
Continuous
 62
     7
370
     5
100
AcDbLine
 10
2229.918242364569
 20
2421.94545419512
 30
0.0
 11
2217.918648629828
 21
2421.94545419512
 31
0.0
  0
LINE
  5
76
330
1F
100
AcDbEntity
  8
0-7_金物
  6
Continuous
 62
     7
370
     5
100
AcDbLine
 10
2217.918648629828
 20
2301.945797517874
 30
0.0
 11
2217.918648629828
 21
2421.94545419512
 31
0.0
  0
LINE
  5
77
330
1F
100
AcDbEntity
  8
0-7_金物
  6
Continuous
 62
     7
370
     5
100
AcDbLine
 10
2217.918648629828
 20
2307.945963457205
 30
0.0
 11
2211.918579965286
 21
2307.945963457205
 31
0.0
  0
LINE
  5
78
330
1F
100
AcDbEntity
  8
0-7_金物
  6
Continuous
 62
     7
370
     5
100
AcDbLine
 10
2211.918579965286
 20
2415.946032121756
 30
0.0
 11
2217.918648629828
 21
2415.946032121756
 31
0.0
  0
LINE
  5
79
330
1F
100
AcDbEntity
  8
0-4_枠
  6
Continuous
 62
    92
370
     5
100
AcDbLine
 10
2037.918579965286
 20
2637.945943352719
 30
0.0
 11
2031.918579965286
 21
2631.945943352719
 31
0.0
  0
LINE
  5
7A
330
1F
100
AcDbEntity
  8
0-4_枠
  6
Continuous
 62
    92
370
     5
100
AcDbLine
 10
2037.918579965286
 20
2637.945943352719
 30
0.0
 11
2211.918579965286
 21
2637.945943352719
 31
0.0
  0
LINE
  5
7B
330
1F
100
AcDbEntity
  8
0-4_枠
  6
Continuous
 62
    92
370
     5
100
AcDbLine
 10
2031.918579965286
 20
2091.94679454571
 30
0.0
 11
2037.918579965286
 21
2085.94679454571
 31
0.0
  0
LINE
  5
7C
330
1F
100
AcDbEntity
  8
0-4_枠
  6
Continuous
 62
    92
370
     5
100
AcDbLine
 10
2037.918579965286
 20
2085.94679454571
 30
0.0
 11
2091.918579965286
 21
2085.94679454571
 31
0.0
  0
LINE
  5
7D
330
1F
100
AcDbEntity
  8
0-C_ハッチ
  6
Continuous
 62
   120
370
     5
100
AcDbLine
 10
2181.918579965286
 20
2091.769591731948
 30
0.0
 11
2176.09575036571
 21
2085.94679454571
 31
0.0
  0
LINE
  5
7E
330
1F
100
AcDbEntity
  8
0-C_ハッチ
  6
Continuous
 62
   120
370
     5
100
AcDbLine
 10
2031.918579965286
 20
2196.328214784307
 30
0.0
 11
2211.918802661127
 21
2376.328808639882
 31
0.0
  0
LINE
  5
7F
330
1F
100
AcDbEntity
  8
0-C_ハッチ
  6
Continuous
 62
   120
370
     5
100
AcDbLine
 10
2031.918579965286
 20
2281.181268521637
 30
0.0
 11
2211.918802661127
 21
2461.181120057744
 31
0.0
  0
LINE
  5
80
330
1F
100
AcDbEntity
  8
0-C_ハッチ
  6
Continuous
 62
   120
370
     5
100
AcDbLine
 10
2211.918802661127
 20
2291.47575490255
 30
0.0
 11
2031.918579965286
 21
2111.475903366444
 31
0.0
  0
LINE
  5
81
330
1F
100
AcDbEntity
  8
0-C_ハッチ
  6
Continuous
 62
   120
370
     5
100
AcDbLine
 10
2211.918802661127
 20
2630.887227532407
 30
0.0
 11
2031.918579965286
 21
2450.887375996299
 31
0.0
  0
LINE
  5
82
330
1F
100
AcDbEntity
  8
0-C_ハッチ
  6
Continuous
 62
   120
370
     5
100
AcDbLine
 10
2134.124835903843
 20
2637.945943352719
 30
0.0
 11
2031.918579965286
 21
2535.740429733632
 31
0.0
  0
LINE
  5
83
330
1F
100
AcDbEntity
  8
0-4_枠
  6
Continuous
 62
    92
370
     5
100
AcDbLine
 10
2145.918579965285
 20
2085.94679454571
 30
0.0
 11
2181.918579965286
 21
2085.94679454571
 31
0.0
  0
LINE
  5
84
330
1F
100
AcDbEntity
  8
0-4_枠
  6
Continuous
 62
    92
370
     5
100
AcDbLine
 10
2181.918579965286
 20
2127.946794545711
 30
0.0
 11
2181.918579965286
 21
2085.94679454571
 31
0.0
  0
LINE
  5
85
330
1F
100
AcDbEntity
  8
0-4_枠
  6
Continuous
 62
    92
370
     5
100
AcDbLine
 10
2181.918579965286
 20
2127.946794545711
 30
0.0
 11
2211.918579965286
 21
2127.946794545711
 31
0.0
  0
LINE
  5
86
330
1F
100
AcDbEntity
  8
0-4_枠
  6
Continuous
 62
    92
370
     5
100
AcDbLine
 10
2211.918579965286
 20
2637.945943352719
 30
0.0
 11
2211.918579965286
 21
2127.946794545711
 31
0.0
  0
LINE
  5
87
330
1F
100
AcDbEntity
  8
0-4_枠
  6
Continuous
 62
    92
370
     5
100
AcDbLine
 10
2091.918579965286
 20
2145.946794545712
 30
0.0
 11
2091.918579965286
 21
2085.94679454571
 31
0.0
  0
LINE
  5
88
330
1F
100
AcDbEntity
  8
0-4_枠
  6
Continuous
 62
    92
370
     5
100
AcDbLine
 10
2091.918579965286
 20
2145.946794545712
 30
0.0
 11
2145.918579965285
 21
2145.946794545712
 31
0.0
  0
LINE
  5
89
330
1F
100
AcDbEntity
  8
0-4_枠
  6
Continuous
 62
    92
370
     5
100
AcDbLine
 10
2145.918579965285
 20
2145.946794545712
 30
0.0
 11
2145.918579965285
 21
2085.94679454571
 31
0.0
  0
LINE
  5
8A
330
1F
100
AcDbEntity
  8
0-C_ハッチ
  6
Continuous
 62
   120
370
     5
100
AcDbLine
 10
2211.918802661127
 20
2206.622701165219
 30
0.0
 11
2145.918579965285
 21
2140.622845865954
 31
0.0
  0
LINE
  5
8B
330
1F
100
AcDbEntity
  8
0-0_補助線
  6
JWW_HOJO
 62
   120
370
     5
100
AcDbLine
 10
2781.918332525465
 20
2961.945997789481
 30
0.0
 11
2781.918332525465
 21
1086.945997789479
 31
0.0
  0
LINE
  5
8C
330
1F
100
AcDbEntity
  8
0-4_枠
  6
Continuous
 62
    92
370
     5
100
AcDbLine
 10
2031.918579965286
 20
2631.945943352719
 30
0.0
 11
2031.918579965286
 21
2091.94679454571
 31
0.0
  0
LINE
  5
8D
330
1F
100
AcDbEntity
  8
0-B_寸法
  6
Continuous
 62
   120
370
     5
100
AcDbLine
 10
-1287.981947776276
 20
2961.945997789481
 30
0.0
 11
1307.819033462913
 21
2961.945997789481
 31
0.0
  0
LINE
  5
8E
330
1F
100
AcDbEntity
  8
0-B_寸法
  6
Continuous
 62
   120
370
     5
100
AcDbLine
 10
3.918542843316573
 20
1446.945997789481
 30
0.0
 11
15.9185428433176
 21
1446.945997789481
 31
0.0
  0
LINE
  5
8F
330
1F
100
AcDbEntity
  8
0-0_補助線
  6
JWW_HOJO
 62
     7
370
     5
100
AcDbLine
 10
1005.918883076073
 20
906.945997789479
 30
0.0
 11
1005.918883076073
 21
3141.945997789481
 31
0.0
  0
MTEXT
  5
90
330
1F
100
AcDbEntity
  8
0-B_寸法
  6
Continuous
 62
     7
370
   211
100
AcDbMText
 10
1182.91873152068
 20
1627.665997789481
 30
0.0
 40
91.43999999999997
 41
660.0
 46
0.0
 71
     7
 72
     1
  1
{\fＭＳ ゴシック|b0|i0|c128|p49;ＤＷ＝282.5}
 73
     1
 44
1.0
  0
LINE
  5
91
330
1F
100
AcDbEntity
  8
0-B_寸法
  6
Continuous
 62
   120
370
     5
100
AcDbLine
 10
2016.918579965286
 20
1446.945997789481
 30
0.0
 11
2016.918579965286
 21
1806.945997789481
 31
0.0
  0
LWPOLYLINE
  5
92
330
1F
100
AcDbEntity
  8
0-B_寸法
  6
Continuous
 62
     7
370
     5
100
AcDbPolyline
 90
        4
 70
     1
 43
3.0
 10
2018.418579965286
 20
1446.945997789481
 42
0.4142135623731
 10
2016.918579965286
 20
1448.445997789481
 42
0.4142135623731
 10
2015.418579965287
 20
1446.945997789481
 42
0.4142135623731
 10
2016.918579965286
 20
1445.445997789481
 42
0.4142135623731
  0
LINE
  5
93
330
1F
100
AcDbEntity
  8
0-B_寸法
  6
Continuous
 62
   120
370
     5
100
AcDbLine
 10
15.9185428433176
 20
1446.945997789481
 30
0.0
 11
2016.918579965286
 21
1446.945997789481
 31
0.0
  0
LINE
  5
94
330
1F
100
AcDbEntity
  8
0-B_寸法
  6
Continuous
 62
   120
370
     5
100
AcDbLine
 10
1008.918883076072
 20
1626.945997789481
 30
0.0
 11
1008.918883076072
 21
1806.945997789481
 31
0.0
  0
LWPOLYLINE
  5
95
330
1F
100
AcDbEntity
  8
0-B_寸法
  6
Continuous
 62
     7
370
     5
100
AcDbPolyline
 90
        4
 70
     1
 43
3.0
 10
2018.418579965286
 20
1626.945997789481
 42
0.4142135623731
 10
2016.918579965286
 20
1628.445997789481
 42
0.4142135623731
 10
2015.418579965287
 20
1626.945997789481
 42
0.4142135623731
 10
2016.918579965286
 20
1625.445997789481
 42
0.4142135623731
  0
LWPOLYLINE
  5
96
330
1F
100
AcDbEntity
  8
0-B_寸法
  6
Continuous
 62
     7
370
     5
100
AcDbPolyline
 90
        4
 70
     1
 43
3.0
 10
1010.418883076072
 20
1626.945997789481
 42
0.4142135623731
 10
1008.918883076072
 20
1628.445997789481
 42
0.4142135623731
 10
1007.418883076073
 20
1626.945997789481
 42
0.4142135623731
 10
1008.918883076072
 20
1625.445997789481
 42
0.4142135623731
  0
LINE
  5
97
330
1F
100
AcDbEntity
  8
0-B_寸法
  6
Continuous
 62
   120
370
     5
100
AcDbLine
 10
1008.918883076072
 20
1626.945997789481
 30
0.0
 11
2016.918579965286
 21
1626.945997789481
 31
0.0
  0
LINE
  5
98
330
1F
100
AcDbEntity
  8
0-B_寸法
  6
Continuous
 62
   120
370
     5
100
AcDbLine
 10
1307.819033462913
 20
2961.945997789481
 30
0.0
 11
1307.819033462913
 21
2781.945997789481
 31
0.0
  0
LWPOLYLINE
  5
99
330
1F
100
AcDbEntity
  8
0-B_寸法
  6
Continuous
 62
     7
370
     5
100
AcDbPolyline
 90
        4
 70
     1
 43
3.0
 10
1309.319033462912
 20
2961.945997789481
 42
0.4142135623731
 10
1307.819033462913
 20
2963.44599778948
 42
0.4142135623731
 10
1306.319033462913
 20
2961.945997789481
 42
0.4142135623731
 10
1307.819033462913
 20
2960.445997789481
 42
0.4142135623731
  0
LINE
  5
9A
330
1F
100
AcDbEntity
  8
0-1_通り芯
  6
JWW_CENTER1
 62
   120
370
     5
100
AcDbLine
 10
1307.819033462913
 20
2781.945997789481
 30
0.0
 11
1307.819033462913
 21
2528.529965804735
 31
0.0
  0
ARC
  5
9B
330
1F
100
AcDbEntity
  8
0-6_扉
  6
JWW_DASHED2
 62
    40
370
     5
100
AcDbCircle
 10
1325.767276046322
 20
2527.165932019539
 30
0.0
 40
18.0
100
AcDbArc
 50
94.34602072163928
 51
184.346020721639
  0
LINE
  5
9C
330
1F
100
AcDbEntity
  8
0-6_扉
  6
JWW_DASHED2
 62
    40
370
     5
100
AcDbLine
 10
1450.040940344981
 20
2554.662411099302
 30
0.0
 11
1324.403242261127
 21
2545.114174602948
 31
0.0
  0
ARC
  5
9D
330
1F
100
AcDbEntity
  8
0-6_扉
  6
JWW_DASHED2
 62
    40
370
     5
100
AcDbCircle
 10
1451.404974130172
 20
2536.714168515894
 30
0.0
 40
18.0
100
AcDbArc
 50
4.346020721638936
 51
94.34602072163932
  0
ARC
  5
9E
330
1F
100
AcDbEntity
  8
0-6_扉
  6
JWW_DASHED2
 62
    40
370
     5
100
AcDbCircle
 10
1776.683915935966
 20
2538.078202301088
 30
0.0
 40
18.0
100
AcDbArc
 50
85.65397927835929
 51
175.6539792783603
  0
LINE
  5
9F
330
1F
100
AcDbEntity
  8
0-6_扉
  6
JWW_DASHED2
 62
    40
370
     5
100
AcDbLine
 10
1903.685647805018
 20
2546.478208388137
 30
0.0
 11
1778.047949721162
 21
2556.026444884493
 31
0.0
  0
ARC
  5
A0
330
1F
100
AcDbEntity
  8
0-6_扉
  6
JWW_DASHED2
 62
    40
370
     5
100
AcDbCircle
 10
1902.321614019822
 20
2528.529965804728
 30
0.0
 40
18.0
100
AcDbArc
 50
355.6539792783596
 51
85.65397927835919
  0
LINE
  5
A1
330
1F
100
AcDbEntity
  8
0-6_扉
  6
JWW_DASHED2
 62
    40
370
     5
100
AcDbLine
 10
1307.819033462913
 20
2525.801898234345
 30
0.0
 11
1341.247221166133
 21
2085.94679454571
 31
0.0
  0
LINE
  5
A2
330
1F
100
AcDbEntity
  8
0-6_扉
  6
JWW_DASHED2
 62
    40
370
     5
100
AcDbLine
 10
1920.269856603231
 20
2527.165932019534
 30
0.0
 11
1886.738004813755
 21
2085.94679454571
 31
0.0
  0
LINE
  5
A3
330
1F
100
AcDbEntity
  8
0-6_扉
  6
JWW_DASHED2
 62
    40
370
     5
100
AcDbLine
 10
1469.35321671358
 20
2538.078202301088
 30
0.0
 11
1503.714381193019
 21
2085.94679454571
 31
0.0
  0
LINE
  5
A4
330
1F
100
AcDbEntity
  8
0-6_扉
  6
JWW_DASHED2
 62
    40
370
     5
100
AcDbLine
 10
1758.735673352564
 20
2539.44223608628
 30
0.0
 11
1724.270844786867
 21
2085.94679454571
 31
0.0
  0
LINE
  5
A5
330
1F
100
AcDbEntity
  8
0-6_扉
  6
Continuous
 62
   200
370
     5
100
AcDbLine
 10
1008.918883076072
 20
2442.947294374153
 30
0.0
 11
1008.918883076072
 21
2280.94599778948
 31
0.0
  0
LINE
  5
A6
330
1F
100
AcDbEntity
  8
0-6_扉
  6
Continuous
 62
   200
370
     5
100
AcDbLine
 10
1008.918883076072
 20
2280.94599778948
 30
0.0
 11
1473.919071750435
 21
2280.94599778948
 31
0.0
  0
LINE
  5
A7
330
1F
100
AcDbEntity
  8
0-6_扉
  6
Continuous
 62
   200
370
     5
100
AcDbLine
 10
1008.918883076072
 20
2442.947294374153
 30
0.0
 11
1473.919071750435
 21
2442.947294374153
 31
0.0
  0
LINE
  5
A8
330
1F
100
AcDbEntity
  8
0-0_補助線
  6
JWW_HOJO
 62
     7
370
     5
100
AcDbLine
 10
1473.919071750435
 20
2442.947294374153
 30
0.0
 11
1473.919071750435
 21
2280.94599778948
 31
0.0
  0
LINE
  5
A9
330
1F
100
AcDbEntity
  8
0-0_補助線
  6
JWW_HOJO
 62
     7
370
     5
100
AcDbLine
 10
1533.919071750435
 20
2442.947294374153
 30
0.0
 11
1533.919071750435
 21
2280.94599778948
 31
0.0
  0
LINE
  5
AA
330
1F
100
AcDbEntity
  8
0-6_扉
  6
Continuous
 62
   200
370
     5
100
AcDbLine
 10
1533.919071750435
 20
2280.94599778948
 30
0.0
 11
2016.918579965286
 21
2280.94599778948
 31
0.0
  0
LINE
  5
AB
330
1F
100
AcDbEntity
  8
0-6_扉
  6
Continuous
 62
   200
370
     5
100
AcDbLine
 10
1533.919071750435
 20
2442.947294374153
 30
0.0
 11
2016.918579965286
 21
2442.947294374153
 31
0.0
  0
LINE
  5
AC
330
1F
100
AcDbEntity
  8
0-6_扉
  6
Continuous
 62
   200
370
     5
100
AcDbLine
 10
2016.918530477324
 20
2442.947294374153
 30
0.0
 11
2016.918530477324
 21
2280.94599778948
 31
0.0
  0
LINE
  5
AD
330
1F
100
AcDbEntity
  8
0-6_扉
  6
Continuous
 62
   200
370
     5
100
AcDbLine
 10
2016.918579965286
 20
2442.947294374153
 30
0.0
 11
2016.918579965286
 21
2280.94599778948
 31
0.0
  0
LINE
  5
AE
330
1F
100
AcDbEntity
  8
0-0_補助線
  6
JWW_HOJO
 62
     7
370
     5
100
AcDbLine
 10
2001.919223308827
 20
906.945997789479
 30
0.0
 11
2001.919223308827
 21
3141.945997789481
 31
0.0
  0
CIRCLE
  5
AF
330
1F
100
AcDbEntity
  8
0-A_文字
  6
Continuous
 62
     7
370
     5
100
AcDbCircle
 10
1005.918845960102
 20
2472.945997789482
 30
0.0
 40
21.00000000000001
  0
CIRCLE
  5
B0
330
1F
100
AcDbEntity
  8
0-A_文字
  6
Continuous
 62
     7
370
     5
100
AcDbCircle
 10
1005.918845960102
 20
2472.945997789482
 30
0.0
 40
30.0
  0
LINE
  5
B1
330
1F
100
AcDbEntity
  8
0-6_扉
  6
Continuous
 62
   200
370
     5
100
AcDbLine
 10
1002.918883076073
 20
2442.947294374153
 30
0.0
 11
1002.918883076073
 21
2280.94599778948
 31
0.0
  0
LINE
  5
B2
330
1F
100
AcDbEntity
  8
0-6_扉
  6
Continuous
 62
   200
370
     5
100
AcDbLine
 10
537.918694401709
 20
2280.94599778948
 30
0.0
 11
1002.918883076073
 21
2280.94599778948
 31
0.0
  0
LINE
  5
B3
330
1F
100
AcDbEntity
  8
0-0_補助線
  6
JWW_HOJO
 62
     7
370
     5
100
AcDbLine
 10
537.918694401709
 20
2442.947294374153
 30
0.0
 11
537.918694401709
 21
2280.94599778948
 31
0.0
  0
LINE
  5
B4
330
1F
100
AcDbEntity
  8
0-6_扉
  6
Continuous
 62
   200
370
     5
100
AcDbLine
 10
537.918694401709
 20
2442.947294374153
 30
0.0
 11
1002.918883076073
 21
2442.947294374153
 31
0.0
  0
LINE
  5
B5
330
1F
100
AcDbEntity
  8
0-0_補助線
  6
JWW_HOJO
 62
     7
370
     5
100
AcDbLine
 10
477.918694401709
 20
2442.947294374153
 30
0.0
 11
477.918694401709
 21
2280.94599778948
 31
0.0
  0
LINE
  5
B6
330
1F
100
AcDbEntity
  8
0-6_扉
  6
Continuous
 62
   200
370
     5
100
AcDbLine
 10
15.9185428433176
 20
2442.947294374153
 30
0.0
 11
477.918694401709
 21
2442.947294374153
 31
0.0
  0
LINE
  5
B7
330
1F
100
AcDbEntity
  8
0-6_扉
  6
Continuous
 62
   200
370
     5
100
AcDbLine
 10
15.9185428433176
 20
2280.94599778948
 30
0.0
 11
477.918694401709
 21
2280.94599778948
 31
0.0
  0
LINE
  5
B8
330
1F
100
AcDbEntity
  8
0-6_扉
  6
Continuous
 62
   200
370
     5
100
AcDbLine
 10
15.9185428433176
 20
2280.94599778948
 30
0.0
 11
15.9185428433176
 21
2442.947294374153
 31
0.0
  0
LINE
  5
B9
330
1F
100
AcDbEntity
  8
0-B_寸法
  6
Continuous
 62
   120
370
     5
100
AcDbLine
 10
15.9185428433176
 20
1626.945997789481
 30
0.0
 11
1002.918883076073
 21
1626.945997789481
 31
0.0
  0
LWPOLYLINE
  5
BA
330
1F
100
AcDbEntity
  8
0-B_寸法
  6
Continuous
 62
     7
370
     5
100
AcDbPolyline
 90
        4
 70
     1
 43
3.0
 10
17.4185428433176
 20
1626.945997789481
 42
0.4142135623731
 10
15.9185428433176
 20
1628.445997789481
 42
0.4142135623731
 10
14.4185428433176
 20
1626.945997789481
 42
0.4142135623731
 10
15.9185428433176
 20
1625.445997789481
 42
0.4142135623731
  0
LWPOLYLINE
  5
BB
330
1F
100
AcDbEntity
  8
0-B_寸法
  6
Continuous
 62
     7
370
     5
100
AcDbPolyline
 90
        4
 70
     1
 43
3.0
 10
1004.418883076073
 20
1626.945997789481
 42
0.4142135623731
 10
1002.918883076073
 20
1628.445997789481
 42
0.4142135623731
 10
1001.418883076073
 20
1626.945997789481
 42
0.4142135623731
 10
1002.918883076073
 20
1625.445997789481
 42
0.4142135623731
  0
LINE
  5
BC
330
1F
100
AcDbEntity
  8
0-B_寸法
  6
Continuous
 62
   120
370
     5
100
AcDbLine
 10
1002.918883076073
 20
1626.945997789481
 30
0.0
 11
1002.918883076073
 21
1806.945997789481
 31
0.0
  0
LWPOLYLINE
  5
BD
330
1F
100
AcDbEntity
  8
0-B_寸法
  6
Continuous
 62
     7
370
     5
100
AcDbPolyline
 90
        4
 70
     1
 43
3.0
 10
17.4185428433176
 20
1446.945997789481
 42
0.4142135623731
 10
15.9185428433176
 20
1448.445997789481
 42
0.4142135623731
 10
14.4185428433176
 20
1446.945997789481
 42
0.4142135623731
 10
15.9185428433176
 20
1445.445997789481
 42
0.4142135623731
  0
LINE
  5
BE
330
1F
100
AcDbEntity
  8
0-B_寸法
  6
Continuous
 62
   120
370
     5
100
AcDbLine
 10
15.9185428433176
 20
1446.945997789481
 30
0.0
 11
15.9185428433176
 21
1806.945997789481
 31
0.0
  0
MTEXT
  5
BF
330
1F
100
AcDbEntity
  8
0-B_寸法
  6
Continuous
 62
     7
370
   211
100
AcDbMText
 10
179.4187129596952
 20
1627.665997789481
 30
0.0
 40
91.43999999999997
 41
660.0
 46
0.0
 71
     7
 72
     1
  1
{\fＭＳ ゴシック|b0|i0|c128|p49;ＤＷ＝282.5}
 73
     1
 44
1.0
  0
MTEXT
  5
C0
330
1F
100
AcDbEntity
  8
0-B_寸法
  6
Continuous
 62
     7
370
   211
100
AcDbMText
 10
566.4185242883311
 20
1447.665997789481
 30
0.0
 40
91.43999999999998
 41
900.0
 46
0.0
 71
     7
 72
     1
  1
{\fＭＳ ゴシック|b0|i0|c128|p49;折戸：ＤＷ＝566}
 73
     1
 44
1.0
  0
LINE
  5
C1
330
1F
100
AcDbEntity
  8
0-B_寸法
  6
Continuous
 62
   120
370
     5
100
AcDbLine
 10
-2012.081444790688
 20
2324.36004749702
 30
0.0
 11
-1997.081444790688
 21
2324.36004749702
 31
0.0
  0
LINE
  5
C2
330
1F
100
AcDbEntity
  8
0-B_寸法
  6
Continuous
 62
   120
370
     5
100
AcDbLine
 10
-2012.081444790688
 20
2405.689310720205
 30
0.0
 11
-2012.081444790688
 21
2324.36004749702
 31
0.0
  0
LWPOLYLINE
  5
C3
330
1F
100
AcDbEntity
  8
0-B_寸法
  6
Continuous
 62
     7
370
     5
100
AcDbPolyline
 90
        4
 70
     1
 43
3.0
 10
-2010.581444790688
 20
2324.36004749702
 42
0.4142135623731
 10
-2012.081444790688
 20
2325.86004749702
 42
0.4142135623731
 10
-2013.581444790688
 20
2324.36004749702
 42
0.4142135623731
 10
-2012.081444790688
 20
2322.86004749702
 42
0.4142135623731
  0
LINE
  5
C4
330
1F
100
AcDbEntity
  8
0-0_補助線
  6
JWW_HOJO
 62
   120
370
     5
100
AcDbLine
 10
-2762.081197362861
 20
2961.945997789481
 30
0.0
 11
-2762.081197362861
 21
1086.945997789479
 31
0.0
  0
LINE
  5
C5
330
1F
100
AcDbEntity
  8
0-B_寸法
  6
Continuous
 62
   120
370
     5
100
AcDbLine
 10
-2162.081395314724
 20
1806.945997789481
 30
0.0
 11
-2162.081395314724
 21
1986.945997789481
 31
0.0
  0
LINE
  5
C6
330
1F
100
AcDbEntity
  8
0-B_寸法
  6
Continuous
 62
   120
370
     5
100
AcDbLine
 10
-2126.081395314723
 20
1806.945997789481
 30
0.0
 11
-2126.081395314723
 21
1986.945997789481
 31
0.0
  0
LINE
  5
C7
330
1F
100
AcDbEntity
  8
0-B_寸法
  6
Continuous
 62
   120
370
     5
100
AcDbLine
 10
-2072.081395314724
 20
1806.945997789481
 30
0.0
 11
-2072.081395314724
 21
1986.945997789481
 31
0.0
  0
LINE
  5
C8
330
1F
100
AcDbEntity
  8
0-B_寸法
  6
Continuous
 62
   120
370
     5
100
AcDbLine
 10
-2012.081395314724
 20
1806.945997789481
 30
0.0
 11
-2192.081618010561
 21
1806.945997789481
 31
0.0
  0
LWPOLYLINE
  5
C9
330
1F
100
AcDbEntity
  8
0-B_寸法
  6
Continuous
 62
     7
370
     5
100
AcDbPolyline
 90
        4
 70
     1
 43
3.0
 10
-2190.581618010561
 20
1806.945997789481
 42
0.4142135623731
 10
-2192.081618010561
 20
1808.445997789481
 42
0.4142135623731
 10
-2193.581618010561
 20
1806.945997789481
 42
0.4142135623731
 10
-2192.081618010561
 20
1805.445997789481
 42
0.4142135623731
  0
LWPOLYLINE
  5
CA
330
1F
100
AcDbEntity
  8
0-B_寸法
  6
Continuous
 62
     7
370
     5
100
AcDbPolyline
 90
        4
 70
     1
 43
3.0
 10
-2160.581395314724
 20
1806.945997789481
 42
0.4142135623731
 10
-2162.081395314724
 20
1808.445997789481
 42
0.4142135623731
 10
-2163.581395314724
 20
1806.945997789481
 42
0.4142135623731
 10
-2162.081395314724
 20
1805.445997789481
 42
0.4142135623731
  0
LWPOLYLINE
  5
CB
330
1F
100
AcDbEntity
  8
0-B_寸法
  6
Continuous
 62
     7
370
     5
100
AcDbPolyline
 90
        4
 70
     1
 43
3.0
 10
-2124.581395314723
 20
1806.945997789481
 42
0.4142135623731
 10
-2126.081395314723
 20
1808.445997789481
 42
0.4142135623731
 10
-2127.581395314723
 20
1806.945997789481
 42
0.4142135623731
 10
-2126.081395314723
 20
1805.445997789481
 42
0.4142135623731
  0
LWPOLYLINE
  5
CC
330
1F
100
AcDbEntity
  8
0-B_寸法
  6
Continuous
 62
     7
370
     5
100
AcDbPolyline
 90
        4
 70
     1
 43
3.0
 10
-2070.581395314724
 20
1806.945997789481
 42
0.4142135623731
 10
-2072.081395314724
 20
1808.445997789481
 42
0.4142135623731
 10
-2073.581395314724
 20
1806.945997789481
 42
0.4142135623731
 10
-2072.081395314724
 20
1805.445997789481
 42
0.4142135623731
  0
LWPOLYLINE
  5
CD
330
1F
100
AcDbEntity
  8
0-B_寸法
  6
Continuous
 62
     7
370
     5
100
AcDbPolyline
 90
        4
 70
     1
 43
3.0
 10
-2010.581395314724
 20
1806.945997789481
 42
0.4142135623731
 10
-2012.081395314724
 20
1808.445997789481
 42
0.4142135623731
 10
-2013.581395314724
 20
1806.945997789481
 42
0.4142135623731
 10
-2012.081395314724
 20
1805.445997789481
 42
0.4142135623731
  0
LINE
  5
CE
330
1F
100
AcDbEntity
  8
0-C_ハッチ
  6
Continuous
 62
   120
370
     5
100
AcDbLine
 10
-2192.081667486532
 20
2206.622701165219
 30
0.0
 11
-2126.081444790686
 21
2140.622845865954
 31
0.0
  0
LINE
  5
CF
330
1F
100
AcDbEntity
  8
0-4_枠
  6
Continuous
 62
    92
370
     5
100
AcDbLine
 10
-2072.081444790688
 20
2145.946794545712
 30
0.0
 11
-2072.081444790688
 21
2085.94679454571
 31
0.0
  0
LINE
  5
D0
330
1F
100
AcDbEntity
  8
0-4_枠
  6
Continuous
 62
    92
370
     5
100
AcDbLine
 10
-2072.081444790688
 20
2145.946794545712
 30
0.0
 11
-2126.081444790686
 21
2145.946794545712
 31
0.0
  0
LINE
  5
D1
330
1F
100
AcDbEntity
  8
0-4_枠
  6
Continuous
 62
    92
370
     5
100
AcDbLine
 10
-2126.081444790686
 20
2145.946794545712
 30
0.0
 11
-2126.081444790686
 21
2085.94679454571
 31
0.0
  0
LINE
  5
D2
330
1F
100
AcDbEntity
  8
0-C_ハッチ
  6
Continuous
 62
   120
370
     5
100
AcDbLine
 10
-2192.081444790688
 20
2588.279052834935
 30
0.0
 11
-2190.414554272907
 21
2589.945943352714
 31
0.0
  0
LINE
  5
D3
330
1F
100
AcDbEntity
  8
0-4_枠
  6
Continuous
 62
    92
370
     5
100
AcDbLine
 10
-2018.081444790686
 20
2637.945943352719
 30
0.0
 11
-2012.081444790688
 21
2631.945943352719
 31
0.0
  0
LINE
  5
D4
330
1F
100
AcDbEntity
  8
0-4_枠
  6
Continuous
 62
    92
370
     5
100
AcDbLine
 10
-2012.081444790688
 20
2631.945943352719
 30
0.0
 11
-2012.081444790688
 21
2091.94679454571
 31
0.0
  0
LINE
  5
D5
330
1F
100
AcDbEntity
  8
0-4_枠
  6
Continuous
 62
    92
370
     5
100
AcDbLine
 10
-2018.081444790686
 20
2637.945943352719
 30
0.0
 11
-2192.081444790688
 21
2637.945943352719
 31
0.0
  0
LINE
  5
D6
330
1F
100
AcDbEntity
  8
0-4_枠
  6
Continuous
 62
    92
370
     5
100
AcDbLine
 10
-2012.081444790688
 20
2091.94679454571
 30
0.0
 11
-2018.081444790686
 21
2085.94679454571
 31
0.0
  0
LINE
  5
D7
330
1F
100
AcDbEntity
  8
0-4_枠
  6
Continuous
 62
    92
370
     5
100
AcDbLine
 10
-2018.081444790686
 20
2085.94679454571
 30
0.0
 11
-2072.081444790688
 21
2085.94679454571
 31
0.0
  0
LINE
  5
D8
330
1F
100
AcDbEntity
  8
0-C_ハッチ
  6
Continuous
 62
   120
370
     5
100
AcDbLine
 10
-2162.081444790688
 20
2091.769591731948
 30
0.0
 11
-2156.258615191111
 21
2085.94679454571
 31
0.0
  0
LINE
  5
D9
330
1F
100
AcDbEntity
  8
0-C_ハッチ
  6
Continuous
 62
   120
370
     5
100
AcDbLine
 10
-2192.081667486532
 20
2546.034173795075
 30
0.0
 11
-2012.081444790688
 21
2366.033579939502
 31
0.0
  0
LINE
  5
DA
330
1F
100
AcDbEntity
  8
0-C_ハッチ
  6
Continuous
 62
   120
370
     5
100
AcDbLine
 10
-2012.081444790688
 20
2196.328214784307
 30
0.0
 11
-2192.081667486532
 21
2376.328808639882
 31
0.0
  0
LINE
  5
DB
330
1F
100
AcDbEntity
  8
0-C_ハッチ
  6
Continuous
 62
   120
370
     5
100
AcDbLine
 10
-2012.081444790688
 20
2281.181268521637
 30
0.0
 11
-2192.081667486532
 21
2461.181120057744
 31
0.0
  0
LINE
  5
DC
330
1F
100
AcDbEntity
  8
0-C_ハッチ
  6
Continuous
 62
   120
370
     5
100
AcDbLine
 10
-2192.081667486532
 20
2291.47575490255
 30
0.0
 11
-2012.081444790688
 21
2111.475903366444
 31
0.0
  0
LINE
  5
DD
330
1F
100
AcDbEntity
  8
0-C_ハッチ
  6
Continuous
 62
   120
370
     5
100
AcDbLine
 10
-2192.081667486532
 20
2630.887227532407
 30
0.0
 11
-2012.081444790688
 21
2450.887375996299
 31
0.0
  0
LINE
  5
DE
330
1F
100
AcDbEntity
  8
0-C_ハッチ
  6
Continuous
 62
   120
370
     5
100
AcDbLine
 10
-2114.287700729244
 20
2637.945943352719
 30
0.0
 11
-2012.081444790688
 21
2535.740429733632
 31
0.0
  0
LINE
  5
DF
330
1F
100
AcDbEntity
  8
0-4_枠
  6
Continuous
 62
    92
370
     5
100
AcDbLine
 10
-2126.081444790686
 20
2085.94679454571
 30
0.0
 11
-2162.081444790688
 21
2085.94679454571
 31
0.0
  0
LINE
  5
E0
330
1F
100
AcDbEntity
  8
0-4_枠
  6
Continuous
 62
    92
370
     5
100
AcDbLine
 10
-2162.081444790688
 20
2127.946794545711
 30
0.0
 11
-2162.081444790688
 21
2085.94679454571
 31
0.0
  0
LINE
  5
E1
330
1F
100
AcDbEntity
  8
0-4_枠
  6
Continuous
 62
    92
370
     5
100
AcDbLine
 10
-2162.081444790688
 20
2127.946794545711
 30
0.0
 11
-2192.081444790688
 21
2127.946794545711
 31
0.0
  0
LINE
  5
E2
330
1F
100
AcDbEntity
  8
0-4_枠
  6
Continuous
 62
    92
370
     5
100
AcDbLine
 10
-2192.081444790688
 20
2637.945943352719
 30
0.0
 11
-2192.081444790688
 21
2127.946794545711
 31
0.0
  0
LINE
  5
E3
330
1F
100
AcDbEntity
  8
0-7_金物
  6
Continuous
 62
     7
370
     5
100
AcDbLine
 10
-2210.081107189972
 20
2271.945694521051
 30
0.0
 11
-2210.081107189972
 21
2451.945557191944
 31
0.0
  0
LINE
  5
E4
330
1F
100
AcDbEntity
  8
0-7_金物
  6
Continuous
 62
     7
370
     5
100
AcDbLine
 10
-2222.081444790678
 20
2451.945557191944
 30
0.0
 11
-2210.081107189972
 21
2451.945557191944
 31
0.0
  0
LINE
  5
E5
330
1F
100
AcDbEntity
  8
0-7_金物
  6
Continuous
 62
     7
370
     5
100
AcDbLine
 10
-2222.081444790678
 20
2271.945694521051
 30
0.0
 11
-2210.081107189972
 21
2271.945694521051
 31
0.0
  0
LINE
  5
E6
330
1F
100
AcDbEntity
  8
0-7_金物
  6
Continuous
 62
     7
370
     5
100
AcDbLine
 10
-2222.081444790678
 20
2271.945694521051
 30
0.0
 11
-2222.081444790678
 21
2451.945557191944
 31
0.0
  0
LINE
  5
E7
330
1F
100
AcDbEntity
  8
0-7_金物
  6
Continuous
 62
     7
370
     5
100
AcDbLine
 10
-2210.081107189972
 20
2301.945797517874
 30
0.0
 11
-2198.081513455229
 21
2301.945797517874
 31
0.0
  0
LINE
  5
E8
330
1F
100
AcDbEntity
  8
0-7_金物
  6
Continuous
 62
     7
370
     5
100
AcDbLine
 10
-2210.081107189972
 20
2421.94545419512
 30
0.0
 11
-2198.081513455229
 21
2421.94545419512
 31
0.0
  0
LINE
  5
E9
330
1F
100
AcDbEntity
  8
0-7_金物
  6
Continuous
 62
     7
370
     5
100
AcDbLine
 10
-2198.081513455229
 20
2301.945797517874
 30
0.0
 11
-2198.081513455229
 21
2421.94545419512
 31
0.0
  0
LINE
  5
EA
330
1F
100
AcDbEntity
  8
0-7_金物
  6
Continuous
 62
     7
370
     5
100
AcDbLine
 10
-2198.081513455229
 20
2307.945963457205
 30
0.0
 11
-2192.081444790688
 21
2307.945963457205
 31
0.0
  0
LINE
  5
EB
330
1F
100
AcDbEntity
  8
0-7_金物
  6
Continuous
 62
     7
370
     5
100
AcDbLine
 10
-2192.081444790688
 20
2415.946032121756
 30
0.0
 11
-2198.081513455229
 21
2415.946032121756
 31
0.0
  0
MTEXT
  5
EC
330
1F
100
AcDbEntity
  8
0-B_寸法
  6
Continuous
 62
     7
370
   211
100
AcDbMText
 10
-2129.081395314719
 20
1807.665997789481
 30
0.0
 40
91.44
 41
60.0
 46
0.0
 71
     7
 72
     1
  1
{\fＭＳ ゴシック|b0|i0|c128|p49;9}
 73
     1
 44
1.0
  0
LINE
  5
ED
330
1F
100
AcDbEntity
  8
0-B_寸法
  6
Continuous
 62
   120
370
     5
100
AcDbLine
 10
-2192.081444790688
 20
1266.945997789479
 30
0.0
 11
-2012.081444790688
 21
1266.945997789479
 31
0.0
  0
LWPOLYLINE
  5
EE
330
1F
100
AcDbEntity
  8
0-B_寸法
  6
Continuous
 62
     7
370
     5
100
AcDbPolyline
 90
        4
 70
     1
 43
3.0
 10
-2190.581444790688
 20
1266.945997789479
 42
0.4142135623731
 10
-2192.081444790688
 20
1268.445997789479
 42
0.4142135623731
 10
-2193.581444790688
 20
1266.945997789479
 42
0.4142135623731
 10
-2192.081444790688
 20
1265.445997789479
 42
0.4142135623731
  0
LWPOLYLINE
  5
EF
330
1F
100
AcDbEntity
  8
0-B_寸法
  6
Continuous
 62
     7
370
     5
100
AcDbPolyline
 90
        4
 70
     1
 43
3.0
 10
-2010.581444790688
 20
1266.945997789479
 42
0.4142135623731
 10
-2012.081444790688
 20
1268.445997789479
 42
0.4142135623731
 10
-2013.581444790688
 20
1266.945997789479
 42
0.4142135623731
 10
-2012.081444790688
 20
1265.445997789479
 42
0.4142135623731
  0
LINE
  5
F0
330
1F
100
AcDbEntity
  8
0-B_寸法
  6
Continuous
 62
   120
370
     5
100
AcDbLine
 10
-2012.081444790688
 20
1266.945997789479
 30
0.0
 11
-2012.081444790688
 21
1986.945997789481
 31
0.0
  0
MTEXT
  5
F1
330
1F
100
AcDbEntity
  8
0-B_寸法
  6
Continuous
 62
     7
370
   211
100
AcDbMText
 10
-2162.081444790687
 20
1267.665997789479
 30
0.0
 40
91.44
 41
120.0
 46
0.0
 71
     7
 72
     1
  1
{\fＭＳ ゴシック|b0|i0|c128|p49;30}
 73
     1
 44
1.0
  0
LINE
  5
F2
330
1F
100
AcDbEntity
  8
0-B_寸法
  6
Continuous
 62
   120
370
     5
100
AcDbLine
 10
-2222.081444790678
 20
1086.945997789479
 30
0.0
 11
-2192.081444790688
 21
1086.945997789479
 31
0.0
  0
LWPOLYLINE
  5
F3
330
1F
100
AcDbEntity
  8
0-B_寸法
  6
Continuous
 62
     7
370
     5
100
AcDbPolyline
 90
        4
 70
     1
 43
3.0
 10
-2220.581444790678
 20
1086.945997789479
 42
0.4142135623731
 10
-2222.081444790678
 20
1088.445997789479
 42
0.4142135623731
 10
-2223.581444790678
 20
1086.945997789479
 42
0.4142135623731
 10
-2222.081444790678
 20
1085.445997789479
 42
0.4142135623731
  0
LWPOLYLINE
  5
F4
330
1F
100
AcDbEntity
  8
0-B_寸法
  6
Continuous
 62
     7
370
     5
100
AcDbPolyline
 90
        4
 70
     1
 43
3.0
 10
-2190.581444790688
 20
1086.945997789479
 42
0.4142135623731
 10
-2192.081444790688
 20
1088.445997789479
 42
0.4142135623731
 10
-2193.581444790688
 20
1086.945997789479
 42
0.4142135623731
 10
-2192.081444790688
 20
1085.445997789479
 42
0.4142135623731
  0
LINE
  5
F5
330
1F
100
AcDbEntity
  8
0-B_寸法
  6
Continuous
 62
   120
370
     5
100
AcDbLine
 10
-2222.081444790678
 20
1086.945997789479
 30
0.0
 11
-2222.081444790678
 21
1986.945997789481
 31
0.0
  0
LINE
  5
F6
330
1F
100
AcDbEntity
  8
0-B_寸法
  6
Continuous
 62
   120
370
     5
100
AcDbLine
 10
-2192.081444790688
 20
1086.945997789479
 30
0.0
 11
-2192.081444790688
 21
1986.945997789481
 31
0.0
  0
LINE
  5
F7
330
1F
100
AcDbEntity
  8
0-B_寸法
  6
Continuous
 62
   120
370
     5
100
AcDbLine
 10
-1997.081444790688
 20
2405.689310720205
 30
0.0
 11
-1997.081444790688
 21
2324.36004749702
 31
0.0
  0
LWPOLYLINE
  5
F8
330
1F
100
AcDbEntity
  8
0-B_寸法
  6
Continuous
 62
     7
370
     5
100
AcDbPolyline
 90
        4
 70
     1
 43
3.0
 10
-1995.581444790688
 20
2324.36004749702
 42
0.4142135623731
 10
-1997.081444790688
 20
2325.86004749702
 42
0.4142135623731
 10
-1998.581444790688
 20
2324.36004749702
 42
0.4142135623731
 10
-1997.081444790688
 20
2322.86004749702
 42
0.4142135623731
  0
LINE
  5
F9
330
1F
100
AcDbEntity
  8
0-0_補助線
  6
JWW_HOJO
 62
     7
370
     5
100
AcDbLine
 10
-1982.082137622195
 20
906.945997789479
 30
0.0
 11
-1982.082137622195
 21
3141.945997789481
 31
0.0
  0
LINE
  5
FA
330
1F
100
AcDbEntity
  8
0-1_通り芯
  6
JWW_CENTER1
 62
   120
370
     5
100
AcDbLine
 10
-1287.981947776276
 20
2781.945997789481
 30
0.0
 11
-1287.981947776276
 21
2528.529965804735
 31
0.0
  0
LINE
  5
FB
330
1F
100
AcDbEntity
  8
0-B_寸法
  6
Continuous
 62
   120
370
     5
100
AcDbLine
 10
-1287.981947776276
 20
2961.945997789481
 30
0.0
 11
-1287.981947776276
 21
2781.945997789481
 31
0.0
  0
LWPOLYLINE
  5
FC
330
1F
100
AcDbEntity
  8
0-B_寸法
  6
Continuous
 62
     7
370
     5
100
AcDbPolyline
 90
        4
 70
     1
 43
3.0
 10
-1286.481947776276
 20
2961.945997789481
 42
0.4142135623731
 10
-1287.981947776276
 20
2963.44599778948
 42
0.4142135623731
 10
-1289.481947776276
 20
2961.945997789481
 42
0.4142135623731
 10
-1287.981947776276
 20
2960.445997789481
 42
0.4142135623731
  0
LINE
  5
FD
330
1F
100
AcDbEntity
  8
0-6_扉
  6
JWW_DASHED2
 62
    40
370
     5
100
AcDbLine
 10
-1738.898587665927
 20
2539.44223608628
 30
0.0
 11
-1704.433759100231
 21
2085.94679454571
 31
0.0
  0
LINE
  5
FE
330
1F
100
AcDbEntity
  8
0-6_扉
  6
JWW_DASHED2
 62
    40
370
     5
100
AcDbLine
 10
-1449.516131026946
 20
2538.078202301088
 30
0.0
 11
-1483.877295506386
 21
2085.94679454571
 31
0.0
  0
LINE
  5
FF
330
1F
100
AcDbEntity
  8
0-6_扉
  6
JWW_DASHED2
 62
    40
370
     5
100
AcDbLine
 10
-1900.432770916594
 20
2527.165932019534
 30
0.0
 11
-1866.90091912712
 21
2085.94679454571
 31
0.0
  0
LINE
  5
100
330
1F
100
AcDbEntity
  8
0-6_扉
  6
JWW_DASHED2
 62
    40
370
     5
100
AcDbLine
 10
-1287.981947776276
 20
2525.801898234345
 30
0.0
 11
-1321.410135479497
 21
2085.94679454571
 31
0.0
  0
ARC
  5
101
330
1F
100
AcDbEntity
  8
0-6_扉
  6
JWW_DASHED2
 62
    40
370
     5
100
AcDbCircle
 10
-1882.484528333189
 20
2528.529965804728
 30
0.0
 40
18.0
100
AcDbArc
 50
94.34602072164084
 51
184.3460207216404
  0
LINE
  5
102
330
1F
100
AcDbEntity
  8
0-6_扉
  6
JWW_DASHED2
 62
    40
370
     5
100
AcDbLine
 10
-1883.848562118382
 20
2546.478208388137
 30
0.0
 11
-1758.210864034526
 21
2556.026444884493
 31
0.0
  0
ARC
  5
103
330
1F
100
AcDbEntity
  8
0-6_扉
  6
JWW_DASHED2
 62
    40
370
     5
100
AcDbCircle
 10
-1756.846830249333
 20
2538.078202301088
 30
0.0
 40
18.0
100
AcDbArc
 50
4.346020721639738
 51
94.3460207216407
  0
ARC
  5
104
330
1F
100
AcDbEntity
  8
0-6_扉
  6
JWW_DASHED2
 62
    40
370
     5
100
AcDbCircle
 10
-1431.567888443537
 20
2536.714168515894
 30
0.0
 40
18.0
100
AcDbArc
 50
85.6539792783607
 51
175.6539792783611
  0
LINE
  5
105
330
1F
100
AcDbEntity
  8
0-6_扉
  6
JWW_DASHED2
 62
    40
370
     5
100
AcDbLine
 10
-1430.203854658344
 20
2554.662411099302
 30
0.0
 11
-1304.566156574492
 21
2545.114174602948
 31
0.0
  0
ARC
  5
106
330
1F
100
AcDbEntity
  8
0-6_扉
  6
JWW_DASHED2
 62
    40
370
     5
100
AcDbCircle
 10
-1305.930190359685
 20
2527.165932019539
 30
0.0
 40
18.0
100
AcDbArc
 50
355.653979278361
 51
85.65397927836072
  0
MTEXT
  5
107
330
1F
100
AcDbEntity
  8
0-B_寸法
  6
Continuous
 62
     7
370
     5
100
AcDbMText
 10
-1987.002075020878
 20
2311.829482386354
 30
0.0
 40
91.43999999999988
 41
179.9999999999998
 46
0.0
 71
     7
 72
     1
  1
{\fＭＳ ゴシック|b0|i0|c128|p49;2.5}
 73
     1
 44
1.0
  0
MTEXT
  5
108
330
1F
100
AcDbEntity
  8
0-B_寸法
  6
Continuous
 62
     7
370
     5
100
AcDbMText
 10
-1572.38070504623
 20
2287.875614365156
 30
0.0
 40
91.44
 41
120.0
 46
0.0
 71
     7
 72
     1
  1
{\fＭＳ ゴシック|b0|i0|c128|p49;92}
 11
6.123031769111886E-17
 21
1.0
 31
0.0
 73
     1
 44
1.0
  0
LINE
  5
109
330
1F
100
AcDbEntity
  8
0-B_寸法
  6
Continuous
 62
   120
370
     5
100
AcDbLine
 10
-1557.379542079068
 20
2085.94679454571
 30
0.0
 11
-1557.379542079068
 21
2637.945943352719
 31
0.0
  0
LINE
  5
10A
330
1F
100
AcDbEntity
  8
0-B_寸法
  6
Continuous
 62
   120
370
     5
100
AcDbLine
 10
-1676.155110860736
 20
2637.945943352719
 30
0.0
 11
-1557.379542079068
 21
2637.945943352719
 31
0.0
  0
LWPOLYLINE
  5
10B
330
1F
100
AcDbEntity
  8
0-B_寸法
  6
Continuous
 62
     7
370
     5
100
AcDbPolyline
 90
        4
 70
     1
 43
3.0
 10
-1555.879542079068
 20
2637.945943352719
 42
0.4142135623731
 10
-1557.379542079068
 20
2639.445943352719
 42
0.4142135623731
 10
-1558.879542079068
 20
2637.945943352719
 42
0.4142135623731
 10
-1557.379542079068
 20
2636.445943352719
 42
0.4142135623731
  0
LINE
  5
10C
330
1F
100
AcDbEntity
  8
0-B_寸法
  6
Continuous
 62
   120
370
     5
100
AcDbLine
 10
-1676.155110860736
 20
2085.94679454571
 30
0.0
 11
-1557.379542079068
 21
2085.94679454571
 31
0.0
  0
LWPOLYLINE
  5
10D
330
1F
100
AcDbEntity
  8
0-B_寸法
  6
Continuous
 62
     7
370
     5
100
AcDbPolyline
 90
        4
 70
     1
 43
3.0
 10
-1555.879542079068
 20
2085.94679454571
 42
0.4142135623731
 10
-1557.379542079068
 20
2087.44679454571
 42
0.4142135623731
 10
-1558.879542079068
 20
2085.94679454571
 42
0.4142135623731
 10
-1557.379542079068
 20
2084.44679454571
 42
0.4142135623731
  0
LINE
  5
10E
330
1F
100
AcDbEntity
  8
0-6_扉
  6
Continuous
 62
   200
370
     5
100
AcDbLine
 10
-1997.081444790688
 20
2442.947294374153
 30
0.0
 11
-1997.081444790688
 21
2280.94599778948
 31
0.0
  0
LINE
  5
10F
330
1F
100
AcDbEntity
  8
0-0_補助線
  6
JWW_HOJO
 62
     7
370
     5
100
AcDbLine
 10
-1454.0819860638
 20
2442.947294374153
 30
0.0
 11
-1454.0819860638
 21
2280.94599778948
 31
0.0
  0
LINE
  5
110
330
1F
100
AcDbEntity
  8
0-0_補助線
  6
JWW_HOJO
 62
     7
370
     5
100
AcDbLine
 10
-1514.0819860638
 20
2442.947294374153
 30
0.0
 11
-1514.0819860638
 21
2280.94599778948
 31
0.0
  0
LINE
  5
111
330
1F
100
AcDbEntity
  8
0-6_扉
  6
Continuous
 62
   200
370
     5
100
AcDbLine
 10
-1997.081444790688
 20
2442.947294374153
 30
0.0
 11
-1514.0819860638
 21
2442.947294374153
 31
0.0
  0
LINE
  5
112
330
1F
100
AcDbEntity
  8
0-6_扉
  6
Continuous
 62
   200
370
     5
100
AcDbLine
 10
-1997.081444790688
 20
2280.94599778948
 30
0.0
 11
-1514.0819860638
 21
2280.94599778948
 31
0.0
  0
MTEXT
  5
113
330
1F
100
AcDbEntity
  8
0-B_寸法
  6
Continuous
 62
     7
370
     0
100
AcDbMText
 10
-1332.705484511203
 20
2285.415225777234
 30
0.0
 40
91.44
 41
120.0
 46
0.0
 71
     7
 72
     1
  1
{\fＭＳ ゴシック|b0|i0|c128|p49;27}
 11
6.123031769111886E-17
 21
1.0
 31
0.0
 73
     1
 44
1.0
  0
MTEXT
  5
114
330
1F
100
AcDbEntity
  8
0-B_寸法
  6
Continuous
 62
     7
370
     0
100
AcDbMText
 10
-1170.413539509702
 20
2225.415225777234
 30
0.0
 40
91.44
 41
240.0
 46
0.0
 71
     7
 72
     1
  1
{\fＭＳ ゴシック|b0|i0|c128|p49;(24)}
 11
6.123031769111886E-17
 21
1.0
 31
0.0
 73
     1
 44
1.0
  0
LINE
  5
115
330
1F
100
AcDbEntity
  8
0-B_寸法
  6
Continuous
 62
   120
370
     5
100
AcDbLine
 10
-1317.705435023241
 20
2280.945354445942
 30
0.0
 11
-1317.705435023241
 21
2442.945997789482
 31
0.0
  0
LWPOLYLINE
  5
116
330
1F
100
AcDbEntity
  8
0-B_寸法
  6
Continuous
 62
     7
370
     5
100
AcDbPolyline
 90
        4
 70
     1
 43
3.0
 10
-1316.205435023241
 20
2442.945997789482
 42
0.4142135623731
 10
-1317.705435023241
 20
2444.445997789482
 42
0.4142135623731
 10
-1319.205435023241
 20
2442.945997789482
 42
0.4142135623731
 10
-1317.705435023241
 20
2441.445997789482
 42
0.4142135623731
  0
LWPOLYLINE
  5
117
330
1F
100
AcDbEntity
  8
0-B_寸法
  6
Continuous
 62
     7
370
     5
100
AcDbPolyline
 90
        4
 70
     1
 43
3.0
 10
-1316.205435023241
 20
2280.94599778948
 42
0.4142135623731
 10
-1317.705435023241
 20
2282.44599778948
 42
0.4142135623731
 10
-1319.205435023241
 20
2280.94599778948
 42
0.4142135623731
 10
-1317.705435023241
 20
2279.44599778948
 42
0.4142135623731
  0
LINE
  5
118
330
1F
100
AcDbEntity
  8
0-6_扉
  6
Continuous
 62
   200
370
     5
100
AcDbLine
 10
-989.0817973894375
 20
2442.947294374153
 30
0.0
 11
-989.0817973894375
 21
2280.94599778948
 31
0.0
  0
LINE
  5
119
330
1F
100
AcDbEntity
  8
0-6_扉
  6
Continuous
 62
   200
370
     5
100
AcDbLine
 10
-1454.0819860638
 20
2442.947294374153
 30
0.0
 11
-989.0817973894375
 21
2442.947294374153
 31
0.0
  0
LINE
  5
11A
330
1F
100
AcDbEntity
  8
0-6_扉
  6
Continuous
 62
   200
370
     5
100
AcDbLine
 10
-1454.0819860638
 20
2280.94599778948
 30
0.0
 11
-989.0817973894375
 21
2280.94599778948
 31
0.0
  0
LINE
  5
11B
330
1F
100
AcDbEntity
  8
0-B_寸法
  6
Continuous
 62
   120
370
     5
100
AcDbLine
 10
-1997.081543754618
 20
1626.945997789481
 30
0.0
 11
-989.0817973894375
 21
1626.945997789481
 31
0.0
  0
LWPOLYLINE
  5
11C
330
1F
100
AcDbEntity
  8
0-B_寸法
  6
Continuous
 62
     7
370
     5
100
AcDbPolyline
 90
        4
 70
     1
 43
3.0
 10
-1995.581543754618
 20
1626.945997789481
 42
0.4142135623731
 10
-1997.081543754618
 20
1628.445997789481
 42
0.4142135623731
 10
-1998.581543754617
 20
1626.945997789481
 42
0.4142135623731
 10
-1997.081543754618
 20
1625.445997789481
 42
0.4142135623731
  0
LWPOLYLINE
  5
11D
330
1F
100
AcDbEntity
  8
0-B_寸法
  6
Continuous
 62
     7
370
     5
100
AcDbPolyline
 90
        4
 70
     1
 43
3.0
 10
-987.5817973894375
 20
1626.945997789481
 42
0.4142135623731
 10
-989.0817973894375
 20
1628.445997789481
 42
0.4142135623731
 10
-990.5817973894374
 20
1626.945997789481
 42
0.4142135623731
 10
-989.0817973894375
 20
1625.445997789481
 42
0.4142135623731
  0
LINE
  5
11E
330
1F
100
AcDbEntity
  8
0-B_寸法
  6
Continuous
 62
   120
370
     5
100
AcDbLine
 10
-989.0817973894375
 20
1626.945997789481
 30
0.0
 11
-989.0817973894375
 21
1806.945997789481
 31
0.0
  0
LINE
  5
11F
330
1F
100
AcDbEntity
  8
0-B_寸法
  6
Continuous
 62
   120
370
     5
100
AcDbLine
 10
-1997.081543754618
 20
1446.945997789481
 30
0.0
 11
3.918542843316573
 21
1446.945997789481
 31
0.0
  0
LWPOLYLINE
  5
120
330
1F
100
AcDbEntity
  8
0-B_寸法
  6
Continuous
 62
     7
370
     5
100
AcDbPolyline
 90
        4
 70
     1
 43
3.0
 10
-1995.581543754618
 20
1446.945997789481
 42
0.4142135623731
 10
-1997.081543754618
 20
1448.445997789481
 42
0.4142135623731
 10
-1998.581543754617
 20
1446.945997789481
 42
0.4142135623731
 10
-1997.081543754618
 20
1445.445997789481
 42
0.4142135623731
  0
LINE
  5
121
330
1F
100
AcDbEntity
  8
0-B_寸法
  6
Continuous
 62
   120
370
     5
100
AcDbLine
 10
-1997.081543754618
 20
1446.945997789481
 30
0.0
 11
-1997.081543754618
 21
1806.945997789481
 31
0.0
  0
MTEXT
  5
122
330
1F
100
AcDbEntity
  8
0-B_寸法
  6
Continuous
 62
     7
370
   211
100
AcDbMText
 10
-1823.081670572029
 20
1627.665997789481
 30
0.0
 40
91.43999999999997
 41
660.0
 46
0.0
 71
     7
 72
     1
  1
{\fＭＳ ゴシック|b0|i0|c128|p49;ＤＷ＝282.5}
 73
     1
 44
1.0
  0
LINE
  5
123
330
1F
100
AcDbEntity
  8
0-0_補助線
  6
JWW_HOJO
 62
     7
370
     5
100
AcDbLine
 10
-986.0817973894402
 20
906.945997789479
 30
0.0
 11
-986.0817973894402
 21
3141.945997789481
 31
0.0
  0
CIRCLE
  5
124
330
1F
100
AcDbEntity
  8
0-A_文字
  6
Continuous
 62
     7
370
     5
100
AcDbCircle
 10
-986.0817602734685
 20
2472.945997789482
 30
0.0
 40
21.00000000000001
  0
CIRCLE
  5
125
330
1F
100
AcDbEntity
  8
0-A_文字
  6
Continuous
 62
     7
370
     5
100
AcDbCircle
 10
-986.0817602734685
 20
2472.945997789482
 30
0.0
 40
30.0
  0
LINE
  5
126
330
1F
100
AcDbEntity
  8
0-6_扉
  6
Continuous
 62
   200
370
     5
100
AcDbLine
 10
-983.0817973894395
 20
2442.947294374153
 30
0.0
 11
-983.0817973894395
 21
2280.94599778948
 31
0.0
  0
LINE
  5
127
330
1F
100
AcDbEntity
  8
0-0_補助線
  6
JWW_HOJO
 62
     7
370
     5
100
AcDbLine
 10
-458.081608715074
 20
2442.947294374153
 30
0.0
 11
-458.081608715074
 21
2280.94599778948
 31
0.0
  0
LINE
  5
128
330
1F
100
AcDbEntity
  8
0-0_補助線
  6
JWW_HOJO
 62
     7
370
     5
100
AcDbLine
 10
-518.081608715074
 20
2442.947294374153
 30
0.0
 11
-518.081608715074
 21
2280.94599778948
 31
0.0
  0
LINE
  5
129
330
1F
100
AcDbEntity
  8
0-6_扉
  6
Continuous
 62
   200
370
     5
100
AcDbLine
 10
-983.0817973894395
 20
2442.947294374153
 30
0.0
 11
-518.081608715074
 21
2442.947294374153
 31
0.0
  0
LINE
  5
12A
330
1F
100
AcDbEntity
  8
0-6_扉
  6
Continuous
 62
   200
370
     5
100
AcDbLine
 10
-983.0817973894395
 20
2442.945997789482
 30
0.0
 11
-518.081608715074
 21
2442.945997789482
 31
0.0
  0
LINE
  5
12B
330
1F
100
AcDbEntity
  8
0-6_扉
  6
Continuous
 62
   200
370
     5
100
AcDbLine
 10
-983.0817973894395
 20
2280.94599778948
 30
0.0
 11
-518.081608715074
 21
2280.94599778948
 31
0.0
  0
LINE
  5
12C
330
1F
100
AcDbEntity
  8
0-6_扉
  6
Continuous
 62
   200
370
     5
100
AcDbLine
 10
-458.081608715074
 20
2442.947294374153
 30
0.0
 11
3.918542843316573
 21
2442.947294374153
 31
0.0
  0
LINE
  5
12D
330
1F
100
AcDbEntity
  8
0-6_扉
  6
Continuous
 62
   200
370
     5
100
AcDbLine
 10
3.918542843316573
 20
2280.94599778948
 30
0.0
 11
3.918542843316573
 21
2442.947294374153
 31
0.0
  0
LINE
  5
12E
330
1F
100
AcDbEntity
  8
0-6_扉
  6
Continuous
 62
   200
370
     5
100
AcDbLine
 10
-458.081608715074
 20
2280.94599778948
 30
0.0
 11
3.918542843316573
 21
2280.94599778948
 31
0.0
  0
LINE
  5
12F
330
1F
100
AcDbEntity
  8
0-B_寸法
  6
Continuous
 62
   120
370
     5
100
AcDbLine
 10
-983.0817973894395
 20
1626.945997789481
 30
0.0
 11
3.918542843316573
 21
1626.945997789481
 31
0.0
  0
LWPOLYLINE
  5
130
330
1F
100
AcDbEntity
  8
0-B_寸法
  6
Continuous
 62
     7
370
     5
100
AcDbPolyline
 90
        4
 70
     1
 43
3.0
 10
-981.5817973894395
 20
1626.945997789481
 42
0.4142135623731
 10
-983.0817973894395
 20
1628.445997789481
 42
0.4142135623731
 10
-984.5817973894394
 20
1626.945997789481
 42
0.4142135623731
 10
-983.0817973894395
 20
1625.445997789481
 42
0.4142135623731
  0
LWPOLYLINE
  5
131
330
1F
100
AcDbEntity
  8
0-B_寸法
  6
Continuous
 62
     7
370
     5
100
AcDbPolyline
 90
        4
 70
     1
 43
3.0
 10
5.418542843316573
 20
1626.945997789481
 42
0.4142135623731
 10
3.918542843316573
 20
1628.445997789481
 42
0.4142135623731
 10
2.418542843316573
 20
1626.945997789481
 42
0.4142135623731
 10
3.918542843316573
 20
1625.445997789481
 42
0.4142135623731
  0
LINE
  5
132
330
1F
100
AcDbEntity
  8
0-B_寸法
  6
Continuous
 62
   120
370
     5
100
AcDbLine
 10
-983.0817973894395
 20
1626.945997789481
 30
0.0
 11
-983.0817973894395
 21
1806.945997789481
 31
0.0
  0
LWPOLYLINE
  5
133
330
1F
100
AcDbEntity
  8
0-B_寸法
  6
Continuous
 62
     7
370
     5
100
AcDbPolyline
 90
        4
 70
     1
 43
3.0
 10
5.418542843316573
 20
1446.945997789481
 42
0.4142135623731
 10
3.918542843316573
 20
1448.445997789481
 42
0.4142135623731
 10
2.418542843316573
 20
1446.945997789481
 42
0.4142135623731
 10
3.918542843316573
 20
1445.445997789481
 42
0.4142135623731
  0
LINE
  5
134
330
1F
100
AcDbEntity
  8
0-B_寸法
  6
Continuous
 62
   120
370
     5
100
AcDbLine
 10
3.918542843316573
 20
1446.945997789481
 30
0.0
 11
3.918542843316573
 21
1806.945997789481
 31
0.0
  0
MTEXT
  5
135
330
1F
100
AcDbEntity
  8
0-B_寸法
  6
Continuous
 62
     7
370
   211
100
AcDbMText
 10
-819.5816272730619
 20
1627.665997789481
 30
0.0
 40
91.44000000000011
 41
660.0000000000009
 46
0.0
 71
     7
 72
     1
  1
{\fＭＳ ゴシック|b0|i0|c128|p49;ＤＷ＝282.5}
 73
     1
 44
1.0
  0
MTEXT
  5
136
330
1F
100
AcDbEntity
  8
0-B_寸法
  6
Continuous
 62
     7
370
   211
100
AcDbMText
 10
-1446.581463339679
 20
1447.665997789481
 30
0.0
 40
91.43999999999998
 41
900.0
 46
0.0
 71
     7
 72
     1
  1
{\fＭＳ ゴシック|b0|i0|c128|p49;折戸：ＤＷ＝566}
 73
     1
 44
1.0
  0
MTEXT
  5
137
330
1F
100
AcDbEntity
  8
0-B_寸法
  6
Continuous
 62
     7
370
   211
100
AcDbMText
 10
-71.01590454956408
 20
1447.665997789481
 30
0.0
 40
91.44
 41
60.0
 46
0.0
 71
     7
 72
     1
  1
{\fＭＳ ゴシック|b0|i0|c128|p49;2}
 73
     1
 44
1.0
  0
MTEXT
  5
138
330
1F
100
AcDbEntity
  8
0-A_文字
  6
Continuous
 62
     7
370
     5
100
AcDbMText
 10
-83.08243453797161
 20
931.6912250622061
 30
0.0
 40
79.49045454545431
 41
2294.999999999993
 46
0.0
 71
     7
 72
     1
  1
{\fＭＳ ゴシック|b0|i0|c128|p49;※有効開口寸法にはハンドルの突出は含まない。}
 73
     1
 44
1.0
  0
MTEXT
  5
139
330
1F
100
AcDbEntity
  8
0-A_文字
  6
Continuous
 62
     7
370
     5
100
AcDbMText
 10
-608.0824345379709
 20
826.7393311228122
 30
0.0
 40
79.58666666666657
 41
2819.999999999996
 46
0.0
 71
     7
 72
     1
  1
{\fＭＳ ゴシック|b0|i0|c128|p49;※有効開口寸法は扉の厚さや調整によって若干異なります。}
 73
     1
 44
1.0
  0
LINE
  5
13A
330
1F
100
AcDbEntity
  8
0-0_補助線
  6
JWW_HOJO
 62
     7
370
     5
100
AcDbLine
 10
9.918542843316231
 20
906.945997789479
 30
0.0
 11
9.918542843316231
 21
3141.945997789481
 31
0.0
  0
MTEXT
  5
13B
330
1F
100
AcDbEntity
  8
0-A_文字
  6
Continuous
 62
     7
370
     5
100
AcDbMText
 10
-2765.094777794652
 20
3268.438686175965
 30
0.0
 40
100.584
 41
660.0
 46
0.0
 71
     7
 72
     1
  1
{\fＭＳ ゴシック|b0|i0|c128|p49;■横断面図}
 73
     1
 44
1.0
  0
MTEXT
  5
13C
330
1F
100
AcDbEntity
  8
F-A_文字
  6
Continuous
 62
     7
370
     0
100
AcDbMText
 10
5768.321977672939
 20
-4314.841419020919
 30
0.0
 40
68.58
 41
90.0
 46
0.0
 71
     7
 72
     1
  1
{\fＭＳ ゴシック|b0|i0|c128|p49;）}
 73
     1
 44
1.0
  0
MTEXT
  5
13D
330
1F
100
AcDbEntity
  8
F-A_文字
  6
Continuous
 62
     7
370
     0
100
AcDbMText
 10
5548.066114483239
 20
-4314.771967288282
 30
0.0
 40
74.295
 41
195.0
 46
0.0
 71
     7
 72
     1
  1
{\fＭＳ ゴシック|b0|i0|c128|p49;印刷}
 73
     1
 44
1.0
  0
MTEXT
  5
13E
330
1F
100
AcDbEntity
  8
F-A_文字
  6
Continuous
 62
     7
370
     0
100
AcDbMText
 10
5393.32938200033
 20
-4314.771967288282
 30
0.0
 40
74.295
 41
97.5
 46
0.0
 71
     7
 72
     1
  1
{\fＭＳ ゴシック|b0|i0|c128|p49;$d}
 73
     1
 44
1.0
  0
MTEXT
  5
13F
330
1F
100
AcDbEntity
  8
F-A_文字
  6
Continuous
 62
     7
370
     0
100
AcDbMText
 10
5350.114617405298
 20
-4316.235443869856
 30
0.0
 40
68.58
 41
45.0
 46
0.0
 71
     7
 72
     1
  1
{\fＭＳ ゴシック|b0|i0|c128|p49;,}
 73
     1
 44
1.0
  0
MTEXT
  5
140
330
1F
100
AcDbEntity
  8
F-A_文字
  6
Continuous
 62
     7
370
     0
100
AcDbMText
 10
5238.592649517422
 20
-4314.771967288282
 30
0.0
 40
74.295
 41
97.5
 46
0.0
 71
     7
 72
     1
  1
{\fＭＳ ゴシック|b0|i0|c128|p49;$m}
 73
     1
 44
1.0
  0
MTEXT
  5
141
330
1F
100
AcDbEntity
  8
F-A_文字
  6
Continuous
 62
     7
370
     0
100
AcDbMText
 10
5191.195810375571
 20
-4319.023493567732
 30
0.0
 40
68.58
 41
45.0
 46
0.0
 71
     7
 72
     1
  1
{\fＭＳ ゴシック|b0|i0|c128|p49;,}
 73
     1
 44
1.0
  0
MTEXT
  5
142
330
1F
100
AcDbEntity
  8
F-A_文字
  6
Continuous
 62
     7
370
     0
100
AcDbMText
 10
5083.855928478601
 20
-4314.771967288282
 30
0.0
 40
74.295
 41
97.5
 46
0.0
 71
     7
 72
     1
  1
{\fＭＳ ゴシック|b0|i0|c128|p49;$y}
 73
     1
 44
1.0
  0
MTEXT
  5
143
330
1F
100
AcDbEntity
  8
F-A_文字
  6
Continuous
 62
     7
370
     0
100
AcDbMText
 10
4943.952040816226
 20
-4319.023493567732
 30
0.0
 40
68.58
 41
90.0
 46
0.0
 71
     7
 72
     1
  1
{\fＭＳ ゴシック|b0|i0|c128|p49;（}
 73
     1
 44
1.0
  0
LINE
  5
144
330
1F
100
AcDbEntity
  8
F-0_補助線
  6
JWW_HOJO
 62
   120
370
     5
100
AcDbLine
 10
-6140.081333436773
 20
-4455.0
 30
0.0
 11
-6140.081333436773
 21
4424.999604096284
 31
0.0
  0
LINE
  5
145
330
1F
100
AcDbEntity
  8
F-0_補助線
  6
JWW_HOJO
 62
   120
370
     5
100
AcDbLine
 10
-6140.081333436773
 20
4424.999604096284
 30
0.0
 11
6159.917676803936
 21
4424.999604096284
 31
0.0
  0
LINE
  5
146
330
1F
100
AcDbEntity
  8
F-0_補助線
  6
JWW_HOJO
 62
   120
370
     5
100
AcDbLine
 10
6159.917676803936
 20
4424.999604096284
 30
0.0
 11
6159.917676803936
 21
-4455.0
 31
0.0
  0
LINE
  5
147
330
1F
100
AcDbEntity
  8
F-0_補助線
  6
JWW_HOJO
 62
   120
370
     5
100
AcDbLine
 10
6159.917676803936
 20
-4455.0
 30
0.0
 11
-6140.081333436773
 21
-4455.0
 31
0.0
  0
LINE
  5
148
330
1F
100
AcDbEntity
  8
F-1_枠
  6
Continuous
 62
   200
370
     5
100
AcDbLine
 10
5859.917429364114
 20
4174.999769056166
 30
0.0
 11
5859.917429364114
 21
-4205.000164959882
 31
0.0
  0
LINE
  5
149
330
1F
100
AcDbEntity
  8
F-1_枠
  6
Continuous
 62
   200
370
     5
100
AcDbLine
 10
-5840.081317971782
 20
4174.999769056166
 30
0.0
 11
-5840.081317971782
 21
-4205.000164959882
 31
0.0
  0
LINE
  5
14A
330
1F
100
AcDbEntity
  8
F-1_枠
  6
Continuous
 62
   200
370
     5
100
AcDbLine
 10
5859.917429364114
 20
-4205.000002577498
 30
0.0
 11
-5840.081085996952
 21
-4205.000002577498
 31
0.0
  0
LINE
  5
14B
330
1F
100
AcDbEntity
  8
F-1_枠
  6
Continuous
 62
   200
370
     5
100
AcDbLine
 10
-5830.081323642279
 20
4174.999769056166
 30
0.0
 11
-5830.081323642279
 21
-4205.000164959882
 31
0.0
  0
LINE
  5
14C
330
1F
100
AcDbEntity
  8
F-1_枠
  6
Continuous
 62
   200
370
     5
100
AcDbLine
 10
-5835.081309208291
 20
4174.999769056166
 30
0.0
 11
-5835.081309208291
 21
-4205.000164959882
 31
0.0
  0
LINE
  5
14D
330
1F
100
AcDbEntity
  8
F-1_枠
  6
Continuous
 62
   200
370
     5
100
AcDbLine
 10
5854.917165428304
 20
4174.999769056166
 30
0.0
 11
5854.917165428304
 21
-4205.000164959882
 31
0.0
  0
LINE
  5
14E
330
1F
100
AcDbEntity
  8
F-1_枠
  6
Continuous
 62
   200
370
     5
100
AcDbLine
 10
5849.917643811961
 20
4174.999769056166
 30
0.0
 11
5849.917643811961
 21
-4205.000164959882
 31
0.0
  0
LINE
  5
14F
330
1F
100
AcDbEntity
  8
F-1_枠
  6
Continuous
 62
   200
370
     5
100
AcDbLine
 10
5859.917429364114
 20
-4199.999993814004
 30
0.0
 11
-5840.081085996952
 21
-4199.999993814004
 31
0.0
  0
LINE
  5
150
330
1F
100
AcDbEntity
  8
F-1_枠
  6
Continuous
 62
   200
370
     5
100
AcDbLine
 10
5859.917429364114
 20
-4195.000008247994
 30
0.0
 11
-5840.081085996952
 21
-4195.000008247994
 31
0.0
  0
LINE
  5
151
330
1F
100
AcDbEntity
  8
F-1_枠
  6
Continuous
 62
   200
370
     5
100
AcDbLine
 10
9.918542843316231
 20
-3994.999936078046
 30
0.0
 11
5849.917643811961
 21
-3995.005364289155
 31
0.0
  0
LINE
  5
152
330
1F
100
AcDbEntity
  8
F-1_枠
  6
Continuous
 62
   200
370
     5
100
AcDbLine
 10
-5840.081085996952
 20
4174.999769056166
 30
0.0
 11
5859.917429364114
 21
4174.999769056166
 31
0.0
  0
LINE
  5
153
330
1F
100
AcDbEntity
  8
F-1_枠
  6
Continuous
 62
   200
370
     5
100
AcDbLine
 10
-5840.081085996952
 20
4164.999983504013
 30
0.0
 11
5859.917429364114
 21
4164.999983504013
 31
0.0
  0
LINE
  5
154
330
1F
100
AcDbEntity
  8
F-1_枠
  6
Continuous
 62
   200
370
     5
100
AcDbLine
 10
-5840.081085996952
 20
4169.999505120355
 30
0.0
 11
5859.917429364114
 21
4169.999505120355
 31
0.0
  0
LINE
  5
155
330
1F
100
AcDbEntity
  8
F-0_補助線
  6
JWW_HOJO
 62
     7
370
     5
100
AcDbLine
 10
-5830.081323642279
 20
-3994.99993607839
 30
0.0
 11
9.918542843316231
 21
-3994.99993607839
 31
0.0
  0
LINE
  5
156
330
1F
100
AcDbEntity
  8
F-0_補助線
  6
JWW_HOJO
 62
     7
370
     5
100
AcDbLine
 10
-5830.081323642279
 20
-3904.99993607839
 30
0.0
 11
9.918542843316231
 21
-3904.99993607839
 31
0.0
  0
LINE
  5
157
330
1F
100
AcDbEntity
  8
F-0_補助線
  6
JWW_HOJO
 62
     7
370
     5
100
AcDbLine
 10
-5830.081323642279
 20
-4084.99993607839
 30
0.0
 11
9.918542843316231
 21
-4084.99993607839
 31
0.0
  0
LINE
  5
158
330
1F
100
AcDbEntity
  8
F-0_補助線
  6
JWW_HOJO
 62
     7
370
     5
100
AcDbLine
 10
9.918408067688347
 20
-4139.999739777983
 30
0.0
 11
5849.917509036332
 21
-4140.005167989091
 31
0.0
  0
LINE
  5
159
330
1F
100
AcDbEntity
  8
F-0_補助線
  6
JWW_HOJO
 62
     7
370
     5
100
AcDbLine
 10
9.918491721639953
 20
-4049.999739778022
 30
0.0
 11
5849.917592690284
 21
-4050.005167989131
 31
0.0
  0
LINE
  5
15A
330
1F
100
AcDbEntity
  8
F-0_補助線
  6
JWW_HOJO
 62
     7
370
     5
100
AcDbLine
 10
9.918593965360003
 20
-3939.99973721807
 30
0.0
 11
5849.917694934004
 21
-3940.005165429179
 31
0.0
  0
LINE
  5
15B
330
1F
100
AcDbEntity
  8
F-0_補助線
  6
JWW_HOJO
 62
     7
370
     5
100
AcDbLine
 10
9.918677619311609
 20
-3849.999737218109
 30
0.0
 11
5849.917778587956
 21
-3850.005165429218
 31
0.0
  0
LINE
  5
15C
330
1F
100
AcDbEntity
  8
F-1_枠
  6
Continuous
 62
   200
370
     5
100
AcDbLine
 10
5859.917429364114
 20
-3795.000003092998
 30
0.0
 11
-5840.081085996952
 21
-3795.000003092998
 31
0.0
  0
LINE
  5
15D
330
1F
100
AcDbEntity
  8
F-1_枠
  6
Continuous
 62
   200
370
     5
100
AcDbLine
 10
5859.917429364114
 20
-3790.000017526987
 30
0.0
 11
-5840.081085996952
 21
-3790.000017526987
 31
0.0
  0
LINE
  5
15E
330
1F
100
AcDbEntity
  8
0-7_金物
  6
Continuous
 62
     7
370
     5
100
AcDbLine
 10
-2748.544468505103
 20
-3229.000232799979
 30
0.0
 11
-2748.544468505103
 21
-3286.000311980722
 31
0.0
  0
LINE
  5
15F
330
1F
100
AcDbEntity
  8
0-7_金物
  6
Continuous
 62
     7
370
     5
100
AcDbLine
 10
-2748.544468505103
 20
-3286.000311980722
 30
0.0
 11
-2730.544706047334
 21
-3286.000311980722
 31
0.0
  0
LINE
  5
160
330
1F
100
AcDbEntity
  8
0-7_金物
  6
Continuous
 62
     7
370
     5
100
AcDbLine
 10
-2730.544706047334
 20
-3229.000232799979
 30
0.0
 11
-2730.544706047334
 21
-3286.000311980722
 31
0.0
  0
LINE
  5
161
330
1F
100
AcDbEntity
  8
0-6_扉
  6
Continuous
 62
   200
370
     5
100
AcDbLine
 10
-2658.544787393177
 20
-3229.000232799979
 30
0.0
 11
-2820.544787393176
 21
-3229.000232799979
 31
0.0
  0
LINE
  5
162
330
1F
100
AcDbEntity
  8
0-6_扉
  6
Continuous
 62
   200
370
     5
100
AcDbLine
 10
-2658.544787393177
 20
-3229.000603959712
 30
0.0
 11
-2658.544787393177
 21
-1990.001135734764
 31
0.0
  0
LINE
  5
163
330
1F
100
AcDbEntity
  8
0-6_扉
  6
Continuous
 62
   200
370
     5
100
AcDbLine
 10
-2820.544787393176
 20
-3229.000603959712
 30
0.0
 11
-2820.544787393176
 21
-1990.001135734764
 31
0.0
  0
LINE
  5
164
330
1F
100
AcDbEntity
  8
0-6_扉
  6
Continuous
 62
   200
370
     5
100
AcDbLine
 10
-2658.544787393177
 20
-631.0009254109133
 30
0.0
 11
-2820.544787393176
 21
-631.0009254109133
 31
0.0
  0
LINE
  5
165
330
1F
100
AcDbEntity
  8
0-7_金物
  6
Continuous
 62
     7
370
     5
100
AcDbLine
 10
-2674.549326882924
 20
-592.0009254109129
 30
0.0
 11
-2674.549326882924
 21
-586.0008338581792
 31
0.0
  0
LINE
  5
166
330
1F
100
AcDbEntity
  8
0-7_金物
  6
Continuous
 62
     7
370
     5
100
AcDbLine
 10
-2803.758939729297
 20
-592.0009254109129
 30
0.0
 11
-2803.758939729297
 21
-586.0008338581792
 31
0.0
  0
LINE
  5
167
330
1F
100
AcDbEntity
  8
0-7_金物
  6
Continuous
 62
     7
370
     5
100
AcDbLine
 10
-2637.545439706406
 20
-586.0008338581792
 30
0.0
 11
-2637.545439706406
 21
-592.0009254109129
 31
0.0
  0
LINE
  5
168
330
1F
100
AcDbEntity
  8
0-7_金物
  6
Continuous
 62
     7
370
     5
100
AcDbLine
 10
-2803.758939729297
 20
-592.0009254109129
 30
0.0
 11
-2841.543741689287
 21
-592.0009254109129
 31
0.0
  0
LINE
  5
169
330
1F
100
AcDbEntity
  8
0-7_金物
  6
Continuous
 62
     7
370
     5
100
AcDbLine
 10
-2841.543741689287
 20
-586.0008338581792
 30
0.0
 11
-2841.543741689287
 21
-592.0009254109129
 31
0.0
  0
LINE
  5
16A
330
1F
100
AcDbEntity
  8
0-7_金物
  6
Continuous
 62
     7
370
     5
100
AcDbLine
 10
-2727.544993386829
 20
-631.0009254109133
 30
0.0
 11
-2751.545674310288
 21
-631.0009254109133
 31
0.0
  0
LINE
  5
16B
330
1F
100
AcDbEntity
  8
0-7_金物
  6
Continuous
 62
     7
370
     5
100
AcDbLine
 10
-2727.544993386829
 20
-586.0008338581792
 30
0.0
 11
-2727.544993386829
 21
-631.0009254109133
 31
0.0
  0
LINE
  5
16C
330
1F
100
AcDbEntity
  8
0-7_金物
  6
Continuous
 62
     7
370
     5
100
AcDbLine
 10
-2751.545674310288
 20
-631.0009254109133
 30
0.0
 11
-2751.545674310288
 21
-586.0008338581792
 31
0.0
  0
LINE
  5
16D
330
1F
100
AcDbEntity
  8
0-7_金物
  6
Continuous
 62
     7
370
     5
100
AcDbLine
 10
-2674.549326882924
 20
-592.0009254109129
 30
0.0
 11
-2637.545439706406
 21
-592.0009254109129
 31
0.0
  0
LINE
  5
16E
330
1F
100
AcDbEntity
  8
0-7_金物
  6
Continuous
 62
     7
370
     5
100
AcDbLine
 10
-2667.711180920122
 20
-478.1466781326594
 30
0.0
 11
-2667.711180920122
 21
-586.1467696853933
 31
0.0
  0
LINE
  5
16F
330
1F
100
AcDbEntity
  8
0-7_金物
  6
Continuous
 62
     7
370
     5
100
AcDbLine
 10
-2811.71150850725
 20
-478.1466781326594
 30
0.0
 11
-2667.711180920122
 21
-478.1466781326594
 31
0.0
  0
LINE
  5
170
330
1F
100
AcDbEntity
  8
0-7_金物
  6
Continuous
 62
     7
370
     5
100
AcDbLine
 10
-2811.71150850725
 20
-586.1467696853933
 30
0.0
 11
-2811.71150850725
 21
-478.1466781326594
 31
0.0
  0
LINE
  5
171
330
1F
100
AcDbEntity
  8
0-7_金物
  6
Continuous
 62
     7
370
     5
100
AcDbLine
 10
-2805.890238041397
 20
-572.9345199295341
 30
0.0
 11
-2805.890238041397
 21
-506.9345199295344
 31
0.0
  0
LINE
  5
172
330
1F
100
AcDbEntity
  8
0-7_金物
  6
Continuous
 62
     7
370
     5
100
AcDbLine
 10
-2805.890238041397
 20
-506.9345199295344
 30
0.0
 11
-2769.711072201248
 21
-506.9345199295344
 31
0.0
  0
LINE
  5
173
330
1F
100
AcDbEntity
  8
0-7_金物
  6
Continuous
 62
     7
370
     5
100
AcDbLine
 10
-2769.711072201248
 20
-586.1467696853933
 30
0.0
 11
-2769.711072201248
 21
-490.1463119217226
 31
0.0
  0
LINE
  5
174
330
1F
100
AcDbEntity
  8
0-7_金物
  6
Continuous
 62
     7
370
     5
100
AcDbLine
 10
-2769.711072201248
 20
-490.1463119217226
 30
0.0
 11
-2709.709384197708
 21
-490.1463119217226
 31
0.0
  0
LINE
  5
175
330
1F
100
AcDbEntity
  8
0-7_金物
  6
Continuous
 62
     7
370
     5
100
AcDbLine
 10
-2709.709384197708
 20
-490.1463119217226
 30
0.0
 11
-2709.709384197708
 21
-586.1467696853933
 31
0.0
  0
LINE
  5
176
330
1F
100
AcDbEntity
  8
0-7_金物
  6
Continuous
 62
     7
370
     5
100
AcDbLine
 10
-2673.890990490435
 20
-506.9345199295344
 30
0.0
 11
-2673.890990490435
 21
-572.9345199295341
 31
0.0
  0
LINE
  5
177
330
1F
100
AcDbEntity
  8
0-7_金物
  6
Continuous
 62
     7
370
     5
100
AcDbLine
 10
-2709.709384197708
 20
-506.9345199295344
 30
0.0
 11
-2673.890990490435
 21
-506.9345199295344
 31
0.0
  0
LINE
  5
178
330
1F
100
AcDbEntity
  8
0-7_金物
  6
Continuous
 62
     7
370
     5
100
AcDbLine
 10
-2655.71084904146
 20
-586.1467696853933
 30
0.0
 11
-2637.711077923299
 21
-586.1467696853933
 31
0.0
  0
LINE
  5
179
330
1F
100
AcDbEntity
  8
0-7_金物
  6
Continuous
 62
     7
370
     5
100
AcDbLine
 10
-2674.71496509981
 20
-592.1468612381278
 30
0.0
 11
-2674.71496509981
 21
-586.1467696853933
 31
0.0
  0
LINE
  5
17A
330
1F
100
AcDbEntity
  8
0-7_金物
  6
Continuous
 62
     7
370
     5
100
AcDbLine
 10
-2667.711180920122
 20
-586.1467696853933
 30
0.0
 11
-2674.71496509981
 21
-586.1467696853933
 31
0.0
  0
LINE
  5
17B
330
1F
100
AcDbEntity
  8
0-7_金物
  6
Continuous
 62
     7
370
     5
100
AcDbLine
 10
-2823.711101884363
 20
-586.1467696853933
 30
0.0
 11
-2841.709379906176
 21
-586.1467696853933
 31
0.0
  0
LINE
  5
17C
330
1F
100
AcDbEntity
  8
0-7_金物
  6
Continuous
 62
     7
370
     5
100
AcDbLine
 10
-2803.924577946183
 20
-592.1468612381278
 30
0.0
 11
-2803.924577946183
 21
-586.1467696853933
 31
0.0
  0
LINE
  5
17D
330
1F
100
AcDbEntity
  8
0-7_金物
  6
Continuous
 62
     7
370
     5
100
AcDbLine
 10
-2803.924577946183
 20
-586.1467696853933
 30
0.0
 11
-2811.71150850725
 21
-586.1467696853933
 31
0.0
  0
LINE
  5
17E
330
1F
100
AcDbEntity
  8
0-7_金物
  6
Continuous
 62
     7
370
     5
100
AcDbLine
 10
-2637.711077923299
 20
-586.1467696853933
 30
0.0
 11
-2637.711077923299
 21
-592.1468612381278
 31
0.0
  0
LINE
  5
17F
330
1F
100
AcDbEntity
  8
0-7_金物
  6
Continuous
 62
     7
370
     5
100
AcDbLine
 10
-2803.924577946183
 20
-592.1468612381278
 30
0.0
 11
-2841.709379906176
 21
-592.1468612381278
 31
0.0
  0
LINE
  5
180
330
1F
100
AcDbEntity
  8
0-7_金物
  6
Continuous
 62
     7
370
     5
100
AcDbLine
 10
-2841.709379906176
 20
-586.1467696853933
 30
0.0
 11
-2841.709379906176
 21
-592.1468612381278
 31
0.0
  0
LINE
  5
181
330
1F
100
AcDbEntity
  8
0-7_金物
  6
Continuous
 62
     7
370
     5
100
AcDbLine
 10
-2769.711072201248
 20
-572.9345199295341
 30
0.0
 11
-2805.890238041397
 21
-572.9345199295341
 31
0.0
  0
LINE
  5
182
330
1F
100
AcDbEntity
  8
0-7_金物
  6
Continuous
 62
     7
370
     5
100
AcDbLine
 10
-2673.890990490435
 20
-572.9345199295341
 30
0.0
 11
-2709.709384197708
 21
-572.9345199295341
 31
0.0
  0
LINE
  5
183
330
1F
100
AcDbEntity
  8
0-7_金物
  6
Continuous
 62
     7
370
     5
100
AcDbLine
 10
-2709.709384197708
 20
-586.1467696853933
 30
0.0
 11
-2769.711072201248
 21
-586.1467696853933
 31
0.0
  0
LINE
  5
184
330
1F
100
AcDbEntity
  8
0-7_金物
  6
Continuous
 62
     7
370
     5
100
AcDbLine
 10
-2674.71496509981
 20
-592.1468612381278
 30
0.0
 11
-2637.711077923299
 21
-592.1468612381278
 31
0.0
  0
LINE
  5
185
330
1F
100
AcDbEntity
  8
0-6_扉
  6
Continuous
 62
   200
370
     5
100
AcDbLine
 10
-2658.544787393177
 20
-1870.001135734764
 30
0.0
 11
-2658.544787393177
 21
-631.0009254109133
 31
0.0
  0
LINE
  5
186
330
1F
100
AcDbEntity
  8
0-6_扉
  6
Continuous
 62
   200
370
     5
100
AcDbLine
 10
-2820.544787393176
 20
-1870.001135734764
 30
0.0
 11
-2820.544787393176
 21
-631.0009254109133
 31
0.0
  0
LINE
  5
187
330
1F
100
AcDbEntity
  8
0-7_金物
  6
Continuous
 62
     7
370
     5
100
AcDbLine
 10
-2793.545371041854
 20
-370.1469527908625
 30
0.0
 11
-2793.545371041854
 21
-364.0009631454859
 31
0.0
  0
LINE
  5
188
330
1F
100
AcDbEntity
  8
0-7_金物
  6
Continuous
 62
     7
370
     5
100
AcDbLine
 10
-2685.545302377303
 20
-364.0009631454868
 30
0.0
 11
-2685.545302377303
 21
-370.1469527908625
 31
0.0
  0
LINE
  5
189
330
1F
100
AcDbEntity
  8
0-7_金物
  6
Continuous
 62
     7
370
     5
100
AcDbLine
 10
-2679.545136437972
 20
-364.0009631454868
 30
0.0
 11
-2799.544793115218
 21
-364.0009631454868
 31
0.0
  0
LINE
  5
18A
330
1F
100
AcDbEntity
  8
0-7_金物
  6
Continuous
 62
     7
370
     5
100
AcDbLine
 10
-2799.544793115218
 20
-352.0013694107442
 30
0.0
 11
-2799.544793115218
 21
-364.0009631454859
 31
0.0
  0
LINE
  5
18B
330
1F
100
AcDbEntity
  8
0-7_金物
  6
Continuous
 62
     7
370
     5
100
AcDbLine
 10
-2679.545136437972
 20
-352.0013694107442
 30
0.0
 11
-2679.545136437972
 21
-364.0009631454859
 31
0.0
  0
LINE
  5
18C
330
1F
100
AcDbEntity
  8
0-7_金物
  6
Continuous
 62
     7
370
     5
100
AcDbLine
 10
-2649.545033441149
 20
-340.0010318100374
 30
0.0
 11
-2829.544896112045
 21
-340.0010318100374
 31
0.0
  0
LINE
  5
18D
330
1F
100
AcDbEntity
  8
0-7_金物
  6
Continuous
 62
     7
370
     5
100
AcDbLine
 10
-2649.545033441149
 20
-340.0010318100374
 30
0.0
 11
-2649.545033441149
 21
-352.0013694107455
 31
0.0
  0
LINE
  5
18E
330
1F
100
AcDbEntity
  8
0-7_金物
  6
Continuous
 62
     7
370
     5
100
AcDbLine
 10
-2829.544896112045
 20
-340.0010318100374
 30
0.0
 11
-2829.544896112045
 21
-352.0013694107455
 31
0.0
  0
LINE
  5
18F
330
1F
100
AcDbEntity
  8
0-7_金物
  6
Continuous
 62
     7
370
     5
100
AcDbLine
 10
-2649.545033441149
 20
-352.0013694107442
 30
0.0
 11
-2829.544896112045
 21
-352.0013694107442
 31
0.0
  0
MTEXT
  5
190
330
1F
100
AcDbEntity
  8
0-A_文字
  6
Continuous
 62
     7
370
     5
100
AcDbMText
 10
-3763.062520772506
 20
278.2866538614621
 30
0.0
 40
91.44000000000001
 41
600.0
 46
0.0
 71
     7
 72
     1
  1
{\fＭＳ ゴシック|b0|i0|c128|p49;　[３方枠]}
 73
     1
 44
1.0
  0
LINE
  5
191
330
1F
100
AcDbEntity
  8
0-1_通り芯
  6
JWW_CENTER1
 62
   120
370
     5
100
AcDbLine
 10
-2739.545336709579
 20
229.9989830363511
 30
0.0
 11
-2739.545336709579
 21
-3470.136788158382
 31
0.0
  0
MTEXT
  5
192
330
1F
100
AcDbEntity
  8
0-B_寸法
  6
Continuous
 62
     7
370
     0
100
AcDbMText
 10
-1953.012008359089
 20
-3252.912872984567
 30
0.0
 40
91.44
 41
240.0
 46
0.0
 71
     7
 72
     1
  1
{\fＭＳ ゴシック|b0|i0|c128|p49;11.5}
 11
6.123031769111886E-17
 21
1.0
 31
0.0
 73
     1
 44
1.0
  0
LWPOLYLINE
  5
193
330
1F
100
AcDbEntity
  8
0-B_寸法
  6
Continuous
 62
     7
370
     5
100
AcDbPolyline
 90
        4
 70
     1
 43
3.0
 10
-1937.045513111679
 20
-3229.000603959712
 42
0.4142135623731
 10
-1938.545513111679
 20
-3227.500603959712
 42
0.4142135623731
 10
-1940.045513111679
 20
-3229.000603959712
 42
0.4142135623731
 10
-1938.545513111679
 20
-3230.500603959712
 42
0.4142135623731
  0
LINE
  5
194
330
1F
100
AcDbEntity
  8
0-B_寸法
  6
Continuous
 62
   120
370
     5
100
AcDbLine
 10
-2148.545513111679
 20
-3229.000603959712
 30
0.0
 11
-1938.545513111679
 21
-3229.000603959712
 31
0.0
  0
LWPOLYLINE
  5
195
330
1F
100
AcDbEntity
  8
0-B_寸法
  6
Continuous
 62
     7
370
     5
100
AcDbPolyline
 90
        4
 70
     1
 43
3.0
 10
-1937.045513111679
 20
-3298.000311980723
 42
0.4142135623731
 10
-1938.545513111679
 20
-3296.500311980723
 42
0.4142135623731
 10
-1940.045513111679
 20
-3298.000311980723
 42
0.4142135623731
 10
-1938.545513111679
 20
-3299.500311980722
 42
0.4142135623731
  0
LINE
  5
196
330
1F
100
AcDbEntity
  8
0-B_寸法
  6
Continuous
 62
   120
370
     5
100
AcDbLine
 10
-1938.545513111679
 20
-3298.000311980723
 30
0.0
 11
-1938.545513111679
 21
-586.0004082616842
 31
0.0
  0
MTEXT
  5
197
330
1F
100
AcDbEntity
  8
0-B_寸法
  6
Continuous
 62
     7
370
     0
100
AcDbMText
 10
-1952.973295691981
 20
-823.2367769166207
 30
0.0
 40
91.4400000000026
 41
180.0000000000051
 46
0.0
 71
     7
 72
     1
  1
{\fＭＳ ゴシック|b0|i0|c128|p49;7.5}
 11
6.123031769111886E-17
 21
1.0
 31
0.0
 73
     1
 44
1.0
  0
LWPOLYLINE
  5
198
330
1F
100
AcDbEntity
  8
0-B_寸法
  6
Continuous
 62
     7
370
     5
100
AcDbPolyline
 90
        4
 70
     1
 43
3.0
 10
-1937.045513111679
 20
-586.0004082616842
 42
0.4142135623731
 10
-1938.545513111679
 20
-584.5004082616842
 42
0.4142135623731
 10
-1940.045513111679
 20
-586.0004082616842
 42
0.4142135623731
 10
-1938.545513111679
 20
-587.5004082616842
 42
0.4142135623731
  0
LWPOLYLINE
  5
199
330
1F
100
AcDbEntity
  8
0-B_寸法
  6
Continuous
 62
     7
370
     5
100
AcDbPolyline
 90
        4
 70
     1
 43
3.0
 10
-1937.045513111679
 20
-631.000556725578
 42
0.4142135623731
 10
-1938.545513111679
 20
-629.500556725578
 42
0.4142135623731
 10
-1940.045513111679
 20
-631.000556725578
 42
0.4142135623731
 10
-1938.545513111679
 20
-632.500556725578
 42
0.4142135623731
  0
LINE
  5
19A
330
1F
100
AcDbEntity
  8
0-B_寸法
  6
Continuous
 62
   120
370
     5
100
AcDbLine
 10
-2148.545513111679
 20
-586.0004082616842
 30
0.0
 11
-1938.545513111679
 21
-586.0004082616842
 31
0.0
  0
LINE
  5
19B
330
1F
100
AcDbEntity
  8
0-B_寸法
  6
Continuous
 62
   120
370
     5
100
AcDbLine
 10
-2148.545513111679
 20
-631.000556725578
 30
0.0
 11
-1938.545513111679
 21
-631.000556725578
 31
0.0
  0
LINE
  5
19C
330
1F
100
AcDbEntity
  8
0-0_補助線
  6
JWW_HOJO
 62
   120
370
     5
100
AcDbLine
 10
-2148.544748275699
 20
-3370.000660769669
 30
0.0
 11
-2148.545449080685
 21
229.9989830363519
 31
0.0
  0
LINE
  5
19D
330
1F
100
AcDbEntity
  8
0-0_補助線
  6
JWW_HOJO
 62
   120
370
     5
100
AcDbLine
 10
-1938.544748275699
 20
-3370.000660769667
 30
0.0
 11
-1938.545449080685
 21
229.9989830363511
 31
0.0
  0
LINE
  5
19E
330
1F
100
AcDbEntity
  8
0-B_寸法
  6
Continuous
 62
   120
370
     5
100
AcDbLine
 10
-1938.545513111679
 20
-3370.000289711139
 30
0.0
 11
-1758.544766770185
 21
-3370.000289711139
 31
0.0
  0
LWPOLYLINE
  5
19F
330
1F
100
AcDbEntity
  8
0-B_寸法
  6
Continuous
 62
     7
370
     5
100
AcDbPolyline
 90
        4
 70
     1
 43
3.0
 10
-1757.044766770185
 20
-3298.000311980723
 42
0.4142135623731
 10
-1758.544766770185
 20
-3296.500311980723
 42
0.4142135623731
 10
-1760.044766770185
 20
-3298.000311980723
 42
0.4142135623731
 10
-1758.544766770185
 20
-3299.500311980722
 42
0.4142135623731
  0
LINE
  5
1A0
330
1F
100
AcDbEntity
  8
0-B_寸法
  6
Continuous
 62
   120
370
     5
100
AcDbLine
 10
-1758.544766770185
 20
-3298.000311980723
 30
0.0
 11
-1758.544766770185
 21
-370.0010318100374
 31
0.0
  0
MTEXT
  5
1A1
330
1F
100
AcDbEntity
  8
0-B_寸法
  6
Continuous
 62
     7
370
     0
100
AcDbMText
 10
-1773.544073938678
 20
-552.2805344559936
 30
0.0
 40
91.44
 41
120.0
 46
0.0
 71
     7
 72
     1
  1
{\fＭＳ ゴシック|b0|i0|c128|p49;36}
 11
6.123031769111886E-17
 21
1.0
 31
0.0
 73
     1
 44
1.0
  0
LINE
  5
1A2
330
1F
100
AcDbEntity
  8
0-B_寸法
  6
Continuous
 62
   120
370
     5
100
AcDbLine
 10
-1938.545513111679
 20
-586.0000371019498
 30
0.0
 11
-1758.544766770185
 21
-586.0000371019498
 31
0.0
  0
LWPOLYLINE
  5
1A3
330
1F
100
AcDbEntity
  8
0-B_寸法
  6
Continuous
 62
     7
370
     5
100
AcDbPolyline
 90
        4
 70
     1
 43
3.0
 10
-1757.044766770185
 20
-586.0000371019498
 42
0.4142135623731
 10
-1758.544766770185
 20
-584.5000371019498
 42
0.4142135623731
 10
-1760.044766770185
 20
-586.0000371019498
 42
0.4142135623731
 10
-1758.544766770185
 20
-587.5000371019498
 42
0.4142135623731
  0
LWPOLYLINE
  5
1A4
330
1F
100
AcDbEntity
  8
0-B_寸法
  6
Continuous
 62
     7
370
     5
100
AcDbPolyline
 90
        4
 70
     1
 43
3.0
 10
-1757.044766770185
 20
-370.0010318100374
 42
0.4142135623731
 10
-1758.544766770185
 20
-368.5010318100374
 42
0.4142135623731
 10
-1760.044766770185
 20
-370.0010318100374
 42
0.4142135623731
 10
-1758.544766770185
 20
-371.5010318100374
 42
0.4142135623731
  0
LINE
  5
1A5
330
1F
100
AcDbEntity
  8
0-0_補助線
  6
JWW_HOJO
 62
   120
370
     5
100
AcDbLine
 10
-1758.544001934201
 20
-3370.000660769669
 30
0.0
 11
-1758.544702739187
 21
229.9989830363519
 31
0.0
  0
LWPOLYLINE
  5
1A6
330
1F
100
AcDbEntity
  8
0-B_寸法
  6
Continuous
 62
     7
370
     5
100
AcDbPolyline
 90
        4
 70
     1
 43
3.0
 10
-1577.044538435233
 20
-3298.000311980723
 42
0.4142135623731
 10
-1578.544538435233
 20
-3296.500311980723
 42
0.4142135623731
 10
-1580.044538435232
 20
-3298.000311980723
 42
0.4142135623731
 10
-1578.544538435233
 20
-3299.500311980722
 42
0.4142135623731
  0
LINE
  5
1A7
330
1F
100
AcDbEntity
  8
0-B_寸法
  6
Continuous
 62
   120
370
     5
100
AcDbLine
 10
-2148.545513111679
 20
-3298.000311980723
 30
0.0
 11
-1578.544538435233
 21
-3298.000311980723
 31
0.0
  0
LINE
  5
1A8
330
1F
100
AcDbEntity
  8
0-B_寸法
  6
Continuous
 62
   120
370
     5
100
AcDbLine
 10
-2148.545513111679
 20
-3370.000660870872
 30
0.0
 11
-1578.544538435233
 21
-3370.000660870872
 31
0.0
  0
LWPOLYLINE
  5
1A9
330
1F
100
AcDbEntity
  8
0-B_寸法
  6
Continuous
 62
     7
370
     5
100
AcDbPolyline
 90
        4
 70
     1
 43
3.0
 10
-1577.044538435233
 20
-3370.000660870872
 42
0.4142135623731
 10
-1578.544538435233
 20
-3368.500660870872
 42
0.4142135623731
 10
-1580.044538435232
 20
-3370.000660870872
 42
0.4142135623731
 10
-1578.544538435233
 20
-3371.500660870872
 42
0.4142135623731
  0
MTEXT
  5
1AA
330
1F
100
AcDbEntity
  8
0-B_寸法
  6
Continuous
 62
     7
370
     0
100
AcDbMText
 10
-1593.545330242664
 20
-3309.918529654608
 30
0.0
 40
91.44
 41
120.0
 46
0.0
 71
     7
 72
     1
  1
{\fＭＳ ゴシック|b0|i0|c128|p49;12}
 11
6.123031769111886E-17
 21
1.0
 31
0.0
 73
     1
 44
1.0
  0
LINE
  5
1AB
330
1F
100
AcDbEntity
  8
0-B_寸法
  6
Continuous
 62
   120
370
     5
100
AcDbLine
 10
-2148.545513111679
 20
-370.0010318100374
 30
0.0
 11
-1578.544538435233
 21
-370.0010318100374
 31
0.0
  0
LWPOLYLINE
  5
1AC
330
1F
100
AcDbEntity
  8
0-B_寸法
  6
Continuous
 62
     7
370
     5
100
AcDbPolyline
 90
        4
 70
     1
 43
3.0
 10
-1577.044538435233
 20
-370.0010318100374
 42
0.4142135623731
 10
-1578.544538435233
 20
-368.5010318100374
 42
0.4142135623731
 10
-1580.044538435232
 20
-370.0010318100374
 42
0.4142135623731
 10
-1578.544538435233
 20
-371.5010318100374
 42
0.4142135623731
  0
LWPOLYLINE
  5
1AD
330
1F
100
AcDbEntity
  8
0-B_寸法
  6
Continuous
 62
     7
370
     5
100
AcDbPolyline
 90
        4
 70
     1
 43
3.0
 10
-1577.044538435233
 20
-340.0010318100374
 42
0.4142135623731
 10
-1578.544538435233
 20
-338.5010318100374
 42
0.4142135623731
 10
-1580.044538435232
 20
-340.0010318100374
 42
0.4142135623731
 10
-1578.544538435233
 20
-341.5010318100374
 42
0.4142135623731
  0
LINE
  5
1AE
330
1F
100
AcDbEntity
  8
0-B_寸法
  6
Continuous
 62
   120
370
     5
100
AcDbLine
 10
-1578.544538435233
 20
-340.0010318100374
 30
0.0
 11
-2148.545513111679
 21
-340.0010318100374
 31
0.0
  0
MTEXT
  5
1AF
330
1F
100
AcDbEntity
  8
0-B_寸法
  6
Continuous
 62
     7
370
   211
100
AcDbMText
 10
-1599.445092174634
 20
-345.8400681120105
 30
0.0
 40
91.44
 41
60.0
 46
0.0
 71
     7
 72
     1
  1
{\fＭＳ ゴシック|b0|i0|c128|p49;5}
 11
6.123031769111886E-17
 21
1.0
 31
0.0
 73
     1
 44
1.0
  0
LINE
  5
1B0
330
1F
100
AcDbEntity
  8
0-B_寸法
  6
Continuous
 62
   120
370
     5
100
AcDbLine
 10
-1578.544538435233
 20
-3370.000660870872
 30
0.0
 11
-1578.544538435233
 21
-340.0010318100361
 31
0.0
  0
LINE
  5
1B1
330
1F
100
AcDbEntity
  8
0-0_補助線
  6
JWW_HOJO
 62
   120
370
     5
100
AcDbLine
 10
-1578.543773599245
 20
-3370.000660769669
 30
0.0
 11
-1578.544474404232
 21
229.9989830363519
 31
0.0
  0
LINE
  5
1B2
330
1F
100
AcDbEntity
  8
0-0_補助線
  6
JWW_HOJO
 62
   120
370
     5
100
AcDbLine
 10
-3342.544611477749
 20
-3370.00066076967
 30
0.0
 11
-3342.545312282738
 21
229.9989830363519
 31
0.0
  0
LINE
  5
1B3
330
1F
100
AcDbEntity
  8
0-3_仕上げ
  6
Continuous
 62
     7
370
     5
100
AcDbLine
 10
-3342.544626736547
 20
-3346.000544574156
 30
0.0
 11
-2148.544763534497
 21
-3346.000544574156
 31
0.0
  0
LINE
  5
1B4
330
1F
100
AcDbEntity
  8
0-3_仕上げ
  6
Continuous
 62
     7
370
     5
100
AcDbLine
 10
-3342.544626736547
 20
-3334.000579215731
 30
0.0
 11
-2148.544763534497
 21
-3334.000579215731
 31
0.0
  0
LINE
  5
1B5
330
1F
100
AcDbEntity
  8
0-3_仕上げ
  6
Continuous
 62
     7
370
     5
100
AcDbLine
 10
-3342.544626736547
 20
-3322.000613857306
 30
0.0
 11
-2148.544763534497
 21
-3322.000613857306
 31
0.0
  0
LINE
  5
1B6
330
1F
100
AcDbEntity
  8
0-3_仕上げ
  6
Continuous
 62
     7
370
     5
100
AcDbLine
 10
-3342.544626736547
 20
-3310.000462919013
 30
0.0
 11
-2148.544763534497
 21
-3310.000462919013
 31
0.0
  0
LINE
  5
1B7
330
1F
100
AcDbEntity
  8
0-3_仕上げ
  6
Continuous
 62
     7
370
     5
100
AcDbLine
 10
-3342.544626736547
 20
-3358.000695512447
 30
0.0
 11
-2148.544763534497
 21
-3358.000695512447
 31
0.0
  0
LINE
  5
1B8
330
1F
100
AcDbEntity
  8
0-3_仕上げ
  6
Continuous
 62
    40
370
     5
100
AcDbLine
 10
-3342.544626736547
 20
-3298.000683140456
 30
0.0
 11
-2148.544763534497
 21
-3298.000683140456
 31
0.0
  0
LINE
  5
1B9
330
1F
100
AcDbEntity
  8
0-3_仕上げ
  6
Continuous
 62
    40
370
     5
100
AcDbLine
 10
-3342.544626736547
 20
-3370.000660870872
 30
0.0
 11
-2148.544763534497
 21
-3370.000660870872
 31
0.0
  0
LWPOLYLINE
  5
1BA
330
1F
100
AcDbEntity
  8
0-B_寸法
  6
Continuous
 62
     7
370
     5
100
AcDbPolyline
 90
        4
 70
     1
 43
3.0
 10
-3701.045336709573
 20
-3370.000660870872
 42
0.4142135623731
 10
-3702.545336709573
 20
-3368.500660870872
 42
0.4142135623731
 10
-3704.045336709573
 20
-3370.000660870872
 42
0.4142135623731
 10
-3702.545336709573
 20
-3371.500660870872
 42
0.4142135623731
  0
LINE
  5
1BB
330
1F
100
AcDbEntity
  8
0-B_寸法
  6
Continuous
 62
   120
370
     5
100
AcDbLine
 10
-3702.545336709573
 20
-3370.000660870872
 30
0.0
 11
-3342.545376313731
 21
-3370.000660870872
 31
0.0
  0
LWPOLYLINE
  5
1BC
330
1F
100
AcDbEntity
  8
0-B_寸法
  6
Continuous
 62
     7
370
     5
100
AcDbPolyline
 90
        4
 70
     1
 43
3.0
 10
-3701.045336709573
 20
-340.0010318100374
 42
0.4142135623731
 10
-3702.545336709573
 20
-338.5010318100374
 42
0.4142135623731
 10
-3704.045336709573
 20
-340.0010318100374
 42
0.4142135623731
 10
-3702.545336709573
 20
-341.5010318100374
 42
0.4142135623731
  0
LINE
  5
1BD
330
1F
100
AcDbEntity
  8
0-B_寸法
  6
Continuous
 62
   120
370
     5
100
AcDbLine
 10
-3702.545336709573
 20
-3370.000660870872
 30
0.0
 11
-3702.545336709573
 21
-340.0010318100361
 31
0.0
  0
LINE
  5
1BE
330
1F
100
AcDbEntity
  8
0-B_寸法
  6
Continuous
 62
   120
370
     5
100
AcDbLine
 10
-3702.545336709573
 20
-340.0010318100374
 30
0.0
 11
-3066.545335613103
 21
-340.0010318100374
 31
0.0
  0
LINE
  5
1BF
330
1F
100
AcDbEntity
  8
0-0_補助線
  6
JWW_HOJO
 62
   120
370
     5
100
AcDbLine
 10
-3702.545336709573
 20
-3370.000660769669
 30
0.0
 11
-3702.546037514564
 21
229.9989830363523
 31
0.0
  0
LINE
  5
1C0
330
1F
100
AcDbEntity
  8
0-0_補助線
  6
JWW_HOJO
 62
   120
370
     5
100
AcDbLine
 10
-1578.543773599245
 20
-3370.000660769669
 30
0.0
 11
-3702.545336709573
 21
-3370.000660769669
 31
0.0
  0
LINE
  5
1C1
330
1F
100
AcDbEntity
  8
0-0_補助線
  6
JWW_HOJO
 62
   120
370
     5
100
AcDbLine
 10
-1578.544474404232
 20
229.9989830363511
 30
0.0
 11
-3702.546037514564
 21
229.9989830363511
 31
0.0
  0
MTEXT
  5
1C2
330
1F
100
AcDbEntity
  8
0-B_寸法
  6
Continuous
 62
     7
370
   211
100
AcDbMText
 10
-2163.545336709574
 20
-543.28083385818
 30
0.0
 40
91.43999999999481
 41
59.99999999999659
 46
0.0
 71
     7
 72
     1
  1
{\fＭＳ ゴシック|b0|i0|c128|p49;9}
 11
6.123031769111886E-17
 21
1.0
 31
0.0
 73
     1
 44
1.0
  0
LINE
  5
1C3
330
1F
100
AcDbEntity
  8
0-B_寸法
  6
Continuous
 62
   120
370
     5
100
AcDbLine
 10
-2148.545336709574
 20
-370.0010169636477
 30
0.0
 11
-2148.545336709574
 21
-436.0008338581792
 31
0.0
  0
LWPOLYLINE
  5
1C4
330
1F
100
AcDbEntity
  8
0-B_寸法
  6
Continuous
 62
     7
370
     5
100
AcDbPolyline
 90
        4
 70
     1
 43
3.0
 10
-2147.045336709574
 20
-370.0010169636477
 42
0.4142135623731
 10
-2148.545336709574
 20
-368.5010169636477
 42
0.4142135623731
 10
-2150.045336709574
 20
-370.0010169636477
 42
0.4142135623731
 10
-2148.545336709574
 20
-371.5010169636477
 42
0.4142135623731
  0
LWPOLYLINE
  5
1C5
330
1F
100
AcDbEntity
  8
0-B_寸法
  6
Continuous
 62
     7
370
     5
100
AcDbPolyline
 90
        4
 70
     1
 43
3.0
 10
-2147.045336709574
 20
-436.0008338581792
 42
0.4142135623731
 10
-2148.545336709574
 20
-434.5008338581792
 42
0.4142135623731
 10
-2150.045336709574
 20
-436.0008338581792
 42
0.4142135623731
 10
-2148.545336709574
 20
-437.5008338581792
 42
0.4142135623731
  0
LINE
  5
1C6
330
1F
100
AcDbEntity
  8
0-B_寸法
  6
Continuous
 62
   120
370
     5
100
AcDbLine
 10
-2148.545336709574
 20
-370.0010169636477
 30
0.0
 11
-2280.545382485945
 21
-370.0010169636477
 31
0.0
  0
LINE
  5
1C7
330
1F
100
AcDbEntity
  8
0-B_寸法
  6
Continuous
 62
   120
370
     5
100
AcDbLine
 10
-2148.545336709574
 20
-436.0008338581792
 30
0.0
 11
-2280.545382485945
 21
-436.0008338581792
 31
0.0
  0
LINE
  5
1C8
330
1F
100
AcDbEntity
  8
0-B_寸法
  6
Continuous
 62
   120
370
     5
100
AcDbLine
 10
-2148.545336709574
 20
-436.0008338581792
 30
0.0
 11
-2148.545336709574
 21
-472.0008338581789
 31
0.0
  0
LWPOLYLINE
  5
1C9
330
1F
100
AcDbEntity
  8
0-B_寸法
  6
Continuous
 62
     7
370
     5
100
AcDbPolyline
 90
        4
 70
     1
 43
3.0
 10
-2147.045336709574
 20
-472.0008338581789
 42
0.4142135623731
 10
-2148.545336709574
 20
-470.5008338581789
 42
0.4142135623731
 10
-2150.045336709574
 20
-472.0008338581789
 42
0.4142135623731
 10
-2148.545336709574
 20
-473.5008338581789
 42
0.4142135623731
  0
LINE
  5
1CA
330
1F
100
AcDbEntity
  8
0-B_寸法
  6
Continuous
 62
   120
370
     5
100
AcDbLine
 10
-2148.545336709574
 20
-472.0008338581789
 30
0.0
 11
-2280.545382485945
 21
-472.0008338581789
 31
0.0
  0
LINE
  5
1CB
330
1F
100
AcDbEntity
  8
0-B_寸法
  6
Continuous
 62
   120
370
     5
100
AcDbLine
 10
-2148.545336709574
 20
-472.0008338581789
 30
0.0
 11
-2148.545336709574
 21
-526.0008338581792
 31
0.0
  0
LWPOLYLINE
  5
1CC
330
1F
100
AcDbEntity
  8
0-B_寸法
  6
Continuous
 62
     7
370
     5
100
AcDbPolyline
 90
        4
 70
     1
 43
3.0
 10
-2147.045336709574
 20
-526.0008338581792
 42
0.4142135623731
 10
-2148.545336709574
 20
-524.5008338581792
 42
0.4142135623731
 10
-2150.045336709574
 20
-526.0008338581792
 42
0.4142135623731
 10
-2148.545336709574
 20
-527.5008338581792
 42
0.4142135623731
  0
LINE
  5
1CD
330
1F
100
AcDbEntity
  8
0-B_寸法
  6
Continuous
 62
   120
370
     5
100
AcDbLine
 10
-2148.545336709574
 20
-526.0008338581792
 30
0.0
 11
-2280.545382485945
 21
-526.0008338581792
 31
0.0
  0
LINE
  5
1CE
330
1F
100
AcDbEntity
  8
0-B_寸法
  6
Continuous
 62
   120
370
     5
100
AcDbLine
 10
-2148.545336709574
 20
-526.0008338581792
 30
0.0
 11
-2148.545336709574
 21
-586.0008338581792
 31
0.0
  0
LWPOLYLINE
  5
1CF
330
1F
100
AcDbEntity
  8
0-B_寸法
  6
Continuous
 62
     7
370
     5
100
AcDbPolyline
 90
        4
 70
     1
 43
3.0
 10
-2147.045336709574
 20
-586.0008338581792
 42
0.4142135623731
 10
-2148.545336709574
 20
-584.5008338581792
 42
0.4142135623731
 10
-2150.045336709574
 20
-586.0008338581792
 42
0.4142135623731
 10
-2148.545336709574
 20
-587.5008338581792
 42
0.4142135623731
  0
LINE
  5
1D0
330
1F
100
AcDbEntity
  8
0-B_寸法
  6
Continuous
 62
   120
370
     5
100
AcDbLine
 10
-2148.545336709574
 20
-586.0008338581792
 30
0.0
 11
-2280.545382485945
 21
-586.0008338581792
 31
0.0
  0
MTEXT
  5
1D1
330
1F
100
AcDbEntity
  8
0-B_寸法
  6
Continuous
 62
     7
370
   211
100
AcDbMText
 10
-2163.545336709574
 20
-366.2805913671529
 30
0.0
 40
91.44
 41
120.0
 46
0.0
 71
     7
 72
     1
  1
{\fＭＳ ゴシック|b0|i0|c128|p49;11}
 11
6.123031769111886E-17
 21
1.0
 31
0.0
 73
     1
 44
1.0
  0
MTEXT
  5
1D2
330
1F
100
AcDbEntity
  8
0-B_寸法
  6
Continuous
 62
     7
370
   211
100
AcDbMText
 10
-2163.545336709574
 20
-738.2804082616832
 30
0.0
 40
91.44
 41
120.0
 46
0.0
 71
     7
 72
     1
  1
{\fＭＳ ゴシック|b0|i0|c128|p49;10}
 11
6.123031769111886E-17
 21
1.0
 31
0.0
 73
     1
 44
1.0
  0
MTEXT
  5
1D3
330
1F
100
AcDbEntity
  8
0-B_寸法
  6
Continuous
 62
     7
370
   211
100
AcDbMText
 10
-2013.545336709574
 20
-498.2808338581787
 30
0.0
 40
91.44
 41
60.0
 46
0.0
 71
     7
 72
     1
  1
{\fＭＳ ゴシック|b0|i0|c128|p49;6}
 11
6.123031769111886E-17
 21
1.0
 31
0.0
 73
     1
 44
1.0
  0
LINE
  5
1D4
330
1F
100
AcDbEntity
  8
0-C_ハッチ
  6
Continuous
 62
   120
370
     5
100
AcDbLine
 10
-2520.098839595732
 20
-586.1467696853878
 30
0.0
 11
-2472.545285116554
 21
-538.5932152062092
 31
0.0
  0
LINE
  5
1D5
330
1F
100
AcDbEntity
  8
0-C_ハッチ
  6
Continuous
 62
   120
370
     5
100
AcDbLine
 10
-2756.480199550066
 20
-466.1463119217308
 30
0.0
 11
-2660.480840419194
 21
-370.1469527908591
 31
0.0
  0
LINE
  5
1D6
330
1F
100
AcDbEntity
  8
0-C_ハッチ
  6
Continuous
 62
   120
370
     5
100
AcDbLine
 10
-2995.274596553087
 20
-586.1467696854044
 30
0.0
 11
-2779.274779658544
 21
-370.1469527908566
 31
0.0
  0
LINE
  5
1D7
330
1F
100
AcDbEntity
  8
0-C_ハッチ
  6
Continuous
 62
   120
370
     5
100
AcDbLine
 10
-2826.083657812301
 20
-586.1467696853933
 30
0.0
 11
-2823.544913278182
 21
-583.6080251512772
 31
0.0
  0
LINE
  5
1D8
330
1F
100
AcDbEntity
  8
0-C_ハッチ
  6
Continuous
 62
   120
370
     5
100
AcDbLine
 10
-2935.877626933429
 20
-586.1467696853912
 30
0.0
 11
-2823.544913278182
 21
-473.8140560301439
 31
0.0
  0
LINE
  5
1D9
330
1F
100
AcDbEntity
  8
0-C_ハッチ
  6
Continuous
 62
   120
370
     5
100
AcDbLine
 10
-2815.877169169761
 20
-466.1463119217214
 30
0.0
 11
-2719.877810038889
 21
-370.1469527908523
 31
0.0
  0
LINE
  5
1DA
330
1F
100
AcDbEntity
  8
0-C_ハッチ
  6
Continuous
 62
   120
370
     5
100
AcDbLine
 10
-2876.480657313721
 20
-586.1467696853856
 30
0.0
 11
-2823.544913278182
 21
-533.211025649847
 31
0.0
  0
LINE
  5
1DB
330
1F
100
AcDbEntity
  8
0-4_枠
  6
Continuous
 62
    92
370
     5
100
AcDbLine
 10
-2472.545339888495
 20
-526.1467696853933
 30
0.0
 11
-2472.545352604166
 21
-586.1467696853933
 31
0.0
  0
LINE
  5
1DC
330
1F
100
AcDbEntity
  8
0-4_枠
  6
Continuous
 62
    92
370
     5
100
AcDbLine
 10
-2472.545320814993
 20
-436.1467696853933
 30
0.0
 11
-2472.545328444394
 21
-472.1467696853938
 31
0.0
  0
LINE
  5
1DD
330
1F
100
AcDbEntity
  8
0-4_枠
  6
Continuous
 62
    92
370
     5
100
AcDbLine
 10
-2514.545328444393
 20
-436.1467696853933
 30
0.0
 11
-2472.545320814993
 21
-436.1467696853933
 31
0.0
  0
LINE
  5
1DE
330
1F
100
AcDbEntity
  8
0-4_枠
  6
Continuous
 62
    92
370
     5
100
AcDbLine
 10
-2514.545328444393
 20
-436.1467696853933
 30
0.0
 11
-2514.545328444393
 21
-370.1469527908625
 31
0.0
  0
LINE
  5
1DF
330
1F
100
AcDbEntity
  8
0-4_枠
  6
Continuous
 62
    92
370
     5
100
AcDbLine
 10
-2823.546012983878
 20
-466.1463119217214
 30
0.0
 11
-2655.545760140975
 21
-466.1463119217214
 31
0.0
  0
LINE
  5
1E0
330
1F
100
AcDbEntity
  8
0-4_枠
  6
Continuous
 62
    92
370
     5
100
AcDbLine
 10
-2871.545352604161
 20
-370.1469527908625
 30
0.0
 11
-2514.545328444393
 21
-370.1469527908625
 31
0.0
  0
LINE
  5
1E1
330
1F
100
AcDbEntity
  8
0-4_枠
  6
Continuous
 62
    92
370
     5
100
AcDbLine
 10
-2871.545352604161
 20
-370.1469527908625
 30
0.0
 11
-2871.545360233562
 21
-406.1469527908622
 31
0.0
  0
LINE
  5
1E2
330
1F
100
AcDbEntity
  8
0-4_枠
  6
Continuous
 62
    92
370
     5
100
AcDbLine
 10
-3006.545360233565
 20
-406.1469527908627
 30
0.0
 11
-2871.545360233562
 21
-406.1469527908627
 31
0.0
  0
LINE
  5
1E3
330
1F
100
AcDbEntity
  8
0-4_枠
  6
Continuous
 62
    92
370
     5
100
AcDbLine
 10
-3006.545360233565
 20
-406.1469527908627
 30
0.0
 11
-3006.545398380532
 21
-586.1467696853933
 31
0.0
  0
LINE
  5
1E4
330
1F
100
AcDbEntity
  8
0-4_枠
  6
Continuous
 62
    92
370
     5
100
AcDbLine
 10
-2532.545339888495
 20
-526.1467696853933
 30
0.0
 11
-2472.545339888495
 21
-526.1467696853933
 31
0.0
  0
LINE
  5
1E5
330
1F
100
AcDbEntity
  8
0-4_枠
  6
Continuous
 62
    92
370
     5
100
AcDbLine
 10
-2532.545328444391
 20
-472.1467696853938
 30
0.0
 11
-2532.545339888495
 21
-526.1467696853933
 31
0.0
  0
LINE
  5
1E6
330
1F
100
AcDbEntity
  8
0-4_枠
  6
Continuous
 62
    92
370
     5
100
AcDbLine
 10
-2532.545328444391
 20
-472.1467696853938
 30
0.0
 11
-2472.545328444394
 21
-472.1467696853938
 31
0.0
  0
LINE
  5
1E7
330
1F
100
AcDbEntity
  8
0-C_ハッチ
  6
Continuous
 62
   120
370
     5
100
AcDbLine
 10
-3006.545363005513
 20
-419.2266272788423
 30
0.0
 11
-2993.465688517536
 21
-406.1469527908627
 31
0.0
  0
LINE
  5
1E8
330
1F
100
AcDbEntity
  8
0-C_ハッチ
  6
Continuous
 62
   120
370
     5
100
AcDbLine
 10
-3006.545375593385
 20
-478.6236094863497
 30
0.0
 11
-2934.068718897897
 21
-406.1469527908627
 31
0.0
  0
LINE
  5
1E9
330
1F
100
AcDbEntity
  8
0-C_ハッチ
  6
Continuous
 62
   120
370
     5
100
AcDbLine
 10
-2871.545359570993
 20
-403.0205630836588
 30
0.0
 11
-2838.671749278205
 21
-370.1469527908702
 31
0.0
  0
LINE
  5
1EA
330
1F
100
AcDbEntity
  8
0-C_ハッチ
  6
Continuous
 62
   120
370
     5
100
AcDbLine
 10
-3006.545388181257
 20
-538.0205916939233
 30
0.0
 11
-2874.671749278197
 21
-406.1469527908627
 31
0.0
  0
LINE
  5
1EB
330
1F
100
AcDbEntity
  8
0-C_ハッチ
  6
Continuous
 62
   120
370
     5
100
AcDbLine
 10
-2697.083229930408
 20
-466.1463119217206
 30
0.0
 11
-2601.08387079955
 21
-370.1469527908625
 31
0.0
  0
LINE
  5
1EC
330
1F
100
AcDbEntity
  8
0-C_ハッチ
  6
Continuous
 62
   120
370
     5
100
AcDbLine
 10
-2655.544660435279
 20
-484.004712046293
 30
0.0
 11
-2541.68690117985
 21
-370.1469527908625
 31
0.0
  0
LINE
  5
1ED
330
1F
100
AcDbEntity
  8
0-C_ハッチ
  6
Continuous
 62
   120
370
     5
100
AcDbLine
 10
-2655.544660435279
 20
-543.4016816659403
 30
0.0
 11
-2514.545328444393
 21
-402.4023496750519
 31
0.0
  0
LINE
  5
1EE
330
1F
100
AcDbEntity
  8
0-C_ハッチ
  6
Continuous
 62
   120
370
     5
100
AcDbLine
 10
-2638.892778835036
 20
-586.1467696853975
 30
0.0
 11
-2532.545330066179
 21
-479.7993209165406
 31
0.0
  0
LINE
  5
1EF
330
1F
100
AcDbEntity
  8
0-C_ハッチ
  6
Continuous
 62
   120
370
     5
100
AcDbLine
 10
-2524.892778835034
 20
-472.1467696853938
 30
0.0
 11
-2488.892778835033
 21
-436.1467696853933
 31
0.0
  0
LINE
  5
1F0
330
1F
100
AcDbEntity
  8
0-C_ハッチ
  6
Continuous
 62
   120
370
     5
100
AcDbLine
 10
-2579.495809215392
 20
-586.1467696854002
 30
0.0
 11
-2519.495809215386
 21
-526.1467696853933
 31
0.0
  0
LINE
  5
1F1
330
1F
100
AcDbEntity
  8
0-4_枠
  6
Continuous
 62
   120
370
     5
100
AcDbLine
 10
-2871.545352604161
 20
-370.1469527908625
 30
0.0
 11
-3015.54533670958
 21
-370.1469527908625
 31
0.0
  0
LINE
  5
1F2
330
1F
100
AcDbEntity
  8
0-4_枠
  6
Continuous
 62
    92
370
     5
100
AcDbLine
 10
-3006.545398380532
 20
-586.1467696853933
 30
0.0
 11
-2823.546012983878
 21
-586.1467696853933
 31
0.0
  0
LINE
  5
1F3
330
1F
100
AcDbEntity
  8
0-4_枠
  6
Continuous
 62
    92
370
     5
100
AcDbLine
 10
-2823.546012983878
 20
-586.1467696853933
 30
0.0
 11
-2823.546012983878
 21
-466.1463119217214
 31
0.0
  0
LINE
  5
1F4
330
1F
100
AcDbEntity
  8
0-4_枠
  6
Continuous
 62
    92
370
     5
100
AcDbLine
 10
-2655.545760140975
 20
-586.1467696853933
 30
0.0
 11
-2472.545352604166
 21
-586.1467696853933
 31
0.0
  0
LINE
  5
1F5
330
1F
100
AcDbEntity
  8
0-4_枠
  6
Continuous
 62
    92
370
     5
100
AcDbLine
 10
-2655.545760140975
 20
-466.1463119217214
 30
0.0
 11
-2655.545760140975
 21
-586.1467696853933
 31
0.0
  0
LINE
  5
1F6
330
1F
100
AcDbEntity
  8
0-0_補助線
  6
JWW_HOJO
 62
   120
370
     5
100
AcDbLine
 10
-3522.545336709577
 20
-3370.000625729415
 30
0.0
 11
-3522.546037514568
 21
229.9990180766055
 31
0.0
  0
LINE
  5
1F7
330
1F
100
AcDbEntity
  8
0-0_補助線
  6
JWW_HOJO
 62
   120
370
     5
100
AcDbLine
 10
-2509.859568687197
 20
-1870.001135734764
 30
0.0
 11
-2969.231104731957
 21
-1870.001135734764
 31
0.0
  0
LINE
  5
1F8
330
1F
100
AcDbEntity
  8
0-0_補助線
  6
JWW_HOJO
 62
   120
370
     5
100
AcDbLine
 10
-2509.859568687197
 20
-1990.001135734764
 30
0.0
 11
-2969.231104731957
 21
-1990.001135734764
 31
0.0
  0
LINE
  5
1F9
330
1F
100
AcDbEntity
  8
0-4_枠
  6
Continuous
 62
   120
370
     5
100
AcDbLine
 10
-3015.54533670958
 20
-3298.000683140456
 30
0.0
 11
-3015.54533670958
 21
-370.1469527908625
 31
0.0
  0
LINE
  5
1FA
330
1F
100
AcDbEntity
  8
0-B_寸法
  6
Continuous
 62
   120
370
     5
100
AcDbLine
 10
-2820.544787393176
 20
-1232.99060634551
 30
0.0
 11
-2658.544787393177
 21
-1232.99060634551
 31
0.0
  0
LWPOLYLINE
  5
1FB
330
1F
100
AcDbEntity
  8
0-B_寸法
  6
Continuous
 62
     7
370
     5
100
AcDbPolyline
 90
        4
 70
     1
 43
3.0
 10
-2819.044787393176
 20
-1232.99060634551
 42
0.4142135623731
 10
-2820.544787393176
 20
-1231.49060634551
 42
0.4142135623731
 10
-2822.044787393176
 20
-1232.99060634551
 42
0.4142135623731
 10
-2820.544787393176
 20
-1234.49060634551
 42
0.4142135623731
  0
LINE
  5
1FC
330
1F
100
AcDbEntity
  8
0-B_寸法
  6
Continuous
 62
   120
370
     5
100
AcDbLine
 10
-2820.544787393176
 20
-1148.753677766538
 30
0.0
 11
-2820.544787393176
 21
-1232.99060634551
 31
0.0
  0
LWPOLYLINE
  5
1FD
330
1F
100
AcDbEntity
  8
0-B_寸法
  6
Continuous
 62
     7
370
     5
100
AcDbPolyline
 90
        4
 70
     1
 43
3.0
 10
-2657.044787393177
 20
-1232.99060634551
 42
0.4142135623731
 10
-2658.544787393177
 20
-1231.49060634551
 42
0.4142135623731
 10
-2660.044787393177
 20
-1232.99060634551
 42
0.4142135623731
 10
-2658.544787393177
 20
-1234.49060634551
 42
0.4142135623731
  0
LINE
  5
1FE
330
1F
100
AcDbEntity
  8
0-B_寸法
  6
Continuous
 62
   120
370
     5
100
AcDbLine
 10
-2658.544787393177
 20
-1148.753677766538
 30
0.0
 11
-2658.544787393177
 21
-1232.99060634551
 31
0.0
  0
MTEXT
  5
1FF
330
1F
100
AcDbEntity
  8
0-B_寸法
  6
Continuous
 62
     7
370
     0
100
AcDbMText
 10
-2855.794232817657
 20
-1393.489229742412
 30
0.0
 40
91.43999999999986
 41
239.9999999999996
 46
0.0
 71
     7
 72
     1
  1
{\fＭＳ ゴシック|b0|i0|c128|p49;(24)}
 11
0.9999999999914964
 21
-4.124000483563069E-6
 31
0.0
 73
     1
 44
1.0
  0
MTEXT
  5
200
330
1F
100
AcDbEntity
  8
0-B_寸法
  6
Continuous
 62
     7
370
     0
100
AcDbMText
 10
-2799.545336709071
 20
-1232.270989877436
 30
0.0
 40
91.44000000000311
 41
120.0000000000041
 46
0.0
 71
     7
 72
     1
  1
{\fＭＳ ゴシック|b0|i0|c128|p49;27}
 11
0.9999999999914964
 21
4.124000465566128E-6
 31
0.0
 73
     1
 44
1.0
  0
MTEXT
  5
201
330
1F
100
AcDbEntity
  8
0-A_文字
  6
Continuous
 62
     7
370
     5
100
AcDbMText
 10
-3763.062520772506
 20
426.8069190289071
 30
0.0
 40
91.44
 41
600.0
 46
0.0
 71
     7
 72
     1
  1
{\fＭＳ ゴシック|b0|i0|c128|p49;■縦断面図}
 73
     1
 44
1.0
  0
MTEXT
  5
202
330
1F
100
AcDbEntity
  8
0-A_文字
  6
Continuous
 62
     7
370
     5
100
AcDbMText
 10
4278.667643811961
 20
3554.775383504013
 30
0.0
 40
63.55080000000001
 41
1042.5
 46
0.0
 71
     7
 72
     1
  1
{\fＭＳ ゴシック|b0|i0|c128|p49;上吊軸固定/フリーオープン}
 73
     1
 44
1.0
  0
LINE
  5
203
330
1F
100
AcDbEntity
  8
0-A_文字
  6
Continuous
 62
    92
370
     5
100
AcDbLine
 10
5369.917643811961
 20
3684.999983504013
 30
0.0
 11
4229.917643811961
 21
3684.999983504013
 31
0.0
  0
LINE
  5
204
330
1F
100
AcDbEntity
  8
0-A_文字
  6
Continuous
 62
    92
370
     5
100
AcDbLine
 10
5369.917643811961
 20
3540.999983504012
 30
0.0
 11
4229.917643811961
 21
3540.999983504012
 31
0.0
  0
LINE
  5
205
330
1F
100
AcDbEntity
  8
戸当り
  6
Continuous
 62
    40
370
     5
100
AcDbLine
 10
4439.917643811961
 20
3385.504011182749
 30
0.0
 11
4259.917643811961
 21
3385.504011182749
 31
0.0
  0
LINE
  5
206
330
1F
100
AcDbEntity
  8
戸当り
  6
Continuous
 62
    40
370
     5
100
AcDbLine
 10
4439.917643811961
 20
3439.504011182748
 30
0.0
 11
4259.917643811961
 21
3439.504011182748
 31
0.0
  0
LINE
  5
207
330
1F
100
AcDbEntity
  8
戸当り
  6
Continuous
 62
    40
370
     5
100
AcDbLine
 10
4439.917643811961
 20
3439.504011182748
 30
0.0
 11
4439.917643811961
 21
3385.504011182749
 31
0.0
  0
LINE
  5
208
330
1F
100
AcDbEntity
  8
戸当り
  6
Continuous
 62
    40
370
     5
100
AcDbLine
 10
5159.917643811961
 20
3385.504011182749
 30
0.0
 11
5339.917643811961
 21
3385.504011182749
 31
0.0
  0
LINE
  5
209
330
1F
100
AcDbEntity
  8
戸当り
  6
Continuous
 62
    40
370
     5
100
AcDbLine
 10
5159.917643811961
 20
3439.504011182748
 30
0.0
 11
5339.917643811961
 21
3439.504011182748
 31
0.0
  0
LINE
  5
20A
330
1F
100
AcDbEntity
  8
戸当り
  6
Continuous
 62
    40
370
     5
100
AcDbLine
 10
5159.917643811961
 20
3439.504011182748
 30
0.0
 11
5159.917643811961
 21
3385.504011182749
 31
0.0
  0
LINE
  5
20B
330
1F
100
AcDbEntity
  8
戸当り
  6
JWW_DASHED2
 62
     7
370
     5
100
AcDbLine
 10
5159.917643811961
 20
3385.504011182749
 30
0.0
 11
4439.917643811961
 21
3385.504011182749
 31
0.0
  0
LINE
  5
20C
330
1F
100
AcDbEntity
  8
戸当り
  6
Continuous
 62
    40
370
     5
100
AcDbLine
 10
5159.917643811961
 20
3385.504011182749
 30
0.0
 11
5097.801072987355
 21
3153.681812873372
 31
0.0
  0
LINE
  5
20D
330
1F
100
AcDbEntity
  8
戸当り
  6
Continuous
 62
    40
370
     5
100
AcDbLine
 10
5035.684502162751
 20
3385.504011182749
 30
0.0
 11
5097.801072987355
 21
3153.681812873372
 31
0.0
  0
LINE
  5
20E
330
1F
100
AcDbEntity
  8
戸当り
  6
Continuous
 62
    40
370
     5
100
AcDbLine
 10
4502.034214636565
 20
3153.681812873372
 30
0.0
 11
4439.917643811961
 21
3385.504011182749
 31
0.0
  0
LINE
  5
20F
330
1F
100
AcDbEntity
  8
戸当り
  6
Continuous
 62
    40
370
     5
100
AcDbLine
 10
4502.034214636565
 20
3153.681812873372
 30
0.0
 11
4564.150785461171
 21
3385.504011182749
 31
0.0
  0
CIRCLE
  5
210
330
1F
100
AcDbEntity
  8
0-0_補助線
  6
JWW_HOJO
 62
   120
370
     5
100
AcDbCircle
 10
4444.047372024825
 20
3385.504011182749
 30
0.0
 40
240.0
  0
CIRCLE
  5
211
330
1F
100
AcDbEntity
  8
0-0_補助線
  6
JWW_HOJO
 62
   120
370
     5
100
AcDbCircle
 10
4799.917643811961
 20
3385.504011182749
 30
0.0
 40
240.0
  0
CIRCLE
  5
212
330
1F
100
AcDbEntity
  8
0-0_補助線
  6
JWW_HOJO
 62
   120
370
     5
100
AcDbCircle
 10
5159.917643811961
 20
3385.504011182749
 30
0.0
 40
240.0
  0
LINE
  5
213
330
1F
100
AcDbEntity
  8
0-0_補助線
  6
JWW_HOJO
 62
   120
370
     5
100
AcDbLine
 10
4799.917643811961
 20
3684.999983504013
 30
0.0
 11
4799.917643811961
 21
2718.999983504013
 31
0.0
  0
LINE
  5
214
330
1F
100
AcDbEntity
  8
0-0_補助線
  6
JWW_HOJO
 62
   120
370
     5
100
AcDbLine
 10
4259.917643811961
 20
3684.999983504013
 30
0.0
 11
4259.917643811961
 21
2718.999983504013
 31
0.0
  0
LINE
  5
215
330
1F
100
AcDbEntity
  8
0-0_補助線
  6
JWW_HOJO
 62
   120
370
     5
100
AcDbLine
 10
5339.917643811961
 20
3684.999983504013
 30
0.0
 11
5339.917643811961
 21
2718.999983504013
 31
0.0
  0
LINE
  5
216
330
1F
100
AcDbEntity
  8
0-A_文字
  6
Continuous
 62
    92
370
     5
100
AcDbLine
 10
4229.917643811961
 20
3684.999983504013
 30
0.0
 11
4229.917643811961
 21
2718.999983504013
 31
0.0
  0
LINE
  5
217
330
1F
100
AcDbEntity
  8
0-A_文字
  6
Continuous
 62
    92
370
     5
100
AcDbLine
 10
5369.917643811961
 20
2718.999983504013
 30
0.0
 11
4229.917643811961
 21
2718.999983504013
 31
0.0
  0
LINE
  5
218
330
1F
100
AcDbEntity
  8
0-A_文字
  6
Continuous
 62
    92
370
     5
100
AcDbLine
 10
5369.917643811961
 20
3684.999983504013
 30
0.0
 11
5369.917643811961
 21
2718.999983504013
 31
0.0
  0
ELLIPSE
  5
219
330
1F
100
AcDbEntity
  8
戸当り
  6
Continuous
 62
    92
370
     5
100
AcDbEllipse
 10
4724.517918944779
 20
2927.884230441196
 30
0.0
 11
-17.7763823922528
 21
100.8148742797557
 31
0.0
210
0.0
220
0.0
230
1.0
 40
0.4000000000000001
 41
1.850633272656679
 42
2.442876790075129
  0
ELLIPSE
  5
21A
330
1F
100
AcDbEntity
  8
戸当り
  6
Continuous
 62
    92
370
     5
100
AcDbEllipse
 10
4724.517918944779
 20
2927.884230441196
 30
0.0
 11
-17.7763823922528
 21
100.8148742797557
 31
0.0
210
0.0
220
0.0
230
1.0
 40
0.4000000000000001
 41
3.840308517104466
 42
4.432552034522944
  0
ELLIPSE
  5
21B
330
1F
100
AcDbEntity
  8
戸当り
  6
Continuous
 62
    92
370
     5
100
AcDbEllipse
 10
4724.098172894875
 20
2930.264728582853
 30
0.0
 11
-14.67024424252691
 21
83.19908946199426
 31
0.0
210
0.0
220
0.0
230
1.0
 40
0.5
 41
4.340591432030095
 42
8.225779182329084
  0
LINE
  5
21C
330
1F
100
AcDbEntity
  8
戸当り
  6
Continuous
 62
    92
370
     5
100
AcDbLine
 10
4764.067802717541
 20
2855.267181117928
 30
0.0
 11
4712.189678628002
 21
2846.1196681324
 31
0.0
  0
LINE
  5
21D
330
1F
100
AcDbEntity
  8
戸当り
  6
Continuous
 62
    92
370
     5
100
AcDbLine
 10
4766.255769756144
 20
2842.858603429973
 30
0.0
 11
4714.377645666606
 21
2833.711090444447
 31
0.0
  0
ELLIPSE
  5
21E
330
1F
100
AcDbEntity
  8
戸当り
  6
Continuous
 62
    92
370
     5
100
AcDbEllipse
 10
4740.316707711373
 20
2838.28484693721
 30
0.0
 11
-7.622927487939132
 21
43.23177007461331
 31
0.0
210
0.0
220
0.0
230
1.0
 40
0.6000000000000001
 41
1.570796326794897
 42
4.71238898038469
  0
ELLIPSE
  5
21F
330
1F
100
AcDbEntity
  8
戸当り
  6
Continuous
 62
    92
370
     5
100
AcDbEllipse
 10
4878.978687882654
 20
2963.935065931004
 30
0.0
 11
26.49533313827761
 21
98.88192943551533
 31
0.0
210
0.0
220
0.0
230
0.9999999999999999
 40
0.4
 41
1.850633272656679
 42
2.442876790075129
  0
ELLIPSE
  5
220
330
1F
100
AcDbEntity
  8
戸当り
  6
Continuous
 62
    92
370
     5
100
AcDbEllipse
 10
4878.978687882654
 20
2963.935065931004
 30
0.0
 11
26.49533313827761
 21
98.88192943551533
 31
0.0
210
0.0
220
0.0
230
0.9999999999999999
 40
0.4
 41
3.840308517104466
 42
4.432552034522944
  0
ELLIPSE
  5
221
330
1F
100
AcDbEntity
  8
戸当り
  6
Continuous
 62
    92
370
     5
100
AcDbEllipse
 10
4879.604310755758
 20
2966.269922279796
 30
0.0
 11
21.86569797210526
 21
81.6038957748525
 31
0.0
210
0.0
220
0.0
230
1.0
 40
0.5
 41
4.340591432030095
 42
8.225779182329084
  0
LINE
  5
222
330
1F
100
AcDbEntity
  8
戸当り
  6
Continuous
 62
    92
370
     5
100
AcDbLine
 10
4884.133764364564
 20
2881.407165525609
 30
0.0
 11
4833.25031048817
 21
2895.041345899896
 31
0.0
  0
LINE
  5
223
330
1F
100
AcDbEntity
  8
戸当り
  6
Continuous
 62
    92
370
     5
100
AcDbLine
 10
4880.872644396272
 20
2869.236500114367
 30
0.0
 11
4829.989190519878
 21
2882.870680488653
 31
0.0
  0
ELLIPSE
  5
224
330
1F
100
AcDbEntity
  8
戸当り
  6
Continuous
 62
    92
370
     5
100
AcDbEllipse
 10
4855.430917458078
 20
2876.053590301511
 30
0.0
 11
11.36181697857171
 21
42.40287823032828
 31
0.0
210
0.0
220
0.0
230
0.9999999999999999
 40
0.6
 41
1.570796326794897
 42
4.71238898038469
  0
MTEXT
  5
225
330
1F
100
AcDbEntity
  8
0-A_文字
  6
Continuous
 62
     7
370
     0
100
AcDbMText
 10
-3702.545336709572
 20
-3613.551939285731
 30
0.0
 40
68.58000000000001
 41
1395.0
 46
0.0
 71
     7
 72
     1
  1
{\fＭＳ ゴシック|b0|i0|c128|p49;※ 扉厚（　）内はルーバーの場合}
 73
     1
 44
1.0
  0
MTEXT
  5
226
330
1F
100
AcDbEntity
  8
0-B_寸法
  6
Continuous
 62
     7
370
     0
100
AcDbMText
 10
-1953.544820280172
 20
-2256.810207048826
 30
0.0
 40
91.43999999999997
 41
660.0
 46
0.0
 71
     7
 72
     1
  1
{\fＭＳ ゴシック|b0|i0|c128|p49;ＤＨ＝2,284}
 11
6.123031769111886E-17
 21
1.0
 31
0.0
 73
     1
 44
1.0
  0
MTEXT
  5
227
330
1F
100
AcDbEntity
  8
0-B_寸法
  6
Continuous
 62
     7
370
     0
100
AcDbMText
 10
-1773.544073938678
 20
-2256.810207048826
 30
0.0
 40
91.43999999999997
 41
660.0
 46
0.0
 71
     7
 72
     1
  1
{\fＭＳ ゴシック|b0|i0|c128|p49;枠内＝2,303}
 11
6.123031769111886E-17
 21
1.0
 31
0.0
 73
     1
 44
1.0
  0
MTEXT
  5
228
330
1F
100
AcDbEntity
  8
0-B_寸法
  6
Continuous
 62
     7
370
     0
100
AcDbMText
 10
-1593.545330242664
 20
-2256.810207048826
 30
0.0
 40
91.43999999999997
 41
660.0
 46
0.0
 71
     7
 72
     1
  1
{\fＭＳ ゴシック|b0|i0|c128|p49;枠外＝2,339}
 11
6.123031769111886E-17
 21
1.0
 31
0.0
 73
     1
 44
1.0
  0
MTEXT
  5
229
330
1F
100
AcDbEntity
  8
0-B_寸法
  6
Continuous
 62
     7
370
   211
100
AcDbMText
 10
-3717.545336709573
 20
-2316.810207048826
 30
0.0
 40
91.43999999999997
 41
780.0
 46
0.0
 71
     7
 72
     1
  1
{\fＭＳ ゴシック|b0|i0|c128|p49;ＲＯＨ＝2,356}
 11
6.123031769111886E-17
 21
1.0
 31
0.0
 73
     1
 44
1.0
  0
LINE
  5
22A
330
1F
100
AcDbEntity
  8
0-C_ハッチ
  6
JWW_DASHED1
 62
   120
370
     5
100
AcDbLine
 10
-2168.930579893294
 20
2052.946547105879
 30
0.0
 11
-2162.081444790688
 21
2059.795682208485
 31
0.0
  0
LINE
  5
22B
330
1F
100
AcDbEntity
  8
0-C_ハッチ
  6
JWW_DASHED1
 62
   120
370
     5
100
AcDbLine
 10
-2211.35698676449
 20
2052.946547105883
 30
0.0
 11
-2162.081444790688
 21
2102.222089079685
 31
0.0
  0
LINE
  5
22C
330
1F
100
AcDbEntity
  8
0-C_ハッチ
  6
JWW_DASHED1
 62
   120
370
     5
100
AcDbLine
 10
-2253.783393635704
 20
2052.946547105872
 30
0.0
 11
-2178.783146195872
 21
2127.946794545705
 31
0.0
  0
LINE
  5
22D
330
1F
100
AcDbEntity
  8
0-C_ハッチ
  6
JWW_DASHED1
 62
   120
370
     5
100
AcDbLine
 10
-2296.209800506897
 20
2052.946547105879
 30
0.0
 11
-2221.209553067065
 21
2127.946794545708
 31
0.0
  0
LINE
  5
22E
330
1F
100
AcDbEntity
  8
0-C_ハッチ
  6
JWW_DASHED1
 62
   120
370
     5
100
AcDbLine
 10
-2338.63620737809
 20
2052.946547105883
 30
0.0
 11
-2263.635959938265
 21
2127.946794545712
 31
0.0
  0
LINE
  5
22F
330
1F
100
AcDbEntity
  8
0-C_ハッチ
  6
JWW_DASHED1
 62
   120
370
     5
100
AcDbLine
 10
-2381.062614249294
 20
2052.946547105879
 30
0.0
 11
-2306.062366809465
 21
2127.946794545712
 31
0.0
  0
LINE
  5
230
330
1F
100
AcDbEntity
  8
0-C_ハッチ
  6
JWW_DASHED1
 62
   120
370
     5
100
AcDbLine
 10
-2423.489021120449
 20
2052.946547105872
 30
0.0
 11
-2348.488773680614
 21
2127.946794545705
 31
0.0
  0
LINE
  5
231
330
1F
100
AcDbEntity
  8
0-C_ハッチ
  6
JWW_DASHED1
 62
   120
370
     5
100
AcDbLine
 10
-2465.915427991642
 20
2052.946547105876
 30
0.0
 11
-2390.91518055181
 21
2127.946794545708
 31
0.0
  0
LINE
  5
232
330
1F
100
AcDbEntity
  8
0-C_ハッチ
  6
JWW_DASHED1
 62
   120
370
     5
100
AcDbLine
 10
-2508.341834862842
 20
2052.946547105879
 30
0.0
 11
-2433.34158742301
 21
2127.946794545711
 31
0.0
  0
LINE
  5
233
330
1F
100
AcDbEntity
  8
0-C_ハッチ
  6
JWW_DASHED1
 62
   120
370
     5
100
AcDbLine
 10
-2550.768241734036
 20
2052.94654710588
 30
0.0
 11
-2475.767994294204
 21
2127.946794545715
 31
0.0
  0
LINE
  5
234
330
1F
100
AcDbEntity
  8
0-C_ハッチ
  6
JWW_DASHED1
 62
   120
370
     5
100
AcDbLine
 10
-2593.194648605236
 20
2052.94654710588
 30
0.0
 11
-2518.19440116541
 21
2127.946794545711
 31
0.0
  0
LINE
  5
235
330
1F
100
AcDbEntity
  8
0-C_ハッチ
  6
JWW_DASHED1
 62
   120
370
     5
100
AcDbLine
 10
-2635.621055476436
 20
2052.946547105886
 30
0.0
 11
-2560.620808036604
 21
2127.946794545715
 31
0.0
  0
LINE
  5
236
330
1F
100
AcDbEntity
  8
0-C_ハッチ
  6
JWW_DASHED1
 62
   120
370
     5
100
AcDbLine
 10
-2678.047462347629
 20
2052.94654710589
 30
0.0
 11
-2603.047214907797
 21
2127.946794545719
 31
0.0
  0
LINE
  5
237
330
1F
100
AcDbEntity
  8
0-C_ハッチ
  6
JWW_DASHED1
 62
   120
370
     5
100
AcDbLine
 10
-2720.473869218856
 20
2052.946547105862
 30
0.0
 11
-2645.473621779024
 21
2127.946794545698
 31
0.0
  0
LINE
  5
238
330
1F
100
AcDbEntity
  8
0-C_ハッチ
  6
Continuous
 62
    40
370
     5
100
AcDbLine
 10
-2162.081444790688
 20
2052.946794545711
 30
0.0
 11
-2162.081444790688
 21
2127.946794545711
 31
0.0
  0
LINE
  5
239
330
1F
100
AcDbEntity
  8
0-3_仕上げ
  6
Continuous
 62
    40
370
     5
100
AcDbLine
 10
-2162.081444790688
 20
2052.946794545711
 30
0.0
 11
-2762.081197362861
 21
2052.946794545711
 31
0.0
  0
LINE
  5
23A
330
1F
100
AcDbEntity
  8
0-3_仕上げ
  6
Continuous
 62
    40
370
     5
100
AcDbLine
 10
-2162.081444790688
 20
2127.946794545711
 30
0.0
 11
-2762.081197362861
 21
2127.946794545711
 31
0.0
  0
LINE
  5
23B
330
1F
100
AcDbEntity
  8
0-C_ハッチ
  6
JWW_DASHED1
 62
   120
370
     5
100
AcDbLine
 10
-2762.081197362861
 20
2053.765625833002
 30
0.0
 11
-2687.900028650163
 21
2127.946794545705
 31
0.0
  0
LINE
  5
23C
330
1F
100
AcDbEntity
  8
0-C_ハッチ
  6
JWW_DASHED1
 62
   120
370
     5
100
AcDbLine
 10
2183.415982162569
 20
2052.946794545712
 30
0.0
 11
2258.415982162579
 21
2127.946794545725
 31
0.0
  0
LINE
  5
23D
330
1F
100
AcDbEntity
  8
0-C_ハッチ
  6
JWW_DASHED1
 62
   120
370
     5
100
AcDbLine
 10
2225.842389033781
 20
2052.946794545725
 30
0.0
 11
2300.842389033774
 21
2127.946794545719
 31
0.0
  0
LINE
  5
23E
330
1F
100
AcDbEntity
  8
0-C_ハッチ
  6
JWW_DASHED1
 62
   120
370
     5
100
AcDbLine
 10
2268.268795904979
 20
2052.946794545725
 30
0.0
 11
2343.268795904976
 21
2127.946794545719
 31
0.0
  0
LINE
  5
23F
330
1F
100
AcDbEntity
  8
0-C_ハッチ
  6
JWW_DASHED1
 62
   120
370
     5
100
AcDbLine
 10
2310.695202776176
 20
2052.946794545719
 30
0.0
 11
2385.695202776173
 21
2127.946794545718
 31
0.0
  0
LINE
  5
240
330
1F
100
AcDbEntity
  8
0-C_ハッチ
  6
JWW_DASHED1
 62
   120
370
     5
100
AcDbLine
 10
2353.121609647373
 20
2052.946794545718
 30
0.0
 11
2428.121609647369
 21
2127.946794545712
 31
0.0
  0
LINE
  5
241
330
1F
100
AcDbEntity
  8
0-C_ハッチ
  6
JWW_DASHED1
 62
   120
370
     5
100
AcDbLine
 10
2395.548016518511
 20
2052.946794545711
 30
0.0
 11
2470.548016518506
 21
2127.946794545705
 31
0.0
  0
LINE
  5
242
330
1F
100
AcDbEntity
  8
0-C_ハッチ
  6
JWW_DASHED1
 62
   120
370
     5
100
AcDbLine
 10
2437.974423389708
 20
2052.946794545705
 30
0.0
 11
2512.97442338972
 21
2127.946794545718
 31
0.0
  0
LINE
  5
243
330
1F
100
AcDbEntity
  8
0-C_ハッチ
  6
JWW_DASHED1
 62
   120
370
     5
100
AcDbLine
 10
2480.400830260911
 20
2052.946794545711
 30
0.0
 11
2555.400830260921
 21
2127.946794545719
 31
0.0
  0
LINE
  5
244
330
1F
100
AcDbEntity
  8
0-C_ハッチ
  6
JWW_DASHED1
 62
   120
370
     5
100
AcDbLine
 10
2522.827237132123
 20
2052.946794545722
 30
0.0
 11
2597.827237132116
 21
2127.946794545715
 31
0.0
  0
LINE
  5
245
330
1F
100
AcDbEntity
  8
0-C_ハッチ
  6
JWW_DASHED1
 62
   120
370
     5
100
AcDbLine
 10
2565.25364400332
 20
2052.946794545718
 30
0.0
 11
2640.253644003313
 21
2127.946794545711
 31
0.0
  0
LINE
  5
246
330
1F
100
AcDbEntity
  8
0-C_ハッチ
  6
JWW_DASHED1
 62
   120
370
     5
100
AcDbLine
 10
2607.680050874526
 20
2052.946794545725
 30
0.0
 11
2682.680050874523
 21
2127.946794545722
 31
0.0
  0
LINE
  5
247
330
1F
100
AcDbEntity
  8
0-C_ハッチ
  6
JWW_DASHED1
 62
   120
370
     5
100
AcDbLine
 10
2650.106457745723
 20
2052.946794545722
 30
0.0
 11
2725.10645774572
 21
2127.946794545718
 31
0.0
  0
LINE
  5
248
330
1F
100
AcDbEntity
  8
0-C_ハッチ
  6
JWW_DASHED1
 62
   120
370
     5
100
AcDbLine
 10
2181.918530477324
 20
2093.875749731668
 30
0.0
 11
2215.989575291384
 21
2127.946794545729
 31
0.0
  0
LINE
  5
249
330
1F
100
AcDbEntity
  8
0-3_仕上げ
  6
Continuous
 62
    40
370
     5
100
AcDbLine
 10
2181.918530477324
 20
2127.946794545711
 30
0.0
 11
2781.918332525465
 21
2127.946794545711
 31
0.0
  0
LINE
  5
24A
330
1F
100
AcDbEntity
  8
0-3_仕上げ
  6
Continuous
 62
    40
370
     5
100
AcDbLine
 10
2181.918530477324
 20
2052.946794545711
 30
0.0
 11
2781.918332525465
 21
2052.946794545711
 31
0.0
  0
LINE
  5
24B
330
1F
100
AcDbEntity
  8
0-C_ハッチ
  6
JWW_DASHED1
 62
   120
370
     5
100
AcDbLine
 10
2734.959271488058
 20
2052.946794545711
 30
0.0
 11
2781.918332525465
 21
2099.905855583118
 31
0.0
  0
LINE
  5
24C
330
1F
100
AcDbEntity
  8
0-C_ハッチ
  6
JWW_DASHED1
 62
   120
370
     5
100
AcDbLine
 10
2692.53286461692
 20
2052.946794545718
 30
0.0
 11
2767.532864616911
 21
2127.946794545711
 31
0.0
  0
LINE
  5
24D
330
1F
100
AcDbEntity
  8
0-C_ハッチ
  6
Continuous
 62
    40
370
     5
100
AcDbLine
 10
2181.918530477324
 20
2052.946794545711
 30
0.0
 11
2181.918579965286
 21
2127.946794545711
 31
0.0
  0
LINE
  5
24E
330
1F
100
AcDbEntity
  8
0-3_仕上げ
  6
Continuous
 62
   120
370
     5
100
AcDbLine
 10
-2514.545328444393
 20
-208.000848704567
 30
0.0
 11
-2514.545328444393
 21
-406.0008487045681
 31
0.0
  0
LINE
  5
24F
330
1F
100
AcDbEntity
  8
0-C_ハッチ
  6
JWW_DASHED1
 62
   120
370
     5
100
AcDbLine
 10
-2514.54532844439
 20
66.32547189310401
 30
0.0
 11
-2439.545328444397
 21
141.3254718930985
 31
0.0
  0
LINE
  5
250
330
1F
100
AcDbEntity
  8
0-C_ハッチ
  6
JWW_DASHED1
 62
   120
370
     5
100
AcDbLine
 10
-2514.5453284444
 20
23.89906502194748
 30
0.0
 11
-2439.54532844439
 21
98.89906502195984
 31
0.0
  0
LINE
  5
251
330
1F
100
AcDbEntity
  8
0-C_ハッチ
  6
JWW_DASHED1
 62
   120
370
     5
100
AcDbLine
 10
-2514.545328444397
 20
-18.52734184924827
 30
0.0
 11
-2439.545328444383
 21
56.47265815076281
 31
0.0
  0
LINE
  5
252
330
1F
100
AcDbEntity
  8
0-C_ハッチ
  6
JWW_DASHED1
 62
   120
370
     5
100
AcDbLine
 10
-2514.545328444393
 20
-60.95374872044573
 30
0.0
 11
-2439.545328444397
 21
14.04625127955043
 31
0.0
  0
LINE
  5
253
330
1F
100
AcDbEntity
  8
0-C_ハッチ
  6
JWW_DASHED1
 62
   120
370
     5
100
AcDbLine
 10
-2514.54532844439
 20
-103.3801555916415
 30
0.0
 11
-2439.545328444393
 21
-28.38015559164702
 31
0.0
  0
LINE
  5
254
330
1F
100
AcDbEntity
  8
0-C_ハッチ
  6
JWW_DASHED1
 62
   120
370
     5
100
AcDbLine
 10
-2514.545328444387
 20
-145.8065624628389
 30
0.0
 11
-2439.54532844439
 21
-70.80656246284406
 31
0.0
  0
LINE
  5
255
330
1F
100
AcDbEntity
  8
0-C_ハッチ
  6
JWW_DASHED1
 62
   120
370
     5
100
AcDbLine
 10
-2514.545328444383
 20
-188.2329693340373
 30
0.0
 11
-2439.54532844439
 21
-113.2329693340415
 31
0.0
  0
LINE
  5
256
330
1F
100
AcDbEntity
  8
0-C_ハッチ
  6
JWW_DASHED1
 62
   120
370
     5
100
AcDbLine
 10
-2514.545328444387
 20
-230.659376205239
 30
0.0
 11
-2439.54532844439
 21
-155.6593762052441
 31
0.0
  0
LINE
  5
257
330
1F
100
AcDbEntity
  8
0-C_ハッチ
  6
JWW_DASHED1
 62
   120
370
     5
100
AcDbLine
 10
-2514.545328444383
 20
-273.0857830764347
 30
0.0
 11
-2439.545328444387
 21
-198.0857830764403
 31
0.0
  0
LINE
  5
258
330
1F
100
AcDbEntity
  8
0-C_ハッチ
  6
JWW_DASHED1
 62
   120
370
     5
100
AcDbLine
 10
-2514.545328444403
 20
-315.5121899475994
 30
0.0
 11
-2439.54532844439
 21
-240.512189947587
 31
0.0
  0
LINE
  5
259
330
1F
100
AcDbEntity
  8
0-C_ハッチ
  6
JWW_DASHED1
 62
   120
370
     5
100
AcDbLine
 10
-2514.545328444397
 20
-357.9385968187972
 30
0.0
 11
-2439.545328444387
 21
-282.9385968187844
 31
0.0
  0
LINE
  5
25A
330
1F
100
AcDbEntity
  8
0-C_ハッチ
  6
JWW_DASHED1
 62
   120
370
     5
100
AcDbLine
 10
-2514.545328444397
 20
-400.365003689993
 30
0.0
 11
-2439.545328444397
 21
-325.3650036899964
 31
0.0
  0
LINE
  5
25B
330
1F
100
AcDbEntity
  8
0-C_ハッチ
  6
JWW_DASHED1
 62
   120
370
     5
100
AcDbLine
 10
-2507.900687568597
 20
-436.1467696853941
 30
0.0
 11
-2439.545328444397
 21
-367.7914105611939
 31
0.0
  0
LINE
  5
25C
330
1F
100
AcDbEntity
  8
0-C_ハッチ
  6
JWW_DASHED1
 62
   120
370
     5
100
AcDbLine
 10
-2465.474280697397
 20
-436.1467696853941
 30
0.0
 11
-2439.54532844439
 21
-410.2178174323896
 31
0.0
  0
LINE
  5
25D
330
1F
100
AcDbEntity
  8
0-3_仕上げ
  6
Continuous
 62
    40
370
     5
100
AcDbLine
 10
-2439.545328444393
 20
-436.1467696853933
 30
0.0
 11
-2514.545328444393
 21
-436.1467696853933
 31
0.0
  0
LINE
  5
25E
330
1F
100
AcDbEntity
  8
0-3_仕上げ
  6
Continuous
 62
   120
370
     5
100
AcDbLine
 10
-2514.545328444393
 20
-340.0010318100374
 30
0.0
 11
-2934.545328444397
 21
-340.0010318100374
 31
0.0
  0
LINE
  5
25F
330
1F
100
AcDbEntity
  8
0-3_仕上げ
  6
Continuous
 62
   120
370
     5
100
AcDbLine
 10
-2934.545328444397
 20
-340.0010318100374
 30
0.0
 11
-2934.545328444397
 21
-160.0010318100374
 31
0.0
  0
LINE
  5
260
330
1F
100
AcDbEntity
  8
0-3_仕上げ
  6
Continuous
 62
   120
370
     5
100
AcDbLine
 10
-2934.545328444397
 20
-160.0010318100374
 30
0.0
 11
-2514.545328444393
 21
-160.0010318100374
 31
0.0
  0
LINE
  5
261
330
1F
100
AcDbEntity
  8
0-3_仕上げ
  6
Continuous
 62
   120
370
     5
100
AcDbLine
 10
-2934.545328444397
 20
-160.0010318100374
 30
0.0
 11
-2514.545328444393
 21
-340.0010318100374
 31
0.0
  0
LINE
  5
262
330
1F
100
AcDbEntity
  8
0-3_仕上げ
  6
Continuous
 62
    40
370
     5
100
AcDbLine
 10
-2514.545328444393
 20
-436.1467696853933
 30
0.0
 11
-2514.545328444393
 21
229.9989830363511
 31
0.0
  0
LINE
  5
263
330
1F
100
AcDbEntity
  8
0-3_仕上げ
  6
Continuous
 62
    40
370
     5
100
AcDbLine
 10
-2439.545328444393
 20
-436.1467696853933
 30
0.0
 11
-2439.545328444393
 21
229.9989830363511
 31
0.0
  0
LINE
  5
264
330
1F
100
AcDbEntity
  8
0-C_ハッチ
  6
JWW_DASHED1
 62
   120
370
     5
100
AcDbLine
 10
-2514.545328444393
 20
108.7518787642998
 30
0.0
 11
-2439.545328444393
 21
183.7518787643008
 31
0.0
  0
LINE
  5
265
330
1F
100
AcDbEntity
  8
0-C_ハッチ
  6
JWW_DASHED1
 62
   120
370
     5
100
AcDbLine
 10
-2514.545328444383
 20
151.1782856355109
 30
0.0
 11
-2437.634979743961
 21
228.088634335918
 31
0.0
  0
LINE
  5
266
330
1F
100
AcDbEntity
  8
0-B_寸法
  6
Continuous
 62
   120
370
     5
100
AcDbLine
 10
-1983.202815911754
 20
1916.625615763547
 30
0.0
 11
-1873.539334135265
 21
1916.625615763547
 31
0.0
  0
LINE
  5
267
330
1F
100
AcDbEntity
  8
0-B_寸法
  6
Continuous
 62
   120
370
     5
100
AcDbLine
 10
-2042.081444790691
 20
1806.945997789481
 30
0.0
 11
-1983.202815911754
 21
1916.625615763547
 31
0.0
  0
MTEXT
  5
268
330
1F
100
AcDbEntity
  8
0-B_寸法
  6
Continuous
 62
     7
370
   211
100
AcDbMText
 10
-1974.309655205087
 20
1908.327415644403
 30
0.0
 40
91.43999999999984
 41
119.9999999999998
 46
0.0
 71
     7
 72
     1
  1
{\fＭＳ ゴシック|b0|i0|c128|p49;10}
 73
     1
 44
1.0
  0
LINE
  5
269
330
1F
100
AcDbEntity
  8
0-B_寸法
  6
Continuous
 62
   120
370
     5
100
AcDbLine
 10
-2264.08139531472
 20
1697.266379815415
 30
0.0
 11
-2319.168109233086
 21
1697.266379815415
 31
0.0
  0
LINE
  5
26A
330
1F
100
AcDbEntity
  8
0-B_寸法
  6
Continuous
 62
   120
370
     5
100
AcDbLine
 10
-2144.08139531472
 20
1806.945997789481
 30
0.0
 11
-2264.08139531472
 21
1697.266379815415
 31
0.0
  0
MTEXT
  5
26B
330
1F
100
AcDbEntity
  8
0-B_寸法
  6
Continuous
 62
     7
370
   211
100
AcDbMText
 10
-2316.581395314719
 20
1674.223097592993
 30
0.0
 40
91.44
 41
60.0
 46
0.0
 71
     7
 72
     1
  1
{\fＭＳ ゴシック|b0|i0|c128|p49;6}
 73
     1
 44
1.0
  0
LINE
  5
26C
330
1F
100
AcDbEntity
  8
0-B_寸法
  6
Continuous
 62
   120
370
     5
100
AcDbLine
 10
-2292.161076538354
 20
1916.625615763547
 30
0.0
 11
-2347.24779045672
 21
1916.625615763547
 31
0.0
  0
LINE
  5
26D
330
1F
100
AcDbEntity
  8
0-B_寸法
  6
Continuous
 62
   120
370
     5
100
AcDbLine
 10
-2172.161076538354
 20
1806.945997789481
 30
0.0
 11
-2292.161076538354
 21
1916.625615763547
 31
0.0
  0
MTEXT
  5
26E
330
1F
100
AcDbEntity
  8
0-B_寸法
  6
Continuous
 62
     7
370
   211
100
AcDbMText
 10
-2350.862068965517
 20
1906.409655172414
 30
0.0
 40
91.44
 41
60.0
 46
0.0
 71
     7
 72
     1
  1
{\fＭＳ ゴシック|b0|i0|c128|p49;5}
 73
     1
 44
1.0
  0
LWPOLYLINE
  5
26F
330
1F
100
AcDbEntity
  8
0-B_寸法
  6
Continuous
 62
     7
370
     5
100
AcDbPolyline
 90
        4
 70
     1
 43
3.0
 10
-2471.045352604166
 20
-881.4833562677842
 42
0.4142135623731
 10
-2472.545352604166
 20
-879.9833562677842
 42
0.4142135623731
 10
-2474.045352604166
 20
-881.4833562677842
 42
0.4142135623731
 10
-2472.545352604166
 20
-882.9833562677842
 42
0.4142135623731
  0
LINE
  5
270
330
1F
100
AcDbEntity
  8
0-B_寸法
  6
Continuous
 62
   120
370
     5
100
AcDbLine
 10
-2472.545352604166
 20
-881.4833562677842
 30
0.0
 11
-2472.545352604166
 21
-727.7724088458899
 31
0.0
  0
LWPOLYLINE
  5
271
330
1F
100
AcDbEntity
  8
0-B_寸法
  6
Continuous
 62
     7
370
     5
100
AcDbPolyline
 90
        4
 70
     1
 43
3.0
 10
-3005.045398380532
 20
-881.4833562677842
 42
0.4142135623731
 10
-3006.545398380532
 20
-879.9833562677842
 42
0.4142135623731
 10
-3008.045398380532
 20
-881.4833562677842
 42
0.4142135623731
 10
-3006.545398380532
 20
-882.9833562677842
 42
0.4142135623731
  0
LINE
  5
272
330
1F
100
AcDbEntity
  8
0-B_寸法
  6
Continuous
 62
   120
370
     5
100
AcDbLine
 10
-3006.545398380532
 20
-881.4833562677842
 30
0.0
 11
-3006.545398380532
 21
-727.7724088458899
 31
0.0
  0
LINE
  5
273
330
1F
100
AcDbEntity
  8
0-B_寸法
  6
Continuous
 62
   120
370
     5
100
AcDbLine
 10
-2472.545352604166
 20
-881.4833562677842
 30
0.0
 11
-3006.545398380532
 21
-881.4833562677842
 31
0.0
  0
MTEXT
  5
274
330
1F
100
AcDbEntity
  8
0-B_寸法
  6
Continuous
 62
     7
370
     0
100
AcDbMText
 10
-2799.545336709579
 20
-880.7633562677842
 30
0.0
 40
91.44
 41
120.0
 46
0.0
 71
     7
 72
     1
  1
{\fＭＳ ゴシック|b0|i0|c128|p49;89}
 73
     1
 44
1.0
  0
LINE
  5
275
330
1F
100
AcDbEntity
  8
0-4_枠
  6
Continuous
 62
   120
370
     5
100
AcDbLine
 10
-2463.545336709584
 20
-436.1467696853933
 30
0.0
 11
-2463.545336709584
 21
-3298.000683140455
 31
0.0
  0
MTEXT
  5
276
330
1F
100
AcDbEntity
  8
0-B_寸法
  6
Continuous
 62
     7
370
   211
100
AcDbMText
 10
-2158.571428571428
 20
1087.665997789479
 30
0.0
 40
91.44
 41
60.0
 46
0.0
 71
     7
 72
     1
  1
{\fＭＳ ゴシック|b0|i0|c128|p49;5}
 73
     1
 44
1.0
  0
MTEXT
  5
277
330
1F
100
AcDbEntity
  8
0-B_寸法
  6
Continuous
 62
     7
370
   211
100
AcDbMText
 10
2125.490008536712
 20
1087.665997789479
 30
0.0
 40
91.44
 41
60.0
 46
0.0
 71
     7
 72
     1
  1
{\fＭＳ ゴシック|b0|i0|c128|p49;5}
 73
     1
 44
1.0
  0
MTEXT
  5
278
330
1F
100
AcDbEntity
  8
0-0_補助線
  6
Continuous
 62
     7
370
     0
100
AcDbMText
 10
-945.7090927639616
 20
-456.9447688225185
 30
0.0
 40
91.44
 41
1440.0
 46
0.0
 71
     7
 72
     1
  1
{\fＭＳ ゴシック|b0|i0|c128|p49;竪枠下端形状図（S＝1/3）}
 73
     1
 44
1.0
  0
MTEXT
  5
279
330
1F
100
AcDbEntity
  8
0-0_補助線
  6
Continuous
 62
     7
370
   211
100
AcDbMText
 10
-250.591637490212
 20
-1241.601345170381
 30
0.0
 40
91.44
 41
120.0
 46
0.0
 71
     7
 72
     1
  1
{\fＭＳ ゴシック|b0|i0|c128|p49;92}
 73
     1
 44
1.0
  0
MTEXT
  5
27A
330
1F
100
AcDbEntity
  8
0-C_ハッチ
  6
Continuous
 62
     7
370
     5
100
AcDbMText
 10
772.444398007508
 20
-232.1502819866818
 30
0.0
 40
91.43999999999997
 41
2520.0
 46
0.0
 71
     7
 72
     1
  1
{\fＭＳ ゴシック|b0|i0|c128|p49;■ガイドランナーの取り付け(ＭＵＫＵ調整枠)}
 73
     1
 44
1.0
  0
MTEXT
  5
27B
330
1F
100
AcDbEntity
  8
0-C_ハッチ
  6
Continuous
 62
     7
370
     5
100
AcDbMText
 10
1471.525588071331
 20
-453.1831458602625
 30
0.0
 40
91.44
 41
960.0
 46
0.0
 71
     7
 72
     1
  1
{\fＭＳ ゴシック|b0|i0|c128|p49;下固定ストッパー}
 73
     1
 44
1.0
  0
MTEXT
  5
27C
330
1F
100
AcDbEntity
  8
0-C_ハッチ
  6
Continuous
 62
     7
370
     5
100
AcDbMText
 10
3240.325588071336
 20
-453.1831458602625
 30
0.0
 40
91.43999999999997
 41
2160.0
 46
0.0
 71
     7
 72
     1
  1
{\fＭＳ ゴシック|b0|i0|c128|p49;ストライク(可動側受け金具)の取り付け}
 73
     1
 44
1.0
  0
MTEXT
  5
27D
330
1F
100
AcDbEntity
  8
0-C_ハッチ
  6
Continuous
 62
     7
370
     5
100
AcDbMText
 10
880.5789744932863
 20
-687.8618730149584
 30
0.0
 40
64.00799999999997
 41
1973.999999999999
 46
0.0
 71
     7
 72
     1
  1
{\fＭＳ ゴシック|b0|i0|c128|p49;竪枠の後ろ面から6.5㎜内側に取り付けてください。}
 73
     1
 44
1.0
  0
MTEXT
  5
27E
330
1F
100
AcDbEntity
  8
0-C_ハッチ
  6
Continuous
 62
     7
370
     5
100
AcDbMText
 10
3198.121680525063
 20
-687.8618730149584
 30
0.0
 40
64.00800000000001
 41
2100.0
 46
0.0
 71
     7
 72
     1
  1
{\fＭＳ ゴシック|b0|i0|c128|p49;扉を吊った後ストライクを取り付ける際は、下図のよう}
 73
     1
 44
1.0
  0
MTEXT
  5
27F
330
1F
100
AcDbEntity
  8
0-C_ハッチ
  6
Continuous
 62
     7
370
     5
100
AcDbMText
 10
880.5789744932855
 20
-810.2618730149596
 30
0.0
 40
64.00800000000005
 41
1806.000000000001
 46
0.0
 71
     7
 72
     1
  1
{\fＭＳ ゴシック|b0|i0|c128|p49;ストッパー側面は竪枠から6.5㎜離して下さい。}
 73
     1
 44
1.0
  0
MTEXT
  5
280
330
1F
100
AcDbEntity
  8
0-C_ハッチ
  6
Continuous
 62
     7
370
     5
100
AcDbMText
 10
3198.121680525063
 20
-810.2618730149562
 30
0.0
 40
64.00800000000001
 41
2100.0
 46
0.0
 71
     7
 72
     1
  1
{\fＭＳ ゴシック|b0|i0|c128|p49;に下用ガイド軸とストライクの位置決め溝をそろえて、}
 73
     1
 44
1.0
  0
MTEXT
  5
281
330
1F
100
AcDbEntity
  8
0-C_ハッチ
  6
Continuous
 62
     7
370
     5
100
AcDbMText
 10
3198.121680525063
 20
-932.6618730149575
 30
0.0
 40
64.00799999999998
 41
1511.999999999999
 46
0.0
 71
     7
 72
     1
  1
{\fＭＳ ゴシック|b0|i0|c128|p49;床に付属のビスで取り付けてください。}
 73
     1
 44
1.0
  0
MTEXT
  5
282
330
1F
100
AcDbEntity
  8
0-C_ハッチ
  6
Continuous
 62
     7
370
     5
100
AcDbMText
 10
1744.389274764348
 20
-1211.530445923186
 30
0.0
 40
45.72
 41
300.0
 46
0.0
 71
     7
 72
     1
  1
{\fＭＳ ゴシック|b0|i0|c128|p49;枠センター}
 73
     1
 44
1.0
  0
MTEXT
  5
283
330
1F
100
AcDbEntity
  8
0-C_ハッチ
  6
Continuous
 62
     7
370
     5
100
AcDbMText
 10
2447.605360013356
 20
-1406.694391409143
 30
0.0
 40
45.71999999999998
 41
600.0
 46
0.0
 71
     7
 72
     1
  1
{\fＭＳ ゴシック|b0|i0|c128|p49;取り付けビス(同梱品)}
 73
     1
 44
1.0
  0
MTEXT
  5
284
330
1F
100
AcDbEntity
  8
0-C_ハッチ
  6
Continuous
 62
     7
370
   211
100
AcDbMText
 10
1881.828954761681
 20
-1826.28988145403
 30
0.0
 40
68.57999999999998
 41
225.0
 46
0.0
 71
     7
 72
     1
  1
{\fＭＳ ゴシック|b0|i0|c128|p49;6.5㎜}
 73
     1
 44
1.0
  0
MTEXT
  5
285
330
1F
100
AcDbEntity
  8
0-C_ハッチ
  6
Continuous
 62
     7
370
     5
100
AcDbMText
 10
4746.434745390548
 20
-1886.856903101619
 30
0.0
 40
45.72
 41
180.0
 46
0.0
 71
     7
 72
     1
  1
{\fＭＳ ゴシック|b0|i0|c128|p49;ガイド}
 73
     1
 44
1.0
  0
MTEXT
  5
286
330
1F
100
AcDbEntity
  8
0-C_ハッチ
  6
Continuous
 62
     7
370
     5
100
AcDbMText
 10
4614.862809944279
 20
-2106.33428479904
 30
0.0
 40
45.71999999999999
 41
600.0
 46
0.0
 71
     7
 72
     1
  1
{\fＭＳ ゴシック|b0|i0|c128|p49;ストライクとガイドの}
 73
     1
 44
1.0
  0
MTEXT
  5
287
330
1F
100
AcDbEntity
  8
0-C_ハッチ
  6
Continuous
 62
     7
370
     5
100
AcDbMText
 10
3984.933621026235
 20
-2135.621925852627
 30
0.0
 40
45.72
 41
360.0
 46
0.0
 71
     7
 72
     1
  1
{\fＭＳ ゴシック|b0|i0|c128|p49;枠の前面より}
 73
     1
 44
1.0
  0
MTEXT
  5
288
330
1F
100
AcDbEntity
  8
0-C_ハッチ
  6
Continuous
 62
     7
370
     5
100
AcDbMText
 10
4614.862809944279
 20
-2174.362810415228
 30
0.0
 40
45.72
 41
300.0
 46
0.0
 71
     7
 72
     1
  1
{\fＭＳ ゴシック|b0|i0|c128|p49;位置決め溝}
 73
     1
 44
1.0
  0
LINE
  5
289
330
1F
100
AcDbEntity
  8
0-C_ハッチ
  6
Continuous
 62
    92
370
     5
100
AcDbLine
 10
5504.725588071336
 20
-486.903145860261
 30
0.0
 11
767.1255880713275
 21
-486.903145860261
 31
0.0
  0
LINE
  5
28A
330
1F
100
AcDbEntity
  8
0-C_ハッチ
  6
JWW_HOJO
 62
   120
370
     5
100
AcDbLine
 10
3198.121680525063
 20
-568.6658730149595
 30
0.0
 11
5292.135439485064
 21
-568.6658730149595
 31
0.0
  0
LINE
  5
28B
330
1F
100
AcDbEntity
  8
0-C_ハッチ
  6
JWW_HOJO
 62
   120
370
     5
100
AcDbLine
 10
3198.121680525063
 20
-935.8658730149564
 30
0.0
 11
5292.135439485064
 21
-935.8658730149564
 31
0.0
  0
LINE
  5
28C
330
1F
100
AcDbEntity
  8
0-C_ハッチ
  6
JWW_HOJO
 62
   120
370
     5
100
AcDbLine
 10
3198.121680525063
 20
-691.0658730149573
 30
0.0
 11
5292.135439485064
 21
-691.0658730149573
 31
0.0
  0
LINE
  5
28D
330
1F
100
AcDbEntity
  8
0-C_ハッチ
  6
JWW_HOJO
 62
   120
370
     5
100
AcDbLine
 10
3198.121680525063
 20
-813.4658730149573
 30
0.0
 11
5292.135439485064
 21
-813.4658730149573
 31
0.0
  0
LINE
  5
28E
330
1F
100
AcDbEntity
  8
0-C_ハッチ
  6
JWW_HOJO
 62
   120
370
     5
100
AcDbLine
 10
5292.135439485064
 20
-568.6658730149595
 30
0.0
 11
5292.135439485064
 21
-935.8658730149564
 31
0.0
  0
LINE
  5
28F
330
1F
100
AcDbEntity
  8
0-C_ハッチ
  6
Continuous
 62
   120
370
     5
100
AcDbLine
 10
4351.697214462904
 20
-1849.716903101619
 30
0.0
 11
4717.63474539054
 21
-1849.716903101619
 31
0.0
  0
LINE
  5
290
330
1F
100
AcDbEntity
  8
0-C_ハッチ
  6
Continuous
 62
   120
370
     5
100
AcDbLine
 10
4555.988064621301
 20
-2069.19428479904
 30
0.0
 11
4614.862809944279
 21
-2069.19428479904
 31
0.0
  0
LINE
  5
291
330
1F
100
AcDbEntity
  8
0-C_ハッチ
  6
Continuous
 62
   120
370
     5
100
AcDbLine
 10
4432.156525464728
 20
-1945.362745642467
 30
0.0
 11
4555.988064621301
 21
-2069.19428479904
 31
0.0
  0
LINE
  5
292
330
1F
100
AcDbEntity
  8
0-C_ハッチ
  6
Continuous
 62
   120
370
     5
100
AcDbLine
 10
3852.757926729113
 20
-1983.927935415086
 30
0.0
 11
3971.335344988241
 21
-2095.530211423681
 31
0.0
  0
LINE
  5
293
330
1F
100
AcDbEntity
  8
0-C_ハッチ
  6
Continuous
 62
    92
370
     5
100
AcDbLine
 10
3135.925588071333
 20
-3370.000590689164
 30
0.0
 11
3135.925588071333
 21
-270.9031458602614
 31
0.0
  0
LINE
  5
294
330
1F
100
AcDbEntity
  8
0-C_ハッチ
  6
Continuous
 62
    92
370
     5
100
AcDbLine
 10
767.1255880713275
 20
-270.9031458602614
 30
0.0
 11
5504.725588071336
 21
-270.9031458602614
 31
0.0
  0
LINE
  5
295
330
1F
100
AcDbEntity
  8
0-C_ハッチ
  6
Continuous
 62
    92
370
     5
100
AcDbLine
 10
5504.725588071336
 20
-3370.000590689164
 30
0.0
 11
5504.725588071336
 21
-270.9031458602614
 31
0.0
  0
LINE
  5
296
330
1F
100
AcDbEntity
  8
0-C_ハッチ
  6
Continuous
 62
    92
370
     5
100
AcDbLine
 10
767.1255880713275
 20
-3370.000590689164
 30
0.0
 11
767.1255880713275
 21
-270.9031458602614
 31
0.0
  0
LINE
  5
297
330
1F
100
AcDbEntity
  8
0-C_ハッチ
  6
JWW_HOJO
 62
   120
370
     5
100
AcDbLine
 10
880.5789744932863
 20
-568.6658730149595
 30
0.0
 11
2949.189951933281
 21
-568.6658730149595
 31
0.0
  0
LINE
  5
298
330
1F
100
AcDbEntity
  8
0-C_ハッチ
  6
JWW_HOJO
 62
   120
370
     5
100
AcDbLine
 10
880.5789744932863
 20
-691.0658730149595
 30
0.0
 11
2949.189951933281
 21
-691.0658730149595
 31
0.0
  0
LINE
  5
299
330
1F
100
AcDbEntity
  8
0-C_ハッチ
  6
JWW_HOJO
 62
   120
370
     5
100
AcDbLine
 10
2949.189951933281
 20
-568.6658730149595
 30
0.0
 11
2949.189951933281
 21
-813.4658730149586
 31
0.0
  0
LINE
  5
29A
330
1F
100
AcDbEntity
  8
0-C_ハッチ
  6
JWW_HOJO
 62
   120
370
     5
100
AcDbLine
 10
880.5789744932863
 20
-568.6658730149595
 30
0.0
 11
880.5789744932863
 21
-813.4658730149586
 31
0.0
  0
LINE
  5
29B
330
1F
100
AcDbEntity
  8
0-C_ハッチ
  6
JWW_HOJO
 62
   120
370
     5
100
AcDbLine
 10
2949.189951933281
 20
-813.4658730149586
 30
0.0
 11
880.5789744932863
 21
-813.4658730149586
 31
0.0
  0
LINE
  5
29C
330
1F
100
AcDbEntity
  8
0-C_ハッチ
  6
Continuous
 62
     7
370
     5
100
AcDbLine
 10
3485.316271928801
 20
-3169.416993633047
 30
0.0
 11
3485.316271928801
 21
-2289.481458180215
 31
0.0
  0
LINE
  5
29D
330
1F
100
AcDbEntity
  8
0-C_ハッチ
  6
Continuous
 62
     7
370
     5
100
AcDbLine
 10
5155.334904213873
 20
-3169.416993633047
 30
0.0
 11
5155.334904213873
 21
-2289.481458180215
 31
0.0
  0
LINE
  5
29E
330
1F
100
AcDbEntity
  8
0-C_ハッチ
  6
Continuous
 62
     7
370
     5
100
AcDbLine
 10
3485.316271928801
 20
-3169.416993633047
 30
0.0
 11
5155.334904213873
 21
-3169.416993633047
 31
0.0
  0
LINE
  5
29F
330
1F
100
AcDbEntity
  8
0-C_ハッチ
  6
Continuous
 62
     7
370
     5
100
AcDbLine
 10
5155.334904213873
 20
-2289.481458180215
 30
0.0
 11
3485.316271928801
 21
-2289.481458180215
 31
0.0
  0
LINE
  5
2A0
330
1F
100
AcDbEntity
  8
0-C_ハッチ
  6
JWW_CENTER1
 62
   120
370
     5
100
AcDbLine
 10
3417.725054246749
 20
-2058.994111943457
 30
0.0
 11
5269.391226230149
 21
-1700.834801760908
 31
0.0
  0
LINE
  5
2A1
330
1F
100
AcDbEntity
  8
0-C_ハッチ
  6
Continuous
 62
    40
370
     5
100
AcDbLine
 10
3514.659972388943
 20
-1867.52239967638
 30
0.0
 11
3514.659972388943
 21
-1283.020549062164
 31
0.0
  0
LINE
  5
2A2
330
1F
100
AcDbEntity
  8
0-C_ハッチ
  6
Continuous
 62
    40
370
     5
100
AcDbLine
 10
3757.353167511032
 20
-1910.196776410815
 30
0.0
 11
3757.353167511032
 21
-1304.362986688477
 31
0.0
  0
LINE
  5
2A3
330
1F
100
AcDbEntity
  8
0-C_ハッチ
  6
Continuous
 62
    40
370
     5
100
AcDbLine
 10
3757.353167511032
 20
-1910.196776410815
 30
0.0
 11
3514.659972388943
 21
-1867.52239967638
 31
0.0
  0
LINE
  5
2A4
330
1F
100
AcDbEntity
  8
0-C_ハッチ
  6
Continuous
 62
    40
370
     5
100
AcDbLine
 10
4096.31987412941
 20
-1850.779362868646
 30
0.0
 11
3757.353167511032
 21
-1910.196776410815
 31
0.0
  0
LINE
  5
2A5
330
1F
100
AcDbEntity
  8
0-C_ハッチ
  6
Continuous
 62
    40
370
     5
100
AcDbLine
 10
1385.935217243191
 20
-2086.202602163029
 30
0.0
 11
1385.935217243191
 21
-1213.944685106996
 31
0.0
  0
LINE
  5
2A6
330
1F
100
AcDbEntity
  8
0-C_ハッチ
  6
Continuous
 62
    40
370
     5
100
AcDbLine
 10
1272.927052010437
 20
-2144.369743959571
 30
0.0
 11
1385.935134389003
 21
-2086.202441192992
 31
0.0
  0
LINE
  5
2A7
330
1F
100
AcDbEntity
  8
0-C_ハッチ
  6
Continuous
 62
    40
370
     5
100
AcDbLine
 10
1272.927052010437
 20
-2144.369743959571
 30
0.0
 11
1272.927052010437
 21
-1273.688972800066
 31
0.0
  0
LINE
  5
2A8
330
1F
100
AcDbEntity
  8
0-C_ハッチ
  6
Continuous
 62
    40
370
     5
100
AcDbLine
 10
1272.927052010437
 20
-2144.369743959571
 30
0.0
 11
1082.685060825957
 21
-1950.181524821357
 31
0.0
  0
LINE
  5
2A9
330
1F
100
AcDbEntity
  8
0-C_ハッチ
  6
Continuous
 62
    40
370
     5
100
AcDbLine
 10
1082.685060825957
 20
-1146.21960950868
 30
0.0
 11
1082.685060825957
 21
-1950.181524821357
 31
0.0
  0
LINE
  5
2AA
330
1F
100
AcDbEntity
  8
0-C_ハッチ
  6
Continuous
 62
    40
370
     5
100
AcDbLine
 10
1472.209092728481
 20
-1272.730181767266
 30
0.0
 11
1472.209092728481
 21
-2154.606432329324
 31
0.0
  0
LINE
  5
2AB
330
1F
100
AcDbEntity
  8
0-C_ハッチ
  6
Continuous
 62
    40
370
     5
100
AcDbLine
 10
1447.131996872615
 20
-1266.4609078033
 30
0.0
 11
1447.131996872615
 21
-2148.66879892244
 31
0.0
  0
LINE
  5
2AC
330
1F
100
AcDbEntity
  8
0-C_ハッチ
  6
Continuous
 62
    40
370
     5
100
AcDbLine
 10
1447.131996872615
 20
-2148.66879892244
 30
0.0
 11
1385.935217243191
 21
-2086.202602163029
 31
0.0
  0
LINE
  5
2AD
330
1F
100
AcDbEntity
  8
0-C_ハッチ
  6
Continuous
 62
    40
370
     5
100
AcDbLine
 10
1472.209092728481
 20
-2154.606432329324
 30
0.0
 11
1447.131996872615
 21
-2148.66879892244
 31
0.0
  0
LINE
  5
2AE
330
1F
100
AcDbEntity
  8
0-C_ハッチ
  6
JWW_CENTER1
 62
   120
370
     5
100
AcDbLine
 10
1856.917884169943
 20
-1244.064315830312
 30
0.0
 11
1856.917884169943
 21
-1956.568997244153
 31
0.0
  0
LINE
  5
2AF
330
1F
100
AcDbEntity
  8
0-C_ハッチ
  6
JWW_CENTER1
 62
   120
370
     5
100
AcDbLine
 10
1857.015883923345
 20
-1956.455468451815
 30
0.0
 11
2497.132093981613
 21
-2509.013365362367
 31
0.0
  0
LWPOLYLINE
  5
2B0
330
1F
100
AcDbEntity
  8
0-C_ハッチ
  6
Continuous
 62
   120
370
     5
100
AcDbPolyline
 90
        4
 70
     1
 43
3.0
 10
2950.867339527796
 20
-2370.5014311175
 42
0.4142135623731
 10
2949.367339527796
 20
-2369.0014311175
 42
0.4142135623731
 10
2947.867339527796
 20
-2370.5014311175
 42
0.4142135623731
 10
2949.367339527796
 20
-2372.0014311175
 42
0.4142135623731
  0
LINE
  5
2B1
330
1F
100
AcDbEntity
  8
0-C_ハッチ
  6
JWW_DASHED1
 62
     7
370
     5
100
AcDbLine
 10
2322.946315162913
 20
-1716.61567080242
 30
0.0
 11
2887.652166304928
 21
-2204.07821678561
 31
0.0
  0
LINE
  5
2B2
330
1F
100
AcDbEntity
  8
0-C_ハッチ
  6
Continuous
 62
   120
370
     5
100
AcDbLine
 10
2949.367339527796
 20
-2370.5014311175
 30
0.0
 11
3029.405722475152
 21
-2326.66742628669
 31
0.0
  0
LWPOLYLINE
  5
2B3
330
1F
100
AcDbEntity
  8
0-C_ハッチ
  6
Continuous
 62
   120
370
     5
100
AcDbPolyline
 90
        4
 70
     1
 43
3.0
 10
3030.905722475152
 20
-2326.66742628669
 42
0.4142135623731
 10
3029.405722475152
 20
-2325.16742628669
 42
0.4142135623731
 10
3027.905722475152
 20
-2326.66742628669
 42
0.4142135623731
 10
3029.405722475152
 20
-2328.16742628669
 42
0.4142135623731
  0
LINE
  5
2B4
330
1F
100
AcDbEntity
  8
0-C_ハッチ
  6
Continuous
 62
   120
370
     5
100
AcDbLine
 10
3029.405722475152
 20
-2326.66742628669
 30
0.0
 11
2887.886477280957
 21
-2204.506055211521
 31
0.0
  0
LINE
  5
2B5
330
1F
100
AcDbEntity
  8
0-C_ハッチ
  6
Continuous
 62
    40
370
     5
100
AcDbLine
 10
2322.946315162913
 20
-1716.61567080242
 30
0.0
 11
2322.946315162913
 21
-1186.902893770015
 31
0.0
  0
LINE
  5
2B6
330
1F
100
AcDbEntity
  8
0-C_ハッチ
  6
Continuous
 62
   120
370
     5
100
AcDbLine
 10
2949.367339527796
 20
-2370.5014311175
 30
0.0
 11
2807.502203647384
 21
-2248.041482414867
 31
0.0
  0
LINE
  5
2B7
330
1F
100
AcDbEntity
  8
0-C_ハッチ
  6
Continuous
 62
    40
370
     5
100
AcDbLine
 10
1472.209220889334
 20
-2154.606681310023
 30
0.0
 11
2323.004947322774
 21
-1716.666282960702
 31
0.0
  0
ARC
  5
2B8
330
1F
100
AcDbEntity
  8
0-C_ハッチ
  6
Continuous
 62
     7
370
     5
100
AcDbCircle
 10
4499.613527759921
 20
-1720.114533217513
 30
0.0
 40
30.0
100
AcDbArc
 50
247.1651394203828
 51
5.793612550752308
  0
LINE
  5
2B9
330
1F
100
AcDbEntity
  8
0-C_ハッチ
  6
Continuous
 62
     7
370
     5
100
AcDbLine
 10
4529.460286818119
 20
-1717.086171660194
 30
0.0
 11
4522.427431271512
 21
-1647.772141278509
 31
0.0
  0
ARC
  5
2BA
330
1F
100
AcDbEntity
  8
0-C_ハッチ
  6
Continuous
 62
     7
370
     5
100
AcDbCircle
 10
4492.392464489722
 20
-1416.038041031316
 30
0.0
 40
180.0
100
AcDbArc
 50
0.0
 51
48.66116247688833
  0
LINE
  5
2BB
330
1F
100
AcDbEntity
  8
0-C_ハッチ
  6
Continuous
 62
     7
370
     5
100
AcDbLine
 10
4672.392464489722
 20
-1727.436472073972
 30
0.0
 11
4672.392464489722
 21
-1416.038041031316
 31
0.0
  0
LINE
  5
2BC
330
1F
100
AcDbEntity
  8
0-C_ハッチ
  6
Continuous
 62
     7
370
     5
100
AcDbLine
 10
4407.245826053975
 20
-1836.835231011066
 30
0.0
 11
4401.809430872782
 21
-1875.457910957169
 31
0.0
  0
LINE
  5
2BD
330
1F
100
AcDbEntity
  8
0-C_ハッチ
  6
Continuous
 62
     7
370
     5
100
AcDbLine
 10
4359.728482878977
 20
-1898.548145554269
 30
0.0
 11
4357.476288264495
 21
-1898.944989541811
 31
0.0
  0
LINE
  5
2BE
330
1F
100
AcDbEntity
  8
0-C_ハッチ
  6
Continuous
 62
     7
370
     5
100
AcDbLine
 10
4357.476288264495
 20
-1898.944989541811
 30
0.0
 11
4355.359524534646
 21
-1899.318211863428
 31
0.0
  0
LINE
  5
2BF
330
1F
100
AcDbEntity
  8
0-C_ハッチ
  6
Continuous
 62
     7
370
     5
100
AcDbLine
 10
4355.359524534646
 20
-1899.318211863428
 30
0.0
 11
4353.378454152392
 21
-1899.667287593211
 31
0.0
  0
LINE
  5
2C0
330
1F
100
AcDbEntity
  8
0-C_ハッチ
  6
Continuous
 62
     7
370
     5
100
AcDbLine
 10
4353.378454152392
 20
-1899.667287593211
 30
0.0
 11
4351.532814654775
 21
-1899.992741657068
 31
0.0
  0
LINE
  5
2C1
330
1F
100
AcDbEntity
  8
0-C_ハッチ
  6
Continuous
 62
     7
370
     5
100
AcDbLine
 10
4351.532814654775
 20
-1899.992741657068
 30
0.0
 11
4349.82286850475
 21
-1900.29404912909
 31
0.0
  0
LINE
  5
2C2
330
1F
100
AcDbEntity
  8
0-C_ハッチ
  6
Continuous
 62
     7
370
     5
100
AcDbLine
 10
4349.82286850475
 20
-1900.29404912909
 30
0.0
 11
4348.263838553692
 21
-1900.492471122862
 31
0.0
  0
LINE
  5
2C3
330
1F
100
AcDbEntity
  8
0-C_ハッチ
  6
Continuous
 62
     7
370
     5
100
AcDbLine
 10
4348.263838553692
 20
-1900.492471122862
 30
0.0
 11
4346.383816409005
 21
-1900.709265523464
 31
0.0
  0
LINE
  5
2C4
330
1F
100
AcDbEntity
  8
0-C_ハッチ
  6
Continuous
 62
     7
370
     5
100
AcDbLine
 10
4346.383816409005
 20
-1900.709265523464
 30
0.0
 11
4344.182802070693
 21
-1900.944957256805
 31
0.0
  0
LINE
  5
2C5
330
1F
100
AcDbEntity
  8
0-C_ハッチ
  6
Continuous
 62
     7
370
     5
100
AcDbLine
 10
4344.182802070693
 20
-1900.944957256805
 30
0.0
 11
4341.660795538754
 21
-1901.199546322887
 31
0.0
  0
LINE
  5
2C6
330
1F
100
AcDbEntity
  8
0-C_ハッチ
  6
Continuous
 62
     7
370
     5
100
AcDbLine
 10
4341.660795538754
 20
-1901.199546322887
 30
0.0
 11
4338.818059276141
 21
-1901.47355764762
 31
0.0
  0
LINE
  5
2C7
330
1F
100
AcDbEntity
  8
0-C_ハッチ
  6
Continuous
 62
     7
370
     5
100
AcDbLine
 10
4338.818059276141
 20
-1901.47355764762
 30
0.0
 11
4335.654068356946
 21
-1901.765941379182
 31
0.0
  0
LINE
  5
2C8
330
1F
100
AcDbEntity
  8
0-C_ハッチ
  6
Continuous
 62
     7
370
     5
100
AcDbLine
 10
4335.654068356946
 20
-1901.765941379182
 30
0.0
 11
4332.169347707079
 21
-1902.077222443483
 31
0.0
  0
LINE
  5
2C9
330
1F
100
AcDbEntity
  8
0-C_ハッチ
  6
Continuous
 62
     7
370
     5
100
AcDbLine
 10
4332.169347707079
 20
-1902.077222443483
 30
0.0
 11
4328.363634863586
 21
-1902.407400840526
 31
0.0
  0
LINE
  5
2CA
330
1F
100
AcDbEntity
  8
0-C_ハッチ
  6
Continuous
 62
     7
370
     5
100
AcDbLine
 10
4328.363634863586
 20
-1902.407400840526
 30
0.0
 11
4324.333516193804
 21
-1902.732329978474
 31
0.0
  0
LINE
  5
2CB
330
1F
100
AcDbEntity
  8
0-C_ハッチ
  6
Continuous
 62
     7
370
     5
100
AcDbLine
 10
4324.333516193804
 20
-1902.732329978474
 30
0.0
 11
4320.175315602117
 21
-1903.026813413675
 31
0.0
  0
LINE
  5
2CC
330
1F
100
AcDbEntity
  8
0-C_ハッチ
  6
Continuous
 62
     7
370
     5
100
AcDbLine
 10
4320.175315602117
 20
-1903.026813413675
 30
0.0
 11
4315.889558014433
 21
-1903.291376072035
 31
0.0
  0
LINE
  5
2CD
330
1F
100
AcDbEntity
  8
0-C_ハッチ
  6
Continuous
 62
     7
370
     5
100
AcDbLine
 10
4315.889558014433
 20
-1903.291376072035
 30
0.0
 11
4311.4759809678
 21
-1903.525493027649
 31
0.0
  0
LINE
  5
2CE
330
1F
100
AcDbEntity
  8
0-C_ハッチ
  6
Continuous
 62
     7
370
     5
100
AcDbLine
 10
4311.4759809678
 20
-1903.525493027649
 30
0.0
 11
4306.934584462217
 21
-1903.729689206424
 31
0.0
  0
LINE
  5
2CF
330
1F
100
AcDbEntity
  8
0-C_ハッチ
  6
Continuous
 62
     7
370
     5
100
AcDbLine
 10
4306.934584462217
 20
-1903.729689206424
 30
0.0
 11
4302.26536849768
 21
-1903.903964608361
 31
0.0
  0
LINE
  5
2D0
330
1F
100
AcDbEntity
  8
0-C_ハッチ
  6
Continuous
 62
     7
370
     5
100
AcDbLine
 10
4302.26536849768
 20
-1903.903964608361
 30
0.0
 11
4297.468333074196
 21
-1904.047794307549
 31
0.0
  0
LINE
  5
2D1
330
1F
100
AcDbEntity
  8
0-C_ハッチ
  6
Continuous
 62
     7
370
     5
100
AcDbLine
 10
4297.468333074196
 20
-1904.047794307549
 30
0.0
 11
4292.543478191761
 21
-1904.162228155809
 31
0.0
  0
LINE
  5
2D2
330
1F
100
AcDbEntity
  8
0-C_ハッチ
  6
Continuous
 62
     7
370
     5
100
AcDbLine
 10
4292.543478191761
 20
-1904.162228155809
 30
0.0
 11
4287.596313958173
 21
-1904.209471487658
 31
0.0
  0
LINE
  5
2D3
330
1F
100
AcDbEntity
  8
0-C_ハッチ
  6
Continuous
 62
     7
370
     5
100
AcDbLine
 10
4287.596313958173
 20
-1904.209471487658
 30
0.0
 11
4282.732875407144
 21
-1904.153304415348
 31
0.0
  0
LINE
  5
2D4
330
1F
100
AcDbEntity
  8
0-C_ハッチ
  6
Continuous
 62
     7
370
     5
100
AcDbLine
 10
4282.732875407144
 20
-1904.153304415348
 30
0.0
 11
4277.953162538669
 21
-1903.994776790695
 31
0.0
  0
LINE
  5
2D5
330
1F
100
AcDbEntity
  8
0-C_ハッチ
  6
Continuous
 62
     7
370
     5
100
AcDbLine
 10
4277.953162538669
 20
-1903.994776790695
 30
0.0
 11
4273.256650426845
 21
-1903.732313835971
 31
0.0
  0
LINE
  5
2D6
330
1F
100
AcDbEntity
  8
0-C_ハッチ
  6
Continuous
 62
     7
370
     5
100
AcDbLine
 10
4273.256650426845
 20
-1903.732313835971
 30
0.0
 11
4268.643863997574
 21
-1903.366965402996
 31
0.0
  0
LINE
  5
2D7
330
1F
100
AcDbEntity
  8
0-C_ハッチ
  6
Continuous
 62
     7
370
     5
100
AcDbLine
 10
4268.643863997574
 20
-1903.366965402996
 30
0.0
 11
4264.114803250862
 21
-1902.898731491769
 31
0.0
  0
LINE
  5
2D8
330
1F
100
AcDbEntity
  8
0-C_ハッチ
  6
Continuous
 62
     7
370
     5
100
AcDbLine
 10
4264.114803250862
 20
-1902.898731491769
 30
0.0
 11
4259.668943260797
 21
-1902.327087176381
 31
0.0
  0
LINE
  5
2D9
330
1F
100
AcDbEntity
  8
0-C_ハッチ
  6
Continuous
 62
     7
370
     5
100
AcDbLine
 10
4259.668943260797
 20
-1902.327087176381
 30
0.0
 11
4255.30680895329
 21
-1901.652557382741
 31
0.0
  0
LINE
  5
2DA
330
1F
100
AcDbEntity
  8
0-C_ハッチ
  6
Continuous
 62
     7
370
     5
100
AcDbLine
 10
4255.30680895329
 20
-1901.652557382741
 30
0.0
 11
4251.223672766654
 21
-1900.917136183605
 31
0.0
  0
LINE
  5
2DB
330
1F
100
AcDbEntity
  8
0-C_ハッチ
  6
Continuous
 62
     7
370
     5
100
AcDbLine
 10
4251.223672766654
 20
-1900.917136183605
 30
0.0
 11
4247.614807139202
 21
-1900.163342577639
 31
0.0
  0
LINE
  5
2DC
330
1F
100
AcDbEntity
  8
0-C_ハッチ
  6
Continuous
 62
     7
370
     5
100
AcDbLine
 10
4247.614807139202
 20
-1900.163342577639
 30
0.0
 11
4244.479949607984
 21
-1899.391701490751
 31
0.0
  0
LINE
  5
2DD
330
1F
100
AcDbEntity
  8
0-C_ハッチ
  6
Continuous
 62
     7
370
     5
100
AcDbLine
 10
4244.479949607984
 20
-1899.391701490751
 30
0.0
 11
4241.819625098903
 21
-1898.602212922942
 31
0.0
  0
LINE
  5
2DE
330
1F
100
AcDbEntity
  8
0-C_ハッチ
  6
Continuous
 62
     7
370
     5
100
AcDbLine
 10
4241.819625098903
 20
-1898.602212922942
 30
0.0
 11
4239.63357114901
 21
-1897.793827022393
 31
0.0
  0
LINE
  5
2DF
330
1F
100
AcDbEntity
  8
0-C_ハッチ
  6
Continuous
 62
     7
370
     5
100
AcDbLine
 10
4239.63357114901
 20
-1897.793827022393
 30
0.0
 11
4237.921525295347
 21
-1896.968118566832
 31
0.0
  0
LINE
  5
2E0
330
1F
100
AcDbEntity
  8
0-C_ハッチ
  6
Continuous
 62
     7
370
     5
100
AcDbLine
 10
4237.921525295347
 20
-1896.968118566832
 30
0.0
 11
4236.684012463824
 21
-1896.123512778531
 31
0.0
  0
LINE
  5
2E1
330
1F
100
AcDbEntity
  8
0-C_ハッチ
  6
Continuous
 62
     7
370
     5
100
AcDbLine
 10
4236.684012463824
 20
-1896.123512778531
 30
0.0
 11
4235.920507728533
 21
-1895.261059509309
 31
0.0
  0
LINE
  5
2E2
330
1F
100
AcDbEntity
  8
0-C_ハッチ
  6
Continuous
 62
     7
370
     5
100
AcDbLine
 10
4235.920507728533
 20
-1895.261059509309
 30
0.0
 11
4235.531537629633
 21
-1894.403330573272
 31
0.0
  0
LINE
  5
2E3
330
1F
100
AcDbEntity
  8
0-C_ハッチ
  6
Continuous
 62
     7
370
     5
100
AcDbLine
 10
4235.531537629633
 20
-1894.403330573272
 30
0.0
 11
4235.417103781374
 21
-1893.572372858617
 31
0.0
  0
LINE
  5
2E4
330
1F
100
AcDbEntity
  8
0-C_ハッチ
  6
Continuous
 62
     7
370
     5
100
AcDbLine
 10
4235.417103781374
 20
-1893.572372858617
 30
0.0
 11
4235.576943720801
 21
-1892.768711291253
 31
0.0
  0
LINE
  5
2E5
330
1F
100
AcDbEntity
  8
0-C_ハッチ
  6
Continuous
 62
     7
370
     5
100
AcDbLine
 10
4235.576943720801
 20
-1892.768711291253
 30
0.0
 11
4236.011319910868
 21
-1891.991296019361
 31
0.0
  0
LINE
  5
2E6
330
1F
100
AcDbEntity
  8
0-C_ハッチ
  6
Continuous
 62
     7
370
     5
100
AcDbLine
 10
4236.011319910868
 20
-1891.991296019361
 30
0.0
 11
4236.719969888623
 21
-1891.241701820671
 31
0.0
  0
LINE
  5
2E7
330
1F
100
AcDbEntity
  8
0-C_ハッチ
  6
Continuous
 62
     7
370
     5
100
AcDbLine
 10
4236.719969888623
 20
-1891.241701820671
 30
0.0
 11
4237.703418579971
 21
-1890.518878843362
 31
0.0
  0
LINE
  5
2E8
330
1F
100
AcDbEntity
  8
0-C_ハッチ
  6
Continuous
 62
     7
370
     5
100
AcDbLine
 10
4237.703418579971
 20
-1890.518878843362
 30
0.0
 11
4238.960878596053
 21
-1889.822827087434
 31
0.0
  0
LINE
  5
2E9
330
1F
100
AcDbEntity
  8
0-C_ハッチ
  6
Continuous
 62
     7
370
     5
100
AcDbLine
 10
4238.960878596053
 20
-1889.822827087434
 30
0.0
 11
4240.493137325731
 21
-1889.154071478798
 31
0.0
  0
LINE
  5
2EA
330
1F
100
AcDbEntity
  8
0-C_ハッチ
  6
Continuous
 62
     7
370
     5
100
AcDbLine
 10
4240.493137325731
 20
-1889.154071478798
 30
0.0
 11
4242.13064370025
 21
-1888.524160387462
 31
0.0
  0
LINE
  5
2EB
330
1F
100
AcDbEntity
  8
0-C_ハッチ
  6
Continuous
 62
     7
370
     5
100
AcDbLine
 10
4242.13064370025
 20
-1888.524160387462
 30
0.0
 11
4243.70463403973
 21
-1887.945167109341
 31
0.0
  0
LINE
  5
2EC
330
1F
100
AcDbEntity
  8
0-C_ハッチ
  6
Continuous
 62
     7
370
     5
100
AcDbLine
 10
4243.70463403973
 20
-1887.945167109341
 30
0.0
 11
4245.214845881209
 21
-1887.417091644437
 31
0.0
  0
LINE
  5
2ED
330
1F
100
AcDbEntity
  8
0-C_ハッチ
  6
Continuous
 62
     7
370
     5
100
AcDbLine
 10
4245.214845881209
 20
-1887.417091644437
 30
0.0
 11
4246.661541687648
 21
-1886.93993399275
 31
0.0
  0
LINE
  5
2EE
330
1F
100
AcDbEntity
  8
0-C_ハッチ
  6
Continuous
 62
     7
370
     5
100
AcDbLine
 10
4246.661541687648
 20
-1886.93993399275
 30
0.0
 11
4248.044721459039
 21
-1886.513694154278
 31
0.0
  0
LINE
  5
2EF
330
1F
100
AcDbEntity
  8
0-C_ハッチ
  6
Continuous
 62
     7
370
     5
100
AcDbLine
 10
4248.044721459039
 20
-1886.513694154278
 30
0.0
 11
4249.364385195392
 21
-1886.138372129023
 31
0.0
  0
LINE
  5
2F0
330
1F
100
AcDbEntity
  8
0-C_ハッチ
  6
Continuous
 62
     7
370
     5
100
AcDbLine
 10
4249.364385195392
 20
-1886.138372129023
 30
0.0
 11
4250.620270433745
 21
-1885.813442991075
 31
0.0
  0
LINE
  5
2F1
330
1F
100
AcDbEntity
  8
0-C_ハッチ
  6
Continuous
 62
     7
370
     5
100
AcDbLine
 10
4250.620270433745
 20
-1885.813442991075
 30
0.0
 11
4251.812639637054
 21
-1885.539956592253
 31
0.0
  0
LINE
  5
2F2
330
1F
100
AcDbEntity
  8
0-C_ハッチ
  6
Continuous
 62
     7
370
     5
100
AcDbLine
 10
4251.812639637054
 20
-1885.539956592253
 30
0.0
 11
4252.931256750087
 21
-1885.301640229364
 31
0.0
  0
LINE
  5
2F3
330
1F
100
AcDbEntity
  8
0-C_ハッチ
  6
Continuous
 62
     7
370
     5
100
AcDbLine
 10
4252.931256750087
 20
-1885.301640229364
 30
0.0
 11
4253.965623254651
 21
-1885.083271051034
 31
0.0
  0
LINE
  5
2F4
330
1F
100
AcDbEntity
  8
0-C_ハッチ
  6
Continuous
 62
     7
370
     5
100
AcDbLine
 10
4253.965623254651
 20
-1885.083271051034
 30
0.0
 11
4254.916264076663
 21
-1884.884849057262
 31
0.0
  0
LINE
  5
2F5
330
1F
100
AcDbEntity
  8
0-C_ハッチ
  6
Continuous
 62
     7
370
     5
100
AcDbLine
 10
4254.916264076663
 20
-1884.884849057262
 30
0.0
 11
4255.782391827249
 21
-1884.70637424805
 31
0.0
  0
LINE
  5
2F6
330
1F
100
AcDbEntity
  8
0-C_ハッチ
  6
Continuous
 62
     7
370
     5
100
AcDbLine
 10
4255.782391827249
 20
-1884.70637424805
 30
0.0
 11
4256.564793895282
 21
-1884.547846623397
 31
0.0
  0
LINE
  5
2F7
330
1F
100
AcDbEntity
  8
0-C_ハッチ
  6
Continuous
 62
     7
370
     5
100
AcDbLine
 10
4256.564793895282
 20
-1884.547846623397
 30
0.0
 11
4257.262945354847
 21
-1884.409266183303
 31
0.0
  0
LINE
  5
2F8
330
1F
100
AcDbEntity
  8
0-C_ハッチ
  6
Continuous
 62
     7
370
     5
100
AcDbLine
 10
4257.262945354847
 20
-1884.409266183303
 30
0.0
 11
4257.877108668899
 21
-1884.290632927768
 31
0.0
  0
LINE
  5
2F9
330
1F
100
AcDbEntity
  8
0-C_ハッチ
  6
Continuous
 62
     7
370
     5
100
AcDbLine
 10
4257.877108668899
 20
-1884.290632927768
 30
0.0
 11
4258.407021374487
 21
-1884.191946856792
 31
0.0
  0
LINE
  5
2FA
330
1F
100
AcDbEntity
  8
0-C_ハッチ
  6
Continuous
 62
     7
370
     5
100
AcDbLine
 10
4258.407021374487
 20
-1884.191946856792
 30
0.0
 11
4261.622455032807
 21
-1883.625026874588
 31
0.0
  0
LINE
  5
2FB
330
1F
100
AcDbEntity
  8
0-C_ハッチ
  6
Continuous
 62
     7
370
     5
100
AcDbLine
 10
4261.622455032807
 20
-1883.625026874588
 30
0.0
 11
4265.139983552013
 21
-1883.004564449622
 31
0.0
  0
LINE
  5
2FC
330
1F
100
AcDbEntity
  8
0-C_ハッチ
  6
Continuous
 62
     7
370
     5
100
AcDbLine
 10
4265.139983552013
 20
-1883.004564449622
 30
0.0
 11
4268.960394320971
 21
-1882.331609433711
 31
0.0
  0
LINE
  5
2FD
330
1F
100
AcDbEntity
  8
0-C_ハッチ
  6
Continuous
 62
     7
370
     5
100
AcDbLine
 10
4268.960394320971
 20
-1882.331609433711
 30
0.0
 11
4273.082899950817
 21
-1881.604587049126
 31
0.0
  0
LINE
  5
2FE
330
1F
100
AcDbEntity
  8
0-C_ハッチ
  6
Continuous
 62
     7
370
     5
100
AcDbLine
 10
4273.082899950817
 20
-1881.604587049126
 30
0.0
 11
4277.508287830413
 21
-1880.824547147687
 31
0.0
  0
LINE
  5
2FF
330
1F
100
AcDbEntity
  8
0-C_ハッチ
  6
Continuous
 62
     7
370
     5
100
AcDbLine
 10
4158.889385185922
 20
-1876.651541099024
 30
0.0
 11
4165.22877991592
 21
-1875.425340999985
 31
0.0
  0
LINE
  5
300
330
1F
100
AcDbEntity
  8
0-C_ハッチ
  6
Continuous
 62
     7
370
     5
100
AcDbLine
 10
4371.352949078863
 20
-1913.8386346873
 30
0.0
 11
4378.112482851705
 21
-1912.685970726036
 31
0.0
  0
LINE
  5
301
330
1F
100
AcDbEntity
  8
0-C_ハッチ
  6
Continuous
 62
     7
370
     5
100
AcDbLine
 10
4371.352949078863
 20
-1913.8386346873
 30
0.0
 11
4423.94183802674
 21
-1923.043167921966
 31
0.0
  0
LINE
  5
302
330
1F
100
AcDbEntity
  8
0-C_ハッチ
  6
Continuous
 62
     7
370
     5
100
AcDbLine
 10
4378.112482851705
 20
-1912.685970726036
 30
0.0
 11
4430.701371799581
 21
-1921.890503960702
 31
0.0
  0
LINE
  5
303
330
1F
100
AcDbEntity
  8
0-C_ハッチ
  6
Continuous
 62
     7
370
     5
100
AcDbLine
 10
4370.859494627519
 20
-1835.753426337015
 30
0.0
 11
4370.859494627519
 21
-1860.809413526335
 31
0.0
  0
ELLIPSE
  5
304
330
1F
100
AcDbEntity
  8
0-C_ハッチ
  6
Continuous
 62
     7
370
     5
100
AcDbEllipse
 10
4333.961734199263
 20
-1860.809413526335
 30
0.0
 11
36.89776042825395
 21
0.0
 31
0.0
210
0.0
220
0.0
230
1.0
 40
0.5
 41
3.141592653589793
 42
6.283185307179586
  0
LINE
  5
305
330
1F
100
AcDbEntity
  8
0-C_ハッチ
  6
Continuous
 62
     7
370
     5
100
AcDbLine
 10
4297.063973771009
 20
-1835.753426337015
 30
0.0
 11
4297.063973771009
 21
-1860.809413526335
 31
0.0
  0
LINE
  5
306
330
1F
100
AcDbEntity
  8
0-C_ハッチ
  6
Continuous
 62
     7
370
     5
100
AcDbLine
 10
4314.424489801166
 20
-1792.228077077065
 30
0.0
 11
4160.170286976865
 21
-1820.795069995102
 31
0.0
  0
LINE
  5
307
330
1F
100
AcDbEntity
  8
0-C_ハッチ
  6
Continuous
 62
     7
370
     5
100
AcDbLine
 10
4314.424489801166
 20
-1792.228077077065
 30
0.0
 11
4332.945188201243
 21
-1805.457259846958
 31
0.0
  0
LINE
  5
308
330
1F
100
AcDbEntity
  8
0-C_ハッチ
  6
Continuous
 62
     7
370
     5
100
AcDbLine
 10
4313.101414046402
 20
-1669.196992272604
 30
0.0
 11
4314.424489801166
 21
-1792.228077077065
 31
0.0
  0
LINE
  5
309
330
1F
100
AcDbEntity
  8
0-C_ハッチ
  6
Continuous
 62
     7
370
     5
100
AcDbLine
 10
4332.945188201243
 20
-1682.467644189344
 30
0.0
 11
4522.427431271512
 21
-1647.772141278509
 31
0.0
  0
LINE
  5
30A
330
1F
100
AcDbEntity
  8
0-C_ハッチ
  6
Continuous
 62
     7
370
     5
100
AcDbLine
 10
4348.603203154149
 20
-1661.766141098467
 30
0.0
 11
4313.101414046402
 21
-1669.196992272604
 31
0.0
  0
LINE
  5
30B
330
1F
100
AcDbEntity
  8
0-C_ハッチ
  6
Continuous
 62
     7
370
     5
100
AcDbLine
 10
4348.603203154149
 20
-1661.766141098467
 30
0.0
 11
4373.738755402128
 21
-1666.551365688989
 31
0.0
  0
LINE
  5
30C
330
1F
100
AcDbEntity
  8
0-C_ハッチ
  6
Continuous
 62
     7
370
     5
100
AcDbLine
 10
4478.337066896345
 20
-1646.707591534149
 30
0.0
 11
4494.212138712808
 21
-1638.769661931486
 31
0.0
  0
LINE
  5
30D
330
1F
100
AcDbEntity
  8
0-C_ハッチ
  6
Continuous
 62
     7
370
     5
100
AcDbLine
 10
4494.212138712808
 20
-1638.769661931486
 30
0.0
 11
4534.023569537117
 21
-1634.801222056063
 31
0.0
  0
LINE
  5
30E
330
1F
100
AcDbEntity
  8
0-C_ハッチ
  6
Continuous
 62
     7
370
     5
100
AcDbLine
 10
4534.023569537117
 20
-1634.801222056063
 30
0.0
 11
4534.023569537117
 21
-1753.51707722299
 31
0.0
  0
LINE
  5
30F
330
1F
100
AcDbEntity
  8
0-C_ハッチ
  6
Continuous
 62
     7
370
     5
100
AcDbLine
 10
4373.258973120895
 20
-1278.206978472531
 30
0.0
 11
4373.738755402128
 21
-1666.551365688989
 31
0.0
  0
LINE
  5
310
330
1F
100
AcDbEntity
  8
0-C_ハッチ
  6
Continuous
 62
     7
370
     5
100
AcDbLine
 10
4348.603203154149
 20
-1661.766141098467
 30
0.0
 11
4348.603203154149
 21
-1282.384833642206
 31
0.0
  0
LINE
  5
311
330
1F
100
AcDbEntity
  8
0-C_ハッチ
  6
Continuous
 62
     7
370
     5
100
AcDbLine
 10
4478.337066896345
 20
-1260.99062675983
 30
0.0
 11
4478.337066896345
 21
-1646.707591534149
 31
0.0
  0
LINE
  5
312
330
1F
100
AcDbEntity
  8
0-C_ハッチ
  6
Continuous
 62
     7
370
     5
100
AcDbLine
 10
4494.212138712808
 20
-1638.769661931486
 30
0.0
 11
4494.212138712808
 21
-1258.372693701204
 31
0.0
  0
ELLIPSE
  5
313
330
1F
100
AcDbEntity
  8
0-C_ハッチ
  6
Continuous
 62
     7
370
     5
100
AcDbEllipse
 10
4628.897498495133
 20
-1628.354195292279
 30
0.0
 11
2.171034762115338E-15
 21
35.45685934649716
 31
0.0
210
0.0
220
0.0
230
1.0
 40
0.8
 41
0.0
 42
6.283185307179586
  0
ELLIPSE
  5
314
330
1F
100
AcDbEntity
  8
0-C_ハッチ
  6
Continuous
 62
     7
370
     5
100
AcDbEllipse
 10
4628.897498495133
 20
-1628.354195292279
 30
0.0
 11
1.068889043675199E-15
 21
17.45685934649716
 31
0.0
210
0.0
220
0.0
230
1.0
 40
0.5937773382631759
 41
0.0
 42
6.283185307179586
  0
LINE
  5
315
330
1F
100
AcDbEntity
  8
0-C_ハッチ
  6
Continuous
 62
     7
370
     5
100
AcDbLine
 10
4601.576207423303
 20
-1657.09238873061
 30
0.0
 11
4620.995563699099
 21
-1662.407469416673
 31
0.0
  0
ELLIPSE
  5
316
330
1F
100
AcDbEntity
  8
0-C_ハッチ
  6
Continuous
 62
     7
370
     5
100
AcDbEllipse
 10
4606.05796593303
 20
-1622.080901319343
 30
0.0
 11
2.171034762115338E-15
 21
35.45685934649716
 31
0.0
210
0.0
220
0.0
230
1.0
 40
0.8
 41
5.997256757456505
 42
9.266112668701924
  0
ELLIPSE
  5
317
330
1F
100
AcDbEntity
  8
0-C_ハッチ
  6
Continuous
 62
     7
370
     5
100
AcDbEllipse
 10
4239.349960330693
 20
-1693.994031162889
 30
0.0
 11
2.171034762115338E-15
 21
35.45685934649716
 31
0.0
210
0.0
220
0.0
230
1.0
 40
0.8
 41
0.0
 42
6.283185307179586
  0
ELLIPSE
  5
318
330
1F
100
AcDbEntity
  8
0-C_ハッチ
  6
Continuous
 62
     7
370
     5
100
AcDbEllipse
 10
4239.349960330693
 20
-1693.994031162889
 30
0.0
 11
1.068889043675199E-15
 21
17.45685934649716
 31
0.0
210
0.0
220
0.0
230
1.0
 40
0.5937773382631759
 41
0.0
 42
6.283185307179586
  0
LINE
  5
319
330
1F
100
AcDbEntity
  8
0-C_ハッチ
  6
Continuous
 62
     7
370
     5
100
AcDbLine
 10
4212.028669258863
 20
-1722.732224601219
 30
0.0
 11
4231.448025534661
 21
-1728.047305287283
 31
0.0
  0
ELLIPSE
  5
31A
330
1F
100
AcDbEntity
  8
0-C_ハッチ
  6
Continuous
 62
     7
370
     5
100
AcDbEllipse
 10
4216.51042776859
 20
-1687.720737189952
 30
0.0
 11
2.171034762115338E-15
 21
35.45685934649716
 31
0.0
210
0.0
220
0.0
230
1.0
 40
0.8
 41
5.997256757456505
 42
9.266112668701924
  0
LINE
  5
31B
330
1F
100
AcDbEntity
  8
0-C_ハッチ
  6
Continuous
 62
     7
370
     5
100
AcDbLine
 10
4224.510868793951
 20
-1653.703420294298
 30
0.0
 11
4243.930225069746
 21
-1659.018500980362
 31
0.0
  0
LINE
  5
31C
330
1F
100
AcDbEntity
  8
0-C_ハッチ
  6
Continuous
 62
     7
370
     5
100
AcDbLine
 10
4614.058406958391
 20
-1588.063584423689
 30
0.0
 11
4633.477763234187
 21
-1593.378665109752
 31
0.0
  0
LINE
  5
31D
330
1F
100
AcDbEntity
  8
0-C_ハッチ
  6
Continuous
 62
     7
370
     5
100
AcDbLine
 10
4123.452848196855
 20
-1868.113379108218
 30
0.0
 11
4165.22877991592
 21
-1875.425340999985
 31
0.0
  0
LINE
  5
31E
330
1F
100
AcDbEntity
  8
0-C_ハッチ
  6
Continuous
 62
     7
370
     5
100
AcDbLine
 10
4116.653863510045
 20
-1869.259138051027
 30
0.0
 11
4158.889385185922
 21
-1876.651541099024
 31
0.0
  0
LINE
  5
31F
330
1F
100
AcDbEntity
  8
0-C_ハッチ
  6
Continuous
 62
     7
370
     5
100
AcDbLine
 10
4407.245826053975
 20
-1820.288835111701
 30
0.0
 11
4366.591102682176
 21
-1827.139933476579
 31
0.0
  0
LINE
  5
320
330
1F
100
AcDbEntity
  8
0-C_ハッチ
  6
Continuous
 62
     7
370
     5
100
AcDbLine
 10
4407.245826053975
 20
-1820.288835111701
 30
0.0
 11
4401.809430872782
 21
-1858.911515057805
 31
0.0
  0
LINE
  5
321
330
1F
100
AcDbEntity
  8
0-C_ハッチ
  6
Continuous
 62
     7
370
     5
100
AcDbLine
 10
4370.112865756143
 20
-1864.501987553283
 30
0.0
 11
4401.809430872782
 21
-1858.911515057805
 31
0.0
  0
LINE
  5
322
330
1F
100
AcDbEntity
  8
0-C_ハッチ
  6
Continuous
 62
     7
370
     5
100
AcDbLine
 10
4277.510091765776
 20
-1880.834775004952
 30
0.0
 11
4310.445370943724
 21
-1875.025824675552
 31
0.0
  0
LINE
  5
323
330
1F
100
AcDbEntity
  8
0-C_ハッチ
  6
Continuous
 62
     7
370
     5
100
AcDbLine
 10
4254.31016856116
 20
-1901.473050641162
 30
0.0
 11
4401.809430872543
 21
-1875.457910955815
 31
0.0
  0
LINE
  5
324
330
1F
100
AcDbEntity
  8
0-C_ハッチ
  6
Continuous
 62
     7
370
     5
100
AcDbLine
 10
4401.809430872782
 20
-1858.911515057805
 30
0.0
 11
4401.809430872543
 21
-1875.457910955815
 31
0.0
  0
LINE
  5
325
330
1F
100
AcDbEntity
  8
0-C_ハッチ
  6
Continuous
 62
     7
370
     5
100
AcDbLine
 10
4407.245826053975
 20
-1836.835231010086
 30
0.0
 11
4407.245826053975
 21
-1820.288835111701
 31
0.0
  0
LINE
  5
326
330
1F
100
AcDbEntity
  8
0-C_ハッチ
  6
Continuous
 62
     7
370
     5
100
AcDbLine
 10
4497.870609838702
 20
-1874.197357540913
 30
0.0
 11
4359.729734007291
 21
-1898.555241078838
 31
0.0
  0
ELLIPSE
  5
327
330
1F
100
AcDbEntity
  8
0-C_ハッチ
  6
Continuous
 62
     7
370
     5
100
AcDbEllipse
 10
4333.961734199263
 20
-1835.753426337015
 30
0.0
 11
18.52285489353675
 21
0.0
 31
0.0
210
0.0
220
0.0
230
1.0
 40
0.5
 41
3.141592653589793
 42
6.283185307179586
  0
ARC
  5
328
330
1F
100
AcDbEntity
  8
0-C_ハッチ
  6
Continuous
 62
     7
370
     5
100
AcDbCircle
 10
4234.673884779219
 20
-1772.719619381202
 30
0.0
 40
180.0
100
AcDbArc
 50
260.070167268476
 51
279.6772325660855
  0
LINE
  5
329
330
1F
100
AcDbEntity
  8
0-C_ハッチ
  6
Continuous
 62
     7
370
     5
100
AcDbLine
 10
4266.508601055479
 20
-1985.558832022354
 30
0.0
 11
4733.930334359411
 21
-1904.645889932231
 31
0.0
  0
LINE
  5
32A
330
1F
100
AcDbEntity
  8
0-C_ハッチ
  6
Continuous
 62
     7
370
     5
100
AcDbLine
 10
4204.55277367664
 20
-1985.462514118276
 30
0.0
 11
3911.77167214499
 21
-1933.842588927783
 31
0.0
  0
ARC
  5
32B
330
1F
100
AcDbEntity
  8
0-C_ハッチ
  6
Continuous
 62
     7
370
     5
100
AcDbCircle
 10
4235.806343802808
 20
-1808.196571663532
 30
0.0
 40
180.0
100
AcDbArc
 50
260.0010025806856
 51
279.8208509823177
  0
ELLIPSE
  5
32C
330
1F
100
AcDbEntity
  8
0-C_ハッチ
  6
Continuous
 62
     7
370
     5
100
AcDbEllipse
 10
4498.849791719752
 20
-1892.756753694341
 30
0.0
 11
19.86135961083638
 21
0.0
 31
0.0
210
0.0
220
0.0
230
1.0
 40
0.5
 41
0.0
 42
6.283185307179586
  0
ELLIPSE
  5
32D
330
1F
100
AcDbEntity
  8
0-C_ハッチ
  6
Continuous
 62
     7
370
     5
100
AcDbEllipse
 10
4499.609703715385
 20
-1898.329441662311
 30
0.0
 11
13.10465733292201
 21
0.0
 31
0.0
210
0.0
220
0.0
230
1.0
 40
0.4
 41
0.0
 42
6.283185307179586
  0
ELLIPSE
  5
32E
330
1F
100
AcDbEntity
  8
0-C_ハッチ
  6
Continuous
 62
     7
370
     5
100
AcDbEllipse
 10
4176.243402323987
 20
-1908.532843353665
 30
0.0
 11
19.86135961083638
 21
0.0
 31
0.0
210
0.0
220
0.0
230
1.0
 40
0.5
 41
0.0
 42
6.283185307179586
  0
ELLIPSE
  5
32F
330
1F
100
AcDbEntity
  8
0-C_ハッチ
  6
Continuous
 62
     7
370
     5
100
AcDbEllipse
 10
4177.003314319618
 20
-1914.105531321635
 30
0.0
 11
13.10465733292201
 21
0.0
 31
0.0
210
0.0
220
0.0
230
1.0
 40
0.4
 41
0.0
 42
6.283185307179586
  0
LINE
  5
330
330
1F
100
AcDbEntity
  8
0-C_ハッチ
  6
Continuous
 62
     7
370
     5
100
AcDbLine
 10
3929.349278060476
 20
-1902.005578597279
 30
0.0
 11
4203.634324225966
 21
-1950.023160464455
 31
0.0
  0
LINE
  5
331
330
1F
100
AcDbEntity
  8
0-C_ハッチ
  6
Continuous
 62
     7
370
     5
100
AcDbLine
 10
3929.353037631726
 20
-1900.822909133169
 30
0.0
 11
4297.063973771009
 21
-1838.856584327742
 31
0.0
  0
LINE
  5
332
330
1F
100
AcDbEntity
  8
0-C_ハッチ
  6
Continuous
 62
     7
370
     5
100
AcDbLine
 10
4315.438879305726
 20
-1835.753426337015
 30
0.0
 11
4315.438879305726
 21
-1826.243398271961
 31
0.0
  0
LINE
  5
333
330
1F
100
AcDbEntity
  8
0-C_ハッチ
  6
Continuous
 62
     7
370
     5
100
AcDbLine
 10
4352.484589092799
 20
-1835.753426337015
 30
0.0
 11
4352.484589092799
 21
-1819.711239043001
 31
0.0
  0
ELLIPSE
  5
334
330
1F
100
AcDbEntity
  8
0-C_ハッチ
  6
Continuous
 62
     7
370
     5
100
AcDbEllipse
 10
4333.961734199263
 20
-1835.753426337015
 30
0.0
 11
36.89776042825395
 21
0.0
 31
0.0
210
0.0
220
0.0
230
1.0
 40
0.5
 41
2.768968464067914
 42
7.32806629937406
  0
LINE
  5
335
330
1F
100
AcDbEntity
  8
0-C_ハッチ
  6
Continuous
 62
     7
370
     5
100
AcDbLine
 10
4430.701371799581
 20
-1921.890503960702
 30
0.0
 11
4430.701371799581
 21
-1957.136276534982
 31
0.0
  0
LINE
  5
336
330
1F
100
AcDbEntity
  8
0-C_ハッチ
  6
Continuous
 62
     7
370
     5
100
AcDbLine
 10
4423.94183802674
 20
-1923.043167921966
 30
0.0
 11
4423.94183802674
 21
-1958.30638422521
 31
0.0
  0
LINE
  5
337
330
1F
100
AcDbEntity
  8
0-C_ハッチ
  6
Continuous
 62
     7
370
     5
100
AcDbLine
 10
4096.31987412941
 20
-1850.779362868646
 30
0.0
 11
4142.362352397192
 21
-1856.762108118529
 31
0.0
  0
LINE
  5
338
330
1F
100
AcDbEntity
  8
0-C_ハッチ
  6
Continuous
 62
     7
370
     5
100
AcDbLine
 10
4160.170286976865
 20
-1466.206605934899
 30
0.0
 11
4160.170286976865
 21
-1838.789005245049
 31
0.0
  0
ARC
  5
339
330
1F
100
AcDbEntity
  8
0-C_ハッチ
  6
Continuous
 62
     7
370
     5
100
AcDbCircle
 10
4340.170286976865
 20
-1466.206605934899
 30
0.0
 40
180.0
100
AcDbArc
 50
99.36427710995552
 51
180.0
  0
LINE
  5
33A
330
1F
100
AcDbEntity
  8
0-C_ハッチ
  6
Continuous
 62
     7
370
     5
100
AcDbLine
 10
4142.362437961815
 20
-1454.292540036287
 30
0.0
 11
4142.362437961815
 21
-1856.761943458619
 31
0.0
  0
ARC
  5
33B
330
1F
100
AcDbEntity
  8
0-C_ハッチ
  6
Continuous
 62
     7
370
     5
100
AcDbCircle
 10
4322.362437961815
 20
-1454.292540036287
 30
0.0
 40
180.0
100
AcDbArc
 50
100.4830549659711
 51
180.0
  0
LINE
  5
33C
330
1F
100
AcDbEntity
  8
0-C_ハッチ
  6
Continuous
 62
     7
370
     5
100
AcDbLine
 10
4095.75032951766
 20
-1429.693077368942
 30
0.0
 11
4095.75032951766
 21
-1850.705348315414
 31
0.0
  0
ARC
  5
33D
330
1F
100
AcDbEntity
  8
0-C_ハッチ
  6
Continuous
 62
     7
370
     5
100
AcDbCircle
 10
4275.750329517659
 20
-1429.693077368942
 30
0.0
 40
180.0
100
AcDbArc
 50
99.74095296447314
 51
180.0
  0
LINE
  5
33E
330
1F
100
AcDbEntity
  8
0-C_ハッチ
  6
Continuous
 62
     7
370
     5
100
AcDbLine
 10
4501.186888028835
 20
-1238.148665710217
 30
0.0
 11
4289.612387786578
 21
-1277.296963217205
 31
0.0
  0
LINE
  5
33F
330
1F
100
AcDbEntity
  8
0-C_ハッチ
  6
Continuous
 62
     7
370
     5
100
AcDbLine
 10
4713.936938204072
 20
-1415.144242529299
 30
0.0
 11
4713.936938204072
 21
-1755.977427175248
 31
0.0
  0
LINE
  5
340
330
1F
100
AcDbEntity
  8
0-C_ハッチ
  6
Continuous
 62
     7
370
     5
100
AcDbLine
 10
4483.379039013785
 20
-1256.687713066808
 30
0.0
 11
4310.882339170155
 21
-1288.605321836861
 31
0.0
  0
LINE
  5
341
330
1F
100
AcDbEntity
  8
0-C_ハッチ
  6
Continuous
 62
     7
370
     5
100
AcDbLine
 10
4696.129089189023
 20
-1433.683289885888
 30
0.0
 11
4696.129089189023
 21
-1740.779038840307
 31
0.0
  0
ARC
  5
342
330
1F
100
AcDbEntity
  8
0-C_ハッチ
  6
Continuous
 62
     7
370
     5
100
AcDbCircle
 10
4516.129089189023
 20
-1433.683289885888
 30
0.0
 40
180.0
100
AcDbArc
 50
0.0
 51
100.4830549659711
  0
LINE
  5
343
330
1F
100
AcDbEntity
  8
0-C_ハッチ
  6
Continuous
 62
     7
370
     5
100
AcDbLine
 10
4245.295430777938
 20
-1252.288175681439
 30
0.0
 11
4402.419507806958
 21
-1225.314863163163
 31
0.0
  0
ARC
  5
344
330
1F
100
AcDbEntity
  8
0-C_ハッチ
  6
Continuous
 62
     7
370
     5
100
AcDbCircle
 10
4435.169557982196
 20
-1402.310439982244
 30
0.0
 40
180.0
100
AcDbArc
 50
82.78560205276084
 51
100.4830549659711
  0
LINE
  5
345
330
1F
100
AcDbEntity
  8
0-C_ハッチ
  6
Continuous
 62
     7
370
     5
100
AcDbLine
 10
4457.774415124612
 20
-1223.735468517677
 30
0.0
 11
4557.720137619029
 21
-1236.722384491703
 31
0.0
  0
ARC
  5
346
330
1F
100
AcDbEntity
  8
0-C_ハッチ
  6
Continuous
 62
     7
370
     5
100
AcDbCircle
 10
4533.936938204072
 20
-1415.144242529299
 30
0.0
 40
180.0
100
AcDbArc
 50
0.0
 51
82.48094193237357
  0
ARC
  5
347
330
1F
100
AcDbEntity
  8
0-C_ハッチ
  6
Continuous
 62
     7
370
     5
100
AcDbCircle
 10
4533.936938204072
 20
-1415.144242529299
 30
0.0
 40
180.0
100
AcDbArc
 50
82.48094193237357
 51
100.4830549659711
  0
ARC
  5
348
330
1F
100
AcDbEntity
  8
0-C_ハッチ
  6
Continuous
 62
     7
370
     5
100
AcDbCircle
 10
4314.754736951128
 20
-1374.033621221855
 30
0.0
 40
12.0
100
AcDbArc
 50
0.0
 51
139.3154869822215
  0
LINE
  5
349
330
1F
100
AcDbEntity
  8
0-C_ハッチ
  6
Continuous
 62
     7
370
     5
100
AcDbLine
 10
4326.754736951129
 20
-1565.264136826359
 30
0.0
 11
4326.754736951129
 21
-1374.033621221855
 31
0.0
  0
ARC
  5
34A
330
1F
100
AcDbEntity
  8
0-C_ハッチ
  6
Continuous
 62
     7
370
     5
100
AcDbCircle
 10
4314.754736951128
 20
-1565.264136826359
 30
0.0
 40
12.0
100
AcDbArc
 50
226.7801567871272
 51
0.0
  0
LINE
  5
34B
330
1F
100
AcDbEntity
  8
0-C_ハッチ
  6
Continuous
 62
     7
370
     5
100
AcDbLine
 10
4282.076981434132
 20
-1393.637879048737
 30
0.0
 11
4305.655010111889
 21
-1366.210899735617
 31
0.0
  0
LINE
  5
34C
330
1F
100
AcDbEntity
  8
0-C_ハッチ
  6
Continuous
 62
     7
370
     5
100
AcDbLine
 10
4290.898306450143
 20
-1559.312874501606
 30
0.0
 11
4306.537142613492
 21
-1574.008914885408
 31
0.0
  0
ARC
  5
34D
330
1F
100
AcDbEntity
  8
0-C_ハッチ
  6
Continuous
 62
     7
370
     5
100
AcDbCircle
 10
4373.074249826515
 20
-1471.865093911112
 30
0.0
 40
120.0
100
AcDbArc
 50
139.3154869822216
 51
226.7801567871272
  0
ARC
  5
34E
330
1F
100
AcDbEntity
  8
0-C_ハッチ
  6
Continuous
 62
     7
370
     5
100
AcDbCircle
 10
4292.266091210879
 20
-1545.379959265569
 30
0.0
 40
12.0
100
AcDbArc
 50
249.9839863783417
 51
0.0
  0
LINE
  5
34F
330
1F
100
AcDbEntity
  8
0-C_ハッチ
  6
Continuous
 62
     7
370
     5
100
AcDbLine
 10
4304.26609121088
 20
-1545.379959265569
 30
0.0
 11
4304.26609121088
 21
-1367.826550072049
 31
0.0
  0
ARC
  5
350
330
1F
100
AcDbEntity
  8
0-C_ハッチ
  6
Continuous
 62
     7
370
     5
100
AcDbCircle
 10
4435.737680708305
 20
-1437.172649480785
 30
0.0
 40
120.0
100
AcDbArc
 50
313.2198432128728
 51
40.68451301777836
  0
ARC
  5
351
330
1F
100
AcDbEntity
  8
0-C_ハッチ
  6
Continuous
 62
     7
370
     5
100
AcDbCircle
 10
4520.037513559118
 20
-1340.391053837879
 30
0.0
 40
12.0
100
AcDbArc
 50
40.68451301777846
 51
180.0
  0
LINE
  5
352
330
1F
100
AcDbEntity
  8
0-C_ハッチ
  6
Continuous
 62
     7
370
     5
100
AcDbLine
 10
4508.037513559118
 20
-1531.621569442385
 30
0.0
 11
4508.037513559118
 21
-1340.391053837879
 31
0.0
  0
ARC
  5
353
330
1F
100
AcDbEntity
  8
0-C_ハッチ
  6
Continuous
 62
     7
370
     5
100
AcDbCircle
 10
4520.037513559118
 20
-1531.621569442385
 30
0.0
 40
12.0
100
AcDbArc
 50
180.0
 51
313.2198432128728
  0
LINE
  5
354
330
1F
100
AcDbEntity
  8
0-C_ハッチ
  6
Continuous
 62
     7
370
     5
100
AcDbLine
 10
4552.715269076116
 20
-1359.995311664762
 30
0.0
 11
4529.137240398357
 21
-1332.568332351643
 31
0.0
  0
LINE
  5
355
330
1F
100
AcDbEntity
  8
0-C_ハッチ
  6
Continuous
 62
     7
370
     5
100
AcDbLine
 10
4543.893944060105
 20
-1525.670307117632
 30
0.0
 11
4528.255107896756
 21
-1540.366347501434
 31
0.0
  0
ARC
  5
356
330
1F
100
AcDbEntity
  8
0-C_ハッチ
  6
Continuous
 62
     7
370
     5
100
AcDbCircle
 10
4461.718000683732
 20
-1438.222526527137
 30
0.0
 40
120.0
100
AcDbArc
 50
313.2198432128728
 51
40.68451301777836
  0
LINE
  5
357
330
1F
100
AcDbEntity
  8
0-C_ハッチ
  6
Continuous
 62
     7
370
     5
100
AcDbLine
 10
4526.73494910069
 20
-1358.945434618409
 30
0.0
 11
4508.37062460102
 21
-1337.583260747319
 31
0.0
  0
LINE
  5
358
330
1F
100
AcDbEntity
  8
0-C_ハッチ
  6
Continuous
 62
     7
370
     5
100
AcDbLine
 10
4517.913624084679
 20
-1524.620430071279
 30
0.0
 11
4508.223541427767
 21
-1533.726340802802
 31
0.0
  0
LINE
  5
359
330
1F
100
AcDbEntity
  8
0-C_ハッチ
  6
Continuous
 62
     7
370
     5
100
AcDbLine
 10
4160.170286976865
 20
-1838.789005245049
 30
0.0
 11
4377.025167257866
 21
-1798.937972424367
 31
0.0
  0
LINE
  5
35A
330
1F
100
AcDbEntity
  8
0-C_ハッチ
  6
Continuous
 62
     7
370
     5
100
AcDbLine
 10
4142.362437961815
 20
-1856.761449623613
 30
0.0
 11
4404.554423867639
 21
-1810.529920781591
 31
0.0
  0
LINE
  5
35B
330
1F
100
AcDbEntity
  8
0-C_ハッチ
  6
Continuous
 62
     7
370
     5
100
AcDbLine
 10
4332.945188201243
 20
-1682.467644189344
 30
0.0
 11
4332.945188201243
 21
-1805.457259846958
 31
0.0
  0
LINE
  5
35C
330
1F
100
AcDbEntity
  8
0-C_ハッチ
  6
Continuous
 62
     7
370
     5
100
AcDbLine
 10
4487.971235590922
 20
-1747.763349341385
 30
0.0
 11
4332.938844343254
 21
-1682.482709965097
 31
0.0
  0
LINE
  5
35D
330
1F
100
AcDbEntity
  8
0-C_ハッチ
  6
Continuous
 62
     7
370
     5
100
AcDbLine
 10
4487.971235590922
 20
-1845.65485667533
 30
0.0
 11
4332.945188201243
 21
-1780.376888554399
 31
0.0
  0
LINE
  5
35E
330
1F
100
AcDbEntity
  8
0-C_ハッチ
  6
Continuous
 62
     7
370
     5
100
AcDbLine
 10
4529.613527759921
 20
-1720.114533217513
 30
0.0
 11
4529.613527759921
 21
-1818.006040551458
 31
0.0
  0
ARC
  5
35F
330
1F
100
AcDbEntity
  8
0-C_ハッチ
  6
Continuous
 62
     7
370
     5
100
AcDbCircle
 10
4499.613527759921
 20
-1818.006040551458
 30
0.0
 40
30.0
100
AcDbArc
 50
247.1651394203828
 51
0.0
  0
LINE
  5
360
330
1F
100
AcDbEntity
  8
0-C_ハッチ
  6
Continuous
 62
     7
370
     5
100
AcDbLine
 10
4529.613527759921
 20
-1754.348228377577
 30
0.0
 11
4672.392464489722
 21
-1727.436472073972
 31
0.0
  0
LINE
  5
361
330
1F
100
AcDbEntity
  8
0-C_ハッチ
  6
Continuous
 62
     7
370
     5
100
AcDbLine
 10
4696.129089189023
 20
-1740.779038840307
 30
0.0
 11
4529.613527759921
 21
-1772.677216403815
 31
0.0
  0
LINE
  5
362
330
1F
100
AcDbEntity
  8
0-C_ハッチ
  6
Continuous
 62
     7
370
     5
100
AcDbLine
 10
4529.613527759921
 20
-1788.47862295653
 30
0.0
 11
4713.936938204072
 21
-1755.977427175248
 31
0.0
  0
LINE
  5
363
330
1F
100
AcDbEntity
  8
0-C_ハッチ
  6
Continuous
 62
     7
370
     5
100
AcDbLine
 10
4402.708426913745
 20
-1655.407882926384
 30
0.0
 11
4381.076522325633
 21
-1659.935639631381
 31
0.0
  0
LINE
  5
364
330
1F
100
AcDbEntity
  8
0-C_ハッチ
  6
Continuous
 62
     7
370
     5
100
AcDbLine
 10
4474.472028316814
 20
-1640.387100724614
 30
0.0
 11
4452.840123728704
 21
-1644.914857429611
 31
0.0
  0
LINE
  5
365
330
1F
100
AcDbEntity
  8
0-C_ハッチ
  6
Continuous
 62
     7
370
     5
100
AcDbLine
 10
4402.708426913745
 20
-1628.237597815783
 30
0.0
 11
4402.708426913745
 21
-1655.407882926384
 31
0.0
  0
ARC
  5
366
330
1F
100
AcDbEntity
  8
0-C_ハッチ
  6
Continuous
 62
     7
370
     5
100
AcDbCircle
 10
4426.708426913745
 20
-1628.237597815783
 30
0.0
 40
24.0
100
AcDbArc
 50
101.82186584
 51
180.0
  0
LINE
  5
367
330
1F
100
AcDbEntity
  8
0-C_ハッチ
  6
Continuous
 62
     7
370
     5
100
AcDbLine
 10
4423.923253257056
 20
-1604.300471443522
 30
0.0
 11
4421.791556442097
 21
-1604.746655204533
 31
0.0
  0
LINE
  5
368
330
1F
100
AcDbEntity
  8
0-C_ハッチ
  6
Continuous
 62
     7
370
     5
100
AcDbLine
 10
4452.840123728704
 20
-1627.791414054772
 30
0.0
 11
4452.840123728704
 21
-1644.914857429611
 31
0.0
  0
ARC
  5
369
330
1F
100
AcDbEntity
  8
0-C_ハッチ
  6
Continuous
 62
     7
370
     5
100
AcDbCircle
 10
4428.840123728703
 20
-1627.791414054772
 30
0.0
 40
24.0
100
AcDbArc
 50
0.0
 51
101.82186584
  0
LINE
  5
36A
330
1F
100
AcDbEntity
  8
0-C_ハッチ
  6
Continuous
 62
     7
370
     5
100
AcDbLine
 10
4413.370913316355
 20
-1643.117763594043
 30
0.0
 11
4413.370913316355
 21
-1662.136963171464
 31
0.0
  0
ARC
  5
36B
330
1F
100
AcDbEntity
  8
0-C_ハッチ
  6
Continuous
 62
     7
370
     5
100
AcDbCircle
 10
4430.170913316354
 20
-1643.117763594043
 30
0.0
 40
16.8
100
AcDbArc
 50
101.82186584
 51
180.0
  0
LINE
  5
36C
330
1F
100
AcDbEntity
  8
0-C_ハッチ
  6
Continuous
 62
     7
370
     5
100
AcDbLine
 10
4428.221291756673
 20
-1626.36177513346
 30
0.0
 11
4426.7291039862
 21
-1626.674103766168
 31
0.0
  0
LINE
  5
36D
330
1F
100
AcDbEntity
  8
0-C_ハッチ
  6
Continuous
 62
     7
370
     5
100
AcDbLine
 10
4448.463101086826
 20
-1642.805434961336
 30
0.0
 11
4448.463101086826
 21
-1654.791845323724
 31
0.0
  0
ARC
  5
36E
330
1F
100
AcDbEntity
  8
0-C_ハッチ
  6
Continuous
 62
     7
370
     5
100
AcDbCircle
 10
4431.663101086827
 20
-1642.805434961336
 30
0.0
 40
16.8
100
AcDbArc
 50
0.0
 51
101.82186584
  0
LINE
  5
36F
330
1F
100
AcDbEntity
  8
0-C_ハッチ
  6
Continuous
 62
     7
370
     5
100
AcDbLine
 10
4463.605434298503
 20
-1651.622415630225
 30
0.0
 11
4448.463101086826
 21
-1654.791845323724
 31
0.0
  0
LINE
  5
370
330
1F
100
AcDbEntity
  8
0-C_ハッチ
  6
Continuous
 62
     7
370
     5
100
AcDbLine
 10
4413.370913316355
 20
-1662.136963171464
 30
0.0
 11
4398.228580104677
 21
-1665.306392864963
 31
0.0
  0
LINE
  5
371
330
1F
100
AcDbEntity
  8
0-C_ハッチ
  6
Continuous
 62
     7
370
     5
100
AcDbLine
 10
3911.77167214499
 20
-1933.842588927783
 30
0.0
 11
3928.941725538264
 21
-1901.100145284066
 31
0.0
  0
ARC
  5
372
330
1F
100
AcDbEntity
  8
0-C_ハッチ
  6
Continuous
 62
     7
370
     5
100
AcDbCircle
 10
3929.452743262321
 20
-1901.414566793669
 30
0.0
 40
0.6000000000000001
100
AcDbArc
 50
99.56556047057619
 51
260.070167268476
  0
LINE
  5
373
330
1F
100
AcDbEntity
  8
0-C_ハッチ
  6
Continuous
 62
     7
370
     5
100
AcDbLine
 10
4707.236326452374
 20
-1873.525621054412
 30
0.0
 11
4497.870609838702
 21
-1874.197357540913
 31
0.0
  0
LINE
  5
374
330
1F
100
AcDbEntity
  8
0-C_ハッチ
  6
Continuous
 62
     7
370
     5
100
AcDbLine
 10
4707.339110112353
 20
-1874.717080172216
 30
0.0
 11
4264.931467278958
 21
-1950.158281180911
 31
0.0
  0
ARC
  5
375
330
1F
100
AcDbEntity
  8
0-C_ハッチ
  6
Continuous
 62
     7
370
     5
100
AcDbCircle
 10
4707.23825150402
 20
-1874.125617966218
 30
0.0
 40
0.6000000000000001
100
AcDbArc
 50
279.6772325660855
 51
90.18382920651953
  0
LINE
  5
376
330
1F
100
AcDbEntity
  8
0-C_ハッチ
  6
Continuous
 62
     7
370
     5
100
AcDbLine
 10
4733.930334359411
 20
-1904.645889932231
 30
0.0
 11
4707.658889787461
 21
-1873.695425694617
 31
0.0
  0
LINE
  5
377
330
1F
100
AcDbEntity
  8
0-C_ハッチ
  6
Continuous
 62
     7
370
     5
100
AcDbLine
 10
4696.129089189023
 20
-1740.779038840307
 30
0.0
 11
4672.392464489722
 21
-1727.436472073972
 31
0.0
  0
LINE
  5
378
330
1F
100
AcDbEntity
  8
0-C_ハッチ
  6
Continuous
 62
    40
370
     5
100
AcDbLine
 10
4713.936938204072
 20
-1738.414752342317
 30
0.0
 11
5069.506788875315
 21
-1675.502927222795
 31
0.0
  0
LINE
  5
379
330
1F
100
AcDbEntity
  8
0-C_ハッチ
  6
Continuous
 62
     7
370
     5
100
AcDbLine
 10
1840.767514818433
 20
-2108.67229936433
 30
0.0
 11
1840.767514818433
 21
-2102.672299364333
 31
0.0
  0
LINE
  5
37A
330
1F
100
AcDbEntity
  8
0-C_ハッチ
  6
Continuous
 62
     7
370
     5
100
AcDbLine
 10
2080.329821235784
 20
-1957.900748224519
 30
0.0
 11
1840.767514818433
 21
-2102.672299364333
 31
0.0
  0
LINE
  5
37B
330
1F
100
AcDbEntity
  8
0-C_ハッチ
  6
Continuous
 62
     7
370
     5
100
AcDbLine
 10
2493.731021813803
 20
-2357.070976173742
 30
0.0
 11
2239.360595139941
 21
-2513.557252116493
 31
0.0
  0
LINE
  5
37C
330
1F
100
AcDbEntity
  8
0-C_ハッチ
  6
Continuous
 62
     7
370
     5
100
AcDbLine
 10
2239.366235172575
 20
-2507.566420109836
 30
0.0
 11
2239.360595139941
 21
-2513.557252116493
 31
0.0
  0
LINE
  5
37D
330
1F
100
AcDbEntity
  8
0-C_ハッチ
  6
Continuous
 62
     7
370
     5
100
AcDbLine
 10
2493.731021813803
 20
-2351.07097617374
 30
0.0
 11
2239.366235172575
 21
-2507.566420109836
 31
0.0
  0
LINE
  5
37E
330
1F
100
AcDbEntity
  8
0-C_ハッチ
  6
Continuous
 62
     7
370
     5
100
AcDbLine
 10
1924.061203572645
 20
-2207.4774007515
 30
0.0
 11
1924.061203572643
 21
-2213.477400751494
 31
0.0
  0
LINE
  5
37F
330
1F
100
AcDbEntity
  8
0-C_ハッチ
  6
Continuous
 62
     7
370
     5
100
AcDbLine
 10
1923.104277355922
 20
-2206.150464059912
 30
0.0
 11
1923.10427735592
 21
-2212.150464059907
 31
0.0
  0
LINE
  5
380
330
1F
100
AcDbEntity
  8
0-C_ハッチ
  6
Continuous
 62
     7
370
     5
100
AcDbLine
 10
1925.58102756391
 20
-2209.02232627841
 30
0.0
 11
1925.581027563908
 21
-2215.022326278407
 31
0.0
  0
LINE
  5
381
330
1F
100
AcDbEntity
  8
0-C_ハッチ
  6
Continuous
 62
     7
370
     5
100
AcDbLine
 10
2134.768857178735
 20
-2421.514032918906
 30
0.0
 11
2134.768857178733
 21
-2427.514032918905
 31
0.0
  0
LINE
  5
382
330
1F
100
AcDbEntity
  8
0-C_ハッチ
  6
Continuous
 62
     7
370
     5
100
AcDbLine
 10
2137.972912232042
 20
-2424.097865084662
 30
0.0
 11
2137.97291223204
 21
-2430.097865084662
 31
0.0
  0
LINE
  5
383
330
1F
100
AcDbEntity
  8
0-C_ハッチ
  6
Continuous
 62
     7
370
     5
100
AcDbLine
 10
2141.139212213844
 20
-2425.688260215838
 30
0.0
 11
2141.139212213841
 21
-2431.688260215838
 31
0.0
  0
LINE
  5
384
330
1F
100
AcDbEntity
  8
0-C_ハッチ
  6
Continuous
 62
     7
370
     5
100
AcDbLine
 10
2144.822147458333
 20
-2426.671191627656
 30
0.0
 11
2144.82214745833
 21
-2432.671191627654
 31
0.0
  0
LINE
  5
385
330
1F
100
AcDbEntity
  8
0-C_ハッチ
  6
Continuous
 62
     7
370
     5
100
AcDbLine
 10
2148.99163616871
 20
-2426.832043633289
 30
0.0
 11
2148.991636168707
 21
-2432.832043633289
 31
0.0
  0
LINE
  5
386
330
1F
100
AcDbEntity
  8
0-C_ハッチ
  6
Continuous
 62
     7
370
     5
100
AcDbLine
 10
2152.791196146871
 20
-2426.12023145493
 30
0.0
 11
2152.791196146869
 21
-2432.12023145493
 31
0.0
  0
ARC
  5
387
330
1F
100
AcDbEntity
  8
0-C_ハッチ
  6
Continuous
 62
     7
370
     5
100
AcDbCircle
 10
1928.403842884071
 20
-2209.337173244358
 30
0.0
 40
6.0
100
AcDbArc
 50
180.0
 51
224.5510943265451
  0
LINE
  5
388
330
1F
100
AcDbEntity
  8
0-C_ハッチ
  6
Continuous
 62
     7
370
     5
100
AcDbLine
 10
1922.403842884071
 20
-2203.337173244361
 30
0.0
 11
1922.403842884071
 21
-2209.337173244358
 31
0.0
  0
LINE
  5
389
330
1F
100
AcDbEntity
  8
0-C_ハッチ
  6
Continuous
 62
     7
370
     5
100
AcDbLine
 10
1840.767514818433
 20
-2108.67229936433
 30
0.0
 11
1927.545373837213
 21
-2196.820713128351
 31
0.0
  0
ARC
  5
38A
330
1F
100
AcDbEntity
  8
0-C_ハッチ
  6
Continuous
 62
     7
370
     5
100
AcDbCircle
 10
1928.403842884071
 20
-2203.337173244361
 30
0.0
 40
6.0
100
AcDbArc
 50
121.6015005399993
 51
224.5510943265456
  0
LINE
  5
38B
330
1F
100
AcDbEntity
  8
0-C_ハッチ
  6
Continuous
 62
     7
370
     5
100
AcDbLine
 10
1925.259793612211
 20
-2198.226893978399
 30
0.0
 11
1931.224021777931
 21
-2194.557461008944
 31
0.0
  0
LINE
  5
38C
330
1F
100
AcDbEntity
  8
0-C_ハッチ
  6
Continuous
 62
     7
370
     5
100
AcDbLine
 10
1924.128092165123
 20
-2207.546443464888
 30
0.0
 11
2134.768857178735
 21
-2421.514032918906
 31
0.0
  0
LINE
  5
38D
330
1F
100
AcDbEntity
  8
0-C_ハッチ
  6
Continuous
 62
     7
370
     5
100
AcDbLine
 10
1924.128092165123
 20
-2213.546443464886
 30
0.0
 11
2134.768857178733
 21
-2427.514032918905
 31
0.0
  0
LINE
  5
38E
330
1F
100
AcDbEntity
  8
0-C_ハッチ
  6
Continuous
 62
     7
370
     5
100
AcDbLine
 10
2157.204612558879
 20
-2424.107150803502
 30
0.0
 11
2157.204612558879
 21
-2430.108033743832
 31
0.0
  0
LINE
  5
38F
330
1F
100
AcDbEntity
  8
0-C_ハッチ
  6
Continuous
 62
     7
370
     5
100
AcDbLine
 10
2157.20461255888
 20
-2430.1071508035
 30
0.0
 11
2239.357976506916
 21
-2513.558031008211
 31
0.0
  0
ARC
  5
390
330
1F
100
AcDbEntity
  8
0-C_ハッチ
  6
Continuous
 62
     7
370
     5
100
AcDbCircle
 10
2147.596109335577
 20
-2414.886222257324
 30
0.0
 40
18.0
100
AcDbArc
 50
224.5510943265451
 51
302.2629554764407
  0
LINE
  5
391
330
1F
100
AcDbEntity
  8
0-C_ハッチ
  6
Continuous
 62
     7
370
     5
100
AcDbLine
 10
2157.204612558879
 20
-2424.107150803502
 30
0.0
 11
2239.366235172575
 21
-2507.566420109836
 31
0.0
  0
ARC
  5
392
330
1F
100
AcDbEntity
  8
0-C_ハッチ
  6
Continuous
 62
     7
370
     5
100
AcDbCircle
 10
2147.59610933558
 20
-2408.886222257325
 30
0.0
 40
18.0
100
AcDbArc
 50
224.5510943265456
 51
302.2629554764285
  0
LINE
  5
393
330
1F
100
AcDbEntity
  8
0-C_ハッチ
  6
Continuous
 62
     7
370
     5
100
AcDbLine
 10
1840.767514818433
 20
-2102.672299364333
 30
0.0
 11
1931.224021777931
 21
-2194.557461008944
 31
0.0
  0
LINE
  5
394
330
1F
100
AcDbEntity
  8
0-C_ハッチ
  6
Continuous
 62
   120
370
     5
100
AcDbLine
 10
2332.181603033343
 20
-1582.907843263037
 30
0.0
 11
2647.968606820034
 21
-1415.905100875845
 31
0.0
  0
LINE
  5
395
330
1F
100
AcDbEntity
  8
0-C_ハッチ
  6
Continuous
 62
   120
370
     5
100
AcDbLine
 10
2628.655811208909
 20
-1829.198926953953
 30
0.0
 11
2647.968606820034
 21
-1415.905100875845
 31
0.0
  0
LINE
  5
396
330
1F
100
AcDbEntity
  8
0-C_ハッチ
  6
Continuous
 62
     7
370
     5
100
AcDbLine
 10
2305.224518968163
 20
-1534.180972260388
 30
0.0
 11
2305.224518968163
 21
-1668.043178500652
 31
0.0
  0
LINE
  5
397
330
1F
100
AcDbEntity
  8
0-C_ハッチ
  6
Continuous
 62
     7
370
     5
100
AcDbLine
 10
2279.202381933997
 20
-1533.955318568074
 30
0.0
 11
2279.202381933997
 21
-1668.043178500652
 31
0.0
  0
ELLIPSE
  5
398
330
1F
100
AcDbEntity
  8
0-C_ハッチ
  6
Continuous
 62
     7
370
     5
100
AcDbEllipse
 10
2292.541302701912
 20
-1520.457422718614
 30
0.0
 11
26.15375705822504
 21
0.0
 31
0.0
210
0.0
220
0.0
230
1.0
 40
0.6
 41
3.230595867857267
 42
6.465060446500363
  0
LINE
  5
399
330
1F
100
AcDbEntity
  8
0-C_ハッチ
  6
Continuous
 62
     7
370
     5
100
AcDbLine
 10
2305.224518968163
 20
-1566.772912590423
 30
0.0
 11
2279.202381933997
 21
-1579.243261376929
 31
0.0
  0
LINE
  5
39A
330
1F
100
AcDbEntity
  8
0-C_ハッチ
  6
Continuous
 62
     7
370
     5
100
AcDbLine
 10
2305.224518968163
 20
-1554.609297782157
 30
0.0
 11
2279.202381933997
 21
-1567.079646568659
 31
0.0
  0
LINE
  5
39B
330
1F
100
AcDbEntity
  8
0-C_ハッチ
  6
Continuous
 62
     7
370
     5
100
AcDbLine
 10
2305.224518968163
 20
-1542.445682973887
 30
0.0
 11
2279.202381933997
 21
-1554.916031760388
 31
0.0
  0
LINE
  5
39C
330
1F
100
AcDbEntity
  8
0-C_ハッチ
  6
Continuous
 62
     7
370
     5
100
AcDbLine
 10
2305.224518968163
 20
-1591.10014220873
 30
0.0
 11
2279.202381933997
 21
-1603.570490995233
 31
0.0
  0
LINE
  5
39D
330
1F
100
AcDbEntity
  8
0-C_ハッチ
  6
Continuous
 62
     7
370
     5
100
AcDbLine
 10
2305.224518968163
 20
-1603.263757018766
 30
0.0
 11
2279.202381933997
 21
-1615.734105805268
 31
0.0
  0
LINE
  5
39E
330
1F
100
AcDbEntity
  8
0-C_ハッチ
  6
Continuous
 62
     7
370
     5
100
AcDbLine
 10
2305.224518968163
 20
-1627.590986638838
 30
0.0
 11
2279.202381933997
 21
-1640.061335425338
 31
0.0
  0
LINE
  5
39F
330
1F
100
AcDbEntity
  8
0-C_ハッチ
  6
Continuous
 62
     7
370
     5
100
AcDbLine
 10
2305.224518968163
 20
-1615.427371828801
 30
0.0
 11
2279.202381933997
 21
-1627.897720615305
 31
0.0
  0
LINE
  5
3A0
330
1F
100
AcDbEntity
  8
0-C_ハッチ
  6
Continuous
 62
     7
370
     5
100
AcDbLine
 10
2305.224518968163
 20
-1639.754601448873
 30
0.0
 11
2279.202381933997
 21
-1652.224950235377
 31
0.0
  0
LINE
  5
3A1
330
1F
100
AcDbEntity
  8
0-C_ハッチ
  6
Continuous
 62
     7
370
     5
100
AcDbLine
 10
2305.224518968163
 20
-1651.91821625891
 30
0.0
 11
2279.202381933997
 21
-1664.388565045411
 31
0.0
  0
LINE
  5
3A2
330
1F
100
AcDbEntity
  8
0-C_ハッチ
  6
Continuous
 62
     7
370
     5
100
AcDbLine
 10
2305.224518968163
 20
-1578.936527398693
 30
0.0
 11
2279.202381933997
 21
-1591.406876185199
 31
0.0
  0
LINE
  5
3A3
330
1F
100
AcDbEntity
  8
0-C_ハッチ
  6
Continuous
 62
     7
370
     5
100
AcDbLine
 10
2305.224518968163
 20
-1668.043178500652
 30
0.0
 11
2292.213450451079
 21
-1690.579010232999
 31
0.0
  0
LINE
  5
3A4
330
1F
100
AcDbEntity
  8
0-C_ハッチ
  6
Continuous
 62
     7
370
     5
100
AcDbLine
 10
2279.202381933997
 20
-1668.043178500652
 30
0.0
 11
2292.213450451079
 21
-1690.579010232999
 31
0.0
  0
LINE
  5
3A5
330
1F
100
AcDbEntity
  8
0-C_ハッチ
  6
Continuous
 62
     7
370
     5
100
AcDbLine
 10
2292.213450450866
 20
-1522.032609939209
 30
0.0
 11
2300.559380287878
 21
-1527.397850548716
 31
0.0
  0
LINE
  5
3A6
330
1F
100
AcDbEntity
  8
0-C_ハッチ
  6
Continuous
 62
     7
370
     5
100
AcDbLine
 10
2279.171777861104
 20
-1513.648677560078
 30
0.0
 11
2287.517707698116
 21
-1519.013918169584
 31
0.0
  0
LINE
  5
3A7
330
1F
100
AcDbEntity
  8
0-C_ハッチ
  6
Continuous
 62
     7
370
     5
100
AcDbLine
 10
2292.213450450866
 20
-1522.032609939209
 30
0.0
 11
2283.867520613854
 21
-1527.397850548716
 31
0.0
  0
LINE
  5
3A8
330
1F
100
AcDbEntity
  8
0-C_ハッチ
  6
Continuous
 62
     7
370
     5
100
AcDbLine
 10
2305.255123040627
 20
-1513.648677560078
 30
0.0
 11
2296.909193203617
 21
-1519.013918169584
 31
0.0
  0
LINE
  5
3A9
330
1F
100
AcDbEntity
  8
0-C_ハッチ
  6
Continuous
 62
     7
370
     5
100
AcDbLine
 10
2296.909193203617
 20
-1519.013918169584
 30
0.0
 11
2305.255123040627
 21
-1524.379158779091
 31
0.0
  0
LINE
  5
3AA
330
1F
100
AcDbEntity
  8
0-C_ハッチ
  6
Continuous
 62
     7
370
     5
100
AcDbLine
 10
2283.867520613854
 20
-1510.629985790453
 30
0.0
 11
2292.213450450866
 21
-1515.99522639996
 31
0.0
  0
LINE
  5
3AB
330
1F
100
AcDbEntity
  8
0-C_ハッチ
  6
Continuous
 62
     7
370
     5
100
AcDbLine
 10
2287.517707698116
 20
-1519.013918169584
 30
0.0
 11
2279.171777861104
 21
-1524.379158779091
 31
0.0
  0
LINE
  5
3AC
330
1F
100
AcDbEntity
  8
0-C_ハッチ
  6
Continuous
 62
     7
370
     5
100
AcDbLine
 10
2300.559380287878
 20
-1510.629985790453
 30
0.0
 11
2292.213450450866
 21
-1515.99522639996
 31
0.0
  0
LINE
  5
3AD
330
1F
100
AcDbEntity
  8
0-C_ハッチ
  6
Continuous
 62
     7
370
     5
100
AcDbLine
 10
2283.867520613854
 20
-1510.629985790453
 30
0.0
 11
2279.171777861104
 21
-1513.648677560078
 31
0.0
  0
LINE
  5
3AE
330
1F
100
AcDbEntity
  8
0-C_ハッチ
  6
Continuous
 62
     7
370
     5
100
AcDbLine
 10
2300.559380287878
 20
-1510.629985790453
 30
0.0
 11
2305.255123040627
 21
-1513.648677560078
 31
0.0
  0
LINE
  5
3AF
330
1F
100
AcDbEntity
  8
0-C_ハッチ
  6
Continuous
 62
     7
370
     5
100
AcDbLine
 10
2305.255123040627
 20
-1524.379158779091
 30
0.0
 11
2300.559380287878
 21
-1527.397850548716
 31
0.0
  0
LINE
  5
3B0
330
1F
100
AcDbEntity
  8
0-C_ハッチ
  6
Continuous
 62
     7
370
     5
100
AcDbLine
 10
2279.171777861104
 20
-1524.379158779091
 30
0.0
 11
2283.867520613854
 21
-1527.397850548716
 31
0.0
  0
ELLIPSE
  5
3B1
330
1F
100
AcDbEntity
  8
0-C_ハッチ
  6
Continuous
 62
     7
370
     5
100
AcDbEllipse
 10
2292.213450450866
 20
-1519.013918169584
 30
0.0
 11
26.15375705822504
 21
0.0
 31
0.0
210
0.0
220
0.0
230
1.0
 40
0.6
 41
0.0
 42
6.283185307179586
  0
LINE
  5
3B2
330
1F
100
AcDbEntity
  8
0-C_ハッチ
  6
Continuous
 62
     7
370
     5
100
AcDbLine
 10
2609.498031469301
 20
-1800.447011354978
 30
0.0
 11
2609.498031469301
 21
-1934.309217595242
 31
0.0
  0
LINE
  5
3B3
330
1F
100
AcDbEntity
  8
0-C_ハッチ
  6
Continuous
 62
     7
370
     5
100
AcDbLine
 10
2583.475894435136
 20
-1800.221357662664
 30
0.0
 11
2583.475894435136
 21
-1934.309217595242
 31
0.0
  0
ELLIPSE
  5
3B4
330
1F
100
AcDbEntity
  8
0-C_ハッチ
  6
Continuous
 62
     7
370
     5
100
AcDbEllipse
 10
2596.814815203051
 20
-1786.723461813204
 30
0.0
 11
26.15375705822504
 21
0.0
 31
0.0
210
0.0
220
0.0
230
1.0
 40
0.6
 41
3.230595867857267
 42
6.465060446500363
  0
LINE
  5
3B5
330
1F
100
AcDbEntity
  8
0-C_ハッチ
  6
Continuous
 62
     7
370
     5
100
AcDbLine
 10
2609.498031469301
 20
-1833.038951685015
 30
0.0
 11
2583.475894435136
 21
-1845.509300471519
 31
0.0
  0
LINE
  5
3B6
330
1F
100
AcDbEntity
  8
0-C_ハッチ
  6
Continuous
 62
     7
370
     5
100
AcDbLine
 10
2609.498031469301
 20
-1820.875336876747
 30
0.0
 11
2583.475894435136
 21
-1833.34568566325
 31
0.0
  0
LINE
  5
3B7
330
1F
100
AcDbEntity
  8
0-C_ハッチ
  6
Continuous
 62
     7
370
     5
100
AcDbLine
 10
2609.498031469301
 20
-1808.711722068477
 30
0.0
 11
2583.475894435136
 21
-1821.18207085498
 31
0.0
  0
LINE
  5
3B8
330
1F
100
AcDbEntity
  8
0-C_ハッチ
  6
Continuous
 62
     7
370
     5
100
AcDbLine
 10
2609.498031469301
 20
-1857.36618130332
 30
0.0
 11
2583.475894435136
 21
-1869.836530089824
 31
0.0
  0
LINE
  5
3B9
330
1F
100
AcDbEntity
  8
0-C_ハッチ
  6
Continuous
 62
     7
370
     5
100
AcDbLine
 10
2609.498031469301
 20
-1869.529796113357
 30
0.0
 11
2583.475894435136
 21
-1882.000144899859
 31
0.0
  0
LINE
  5
3BA
330
1F
100
AcDbEntity
  8
0-C_ハッチ
  6
Continuous
 62
     7
370
     5
100
AcDbLine
 10
2609.498031469301
 20
-1893.857025733428
 30
0.0
 11
2583.475894435136
 21
-1906.327374519929
 31
0.0
  0
LINE
  5
3BB
330
1F
100
AcDbEntity
  8
0-C_ハッチ
  6
Continuous
 62
     7
370
     5
100
AcDbLine
 10
2609.498031469301
 20
-1881.693410923392
 30
0.0
 11
2583.475894435136
 21
-1894.163759709895
 31
0.0
  0
LINE
  5
3BC
330
1F
100
AcDbEntity
  8
0-C_ハッチ
  6
Continuous
 62
     7
370
     5
100
AcDbLine
 10
2609.498031469301
 20
-1906.020640543463
 30
0.0
 11
2583.475894435136
 21
-1918.490989329967
 31
0.0
  0
LINE
  5
3BD
330
1F
100
AcDbEntity
  8
0-C_ハッチ
  6
Continuous
 62
     7
370
     5
100
AcDbLine
 10
2609.498031469301
 20
-1918.1842553535
 30
0.0
 11
2583.475894435136
 21
-1930.654604140002
 31
0.0
  0
LINE
  5
3BE
330
1F
100
AcDbEntity
  8
0-C_ハッチ
  6
Continuous
 62
     7
370
     5
100
AcDbLine
 10
2609.498031469301
 20
-1845.202566493285
 30
0.0
 11
2583.475894435136
 21
-1857.672915279789
 31
0.0
  0
LINE
  5
3BF
330
1F
100
AcDbEntity
  8
0-C_ハッチ
  6
Continuous
 62
     7
370
     5
100
AcDbLine
 10
2609.498031469301
 20
-1934.309217595242
 30
0.0
 11
2596.486962952217
 21
-1956.845049327589
 31
0.0
  0
LINE
  5
3C0
330
1F
100
AcDbEntity
  8
0-C_ハッチ
  6
Continuous
 62
     7
370
     5
100
AcDbLine
 10
2583.475894435136
 20
-1934.309217595242
 30
0.0
 11
2596.486962952217
 21
-1956.845049327589
 31
0.0
  0
LINE
  5
3C1
330
1F
100
AcDbEntity
  8
0-C_ハッチ
  6
Continuous
 62
     7
370
     5
100
AcDbLine
 10
2596.486962952004
 20
-1788.298649033799
 30
0.0
 11
2604.832892789016
 21
-1793.663889643306
 31
0.0
  0
LINE
  5
3C2
330
1F
100
AcDbEntity
  8
0-C_ハッチ
  6
Continuous
 62
     7
370
     5
100
AcDbLine
 10
2583.445290362242
 20
-1779.914716654668
 30
0.0
 11
2591.791220199254
 21
-1785.279957264175
 31
0.0
  0
LINE
  5
3C3
330
1F
100
AcDbEntity
  8
0-C_ハッチ
  6
Continuous
 62
     7
370
     5
100
AcDbLine
 10
2596.486962952004
 20
-1788.298649033799
 30
0.0
 11
2588.141033114993
 21
-1793.663889643306
 31
0.0
  0
LINE
  5
3C4
330
1F
100
AcDbEntity
  8
0-C_ハッチ
  6
Continuous
 62
     7
370
     5
100
AcDbLine
 10
2609.528635541765
 20
-1779.914716654668
 30
0.0
 11
2601.182705704755
 21
-1785.279957264175
 31
0.0
  0
LINE
  5
3C5
330
1F
100
AcDbEntity
  8
0-C_ハッチ
  6
Continuous
 62
     7
370
     5
100
AcDbLine
 10
2601.182705704755
 20
-1785.279957264175
 30
0.0
 11
2609.528635541765
 21
-1790.645197873681
 31
0.0
  0
LINE
  5
3C6
330
1F
100
AcDbEntity
  8
0-C_ハッチ
  6
Continuous
 62
     7
370
     5
100
AcDbLine
 10
2588.141033114993
 20
-1776.896024885043
 30
0.0
 11
2596.486962952004
 21
-1782.26126549455
 31
0.0
  0
LINE
  5
3C7
330
1F
100
AcDbEntity
  8
0-C_ハッチ
  6
Continuous
 62
     7
370
     5
100
AcDbLine
 10
2591.791220199254
 20
-1785.279957264175
 30
0.0
 11
2583.445290362242
 21
-1790.645197873681
 31
0.0
  0
LINE
  5
3C8
330
1F
100
AcDbEntity
  8
0-C_ハッチ
  6
Continuous
 62
     7
370
     5
100
AcDbLine
 10
2604.832892789016
 20
-1776.896024885043
 30
0.0
 11
2596.486962952004
 21
-1782.26126549455
 31
0.0
  0
LINE
  5
3C9
330
1F
100
AcDbEntity
  8
0-C_ハッチ
  6
Continuous
 62
     7
370
     5
100
AcDbLine
 10
2588.141033114993
 20
-1776.896024885043
 30
0.0
 11
2583.445290362242
 21
-1779.914716654668
 31
0.0
  0
LINE
  5
3CA
330
1F
100
AcDbEntity
  8
0-C_ハッチ
  6
Continuous
 62
     7
370
     5
100
AcDbLine
 10
2604.832892789016
 20
-1776.896024885043
 30
0.0
 11
2609.528635541765
 21
-1779.914716654668
 31
0.0
  0
LINE
  5
3CB
330
1F
100
AcDbEntity
  8
0-C_ハッチ
  6
Continuous
 62
     7
370
     5
100
AcDbLine
 10
2609.528635541765
 20
-1790.645197873681
 30
0.0
 11
2604.832892789016
 21
-1793.663889643306
 31
0.0
  0
LINE
  5
3CC
330
1F
100
AcDbEntity
  8
0-C_ハッチ
  6
Continuous
 62
     7
370
     5
100
AcDbLine
 10
2583.445290362242
 20
-1790.645197873681
 30
0.0
 11
2588.141033114993
 21
-1793.663889643306
 31
0.0
  0
ELLIPSE
  5
3CD
330
1F
100
AcDbEntity
  8
0-C_ハッチ
  6
Continuous
 62
     7
370
     5
100
AcDbEllipse
 10
2596.486962952004
 20
-1785.279957264175
 30
0.0
 11
26.15375705822504
 21
0.0
 31
0.0
210
0.0
220
0.0
230
1.0
 40
0.6
 41
0.0
 42
6.283185307179586
  0
LINE
  5
3CE
330
1F
100
AcDbEntity
  8
0-C_ハッチ
  6
Continuous
 62
     7
370
     5
100
AcDbLine
 10
2292.213450451079
 20
-1915.952757570671
 30
0.0
 11
2292.213450451079
 21
-1695.228006901823
 31
0.0
  0
LINE
  5
3CF
330
1F
100
AcDbEntity
  8
0-C_ハッチ
  6
Continuous
 62
     7
370
     5
100
AcDbLine
 10
2596.486962952217
 20
-2182.218796665262
 30
0.0
 11
2596.486962952217
 21
-1961.494045996414
 31
0.0
  0
LINE
  5
3D0
330
1F
100
AcDbEntity
  8
0-C_ハッチ
  6
Continuous
 62
     7
370
     5
100
AcDbLine
 10
2450.592471737164
 20
-2016.370967661604
 30
0.0
 11
2467.284331411186
 21
-2027.101448880619
 31
0.0
  0
LINE
  5
3D1
330
1F
100
AcDbEntity
  8
0-C_ハッチ
  6
Continuous
 62
     7
370
     5
100
AcDbLine
 10
2424.50912655764
 20
-1999.603102903342
 30
0.0
 11
2441.200986231663
 21
-2010.333584122355
 31
0.0
  0
LINE
  5
3D2
330
1F
100
AcDbEntity
  8
0-C_ハッチ
  6
Continuous
 62
     7
370
     5
100
AcDbLine
 10
2450.592471737164
 20
-2016.370967661604
 30
0.0
 11
2433.90061206314
 21
-2027.101448880619
 31
0.0
  0
LINE
  5
3D3
330
1F
100
AcDbEntity
  8
0-C_ハッチ
  6
Continuous
 62
     7
370
     5
100
AcDbLine
 10
2476.675816916684
 20
-1999.603102903342
 30
0.0
 11
2459.983957242664
 21
-2010.333584122355
 31
0.0
  0
LINE
  5
3D4
330
1F
100
AcDbEntity
  8
0-C_ハッチ
  6
Continuous
 62
     7
370
     5
100
AcDbLine
 10
2459.983957242664
 20
-2010.333584122355
 30
0.0
 11
2476.675816916684
 21
-2021.064065341369
 31
0.0
  0
LINE
  5
3D5
330
1F
100
AcDbEntity
  8
0-C_ハッチ
  6
Continuous
 62
     7
370
     5
100
AcDbLine
 10
2433.90061206314
 20
-1993.565719364091
 30
0.0
 11
2450.592471737164
 21
-2004.296200583106
 31
0.0
  0
LINE
  5
3D6
330
1F
100
AcDbEntity
  8
0-C_ハッチ
  6
Continuous
 62
     7
370
     5
100
AcDbLine
 10
2441.200986231663
 20
-2010.333584122355
 30
0.0
 11
2424.50912655764
 21
-2021.064065341369
 31
0.0
  0
LINE
  5
3D7
330
1F
100
AcDbEntity
  8
0-C_ハッチ
  6
Continuous
 62
     7
370
     5
100
AcDbLine
 10
2467.284331411186
 20
-1993.565719364091
 30
0.0
 11
2450.592471737164
 21
-2004.296200583106
 31
0.0
  0
LINE
  5
3D8
330
1F
100
AcDbEntity
  8
0-C_ハッチ
  6
Continuous
 62
     7
370
     5
100
AcDbLine
 10
2433.90061206314
 20
-1993.565719364091
 30
0.0
 11
2424.50912655764
 21
-1999.603102903342
 31
0.0
  0
LINE
  5
3D9
330
1F
100
AcDbEntity
  8
0-C_ハッチ
  6
Continuous
 62
     7
370
     5
100
AcDbLine
 10
2467.284331411186
 20
-1993.565719364091
 30
0.0
 11
2476.675816916684
 21
-1999.603102903342
 31
0.0
  0
LINE
  5
3DA
330
1F
100
AcDbEntity
  8
0-C_ハッチ
  6
Continuous
 62
     7
370
     5
100
AcDbLine
 10
2476.675816916684
 20
-2021.064065341369
 30
0.0
 11
2467.284331411186
 21
-2027.101448880619
 31
0.0
  0
LINE
  5
3DB
330
1F
100
AcDbEntity
  8
0-C_ハッチ
  6
Continuous
 62
     7
370
     5
100
AcDbLine
 10
2424.50912655764
 20
-2021.064065341369
 30
0.0
 11
2433.90061206314
 21
-2027.101448880619
 31
0.0
  0
ARC
  5
3DC
330
1F
100
AcDbEntity
  8
0-C_ハッチ
  6
Continuous
 62
     7
370
     5
100
AcDbCircle
 10
2528.740700417572
 20
-2215.219518558225
 30
0.0
 40
12.0
100
AcDbArc
 50
117.3949267100002
 51
165.5224878140668
  0
LINE
  5
3DD
330
1F
100
AcDbEntity
  8
0-C_ハッチ
  6
Continuous
 62
     7
370
     5
100
AcDbLine
 10
2517.770696630046
 20
-2204.355465011887
 30
0.0
 11
2517.770696630046
 21
-2210.355465011889
 31
0.0
  0
LINE
  5
3DE
330
1F
100
AcDbEntity
  8
0-C_ハッチ
  6
Continuous
 62
     7
370
     5
100
AcDbLine
 10
2518.971545215736
 20
-2202.250759225141
 30
0.0
 11
2518.971545215736
 21
-2208.250759225142
 31
0.0
  0
LINE
  5
3DF
330
1F
100
AcDbEntity
  8
0-C_ハッチ
  6
Continuous
 62
     7
370
     5
100
AcDbLine
 10
2523.219246367719
 20
-2198.56524499428
 30
0.0
 11
2523.219246367719
 21
-2204.565244994281
 31
0.0
  0
LINE
  5
3E0
330
1F
100
AcDbEntity
  8
0-C_ハッチ
  6
Continuous
 62
     7
370
     5
100
AcDbLine
 10
2627.672277643826
 20
-2152.719451287571
 30
0.0
 11
2627.672277643826
 21
-2158.719451287574
 31
0.0
  0
LINE
  5
3E1
330
1F
100
AcDbEntity
  8
0-C_ハッチ
  6
Continuous
 62
     7
370
     5
100
AcDbLine
 10
2623.362012483018
 20
-2150.418592001689
 30
0.0
 11
2623.362012483018
 21
-2156.418592001691
 31
0.0
  0
LINE
  5
3E2
330
1F
100
AcDbEntity
  8
0-C_ハッチ
  6
Continuous
 62
     7
370
     5
100
AcDbLine
 10
2621.735863356562
 20
-2150.06196162029
 30
0.0
 11
2621.735863356562
 21
-2156.061961620291
 31
0.0
  0
LINE
  5
3E3
330
1F
100
AcDbEntity
  8
0-C_ハッチ
  6
Continuous
 62
     7
370
     5
100
AcDbLine
 10
2618.383494388177
 20
-2150.040752706976
 30
0.0
 11
2618.383494388177
 21
-2156.040752706977
 31
0.0
  0
LINE
  5
3E4
330
1F
100
AcDbEntity
  8
0-C_ハッチ
  6
Continuous
 62
     7
370
     5
100
AcDbLine
 10
2616.9324690138
 20
-2150.32808187601
 30
0.0
 11
2616.9324690138
 21
-2156.328081876012
 31
0.0
  0
LINE
  5
3E5
330
1F
100
AcDbEntity
  8
0-C_ハッチ
  6
Continuous
 62
     7
370
     5
100
AcDbLine
 10
2614.463052090551
 20
-2151.279197981431
 30
0.0
 11
2614.463052090551
 21
-2157.279197981431
 31
0.0
  0
ARC
  5
3E6
330
1F
100
AcDbEntity
  8
0-C_ハッチ
  6
Continuous
 62
     7
370
     5
100
AcDbCircle
 10
2630.867400891584
 20
-2177.013678208906
 30
0.0
 40
12.0
100
AcDbArc
 50
20.75540117989427
 51
50.15987174704777
  0
LINE
  5
3E7
330
1F
100
AcDbEntity
  8
0-C_ハッチ
  6
Continuous
 62
     7
370
     5
100
AcDbLine
 10
2614.463052090553
 20
-2157.279197981431
 30
0.0
 11
2523.219246367719
 21
-2204.565244994281
 31
0.0
  0
LINE
  5
3E8
330
1F
100
AcDbEntity
  8
0-C_ハッチ
  6
Continuous
 62
     7
370
     5
100
AcDbLine
 10
2627.672277643826
 20
-2158.719451287572
 30
0.0
 11
2638.555172395004
 21
-2167.799657951104
 31
0.0
  0
ARC
  5
3E9
330
1F
100
AcDbEntity
  8
0-C_ハッチ
  6
Continuous
 62
     7
370
     5
100
AcDbCircle
 10
2619.984506140407
 20
-2167.933471545377
 30
0.0
 40
12.0
100
AcDbArc
 50
50.15987174704691
 51
117.3949267100002
  0
LINE
  5
3EA
330
1F
100
AcDbEntity
  8
0-C_ハッチ
  6
Continuous
 62
     7
370
     5
100
AcDbLine
 10
2619.984506140407
 20
-2149.933471545377
 30
0.0
 11
2619.984506140407
 21
-2155.933471545378
 31
0.0
  0
ARC
  5
3EB
330
1F
100
AcDbEntity
  8
0-C_ハッチ
  6
Continuous
 62
     7
370
     5
100
AcDbCircle
 10
2224.467187916435
 20
-1948.953479463634
 30
0.0
 40
12.0
100
AcDbArc
 50
117.3949267100002
 51
165.5224878140668
  0
LINE
  5
3EC
330
1F
100
AcDbEntity
  8
0-C_ハッチ
  6
Continuous
 62
     7
370
     5
100
AcDbLine
 10
2213.497184128908
 20
-1938.089425917297
 30
0.0
 11
2213.497184128908
 21
-1944.089425917298
 31
0.0
  0
LINE
  5
3ED
330
1F
100
AcDbEntity
  8
0-C_ハッチ
  6
Continuous
 62
     7
370
     5
100
AcDbLine
 10
2214.698032714598
 20
-1935.98472013055
 30
0.0
 11
2214.698032714598
 21
-1941.984720130552
 31
0.0
  0
LINE
  5
3EE
330
1F
100
AcDbEntity
  8
0-C_ハッチ
  6
Continuous
 62
     7
370
     5
100
AcDbLine
 10
2218.945733866582
 20
-1932.299205899689
 30
0.0
 11
2218.945733866582
 21
-1938.29920589969
 31
0.0
  0
LINE
  5
3EF
330
1F
100
AcDbEntity
  8
0-C_ハッチ
  6
Continuous
 62
     7
370
     5
100
AcDbLine
 10
2323.398765142688
 20
-1886.453412192981
 30
0.0
 11
2323.398765142688
 21
-1892.453412192983
 31
0.0
  0
LINE
  5
3F0
330
1F
100
AcDbEntity
  8
0-C_ハッチ
  6
Continuous
 62
     7
370
     5
100
AcDbLine
 10
2319.08849998188
 20
-1884.152552907099
 30
0.0
 11
2319.08849998188
 21
-1890.1525529071
 31
0.0
  0
LINE
  5
3F1
330
1F
100
AcDbEntity
  8
0-C_ハッチ
  6
Continuous
 62
     7
370
     5
100
AcDbLine
 10
2317.462350855424
 20
-1883.7959225257
 30
0.0
 11
2317.462350855424
 21
-1889.795922525701
 31
0.0
  0
LINE
  5
3F2
330
1F
100
AcDbEntity
  8
0-C_ハッチ
  6
Continuous
 62
     7
370
     5
100
AcDbLine
 10
2314.109981887038
 20
-1883.774713612386
 30
0.0
 11
2314.109981887038
 21
-1889.774713612387
 31
0.0
  0
LINE
  5
3F3
330
1F
100
AcDbEntity
  8
0-C_ハッチ
  6
Continuous
 62
     7
370
     5
100
AcDbLine
 10
2312.658956512662
 20
-1884.06204278142
 30
0.0
 11
2312.658956512662
 21
-1890.062042781421
 31
0.0
  0
LINE
  5
3F4
330
1F
100
AcDbEntity
  8
0-C_ハッチ
  6
Continuous
 62
     7
370
     5
100
AcDbLine
 10
2310.189539589413
 20
-1885.013158886841
 30
0.0
 11
2310.189539589413
 21
-1891.013158886841
 31
0.0
  0
ARC
  5
3F5
330
1F
100
AcDbEntity
  8
0-C_ハッチ
  6
Continuous
 62
     7
370
     5
100
AcDbCircle
 10
2326.593888390447
 20
-1910.747639114315
 30
0.0
 40
12.0
100
AcDbArc
 50
20.75540117989427
 51
50.15987174704777
  0
LINE
  5
3F6
330
1F
100
AcDbEntity
  8
0-C_ハッチ
  6
Continuous
 62
     7
370
     5
100
AcDbLine
 10
2310.189539589415
 20
-1891.013158886841
 30
0.0
 11
2218.945733866582
 21
-1938.29920589969
 31
0.0
  0
LINE
  5
3F7
330
1F
100
AcDbEntity
  8
0-C_ハッチ
  6
Continuous
 62
     7
370
     5
100
AcDbLine
 10
2323.398765142688
 20
-1892.453412192982
 30
0.0
 11
2334.281659893866
 21
-1901.533618856514
 31
0.0
  0
ARC
  5
3F8
330
1F
100
AcDbEntity
  8
0-C_ハッチ
  6
Continuous
 62
     7
370
     5
100
AcDbCircle
 10
2315.710993639269
 20
-1901.667432450787
 30
0.0
 40
12.0
100
AcDbArc
 50
50.15987174704691
 51
117.3949267100002
  0
LINE
  5
3F9
330
1F
100
AcDbEntity
  8
0-C_ハッチ
  6
Continuous
 62
     7
370
     5
100
AcDbLine
 10
2315.710993639269
 20
-1883.667432450786
 30
0.0
 11
2315.710993639269
 21
-1889.667432450787
 31
0.0
  0
ELLIPSE
  5
3FA
330
1F
100
AcDbEntity
  8
0-C_ハッチ
  6
Continuous
 62
     7
370
     5
100
AcDbEllipse
 10
2146.341969445743
 20
-2224.370255748944
 30
0.0
 11
79.69551291525261
 21
0.0
 31
0.0
210
0.0
220
0.0
230
1.0
 40
0.7
 41
0.2111186597640594
 42
2.949786527099673
  0
ARC
  5
3FB
330
1F
100
AcDbEntity
  8
0-C_ハッチ
  6
Continuous
 62
     7
370
     5
100
AcDbCircle
 10
2619.984506140405
 20
-2161.933471545376
 30
0.0
 40
12.0
100
AcDbArc
 50
50.15987174704691
 51
117.3949267100002
  0
LINE
  5
3FC
330
1F
100
AcDbEntity
  8
0-C_ハッチ
  6
Continuous
 62
     7
370
     5
100
AcDbLine
 10
2614.463052090551
 20
-2151.279197981431
 30
0.0
 11
2523.219246367719
 21
-2198.565244994281
 31
0.0
  0
LINE
  5
3FD
330
1F
100
AcDbEntity
  8
0-C_ハッチ
  6
Continuous
 62
     7
370
     5
100
AcDbLine
 10
2627.672277643826
 20
-2152.719451287571
 30
0.0
 11
2638.555172395002
 21
-2161.799657951103
 31
0.0
  0
ARC
  5
3FE
330
1F
100
AcDbEntity
  8
0-C_ハッチ
  6
Continuous
 62
     7
370
     5
100
AcDbCircle
 10
2630.867400891584
 20
-2171.013678208906
 30
0.0
 40
12.0
100
AcDbArc
 50
297.3949267103216
 51
50.15987174704777
  0
LINE
  5
3FF
330
1F
100
AcDbEntity
  8
0-C_ハッチ
  6
Continuous
 62
     7
370
     5
100
AcDbLine
 10
2636.388854941497
 20
-2181.667951772819
 30
0.0
 11
2545.145049219144
 21
-2228.953998786068
 31
0.0
  0
ARC
  5
400
330
1F
100
AcDbEntity
  8
0-C_ハッチ
  6
Continuous
 62
     7
370
     5
100
AcDbCircle
 10
2539.62359516923
 20
-2218.299725222154
 30
0.0
 40
12.0
100
AcDbArc
 50
230.159871747048
 51
297.3949267103217
  0
LINE
  5
401
330
1F
100
AcDbEntity
  8
0-C_ハッチ
  6
Continuous
 62
     7
370
     5
100
AcDbLine
 10
2531.93582366581
 20
-2227.513745479959
 30
0.0
 11
2521.052928914153
 21
-2218.433538816028
 31
0.0
  0
ARC
  5
402
330
1F
100
AcDbEntity
  8
0-C_ハッチ
  6
Continuous
 62
     7
370
     5
100
AcDbCircle
 10
2528.740700417572
 20
-2209.219518558224
 30
0.0
 40
12.0
100
AcDbArc
 50
117.3949267100002
 51
230.1598717470478
  0
ARC
  5
403
330
1F
100
AcDbEntity
  8
0-C_ハッチ
  6
Continuous
 62
     7
370
     5
100
AcDbCircle
 10
2315.710993639269
 20
-1895.667432450785
 30
0.0
 40
12.0
100
AcDbArc
 50
50.15987174704691
 51
117.3949267100002
  0
LINE
  5
404
330
1F
100
AcDbEntity
  8
0-C_ハッチ
  6
Continuous
 62
     7
370
     5
100
AcDbLine
 10
2310.189539589415
 20
-1885.013158886839
 30
0.0
 11
2218.945733866582
 21
-1932.299205899689
 31
0.0
  0
LINE
  5
405
330
1F
100
AcDbEntity
  8
0-C_ハッチ
  6
Continuous
 62
     7
370
     5
100
AcDbLine
 10
2323.398765142688
 20
-1886.453412192981
 30
0.0
 11
2334.281659893866
 21
-1895.533618856512
 31
0.0
  0
ARC
  5
406
330
1F
100
AcDbEntity
  8
0-C_ハッチ
  6
Continuous
 62
     7
370
     5
100
AcDbCircle
 10
2326.593888390447
 20
-1904.747639114314
 30
0.0
 40
12.0
100
AcDbArc
 50
297.3949267103216
 51
50.15987174704777
  0
LINE
  5
407
330
1F
100
AcDbEntity
  8
0-C_ハッチ
  6
Continuous
 62
     7
370
     5
100
AcDbLine
 10
2332.115342440359
 20
-1915.401912678227
 30
0.0
 11
2240.871536718006
 21
-1962.687959691476
 31
0.0
  0
ARC
  5
408
330
1F
100
AcDbEntity
  8
0-C_ハッチ
  6
Continuous
 62
     7
370
     5
100
AcDbCircle
 10
2235.350082668093
 20
-1952.033686127564
 30
0.0
 40
12.0
100
AcDbArc
 50
230.159871747048
 51
297.3949267103217
  0
LINE
  5
409
330
1F
100
AcDbEntity
  8
0-C_ハッチ
  6
Continuous
 62
     7
370
     5
100
AcDbLine
 10
2227.662311164673
 20
-1961.247706385369
 30
0.0
 11
2216.779416413015
 21
-1952.167499721436
 31
0.0
  0
ARC
  5
40A
330
1F
100
AcDbEntity
  8
0-C_ハッチ
  6
Continuous
 62
     7
370
     5
100
AcDbCircle
 10
2224.467187916435
 20
-1942.953479463633
 30
0.0
 40
12.0
100
AcDbArc
 50
117.3949267100002
 51
230.1598717470478
  0
ELLIPSE
  5
40B
330
1F
100
AcDbEntity
  8
0-C_ハッチ
  6
Continuous
 62
     7
370
     5
100
AcDbEllipse
 10
2450.592471737161
 20
-2010.333584122355
 30
0.0
 11
45.7135540476191
 21
0.0
 31
0.0
210
0.0
220
0.0
230
1.0
 40
0.7
 41
0.0
 42
6.283185307179586
  0
LINE
  5
40C
330
1F
100
AcDbEntity
  8
0-C_ハッチ
  6
Continuous
 62
     7
370
     5
100
AcDbLine
 10
2757.854317189081
 20
-2209.110766235191
 30
0.0
 11
2754.692163510569
 21
-2233.636551423609
 31
0.0
  0
LINE
  5
40D
330
1F
100
AcDbEntity
  8
0-C_ハッチ
  6
Continuous
 62
     7
370
     5
100
AcDbLine
 10
2757.854317189081
 20
-2203.110766235192
 30
0.0
 11
2757.854317189081
 21
-2209.110766235191
 31
0.0
  0
LINE
  5
40E
330
1F
100
AcDbEntity
  8
0-C_ハッチ
  6
Continuous
 62
     7
370
     5
100
AcDbLine
 10
2754.692163510569
 20
-2233.636551423609
 30
0.0
 11
2754.692163510569
 21
-2227.636551423608
 31
0.0
  0
LINE
  5
40F
330
1F
100
AcDbEntity
  8
0-C_ハッチ
  6
Continuous
 62
     7
370
     5
100
AcDbLine
 10
2535.340586340922
 20
-2367.922966346965
 30
0.0
 11
2754.692163510569
 21
-2233.636551423609
 31
0.0
  0
LINE
  5
410
330
1F
100
AcDbEntity
  8
0-C_ハッチ
  6
Continuous
 62
     7
370
     5
100
AcDbLine
 10
2506.024524150105
 20
-2363.582037654893
 30
0.0
 11
2493.730960287926
 21
-2357.070876163421
 31
0.0
  0
LINE
  5
411
330
1F
100
AcDbEntity
  8
0-C_ハッチ
  6
Continuous
 62
     7
370
     5
100
AcDbLine
 10
2506.024524150105
 20
-2357.582091538789
 30
0.0
 11
2506.024524150105
 21
-2363.582037654893
 31
0.0
  0
LINE
  5
412
330
1F
100
AcDbEntity
  8
0-C_ハッチ
  6
Continuous
 62
     7
370
     5
100
AcDbLine
 10
2535.340586340922
 20
-2367.922966346965
 30
0.0
 11
2506.024524150105
 21
-2363.582037654893
 31
0.0
  0
LINE
  5
413
330
1F
100
AcDbEntity
  8
0-C_ハッチ
  6
Continuous
 62
     7
370
     5
100
AcDbLine
 10
2535.340586340922
 20
-2361.922966346964
 30
0.0
 11
2535.340586340922
 21
-2367.922966346965
 31
0.0
  0
LINE
  5
414
330
1F
100
AcDbEntity
  8
0-C_ハッチ
  6
Continuous
 62
     7
370
     5
100
AcDbLine
 10
2493.731021813803
 20
-2351.07097617374
 30
0.0
 11
2493.731021813803
 21
-2357.070976173742
 31
0.0
  0
LINE
  5
415
330
1F
100
AcDbEntity
  8
0-C_ハッチ
  6
Continuous
 62
     7
370
     5
100
AcDbLine
 10
2425.310721465547
 20
-1917.66500147395
 30
0.0
 11
2157.744851404673
 21
-2056.671852557107
 31
0.0
  0
LINE
  5
416
330
1F
100
AcDbEntity
  8
0-C_ハッチ
  6
Continuous
 62
     7
370
     5
100
AcDbLine
 10
2282.067535102966
 20
-2173.647297741526
 30
0.0
 11
2559.763413785547
 21
-2017.027805728922
 31
0.0
  0
LINE
  5
417
330
1F
100
AcDbEntity
  8
0-C_ハッチ
  6
Continuous
 62
     7
370
     5
100
AcDbLine
 10
2454.728036304082
 20
-1932.282856644011
 30
0.0
 11
2166.150190336671
 21
-2082.205930357276
 31
0.0
  0
LINE
  5
418
330
1F
100
AcDbEntity
  8
0-C_ハッチ
  6
Continuous
 62
     7
370
     5
100
AcDbLine
 10
2468.066150068737
 20
-1935.593810128541
 30
0.0
 11
2174.554152791294
 21
-2088.080293129472
 31
0.0
  0
LINE
  5
419
330
1F
100
AcDbEntity
  8
0-C_ハッチ
  6
Continuous
 62
     7
370
     5
100
AcDbLine
 10
1970.723716565439
 20
-2195.778010590383
 30
0.0
 11
1936.183329260846
 21
-2179.282804427647
 31
0.0
  0
LINE
  5
41A
330
1F
100
AcDbEntity
  8
0-C_ハッチ
  6
Continuous
 62
     7
370
     5
100
AcDbLine
 10
2110.808069390118
 20
-2343.009295287927
 30
0.0
 11
1970.723716565439
 21
-2195.778010590383
 31
0.0
  0
LINE
  5
41B
330
1F
100
AcDbEntity
  8
0-C_ハッチ
  6
Continuous
 62
     7
370
     5
100
AcDbLine
 10
2148.092506886348
 20
-2410.152502749605
 30
0.0
 11
2110.808069390118
 21
-2343.009295287927
 31
0.0
  0
LINE
  5
41C
330
1F
100
AcDbEntity
  8
0-C_ハッチ
  6
Continuous
 62
     7
370
     5
100
AcDbLine
 10
1984.428219746336
 20
-2170.058543883882
 30
0.0
 11
2118.870143970366
 21
-2299.585586817754
 31
0.0
  0
LINE
  5
41D
330
1F
100
AcDbEntity
  8
0-C_ハッチ
  6
Continuous
 62
     7
370
     5
100
AcDbLine
 10
1881.690508138158
 20
-2121.208741903493
 30
0.0
 11
1984.428219746336
 21
-2170.058543883882
 31
0.0
  0
LINE
  5
41E
330
1F
100
AcDbEntity
  8
0-C_ハッチ
  6
Continuous
 62
     7
370
     5
100
AcDbLine
 10
2185.439148102847
 20
-2435.530833230702
 30
0.0
 11
2118.870143970366
 21
-2299.585586817754
 31
0.0
  0
LINE
  5
41F
330
1F
100
AcDbEntity
  8
0-C_ハッチ
  6
Continuous
 62
     7
370
     5
100
AcDbLine
 10
2401.513588419944
 20
-2309.074211285575
 30
0.0
 11
2201.385028217092
 21
-2416.738400746808
 31
0.0
  0
LINE
  5
420
330
1F
100
AcDbEntity
  8
0-C_ハッチ
  6
Continuous
 62
     7
370
     5
100
AcDbLine
 10
2282.054123903231
 20
-2223.760826586943
 30
0.0
 11
2138.976906005839
 21
-2300.732812392851
 31
0.0
  0
LINE
  5
421
330
1F
100
AcDbEntity
  8
0-C_ハッチ
  6
Continuous
 62
     7
370
     5
100
AcDbLine
 10
2152.681409186737
 20
-2099.427203753924
 30
0.0
 11
2009.604978678208
 21
-2176.383835476985
 31
0.0
  0
LINE
  5
422
330
1F
100
AcDbEntity
  8
0-C_ハッチ
  6
Continuous
 62
     7
370
     5
100
AcDbLine
 10
2101.026337530521
 20
-1999.154216137821
 30
0.0
 11
1902.294112546921
 21
-2112.496087274223
 31
0.0
  0
LINE
  5
423
330
1F
100
AcDbEntity
  8
0-C_ハッチ
  6
Continuous
 62
     7
370
     5
100
AcDbLine
 10
2159.735626020845
 20
-2094.605824891392
 30
0.0
 11
2110.156898799449
 21
-1993.402537332265
 31
0.0
  0
LINE
  5
424
330
1F
100
AcDbEntity
  8
0-C_ハッチ
  6
Continuous
 62
     7
370
     5
100
AcDbLine
 10
2290.224070757872
 20
-2215.730247561261
 30
0.0
 11
2159.735626020845
 21
-2094.605824891392
 31
0.0
  0
LINE
  5
425
330
1F
100
AcDbEntity
  8
0-C_ハッチ
  6
Continuous
 62
     7
370
     5
100
AcDbLine
 10
2426.060460660347
 20
-2299.973178986146
 30
0.0
 11
2290.224070757872
 21
-2215.730247561261
 31
0.0
  0
LINE
  5
426
330
1F
100
AcDbEntity
  8
0-C_ハッチ
  6
Continuous
 62
     7
370
     5
100
AcDbLine
 10
2445.486131328312
 20
-2301.709568278856
 30
0.0
 11
2493.731021813803
 21
-2351.07097617374
 31
0.0
  0
LINE
  5
427
330
1F
100
AcDbEntity
  8
0-C_ハッチ
  6
Continuous
 62
     7
370
     5
100
AcDbLine
 10
2300.176666000993
 20
-2207.141606678101
 30
0.0
 11
2445.486131328312
 21
-2301.709568278856
 31
0.0
  0
LINE
  5
428
330
1F
100
AcDbEntity
  8
0-C_ハッチ
  6
Continuous
 62
     7
370
     5
100
AcDbLine
 10
2165.425297953345
 20
-2086.094741811351
 30
0.0
 11
2300.176666000993
 21
-2207.141606678101
 31
0.0
  0
LINE
  5
429
330
1F
100
AcDbEntity
  8
0-C_ハッチ
  6
Continuous
 62
     7
370
     5
100
AcDbLine
 10
2113.769438908265
 20
-1985.806203265174
 30
0.0
 11
2165.425297953345
 21
-2086.094741811351
 31
0.0
  0
LINE
  5
42A
330
1F
100
AcDbEntity
  8
0-C_ハッチ
  6
Continuous
 62
     7
370
     5
100
AcDbLine
 10
2088.158828712236
 20
-1962.520752385042
 30
0.0
 11
2113.769438908265
 21
-1985.806203265174
 31
0.0
  0
LINE
  5
42B
330
1F
100
AcDbEntity
  8
0-C_ハッチ
  6
Continuous
 62
     7
370
     5
100
AcDbLine
 10
2405.178120593665
 20
-2256.859504881239
 30
0.0
 11
2427.719488997155
 21
-2282.051814743178
 31
0.0
  0
LINE
  5
42C
330
1F
100
AcDbEntity
  8
0-C_ハッチ
  6
Continuous
 62
     7
370
     5
100
AcDbLine
 10
2302.160885938705
 20
-2192.98750445576
 30
0.0
 11
2405.178120593665
 21
-2256.859504881239
 31
0.0
  0
LINE
  5
42D
330
1F
100
AcDbEntity
  8
0-C_ハッチ
  6
Continuous
 62
     7
370
     5
100
AcDbLine
 10
2615.785744426692
 20
-2096.280010463835
 30
0.0
 11
2378.435245210959
 21
-2232.674855918223
 31
0.0
  0
LINE
  5
42E
330
1F
100
AcDbEntity
  8
0-C_ハッチ
  6
Continuous
 62
     7
370
     5
100
AcDbLine
 10
2602.608004395925
 20
-2068.126724778183
 30
0.0
 11
2340.453181181074
 21
-2215.172185703781
 31
0.0
  0
LINE
  5
42F
330
1F
100
AcDbEntity
  8
0-C_ハッチ
  6
Continuous
 62
     7
370
     5
100
AcDbLine
 10
2556.03710263566
 20
-2049.80221743676
 30
0.0
 11
2302.160885938705
 21
-2192.98750445576
 31
0.0
  0
LINE
  5
430
330
1F
100
AcDbEntity
  8
0-C_ハッチ
  6
Continuous
 62
     7
370
     5
100
AcDbLine
 10
2440.819277530369
 20
-1920.058052023591
 30
0.0
 11
2157.332515207396
 21
-2067.336186358556
 31
0.0
  0
LINE
  5
431
330
1F
100
AcDbEntity
  8
0-C_ハッチ
  6
Continuous
 62
     7
370
     5
100
AcDbLine
 10
2282.405299336652
 20
-1831.887034402577
 30
0.0
 11
2082.499864945438
 21
-1934.336561686471
 31
0.0
  0
LINE
  5
432
330
1F
100
AcDbEntity
  8
0-C_ハッチ
  6
Continuous
 62
     7
370
     5
100
AcDbLine
 10
2506.024524150105
 20
-2357.582091538789
 30
0.0
 11
2493.731021813803
 21
-2351.07097617374
 31
0.0
  0
LINE
  5
433
330
1F
100
AcDbEntity
  8
0-C_ハッチ
  6
Continuous
 62
     7
370
     5
100
AcDbLine
 10
2535.340586340922
 20
-2361.922966346964
 30
0.0
 11
2506.024524150105
 21
-2357.582091538789
 31
0.0
  0
LINE
  5
434
330
1F
100
AcDbEntity
  8
0-C_ハッチ
  6
Continuous
 62
     7
370
     5
100
AcDbLine
 10
2754.692163510569
 20
-2227.636551423608
 30
0.0
 11
2535.340586340922
 21
-2361.922966346964
 31
0.0
  0
LINE
  5
435
330
1F
100
AcDbEntity
  8
0-C_ハッチ
  6
Continuous
 62
     7
370
     5
100
AcDbLine
 10
2757.854317189081
 20
-2203.110766235192
 30
0.0
 11
2754.692163510569
 21
-2227.636551423608
 31
0.0
  0
LINE
  5
436
330
1F
100
AcDbEntity
  8
0-C_ハッチ
  6
Continuous
 62
     7
370
     5
100
AcDbLine
 10
2615.785744426692
 20
-2084.017216293234
 30
0.0
 11
2757.854317189081
 21
-2203.110766235192
 31
0.0
  0
LINE
  5
437
330
1F
100
AcDbEntity
  8
0-C_ハッチ
  6
Continuous
 62
     7
370
     5
100
AcDbLine
 10
2601.863921919282
 20
-2059.677648571193
 30
0.0
 11
2615.785744426692
 21
-2084.017216293234
 31
0.0
  0
LINE
  5
438
330
1F
100
AcDbEntity
  8
0-C_ハッチ
  6
Continuous
 62
     7
370
     5
100
AcDbLine
 10
2570.512459514582
 20
-2036.513652423358
 30
0.0
 11
2601.863921919282
 21
-2059.677648571193
 31
0.0
  0
LINE
  5
439
330
1F
100
AcDbEntity
  8
0-C_ハッチ
  6
Continuous
 62
     7
370
     5
100
AcDbLine
 10
2563.664538562884
 20
-2014.827585173576
 30
0.0
 11
2570.512459514582
 21
-2036.513652423358
 31
0.0
  0
LINE
  5
43A
330
1F
100
AcDbEntity
  8
0-C_ハッチ
  6
Continuous
 62
     7
370
     5
100
AcDbLine
 10
2469.887312228973
 20
-1933.871214867745
 30
0.0
 11
2563.664538562884
 21
-2014.827585173576
 31
0.0
  0
LINE
  5
43B
330
1F
100
AcDbEntity
  8
0-C_ハッチ
  6
Continuous
 62
     7
370
     5
100
AcDbLine
 10
2456.803271473042
 20
-1931.20472247923
 30
0.0
 11
2469.887312228973
 21
-1933.871214867745
 31
0.0
  0
LINE
  5
43C
330
1F
100
AcDbEntity
  8
0-C_ハッチ
  6
Continuous
 62
     7
370
     5
100
AcDbLine
 10
2446.260921970656
 20
-1920.97299788376
 30
0.0
 11
2456.803271473042
 21
-1931.20472247923
 31
0.0
  0
LINE
  5
43D
330
1F
100
AcDbEntity
  8
0-C_ハッチ
  6
Continuous
 62
     7
370
     5
100
AcDbLine
 10
2427.657285276886
 20
-1916.445905609208
 30
0.0
 11
2446.260921970656
 21
-1920.97299788376
 31
0.0
  0
LINE
  5
43E
330
1F
100
AcDbEntity
  8
0-C_ハッチ
  6
Continuous
 62
     7
370
     5
100
AcDbLine
 10
2310.594608062841
 20
-1826.296573466964
 30
0.0
 11
2427.657285276886
 21
-1916.445905609208
 31
0.0
  0
LINE
  5
43F
330
1F
100
AcDbEntity
  8
0-C_ハッチ
  6
Continuous
 62
     7
370
     5
100
AcDbLine
 10
2287.324904959994
 20
-1829.365815259504
 30
0.0
 11
2310.594608062841
 21
-1826.296573466964
 31
0.0
  0
LINE
  5
440
330
1F
100
AcDbEntity
  8
0-C_ハッチ
  6
Continuous
 62
     7
370
     5
100
AcDbLine
 10
2282.405299336652
 20
-1831.887034402577
 30
0.0
 11
2287.324904959994
 21
-1829.365815259504
 31
0.0
  0
LINE
  5
441
330
1F
100
AcDbEntity
  8
0-C_ハッチ
  6
Continuous
 62
     7
370
     5
100
AcDbLine
 10
2082.499864945438
 20
-1934.336561686471
 30
0.0
 11
2080.329821235784
 21
-1957.900748224519
 31
0.0
  0
ELLIPSE
  5
442
330
1F
100
AcDbEntity
  8
0-C_ハッチ
  6
Continuous
 62
     7
370
     5
100
AcDbEllipse
 10
2146.033992237663
 20
-2202.045132270463
 30
0.0
 11
79.69551291525261
 21
0.0
 31
0.0
210
0.0
220
0.0
230
1.0
 40
0.7
 41
0.0
 42
6.283185307179586
  0
MTEXT
  5
443
330
1F
100
AcDbEntity
  8
0-C_ハッチ
  6
Continuous
 62
     7
370
     5
100
AcDbMText
 10
3984.933621026235
 20
-2210.13833056405
 30
0.0
 40
45.72
 41
240.0
 46
0.0
 71
     7
 72
     1
  1
{\fＭＳ ゴシック|b0|i0|c128|p49;46㎜後ろ}
 73
     1
 44
1.0
  0
LINE
  5
444
330
1F
100
AcDbEntity
  8
0-C_ハッチ
  6
Continuous
 62
   120
370
     5
100
AcDbLine
 10
4752.918929176363
 20
-2953.821324562628
 30
0.0
 11
4686.91870648052
 21
-3019.821179861893
 31
0.0
  0
LINE
  5
445
330
1F
100
AcDbEntity
  8
0-4_枠
  6
Continuous
 62
    92
370
     5
100
AcDbLine
 10
4686.91870648052
 20
-3014.497231182136
 30
0.0
 11
4686.91870648052
 21
-3074.497231182136
 31
0.0
  0
LINE
  5
446
330
1F
100
AcDbEntity
  8
0-4_枠
  6
Continuous
 62
    92
370
     5
100
AcDbLine
 10
4632.918706480521
 20
-3014.497231182136
 30
0.0
 11
4686.91870648052
 21
-3014.497231182136
 31
0.0
  0
LINE
  5
447
330
1F
100
AcDbEntity
  8
0-4_枠
  6
Continuous
 62
    92
370
     5
100
AcDbLine
 10
4632.918706480521
 20
-3014.497231182136
 30
0.0
 11
4632.918706480521
 21
-3074.497231182136
 31
0.0
  0
LINE
  5
448
330
1F
100
AcDbEntity
  8
0-4_枠
  6
Continuous
 62
    92
370
     5
100
AcDbLine
 10
4752.918706480521
 20
-2522.498082375128
 30
0.0
 11
4752.918706480521
 21
-3032.497231182135
 31
0.0
  0
LINE
  5
449
330
1F
100
AcDbEntity
  8
0-4_枠
  6
Continuous
 62
    92
370
     5
100
AcDbLine
 10
4722.918706480521
 20
-3032.497231182135
 30
0.0
 11
4752.918706480521
 21
-3032.497231182135
 31
0.0
  0
LINE
  5
44A
330
1F
100
AcDbEntity
  8
0-4_枠
  6
Continuous
 62
    92
370
     5
100
AcDbLine
 10
4722.918706480521
 20
-3032.497231182135
 30
0.0
 11
4722.918706480521
 21
-3074.497231182136
 31
0.0
  0
LINE
  5
44B
330
1F
100
AcDbEntity
  8
0-4_枠
  6
Continuous
 62
    92
370
     5
100
AcDbLine
 10
4686.91870648052
 20
-3074.497231182136
 30
0.0
 11
4722.918706480521
 21
-3074.497231182136
 31
0.0
  0
LINE
  5
44C
330
1F
100
AcDbEntity
  8
0-C_ハッチ
  6
Continuous
 62
   120
370
     5
100
AcDbLine
 10
4675.124962419078
 20
-2522.498082375128
 30
0.0
 11
4572.918706480521
 21
-2624.703595994215
 31
0.0
  0
LINE
  5
44D
330
1F
100
AcDbEntity
  8
0-C_ハッチ
  6
Continuous
 62
   120
370
     5
100
AcDbLine
 10
4752.918929176363
 20
-2529.55679819544
 30
0.0
 11
4572.918706480521
 21
-2709.556649731547
 31
0.0
  0
LINE
  5
44E
330
1F
100
AcDbEntity
  8
0-C_ハッチ
  6
Continuous
 62
   120
370
     5
100
AcDbLine
 10
4752.918929176363
 20
-2868.968270825297
 30
0.0
 11
4572.918706480521
 21
-3048.968122361403
 31
0.0
  0
LINE
  5
44F
330
1F
100
AcDbEntity
  8
0-C_ハッチ
  6
Continuous
 62
   120
370
     5
100
AcDbLine
 10
4572.918706480521
 20
-2879.262757206209
 30
0.0
 11
4752.918929176363
 21
-2699.262905670103
 31
0.0
  0
LINE
  5
450
330
1F
100
AcDbEntity
  8
0-C_ハッチ
  6
Continuous
 62
   120
370
     5
100
AcDbLine
 10
4572.918706480521
 20
-2964.115810943541
 30
0.0
 11
4752.918929176363
 21
-2784.115217087965
 31
0.0
  0
LINE
  5
451
330
1F
100
AcDbEntity
  8
0-C_ハッチ
  6
Continuous
 62
   120
370
     5
100
AcDbLine
 10
4752.918929176363
 20
-2614.409851932772
 30
0.0
 11
4572.918706480521
 21
-2794.410445788343
 31
0.0
  0
LINE
  5
452
330
1F
100
AcDbEntity
  8
0-C_ハッチ
  6
Continuous
 62
   120
370
     5
100
AcDbLine
 10
4722.918706480521
 20
-3068.6744339959
 30
0.0
 11
4717.095876880945
 21
-3074.497231182136
 31
0.0
  0
LINE
  5
453
330
1F
100
AcDbEntity
  8
0-4_枠
  6
Continuous
 62
    92
370
     5
100
AcDbLine
 10
4578.918706480523
 20
-3074.497231182136
 30
0.0
 11
4632.918706480521
 21
-3074.497231182136
 31
0.0
  0
LINE
  5
454
330
1F
100
AcDbEntity
  8
0-4_枠
  6
Continuous
 62
    92
370
     5
100
AcDbLine
 10
4572.918706480521
 20
-3068.497231182135
 30
0.0
 11
4578.918706480523
 21
-3074.497231182136
 31
0.0
  0
LINE
  5
455
330
1F
100
AcDbEntity
  8
0-4_枠
  6
Continuous
 62
    92
370
     5
100
AcDbLine
 10
4578.918706480523
 20
-2522.498082375128
 30
0.0
 11
4752.918706480521
 21
-2522.498082375128
 31
0.0
  0
LINE
  5
456
330
1F
100
AcDbEntity
  8
0-4_枠
  6
Continuous
 62
    92
370
     5
100
AcDbLine
 10
4572.918706480521
 20
-2528.498082375128
 30
0.0
 11
4572.918706480521
 21
-3068.497231182135
 31
0.0
  0
LINE
  5
457
330
1F
100
AcDbEntity
  8
0-4_枠
  6
Continuous
 62
    92
370
     5
100
AcDbLine
 10
4578.918706480523
 20
-2522.498082375128
 30
0.0
 11
4572.918706480521
 21
-2528.498082375128
 31
0.0
  0
LINE
  5
458
330
1F
100
AcDbEntity
  8
0-7_金物
  6
Continuous
 62
     7
370
     5
100
AcDbLine
 10
4752.918706480521
 20
-2744.49799360609
 30
0.0
 11
4758.918775145063
 21
-2744.49799360609
 31
0.0
  0
LINE
  5
459
330
1F
100
AcDbEntity
  8
0-7_金物
  6
Continuous
 62
     7
370
     5
100
AcDbLine
 10
4758.918775145063
 20
-2852.498062270641
 30
0.0
 11
4752.918706480521
 21
-2852.498062270641
 31
0.0
  0
LINE
  5
45A
330
1F
100
AcDbEntity
  8
0-7_金物
  6
Continuous
 62
     7
370
     5
100
AcDbLine
 10
4758.918775145063
 20
-2858.498228209972
 30
0.0
 11
4758.918775145063
 21
-2738.498571532726
 31
0.0
  0
LINE
  5
45B
330
1F
100
AcDbEntity
  8
0-7_金物
  6
Continuous
 62
     7
370
     5
100
AcDbLine
 10
4770.918368879805
 20
-2738.498571532726
 30
0.0
 11
4758.918775145063
 21
-2738.498571532726
 31
0.0
  0
LINE
  5
45C
330
1F
100
AcDbEntity
  8
0-7_金物
  6
Continuous
 62
     7
370
     5
100
AcDbLine
 10
4770.918368879805
 20
-2858.498228209972
 30
0.0
 11
4758.918775145063
 21
-2858.498228209972
 31
0.0
  0
LINE
  5
45D
330
1F
100
AcDbEntity
  8
0-7_金物
  6
Continuous
 62
     7
370
     5
100
AcDbLine
 10
4782.918706480515
 20
-2888.498331206798
 30
0.0
 11
4782.918706480515
 21
-2708.4984685359
 31
0.0
  0
LINE
  5
45E
330
1F
100
AcDbEntity
  8
0-7_金物
  6
Continuous
 62
     7
370
     5
100
AcDbLine
 10
4782.918706480515
 20
-2888.498331206798
 30
0.0
 11
4770.918368879805
 21
-2888.498331206798
 31
0.0
  0
LINE
  5
45F
330
1F
100
AcDbEntity
  8
0-7_金物
  6
Continuous
 62
     7
370
     5
100
AcDbLine
 10
4782.918706480515
 20
-2708.4984685359
 30
0.0
 11
4770.918368879805
 21
-2708.4984685359
 31
0.0
  0
LINE
  5
460
330
1F
100
AcDbEntity
  8
0-7_金物
  6
Continuous
 62
     7
370
     5
100
AcDbLine
 10
4770.918368879805
 20
-2888.498331206798
 30
0.0
 11
4770.918368879805
 21
-2708.4984685359
 31
0.0
  0
LINE
  5
461
330
1F
100
AcDbEntity
  8
0-C_ハッチ
  6
Continuous
 62
   120
370
     5
100
AcDbLine
 10
4752.918706480519
 20
-2572.164972892911
 30
0.0
 11
4751.251815962738
 21
-2570.49808237513
 31
0.0
  0
LINE
  5
462
330
1F
100
AcDbEntity
  8
0-6_扉
  6
Continuous
 62
   200
370
     5
100
AcDbLine
 10
4557.918706480521
 20
-2717.498027938366
 30
0.0
 11
4557.918706480521
 21
-2879.498027938364
 31
0.0
  0
LINE
  5
463
330
1F
100
AcDbEntity
  8
0-C_ハッチ
  6
JWW_CENTER1
 62
   120
370
     5
100
AcDbLine
 10
4347.918706480521
 20
-2735.496731353694
 30
0.0
 11
4347.918706480521
 21
-2861.497384594827
 31
0.0
  0
ARC
  5
464
330
1F
100
AcDbEntity
  8
0-C_ハッチ
  6
Continuous
 62
     7
370
     5
100
AcDbCircle
 10
4356.91870648052
 20
-2798.498027938365
 30
0.0
 40
27.00000000000017
100
AcDbArc
 50
270.0
 51
90.0
  0
ARC
  5
465
330
1F
100
AcDbEntity
  8
0-C_ハッチ
  6
Continuous
 62
     7
370
     5
100
AcDbCircle
 10
4212.918706480519
 20
-2910.998027938365
 30
0.0
 40
6.0
100
AcDbArc
 50
135.0000000000086
 51
270.0
  0
ARC
  5
466
330
1F
100
AcDbEntity
  8
0-C_ハッチ
  6
Continuous
 62
     7
370
     5
100
AcDbCircle
 10
4212.918706480519
 20
-2685.998027938365
 30
0.0
 40
6.0
100
AcDbArc
 50
90.0
 51
224.9999999999913
  0
CIRCLE
  5
467
330
1F
100
AcDbEntity
  8
0-C_ハッチ
  6
Continuous
 62
     7
370
     5
100
AcDbCircle
 10
4305.918706480518
 20
-2873.498027938365
 30
0.0
 40
11.7
  0
CIRCLE
  5
468
330
1F
100
AcDbEntity
  8
0-C_ハッチ
  6
Continuous
 62
     7
370
     5
100
AcDbCircle
 10
4305.918706480518
 20
-2723.498027938365
 30
0.0
 40
11.7
  0
CIRCLE
  5
469
330
1F
100
AcDbEntity
  8
0-C_ハッチ
  6
Continuous
 62
     7
370
     5
100
AcDbCircle
 10
4305.918706480518
 20
-2723.498027938365
 30
0.0
 40
22.5
  0
CIRCLE
  5
46A
330
1F
100
AcDbEntity
  8
0-C_ハッチ
  6
Continuous
 62
     7
370
     5
100
AcDbCircle
 10
4305.918706480518
 20
-2873.498027938365
 30
0.0
 40
22.5
  0
CIRCLE
  5
46B
330
1F
100
AcDbEntity
  8
0-C_ハッチ
  6
Continuous
 62
     7
370
     5
100
AcDbCircle
 10
4434.918706480519
 20
-2798.498027938365
 30
0.0
 40
11.7
  0
CIRCLE
  5
46C
330
1F
100
AcDbEntity
  8
0-C_ハッチ
  6
Continuous
 62
     7
370
     5
100
AcDbCircle
 10
4434.918706480519
 20
-2798.498027938365
 30
0.0
 40
22.5
  0
LINE
  5
46D
330
1F
100
AcDbEntity
  8
0-C_ハッチ
  6
Continuous
 62
     7
370
     5
100
AcDbLine
 10
4407.492299609326
 20
-2916.998027938365
 30
0.0
 11
4212.918706480519
 21
-2916.998027938365
 31
0.0
  0
ARC
  5
46E
330
1F
100
AcDbEntity
  8
0-C_ハッチ
  6
Continuous
 62
     7
370
     5
100
AcDbCircle
 10
4407.492299609326
 20
-2886.998027938365
 30
0.0
 40
30.0
100
AcDbArc
 50
270.0
 51
315.0
  0
LINE
  5
46F
330
1F
100
AcDbEntity
  8
0-C_ハッチ
  6
Continuous
 62
     7
370
     5
100
AcDbLine
 10
4471.131909916116
 20
-2865.784824502769
 30
0.0
 11
4428.705503044923
 21
-2908.211231373962
 31
0.0
  0
ARC
  5
470
330
1F
100
AcDbEntity
  8
0-C_ハッチ
  6
Continuous
 62
     7
370
     5
100
AcDbCircle
 10
4449.918706480519
 20
-2844.571621067173
 30
0.0
 40
30.0
100
AcDbArc
 50
314.9999999999999
 51
359.9999999999999
  0
LINE
  5
471
330
1F
100
AcDbEntity
  8
0-C_ハッチ
  6
Continuous
 62
     7
370
     5
100
AcDbLine
 10
4479.918706480519
 20
-2752.424434809558
 30
0.0
 11
4479.918706480519
 21
-2844.571621067173
 31
0.0
  0
ARC
  5
472
330
1F
100
AcDbEntity
  8
0-C_ハッチ
  6
Continuous
 62
     7
370
     5
100
AcDbCircle
 10
4449.918706480519
 20
-2752.424434809558
 30
0.0
 40
30.0
100
AcDbArc
 50
0.0000000000000127
 51
45.00000000000001
  0
LINE
  5
473
330
1F
100
AcDbEntity
  8
0-C_ハッチ
  6
Continuous
 62
     7
370
     5
100
AcDbLine
 10
4428.705503044923
 20
-2688.784824502769
 30
0.0
 11
4471.131909916116
 21
-2731.211231373962
 31
0.0
  0
LINE
  5
474
330
1F
100
AcDbEntity
  8
0-C_ハッチ
  6
Continuous
 62
     7
370
     5
100
AcDbLine
 10
4407.492299609326
 20
-2679.998027938365
 30
0.0
 11
4212.918706480519
 21
-2679.998027938365
 31
0.0
  0
ARC
  5
475
330
1F
100
AcDbEntity
  8
0-C_ハッチ
  6
Continuous
 62
     7
370
     5
100
AcDbCircle
 10
4407.492299609326
 20
-2709.998027938365
 30
0.0
 40
30.0
100
AcDbArc
 50
45.00000000000006
 51
90.00000000000006
  0
LINE
  5
476
330
1F
100
AcDbEntity
  8
0-C_ハッチ
  6
Continuous
 62
     7
370
     5
100
AcDbLine
 10
4281.146628541876
 20
-2762.711231373962
 30
0.0
 11
4208.676065793397
 21
-2690.240668625485
 31
0.0
  0
LINE
  5
477
330
1F
100
AcDbEntity
  8
0-C_ハッチ
  6
Continuous
 62
     7
370
     5
100
AcDbLine
 10
4302.359831977473
 20
-2771.498027938365
 30
0.0
 11
4356.91870648052
 21
-2771.498027938365
 31
0.0
  0
ARC
  5
478
330
1F
100
AcDbEntity
  8
0-C_ハッチ
  6
Continuous
 62
     7
370
     5
100
AcDbCircle
 10
4302.359831977473
 20
-2741.498027938365
 30
0.0
 40
30.0
100
AcDbArc
 50
225.0000000000006
 51
270.0
  0
LINE
  5
479
330
1F
100
AcDbEntity
  8
0-C_ハッチ
  6
Continuous
 62
     7
370
     5
100
AcDbLine
 10
4302.359831977473
 20
-2825.498027938364
 30
0.0
 11
4356.91870648052
 21
-2825.498027938364
 31
0.0
  0
LINE
  5
47A
330
1F
100
AcDbEntity
  8
0-C_ハッチ
  6
Continuous
 62
     7
370
     5
100
AcDbLine
 10
4281.146628541876
 20
-2834.284824502768
 30
0.0
 11
4208.676065793397
 21
-2906.755387251246
 31
0.0
  0
ARC
  5
47B
330
1F
100
AcDbEntity
  8
0-C_ハッチ
  6
Continuous
 62
     7
370
     5
100
AcDbCircle
 10
4302.359831977473
 20
-2855.498027938364
 30
0.0
 40
30.0
100
AcDbArc
 50
90.0
 51
134.9999999999995
  0
LINE
  5
47C
330
1F
100
AcDbEntity
  8
0-C_ハッチ
  6
JWW_CENTER1
 62
   120
370
     5
100
AcDbLine
 10
4305.918706480518
 20
-2690.552596425608
 30
0.0
 11
4305.918706480518
 21
-2756.488692892166
 31
0.0
  0
LINE
  5
47D
330
1F
100
AcDbEntity
  8
0-C_ハッチ
  6
JWW_CENTER1
 62
   120
370
     5
100
AcDbLine
 10
4305.918706480518
 20
-2838.192116774639
 30
0.0
 11
4305.918706480518
 21
-2903.411516540473
 31
0.0
  0
LINE
  5
47E
330
1F
100
AcDbEntity
  8
0-C_ハッチ
  6
JWW_CENTER1
 62
   120
370
     5
100
AcDbLine
 10
4434.918706480519
 20
-2765.089053300847
 30
0.0
 11
4434.918706480519
 21
-2831.741846468127
 31
0.0
  0
LINE
  5
47F
330
1F
100
AcDbEntity
  8
0-C_ハッチ
  6
JWW_CENTER1
 62
   120
370
     5
100
AcDbLine
 10
4273.961804465078
 20
-2873.498027938365
 30
0.0
 11
4340.61459763236
 21
-2873.498027938365
 31
0.0
  0
LINE
  5
480
330
1F
100
AcDbEntity
  8
0-C_ハッチ
  6
JWW_CENTER1
 62
   120
370
     5
100
AcDbLine
 10
4273.961804465078
 20
-2723.498027938365
 30
0.0
 11
4340.61459763236
 21
-2723.498027938365
 31
0.0
  0
LWPOLYLINE
  5
481
330
1F
100
AcDbEntity
  8
0-C_ハッチ
  6
Continuous
 62
     7
370
     5
100
AcDbPolyline
 90
        4
 70
     1
 43
3.0
 10
4208.418706480518
 20
-2685.998027938365
 42
0.4142135623731
 10
4206.918706480518
 20
-2684.498027938365
 42
0.4142135623731
 10
4205.418706480518
 20
-2685.998027938365
 42
0.4142135623731
 10
4206.918706480518
 20
-2687.498027938365
 42
0.4142135623731
  0
LWPOLYLINE
  5
482
330
1F
100
AcDbEntity
  8
0-C_ハッチ
  6
Continuous
 62
     7
370
     5
100
AcDbPolyline
 90
        4
 70
     1
 43
3.0
 10
4208.418706480518
 20
-2910.998027938365
 42
0.4142135623731
 10
4206.918706480518
 20
-2909.498027938365
 42
0.4142135623731
 10
4205.418706480518
 20
-2910.998027938365
 42
0.4142135623731
 10
4206.918706480518
 20
-2912.498027938365
 42
0.4142135623731
  0
LWPOLYLINE
  5
483
330
1F
100
AcDbEntity
  8
0-C_ハッチ
  6
Continuous
 62
     7
370
     5
100
AcDbPolyline
 90
        4
 70
     1
 43
3.0
 10
3967.810204382677
 20
-2798.498027938365
 42
0.4142135623731
 10
3966.310204382676
 20
-2796.998027938365
 42
0.4142135623731
 10
3964.810204382676
 20
-2798.498027938365
 42
0.4142135623731
 10
3966.310204382676
 20
-2799.998027938365
 42
0.4142135623731
  0
MTEXT
  5
484
330
1F
100
AcDbEntity
  8
0-C_ハッチ
  6
Continuous
 62
     7
370
   211
100
AcDbMText
 10
4451.418706480521
 20
-2403.571404988358
 30
0.0
 40
57.15
 41
150.0
 46
0.0
 71
     7
 72
     1
  1
{\fＭＳ ゴシック|b0|i0|c128|p49;15.5}
 73
     1
 44
1.0
  0
LINE
  5
485
330
1F
100
AcDbEntity
  8
0-C_ハッチ
  6
Continuous
 62
   120
370
     5
100
AcDbLine
 10
3966.310204382676
 20
-2798.498027938365
 30
0.0
 11
3984.251811030455
 21
-2798.498027938365
 31
0.0
  0
LWPOLYLINE
  5
486
330
1F
100
AcDbEntity
  8
0-C_ハッチ
  6
Continuous
 62
     7
370
     5
100
AcDbPolyline
 90
        4
 70
     1
 43
3.0
 10
4066.640133375322
 20
-2679.996954049544
 42
0.4142135623731
 10
4065.140133375322
 20
-2678.496954049544
 42
0.4142135623731
 10
4063.640133375321
 20
-2679.996954049544
 42
0.4142135623731
 10
4065.140133375322
 20
-2681.496954049544
 42
0.4142135623731
  0
LINE
  5
487
330
1F
100
AcDbEntity
  8
0-C_ハッチ
  6
Continuous
 62
   120
370
     5
100
AcDbLine
 10
4065.140133375322
 20
-2679.996954049544
 30
0.0
 11
4163.970062367967
 21
-2679.996954049544
 31
0.0
  0
LWPOLYLINE
  5
488
330
1F
100
AcDbEntity
  8
0-C_ハッチ
  6
Continuous
 62
     7
370
     5
100
AcDbPolyline
 90
        4
 70
     1
 43
3.0
 10
4066.640133375322
 20
-2916.996954049536
 42
0.4142135623731
 10
4065.140133375322
 20
-2915.496954049536
 42
0.4142135623731
 10
4063.640133375321
 20
-2916.996954049536
 42
0.4142135623731
 10
4065.140133375322
 20
-2918.496954049536
 42
0.4142135623731
  0
LINE
  5
489
330
1F
100
AcDbEntity
  8
0-C_ハッチ
  6
Continuous
 62
   120
370
     5
100
AcDbLine
 10
4065.140133375322
 20
-2916.996954049536
 30
0.0
 11
4163.970062367967
 21
-2916.996954049536
 31
0.0
  0
LINE
  5
48A
330
1F
100
AcDbEntity
  8
0-C_ハッチ
  6
Continuous
 62
   120
370
     5
100
AcDbLine
 10
4065.140133375322
 20
-2679.996954049544
 30
0.0
 11
4065.140133375322
 21
-2916.996954049536
 31
0.0
  0
LWPOLYLINE
  5
48B
330
1F
100
AcDbEntity
  8
0-C_ハッチ
  6
Continuous
 62
     7
370
     5
100
AcDbPolyline
 90
        4
 70
     1
 43
3.0
 10
4481.418706480519
 20
-2400.646404988359
 42
0.4142135623731
 10
4479.918706480519
 20
-2399.146404988359
 42
0.4142135623731
 10
4478.418706480518
 20
-2400.646404988359
 42
0.4142135623731
 10
4479.918706480519
 20
-2402.146404988358
 42
0.4142135623731
  0
LINE
  5
48C
330
1F
100
AcDbEntity
  8
0-C_ハッチ
  6
Continuous
 62
   120
370
     5
100
AcDbLine
 10
4479.918706480519
 20
-2400.646404988359
 30
0.0
 11
4479.918706480519
 21
-2468.146404988359
 31
0.0
  0
LWPOLYLINE
  5
48D
330
1F
100
AcDbEntity
  8
0-C_ハッチ
  6
Continuous
 62
     7
370
     5
100
AcDbPolyline
 90
        4
 70
     1
 43
3.0
 10
4066.640133375322
 20
-2522.498082375128
 42
0.4142135623731
 10
4065.140133375322
 20
-2520.998082375128
 42
0.4142135623731
 10
4063.640133375321
 20
-2522.498082375128
 42
0.4142135623731
 10
4065.140133375322
 20
-2523.998082375128
 42
0.4142135623731
  0
LINE
  5
48E
330
1F
100
AcDbEntity
  8
0-C_ハッチ
  6
Continuous
 62
   120
370
     5
100
AcDbLine
 10
3963.762416336922
 20
-2522.498082375128
 30
0.0
 11
4523.152130973376
 21
-2522.498082375128
 31
0.0
  0
LWPOLYLINE
  5
48F
330
1F
100
AcDbEntity
  8
0-C_ハッチ
  6
Continuous
 62
     7
370
     5
100
AcDbPolyline
 90
        4
 70
     1
 43
3.0
 10
3967.810204382677
 20
-2522.498082375128
 42
0.4142135623731
 10
3966.310204382676
 20
-2520.998082375128
 42
0.4142135623731
 10
3964.810204382676
 20
-2522.498082375128
 42
0.4142135623731
 10
3966.310204382676
 20
-2523.998082375128
 42
0.4142135623731
  0
LINE
  5
490
330
1F
100
AcDbEntity
  8
0-C_ハッチ
  6
Continuous
 62
   120
370
     5
100
AcDbLine
 10
3966.310204382676
 20
-2522.498082375128
 30
0.0
 11
3966.310204382676
 21
-2798.498027938365
 31
0.0
  0
LINE
  5
491
330
1F
100
AcDbEntity
  8
0-C_ハッチ
  6
Continuous
 62
   120
370
     5
100
AcDbLine
 10
3867.480275390032
 20
-2522.498082375128
 30
0.0
 11
3963.762416336922
 21
-2522.498082375128
 31
0.0
  0
LWPOLYLINE
  5
492
330
1F
100
AcDbEntity
  8
0-C_ハッチ
  6
Continuous
 62
     7
370
     5
100
AcDbPolyline
 90
        4
 70
     1
 43
3.0
 10
3868.980275390032
 20
-2522.498082375128
 42
0.4142135623731
 10
3867.480275390032
 20
-2520.998082375128
 42
0.4142135623731
 10
3865.980275390031
 20
-2522.498082375128
 42
0.4142135623731
 10
3867.480275390032
 20
-2523.998082375128
 42
0.4142135623731
  0
LINE
  5
493
330
1F
100
AcDbEntity
  8
0-C_ハッチ
  6
Continuous
 62
   120
370
     5
100
AcDbLine
 10
4065.140133375322
 20
-2522.498082375128
 30
0.0
 11
4065.140133375322
 21
-2679.996954049544
 31
0.0
  0
LWPOLYLINE
  5
494
330
1F
100
AcDbEntity
  8
0-C_ハッチ
  6
Continuous
 62
     7
370
     5
100
AcDbPolyline
 90
        4
 70
     1
 43
3.0
 10
4066.640133375322
 20
-3074.497231182136
 42
0.4142135623731
 10
4065.140133375322
 20
-3072.997231182136
 42
0.4142135623731
 10
4063.640133375321
 20
-3074.497231182136
 42
0.4142135623731
 10
4065.140133375322
 20
-3075.997231182136
 42
0.4142135623731
  0
LINE
  5
495
330
1F
100
AcDbEntity
  8
0-C_ハッチ
  6
Continuous
 62
   120
370
     5
100
AcDbLine
 10
3963.762416336922
 20
-3074.497231182136
 30
0.0
 11
4523.152130973376
 21
-3074.497231182136
 31
0.0
  0
LWPOLYLINE
  5
496
330
1F
100
AcDbEntity
  8
0-C_ハッチ
  6
Continuous
 62
     7
370
     5
100
AcDbPolyline
 90
        4
 70
     1
 43
3.0
 10
3967.810204382677
 20
-3074.497231182136
 42
0.4142135623731
 10
3966.310204382676
 20
-3072.997231182136
 42
0.4142135623731
 10
3964.810204382676
 20
-3074.497231182136
 42
0.4142135623731
 10
3966.310204382676
 20
-3075.997231182136
 42
0.4142135623731
  0
LINE
  5
497
330
1F
100
AcDbEntity
  8
0-C_ハッチ
  6
Continuous
 62
   120
370
     5
100
AcDbLine
 10
3966.310204382676
 20
-2798.498027938365
 30
0.0
 11
3966.310204382676
 21
-3074.497231182136
 31
0.0
  0
LINE
  5
498
330
1F
100
AcDbEntity
  8
0-C_ハッチ
  6
Continuous
 62
   120
370
     5
100
AcDbLine
 10
3867.480275390032
 20
-3074.497231182136
 30
0.0
 11
3963.762416336922
 21
-3074.497231182136
 31
0.0
  0
LWPOLYLINE
  5
499
330
1F
100
AcDbEntity
  8
0-C_ハッチ
  6
Continuous
 62
     7
370
     5
100
AcDbPolyline
 90
        4
 70
     1
 43
3.0
 10
3868.980275390032
 20
-3074.497231182136
 42
0.4142135623731
 10
3867.480275390032
 20
-3072.997231182136
 42
0.4142135623731
 10
3865.980275390031
 20
-3074.497231182136
 42
0.4142135623731
 10
3867.480275390032
 20
-3075.997231182136
 42
0.4142135623731
  0
LINE
  5
49A
330
1F
100
AcDbEntity
  8
0-C_ハッチ
  6
Continuous
 62
   120
370
     5
100
AcDbLine
 10
4065.140133375322
 20
-2916.996954049536
 30
0.0
 11
4065.140133375322
 21
-3074.497231182136
 31
0.0
  0
LINE
  5
49B
330
1F
100
AcDbEntity
  8
0-C_ハッチ
  6
Continuous
 62
   120
370
     5
100
AcDbLine
 10
3867.480275390032
 20
-2522.498082375128
 30
0.0
 11
3867.480275390032
 21
-3074.497231182136
 31
0.0
  0
MTEXT
  5
49C
330
1F
100
AcDbEntity
  8
0-C_ハッチ
  6
Continuous
 62
     7
370
     5
100
AcDbMText
 10
3576.407717682929
 20
-2412.815490503934
 30
0.0
 40
57.15
 41
225.0
 46
0.0
 71
     7
 72
     1
  1
{\fＭＳ ゴシック|b0|i0|c128|p49;平面図}
 73
     1
 44
1.0
  0
MTEXT
  5
49D
330
1F
100
AcDbEntity
  8
0-C_ハッチ
  6
Continuous
 62
     7
370
   211
100
AcDbMText
 10
2799.491199161465
 20
-2508.965782286681
 30
0.0
 40
68.57999999999998
 41
225.0
 46
0.0
 71
     7
 72
     1
  1
{\fＭＳ ゴシック|b0|i0|c128|p49;6.5㎜}
 73
     1
 44
1.0
  0
LWPOLYLINE
  5
49E
330
1F
100
AcDbEntity
  8
0-C_ハッチ
  6
Continuous
 62
     7
370
     5
100
AcDbPolyline
 90
        4
 70
     1
 43
3.0
 10
4574.418706480522
 20
-2400.646404988359
 42
0.4142135623731
 10
4572.918706480521
 20
-2399.146404988359
 42
0.4142135623731
 10
4571.418706480521
 20
-2400.646404988359
 42
0.4142135623731
 10
4572.918706480521
 20
-2402.146404988358
 42
0.4142135623731
  0
LINE
  5
49F
330
1F
100
AcDbEntity
  8
0-C_ハッチ
  6
Continuous
 62
   120
370
     5
100
AcDbLine
 10
4572.918706480521
 20
-2400.646404988359
 30
0.0
 11
4572.918706480521
 21
-2468.146404988359
 31
0.0
  0
MTEXT
  5
4A0
330
1F
100
AcDbEntity
  8
0-C_ハッチ
  6
Continuous
 62
     7
370
   211
100
AcDbMText
 10
4059.431976378183
 20
-2647.672518212336
 30
0.0
 40
57.15
 41
75.0
 46
0.0
 71
     7
 72
     1
  1
{\fＭＳ ゴシック|b0|i0|c128|p49;26}
 11
6.123031769111886E-17
 21
1.0
 31
0.0
 73
     1
 44
1.0
  0
LINE
  5
4A1
330
1F
100
AcDbEntity
  8
0-C_ハッチ
  6
Continuous
 62
   120
370
     5
100
AcDbLine
 10
4572.918706480521
 20
-2400.646404988359
 30
0.0
 11
4479.918706480519
 21
-2400.646404988359
 31
0.0
  0
MTEXT
  5
4A2
330
1F
100
AcDbEntity
  8
0-C_ハッチ
  6
Continuous
 62
     7
370
   211
100
AcDbMText
 10
3960.310204382676
 20
-2706.923055156746
 30
0.0
 40
57.15
 41
75.0
 46
0.0
 71
     7
 72
     1
  1
{\fＭＳ ゴシック|b0|i0|c128|p49;46}
 11
6.123031769111886E-17
 21
1.0
 31
0.0
 73
     1
 44
1.0
  0
MTEXT
  5
4A3
330
1F
100
AcDbEntity
  8
0-C_ハッチ
  6
Continuous
 62
     7
370
   211
100
AcDbMText
 10
3861.772118392894
 20
-2844.921954049541
 30
0.0
 40
57.15
 41
75.0
 46
0.0
 71
     7
 72
     1
  1
{\fＭＳ ゴシック|b0|i0|c128|p49;92}
 11
6.123031769111886E-17
 21
1.0
 31
0.0
 73
     1
 44
1.0
  0
MTEXT
  5
4A4
330
1F
100
AcDbEntity
  8
0-C_ハッチ
  6
Continuous
 62
     7
370
   211
100
AcDbMText
 10
4059.140133375321
 20
-2850.923027938366
 30
0.0
 40
57.15
 41
75.0
 46
0.0
 71
     7
 72
     1
  1
{\fＭＳ ゴシック|b0|i0|c128|p49;40}
 11
6.123031769111886E-17
 21
1.0
 31
0.0
 73
     1
 44
1.0
  0
LINE
  5
4A5
330
1F
100
AcDbEntity
  8
0-C_ハッチ
  6
JWW_CENTER1
 62
   120
370
     5
100
AcDbLine
 10
4124.151134024235
 20
-2798.498027938365
 30
0.0
 11
4767.055458979778
 21
-2798.498027938365
 31
0.0
  0
LINE
  5
4A6
330
1F
100
AcDbEntity
  8
0-6_扉
  6
Continuous
 62
   200
370
     5
100
AcDbLine
 10
4124.151134024235
 20
-2717.498027938366
 30
0.0
 11
4557.918706480521
 21
-2717.498027938366
 31
0.0
  0
LINE
  5
4A7
330
1F
100
AcDbEntity
  8
0-6_扉
  6
Continuous
 62
   200
370
     5
100
AcDbLine
 10
4124.151134024235
 20
-2879.498027938364
 30
0.0
 11
4557.918706480521
 21
-2879.498027938364
 31
0.0
  0
LINE
  5
4A8
330
1F
100
AcDbEntity
  8
0-C_ハッチ
  6
JWW_HOJO
 62
   120
370
     5
100
AcDbLine
 10
3477.242783657635
 20
-2916.329147688505
 30
0.0
 11
5147.261415942698
 21
-2916.329147688505
 31
0.0
  0
LWPOLYLINE
  5
4A9
330
1F
100
AcDbEntity
  8
0-C_ハッチ
  6
Continuous
 62
   120
370
     5
100
AcDbPolyline
 90
        4
 70
     1
 43
3.0
 10
2194.828422473563
 20
-1877.538039110583
 42
0.4142135623731
 10
2193.328422473563
 20
-1876.038039110583
 42
0.4142135623731
 10
2191.828422473563
 20
-1877.538039110583
 42
0.4142135623731
 10
2193.328422473563
 20
-1879.038039110583
 42
0.4142135623731
  0
LWPOLYLINE
  5
4AA
330
1F
100
AcDbEntity
  8
0-C_ハッチ
  6
Continuous
 62
   120
370
     5
100
AcDbPolyline
 90
        4
 70
     1
 43
3.0
 10
2126.467491932199
 20
-1818.527860306727
 42
0.4142135623731
 10
2124.967491932199
 20
-1817.027860306727
 42
0.4142135623731
 10
2123.467491932199
 20
-1818.527860306727
 42
0.4142135623731
 10
2124.967491932199
 20
-1820.027860306727
 42
0.4142135623731
  0
LINE
  5
4AB
330
1F
100
AcDbEntity
  8
0-C_ハッチ
  6
Continuous
 62
   120
370
     5
100
AcDbLine
 10
2124.967491932199
 20
-1818.527860306727
 30
0.0
 11
2193.328422473563
 21
-1877.538039110583
 31
0.0
  0
MTEXT
  5
4AC
330
1F
100
AcDbEntity
  8
0-C_ハッチ
  6
Continuous
 62
     7
370
   211
100
AcDbMText
 10
3960.310204382676
 20
-2982.92262956025
 30
0.0
 40
57.15
 41
75.0
 46
0.0
 71
     7
 72
     1
  1
{\fＭＳ ゴシック|b0|i0|c128|p49;46}
 11
6.123031769111886E-17
 21
1.0
 31
0.0
 73
     1
 44
1.0
  0
LWPOLYLINE
  5
4AD
330
1F
100
AcDbEntity
  8
0-0_補助線
  6
Continuous
 62
     7
370
     5
100
AcDbPolyline
 90
        4
 70
     1
 43
3.0
 10
-633.3936483945118
 20
-1242.321345170381
 42
0.4142135623731
 10
-634.8936483945118
 20
-1240.821345170381
 42
0.4142135623731
 10
-636.3936483945118
 20
-1242.321345170381
 42
0.4142135623731
 10
-634.8936483945118
 20
-1243.821345170381
 42
0.4142135623731
  0
LINE
  5
4AE
330
1F
100
AcDbEntity
  8
0-0_補助線
  6
Continuous
 62
   120
370
     5
100
AcDbLine
 10
-634.8936483945118
 20
-1242.321345170381
 30
0.0
 11
-634.8936483945118
 21
-1385.863394970381
 31
0.0
  0
LINE
  5
4AF
330
1F
100
AcDbEntity
  8
0-0_補助線
  6
Continuous
 62
    92
370
     5
100
AcDbLine
 10
-634.8936483945118
 20
-1435.86339497038
 30
0.0
 11
-634.8936483945118
 21
-2311.154600519208
 31
0.0
  0
MTEXT
  5
4B0
330
1F
100
AcDbEntity
  8
0-C_ハッチ
  6
Continuous
 62
     7
370
   211
100
AcDbMText
 10
4059.431976378183
 20
-3031.11384343696
 30
0.0
 40
57.15
 41
75.0
 46
0.0
 71
     7
 72
     1
  1
{\fＭＳ ゴシック|b0|i0|c128|p49;26}
 11
6.123031769111886E-17
 21
1.0
 31
0.0
 73
     1
 44
1.0
  0
LWPOLYLINE
  5
4B1
330
1F
100
AcDbEntity
  8
0-0_補助線
  6
Continuous
 62
     7
370
     5
100
AcDbPolyline
 90
        4
 70
     1
 43
3.0
 10
286.6067145172346
 20
-1242.321345170381
 42
0.4142135623731
 10
285.1067145172346
 20
-1240.821345170381
 42
0.4142135623731
 10
283.6067145172346
 20
-1242.321345170381
 42
0.4142135623731
 10
285.1067145172346
 20
-1243.821345170381
 42
0.4142135623731
  0
LINE
  5
4B2
330
1F
100
AcDbEntity
  8
0-0_補助線
  6
JWW_HOJO
 62
   120
370
     5
100
AcDbLine
 10
-669.8939948102708
 20
-1385.863394970381
 30
0.0
 11
285.1067145172346
 21
-1385.863394970381
 31
0.0
  0
LINE
  5
4B3
330
1F
100
AcDbEntity
  8
0-0_補助線
  6
JWW_HOJO
 62
   120
370
     5
100
AcDbLine
 10
-669.8939948102708
 20
-1435.86339497038
 30
0.0
 11
285.1067145172346
 21
-1435.86339497038
 31
0.0
  0
LINE
  5
4B4
330
1F
100
AcDbEntity
  8
0-0_補助線
  6
Continuous
 62
    92
370
     5
100
AcDbLine
 10
285.1067145172346
 20
-1435.86339497038
 30
0.0
 11
285.1067145172346
 21
-2311.154600519208
 31
0.0
  0
LINE
  5
4B5
330
1F
100
AcDbEntity
  8
0-0_補助線
  6
Continuous
 62
    92
370
     5
100
AcDbLine
 10
-634.8936483945118
 20
-2311.154600519208
 30
0.0
 11
285.1067145172346
 21
-2311.154600519208
 31
0.0
  0
LINE
  5
4B6
330
1F
100
AcDbEntity
  8
0-0_補助線
  6
Continuous
 62
   120
370
     5
100
AcDbLine
 10
-634.8936483945118
 20
-1242.321345170381
 30
0.0
 11
285.1067145172346
 21
-1242.321345170381
 31
0.0
  0
LINE
  5
4B7
330
1F
100
AcDbEntity
  8
0-0_補助線
  6
Continuous
 62
   120
370
     5
100
AcDbLine
 10
285.1067145172346
 20
-1242.321345170381
 30
0.0
 11
285.1067145172346
 21
-1385.863394970381
 31
0.0
  0
MTEXT
  5
4B8
330
1F
100
AcDbEntity
  8
0-C_ハッチ
  6
Continuous
 62
     7
370
     5
100
AcDbMText
 10
1693.129553210665
 20
-3310.358301734967
 30
0.0
 40
57.14999999999998
 41
1425.0
 46
0.0
 71
     7
 72
     1
  1
{\fＭＳ ゴシック|b0|i0|c128|p49;※現場にて左右どちらでも施工可能です。}
 73
     1
 44
1.0
  0
LINE
  5
4B9
330
1F
100
AcDbEntity
  8
0-0_補助線
  6
Continuous
 62
    92
370
     5
100
AcDbLine
 10
-1218.543773599252
 20
-486.9031458602619
 30
0.0
 11
767.1255880713275
 21
-486.9031458602619
 31
0.0
  0
LINE
  5
4BA
330
1F
100
AcDbEntity
  8
0-0_補助線
  6
Continuous
 62
    92
370
     5
100
AcDbLine
 10
-1218.543773599252
 20
-270.9031458602614
 30
0.0
 11
767.1255880713275
 21
-270.9031458602614
 31
0.0
  0
LINE
  5
4BB
330
1F
100
AcDbEntity
  8
0-0_補助線
  6
Continuous
 62
    92
370
     5
100
AcDbLine
 10
-1218.543773599252
 20
-270.9031458602614
 30
0.0
 11
-1218.543773599252
 21
-3370.000590689164
 31
0.0
  0
LINE
  5
4BC
330
1F
100
AcDbEntity
  8
0-C_ハッチ
  6
Continuous
 62
    92
370
     5
100
AcDbLine
 10
-1218.543773599252
 20
-3370.000590689164
 30
0.0
 11
5504.725588071336
 21
-3370.000590689164
 31
0.0
  0
LINE
  5
4BD
330
1F
100
AcDbEntity
  8
0-C_ハッチ
  6
JWW_DASHED1
 62
   120
370
     5
100
AcDbLine
 10
4722.918706480521
 20
-3066.568275996177
 30
0.0
 11
4756.989751294583
 21
-3032.497231182118
 31
0.0
  0
LINE
  5
4BE
330
1F
100
AcDbEntity
  8
0-C_ハッチ
  6
JWW_DASHED1
 62
   120
370
     5
100
AcDbLine
 10
4809.268971908178
 20
-3107.497231182122
 30
0.0
 11
4884.268971908173
 21
-3032.497231182124
 31
0.0
  0
LINE
  5
4BF
330
1F
100
AcDbEntity
  8
0-C_ハッチ
  6
JWW_DASHED1
 62
   120
370
     5
100
AcDbLine
 10
4766.842565036978
 20
-3107.49723118212
 30
0.0
 11
4841.842565036971
 21
-3032.497231182124
 31
0.0
  0
LINE
  5
4C0
330
1F
100
AcDbEntity
  8
0-C_ハッチ
  6
JWW_DASHED1
 62
   120
370
     5
100
AcDbLine
 10
4724.416158165766
 20
-3107.497231182132
 30
0.0
 11
4799.416158165778
 21
-3032.497231182122
 31
0.0
  0
LINE
  5
4C1
330
1F
100
AcDbEntity
  8
0-3_仕上げ
  6
Continuous
 62
    40
370
     5
100
AcDbLine
 10
4722.918706480521
 20
-3032.497231182135
 30
0.0
 11
4912.19134770732
 21
-3032.497231182135
 31
0.0
  0
LINE
  5
4C2
330
1F
100
AcDbEntity
  8
0-3_仕上げ
  6
Continuous
 62
    40
370
     5
100
AcDbLine
 10
4722.918706480521
 20
-3107.497231182135
 30
0.0
 11
4912.19134770732
 21
-3107.497231182135
 31
0.0
  0
LINE
  5
4C3
330
1F
100
AcDbEntity
  8
0-C_ハッチ
  6
JWW_DASHED1
 62
   120
370
     5
100
AcDbLine
 10
4894.121785650571
 20
-3107.497231182128
 30
0.0
 11
4912.19134770732
 21
-3089.427669125378
 31
0.0
  0
LINE
  5
4C4
330
1F
100
AcDbEntity
  8
0-C_ハッチ
  6
JWW_DASHED1
 62
   120
370
     5
100
AcDbLine
 10
4851.695378779373
 20
-3107.497231182124
 30
0.0
 11
4912.19134770732
 21
-3047.001262254178
 31
0.0
  0
LINE
  5
4C5
330
1F
100
AcDbEntity
  8
0-C_ハッチ
  6
Continuous
 62
    40
370
     5
100
AcDbLine
 10
4722.918706480521
 20
-3032.497231182135
 30
0.0
 11
4722.918706480521
 21
-3107.497231182135
 31
0.0
  0
LINE
  5
4C6
330
1F
100
AcDbEntity
  8
0-A_文字
  6
Continuous
 62
    92
370
     5
100
AcDbLine
 10
-5659.999495325868
 20
3730.000181456216
 30
0.0
 11
-5659.999495325868
 21
4000.000181456216
 31
0.0
  0
MTEXT
  5
4C7
330
1F
100
AcDbEntity
  8
0-A_文字
  6
Continuous
 62
    92
370
     5
100
AcDbMText
 10
-5592.499495325868
 20
3758.994391982531
 30
0.0
 40
147.9884210526315
 41
3690.0
 46
0.0
 71
     7
 72
     1
  1
{\fＭＳ ゴシック|b0|i0|c128|p49;クローゼットドア　調整枠　間口４．５尺}
 73
     1
 44
1.0
  0
LINE
  5
4C8
330
1F
100
AcDbEntity
  8
0-A_文字
  6
Continuous
 62
    92
370
     5
100
AcDbLine
 10
-5659.999495325868
 20
3730.000181456216
 30
0.0
 11
-1839.285714285714
 21
3730.000181456216
 31
0.0
  0
LINE
  5
4C9
330
1F
100
AcDbEntity
  8
0-A_文字
  6
Continuous
 62
    92
370
     5
100
AcDbLine
 10
-5659.999495325868
 20
4000.000181456216
 30
0.0
 11
-1839.285714285714
 21
4000.000181456216
 31
0.0
  0
LINE
  5
4CA
330
1F
100
AcDbEntity
  8
0-A_文字
  6
Continuous
 62
    92
370
     5
100
AcDbLine
 10
-1839.285714285714
 20
3730.000181456216
 30
0.0
 11
-1839.285714285714
 21
4000.000181456216
 31
0.0
  0
MTEXT
  5
4CB
330
1F
100
AcDbEntity
  8
F-A_文字
  6
Continuous
 62
     7
370
     0
100
AcDbMText
 10
4439.917891251784
 20
-3887.143854850754
 30
0.0
 40
45.72
 41
240.0
 46
0.0
 71
     7
 72
     1
  1
{\fＭＳ ゴシック|b0|i0|c128|p49;ＤＡＴＥ}
 73
     1
 44
1.0
  0
MTEXT
  5
4CC
330
1F
100
AcDbEntity
  8
F-A_文字
  6
Continuous
 62
     7
370
     0
100
AcDbMText
 10
4439.917891251784
 20
-4087.143857410839
 30
0.0
 40
45.72
 41
180.0
 46
0.0
 71
     7
 72
     1
  1
{\fＭＳ ゴシック|b0|i0|c128|p49;ＮＯ．}
 73
     1
 44
1.0
  0
MTEXT
  5
4CD
330
1F
100
AcDbEntity
  8
F-A_文字
  6
Continuous
 62
     7
370
     0
100
AcDbMText
 10
2939.917396372138
 20
-3887.142460617774
 30
0.0
 40
45.72
 41
300.0
 46
0.0
 71
     7
 72
     1
  1
{\fＭＳ ゴシック|b0|i0|c128|p49;ＳＣＡＬＥ}
 73
     1
 44
1.0
  0
MTEXT
  5
4CE
330
1F
100
AcDbEntity
  8
F-A_文字
  6
Continuous
 62
     7
370
     0
100
AcDbMText
 10
2939.917396372138
 20
-4087.14246317786
 30
0.0
 40
45.72
 41
240.0
 46
0.0
 71
     7
 72
     1
  1
{\fＭＳ ゴシック|b0|i0|c128|p49;ＦＩＬＥ}
 73
     1
 44
1.0
  0
MTEXT
  5
4CF
330
1F
100
AcDbEntity
  8
F-A_文字
  6
Continuous
 62
     7
370
     0
100
AcDbMText
 10
1604.917396372138
 20
-4164.281754523929
 30
0.0
 40
101.44125
 41
1065.0
 46
0.0
 71
     7
 72
     1
  1
{\fＭＳ ゴシック|b0|i0|c128|p49;ウッドワン・・・}
 73
     1
 44
1.0
  0
MTEXT
  5
4D0
330
1F
100
AcDbEntity
  8
F-A_文字
  6
Continuous
 62
     7
370
     0
100
AcDbMText
 10
1394.917396372138
 20
-4096.140669266149
 30
0.0
 40
45.72
 41
120.0
 46
0.0
 71
     7
 72
     1
  1
{\fＭＳ ゴシック|b0|i0|c128|p49;株式}
 73
     1
 44
1.0
  0
MTEXT
  5
4D1
330
1F
100
AcDbEntity
  8
F-A_文字
  6
Continuous
 62
     7
370
     0
100
AcDbMText
 10
1394.917396372138
 20
-4168.140669266187
 30
0.0
 40
45.72
 41
120.0
 46
0.0
 71
     7
 72
     1
  1
{\fＭＳ ゴシック|b0|i0|c128|p49;会社}
 73
     1
 44
1.0
  0
MTEXT
  5
4D2
330
1F
100
AcDbEntity
  8
F-A_文字
  6
Continuous
 62
     7
370
     0
100
AcDbMText
 10
99.91854284331623
 20
-3887.139820871936
 30
0.0
 40
45.72
 41
180.0
 46
0.0
 71
     7
 72
     1
  1
{\fＭＳ ゴシック|b0|i0|c128|p49;図面名}
 73
     1
 44
1.0
  0
LINE
  5
4D3
330
1F
100
AcDbEntity
  8
F-0_補助線
  6
JWW_HOJO
 62
     7
370
     5
100
AcDbLine
 10
509.9185840832865
 20
-3795.000003092998
 30
0.0
 11
509.9185840832865
 21
-4195.000008247994
 31
0.0
  0
LINE
  5
4D4
330
1F
100
AcDbEntity
  8
F-1_枠
  6
Continuous
 62
   200
370
     5
100
AcDbLine
 10
4349.917891251784
 20
-3795.000003092998
 30
0.0
 11
4349.917891251784
 21
-4195.000008247994
 31
0.0
  0
LINE
  5
4D5
330
1F
100
AcDbEntity
  8
F-1_枠
  6
Continuous
 62
   200
370
     5
100
AcDbLine
 10
2849.917396372138
 20
-3795.000003092998
 30
0.0
 11
2849.917396372138
 21
-4195.000008247994
 31
0.0
  0
LINE
  5
4D6
330
1F
100
AcDbEntity
  8
F-1_枠
  6
Continuous
 62
   200
370
     5
100
AcDbLine
 10
9.918542843316231
 20
-3795.000003092998
 30
0.0
 11
9.918542843316231
 21
-4195.000008247994
 31
0.0
  0
LINE
  5
4D7
330
1F
100
AcDbEntity
  8
F-0_補助線
  6
JWW_HOJO
 62
     7
370
     5
100
AcDbLine
 10
2939.917396372138
 20
-3795.000003092998
 30
0.0
 11
2939.917396372138
 21
-4195.000008247994
 31
0.0
  0
LINE
  5
4D8
330
1F
100
AcDbEntity
  8
F-0_補助線
  6
JWW_HOJO
 62
     7
370
     5
100
AcDbLine
 10
99.91854284331623
 20
-3795.000003092998
 30
0.0
 11
99.91854284331623
 21
-4195.000008247994
 31
0.0
  0
LINE
  5
4D9
330
1F
100
AcDbEntity
  8
F-0_補助線
  6
JWW_HOJO
 62
     7
370
     5
100
AcDbLine
 10
4439.917891251784
 20
-3795.000003092998
 30
0.0
 11
4439.917891251784
 21
-4195.000008247994
 31
0.0
  0
LINE
  5
4DA
330
1F
100
AcDbEntity
  8
F-0_補助線
  6
JWW_HOJO
 62
     7
370
     5
100
AcDbLine
 10
-5087.628710189611
 20
-3795.000003092999
 30
0.0
 11
-5087.628710189611
 21
-4205.000164959882
 31
0.0
  0
LINE
  5
4DB
330
1F
100
AcDbEntity
  8
F-0_補助線
  6
JWW_HOJO
 62
     7
370
     5
100
AcDbLine
 10
-50.08145715668377
 20
-3795.000003092998
 30
0.0
 11
-50.08145715668377
 21
-4195.000008247994
 31
0.0
  0
LINE
  5
4DC
330
1F
100
AcDbEntity
  8
F-0_補助線
  6
JWW_HOJO
 62
     7
370
     5
100
AcDbLine
 10
3764.917643811962
 20
-3795.000003092998
 30
0.0
 11
3764.917643811962
 21
-4195.000008247994
 31
0.0
  0
MTEXT
  5
4DD
330
1F
100
AcDbEntity
  8
F-A_文字
  6
Continuous
 62
     7
370
     0
100
AcDbMText
 10
3689.917643811962
 20
-3946.903115907308
 30
0.0
 40
76.19999999999999
 41
150.0
 46
0.0
 71
     7
 72
     1
  1
{\fＭＳ ゴシック|b0|i0|c128|p49;1/5}
 73
     1
 44
1.0
  0
LINE
  5
4DE
330
1F
100
AcDbEntity
  8
F-0_補助線
  6
JWW_HOJO
 62
     7
370
     5
100
AcDbLine
 10
1349.918584083287
 20
-3795.000003092998
 30
0.0
 11
1349.918584083287
 21
-4195.000008247994
 31
0.0
  0
LINE
  5
4DF
330
1F
100
AcDbEntity
  8
F-0_補助線
  6
JWW_HOJO
 62
     7
370
     5
100
AcDbLine
 10
4889.917891251784
 20
-3795.000003092998
 30
0.0
 11
4889.917891251784
 21
-4195.000008247994
 31
0.0
  0
MTEXT
  5
4E0
330
1F
100
AcDbEntity
  8
F-A_文字
  6
Continuous
 62
     7
370
     0
100
AcDbMText
 10
4889.917891251784
 20
-3945.570773120548
 30
0.0
 40
78.86699999999999
 41
517.5
 46
0.0
 71
     7
 72
     1
  1
{\fＭＳ ゴシック|b0|i0|c128|p49;2021.04.01}
 73
     1
 44
1.0
  0
MTEXT
  5
4E1
330
1F
100
AcDbEntity
  8
F-A_文字
  6
Continuous
 62
     7
370
     0
100
AcDbMText
 10
1349.918584083287
 20
-3945.948482732445
 30
0.0
 40
78.105
 41
615.0
 46
0.0
 71
     7
 72
     1
  1
{\fＭＳ ゴシック|b0|i0|c128|p49;建具納まり図}
 73
     1
 44
1.0
  0
MTEXT
  5
4E2
330
1F
100
AcDbEntity
  8
F-A_文字
  6
Continuous
 62
     7
370
     0
100
AcDbMText
 10
509.9185840832865
 20
-3956.425201962234
 30
0.0
 40
57.15
 41
675.0
 46
0.0
 71
     7
 72
     1
  1
{\fＭＳ ゴシック|b0|i0|c128|p49;ＰＩＮＯＥＡＲＴＨ}
 73
     1
 44
1.0
  0
MTEXT
  5
4E3
330
1F
100
AcDbEntity
  8
F-A_文字
  6
Continuous
 62
     7
370
     0
100
AcDbMText
 10
-5080.081323642279
 20
-4045.066373578391
 30
0.0
 40
79.86712499999994
 41
4192.5
 46
0.0
 71
     7
 72
     1
  1
{\fＭＳ ゴシック|b0|i0|c128|p49;ピノアース　クローゼットドア  調整枠　３方枠下レール無し　枠外H2,339　枠外W1,199}
 73
     1
 44
1.0
  0
MTEXT
  5
4E4
330
1F
100
AcDbEntity
  8
F-A_文字
  6
Continuous
 62
     7
370
     5
100
AcDbMText
 10
5096.167700144057
 20
-4147.857012699985
 30
0.0
 40
74.295
 41
97.5
 46
0.0
 71
     7
 72
     1
  1
{\fＭＳ ゴシック|b0|i0|c128|p49;02}
 73
     1
 44
1.0
  0
ENDSEC
  0
SECTION
  2
OBJECTS
  0
DICTIONARY
  5
C
330
0
100
AcDbDictionary
281
     1
  3
ACAD_GROUP
350
D
  3
ACAD_LAYOUT
350
1A
  3
ACAD_MATERIAL
350
3B
  3
ACAD_MLEADERSTYLE
350
4E6
  3
ACAD_MLINESTYLE
350
17
  3
ACAD_PLOTSETTINGS
350
19
  3
ACAD_PLOTSTYLENAME
350
E
  3
ACAD_TABLESTYLE
350
4E5
  3
ACAD_VISUALSTYLE
350
2A
  0
DICTIONARY
  5
D
102
{ACAD_REACTORS
330
C
102
}
330
C
100
AcDbDictionary
281
     1
  0
DICTIONARY
  5
1A
102
{ACAD_REACTORS
330
C
102
}
330
C
100
AcDbDictionary
281
     1
  3
Layout1
350
1E
  3
Layout2
350
26
  3
Model
350
22
  0
DICTIONARY
  5
3B
102
{ACAD_REACTORS
330
C
102
}
330
C
100
AcDbDictionary
281
     1
  3
ByBlock
350
3D
  3
ByLayer
350
3C
  3
Global
350
3E
  0
DICTIONARY
  5
4E6
102
{ACAD_REACTORS
330
C
102
}
330
C
100
AcDbDictionary
281
     1
  0
DICTIONARY
  5
17
102
{ACAD_REACTORS
330
C
102
}
330
C
100
AcDbDictionary
281
     1
  3
Standard
350
18
  0
DICTIONARY
  5
19
102
{ACAD_REACTORS
330
C
102
}
330
C
100
AcDbDictionary
281
     1
  0
ACDBDICTIONARYWDFLT
  5
E
102
{ACAD_REACTORS
330
C
102
}
330
C
100
AcDbDictionary
281
     1
  3
Normal
350
F
100
AcDbDictionaryWithDefault
340
F
  0
DICTIONARY
  5
4E5
102
{ACAD_REACTORS
330
C
102
}
330
C
100
AcDbDictionary
281
     1
  0
DICTIONARY
  5
2A
102
{ACAD_REACTORS
330
C
102
}
330
C
100
AcDbDictionary
281
     1
  3
2dWireframe
350
2F
  3
3D Hidden
350
31
  3
3dWireframe
350
30
  3
Basic
350
32
  3
Brighten
350
36
  3
ColorChange
350
3A
  3
Conceptual
350
34
  3
Dim
350
35
  3
Facepattern
350
39
  3
Flat
350
2B
  3
FlatWithEdges
350
2C
  3
Gouraud
350
2D
  3
GouraudWithEdges
350
2E
  3
Linepattern
350
38
  3
Realistic
350
33
  3
Thicken
350
37
  0
LAYOUT
  5
1E
102
{ACAD_REACTORS
330
1A
102
}
330
1A
100
AcDbPlotSettings
  1

  2
none_device
  4

  6

 40
0.0
 41
0.0
 42
0.0
 43
0.0
 44
0.0
 45
0.0
 46
0.0
 47
0.0
 48
0.0
 49
0.0
140
0.0
141
0.0
142
1.0
143
1.0
 70
   688
 72
     0
 73
     0
 74
     5
  7

 75
    16
 76
     0
 77
     5
 78
   300
147
1.0
148
0.0
149
0.0
100
AcDbLayout
  1
Layout1
 70
     1
 71
     1
 10
0.0
 20
0.0
 11
420.0
 21
297.0
 12
0.0
 22
0.0
 32
0.0
 14
1.000000000000000E+20
 24
1.000000000000000E+20
 34
1.000000000000000E+20
 15
-1.000000000000000E+20
 25
-1.000000000000000E+20
 35
-1.000000000000000E+20
146
0.0
 13
0.0
 23
0.0
 33
0.0
 16
1.0
 26
0.0
 36
0.0
 17
0.0
 27
1.0
 37
0.0
 76
     0
330
1B
  0
LAYOUT
  5
26
102
{ACAD_REACTORS
330
1A
102
}
330
1A
100
AcDbPlotSettings
  1

  2
none_device
  4

  6

 40
0.0
 41
0.0
 42
0.0
 43
0.0
 44
0.0
 45
0.0
 46
0.0
 47
0.0
 48
0.0
 49
0.0
140
0.0
141
0.0
142
1.0
143
1.0
 70
   688
 72
     0
 73
     0
 74
     5
  7

 75
    16
 76
     0
 77
     5
 78
   300
147
1.0
148
0.0
149
0.0
100
AcDbLayout
  1
Layout2
 70
     1
 71
     2
 10
0.0
 20
0.0
 11
0.0
 21
0.0
 12
0.0
 22
0.0
 32
0.0
 14
0.0
 24
0.0
 34
0.0
 15
0.0
 25
0.0
 35
0.0
146
0.0
 13
0.0
 23
0.0
 33
0.0
 16
1.0
 26
0.0
 36
0.0
 17
0.0
 27
1.0
 37
0.0
 76
     0
330
23
  0
LAYOUT
  5
22
102
{ACAD_REACTORS
330
1A
102
}
330
1A
100
AcDbPlotSettings
  1

  2
none_device
  4

  6

 40
0.0
 41
0.0
 42
0.0
 43
0.0
 44
0.0
 45
0.0
 46
0.0
 47
0.0
 48
0.0
 49
0.0
140
0.0
141
0.0
142
1.0
143
1.0
 70
  1712
 72
     0
 73
     0
 74
     0
  7

 75
     0
 76
     0
 77
     5
 78
   300
147
1.0
148
0.0
149
0.0
100
AcDbLayout
  1
Model
 70
     1
 71
     0
 10
-6300.0
 20
-4455.0
 11
6300.0
 21
4455.0
 12
0.0
 22
0.0
 32
0.0
 14
-6300.0
 24
-4455.0
 34
0.0
 15
6300.0
 25
4455.0
 35
0.0
146
0.0
 13
0.0
 23
0.0
 33
0.0
 16
1.0
 26
0.0
 36
0.0
 17
0.0
 27
1.0
 37
0.0
 76
     0
330
1F
331
29
  0
MATERIAL
  5
3D
102
{ACAD_REACTORS
330
3B
102
}
330
3B
100
AcDbMaterial
  1
ByBlock
 72
     1
 94
      127
  0
MATERIAL
  5
3C
102
{ACAD_REACTORS
330
3B
102
}
330
3B
100
AcDbMaterial
  1
ByLayer
 72
     1
 94
      127
  0
MATERIAL
  5
3E
102
{ACAD_REACTORS
330
3B
102
}
330
3B
100
AcDbMaterial
  1
Global
 72
     1
 94
      127
  0
MLINESTYLE
  5
18
102
{ACAD_REACTORS
330
17
102
}
330
17
100
AcDbMlineStyle
  2
Standard
 70
     0
  3

 62
   256
 51
90.0
 52
90.0
 71
     2
 49
0.5
 62
   256
  6
BYLAYER
 49
-0.5
 62
   256
  6
BYLAYER
  0
ACDBPLACEHOLDER
  5
F
102
{ACAD_REACTORS
330
E
102
}
330
E
  0
VISUALSTYLE
  5
2F
102
{ACAD_REACTORS
330
2A
102
}
330
2A
100
AcDbVisualStyle
  2
2dWireframe
 70
     4
177
     2
291
     0
 71
     0
176
     1
 72
     2
176
     1
 73
     0
176
     1
 90
        0
176
     1
 40
-0.6
176
     1
 41
-30.0
176
     1
 62
     5
 63
     7
421
 16777215
176
     1
 74
     1
176
     1
 91
        4
176
     1
 64
     7
176
     1
 65
   257
176
     1
 75
     1
176
     1
175
     1
176
     1
 42
1.0
176
     1
 92
        0
176
     1
 66
   257
176
     1
 43
1.0
176
     1
 76
     1
176
     1
 77
     6
176
     1
 78
     2
176
     1
 67
     7
176
     1
 79
     5
176
     1
170
     0
176
     1
171
     0
176
     1
290
     0
176
     1
 93
        1
176
     1
 44
0.0
176
     1
173
     0
176
     1
  0
VISUALSTYLE
  5
31
102
{ACAD_REACTORS
330
2A
102
}
330
2A
100
AcDbVisualStyle
  2
3D Hidden
 70
     6
177
     2
291
     0
 71
     1
176
     1
 72
     2
176
     1
 73
     2
176
     1
 90
        0
176
     1
 40
-0.6
176
     1
 41
-30.0
176
     1
 62
     5
 63
     7
421
 16777215
176
     1
 74
     2
176
     1
 91
        2
176
     1
 64
     7
176
     1
 65
   257
176
     1
 75
     2
176
     1
175
     1
176
     1
 42
40.0
176
     1
 92
        0
176
     1
 66
   257
176
     1
 43
1.0
176
     1
 76
     1
176
     1
 77
     6
176
     1
 78
     2
176
     1
 67
     7
176
     1
 79
     3
176
     1
170
     0
176
     1
171
     0
176
     1
290
     0
176
     1
 93
        1
176
     1
 44
0.0
176
     1
173
     0
176
     1
  0
VISUALSTYLE
  5
30
102
{ACAD_REACTORS
330
2A
102
}
330
2A
100
AcDbVisualStyle
  2
3dWireframe
 70
     5
177
     2
291
     0
 71
     0
176
     1
 72
     2
176
     1
 73
     0
176
     1
 90
        0
176
     1
 40
-0.6
176
     1
 41
-30.0
176
     1
 62
     5
 63
     7
421
 16777215
176
     1
 74
     1
176
     1
 91
        4
176
     1
 64
     7
176
     1
 65
   257
176
     1
 75
     1
176
     1
175
     1
176
     1
 42
1.0
176
     1
 92
        0
176
     1
 66
   257
176
     1
 43
1.0
176
     1
 76
     1
176
     1
 77
     6
176
     1
 78
     2
176
     1
 67
     7
176
     1
 79
     5
176
     1
170
     0
176
     1
171
     0
176
     1
290
     0
176
     1
 93
        1
176
     1
 44
0.0
176
     1
173
     0
176
     1
  0
VISUALSTYLE
  5
32
102
{ACAD_REACTORS
330
2A
102
}
330
2A
100
AcDbVisualStyle
  2
Basic
 70
     7
177
     2
291
     1
 71
     1
176
     1
 72
     0
176
     1
 73
     1
176
     1
 90
        0
176
     1
 40
-0.6
176
     1
 41
-30.0
176
     1
 62
     5
 63
     7
421
 16777215
176
     1
 74
     0
176
     1
 91
        4
176
     1
 64
     7
176
     1
 65
   257
176
     1
 75
     1
176
     1
175
     1
176
     1
 42
1.0
176
     1
 92
        8
176
     1
 66
     7
176
     1
 43
1.0
176
     1
 76
     1
176
     1
 77
     6
176
     1
 78
     2
176
     1
 67
     7
176
     1
 79
     5
176
     1
170
     0
176
     1
171
     0
176
     1
290
     0
176
     1
 93
        1
176
     1
 44
0.0
176
     1
173
     0
176
     1
  0
VISUALSTYLE
  5
36
102
{ACAD_REACTORS
330
2A
102
}
330
2A
100
AcDbVisualStyle
  2
Brighten
 70
    12
177
     2
291
     1
 71
     2
176
     1
 72
     2
176
     1
 73
     0
176
     1
 90
        0
176
     1
 40
-0.6
176
     1
 41
-30.0
176
     1
 62
     5
 63
     7
421
 16777215
176
     1
 74
     1
176
     1
 91
        4
176
     1
 64
     7
176
     1
 65
   257
176
     1
 75
     1
176
     1
175
     1
176
     1
 42
1.0
176
     1
 92
        8
176
     1
 66
     7
176
     1
 43
1.0
176
     1
 76
     1
176
     1
 77
     6
176
     1
 78
     2
176
     1
 67
     7
176
     1
 79
     5
176
     1
170
     0
176
     1
171
     0
176
     1
290
     0
176
     1
 93
        1
176
     1
 44
50.0
176
     1
173
     0
176
     1
  0
VISUALSTYLE
  5
3A
102
{ACAD_REACTORS
330
2A
102
}
330
2A
100
AcDbVisualStyle
  2
ColorChange
 70
    16
177
     2
291
     1
 71
     2
176
     1
 72
     2
176
     1
 73
     3
176
     1
 90
        0
176
     1
 40
-0.6
176
     1
 41
-30.0
176
     1
 62
     5
 63
     8
421
  8421504
176
     1
 74
     1
176
     1
 91
        4
176
     1
 64
     7
176
     1
 65
   257
176
     1
 75
     1
176
     1
175
     1
176
     1
 42
1.0
176
     1
 92
        8
176
     1
 66
     8
424
  8421504
176
     1
 43
1.0
176
     1
 76
     1
176
     1
 77
     6
176
     1
 78
     2
176
     1
 67
     7
176
     1
 79
     5
176
     1
170
     0
176
     1
171
     0
176
     1
290
     0
176
     1
 93
        1
176
     1
 44
0.0
176
     1
173
     0
176
     1
  0
VISUALSTYLE
  5
34
102
{ACAD_REACTORS
330
2A
102
}
330
2A
100
AcDbVisualStyle
  2
Conceptual
 70
     9
177
     2
291
     0
 71
     3
176
     1
 72
     2
176
     1
 73
     0
176
     1
 90
        0
176
     1
 40
-0.6
176
     1
 41
-30.0
176
     1
 62
     5
 63
     7
421
 16777215
176
     1
 74
     2
176
     1
 91
        2
176
     1
 64
     7
176
     1
 65
   257
176
     1
 75
     1
176
     1
175
     1
176
     1
 42
40.0
176
     1
 92
        8
176
     1
 66
     7
176
     1
 43
1.0
176
     1
 76
     1
176
     1
 77
     6
176
     1
 78
     2
176
     1
 67
     7
176
     1
 79
     3
176
     1
170
     0
176
     1
171
     0
176
     1
290
     0
176
     1
 93
        1
176
     1
 44
0.0
176
     1
173
     0
176
     1
  0
VISUALSTYLE
  5
35
102
{ACAD_REACTORS
330
2A
102
}
330
2A
100
AcDbVisualStyle
  2
Dim
 70
    11
177
     2
291
     1
 71
     2
176
     1
 72
     2
176
     1
 73
     0
176
     1
 90
        0
176
     1
 40
-0.6
176
     1
 41
-30.0
176
     1
 62
     5
 63
     7
421
 16777215
176
     1
 74
     1
176
     1
 91
        4
176
     1
 64
     7
176
     1
 65
   257
176
     1
 75
     1
176
     1
175
     1
176
     1
 42
1.0
176
     1
 92
        8
176
     1
 66
     7
176
     1
 43
1.0
176
     1
 76
     1
176
     1
 77
     6
176
     1
 78
     2
176
     1
 67
     7
176
     1
 79
     5
176
     1
170
     0
176
     1
171
     0
176
     1
290
     0
176
     1
 93
        1
176
     1
 44
-50.0
176
     1
173
     0
176
     1
  0
VISUALSTYLE
  5
39
102
{ACAD_REACTORS
330
2A
102
}
330
2A
100
AcDbVisualStyle
  2
Facepattern
 70
    15
177
     2
291
     1
 71
     2
176
     1
 72
     2
176
     1
 73
     0
176
     1
 90
        0
176
     1
 40
-0.6
176
     1
 41
-30.0
176
     1
 62
     5
 63
     7
421
 16777215
176
     1
 74
     1
176
     1
 91
        4
176
     1
 64
     7
176
     1
 65
   257
176
     1
 75
     1
176
     1
175
     1
176
     1
 42
1.0
176
     1
 92
        8
176
     1
 66
     7
176
     1
 43
1.0
176
     1
 76
     1
176
     1
 77
     6
176
     1
 78
     2
176
     1
 67
     7
176
     1
 79
     5
176
     1
170
     0
176
     1
171
     0
176
     1
290
     0
176
     1
 93
        1
176
     1
 44
0.0
176
     1
173
     0
176
     1
  0
VISUALSTYLE
  5
2B
102
{ACAD_REACTORS
330
2A
102
}
330
2A
100
AcDbVisualStyle
  2
Flat
 70
     0
177
     2
291
     1
 71
     2
176
     1
 72
     1
176
     1
 73
     1
176
     1
 90
        2
176
     1
 40
-0.6
176
     1
 41
30.0
176
     1
 62
     5
 63
     7
421
 16777215
176
     1
 74
     0
176
     1
 91
        4
176
     1
 64
     7
176
     1
 65
   257
176
     1
 75
     1
176
     1
175
     1
176
     1
 42
1.0
176
     1
 92
        8
176
     1
 66
     7
176
     1
 43
1.0
176
     1
 76
     1
176
     1
 77
     6
176
     1
 78
     2
176
     1
 67
     7
176
     1
 79
     5
176
     1
170
     0
176
     1
171
     0
176
     1
290
     0
176
     1
 93
       13
176
     1
 44
0.0
176
     1
173
     0
176
     1
  0
VISUALSTYLE
  5
2C
102
{ACAD_REACTORS
330
2A
102
}
330
2A
100
AcDbVisualStyle
  2
FlatWithEdges
 70
     1
177
     2
291
     1
 71
     2
176
     1
 72
     1
176
     1
 73
     1
176
     1
 90
        2
176
     1
 40
-0.6
176
     1
 41
30.0
176
     1
 62
     5
 63
     7
421
 16777215
176
     1
 74
     1
176
     1
 91
        4
176
     1
 64
     7
176
     1
 65
   257
176
     1
 75
     1
176
     1
175
     1
176
     1
 42
1.0
176
     1
 92
        0
176
     1
 66
   257
176
     1
 43
1.0
176
     1
 76
     1
176
     1
 77
     6
176
     1
 78
     2
176
     1
 67
     7
176
     1
 79
     5
176
     1
170
     0
176
     1
171
     0
176
     1
290
     0
176
     1
 93
       13
176
     1
 44
0.0
176
     1
173
     0
176
     1
  0
VISUALSTYLE
  5
2D
102
{ACAD_REACTORS
330
2A
102
}
330
2A
100
AcDbVisualStyle
  2
Gouraud
 70
     2
177
     2
291
     1
 71
     2
176
     1
 72
     2
176
     1
 73
     1
176
     1
 90
        2
176
     1
 40
-0.6
176
     1
 41
30.0
176
     1
 62
     5
 63
     7
421
 16777215
176
     1
 74
     0
176
     1
 91
        4
176
     1
 64
     7
176
     1
 65
   257
176
     1
 75
     1
176
     1
175
     1
176
     1
 42
1.0
176
     1
 92
        0
176
     1
 66
     7
176
     1
 43
1.0
176
     1
 76
     1
176
     1
 77
     6
176
     1
 78
     2
176
     1
 67
     7
176
     1
 79
     5
176
     1
170
     0
176
     1
171
     0
176
     1
290
     0
176
     1
 93
       13
176
     1
 44
0.0
176
     1
173
     0
176
     1
  0
VISUALSTYLE
  5
2E
102
{ACAD_REACTORS
330
2A
102
}
330
2A
100
AcDbVisualStyle
  2
GouraudWithEdges
 70
     3
177
     2
291
     1
 71
     2
176
     1
 72
     2
176
     1
 73
     1
176
     1
 90
        2
176
     1
 40
-0.6
176
     1
 41
30.0
176
     1
 62
     5
 63
     7
421
 16777215
176
     1
 74
     1
176
     1
 91
        4
176
     1
 64
     7
176
     1
 65
   257
176
     1
 75
     1
176
     1
175
     1
176
     1
 42
1.0
176
     1
 92
        0
176
     1
 66
   257
176
     1
 43
1.0
176
     1
 76
     1
176
     1
 77
     6
176
     1
 78
     2
176
     1
 67
     7
176
     1
 79
     5
176
     1
170
     0
176
     1
171
     0
176
     1
290
     0
176
     1
 93
       13
176
     1
 44
0.0
176
     1
173
     0
176
     1
  0
VISUALSTYLE
  5
38
102
{ACAD_REACTORS
330
2A
102
}
330
2A
100
AcDbVisualStyle
  2
Linepattern
 70
    14
177
     2
291
     1
 71
     2
176
     1
 72
     2
176
     1
 73
     0
176
     1
 90
        0
176
     1
 40
-0.6
176
     1
 41
-30.0
176
     1
 62
     5
 63
     7
421
 16777215
176
     1
 74
     1
176
     1
 91
        4
176
     1
 64
     7
176
     1
 65
   257
176
     1
 75
     7
176
     1
175
     7
176
     1
 42
1.0
176
     1
 92
        8
176
     1
 66
     7
176
     1
 43
1.0
176
     1
 76
     1
176
     1
 77
     6
176
     1
 78
     2
176
     1
 67
     7
176
     1
 79
     5
176
     1
170
     0
176
     1
171
     0
176
     1
290
     0
176
     1
 93
        1
176
     1
 44
0.0
176
     1
173
     0
176
     1
  0
VISUALSTYLE
  5
33
102
{ACAD_REACTORS
330
2A
102
}
330
2A
100
AcDbVisualStyle
  2
Realistic
 70
     8
177
     2
291
     0
 71
     2
176
     1
 72
     2
176
     1
 73
     0
176
     1
 90
        0
176
     1
 40
-0.6
176
     1
 41
-30.0
176
     1
 62
     5
 63
     7
421
 16777215
176
     1
 74
     1
176
     1
 91
        0
176
     1
 64
     7
176
     1
 65
   257
176
     1
 75
     1
176
     1
175
     1
176
     1
 42
1.0
176
     1
 92
        8
176
     1
 66
     8
424
  7895160
176
     1
 43
1.0
176
     1
 76
     1
176
     1
 77
     6
176
     1
 78
     2
176
     1
 67
     7
176
     1
 79
     5
176
     1
170
     0
176
     1
171
     0
176
     1
290
     0
176
     1
 93
       13
176
     1
 44
0.0
176
     1
173
     0
176
     1
  0
VISUALSTYLE
  5
37
102
{ACAD_REACTORS
330
2A
102
}
330
2A
100
AcDbVisualStyle
  2
Thicken
 70
    13
177
     2
291
     1
 71
     2
176
     1
 72
     2
176
     1
 73
     0
176
     1
 90
        0
176
     1
 40
-0.6
176
     1
 41
-30.0
176
     1
 62
     5
 63
     7
421
 16777215
176
     1
 74
     1
176
     1
 91
        4
176
     1
 64
     7
176
     1
 65
   257
176
     1
 75
     1
176
     1
175
     1
176
     1
 42
1.0
176
     1
 92
       12
176
     1
 66
     7
176
     1
 43
1.0
176
     1
 76
     1
176
     1
 77
     6
176
     1
 78
     2
176
     1
 67
     7
176
     1
 79
     5
176
     1
170
     0
176
     1
171
     0
176
     1
290
     0
176
     1
 93
        1
176
     1
 44
0.0
176
     1
173
     0
176
     1
  0
ENDSEC
  0
EOF
