  0
SECTION
  2
HEADER
  9
$ACADVER
  1
AC1024
  9
$ACADMAINTVER
 70
     6
  9
$DWGCODEPAGE
  3
ANSI_932
  9
$INSBASE
 10
0.0
 20
0.0
 30
0.0
  9
$EXTMIN
 10
-6300.0
 20
-4455.0
 30
0.0
  9
$EXTMAX
 10
6300.0
 20
4455.0
 30
0.0
  9
$LIMMIN
 10
-6300.0
 20
-4455.0
  9
$LIMMAX
 10
6300.0
 20
4455.0
  9
$ORTHOMODE
 70
     0
  9
$REGENMODE
 70
     1
  9
$FILLMODE
 70
     1
  9
$QTEXTMODE
 70
     0
  9
$MIRRTEXT
 70
     1
  9
$LTSCALE
 40
30.0
  9
$ATTMODE
 70
     1
  9
$TEXTSIZE
 40
2.5
  9
$TRACEWID
 40
1.0
  9
$TEXTSTYLE
  7
Standard
  9
$CLAYER
  8
0
  9
$CELTYPE
  6
ByLayer
  9
$CECOLOR
 62
   256
  9
$CELTSCALE
 40
1.0
  9
$DISPSILH
 70
     0
  9
$DIMSCALE
 40
1.0
  9
$DIMASZ
 40
2.5
  9
$DIMEXO
 40
0.625
  9
$DIMDLI
 40
3.75
  9
$DIMRND
 40
0.0
  9
$DIMDLE
 40
0.0
  9
$DIMEXE
 40
1.25
  9
$DIMTP
 40
0.0
  9
$DIMTM
 40
0.0
  9
$DIMTXT
 40
2.5
  9
$DIMCEN
 40
2.5
  9
$DIMTSZ
 40
0.0
  9
$DIMTOL
 70
     0
  9
$DIMLIM
 70
     0
  9
$DIMTIH
 70
     0
  9
$DIMTOH
 70
     0
  9
$DIMSE1
 70
     0
  9
$DIMSE2
 70
     0
  9
$DIMTAD
 70
     1
  9
$DIMZIN
 70
     8
  9
$DIMBLK
  1

  9
$DIMASO
 70
     1
  9
$DIMSHO
 70
     1
  9
$DIMPOST
  1

  9
$DIMAPOST
  1

  9
$DIMALT
 70
     0
  9
$DIMALTD
 70
     3
  9
$DIMALTF
 40
0.03937007874016
  9
$DIMLFAC
 40
1.0
  9
$DIMTOFL
 70
     1
  9
$DIMTVP
 40
0.0
  9
$DIMTIX
 70
     0
  9
$DIMSOXD
 70
     0
  9
$DIMSAH
 70
     0
  9
$DIMBLK1
  1

  9
$DIMBLK2
  1

  9
$DIMSTYLE
  2
ISO-25
  9
$DIMCLRD
 70
     0
  9
$DIMCLRE
 70
     0
  9
$DIMCLRT
 70
     0
  9
$DIMTFAC
 40
1.0
  9
$DIMGAP
 40
0.625
  9
$DIMJUST
 70
     0
  9
$DIMSD1
 70
     0
  9
$DIMSD2
 70
     0
  9
$DIMTOLJ
 70
     0
  9
$DIMTZIN
 70
     8
  9
$DIMALTZ
 70
     0
  9
$DIMALTTZ
 70
     0
  9
$DIMUPT
 70
     0
  9
$DIMDEC
 70
     2
  9
$DIMTDEC
 70
     2
  9
$DIMALTU
 70
     2
  9
$DIMALTTD
 70
     3
  9
$DIMTXSTY
  7
Standard
  9
$DIMAUNIT
 70
     0
  9
$DIMADEC
 70
     0
  9
$DIMALTRND
 40
0.0
  9
$DIMAZIN
 70
     0
  9
$DIMDSEP
 70
    44
  9
$DIMATFIT
 70
     3
  9
$DIMFRAC
 70
     0
  9
$DIMLDRBLK
  1

  9
$DIMLUNIT
 70
     2
  9
$DIMLWD
 70
    -2
  9
$DIMLWE
 70
    -2
  9
$DIMTMOVE
 70
     0
  9
$DIMFXL
 40
1.0
  9
$DIMFXLON
 70
     0
  9
$DIMJOGANG
 40
0.7853981633974483
  9
$DIMTFILL
 70
     0
  9
$DIMTFILLCLR
 70
     0
  9
$DIMARCSYM
 70
     0
  9
$DIMLTYPE
  6

  9
$DIMLTEX1
  6

  9
$DIMLTEX2
  6

  9
$DIMTXTDIRECTION
 70
     0
  9
$LUNITS
 70
     2
  9
$LUPREC
 70
     4
  9
$SKETCHINC
 40
1.0
  9
$FILLETRAD
 40
10.0
  9
$AUNITS
 70
     0
  9
$AUPREC
 70
     0
  9
$MENU
  1
.
  9
$ELEVATION
 40
0.0
  9
$PELEVATION
 40
0.0
  9
$THICKNESS
 40
0.0
  9
$LIMCHECK
 70
     0
  9
$CHAMFERA
 40
10.0
  9
$CHAMFERB
 40
10.0
  9
$CHAMFERC
 40
20.0
  9
$CHAMFERD
 40
0.0
  9
$SKPOLY
 70
     0
  9
$TDCREATE
 40
2459380.623116053
  9
$TDUCREATE
 40
2459380.248116053
  9
$TDUPDATE
 40
2459380.623116065
  9
$TDUUPDATE
 40
2459380.248116065
  9
$TDINDWG
 40
0.0000000116
  9
$TDUSRTIMER
 40
0.0000000116
  9
$USRTIMER
 70
     1
  9
$ANGBASE
 50
0.0
  9
$ANGDIR
 70
     0
  9
$PDMODE
 70
     0
  9
$PDSIZE
 40
0.0
  9
$PLINEWID
 40
0.0
  9
$SPLFRAME
 70
     0
  9
$SPLINETYPE
 70
     6
  9
$SPLINESEGS
 70
     8
  9
$HANDSEED
  5
4E7
  9
$SURFTAB1
 70
     6
  9
$SURFTAB2
 70
     6
  9
$SURFTYPE
 70
     6
  9
$SURFU
 70
     6
  9
$SURFV
 70
     6
  9
$UCSBASE
  2

  9
$UCSNAME
  2

  9
$UCSORG
 10
0.0
 20
0.0
 30
0.0
  9
$UCSXDIR
 10
1.0
 20
0.0
 30
0.0
  9
$UCSYDIR
 10
0.0
 20
1.0
 30
0.0
  9
$UCSORTHOREF
  2

  9
$UCSORTHOVIEW
 70
     0
  9
$UCSORGTOP
 10
0.0
 20
0.0
 30
0.0
  9
$UCSORGBOTTOM
 10
0.0
 20
0.0
 30
0.0
  9
$UCSORGLEFT
 10
0.0
 20
0.0
 30
0.0
  9
$UCSORGRIGHT
 10
0.0
 20
0.0
 30
0.0
  9
$UCSORGFRONT
 10
0.0
 20
0.0
 30
0.0
  9
$UCSORGBACK
 10
0.0
 20
0.0
 30
0.0
  9
$PUCSBASE
  2

  9
$PUCSNAME
  2

  9
$PUCSORG
 10
0.0
 20
0.0
 30
0.0
  9
$PUCSXDIR
 10
1.0
 20
0.0
 30
0.0
  9
$PUCSYDIR
 10
0.0
 20
1.0
 30
0.0
  9
$PUCSORTHOREF
  2

  9
$PUCSORTHOVIEW
 70
     0
  9
$PUCSORGTOP
 10
0.0
 20
0.0
 30
0.0
  9
$PUCSORGBOTTOM
 10
0.0
 20
0.0
 30
0.0
  9
$PUCSORGLEFT
 10
0.0
 20
0.0
 30
0.0
  9
$PUCSORGRIGHT
 10
0.0
 20
0.0
 30
0.0
  9
$PUCSORGFRONT
 10
0.0
 20
0.0
 30
0.0
  9
$PUCSORGBACK
 10
0.0
 20
0.0
 30
0.0
  9
$USERI1
 70
     0
  9
$USERI2
 70
     0
  9
$USERI3
 70
     0
  9
$USERI4
 70
     0
  9
$USERI5
 70
     0
  9
$USERR1
 40
0.0
  9
$USERR2
 40
0.0
  9
$USERR3
 40
0.0
  9
$USERR4
 40
0.0
  9
$USERR5
 40
0.0
  9
$WORLDVIEW
 70
     1
  9
$SHADEDGE
 70
     3
  9
$SHADEDIF
 70
    70
  9
$TILEMODE
 70
     1
  9
$MAXACTVP
 70
    64
  9
$PINSBASE
 10
0.0
 20
0.0
 30
0.0
  9
$PLIMCHECK
 70
     0
  9
$PEXTMIN
 10
1.000000000000000E+20
 20
1.000000000000000E+20
 30
1.000000000000000E+20
  9
$PEXTMAX
 10
-1.000000000000000E+20
 20
-1.000000000000000E+20
 30
-1.000000000000000E+20
  9
$PLIMMIN
 10
0.0
 20
0.0
  9
$PLIMMAX
 10
420.0
 20
297.0
  9
$UNITMODE
 70
     0
  9
$VISRETAIN
 70
     1
  9
$PLINEGEN
 70
     0
  9
$PSLTSCALE
 70
     1
  9
$TREEDEPTH
 70
  3020
  9
$CMLSTYLE
  2
Standard
  9
$CMLJUST
 70
     0
  9
$CMLSCALE
 40
20.0
  9
$PROXYGRAPHICS
 70
     1
  9
$MEASUREMENT
 70
     1
  9
$CELWEIGHT
370
    -1
  9
$ENDCAPS
280
     0
  9
$JOINSTYLE
280
     0
  9
$LWDISPLAY
290
     0
  9
$INSUNITS
 70
     4
  9
$HYPERLINKBASE
  1

  9
$STYLESHEET
  1

  9
$XEDIT
290
     1
  9
$CEPSNTYPE
380
     0
  9
$PSTYLEMODE
290
     1
  9
$FINGERPRINTGUID
  2
{A459A759-D083-41C7-A0A0-2524C0784DC9}
  9
$VERSIONGUID
  2
{FAEB1C32-E019-11D5-929B-00C0DF256EC4}
  9
$EXTNAMES
290
     1
  9
$PSVPSCALE
 40
0.0
  9
$OLESTARTUP
290
     0
  9
$SORTENTS
280
   127
  9
$INDEXCTL
280
     0
  9
$HIDETEXT
280
     1
  9
$XCLIPFRAME
280
     2
  9
$HALOGAP
280
     0
  9
$OBSCOLOR
 70
   257
  9
$OBSLTYPE
280
     0
  9
$INTERSECTIONDISPLAY
280
     0
  9
$INTERSECTIONCOLOR
 70
   257
  9
$DIMASSOC
280
     2
  9
$PROJECTNAME
  1

  9
$CAMERADISPLAY
290
     0
  9
$LENSLENGTH
 40
50.0
  9
$CAMERAHEIGHT
 40
0.0
  9
$STEPSPERSEC
 40
2.0
  9
$STEPSIZE
 40
6.0
  9
$3DDWFPREC
 40
2.0
  9
$PSOLWIDTH
 40
5.0
  9
$PSOLHEIGHT
 40
80.0
  9
$LOFTANG1
 40
1.570796326794897
  9
$LOFTANG2
 40
1.570796326794897
  9
$LOFTMAG1
 40
0.0
  9
$LOFTMAG2
 40
0.0
  9
$LOFTPARAM
 70
     7
  9
$LOFTNORMALS
280
     1
  9
$LATITUDE
 40
37.795
  9
$LONGITUDE
 40
-122.394
  9
$NORTHDIRECTION
 40
0.0
  9
$TIMEZONE
 70
 -8000
  9
$LIGHTGLYPHDISPLAY
280
     1
  9
$TILEMODELIGHTSYNCH
280
     1
  9
$SOLIDHIST
280
     1
  9
$SHOWHIST
280
     1
  9
$DWFFRAME
280
     2
  9
$DGNFRAME
280
     2
  9
$REALWORLDSCALE
290
     1
  9
$INTERFERECOLOR
 62
   256
  9
$CSHADOW
280
     0
  9
$SHADOWPLANELOCATION
 40
0.0
  0
ENDSEC
  0
SECTION
  2
CLASSES
  0
CLASS
  1
ACDBDICTIONARYWDFLT
  2
AcDbDictionaryWithDefault
  3
ObjectDBX Classes
 90
        0
 91
        4
280
     0
281
     0
  0
CLASS
  1
VISUALSTYLE
  2
AcDbVisualStyle
  3
ObjectDBX Classes
 90
     4095
 91
        4
280
     0
281
     0
  0
CLASS
  1
MATERIAL
  2
AcDbMaterial
  3
ObjectDBX Classes
 90
     1153
 91
        4
280
     0
281
     0
  0
ENDSEC
  0
SECTION
  2
TABLES
  0
TABLE
  2
VPORT
  5
8
330
0
100
AcDbSymbolTable
 70
     1
  0
VPORT
  5
29
330
8
100
AcDbSymbolTableRecord
100
AcDbViewportTableRecord
  2
*Active
 70
     0
 10
0.0
 20
0.0
 11
1.0
 21
1.0
 12
0.0
 22
0.0
 13
0.0
 23
0.0
 14
10.0
 24
10.0
 15
10.0
 25
10.0
 16
0.0
 26
0.0
 36
1.0
 17
0.0
 27
0.0
 37
0.0
 40
9801.0
 41
1.414141414141414
 42
50.0
 43
0.0
 44
0.0
 50
0.0
 51
0.0
 71
     0
 72
 10000
 73
     1
 74
     3
 75
     0
 76
     0
 77
     0
 78
     0
281
     0
 65
     1
110
0.0
120
0.0
130
0.0
111
1.0
121
0.0
131
0.0
112
0.0
122
1.0
132
0.0
 79
     0
146
0.0
 60
     3
 61
     5
292
     1
282
     1
141
0.0
142
0.0
 63
   250
  0
ENDTAB
  0
TABLE
  2
LTYPE
  5
5
330
0
100
AcDbSymbolTable
 70
     5
  0
LTYPE
  5
14
330
5
100
AcDbSymbolTableRecord
100
AcDbLinetypeTableRecord
  2
ByBlock
 70
     0
  3

 72
    65
 73
     0
 40
0.0
  0
LTYPE
  5
15
330
5
100
AcDbSymbolTableRecord
100
AcDbLinetypeTableRecord
  2
ByLayer
 70
     0
  3

 72
    65
 73
     0
 40
0.0
  0
LTYPE
  5
16
330
5
100
AcDbSymbolTableRecord
100
AcDbLinetypeTableRecord
  2
Continuous
 70
     0
  3
Solid line
 72
    65
 73
     0
 40
0.0
  0
LTYPE
  5
3F
330
5
100
AcDbSymbolTableRecord
100
AcDbLinetypeTableRecord
  2
JWW_HOJO
 70
     0
  3
  -   -   -   -   -   -   -   - 
 72
    65
 73
     2
 40
1.693333333333333
 49
-1.27
 74
     0
 49
0.4233333333333333
 74
     0
  0
LTYPE
  5
40
330
5
100
AcDbSymbolTableRecord
100
AcDbLinetypeTableRecord
  2
JWW_CENTER1
 70
     0
  3
-----  --  ----------  --  -----
 72
    65
 73
     4
 40
6.773333333333333
 49
4.233333333333333
 74
     0
 49
-0.8466666666666667
 74
     0
 49
0.8466666666666667
 74
     0
 49
-0.8466666666666667
 74
     0
  0
LTYPE
  5
41
330
5
100
AcDbSymbolTableRecord
100
AcDbLinetypeTableRecord
  2
JWW_DASHED2
 70
     0
  3
--    ----    ----    ----    --
 72
    65
 73
     2
 40
3.386666666666667
 49
1.693333333333333
 74
     0
 49
-1.693333333333333
 74
     0
  0
LTYPE
  5
42
330
5
100
AcDbSymbolTableRecord
100
AcDbLinetypeTableRecord
  2
JWW_DASHED1
 70
     0
  3
-  --  --  --  --  --  --  --  -
 72
    65
 73
     2
 40
1.693333333333333
 49
0.8466666666666667
 74
     0
 49
-0.8466666666666667
 74
     0
  0
ENDTAB
  0
TABLE
  2
LAYER
  5
2
330
0
100
AcDbSymbolTable
 70
    14
  0
LAYER
  5
10
330
2
100
AcDbSymbolTableRecord
100
AcDbLayerTableRecord
  2
0
 70
     0
 62
     7
  6
Continuous
370
    -3
390
F
347
3E
  0
LAYER
  5
43
330
2
100
AcDbSymbolTableRecord
100
AcDbLayerTableRecord
  2
F-A_文字
 70
     0
 62
     7
  6
Continuous
370
    -3
390
F
347
3E
  0
LAYER
  5
44
330
2
100
AcDbSymbolTableRecord
100
AcDbLayerTableRecord
  2
F-0_補助線
 70
     0
 62
     7
  6
Continuous
370
    -3
390
F
347
3E
  0
LAYER
  5
45
330
2
100
AcDbSymbolTableRecord
100
AcDbLayerTableRecord
  2
F-1_枠
 70
     0
 62
     7
  6
Continuous
370
    -3
390
F
347
3E
  0
LAYER
  5
46
330
2
100
AcDbSymbolTableRecord
100
AcDbLayerTableRecord
  2
0-7_金物
 70
     0
 62
     7
  6
Continuous
370
    -3
390
F
347
3E
  0
LAYER
  5
47
330
2
100
AcDbSymbolTableRecord
100
AcDbLayerTableRecord
  2
0-6_扉
 70
     0
 62
     7
  6
Continuous
370
    -3
390
F
347
3E
  0
LAYER
  5
48
330
2
100
AcDbSymbolTableRecord
100
AcDbLayerTableRecord
  2
0-A_文字
 70
     0
 62
     7
  6
Continuous
370
    -3
390
F
347
3E
  0
LAYER
  5
49
330
2
100
AcDbSymbolTableRecord
100
AcDbLayerTableRecord
  2
0-1_通り芯
 70
     0
 62
     7
  6
Continuous
370
    -3
390
F
347
3E
  0
LAYER
  5
4A
330
2
100
AcDbSymbolTableRecord
100
AcDbLayerTableRecord
  2
0-B_寸法
 70
     0
 62
     7
  6
Continuous
370
    -3
390
F
347
3E
  0
LAYER
  5
4B
330
2
100
AcDbSymbolTableRecord
100
AcDbLayerTableRecord
  2
0-0_補助線
 70
     0
 62
     7
  6
Continuous
370
    -3
390
F
347
3E
  0
LAYER
  5
4C
330
2
100
AcDbSymbolTableRecord
100
AcDbLayerTableRecord
  2
0-3_仕上げ
 70
     0
 62
     7
  6
Continuous
370
    -3
390
F
347
3E
  0
LAYER
  5
4D
330
2
100
AcDbSymbolTableRecord
100
AcDbLayerTableRecord
  2
0-C_ハッチ
 70
     0
 62
     7
  6
Continuous
370
    -3
390
F
347
3E
  0
LAYER
  5
4E
330
2
100
AcDbSymbolTableRecord
100
AcDbLayerTableRecord
  2
0-4_枠
 70
     0
 62
     7
  6
Continuous
370
    -3
390
F
347
3E
  0
LAYER
  5
4F
330
2
100
AcDbSymbolTableRecord
100
AcDbLayerTableRecord
  2
戸当り
 70
     0
 62
     7
  6
Continuous
370
    -3
390
F
347
3E
  0
ENDTAB
  0
TABLE
  2
STYLE
  5
3
330
0
100
AcDbSymbolTable
 70
     1
  0
STYLE
  5
11
330
3
100
AcDbSymbolTableRecord
100
AcDbTextStyleTableRecord
  2
Standard
 70
     0
 40
0.0
 41
1.0
 50
0.0
 71
     0
 42
2.5
  3
txt
  4

  0
ENDTAB
  0
TABLE
  2
VIEW
  5
6
330
0
100
AcDbSymbolTable
 70
     0
  0
ENDTAB
  0
TABLE
  2
UCS
  5
7
330
0
100
AcDbSymbolTable
 70
     0
  0
ENDTAB
  0
TABLE
  2
APPID
  5
9
330
0
100
AcDbSymbolTable
 70
     1
  0
APPID
  5
12
330
9
100
AcDbSymbolTableRecord
100
AcDbRegAppTableRecord
  2
ACAD
 70
     0
  0
ENDTAB
  0
TABLE
  2
DIMSTYLE
  5
A
330
0
100
AcDbSymbolTable
 70
     1
100
AcDbDimStyleTable
  0
DIMSTYLE
105
27
330
A
100
AcDbSymbolTableRecord
100
AcDbDimStyleTableRecord
  2
ISO-25
 70
     0
 41
2.5
 42
0.625
 43
3.75
 44
1.25
 73
     0
 74
     0
 77
     1
 78
     8
140
2.5
141
2.5
143
0.03937007874016
147
0.625
171
     3
172
     1
178
     0
271
     2
272
     2
274
     3
278
    44
283
     0
284
     8
340
11
  0
ENDTAB
  0
TABLE
  2
BLOCK_RECORD
  5
1
330
0
100
AcDbSymbolTable
 70
     1
  0
BLOCK_RECORD
  5
1F
330
1
100
AcDbSymbolTableRecord
100
AcDbBlockTableRecord
  2
*Model_Space
340
22
 70
     0
280
     1
281
     0
  0
BLOCK_RECORD
  5
1B
330
1
100
AcDbSymbolTableRecord
100
AcDbBlockTableRecord
  2
*Paper_Space
340
1E
 70
     0
280
     1
281
     0
  0
BLOCK_RECORD
  5
23
330
1
100
AcDbSymbolTableRecord
100
AcDbBlockTableRecord
  2
*Paper_Space0
340
26
 70
     0
280
     1
281
     0
  0
ENDTAB
  0
ENDSEC
  0
SECTION
  2
BLOCKS
  0
BLOCK
  5
20
330
1F
100
AcDbEntity
  8
0
100
AcDbBlockBegin
  2
*Model_Space
 70
     0
 10
0.0
 20
0.0
 30
0.0
  3
*Model_Space
  1

  0
ENDBLK
  5
21
330
1F
100
AcDbEntity
  8
0
100
AcDbBlockEnd
  0
BLOCK
  5
1C
330
1B
100
AcDbEntity
 67
     1
  8
0
100
AcDbBlockBegin
  2
*Paper_Space
 70
     0
 10
0.0
 20
0.0
 30
0.0
  3
*Paper_Space
  1

  0
ENDBLK
  5
1D
330
1B
100
AcDbEntity
 67
     1
  8
0
100
AcDbBlockEnd
  0
BLOCK
  5
24
330
23
100
AcDbEntity
  8
0
100
AcDbBlockBegin
  2
*Paper_Space0
 70
     0
 10
0.0
 20
0.0
 30
0.0
  3
*Paper_Space0
  1

  0
ENDBLK
  5
25
330
23
100
AcDbEntity
  8
0
100
AcDbBlockEnd
  0
ENDSEC
  0
SECTION
  2
ENTITIES
  0
MTEXT
  5
50
330
1F
100
AcDbEntity
  8
F-A_文字
  6
Continuous
 62
     7
370
     0
100
AcDbMText
 10
5768.321977672939
 20
-4314.841419020919
 30
0.0
 40
68.58
 41
90.0
 46
0.0
 71
     7
 72
     1
  1
{\fＭＳ ゴシック|b0|i0|c128|p49;）}
 73
     1
 44
1.0
  0
MTEXT
  5
51
330
1F
100
AcDbEntity
  8
F-A_文字
  6
Continuous
 62
     7
370
     0
100
AcDbMText
 10
5548.066114483239
 20
-4314.771967288282
 30
0.0
 40
74.295
 41
195.0
 46
0.0
 71
     7
 72
     1
  1
{\fＭＳ ゴシック|b0|i0|c128|p49;印刷}
 73
     1
 44
1.0
  0
MTEXT
  5
52
330
1F
100
AcDbEntity
  8
F-A_文字
  6
Continuous
 62
     7
370
     0
100
AcDbMText
 10
5393.32938200033
 20
-4314.771967288282
 30
0.0
 40
74.295
 41
97.5
 46
0.0
 71
     7
 72
     1
  1
{\fＭＳ ゴシック|b0|i0|c128|p49;$d}
 73
     1
 44
1.0
  0
MTEXT
  5
53
330
1F
100
AcDbEntity
  8
F-A_文字
  6
Continuous
 62
     7
370
     0
100
AcDbMText
 10
5350.114617405298
 20
-4316.235443869856
 30
0.0
 40
68.58
 41
45.0
 46
0.0
 71
     7
 72
     1
  1
{\fＭＳ ゴシック|b0|i0|c128|p49;,}
 73
     1
 44
1.0
  0
MTEXT
  5
54
330
1F
100
AcDbEntity
  8
F-A_文字
  6
Continuous
 62
     7
370
     0
100
AcDbMText
 10
5238.592649517422
 20
-4314.771967288282
 30
0.0
 40
74.295
 41
97.5
 46
0.0
 71
     7
 72
     1
  1
{\fＭＳ ゴシック|b0|i0|c128|p49;$m}
 73
     1
 44
1.0
  0
MTEXT
  5
55
330
1F
100
AcDbEntity
  8
F-A_文字
  6
Continuous
 62
     7
370
     0
100
AcDbMText
 10
5191.195810375571
 20
-4319.023493567732
 30
0.0
 40
68.58
 41
45.0
 46
0.0
 71
     7
 72
     1
  1
{\fＭＳ ゴシック|b0|i0|c128|p49;,}
 73
     1
 44
1.0
  0
MTEXT
  5
56
330
1F
100
AcDbEntity
  8
F-A_文字
  6
Continuous
 62
     7
370
     0
100
AcDbMText
 10
5083.855928478601
 20
-4314.771967288282
 30
0.0
 40
74.295
 41
97.5
 46
0.0
 71
     7
 72
     1
  1
{\fＭＳ ゴシック|b0|i0|c128|p49;$y}
 73
     1
 44
1.0
  0
MTEXT
  5
57
330
1F
100
AcDbEntity
  8
F-A_文字
  6
Continuous
 62
     7
370
     0
100
AcDbMText
 10
4943.952040816226
 20
-4319.023493567732
 30
0.0
 40
68.58
 41
90.0
 46
0.0
 71
     7
 72
     1
  1
{\fＭＳ ゴシック|b0|i0|c128|p49;（}
 73
     1
 44
1.0
  0
LINE
  5
58
330
1F
100
AcDbEntity
  8
F-0_補助線
  6
JWW_HOJO
 62
   120
370
     5
100
AcDbLine
 10
-6140.081333436773
 20
-4455.0
 30
0.0
 11
-6140.081333436773
 21
4424.999604096284
 31
0.0
  0
LINE
  5
59
330
1F
100
AcDbEntity
  8
F-0_補助線
  6
JWW_HOJO
 62
   120
370
     5
100
AcDbLine
 10
-6140.081333436773
 20
4424.999604096284
 30
0.0
 11
6159.917676803936
 21
4424.999604096284
 31
0.0
  0
LINE
  5
5A
330
1F
100
AcDbEntity
  8
F-0_補助線
  6
JWW_HOJO
 62
   120
370
     5
100
AcDbLine
 10
6159.917676803936
 20
4424.999604096284
 30
0.0
 11
6159.917676803936
 21
-4455.0
 31
0.0
  0
LINE
  5
5B
330
1F
100
AcDbEntity
  8
F-0_補助線
  6
JWW_HOJO
 62
   120
370
     5
100
AcDbLine
 10
6159.917676803936
 20
-4455.0
 30
0.0
 11
-6140.081333436773
 21
-4455.0
 31
0.0
  0
LINE
  5
5C
330
1F
100
AcDbEntity
  8
F-1_枠
  6
Continuous
 62
   200
370
     5
100
AcDbLine
 10
5859.917429364114
 20
4174.999769056166
 30
0.0
 11
5859.917429364114
 21
-4205.000164959882
 31
0.0
  0
LINE
  5
5D
330
1F
100
AcDbEntity
  8
F-1_枠
  6
Continuous
 62
   200
370
     5
100
AcDbLine
 10
-5840.081317971782
 20
4174.999769056166
 30
0.0
 11
-5840.081317971782
 21
-4205.000164959882
 31
0.0
  0
LINE
  5
5E
330
1F
100
AcDbEntity
  8
F-1_枠
  6
Continuous
 62
   200
370
     5
100
AcDbLine
 10
5859.917429364114
 20
-4205.000002577498
 30
0.0
 11
-5840.081085996952
 21
-4205.000002577498
 31
0.0
  0
LINE
  5
5F
330
1F
100
AcDbEntity
  8
F-1_枠
  6
Continuous
 62
   200
370
     5
100
AcDbLine
 10
-5830.081323642279
 20
4174.999769056166
 30
0.0
 11
-5830.081323642279
 21
-4205.000164959882
 31
0.0
  0
LINE
  5
60
330
1F
100
AcDbEntity
  8
F-1_枠
  6
Continuous
 62
   200
370
     5
100
AcDbLine
 10
-5835.081309208291
 20
4174.999769056166
 30
0.0
 11
-5835.081309208291
 21
-4205.000164959882
 31
0.0
  0
LINE
  5
61
330
1F
100
AcDbEntity
  8
F-1_枠
  6
Continuous
 62
   200
370
     5
100
AcDbLine
 10
5854.917165428304
 20
4174.999769056166
 30
0.0
 11
5854.917165428304
 21
-4205.000164959882
 31
0.0
  0
LINE
  5
62
330
1F
100
AcDbEntity
  8
F-1_枠
  6
Continuous
 62
   200
370
     5
100
AcDbLine
 10
5849.917643811961
 20
4174.999769056166
 30
0.0
 11
5849.917643811961
 21
-4205.000164959882
 31
0.0
  0
LINE
  5
63
330
1F
100
AcDbEntity
  8
F-1_枠
  6
Continuous
 62
   200
370
     5
100
AcDbLine
 10
5859.917429364114
 20
-4199.999993814004
 30
0.0
 11
-5840.081085996952
 21
-4199.999993814004
 31
0.0
  0
LINE
  5
64
330
1F
100
AcDbEntity
  8
F-1_枠
  6
Continuous
 62
   200
370
     5
100
AcDbLine
 10
5859.917429364114
 20
-4195.000008247994
 30
0.0
 11
-5840.081085996952
 21
-4195.000008247994
 31
0.0
  0
LINE
  5
65
330
1F
100
AcDbEntity
  8
F-1_枠
  6
Continuous
 62
   200
370
     5
100
AcDbLine
 10
9.918542843316231
 20
-3994.999936078046
 30
0.0
 11
5849.917643811961
 21
-3995.005364289155
 31
0.0
  0
LINE
  5
66
330
1F
100
AcDbEntity
  8
F-1_枠
  6
Continuous
 62
   200
370
     5
100
AcDbLine
 10
-5840.081085996952
 20
4174.999769056166
 30
0.0
 11
5859.917429364114
 21
4174.999769056166
 31
0.0
  0
LINE
  5
67
330
1F
100
AcDbEntity
  8
F-1_枠
  6
Continuous
 62
   200
370
     5
100
AcDbLine
 10
-5840.081085996952
 20
4164.999983504013
 30
0.0
 11
5859.917429364114
 21
4164.999983504013
 31
0.0
  0
LINE
  5
68
330
1F
100
AcDbEntity
  8
F-1_枠
  6
Continuous
 62
   200
370
     5
100
AcDbLine
 10
-5840.081085996952
 20
4169.999505120355
 30
0.0
 11
5859.917429364114
 21
4169.999505120355
 31
0.0
  0
LINE
  5
69
330
1F
100
AcDbEntity
  8
F-0_補助線
  6
JWW_HOJO
 62
     7
370
     5
100
AcDbLine
 10
-5830.081323642279
 20
-3994.99993607839
 30
0.0
 11
9.918542843316231
 21
-3994.99993607839
 31
0.0
  0
LINE
  5
6A
330
1F
100
AcDbEntity
  8
F-0_補助線
  6
JWW_HOJO
 62
     7
370
     5
100
AcDbLine
 10
-5830.081323642279
 20
-3904.99993607839
 30
0.0
 11
9.918542843316231
 21
-3904.99993607839
 31
0.0
  0
LINE
  5
6B
330
1F
100
AcDbEntity
  8
F-0_補助線
  6
JWW_HOJO
 62
     7
370
     5
100
AcDbLine
 10
-5830.081323642279
 20
-4084.99993607839
 30
0.0
 11
9.918542843316231
 21
-4084.99993607839
 31
0.0
  0
LINE
  5
6C
330
1F
100
AcDbEntity
  8
F-0_補助線
  6
JWW_HOJO
 62
     7
370
     5
100
AcDbLine
 10
9.918408067688347
 20
-4139.999739777983
 30
0.0
 11
5849.917509036332
 21
-4140.005167989091
 31
0.0
  0
LINE
  5
6D
330
1F
100
AcDbEntity
  8
F-0_補助線
  6
JWW_HOJO
 62
     7
370
     5
100
AcDbLine
 10
9.918491721639953
 20
-4049.999739778022
 30
0.0
 11
5849.917592690284
 21
-4050.005167989131
 31
0.0
  0
LINE
  5
6E
330
1F
100
AcDbEntity
  8
F-0_補助線
  6
JWW_HOJO
 62
     7
370
     5
100
AcDbLine
 10
9.918593965360003
 20
-3939.99973721807
 30
0.0
 11
5849.917694934004
 21
-3940.005165429179
 31
0.0
  0
LINE
  5
6F
330
1F
100
AcDbEntity
  8
F-0_補助線
  6
JWW_HOJO
 62
     7
370
     5
100
AcDbLine
 10
9.918677619311609
 20
-3849.999737218109
 30
0.0
 11
5849.917778587956
 21
-3850.005165429218
 31
0.0
  0
LINE
  5
70
330
1F
100
AcDbEntity
  8
F-1_枠
  6
Continuous
 62
   200
370
     5
100
AcDbLine
 10
5859.917429364114
 20
-3795.000003092998
 30
0.0
 11
-5840.081085996952
 21
-3795.000003092998
 31
0.0
  0
LINE
  5
71
330
1F
100
AcDbEntity
  8
F-1_枠
  6
Continuous
 62
   200
370
     5
100
AcDbLine
 10
5859.917429364114
 20
-3790.000017526987
 30
0.0
 11
-5840.081085996952
 21
-3790.000017526987
 31
0.0
  0
LINE
  5
72
330
1F
100
AcDbEntity
  8
0-7_金物
  6
Continuous
 62
     7
370
     5
100
AcDbLine
 10
-2748.544468505103
 20
-3229.000232799979
 30
0.0
 11
-2748.544468505103
 21
-3286.000311980722
 31
0.0
  0
LINE
  5
73
330
1F
100
AcDbEntity
  8
0-7_金物
  6
Continuous
 62
     7
370
     5
100
AcDbLine
 10
-2748.544468505103
 20
-3286.000311980722
 30
0.0
 11
-2730.544706047334
 21
-3286.000311980722
 31
0.0
  0
LINE
  5
74
330
1F
100
AcDbEntity
  8
0-7_金物
  6
Continuous
 62
     7
370
     5
100
AcDbLine
 10
-2730.544706047334
 20
-3229.000232799979
 30
0.0
 11
-2730.544706047334
 21
-3286.000311980722
 31
0.0
  0
LINE
  5
75
330
1F
100
AcDbEntity
  8
0-6_扉
  6
Continuous
 62
   200
370
     5
100
AcDbLine
 10
-2658.544787393177
 20
-3229.000232799979
 30
0.0
 11
-2820.544787393176
 21
-3229.000232799979
 31
0.0
  0
LINE
  5
76
330
1F
100
AcDbEntity
  8
0-6_扉
  6
Continuous
 62
   200
370
     5
100
AcDbLine
 10
-2658.544787393177
 20
-3229.000603959712
 30
0.0
 11
-2658.544787393177
 21
-1990.001135734764
 31
0.0
  0
LINE
  5
77
330
1F
100
AcDbEntity
  8
0-6_扉
  6
Continuous
 62
   200
370
     5
100
AcDbLine
 10
-2820.544787393176
 20
-3229.000603959712
 30
0.0
 11
-2820.544787393176
 21
-1990.001135734764
 31
0.0
  0
LINE
  5
78
330
1F
100
AcDbEntity
  8
0-6_扉
  6
Continuous
 62
   200
370
     5
100
AcDbLine
 10
-2658.544787393177
 20
-631.0009254109133
 30
0.0
 11
-2820.544787393176
 21
-631.0009254109133
 31
0.0
  0
LINE
  5
79
330
1F
100
AcDbEntity
  8
0-7_金物
  6
Continuous
 62
     7
370
     5
100
AcDbLine
 10
-2674.549326882924
 20
-592.0009254109129
 30
0.0
 11
-2674.549326882924
 21
-586.0008338581792
 31
0.0
  0
LINE
  5
7A
330
1F
100
AcDbEntity
  8
0-7_金物
  6
Continuous
 62
     7
370
     5
100
AcDbLine
 10
-2803.758939729297
 20
-592.0009254109129
 30
0.0
 11
-2803.758939729297
 21
-586.0008338581792
 31
0.0
  0
LINE
  5
7B
330
1F
100
AcDbEntity
  8
0-7_金物
  6
Continuous
 62
     7
370
     5
100
AcDbLine
 10
-2637.545439706406
 20
-586.0008338581792
 30
0.0
 11
-2637.545439706406
 21
-592.0009254109129
 31
0.0
  0
LINE
  5
7C
330
1F
100
AcDbEntity
  8
0-7_金物
  6
Continuous
 62
     7
370
     5
100
AcDbLine
 10
-2803.758939729297
 20
-592.0009254109129
 30
0.0
 11
-2841.543741689287
 21
-592.0009254109129
 31
0.0
  0
LINE
  5
7D
330
1F
100
AcDbEntity
  8
0-7_金物
  6
Continuous
 62
     7
370
     5
100
AcDbLine
 10
-2841.543741689287
 20
-586.0008338581792
 30
0.0
 11
-2841.543741689287
 21
-592.0009254109129
 31
0.0
  0
LINE
  5
7E
330
1F
100
AcDbEntity
  8
0-7_金物
  6
Continuous
 62
     7
370
     5
100
AcDbLine
 10
-2727.544993386829
 20
-631.0009254109133
 30
0.0
 11
-2751.545674310288
 21
-631.0009254109133
 31
0.0
  0
LINE
  5
7F
330
1F
100
AcDbEntity
  8
0-7_金物
  6
Continuous
 62
     7
370
     5
100
AcDbLine
 10
-2727.544993386829
 20
-586.0008338581792
 30
0.0
 11
-2727.544993386829
 21
-631.0009254109133
 31
0.0
  0
LINE
  5
80
330
1F
100
AcDbEntity
  8
0-7_金物
  6
Continuous
 62
     7
370
     5
100
AcDbLine
 10
-2751.545674310288
 20
-631.0009254109133
 30
0.0
 11
-2751.545674310288
 21
-586.0008338581792
 31
0.0
  0
LINE
  5
81
330
1F
100
AcDbEntity
  8
0-7_金物
  6
Continuous
 62
     7
370
     5
100
AcDbLine
 10
-2674.549326882924
 20
-592.0009254109129
 30
0.0
 11
-2637.545439706406
 21
-592.0009254109129
 31
0.0
  0
LINE
  5
82
330
1F
100
AcDbEntity
  8
0-7_金物
  6
Continuous
 62
     7
370
     5
100
AcDbLine
 10
-2667.711180920122
 20
-478.1466781326594
 30
0.0
 11
-2667.711180920122
 21
-586.1467696853933
 31
0.0
  0
LINE
  5
83
330
1F
100
AcDbEntity
  8
0-7_金物
  6
Continuous
 62
     7
370
     5
100
AcDbLine
 10
-2811.71150850725
 20
-478.1466781326594
 30
0.0
 11
-2667.711180920122
 21
-478.1466781326594
 31
0.0
  0
LINE
  5
84
330
1F
100
AcDbEntity
  8
0-7_金物
  6
Continuous
 62
     7
370
     5
100
AcDbLine
 10
-2811.71150850725
 20
-586.1467696853933
 30
0.0
 11
-2811.71150850725
 21
-478.1466781326594
 31
0.0
  0
LINE
  5
85
330
1F
100
AcDbEntity
  8
0-7_金物
  6
Continuous
 62
     7
370
     5
100
AcDbLine
 10
-2805.890238041397
 20
-572.9345199295341
 30
0.0
 11
-2805.890238041397
 21
-506.9345199295344
 31
0.0
  0
LINE
  5
86
330
1F
100
AcDbEntity
  8
0-7_金物
  6
Continuous
 62
     7
370
     5
100
AcDbLine
 10
-2805.890238041397
 20
-506.9345199295344
 30
0.0
 11
-2769.711072201248
 21
-506.9345199295344
 31
0.0
  0
LINE
  5
87
330
1F
100
AcDbEntity
  8
0-7_金物
  6
Continuous
 62
     7
370
     5
100
AcDbLine
 10
-2769.711072201248
 20
-586.1467696853933
 30
0.0
 11
-2769.711072201248
 21
-490.1463119217226
 31
0.0
  0
LINE
  5
88
330
1F
100
AcDbEntity
  8
0-7_金物
  6
Continuous
 62
     7
370
     5
100
AcDbLine
 10
-2769.711072201248
 20
-490.1463119217226
 30
0.0
 11
-2709.709384197708
 21
-490.1463119217226
 31
0.0
  0
LINE
  5
89
330
1F
100
AcDbEntity
  8
0-7_金物
  6
Continuous
 62
     7
370
     5
100
AcDbLine
 10
-2709.709384197708
 20
-490.1463119217226
 30
0.0
 11
-2709.709384197708
 21
-586.1467696853933
 31
0.0
  0
LINE
  5
8A
330
1F
100
AcDbEntity
  8
0-7_金物
  6
Continuous
 62
     7
370
     5
100
AcDbLine
 10
-2673.890990490435
 20
-506.9345199295344
 30
0.0
 11
-2673.890990490435
 21
-572.9345199295341
 31
0.0
  0
LINE
  5
8B
330
1F
100
AcDbEntity
  8
0-7_金物
  6
Continuous
 62
     7
370
     5
100
AcDbLine
 10
-2709.709384197708
 20
-506.9345199295344
 30
0.0
 11
-2673.890990490435
 21
-506.9345199295344
 31
0.0
  0
LINE
  5
8C
330
1F
100
AcDbEntity
  8
0-7_金物
  6
Continuous
 62
     7
370
     5
100
AcDbLine
 10
-2655.71084904146
 20
-586.1467696853933
 30
0.0
 11
-2637.711077923299
 21
-586.1467696853933
 31
0.0
  0
LINE
  5
8D
330
1F
100
AcDbEntity
  8
0-7_金物
  6
Continuous
 62
     7
370
     5
100
AcDbLine
 10
-2674.71496509981
 20
-592.1468612381278
 30
0.0
 11
-2674.71496509981
 21
-586.1467696853933
 31
0.0
  0
LINE
  5
8E
330
1F
100
AcDbEntity
  8
0-7_金物
  6
Continuous
 62
     7
370
     5
100
AcDbLine
 10
-2667.711180920122
 20
-586.1467696853933
 30
0.0
 11
-2674.71496509981
 21
-586.1467696853933
 31
0.0
  0
LINE
  5
8F
330
1F
100
AcDbEntity
  8
0-7_金物
  6
Continuous
 62
     7
370
     5
100
AcDbLine
 10
-2823.711101884363
 20
-586.1467696853933
 30
0.0
 11
-2841.709379906176
 21
-586.1467696853933
 31
0.0
  0
LINE
  5
90
330
1F
100
AcDbEntity
  8
0-7_金物
  6
Continuous
 62
     7
370
     5
100
AcDbLine
 10
-2803.924577946183
 20
-592.1468612381278
 30
0.0
 11
-2803.924577946183
 21
-586.1467696853933
 31
0.0
  0
LINE
  5
91
330
1F
100
AcDbEntity
  8
0-7_金物
  6
Continuous
 62
     7
370
     5
100
AcDbLine
 10
-2803.924577946183
 20
-586.1467696853933
 30
0.0
 11
-2811.71150850725
 21
-586.1467696853933
 31
0.0
  0
LINE
  5
92
330
1F
100
AcDbEntity
  8
0-7_金物
  6
Continuous
 62
     7
370
     5
100
AcDbLine
 10
-2637.711077923299
 20
-586.1467696853933
 30
0.0
 11
-2637.711077923299
 21
-592.1468612381278
 31
0.0
  0
LINE
  5
93
330
1F
100
AcDbEntity
  8
0-7_金物
  6
Continuous
 62
     7
370
     5
100
AcDbLine
 10
-2803.924577946183
 20
-592.1468612381278
 30
0.0
 11
-2841.709379906176
 21
-592.1468612381278
 31
0.0
  0
LINE
  5
94
330
1F
100
AcDbEntity
  8
0-7_金物
  6
Continuous
 62
     7
370
     5
100
AcDbLine
 10
-2841.709379906176
 20
-586.1467696853933
 30
0.0
 11
-2841.709379906176
 21
-592.1468612381278
 31
0.0
  0
LINE
  5
95
330
1F
100
AcDbEntity
  8
0-7_金物
  6
Continuous
 62
     7
370
     5
100
AcDbLine
 10
-2769.711072201248
 20
-572.9345199295341
 30
0.0
 11
-2805.890238041397
 21
-572.9345199295341
 31
0.0
  0
LINE
  5
96
330
1F
100
AcDbEntity
  8
0-7_金物
  6
Continuous
 62
     7
370
     5
100
AcDbLine
 10
-2673.890990490435
 20
-572.9345199295341
 30
0.0
 11
-2709.709384197708
 21
-572.9345199295341
 31
0.0
  0
LINE
  5
97
330
1F
100
AcDbEntity
  8
0-7_金物
  6
Continuous
 62
     7
370
     5
100
AcDbLine
 10
-2709.709384197708
 20
-586.1467696853933
 30
0.0
 11
-2769.711072201248
 21
-586.1467696853933
 31
0.0
  0
LINE
  5
98
330
1F
100
AcDbEntity
  8
0-7_金物
  6
Continuous
 62
     7
370
     5
100
AcDbLine
 10
-2674.71496509981
 20
-592.1468612381278
 30
0.0
 11
-2637.711077923299
 21
-592.1468612381278
 31
0.0
  0
LINE
  5
99
330
1F
100
AcDbEntity
  8
0-6_扉
  6
Continuous
 62
   200
370
     5
100
AcDbLine
 10
-2658.544787393177
 20
-1870.001135734764
 30
0.0
 11
-2658.544787393177
 21
-631.0009254109133
 31
0.0
  0
LINE
  5
9A
330
1F
100
AcDbEntity
  8
0-6_扉
  6
Continuous
 62
   200
370
     5
100
AcDbLine
 10
-2820.544787393176
 20
-1870.001135734764
 30
0.0
 11
-2820.544787393176
 21
-631.0009254109133
 31
0.0
  0
LINE
  5
9B
330
1F
100
AcDbEntity
  8
0-7_金物
  6
Continuous
 62
     7
370
     5
100
AcDbLine
 10
-2793.545371041854
 20
-370.1469527908625
 30
0.0
 11
-2793.545371041854
 21
-364.0009631454859
 31
0.0
  0
LINE
  5
9C
330
1F
100
AcDbEntity
  8
0-7_金物
  6
Continuous
 62
     7
370
     5
100
AcDbLine
 10
-2685.545302377303
 20
-364.0009631454868
 30
0.0
 11
-2685.545302377303
 21
-370.1469527908625
 31
0.0
  0
LINE
  5
9D
330
1F
100
AcDbEntity
  8
0-7_金物
  6
Continuous
 62
     7
370
     5
100
AcDbLine
 10
-2679.545136437972
 20
-364.0009631454868
 30
0.0
 11
-2799.544793115218
 21
-364.0009631454868
 31
0.0
  0
LINE
  5
9E
330
1F
100
AcDbEntity
  8
0-7_金物
  6
Continuous
 62
     7
370
     5
100
AcDbLine
 10
-2799.544793115218
 20
-352.0013694107442
 30
0.0
 11
-2799.544793115218
 21
-364.0009631454859
 31
0.0
  0
LINE
  5
9F
330
1F
100
AcDbEntity
  8
0-7_金物
  6
Continuous
 62
     7
370
     5
100
AcDbLine
 10
-2679.545136437972
 20
-352.0013694107442
 30
0.0
 11
-2679.545136437972
 21
-364.0009631454859
 31
0.0
  0
LINE
  5
A0
330
1F
100
AcDbEntity
  8
0-7_金物
  6
Continuous
 62
     7
370
     5
100
AcDbLine
 10
-2649.545033441149
 20
-340.0010318100374
 30
0.0
 11
-2829.544896112045
 21
-340.0010318100374
 31
0.0
  0
LINE
  5
A1
330
1F
100
AcDbEntity
  8
0-7_金物
  6
Continuous
 62
     7
370
     5
100
AcDbLine
 10
-2649.545033441149
 20
-340.0010318100374
 30
0.0
 11
-2649.545033441149
 21
-352.0013694107455
 31
0.0
  0
LINE
  5
A2
330
1F
100
AcDbEntity
  8
0-7_金物
  6
Continuous
 62
     7
370
     5
100
AcDbLine
 10
-2829.544896112045
 20
-340.0010318100374
 30
0.0
 11
-2829.544896112045
 21
-352.0013694107455
 31
0.0
  0
LINE
  5
A3
330
1F
100
AcDbEntity
  8
0-7_金物
  6
Continuous
 62
     7
370
     5
100
AcDbLine
 10
-2649.545033441149
 20
-352.0013694107442
 30
0.0
 11
-2829.544896112045
 21
-352.0013694107442
 31
0.0
  0
MTEXT
  5
A4
330
1F
100
AcDbEntity
  8
0-A_文字
  6
Continuous
 62
     7
370
     5
100
AcDbMText
 10
-3763.062520772506
 20
278.2866538614621
 30
0.0
 40
91.44000000000001
 41
600.0
 46
0.0
 71
     7
 72
     1
  1
{\fＭＳ ゴシック|b0|i0|c128|p49;　[３方枠]}
 73
     1
 44
1.0
  0
LINE
  5
A5
330
1F
100
AcDbEntity
  8
0-1_通り芯
  6
JWW_CENTER1
 62
   120
370
     5
100
AcDbLine
 10
-2739.545336709579
 20
229.9989830363511
 30
0.0
 11
-2739.545336709579
 21
-3470.136788158382
 31
0.0
  0
MTEXT
  5
A6
330
1F
100
AcDbEntity
  8
0-B_寸法
  6
Continuous
 62
     7
370
     0
100
AcDbMText
 10
-1953.012008359089
 20
-3252.912872984567
 30
0.0
 40
91.44
 41
240.0
 46
0.0
 71
     7
 72
     1
  1
{\fＭＳ ゴシック|b0|i0|c128|p49;11.5}
 11
6.123031769111886E-17
 21
1.0
 31
0.0
 73
     1
 44
1.0
  0
LWPOLYLINE
  5
A7
330
1F
100
AcDbEntity
  8
0-B_寸法
  6
Continuous
 62
     7
370
     5
100
AcDbPolyline
 90
        4
 70
     1
 43
3.0
 10
-1937.045513111679
 20
-3229.000603959712
 42
0.4142135623731
 10
-1938.545513111679
 20
-3227.500603959712
 42
0.4142135623731
 10
-1940.045513111679
 20
-3229.000603959712
 42
0.4142135623731
 10
-1938.545513111679
 20
-3230.500603959712
 42
0.4142135623731
  0
LINE
  5
A8
330
1F
100
AcDbEntity
  8
0-B_寸法
  6
Continuous
 62
   120
370
     5
100
AcDbLine
 10
-2148.545513111679
 20
-3229.000603959712
 30
0.0
 11
-1938.545513111679
 21
-3229.000603959712
 31
0.0
  0
LWPOLYLINE
  5
A9
330
1F
100
AcDbEntity
  8
0-B_寸法
  6
Continuous
 62
     7
370
     5
100
AcDbPolyline
 90
        4
 70
     1
 43
3.0
 10
-1937.045513111679
 20
-3298.000311980723
 42
0.4142135623731
 10
-1938.545513111679
 20
-3296.500311980723
 42
0.4142135623731
 10
-1940.045513111679
 20
-3298.000311980723
 42
0.4142135623731
 10
-1938.545513111679
 20
-3299.500311980722
 42
0.4142135623731
  0
LINE
  5
AA
330
1F
100
AcDbEntity
  8
0-B_寸法
  6
Continuous
 62
   120
370
     5
100
AcDbLine
 10
-1938.545513111679
 20
-3298.000311980723
 30
0.0
 11
-1938.545513111679
 21
-586.0004082616842
 31
0.0
  0
MTEXT
  5
AB
330
1F
100
AcDbEntity
  8
0-B_寸法
  6
Continuous
 62
     7
370
     0
100
AcDbMText
 10
-1952.973295691981
 20
-823.2367769166207
 30
0.0
 40
91.4400000000026
 41
180.0000000000051
 46
0.0
 71
     7
 72
     1
  1
{\fＭＳ ゴシック|b0|i0|c128|p49;7.5}
 11
6.123031769111886E-17
 21
1.0
 31
0.0
 73
     1
 44
1.0
  0
LWPOLYLINE
  5
AC
330
1F
100
AcDbEntity
  8
0-B_寸法
  6
Continuous
 62
     7
370
     5
100
AcDbPolyline
 90
        4
 70
     1
 43
3.0
 10
-1937.045513111679
 20
-586.0004082616842
 42
0.4142135623731
 10
-1938.545513111679
 20
-584.5004082616842
 42
0.4142135623731
 10
-1940.045513111679
 20
-586.0004082616842
 42
0.4142135623731
 10
-1938.545513111679
 20
-587.5004082616842
 42
0.4142135623731
  0
LWPOLYLINE
  5
AD
330
1F
100
AcDbEntity
  8
0-B_寸法
  6
Continuous
 62
     7
370
     5
100
AcDbPolyline
 90
        4
 70
     1
 43
3.0
 10
-1937.045513111679
 20
-631.000556725578
 42
0.4142135623731
 10
-1938.545513111679
 20
-629.500556725578
 42
0.4142135623731
 10
-1940.045513111679
 20
-631.000556725578
 42
0.4142135623731
 10
-1938.545513111679
 20
-632.500556725578
 42
0.4142135623731
  0
LINE
  5
AE
330
1F
100
AcDbEntity
  8
0-B_寸法
  6
Continuous
 62
   120
370
     5
100
AcDbLine
 10
-2148.545513111679
 20
-586.0004082616842
 30
0.0
 11
-1938.545513111679
 21
-586.0004082616842
 31
0.0
  0
LINE
  5
AF
330
1F
100
AcDbEntity
  8
0-B_寸法
  6
Continuous
 62
   120
370
     5
100
AcDbLine
 10
-2148.545513111679
 20
-631.000556725578
 30
0.0
 11
-1938.545513111679
 21
-631.000556725578
 31
0.0
  0
LINE
  5
B0
330
1F
100
AcDbEntity
  8
0-0_補助線
  6
JWW_HOJO
 62
   120
370
     5
100
AcDbLine
 10
-2148.544748275699
 20
-3370.000660769669
 30
0.0
 11
-2148.545449080685
 21
229.9989830363519
 31
0.0
  0
LINE
  5
B1
330
1F
100
AcDbEntity
  8
0-0_補助線
  6
JWW_HOJO
 62
   120
370
     5
100
AcDbLine
 10
-1938.544748275699
 20
-3370.000660769667
 30
0.0
 11
-1938.545449080685
 21
229.9989830363511
 31
0.0
  0
LINE
  5
B2
330
1F
100
AcDbEntity
  8
0-B_寸法
  6
Continuous
 62
   120
370
     5
100
AcDbLine
 10
-1938.545513111679
 20
-3370.000289711139
 30
0.0
 11
-1758.544766770185
 21
-3370.000289711139
 31
0.0
  0
LWPOLYLINE
  5
B3
330
1F
100
AcDbEntity
  8
0-B_寸法
  6
Continuous
 62
     7
370
     5
100
AcDbPolyline
 90
        4
 70
     1
 43
3.0
 10
-1757.044766770185
 20
-3298.000311980723
 42
0.4142135623731
 10
-1758.544766770185
 20
-3296.500311980723
 42
0.4142135623731
 10
-1760.044766770185
 20
-3298.000311980723
 42
0.4142135623731
 10
-1758.544766770185
 20
-3299.500311980722
 42
0.4142135623731
  0
LINE
  5
B4
330
1F
100
AcDbEntity
  8
0-B_寸法
  6
Continuous
 62
   120
370
     5
100
AcDbLine
 10
-1758.544766770185
 20
-3298.000311980723
 30
0.0
 11
-1758.544766770185
 21
-370.0010318100374
 31
0.0
  0
MTEXT
  5
B5
330
1F
100
AcDbEntity
  8
0-B_寸法
  6
Continuous
 62
     7
370
     0
100
AcDbMText
 10
-1773.544073938678
 20
-552.2805344559936
 30
0.0
 40
91.44
 41
120.0
 46
0.0
 71
     7
 72
     1
  1
{\fＭＳ ゴシック|b0|i0|c128|p49;36}
 11
6.123031769111886E-17
 21
1.0
 31
0.0
 73
     1
 44
1.0
  0
LINE
  5
B6
330
1F
100
AcDbEntity
  8
0-B_寸法
  6
Continuous
 62
   120
370
     5
100
AcDbLine
 10
-1938.545513111679
 20
-586.0000371019498
 30
0.0
 11
-1758.544766770185
 21
-586.0000371019498
 31
0.0
  0
LWPOLYLINE
  5
B7
330
1F
100
AcDbEntity
  8
0-B_寸法
  6
Continuous
 62
     7
370
     5
100
AcDbPolyline
 90
        4
 70
     1
 43
3.0
 10
-1757.044766770185
 20
-586.0000371019498
 42
0.4142135623731
 10
-1758.544766770185
 20
-584.5000371019498
 42
0.4142135623731
 10
-1760.044766770185
 20
-586.0000371019498
 42
0.4142135623731
 10
-1758.544766770185
 20
-587.5000371019498
 42
0.4142135623731
  0
LWPOLYLINE
  5
B8
330
1F
100
AcDbEntity
  8
0-B_寸法
  6
Continuous
 62
     7
370
     5
100
AcDbPolyline
 90
        4
 70
     1
 43
3.0
 10
-1757.044766770185
 20
-370.0010318100374
 42
0.4142135623731
 10
-1758.544766770185
 20
-368.5010318100374
 42
0.4142135623731
 10
-1760.044766770185
 20
-370.0010318100374
 42
0.4142135623731
 10
-1758.544766770185
 20
-371.5010318100374
 42
0.4142135623731
  0
LINE
  5
B9
330
1F
100
AcDbEntity
  8
0-0_補助線
  6
JWW_HOJO
 62
   120
370
     5
100
AcDbLine
 10
-1758.544001934201
 20
-3370.000660769669
 30
0.0
 11
-1758.544702739187
 21
229.9989830363519
 31
0.0
  0
LWPOLYLINE
  5
BA
330
1F
100
AcDbEntity
  8
0-B_寸法
  6
Continuous
 62
     7
370
     5
100
AcDbPolyline
 90
        4
 70
     1
 43
3.0
 10
-1577.044538435233
 20
-3298.000311980723
 42
0.4142135623731
 10
-1578.544538435233
 20
-3296.500311980723
 42
0.4142135623731
 10
-1580.044538435232
 20
-3298.000311980723
 42
0.4142135623731
 10
-1578.544538435233
 20
-3299.500311980722
 42
0.4142135623731
  0
LINE
  5
BB
330
1F
100
AcDbEntity
  8
0-B_寸法
  6
Continuous
 62
   120
370
     5
100
AcDbLine
 10
-2148.545513111679
 20
-3298.000311980723
 30
0.0
 11
-1578.544538435233
 21
-3298.000311980723
 31
0.0
  0
LINE
  5
BC
330
1F
100
AcDbEntity
  8
0-B_寸法
  6
Continuous
 62
   120
370
     5
100
AcDbLine
 10
-2148.545513111679
 20
-3370.000660870872
 30
0.0
 11
-1578.544538435233
 21
-3370.000660870872
 31
0.0
  0
LWPOLYLINE
  5
BD
330
1F
100
AcDbEntity
  8
0-B_寸法
  6
Continuous
 62
     7
370
     5
100
AcDbPolyline
 90
        4
 70
     1
 43
3.0
 10
-1577.044538435233
 20
-3370.000660870872
 42
0.4142135623731
 10
-1578.544538435233
 20
-3368.500660870872
 42
0.4142135623731
 10
-1580.044538435232
 20
-3370.000660870872
 42
0.4142135623731
 10
-1578.544538435233
 20
-3371.500660870872
 42
0.4142135623731
  0
MTEXT
  5
BE
330
1F
100
AcDbEntity
  8
0-B_寸法
  6
Continuous
 62
     7
370
     0
100
AcDbMText
 10
-1593.545330242664
 20
-3309.918529654608
 30
0.0
 40
91.44
 41
120.0
 46
0.0
 71
     7
 72
     1
  1
{\fＭＳ ゴシック|b0|i0|c128|p49;12}
 11
6.123031769111886E-17
 21
1.0
 31
0.0
 73
     1
 44
1.0
  0
LINE
  5
BF
330
1F
100
AcDbEntity
  8
0-B_寸法
  6
Continuous
 62
   120
370
     5
100
AcDbLine
 10
-2148.545513111679
 20
-370.0010318100374
 30
0.0
 11
-1578.544538435233
 21
-370.0010318100374
 31
0.0
  0
LWPOLYLINE
  5
C0
330
1F
100
AcDbEntity
  8
0-B_寸法
  6
Continuous
 62
     7
370
     5
100
AcDbPolyline
 90
        4
 70
     1
 43
3.0
 10
-1577.044538435233
 20
-370.0010318100374
 42
0.4142135623731
 10
-1578.544538435233
 20
-368.5010318100374
 42
0.4142135623731
 10
-1580.044538435232
 20
-370.0010318100374
 42
0.4142135623731
 10
-1578.544538435233
 20
-371.5010318100374
 42
0.4142135623731
  0
LWPOLYLINE
  5
C1
330
1F
100
AcDbEntity
  8
0-B_寸法
  6
Continuous
 62
     7
370
     5
100
AcDbPolyline
 90
        4
 70
     1
 43
3.0
 10
-1577.044538435233
 20
-340.0010318100374
 42
0.4142135623731
 10
-1578.544538435233
 20
-338.5010318100374
 42
0.4142135623731
 10
-1580.044538435232
 20
-340.0010318100374
 42
0.4142135623731
 10
-1578.544538435233
 20
-341.5010318100374
 42
0.4142135623731
  0
LINE
  5
C2
330
1F
100
AcDbEntity
  8
0-B_寸法
  6
Continuous
 62
   120
370
     5
100
AcDbLine
 10
-1578.544538435233
 20
-340.0010318100374
 30
0.0
 11
-2148.545513111679
 21
-340.0010318100374
 31
0.0
  0
MTEXT
  5
C3
330
1F
100
AcDbEntity
  8
0-B_寸法
  6
Continuous
 62
     7
370
   211
100
AcDbMText
 10
-1599.445092174634
 20
-345.8400681120105
 30
0.0
 40
91.44
 41
60.0
 46
0.0
 71
     7
 72
     1
  1
{\fＭＳ ゴシック|b0|i0|c128|p49;5}
 11
6.123031769111886E-17
 21
1.0
 31
0.0
 73
     1
 44
1.0
  0
LINE
  5
C4
330
1F
100
AcDbEntity
  8
0-B_寸法
  6
Continuous
 62
   120
370
     5
100
AcDbLine
 10
-1578.544538435233
 20
-3370.000660870872
 30
0.0
 11
-1578.544538435233
 21
-340.0010318100361
 31
0.0
  0
LINE
  5
C5
330
1F
100
AcDbEntity
  8
0-0_補助線
  6
JWW_HOJO
 62
   120
370
     5
100
AcDbLine
 10
-1578.543773599245
 20
-3370.000660769669
 30
0.0
 11
-1578.544474404232
 21
229.9989830363519
 31
0.0
  0
LINE
  5
C6
330
1F
100
AcDbEntity
  8
0-0_補助線
  6
JWW_HOJO
 62
   120
370
     5
100
AcDbLine
 10
-3342.544611477749
 20
-3370.00066076967
 30
0.0
 11
-3342.545312282738
 21
229.9989830363519
 31
0.0
  0
LINE
  5
C7
330
1F
100
AcDbEntity
  8
0-3_仕上げ
  6
Continuous
 62
     7
370
     5
100
AcDbLine
 10
-3342.544626736547
 20
-3346.000544574156
 30
0.0
 11
-2148.544763534497
 21
-3346.000544574156
 31
0.0
  0
LINE
  5
C8
330
1F
100
AcDbEntity
  8
0-3_仕上げ
  6
Continuous
 62
     7
370
     5
100
AcDbLine
 10
-3342.544626736547
 20
-3334.000579215731
 30
0.0
 11
-2148.544763534497
 21
-3334.000579215731
 31
0.0
  0
LINE
  5
C9
330
1F
100
AcDbEntity
  8
0-3_仕上げ
  6
Continuous
 62
     7
370
     5
100
AcDbLine
 10
-3342.544626736547
 20
-3322.000613857306
 30
0.0
 11
-2148.544763534497
 21
-3322.000613857306
 31
0.0
  0
LINE
  5
CA
330
1F
100
AcDbEntity
  8
0-3_仕上げ
  6
Continuous
 62
     7
370
     5
100
AcDbLine
 10
-3342.544626736547
 20
-3310.000462919013
 30
0.0
 11
-2148.544763534497
 21
-3310.000462919013
 31
0.0
  0
LINE
  5
CB
330
1F
100
AcDbEntity
  8
0-3_仕上げ
  6
Continuous
 62
     7
370
     5
100
AcDbLine
 10
-3342.544626736547
 20
-3358.000695512447
 30
0.0
 11
-2148.544763534497
 21
-3358.000695512447
 31
0.0
  0
LINE
  5
CC
330
1F
100
AcDbEntity
  8
0-3_仕上げ
  6
Continuous
 62
    40
370
     5
100
AcDbLine
 10
-3342.544626736547
 20
-3298.000683140456
 30
0.0
 11
-2148.544763534497
 21
-3298.000683140456
 31
0.0
  0
LINE
  5
CD
330
1F
100
AcDbEntity
  8
0-3_仕上げ
  6
Continuous
 62
    40
370
     5
100
AcDbLine
 10
-3342.544626736547
 20
-3370.000660870872
 30
0.0
 11
-2148.544763534497
 21
-3370.000660870872
 31
0.0
  0
LWPOLYLINE
  5
CE
330
1F
100
AcDbEntity
  8
0-B_寸法
  6
Continuous
 62
     7
370
     5
100
AcDbPolyline
 90
        4
 70
     1
 43
3.0
 10
-3701.045336709573
 20
-3370.000660870872
 42
0.4142135623731
 10
-3702.545336709573
 20
-3368.500660870872
 42
0.4142135623731
 10
-3704.045336709573
 20
-3370.000660870872
 42
0.4142135623731
 10
-3702.545336709573
 20
-3371.500660870872
 42
0.4142135623731
  0
LINE
  5
CF
330
1F
100
AcDbEntity
  8
0-B_寸法
  6
Continuous
 62
   120
370
     5
100
AcDbLine
 10
-3702.545336709573
 20
-3370.000660870872
 30
0.0
 11
-3342.545376313731
 21
-3370.000660870872
 31
0.0
  0
LWPOLYLINE
  5
D0
330
1F
100
AcDbEntity
  8
0-B_寸法
  6
Continuous
 62
     7
370
     5
100
AcDbPolyline
 90
        4
 70
     1
 43
3.0
 10
-3701.045336709573
 20
-340.0010318100374
 42
0.4142135623731
 10
-3702.545336709573
 20
-338.5010318100374
 42
0.4142135623731
 10
-3704.045336709573
 20
-340.0010318100374
 42
0.4142135623731
 10
-3702.545336709573
 20
-341.5010318100374
 42
0.4142135623731
  0
LINE
  5
D1
330
1F
100
AcDbEntity
  8
0-B_寸法
  6
Continuous
 62
   120
370
     5
100
AcDbLine
 10
-3702.545336709573
 20
-3370.000660870872
 30
0.0
 11
-3702.545336709573
 21
-340.0010318100361
 31
0.0
  0
LINE
  5
D2
330
1F
100
AcDbEntity
  8
0-B_寸法
  6
Continuous
 62
   120
370
     5
100
AcDbLine
 10
-3702.545336709573
 20
-340.0010318100374
 30
0.0
 11
-3066.545335613103
 21
-340.0010318100374
 31
0.0
  0
LINE
  5
D3
330
1F
100
AcDbEntity
  8
0-0_補助線
  6
JWW_HOJO
 62
   120
370
     5
100
AcDbLine
 10
-3702.545336709573
 20
-3370.000660769669
 30
0.0
 11
-3702.546037514564
 21
229.9989830363523
 31
0.0
  0
LINE
  5
D4
330
1F
100
AcDbEntity
  8
0-0_補助線
  6
JWW_HOJO
 62
   120
370
     5
100
AcDbLine
 10
-1578.543773599245
 20
-3370.000660769669
 30
0.0
 11
-3702.545336709573
 21
-3370.000660769669
 31
0.0
  0
LINE
  5
D5
330
1F
100
AcDbEntity
  8
0-0_補助線
  6
JWW_HOJO
 62
   120
370
     5
100
AcDbLine
 10
-1578.544474404232
 20
229.9989830363511
 30
0.0
 11
-3702.546037514564
 21
229.9989830363511
 31
0.0
  0
MTEXT
  5
D6
330
1F
100
AcDbEntity
  8
0-B_寸法
  6
Continuous
 62
     7
370
   211
100
AcDbMText
 10
-2163.545336709574
 20
-543.28083385818
 30
0.0
 40
91.43999999999481
 41
59.99999999999659
 46
0.0
 71
     7
 72
     1
  1
{\fＭＳ ゴシック|b0|i0|c128|p49;9}
 11
6.123031769111886E-17
 21
1.0
 31
0.0
 73
     1
 44
1.0
  0
LINE
  5
D7
330
1F
100
AcDbEntity
  8
0-B_寸法
  6
Continuous
 62
   120
370
     5
100
AcDbLine
 10
-2148.545336709574
 20
-370.0010169636477
 30
0.0
 11
-2148.545336709574
 21
-436.0008338581792
 31
0.0
  0
LWPOLYLINE
  5
D8
330
1F
100
AcDbEntity
  8
0-B_寸法
  6
Continuous
 62
     7
370
     5
100
AcDbPolyline
 90
        4
 70
     1
 43
3.0
 10
-2147.045336709574
 20
-370.0010169636477
 42
0.4142135623731
 10
-2148.545336709574
 20
-368.5010169636477
 42
0.4142135623731
 10
-2150.045336709574
 20
-370.0010169636477
 42
0.4142135623731
 10
-2148.545336709574
 20
-371.5010169636477
 42
0.4142135623731
  0
LWPOLYLINE
  5
D9
330
1F
100
AcDbEntity
  8
0-B_寸法
  6
Continuous
 62
     7
370
     5
100
AcDbPolyline
 90
        4
 70
     1
 43
3.0
 10
-2147.045336709574
 20
-436.0008338581792
 42
0.4142135623731
 10
-2148.545336709574
 20
-434.5008338581792
 42
0.4142135623731
 10
-2150.045336709574
 20
-436.0008338581792
 42
0.4142135623731
 10
-2148.545336709574
 20
-437.5008338581792
 42
0.4142135623731
  0
LINE
  5
DA
330
1F
100
AcDbEntity
  8
0-B_寸法
  6
Continuous
 62
   120
370
     5
100
AcDbLine
 10
-2148.545336709574
 20
-370.0010169636477
 30
0.0
 11
-2280.545382485945
 21
-370.0010169636477
 31
0.0
  0
LINE
  5
DB
330
1F
100
AcDbEntity
  8
0-B_寸法
  6
Continuous
 62
   120
370
     5
100
AcDbLine
 10
-2148.545336709574
 20
-436.0008338581792
 30
0.0
 11
-2280.545382485945
 21
-436.0008338581792
 31
0.0
  0
LINE
  5
DC
330
1F
100
AcDbEntity
  8
0-B_寸法
  6
Continuous
 62
   120
370
     5
100
AcDbLine
 10
-2148.545336709574
 20
-436.0008338581792
 30
0.0
 11
-2148.545336709574
 21
-472.0008338581789
 31
0.0
  0
LWPOLYLINE
  5
DD
330
1F
100
AcDbEntity
  8
0-B_寸法
  6
Continuous
 62
     7
370
     5
100
AcDbPolyline
 90
        4
 70
     1
 43
3.0
 10
-2147.045336709574
 20
-472.0008338581789
 42
0.4142135623731
 10
-2148.545336709574
 20
-470.5008338581789
 42
0.4142135623731
 10
-2150.045336709574
 20
-472.0008338581789
 42
0.4142135623731
 10
-2148.545336709574
 20
-473.5008338581789
 42
0.4142135623731
  0
LINE
  5
DE
330
1F
100
AcDbEntity
  8
0-B_寸法
  6
Continuous
 62
   120
370
     5
100
AcDbLine
 10
-2148.545336709574
 20
-472.0008338581789
 30
0.0
 11
-2280.545382485945
 21
-472.0008338581789
 31
0.0
  0
LINE
  5
DF
330
1F
100
AcDbEntity
  8
0-B_寸法
  6
Continuous
 62
   120
370
     5
100
AcDbLine
 10
-2148.545336709574
 20
-472.0008338581789
 30
0.0
 11
-2148.545336709574
 21
-526.0008338581792
 31
0.0
  0
LWPOLYLINE
  5
E0
330
1F
100
AcDbEntity
  8
0-B_寸法
  6
Continuous
 62
     7
370
     5
100
AcDbPolyline
 90
        4
 70
     1
 43
3.0
 10
-2147.045336709574
 20
-526.0008338581792
 42
0.4142135623731
 10
-2148.545336709574
 20
-524.5008338581792
 42
0.4142135623731
 10
-2150.045336709574
 20
-526.0008338581792
 42
0.4142135623731
 10
-2148.545336709574
 20
-527.5008338581792
 42
0.4142135623731
  0
LINE
  5
E1
330
1F
100
AcDbEntity
  8
0-B_寸法
  6
Continuous
 62
   120
370
     5
100
AcDbLine
 10
-2148.545336709574
 20
-526.0008338581792
 30
0.0
 11
-2280.545382485945
 21
-526.0008338581792
 31
0.0
  0
LINE
  5
E2
330
1F
100
AcDbEntity
  8
0-B_寸法
  6
Continuous
 62
   120
370
     5
100
AcDbLine
 10
-2148.545336709574
 20
-526.0008338581792
 30
0.0
 11
-2148.545336709574
 21
-586.0008338581792
 31
0.0
  0
LWPOLYLINE
  5
E3
330
1F
100
AcDbEntity
  8
0-B_寸法
  6
Continuous
 62
     7
370
     5
100
AcDbPolyline
 90
        4
 70
     1
 43
3.0
 10
-2147.045336709574
 20
-586.0008338581792
 42
0.4142135623731
 10
-2148.545336709574
 20
-584.5008338581792
 42
0.4142135623731
 10
-2150.045336709574
 20
-586.0008338581792
 42
0.4142135623731
 10
-2148.545336709574
 20
-587.5008338581792
 42
0.4142135623731
  0
LINE
  5
E4
330
1F
100
AcDbEntity
  8
0-B_寸法
  6
Continuous
 62
   120
370
     5
100
AcDbLine
 10
-2148.545336709574
 20
-586.0008338581792
 30
0.0
 11
-2280.545382485945
 21
-586.0008338581792
 31
0.0
  0
MTEXT
  5
E5
330
1F
100
AcDbEntity
  8
0-B_寸法
  6
Continuous
 62
     7
370
   211
100
AcDbMText
 10
-2163.545336709574
 20
-366.2805913671529
 30
0.0
 40
91.44
 41
120.0
 46
0.0
 71
     7
 72
     1
  1
{\fＭＳ ゴシック|b0|i0|c128|p49;11}
 11
6.123031769111886E-17
 21
1.0
 31
0.0
 73
     1
 44
1.0
  0
MTEXT
  5
E6
330
1F
100
AcDbEntity
  8
0-B_寸法
  6
Continuous
 62
     7
370
   211
100
AcDbMText
 10
-2163.545336709574
 20
-738.2804082616832
 30
0.0
 40
91.44
 41
120.0
 46
0.0
 71
     7
 72
     1
  1
{\fＭＳ ゴシック|b0|i0|c128|p49;10}
 11
6.123031769111886E-17
 21
1.0
 31
0.0
 73
     1
 44
1.0
  0
MTEXT
  5
E7
330
1F
100
AcDbEntity
  8
0-B_寸法
  6
Continuous
 62
     7
370
   211
100
AcDbMText
 10
-2013.545336709574
 20
-498.2808338581787
 30
0.0
 40
91.44
 41
60.0
 46
0.0
 71
     7
 72
     1
  1
{\fＭＳ ゴシック|b0|i0|c128|p49;6}
 11
6.123031769111886E-17
 21
1.0
 31
0.0
 73
     1
 44
1.0
  0
LINE
  5
E8
330
1F
100
AcDbEntity
  8
0-C_ハッチ
  6
Continuous
 62
   120
370
     5
100
AcDbLine
 10
-2520.098839595732
 20
-586.1467696853878
 30
0.0
 11
-2472.545285116554
 21
-538.5932152062092
 31
0.0
  0
LINE
  5
E9
330
1F
100
AcDbEntity
  8
0-C_ハッチ
  6
Continuous
 62
   120
370
     5
100
AcDbLine
 10
-2756.480199550066
 20
-466.1463119217308
 30
0.0
 11
-2660.480840419194
 21
-370.1469527908591
 31
0.0
  0
LINE
  5
EA
330
1F
100
AcDbEntity
  8
0-C_ハッチ
  6
Continuous
 62
   120
370
     5
100
AcDbLine
 10
-2995.274596553087
 20
-586.1467696854044
 30
0.0
 11
-2779.274779658544
 21
-370.1469527908566
 31
0.0
  0
LINE
  5
EB
330
1F
100
AcDbEntity
  8
0-C_ハッチ
  6
Continuous
 62
   120
370
     5
100
AcDbLine
 10
-2826.083657812301
 20
-586.1467696853933
 30
0.0
 11
-2823.544913278182
 21
-583.6080251512772
 31
0.0
  0
LINE
  5
EC
330
1F
100
AcDbEntity
  8
0-C_ハッチ
  6
Continuous
 62
   120
370
     5
100
AcDbLine
 10
-2935.877626933429
 20
-586.1467696853912
 30
0.0
 11
-2823.544913278182
 21
-473.8140560301439
 31
0.0
  0
LINE
  5
ED
330
1F
100
AcDbEntity
  8
0-C_ハッチ
  6
Continuous
 62
   120
370
     5
100
AcDbLine
 10
-2815.877169169761
 20
-466.1463119217214
 30
0.0
 11
-2719.877810038889
 21
-370.1469527908523
 31
0.0
  0
LINE
  5
EE
330
1F
100
AcDbEntity
  8
0-C_ハッチ
  6
Continuous
 62
   120
370
     5
100
AcDbLine
 10
-2876.480657313721
 20
-586.1467696853856
 30
0.0
 11
-2823.544913278182
 21
-533.211025649847
 31
0.0
  0
LINE
  5
EF
330
1F
100
AcDbEntity
  8
0-4_枠
  6
Continuous
 62
    92
370
     5
100
AcDbLine
 10
-2472.545339888495
 20
-526.1467696853933
 30
0.0
 11
-2472.545352604166
 21
-586.1467696853933
 31
0.0
  0
LINE
  5
F0
330
1F
100
AcDbEntity
  8
0-4_枠
  6
Continuous
 62
    92
370
     5
100
AcDbLine
 10
-2472.545320814993
 20
-436.1467696853933
 30
0.0
 11
-2472.545328444394
 21
-472.1467696853938
 31
0.0
  0
LINE
  5
F1
330
1F
100
AcDbEntity
  8
0-4_枠
  6
Continuous
 62
    92
370
     5
100
AcDbLine
 10
-2514.545328444393
 20
-436.1467696853933
 30
0.0
 11
-2472.545320814993
 21
-436.1467696853933
 31
0.0
  0
LINE
  5
F2
330
1F
100
AcDbEntity
  8
0-4_枠
  6
Continuous
 62
    92
370
     5
100
AcDbLine
 10
-2514.545328444393
 20
-436.1467696853933
 30
0.0
 11
-2514.545328444393
 21
-370.1469527908625
 31
0.0
  0
LINE
  5
F3
330
1F
100
AcDbEntity
  8
0-4_枠
  6
Continuous
 62
    92
370
     5
100
AcDbLine
 10
-2823.546012983878
 20
-466.1463119217214
 30
0.0
 11
-2655.545760140975
 21
-466.1463119217214
 31
0.0
  0
LINE
  5
F4
330
1F
100
AcDbEntity
  8
0-4_枠
  6
Continuous
 62
    92
370
     5
100
AcDbLine
 10
-2871.545352604161
 20
-370.1469527908625
 30
0.0
 11
-2514.545328444393
 21
-370.1469527908625
 31
0.0
  0
LINE
  5
F5
330
1F
100
AcDbEntity
  8
0-4_枠
  6
Continuous
 62
    92
370
     5
100
AcDbLine
 10
-2871.545352604161
 20
-370.1469527908625
 30
0.0
 11
-2871.545360233562
 21
-406.1469527908622
 31
0.0
  0
LINE
  5
F6
330
1F
100
AcDbEntity
  8
0-4_枠
  6
Continuous
 62
    92
370
     5
100
AcDbLine
 10
-3006.545360233565
 20
-406.1469527908627
 30
0.0
 11
-2871.545360233562
 21
-406.1469527908627
 31
0.0
  0
LINE
  5
F7
330
1F
100
AcDbEntity
  8
0-4_枠
  6
Continuous
 62
    92
370
     5
100
AcDbLine
 10
-3006.545360233565
 20
-406.1469527908627
 30
0.0
 11
-3006.545398380532
 21
-586.1467696853933
 31
0.0
  0
LINE
  5
F8
330
1F
100
AcDbEntity
  8
0-4_枠
  6
Continuous
 62
    92
370
     5
100
AcDbLine
 10
-2532.545339888495
 20
-526.1467696853933
 30
0.0
 11
-2472.545339888495
 21
-526.1467696853933
 31
0.0
  0
LINE
  5
F9
330
1F
100
AcDbEntity
  8
0-4_枠
  6
Continuous
 62
    92
370
     5
100
AcDbLine
 10
-2532.545328444391
 20
-472.1467696853938
 30
0.0
 11
-2532.545339888495
 21
-526.1467696853933
 31
0.0
  0
LINE
  5
FA
330
1F
100
AcDbEntity
  8
0-4_枠
  6
Continuous
 62
    92
370
     5
100
AcDbLine
 10
-2532.545328444391
 20
-472.1467696853938
 30
0.0
 11
-2472.545328444394
 21
-472.1467696853938
 31
0.0
  0
LINE
  5
FB
330
1F
100
AcDbEntity
  8
0-C_ハッチ
  6
Continuous
 62
   120
370
     5
100
AcDbLine
 10
-3006.545363005513
 20
-419.2266272788423
 30
0.0
 11
-2993.465688517536
 21
-406.1469527908627
 31
0.0
  0
LINE
  5
FC
330
1F
100
AcDbEntity
  8
0-C_ハッチ
  6
Continuous
 62
   120
370
     5
100
AcDbLine
 10
-3006.545375593385
 20
-478.6236094863497
 30
0.0
 11
-2934.068718897897
 21
-406.1469527908627
 31
0.0
  0
LINE
  5
FD
330
1F
100
AcDbEntity
  8
0-C_ハッチ
  6
Continuous
 62
   120
370
     5
100
AcDbLine
 10
-2871.545359570993
 20
-403.0205630836588
 30
0.0
 11
-2838.671749278205
 21
-370.1469527908702
 31
0.0
  0
LINE
  5
FE
330
1F
100
AcDbEntity
  8
0-C_ハッチ
  6
Continuous
 62
   120
370
     5
100
AcDbLine
 10
-3006.545388181257
 20
-538.0205916939233
 30
0.0
 11
-2874.671749278197
 21
-406.1469527908627
 31
0.0
  0
LINE
  5
FF
330
1F
100
AcDbEntity
  8
0-C_ハッチ
  6
Continuous
 62
   120
370
     5
100
AcDbLine
 10
-2697.083229930408
 20
-466.1463119217206
 30
0.0
 11
-2601.08387079955
 21
-370.1469527908625
 31
0.0
  0
LINE
  5
100
330
1F
100
AcDbEntity
  8
0-C_ハッチ
  6
Continuous
 62
   120
370
     5
100
AcDbLine
 10
-2655.544660435279
 20
-484.004712046293
 30
0.0
 11
-2541.68690117985
 21
-370.1469527908625
 31
0.0
  0
LINE
  5
101
330
1F
100
AcDbEntity
  8
0-C_ハッチ
  6
Continuous
 62
   120
370
     5
100
AcDbLine
 10
-2655.544660435279
 20
-543.4016816659403
 30
0.0
 11
-2514.545328444393
 21
-402.4023496750519
 31
0.0
  0
LINE
  5
102
330
1F
100
AcDbEntity
  8
0-C_ハッチ
  6
Continuous
 62
   120
370
     5
100
AcDbLine
 10
-2638.892778835036
 20
-586.1467696853975
 30
0.0
 11
-2532.545330066179
 21
-479.7993209165406
 31
0.0
  0
LINE
  5
103
330
1F
100
AcDbEntity
  8
0-C_ハッチ
  6
Continuous
 62
   120
370
     5
100
AcDbLine
 10
-2524.892778835034
 20
-472.1467696853938
 30
0.0
 11
-2488.892778835033
 21
-436.1467696853933
 31
0.0
  0
LINE
  5
104
330
1F
100
AcDbEntity
  8
0-C_ハッチ
  6
Continuous
 62
   120
370
     5
100
AcDbLine
 10
-2579.495809215392
 20
-586.1467696854002
 30
0.0
 11
-2519.495809215386
 21
-526.1467696853933
 31
0.0
  0
LINE
  5
105
330
1F
100
AcDbEntity
  8
0-4_枠
  6
Continuous
 62
    92
370
     5
100
AcDbLine
 10
-3006.545398380532
 20
-586.1467696853933
 30
0.0
 11
-2823.546012983878
 21
-586.1467696853933
 31
0.0
  0
LINE
  5
106
330
1F
100
AcDbEntity
  8
0-4_枠
  6
Continuous
 62
    92
370
     5
100
AcDbLine
 10
-2823.546012983878
 20
-586.1467696853933
 30
0.0
 11
-2823.546012983878
 21
-466.1463119217214
 31
0.0
  0
LINE
  5
107
330
1F
100
AcDbEntity
  8
0-4_枠
  6
Continuous
 62
    92
370
     5
100
AcDbLine
 10
-2655.545760140975
 20
-586.1467696853933
 30
0.0
 11
-2472.545352604166
 21
-586.1467696853933
 31
0.0
  0
LINE
  5
108
330
1F
100
AcDbEntity
  8
0-4_枠
  6
Continuous
 62
    92
370
     5
100
AcDbLine
 10
-2655.545760140975
 20
-466.1463119217214
 30
0.0
 11
-2655.545760140975
 21
-586.1467696853933
 31
0.0
  0
LINE
  5
109
330
1F
100
AcDbEntity
  8
0-0_補助線
  6
JWW_HOJO
 62
   120
370
     5
100
AcDbLine
 10
-3522.545336709577
 20
-3370.000625729415
 30
0.0
 11
-3522.546037514568
 21
229.9990180766055
 31
0.0
  0
LINE
  5
10A
330
1F
100
AcDbEntity
  8
0-0_補助線
  6
JWW_HOJO
 62
   120
370
     5
100
AcDbLine
 10
-2509.859568687197
 20
-1870.001135734764
 30
0.0
 11
-2969.231104731957
 21
-1870.001135734764
 31
0.0
  0
LINE
  5
10B
330
1F
100
AcDbEntity
  8
0-0_補助線
  6
JWW_HOJO
 62
   120
370
     5
100
AcDbLine
 10
-2509.859568687197
 20
-1990.001135734764
 30
0.0
 11
-2969.231104731957
 21
-1990.001135734764
 31
0.0
  0
LINE
  5
10C
330
1F
100
AcDbEntity
  8
0-4_枠
  6
Continuous
 62
   120
370
     5
100
AcDbLine
 10
-3015.54533670958
 20
-3298.000683140456
 30
0.0
 11
-3015.54533670958
 21
-370.1469527908625
 31
0.0
  0
LINE
  5
10D
330
1F
100
AcDbEntity
  8
0-B_寸法
  6
Continuous
 62
   120
370
     5
100
AcDbLine
 10
-2820.544787393176
 20
-1232.99060634551
 30
0.0
 11
-2658.544787393177
 21
-1232.99060634551
 31
0.0
  0
LWPOLYLINE
  5
10E
330
1F
100
AcDbEntity
  8
0-B_寸法
  6
Continuous
 62
     7
370
     5
100
AcDbPolyline
 90
        4
 70
     1
 43
3.0
 10
-2819.044787393176
 20
-1232.99060634551
 42
0.4142135623731
 10
-2820.544787393176
 20
-1231.49060634551
 42
0.4142135623731
 10
-2822.044787393176
 20
-1232.99060634551
 42
0.4142135623731
 10
-2820.544787393176
 20
-1234.49060634551
 42
0.4142135623731
  0
LINE
  5
10F
330
1F
100
AcDbEntity
  8
0-B_寸法
  6
Continuous
 62
   120
370
     5
100
AcDbLine
 10
-2820.544787393176
 20
-1148.753677766538
 30
0.0
 11
-2820.544787393176
 21
-1232.99060634551
 31
0.0
  0
LWPOLYLINE
  5
110
330
1F
100
AcDbEntity
  8
0-B_寸法
  6
Continuous
 62
     7
370
     5
100
AcDbPolyline
 90
        4
 70
     1
 43
3.0
 10
-2657.044787393177
 20
-1232.99060634551
 42
0.4142135623731
 10
-2658.544787393177
 20
-1231.49060634551
 42
0.4142135623731
 10
-2660.044787393177
 20
-1232.99060634551
 42
0.4142135623731
 10
-2658.544787393177
 20
-1234.49060634551
 42
0.4142135623731
  0
LINE
  5
111
330
1F
100
AcDbEntity
  8
0-B_寸法
  6
Continuous
 62
   120
370
     5
100
AcDbLine
 10
-2658.544787393177
 20
-1148.753677766538
 30
0.0
 11
-2658.544787393177
 21
-1232.99060634551
 31
0.0
  0
MTEXT
  5
112
330
1F
100
AcDbEntity
  8
0-B_寸法
  6
Continuous
 62
     7
370
     0
100
AcDbMText
 10
-2855.794232817657
 20
-1393.489229742412
 30
0.0
 40
91.43999999999986
 41
239.9999999999996
 46
0.0
 71
     7
 72
     1
  1
{\fＭＳ ゴシック|b0|i0|c128|p49;(24)}
 11
0.9999999999914964
 21
-4.124000483563069E-6
 31
0.0
 73
     1
 44
1.0
  0
MTEXT
  5
113
330
1F
100
AcDbEntity
  8
0-B_寸法
  6
Continuous
 62
     7
370
     0
100
AcDbMText
 10
-2799.545336709071
 20
-1232.270989877436
 30
0.0
 40
91.44000000000311
 41
120.0000000000041
 46
0.0
 71
     7
 72
     1
  1
{\fＭＳ ゴシック|b0|i0|c128|p49;27}
 11
0.9999999999914964
 21
4.124000465566128E-6
 31
0.0
 73
     1
 44
1.0
  0
MTEXT
  5
114
330
1F
100
AcDbEntity
  8
0-A_文字
  6
Continuous
 62
     7
370
     5
100
AcDbMText
 10
-3763.062520772506
 20
426.8069190289071
 30
0.0
 40
91.44
 41
600.0
 46
0.0
 71
     7
 72
     1
  1
{\fＭＳ ゴシック|b0|i0|c128|p49;■縦断面図}
 73
     1
 44
1.0
  0
MTEXT
  5
115
330
1F
100
AcDbEntity
  8
0-A_文字
  6
Continuous
 62
     7
370
     5
100
AcDbMText
 10
4278.667643811961
 20
3554.775383504013
 30
0.0
 40
63.55080000000001
 41
1042.5
 46
0.0
 71
     7
 72
     1
  1
{\fＭＳ ゴシック|b0|i0|c128|p49;上吊軸固定/フリーオープン}
 73
     1
 44
1.0
  0
LINE
  5
116
330
1F
100
AcDbEntity
  8
0-A_文字
  6
Continuous
 62
    92
370
     5
100
AcDbLine
 10
5369.917643811961
 20
3684.999983504013
 30
0.0
 11
4229.917643811961
 21
3684.999983504013
 31
0.0
  0
LINE
  5
117
330
1F
100
AcDbEntity
  8
0-A_文字
  6
Continuous
 62
    92
370
     5
100
AcDbLine
 10
5369.917643811961
 20
3540.999983504012
 30
0.0
 11
4229.917643811961
 21
3540.999983504012
 31
0.0
  0
LINE
  5
118
330
1F
100
AcDbEntity
  8
戸当り
  6
Continuous
 62
    40
370
     5
100
AcDbLine
 10
4439.917643811961
 20
3385.504011182749
 30
0.0
 11
4259.917643811961
 21
3385.504011182749
 31
0.0
  0
LINE
  5
119
330
1F
100
AcDbEntity
  8
戸当り
  6
Continuous
 62
    40
370
     5
100
AcDbLine
 10
4439.917643811961
 20
3439.504011182748
 30
0.0
 11
4259.917643811961
 21
3439.504011182748
 31
0.0
  0
LINE
  5
11A
330
1F
100
AcDbEntity
  8
戸当り
  6
Continuous
 62
    40
370
     5
100
AcDbLine
 10
4439.917643811961
 20
3439.504011182748
 30
0.0
 11
4439.917643811961
 21
3385.504011182749
 31
0.0
  0
LINE
  5
11B
330
1F
100
AcDbEntity
  8
戸当り
  6
Continuous
 62
    40
370
     5
100
AcDbLine
 10
5159.917643811961
 20
3385.504011182749
 30
0.0
 11
5339.917643811961
 21
3385.504011182749
 31
0.0
  0
LINE
  5
11C
330
1F
100
AcDbEntity
  8
戸当り
  6
Continuous
 62
    40
370
     5
100
AcDbLine
 10
5159.917643811961
 20
3439.504011182748
 30
0.0
 11
5339.917643811961
 21
3439.504011182748
 31
0.0
  0
LINE
  5
11D
330
1F
100
AcDbEntity
  8
戸当り
  6
Continuous
 62
    40
370
     5
100
AcDbLine
 10
5159.917643811961
 20
3439.504011182748
 30
0.0
 11
5159.917643811961
 21
3385.504011182749
 31
0.0
  0
LINE
  5
11E
330
1F
100
AcDbEntity
  8
戸当り
  6
JWW_DASHED2
 62
     7
370
     5
100
AcDbLine
 10
5159.917643811961
 20
3385.504011182749
 30
0.0
 11
4439.917643811961
 21
3385.504011182749
 31
0.0
  0
LINE
  5
11F
330
1F
100
AcDbEntity
  8
戸当り
  6
Continuous
 62
    40
370
     5
100
AcDbLine
 10
5159.917643811961
 20
3385.504011182749
 30
0.0
 11
5097.801072987355
 21
3153.681812873372
 31
0.0
  0
LINE
  5
120
330
1F
100
AcDbEntity
  8
戸当り
  6
Continuous
 62
    40
370
     5
100
AcDbLine
 10
5035.684502162751
 20
3385.504011182749
 30
0.0
 11
5097.801072987355
 21
3153.681812873372
 31
0.0
  0
LINE
  5
121
330
1F
100
AcDbEntity
  8
戸当り
  6
Continuous
 62
    40
370
     5
100
AcDbLine
 10
4502.034214636565
 20
3153.681812873372
 30
0.0
 11
4439.917643811961
 21
3385.504011182749
 31
0.0
  0
LINE
  5
122
330
1F
100
AcDbEntity
  8
戸当り
  6
Continuous
 62
    40
370
     5
100
AcDbLine
 10
4502.034214636565
 20
3153.681812873372
 30
0.0
 11
4564.150785461171
 21
3385.504011182749
 31
0.0
  0
CIRCLE
  5
123
330
1F
100
AcDbEntity
  8
0-0_補助線
  6
JWW_HOJO
 62
   120
370
     5
100
AcDbCircle
 10
4444.047372024825
 20
3385.504011182749
 30
0.0
 40
240.0
  0
CIRCLE
  5
124
330
1F
100
AcDbEntity
  8
0-0_補助線
  6
JWW_HOJO
 62
   120
370
     5
100
AcDbCircle
 10
4799.917643811961
 20
3385.504011182749
 30
0.0
 40
240.0
  0
CIRCLE
  5
125
330
1F
100
AcDbEntity
  8
0-0_補助線
  6
JWW_HOJO
 62
   120
370
     5
100
AcDbCircle
 10
5159.917643811961
 20
3385.504011182749
 30
0.0
 40
240.0
  0
LINE
  5
126
330
1F
100
AcDbEntity
  8
0-0_補助線
  6
JWW_HOJO
 62
   120
370
     5
100
AcDbLine
 10
4799.917643811961
 20
3684.999983504013
 30
0.0
 11
4799.917643811961
 21
2718.999983504013
 31
0.0
  0
LINE
  5
127
330
1F
100
AcDbEntity
  8
0-0_補助線
  6
JWW_HOJO
 62
   120
370
     5
100
AcDbLine
 10
4259.917643811961
 20
3684.999983504013
 30
0.0
 11
4259.917643811961
 21
2718.999983504013
 31
0.0
  0
LINE
  5
128
330
1F
100
AcDbEntity
  8
0-0_補助線
  6
JWW_HOJO
 62
   120
370
     5
100
AcDbLine
 10
5339.917643811961
 20
3684.999983504013
 30
0.0
 11
5339.917643811961
 21
2718.999983504013
 31
0.0
  0
LINE
  5
129
330
1F
100
AcDbEntity
  8
0-A_文字
  6
Continuous
 62
    92
370
     5
100
AcDbLine
 10
4229.917643811961
 20
3684.999983504013
 30
0.0
 11
4229.917643811961
 21
2718.999983504013
 31
0.0
  0
LINE
  5
12A
330
1F
100
AcDbEntity
  8
0-A_文字
  6
Continuous
 62
    92
370
     5
100
AcDbLine
 10
5369.917643811961
 20
2718.999983504013
 30
0.0
 11
4229.917643811961
 21
2718.999983504013
 31
0.0
  0
LINE
  5
12B
330
1F
100
AcDbEntity
  8
0-A_文字
  6
Continuous
 62
    92
370
     5
100
AcDbLine
 10
5369.917643811961
 20
3684.999983504013
 30
0.0
 11
5369.917643811961
 21
2718.999983504013
 31
0.0
  0
ELLIPSE
  5
12C
330
1F
100
AcDbEntity
  8
戸当り
  6
Continuous
 62
    92
370
     5
100
AcDbEllipse
 10
4724.517918944779
 20
2927.884230441196
 30
0.0
 11
-17.7763823922528
 21
100.8148742797557
 31
0.0
210
0.0
220
0.0
230
1.0
 40
0.4000000000000001
 41
1.850633272656679
 42
2.442876790075129
  0
ELLIPSE
  5
12D
330
1F
100
AcDbEntity
  8
戸当り
  6
Continuous
 62
    92
370
     5
100
AcDbEllipse
 10
4724.517918944779
 20
2927.884230441196
 30
0.0
 11
-17.7763823922528
 21
100.8148742797557
 31
0.0
210
0.0
220
0.0
230
1.0
 40
0.4000000000000001
 41
3.840308517104466
 42
4.432552034522944
  0
ELLIPSE
  5
12E
330
1F
100
AcDbEntity
  8
戸当り
  6
Continuous
 62
    92
370
     5
100
AcDbEllipse
 10
4724.098172894875
 20
2930.264728582853
 30
0.0
 11
-14.67024424252691
 21
83.19908946199426
 31
0.0
210
0.0
220
0.0
230
1.0
 40
0.5
 41
4.340591432030095
 42
8.225779182329084
  0
LINE
  5
12F
330
1F
100
AcDbEntity
  8
戸当り
  6
Continuous
 62
    92
370
     5
100
AcDbLine
 10
4764.067802717541
 20
2855.267181117928
 30
0.0
 11
4712.189678628002
 21
2846.1196681324
 31
0.0
  0
LINE
  5
130
330
1F
100
AcDbEntity
  8
戸当り
  6
Continuous
 62
    92
370
     5
100
AcDbLine
 10
4766.255769756144
 20
2842.858603429973
 30
0.0
 11
4714.377645666606
 21
2833.711090444447
 31
0.0
  0
ELLIPSE
  5
131
330
1F
100
AcDbEntity
  8
戸当り
  6
Continuous
 62
    92
370
     5
100
AcDbEllipse
 10
4740.316707711373
 20
2838.28484693721
 30
0.0
 11
-7.622927487939132
 21
43.23177007461331
 31
0.0
210
0.0
220
0.0
230
1.0
 40
0.6000000000000001
 41
1.570796326794897
 42
4.71238898038469
  0
ELLIPSE
  5
132
330
1F
100
AcDbEntity
  8
戸当り
  6
Continuous
 62
    92
370
     5
100
AcDbEllipse
 10
4878.978687882654
 20
2963.935065931004
 30
0.0
 11
26.49533313827761
 21
98.88192943551533
 31
0.0
210
0.0
220
0.0
230
0.9999999999999999
 40
0.4
 41
1.850633272656679
 42
2.442876790075129
  0
ELLIPSE
  5
133
330
1F
100
AcDbEntity
  8
戸当り
  6
Continuous
 62
    92
370
     5
100
AcDbEllipse
 10
4878.978687882654
 20
2963.935065931004
 30
0.0
 11
26.49533313827761
 21
98.88192943551533
 31
0.0
210
0.0
220
0.0
230
0.9999999999999999
 40
0.4
 41
3.840308517104466
 42
4.432552034522944
  0
ELLIPSE
  5
134
330
1F
100
AcDbEntity
  8
戸当り
  6
Continuous
 62
    92
370
     5
100
AcDbEllipse
 10
4879.604310755758
 20
2966.269922279796
 30
0.0
 11
21.86569797210526
 21
81.6038957748525
 31
0.0
210
0.0
220
0.0
230
1.0
 40
0.5
 41
4.340591432030095
 42
8.225779182329084
  0
LINE
  5
135
330
1F
100
AcDbEntity
  8
戸当り
  6
Continuous
 62
    92
370
     5
100
AcDbLine
 10
4884.133764364564
 20
2881.407165525609
 30
0.0
 11
4833.25031048817
 21
2895.041345899896
 31
0.0
  0
LINE
  5
136
330
1F
100
AcDbEntity
  8
戸当り
  6
Continuous
 62
    92
370
     5
100
AcDbLine
 10
4880.872644396272
 20
2869.236500114367
 30
0.0
 11
4829.989190519878
 21
2882.870680488653
 31
0.0
  0
ELLIPSE
  5
137
330
1F
100
AcDbEntity
  8
戸当り
  6
Continuous
 62
    92
370
     5
100
AcDbEllipse
 10
4855.430917458078
 20
2876.053590301511
 30
0.0
 11
11.36181697857171
 21
42.40287823032828
 31
0.0
210
0.0
220
0.0
230
0.9999999999999999
 40
0.6
 41
1.570796326794897
 42
4.71238898038469
  0
MTEXT
  5
138
330
1F
100
AcDbEntity
  8
0-A_文字
  6
Continuous
 62
     7
370
     0
100
AcDbMText
 10
-3702.545336709572
 20
-3613.551939285731
 30
0.0
 40
68.58000000000001
 41
1395.0
 46
0.0
 71
     7
 72
     1
  1
{\fＭＳ ゴシック|b0|i0|c128|p49;※ 扉厚（　）内はルーバーの場合}
 73
     1
 44
1.0
  0
MTEXT
  5
139
330
1F
100
AcDbEntity
  8
0-B_寸法
  6
Continuous
 62
     7
370
     0
100
AcDbMText
 10
-1953.544820280172
 20
-2256.810207048826
 30
0.0
 40
91.43999999999997
 41
660.0
 46
0.0
 71
     7
 72
     1
  1
{\fＭＳ ゴシック|b0|i0|c128|p49;ＤＨ＝1,983}
 11
6.123031769111886E-17
 21
1.0
 31
0.0
 73
     1
 44
1.0
  0
MTEXT
  5
13A
330
1F
100
AcDbEntity
  8
0-B_寸法
  6
Continuous
 62
     7
370
     0
100
AcDbMText
 10
-1773.544073938678
 20
-2256.810207048826
 30
0.0
 40
91.43999999999997
 41
660.0
 46
0.0
 71
     7
 72
     1
  1
{\fＭＳ ゴシック|b0|i0|c128|p49;枠内＝2,002}
 11
6.123031769111886E-17
 21
1.0
 31
0.0
 73
     1
 44
1.0
  0
MTEXT
  5
13B
330
1F
100
AcDbEntity
  8
0-B_寸法
  6
Continuous
 62
     7
370
     0
100
AcDbMText
 10
-1593.545330242664
 20
-2256.810207048826
 30
0.0
 40
91.43999999999997
 41
660.0
 46
0.0
 71
     7
 72
     1
  1
{\fＭＳ ゴシック|b0|i0|c128|p49;枠外＝2,038}
 11
6.123031769111886E-17
 21
1.0
 31
0.0
 73
     1
 44
1.0
  0
MTEXT
  5
13C
330
1F
100
AcDbEntity
  8
0-B_寸法
  6
Continuous
 62
     7
370
   211
100
AcDbMText
 10
-3717.545336709573
 20
-2316.810207048826
 30
0.0
 40
91.43999999999997
 41
780.0
 46
0.0
 71
     7
 72
     1
  1
{\fＭＳ ゴシック|b0|i0|c128|p49;ＲＯＨ＝2,055}
 11
6.123031769111886E-17
 21
1.0
 31
0.0
 73
     1
 44
1.0
  0
MTEXT
  5
13D
330
1F
100
AcDbEntity
  8
0-A_文字
  6
Continuous
 62
     7
370
     5
100
AcDbMText
 10
-2765.094777794652
 20
3268.438686175965
 30
0.0
 40
100.584
 41
660.0
 46
0.0
 71
     7
 72
     1
  1
{\fＭＳ ゴシック|b0|i0|c128|p49;■横断面図}
 73
     1
 44
1.0
  0
LINE
  5
13E
330
1F
100
AcDbEntity
  8
0-0_補助線
  6
JWW_HOJO
 62
     7
370
     5
100
AcDbLine
 10
9.918542843316231
 20
906.945997789479
 30
0.0
 11
9.918542843316231
 21
3141.945997789481
 31
0.0
  0
MTEXT
  5
13F
330
1F
100
AcDbEntity
  8
0-A_文字
  6
Continuous
 62
     7
370
     5
100
AcDbMText
 10
-608.0824345379709
 20
826.7393311228122
 30
0.0
 40
79.58666666666657
 41
2819.999999999996
 46
0.0
 71
     7
 72
     1
  1
{\fＭＳ ゴシック|b0|i0|c128|p49;※有効開口寸法は扉の厚さや調整によって若干異なります。}
 73
     1
 44
1.0
  0
MTEXT
  5
140
330
1F
100
AcDbEntity
  8
0-A_文字
  6
Continuous
 62
     7
370
     5
100
AcDbMText
 10
-83.08243453797161
 20
931.6912250622061
 30
0.0
 40
79.49045454545431
 41
2294.999999999993
 46
0.0
 71
     7
 72
     1
  1
{\fＭＳ ゴシック|b0|i0|c128|p49;※有効開口寸法にはハンドルの突出は含まない。}
 73
     1
 44
1.0
  0
MTEXT
  5
141
330
1F
100
AcDbEntity
  8
0-B_寸法
  6
Continuous
 62
     7
370
   211
100
AcDbMText
 10
-71.01590454956408
 20
1447.665997789481
 30
0.0
 40
91.44
 41
60.0
 46
0.0
 71
     7
 72
     1
  1
{\fＭＳ ゴシック|b0|i0|c128|p49;2}
 73
     1
 44
1.0
  0
MTEXT
  5
142
330
1F
100
AcDbEntity
  8
0-B_寸法
  6
Continuous
 62
     7
370
   211
100
AcDbMText
 10
-1446.581463339679
 20
1447.665997789481
 30
0.0
 40
91.43999999999998
 41
900.0
 46
0.0
 71
     7
 72
     1
  1
{\fＭＳ ゴシック|b0|i0|c128|p49;折戸：ＤＷ＝566}
 73
     1
 44
1.0
  0
MTEXT
  5
143
330
1F
100
AcDbEntity
  8
0-B_寸法
  6
Continuous
 62
     7
370
   211
100
AcDbMText
 10
-819.5816272730619
 20
1627.665997789481
 30
0.0
 40
91.44000000000011
 41
660.0000000000009
 46
0.0
 71
     7
 72
     1
  1
{\fＭＳ ゴシック|b0|i0|c128|p49;ＤＷ＝282.5}
 73
     1
 44
1.0
  0
LINE
  5
144
330
1F
100
AcDbEntity
  8
0-B_寸法
  6
Continuous
 62
   120
370
     5
100
AcDbLine
 10
3.918542843316573
 20
1446.945997789481
 30
0.0
 11
3.918542843316573
 21
1806.945997789481
 31
0.0
  0
LWPOLYLINE
  5
145
330
1F
100
AcDbEntity
  8
0-B_寸法
  6
Continuous
 62
     7
370
     5
100
AcDbPolyline
 90
        4
 70
     1
 43
3.0
 10
5.418542843316573
 20
1446.945997789481
 42
0.4142135623731
 10
3.918542843316573
 20
1448.445997789481
 42
0.4142135623731
 10
2.418542843316573
 20
1446.945997789481
 42
0.4142135623731
 10
3.918542843316573
 20
1445.445997789481
 42
0.4142135623731
  0
LINE
  5
146
330
1F
100
AcDbEntity
  8
0-B_寸法
  6
Continuous
 62
   120
370
     5
100
AcDbLine
 10
-983.0817973894395
 20
1626.945997789481
 30
0.0
 11
-983.0817973894395
 21
1806.945997789481
 31
0.0
  0
LWPOLYLINE
  5
147
330
1F
100
AcDbEntity
  8
0-B_寸法
  6
Continuous
 62
     7
370
     5
100
AcDbPolyline
 90
        4
 70
     1
 43
3.0
 10
5.418542843316573
 20
1626.945997789481
 42
0.4142135623731
 10
3.918542843316573
 20
1628.445997789481
 42
0.4142135623731
 10
2.418542843316573
 20
1626.945997789481
 42
0.4142135623731
 10
3.918542843316573
 20
1625.445997789481
 42
0.4142135623731
  0
LWPOLYLINE
  5
148
330
1F
100
AcDbEntity
  8
0-B_寸法
  6
Continuous
 62
     7
370
     5
100
AcDbPolyline
 90
        4
 70
     1
 43
3.0
 10
-981.5817973894395
 20
1626.945997789481
 42
0.4142135623731
 10
-983.0817973894395
 20
1628.445997789481
 42
0.4142135623731
 10
-984.5817973894394
 20
1626.945997789481
 42
0.4142135623731
 10
-983.0817973894395
 20
1625.445997789481
 42
0.4142135623731
  0
LINE
  5
149
330
1F
100
AcDbEntity
  8
0-B_寸法
  6
Continuous
 62
   120
370
     5
100
AcDbLine
 10
-983.0817973894395
 20
1626.945997789481
 30
0.0
 11
3.918542843316573
 21
1626.945997789481
 31
0.0
  0
LINE
  5
14A
330
1F
100
AcDbEntity
  8
0-6_扉
  6
Continuous
 62
   200
370
     5
100
AcDbLine
 10
-458.081608715074
 20
2280.94599778948
 30
0.0
 11
3.918542843316573
 21
2280.94599778948
 31
0.0
  0
LINE
  5
14B
330
1F
100
AcDbEntity
  8
0-6_扉
  6
Continuous
 62
   200
370
     5
100
AcDbLine
 10
3.918542843316573
 20
2280.94599778948
 30
0.0
 11
3.918542843316573
 21
2442.947294374153
 31
0.0
  0
LINE
  5
14C
330
1F
100
AcDbEntity
  8
0-6_扉
  6
Continuous
 62
   200
370
     5
100
AcDbLine
 10
-458.081608715074
 20
2442.947294374153
 30
0.0
 11
3.918542843316573
 21
2442.947294374153
 31
0.0
  0
LINE
  5
14D
330
1F
100
AcDbEntity
  8
0-6_扉
  6
Continuous
 62
   200
370
     5
100
AcDbLine
 10
-983.0817973894395
 20
2280.94599778948
 30
0.0
 11
-518.081608715074
 21
2280.94599778948
 31
0.0
  0
LINE
  5
14E
330
1F
100
AcDbEntity
  8
0-6_扉
  6
Continuous
 62
   200
370
     5
100
AcDbLine
 10
-983.0817973894395
 20
2442.945997789482
 30
0.0
 11
-518.081608715074
 21
2442.945997789482
 31
0.0
  0
LINE
  5
14F
330
1F
100
AcDbEntity
  8
0-6_扉
  6
Continuous
 62
   200
370
     5
100
AcDbLine
 10
-983.0817973894395
 20
2442.947294374153
 30
0.0
 11
-518.081608715074
 21
2442.947294374153
 31
0.0
  0
LINE
  5
150
330
1F
100
AcDbEntity
  8
0-0_補助線
  6
JWW_HOJO
 62
     7
370
     5
100
AcDbLine
 10
-518.081608715074
 20
2442.947294374153
 30
0.0
 11
-518.081608715074
 21
2280.94599778948
 31
0.0
  0
LINE
  5
151
330
1F
100
AcDbEntity
  8
0-0_補助線
  6
JWW_HOJO
 62
     7
370
     5
100
AcDbLine
 10
-458.081608715074
 20
2442.947294374153
 30
0.0
 11
-458.081608715074
 21
2280.94599778948
 31
0.0
  0
LINE
  5
152
330
1F
100
AcDbEntity
  8
0-6_扉
  6
Continuous
 62
   200
370
     5
100
AcDbLine
 10
-983.0817973894395
 20
2442.947294374153
 30
0.0
 11
-983.0817973894395
 21
2280.94599778948
 31
0.0
  0
CIRCLE
  5
153
330
1F
100
AcDbEntity
  8
0-A_文字
  6
Continuous
 62
     7
370
     5
100
AcDbCircle
 10
-986.0817602734685
 20
2472.945997789482
 30
0.0
 40
30.0
  0
CIRCLE
  5
154
330
1F
100
AcDbEntity
  8
0-A_文字
  6
Continuous
 62
     7
370
     5
100
AcDbCircle
 10
-986.0817602734685
 20
2472.945997789482
 30
0.0
 40
21.00000000000001
  0
LINE
  5
155
330
1F
100
AcDbEntity
  8
0-0_補助線
  6
JWW_HOJO
 62
     7
370
     5
100
AcDbLine
 10
-986.0817973894402
 20
906.945997789479
 30
0.0
 11
-986.0817973894402
 21
3141.945997789481
 31
0.0
  0
MTEXT
  5
156
330
1F
100
AcDbEntity
  8
0-B_寸法
  6
Continuous
 62
     7
370
   211
100
AcDbMText
 10
-1823.081670572029
 20
1627.665997789481
 30
0.0
 40
91.43999999999997
 41
660.0
 46
0.0
 71
     7
 72
     1
  1
{\fＭＳ ゴシック|b0|i0|c128|p49;ＤＷ＝282.5}
 73
     1
 44
1.0
  0
LINE
  5
157
330
1F
100
AcDbEntity
  8
0-B_寸法
  6
Continuous
 62
   120
370
     5
100
AcDbLine
 10
-1997.081543754618
 20
1446.945997789481
 30
0.0
 11
-1997.081543754618
 21
1806.945997789481
 31
0.0
  0
LWPOLYLINE
  5
158
330
1F
100
AcDbEntity
  8
0-B_寸法
  6
Continuous
 62
     7
370
     5
100
AcDbPolyline
 90
        4
 70
     1
 43
3.0
 10
-1995.581543754618
 20
1446.945997789481
 42
0.4142135623731
 10
-1997.081543754618
 20
1448.445997789481
 42
0.4142135623731
 10
-1998.581543754617
 20
1446.945997789481
 42
0.4142135623731
 10
-1997.081543754618
 20
1445.445997789481
 42
0.4142135623731
  0
LINE
  5
159
330
1F
100
AcDbEntity
  8
0-B_寸法
  6
Continuous
 62
   120
370
     5
100
AcDbLine
 10
-1997.081543754618
 20
1446.945997789481
 30
0.0
 11
3.918542843316573
 21
1446.945997789481
 31
0.0
  0
LINE
  5
15A
330
1F
100
AcDbEntity
  8
0-B_寸法
  6
Continuous
 62
   120
370
     5
100
AcDbLine
 10
-989.0817973894375
 20
1626.945997789481
 30
0.0
 11
-989.0817973894375
 21
1806.945997789481
 31
0.0
  0
LWPOLYLINE
  5
15B
330
1F
100
AcDbEntity
  8
0-B_寸法
  6
Continuous
 62
     7
370
     5
100
AcDbPolyline
 90
        4
 70
     1
 43
3.0
 10
-987.5817973894375
 20
1626.945997789481
 42
0.4142135623731
 10
-989.0817973894375
 20
1628.445997789481
 42
0.4142135623731
 10
-990.5817973894374
 20
1626.945997789481
 42
0.4142135623731
 10
-989.0817973894375
 20
1625.445997789481
 42
0.4142135623731
  0
LWPOLYLINE
  5
15C
330
1F
100
AcDbEntity
  8
0-B_寸法
  6
Continuous
 62
     7
370
     5
100
AcDbPolyline
 90
        4
 70
     1
 43
3.0
 10
-1995.581543754618
 20
1626.945997789481
 42
0.4142135623731
 10
-1997.081543754618
 20
1628.445997789481
 42
0.4142135623731
 10
-1998.581543754617
 20
1626.945997789481
 42
0.4142135623731
 10
-1997.081543754618
 20
1625.445997789481
 42
0.4142135623731
  0
LINE
  5
15D
330
1F
100
AcDbEntity
  8
0-B_寸法
  6
Continuous
 62
   120
370
     5
100
AcDbLine
 10
-1997.081543754618
 20
1626.945997789481
 30
0.0
 11
-989.0817973894375
 21
1626.945997789481
 31
0.0
  0
LINE
  5
15E
330
1F
100
AcDbEntity
  8
0-6_扉
  6
Continuous
 62
   200
370
     5
100
AcDbLine
 10
-1454.0819860638
 20
2280.94599778948
 30
0.0
 11
-989.0817973894375
 21
2280.94599778948
 31
0.0
  0
LINE
  5
15F
330
1F
100
AcDbEntity
  8
0-6_扉
  6
Continuous
 62
   200
370
     5
100
AcDbLine
 10
-1454.0819860638
 20
2442.947294374153
 30
0.0
 11
-989.0817973894375
 21
2442.947294374153
 31
0.0
  0
LINE
  5
160
330
1F
100
AcDbEntity
  8
0-6_扉
  6
Continuous
 62
   200
370
     5
100
AcDbLine
 10
-989.0817973894375
 20
2442.947294374153
 30
0.0
 11
-989.0817973894375
 21
2280.94599778948
 31
0.0
  0
LWPOLYLINE
  5
161
330
1F
100
AcDbEntity
  8
0-B_寸法
  6
Continuous
 62
     7
370
     5
100
AcDbPolyline
 90
        4
 70
     1
 43
3.0
 10
-1316.205435023241
 20
2280.94599778948
 42
0.4142135623731
 10
-1317.705435023241
 20
2282.44599778948
 42
0.4142135623731
 10
-1319.205435023241
 20
2280.94599778948
 42
0.4142135623731
 10
-1317.705435023241
 20
2279.44599778948
 42
0.4142135623731
  0
LWPOLYLINE
  5
162
330
1F
100
AcDbEntity
  8
0-B_寸法
  6
Continuous
 62
     7
370
     5
100
AcDbPolyline
 90
        4
 70
     1
 43
3.0
 10
-1316.205435023241
 20
2442.945997789482
 42
0.4142135623731
 10
-1317.705435023241
 20
2444.445997789482
 42
0.4142135623731
 10
-1319.205435023241
 20
2442.945997789482
 42
0.4142135623731
 10
-1317.705435023241
 20
2441.445997789482
 42
0.4142135623731
  0
LINE
  5
163
330
1F
100
AcDbEntity
  8
0-B_寸法
  6
Continuous
 62
   120
370
     5
100
AcDbLine
 10
-1317.705435023241
 20
2280.945354445942
 30
0.0
 11
-1317.705435023241
 21
2442.945997789482
 31
0.0
  0
MTEXT
  5
164
330
1F
100
AcDbEntity
  8
0-B_寸法
  6
Continuous
 62
     7
370
     0
100
AcDbMText
 10
-1170.413539509702
 20
2225.415225777234
 30
0.0
 40
91.44
 41
240.0
 46
0.0
 71
     7
 72
     1
  1
{\fＭＳ ゴシック|b0|i0|c128|p49;(24)}
 11
6.123031769111886E-17
 21
1.0
 31
0.0
 73
     1
 44
1.0
  0
MTEXT
  5
165
330
1F
100
AcDbEntity
  8
0-B_寸法
  6
Continuous
 62
     7
370
     0
100
AcDbMText
 10
-1332.705484511203
 20
2285.415225777234
 30
0.0
 40
91.44
 41
120.0
 46
0.0
 71
     7
 72
     1
  1
{\fＭＳ ゴシック|b0|i0|c128|p49;27}
 11
6.123031769111886E-17
 21
1.0
 31
0.0
 73
     1
 44
1.0
  0
LINE
  5
166
330
1F
100
AcDbEntity
  8
0-6_扉
  6
Continuous
 62
   200
370
     5
100
AcDbLine
 10
-1997.081444790688
 20
2280.94599778948
 30
0.0
 11
-1514.0819860638
 21
2280.94599778948
 31
0.0
  0
LINE
  5
167
330
1F
100
AcDbEntity
  8
0-6_扉
  6
Continuous
 62
   200
370
     5
100
AcDbLine
 10
-1997.081444790688
 20
2442.947294374153
 30
0.0
 11
-1514.0819860638
 21
2442.947294374153
 31
0.0
  0
LINE
  5
168
330
1F
100
AcDbEntity
  8
0-0_補助線
  6
JWW_HOJO
 62
     7
370
     5
100
AcDbLine
 10
-1514.0819860638
 20
2442.947294374153
 30
0.0
 11
-1514.0819860638
 21
2280.94599778948
 31
0.0
  0
LINE
  5
169
330
1F
100
AcDbEntity
  8
0-0_補助線
  6
JWW_HOJO
 62
     7
370
     5
100
AcDbLine
 10
-1454.0819860638
 20
2442.947294374153
 30
0.0
 11
-1454.0819860638
 21
2280.94599778948
 31
0.0
  0
LINE
  5
16A
330
1F
100
AcDbEntity
  8
0-6_扉
  6
Continuous
 62
   200
370
     5
100
AcDbLine
 10
-1997.081444790688
 20
2442.947294374153
 30
0.0
 11
-1997.081444790688
 21
2280.94599778948
 31
0.0
  0
LWPOLYLINE
  5
16B
330
1F
100
AcDbEntity
  8
0-B_寸法
  6
Continuous
 62
     7
370
     5
100
AcDbPolyline
 90
        4
 70
     1
 43
3.0
 10
-1555.879542079068
 20
2085.94679454571
 42
0.4142135623731
 10
-1557.379542079068
 20
2087.44679454571
 42
0.4142135623731
 10
-1558.879542079068
 20
2085.94679454571
 42
0.4142135623731
 10
-1557.379542079068
 20
2084.44679454571
 42
0.4142135623731
  0
LINE
  5
16C
330
1F
100
AcDbEntity
  8
0-B_寸法
  6
Continuous
 62
   120
370
     5
100
AcDbLine
 10
-1676.155110860736
 20
2085.94679454571
 30
0.0
 11
-1557.379542079068
 21
2085.94679454571
 31
0.0
  0
LWPOLYLINE
  5
16D
330
1F
100
AcDbEntity
  8
0-B_寸法
  6
Continuous
 62
     7
370
     5
100
AcDbPolyline
 90
        4
 70
     1
 43
3.0
 10
-1555.879542079068
 20
2637.945943352719
 42
0.4142135623731
 10
-1557.379542079068
 20
2639.445943352719
 42
0.4142135623731
 10
-1558.879542079068
 20
2637.945943352719
 42
0.4142135623731
 10
-1557.379542079068
 20
2636.445943352719
 42
0.4142135623731
  0
LINE
  5
16E
330
1F
100
AcDbEntity
  8
0-B_寸法
  6
Continuous
 62
   120
370
     5
100
AcDbLine
 10
-1676.155110860736
 20
2637.945943352719
 30
0.0
 11
-1557.379542079068
 21
2637.945943352719
 31
0.0
  0
LINE
  5
16F
330
1F
100
AcDbEntity
  8
0-B_寸法
  6
Continuous
 62
   120
370
     5
100
AcDbLine
 10
-1557.379542079068
 20
2085.94679454571
 30
0.0
 11
-1557.379542079068
 21
2637.945943352719
 31
0.0
  0
MTEXT
  5
170
330
1F
100
AcDbEntity
  8
0-B_寸法
  6
Continuous
 62
     7
370
     5
100
AcDbMText
 10
-1572.38070504623
 20
2287.875614365156
 30
0.0
 40
91.44
 41
120.0
 46
0.0
 71
     7
 72
     1
  1
{\fＭＳ ゴシック|b0|i0|c128|p49;92}
 11
6.123031769111886E-17
 21
1.0
 31
0.0
 73
     1
 44
1.0
  0
MTEXT
  5
171
330
1F
100
AcDbEntity
  8
0-B_寸法
  6
Continuous
 62
     7
370
     5
100
AcDbMText
 10
-1987.002075020878
 20
2311.829482386354
 30
0.0
 40
91.43999999999988
 41
179.9999999999998
 46
0.0
 71
     7
 72
     1
  1
{\fＭＳ ゴシック|b0|i0|c128|p49;2.5}
 73
     1
 44
1.0
  0
ARC
  5
172
330
1F
100
AcDbEntity
  8
0-6_扉
  6
JWW_DASHED2
 62
    40
370
     5
100
AcDbCircle
 10
-1305.930190359685
 20
2527.165932019539
 30
0.0
 40
18.0
100
AcDbArc
 50
355.653979278361
 51
85.65397927836072
  0
LINE
  5
173
330
1F
100
AcDbEntity
  8
0-6_扉
  6
JWW_DASHED2
 62
    40
370
     5
100
AcDbLine
 10
-1430.203854658344
 20
2554.662411099302
 30
0.0
 11
-1304.566156574492
 21
2545.114174602948
 31
0.0
  0
ARC
  5
174
330
1F
100
AcDbEntity
  8
0-6_扉
  6
JWW_DASHED2
 62
    40
370
     5
100
AcDbCircle
 10
-1431.567888443537
 20
2536.714168515894
 30
0.0
 40
18.0
100
AcDbArc
 50
85.6539792783607
 51
175.6539792783611
  0
ARC
  5
175
330
1F
100
AcDbEntity
  8
0-6_扉
  6
JWW_DASHED2
 62
    40
370
     5
100
AcDbCircle
 10
-1756.846830249333
 20
2538.078202301088
 30
0.0
 40
18.0
100
AcDbArc
 50
4.346020721639738
 51
94.3460207216407
  0
LINE
  5
176
330
1F
100
AcDbEntity
  8
0-6_扉
  6
JWW_DASHED2
 62
    40
370
     5
100
AcDbLine
 10
-1883.848562118382
 20
2546.478208388137
 30
0.0
 11
-1758.210864034526
 21
2556.026444884493
 31
0.0
  0
ARC
  5
177
330
1F
100
AcDbEntity
  8
0-6_扉
  6
JWW_DASHED2
 62
    40
370
     5
100
AcDbCircle
 10
-1882.484528333189
 20
2528.529965804728
 30
0.0
 40
18.0
100
AcDbArc
 50
94.34602072164084
 51
184.3460207216404
  0
LINE
  5
178
330
1F
100
AcDbEntity
  8
0-6_扉
  6
JWW_DASHED2
 62
    40
370
     5
100
AcDbLine
 10
-1287.981947776276
 20
2525.801898234345
 30
0.0
 11
-1321.410135479497
 21
2085.94679454571
 31
0.0
  0
LINE
  5
179
330
1F
100
AcDbEntity
  8
0-6_扉
  6
JWW_DASHED2
 62
    40
370
     5
100
AcDbLine
 10
-1900.432770916594
 20
2527.165932019534
 30
0.0
 11
-1866.90091912712
 21
2085.94679454571
 31
0.0
  0
LINE
  5
17A
330
1F
100
AcDbEntity
  8
0-6_扉
  6
JWW_DASHED2
 62
    40
370
     5
100
AcDbLine
 10
-1449.516131026946
 20
2538.078202301088
 30
0.0
 11
-1483.877295506386
 21
2085.94679454571
 31
0.0
  0
LINE
  5
17B
330
1F
100
AcDbEntity
  8
0-6_扉
  6
JWW_DASHED2
 62
    40
370
     5
100
AcDbLine
 10
-1738.898587665927
 20
2539.44223608628
 30
0.0
 11
-1704.433759100231
 21
2085.94679454571
 31
0.0
  0
LWPOLYLINE
  5
17C
330
1F
100
AcDbEntity
  8
0-B_寸法
  6
Continuous
 62
     7
370
     5
100
AcDbPolyline
 90
        4
 70
     1
 43
3.0
 10
-1286.481947776276
 20
2961.945997789481
 42
0.4142135623731
 10
-1287.981947776276
 20
2963.44599778948
 42
0.4142135623731
 10
-1289.481947776276
 20
2961.945997789481
 42
0.4142135623731
 10
-1287.981947776276
 20
2960.445997789481
 42
0.4142135623731
  0
LINE
  5
17D
330
1F
100
AcDbEntity
  8
0-B_寸法
  6
Continuous
 62
   120
370
     5
100
AcDbLine
 10
-1287.981947776276
 20
2961.945997789481
 30
0.0
 11
-1287.981947776276
 21
2781.945997789481
 31
0.0
  0
LINE
  5
17E
330
1F
100
AcDbEntity
  8
0-1_通り芯
  6
JWW_CENTER1
 62
   120
370
     5
100
AcDbLine
 10
-1287.981947776276
 20
2781.945997789481
 30
0.0
 11
-1287.981947776276
 21
2528.529965804735
 31
0.0
  0
LINE
  5
17F
330
1F
100
AcDbEntity
  8
0-0_補助線
  6
JWW_HOJO
 62
     7
370
     5
100
AcDbLine
 10
-1982.082137622195
 20
906.945997789479
 30
0.0
 11
-1982.082137622195
 21
3141.945997789481
 31
0.0
  0
LWPOLYLINE
  5
180
330
1F
100
AcDbEntity
  8
0-B_寸法
  6
Continuous
 62
     7
370
     5
100
AcDbPolyline
 90
        4
 70
     1
 43
3.0
 10
-1995.581444790688
 20
2324.36004749702
 42
0.4142135623731
 10
-1997.081444790688
 20
2325.86004749702
 42
0.4142135623731
 10
-1998.581444790688
 20
2324.36004749702
 42
0.4142135623731
 10
-1997.081444790688
 20
2322.86004749702
 42
0.4142135623731
  0
LINE
  5
181
330
1F
100
AcDbEntity
  8
0-B_寸法
  6
Continuous
 62
   120
370
     5
100
AcDbLine
 10
-1997.081444790688
 20
2405.689310720205
 30
0.0
 11
-1997.081444790688
 21
2324.36004749702
 31
0.0
  0
LINE
  5
182
330
1F
100
AcDbEntity
  8
0-B_寸法
  6
Continuous
 62
   120
370
     5
100
AcDbLine
 10
-2192.081444790688
 20
1086.945997789479
 30
0.0
 11
-2192.081444790688
 21
1986.945997789481
 31
0.0
  0
LINE
  5
183
330
1F
100
AcDbEntity
  8
0-B_寸法
  6
Continuous
 62
   120
370
     5
100
AcDbLine
 10
-2222.081444790678
 20
1086.945997789479
 30
0.0
 11
-2222.081444790678
 21
1986.945997789481
 31
0.0
  0
LWPOLYLINE
  5
184
330
1F
100
AcDbEntity
  8
0-B_寸法
  6
Continuous
 62
     7
370
     5
100
AcDbPolyline
 90
        4
 70
     1
 43
3.0
 10
-2190.581444790688
 20
1086.945997789479
 42
0.4142135623731
 10
-2192.081444790688
 20
1088.445997789479
 42
0.4142135623731
 10
-2193.581444790688
 20
1086.945997789479
 42
0.4142135623731
 10
-2192.081444790688
 20
1085.445997789479
 42
0.4142135623731
  0
LWPOLYLINE
  5
185
330
1F
100
AcDbEntity
  8
0-B_寸法
  6
Continuous
 62
     7
370
     5
100
AcDbPolyline
 90
        4
 70
     1
 43
3.0
 10
-2220.581444790678
 20
1086.945997789479
 42
0.4142135623731
 10
-2222.081444790678
 20
1088.445997789479
 42
0.4142135623731
 10
-2223.581444790678
 20
1086.945997789479
 42
0.4142135623731
 10
-2222.081444790678
 20
1085.445997789479
 42
0.4142135623731
  0
LINE
  5
186
330
1F
100
AcDbEntity
  8
0-B_寸法
  6
Continuous
 62
   120
370
     5
100
AcDbLine
 10
-2222.081444790678
 20
1086.945997789479
 30
0.0
 11
-2192.081444790688
 21
1086.945997789479
 31
0.0
  0
MTEXT
  5
187
330
1F
100
AcDbEntity
  8
0-B_寸法
  6
Continuous
 62
     7
370
   211
100
AcDbMText
 10
-2162.081444790687
 20
1267.665997789479
 30
0.0
 40
91.44
 41
120.0
 46
0.0
 71
     7
 72
     1
  1
{\fＭＳ ゴシック|b0|i0|c128|p49;30}
 73
     1
 44
1.0
  0
LINE
  5
188
330
1F
100
AcDbEntity
  8
0-B_寸法
  6
Continuous
 62
   120
370
     5
100
AcDbLine
 10
-2012.081444790688
 20
1266.945997789479
 30
0.0
 11
-2012.081444790688
 21
1986.945997789481
 31
0.0
  0
LWPOLYLINE
  5
189
330
1F
100
AcDbEntity
  8
0-B_寸法
  6
Continuous
 62
     7
370
     5
100
AcDbPolyline
 90
        4
 70
     1
 43
3.0
 10
-2010.581444790688
 20
1266.945997789479
 42
0.4142135623731
 10
-2012.081444790688
 20
1268.445997789479
 42
0.4142135623731
 10
-2013.581444790688
 20
1266.945997789479
 42
0.4142135623731
 10
-2012.081444790688
 20
1265.445997789479
 42
0.4142135623731
  0
LWPOLYLINE
  5
18A
330
1F
100
AcDbEntity
  8
0-B_寸法
  6
Continuous
 62
     7
370
     5
100
AcDbPolyline
 90
        4
 70
     1
 43
3.0
 10
-2190.581444790688
 20
1266.945997789479
 42
0.4142135623731
 10
-2192.081444790688
 20
1268.445997789479
 42
0.4142135623731
 10
-2193.581444790688
 20
1266.945997789479
 42
0.4142135623731
 10
-2192.081444790688
 20
1265.445997789479
 42
0.4142135623731
  0
LINE
  5
18B
330
1F
100
AcDbEntity
  8
0-B_寸法
  6
Continuous
 62
   120
370
     5
100
AcDbLine
 10
-2192.081444790688
 20
1266.945997789479
 30
0.0
 11
-2012.081444790688
 21
1266.945997789479
 31
0.0
  0
MTEXT
  5
18C
330
1F
100
AcDbEntity
  8
0-B_寸法
  6
Continuous
 62
     7
370
   211
100
AcDbMText
 10
-2129.081395314719
 20
1807.665997789481
 30
0.0
 40
91.44
 41
60.0
 46
0.0
 71
     7
 72
     1
  1
{\fＭＳ ゴシック|b0|i0|c128|p49;9}
 73
     1
 44
1.0
  0
LINE
  5
18D
330
1F
100
AcDbEntity
  8
0-7_金物
  6
Continuous
 62
     7
370
     5
100
AcDbLine
 10
-2192.081444790688
 20
2415.946032121756
 30
0.0
 11
-2198.081513455229
 21
2415.946032121756
 31
0.0
  0
LINE
  5
18E
330
1F
100
AcDbEntity
  8
0-7_金物
  6
Continuous
 62
     7
370
     5
100
AcDbLine
 10
-2198.081513455229
 20
2307.945963457205
 30
0.0
 11
-2192.081444790688
 21
2307.945963457205
 31
0.0
  0
LINE
  5
18F
330
1F
100
AcDbEntity
  8
0-7_金物
  6
Continuous
 62
     7
370
     5
100
AcDbLine
 10
-2198.081513455229
 20
2301.945797517874
 30
0.0
 11
-2198.081513455229
 21
2421.94545419512
 31
0.0
  0
LINE
  5
190
330
1F
100
AcDbEntity
  8
0-7_金物
  6
Continuous
 62
     7
370
     5
100
AcDbLine
 10
-2210.081107189972
 20
2421.94545419512
 30
0.0
 11
-2198.081513455229
 21
2421.94545419512
 31
0.0
  0
LINE
  5
191
330
1F
100
AcDbEntity
  8
0-7_金物
  6
Continuous
 62
     7
370
     5
100
AcDbLine
 10
-2210.081107189972
 20
2301.945797517874
 30
0.0
 11
-2198.081513455229
 21
2301.945797517874
 31
0.0
  0
LINE
  5
192
330
1F
100
AcDbEntity
  8
0-7_金物
  6
Continuous
 62
     7
370
     5
100
AcDbLine
 10
-2222.081444790678
 20
2271.945694521051
 30
0.0
 11
-2222.081444790678
 21
2451.945557191944
 31
0.0
  0
LINE
  5
193
330
1F
100
AcDbEntity
  8
0-7_金物
  6
Continuous
 62
     7
370
     5
100
AcDbLine
 10
-2222.081444790678
 20
2271.945694521051
 30
0.0
 11
-2210.081107189972
 21
2271.945694521051
 31
0.0
  0
LINE
  5
194
330
1F
100
AcDbEntity
  8
0-7_金物
  6
Continuous
 62
     7
370
     5
100
AcDbLine
 10
-2222.081444790678
 20
2451.945557191944
 30
0.0
 11
-2210.081107189972
 21
2451.945557191944
 31
0.0
  0
LINE
  5
195
330
1F
100
AcDbEntity
  8
0-7_金物
  6
Continuous
 62
     7
370
     5
100
AcDbLine
 10
-2210.081107189972
 20
2271.945694521051
 30
0.0
 11
-2210.081107189972
 21
2451.945557191944
 31
0.0
  0
LINE
  5
196
330
1F
100
AcDbEntity
  8
0-4_枠
  6
Continuous
 62
    92
370
     5
100
AcDbLine
 10
-2192.081444790688
 20
2637.945943352719
 30
0.0
 11
-2192.081444790688
 21
2127.946794545711
 31
0.0
  0
LINE
  5
197
330
1F
100
AcDbEntity
  8
0-4_枠
  6
Continuous
 62
    92
370
     5
100
AcDbLine
 10
-2162.081444790688
 20
2127.946794545711
 30
0.0
 11
-2192.081444790688
 21
2127.946794545711
 31
0.0
  0
LINE
  5
198
330
1F
100
AcDbEntity
  8
0-4_枠
  6
Continuous
 62
    92
370
     5
100
AcDbLine
 10
-2162.081444790688
 20
2127.946794545711
 30
0.0
 11
-2162.081444790688
 21
2085.94679454571
 31
0.0
  0
LINE
  5
199
330
1F
100
AcDbEntity
  8
0-4_枠
  6
Continuous
 62
    92
370
     5
100
AcDbLine
 10
-2126.081444790686
 20
2085.94679454571
 30
0.0
 11
-2162.081444790688
 21
2085.94679454571
 31
0.0
  0
LINE
  5
19A
330
1F
100
AcDbEntity
  8
0-C_ハッチ
  6
Continuous
 62
   120
370
     5
100
AcDbLine
 10
-2114.287700729244
 20
2637.945943352719
 30
0.0
 11
-2012.081444790688
 21
2535.740429733632
 31
0.0
  0
LINE
  5
19B
330
1F
100
AcDbEntity
  8
0-C_ハッチ
  6
Continuous
 62
   120
370
     5
100
AcDbLine
 10
-2192.081667486532
 20
2630.887227532407
 30
0.0
 11
-2012.081444790688
 21
2450.887375996299
 31
0.0
  0
LINE
  5
19C
330
1F
100
AcDbEntity
  8
0-C_ハッチ
  6
Continuous
 62
   120
370
     5
100
AcDbLine
 10
-2192.081667486532
 20
2291.47575490255
 30
0.0
 11
-2012.081444790688
 21
2111.475903366444
 31
0.0
  0
LINE
  5
19D
330
1F
100
AcDbEntity
  8
0-C_ハッチ
  6
Continuous
 62
   120
370
     5
100
AcDbLine
 10
-2012.081444790688
 20
2281.181268521637
 30
0.0
 11
-2192.081667486532
 21
2461.181120057744
 31
0.0
  0
LINE
  5
19E
330
1F
100
AcDbEntity
  8
0-C_ハッチ
  6
Continuous
 62
   120
370
     5
100
AcDbLine
 10
-2012.081444790688
 20
2196.328214784307
 30
0.0
 11
-2192.081667486532
 21
2376.328808639882
 31
0.0
  0
LINE
  5
19F
330
1F
100
AcDbEntity
  8
0-C_ハッチ
  6
Continuous
 62
   120
370
     5
100
AcDbLine
 10
-2192.081667486532
 20
2546.034173795075
 30
0.0
 11
-2012.081444790688
 21
2366.033579939502
 31
0.0
  0
LINE
  5
1A0
330
1F
100
AcDbEntity
  8
0-C_ハッチ
  6
Continuous
 62
   120
370
     5
100
AcDbLine
 10
-2162.081444790688
 20
2091.769591731948
 30
0.0
 11
-2156.258615191111
 21
2085.94679454571
 31
0.0
  0
LINE
  5
1A1
330
1F
100
AcDbEntity
  8
0-4_枠
  6
Continuous
 62
    92
370
     5
100
AcDbLine
 10
-2018.081444790686
 20
2085.94679454571
 30
0.0
 11
-2072.081444790688
 21
2085.94679454571
 31
0.0
  0
LINE
  5
1A2
330
1F
100
AcDbEntity
  8
0-4_枠
  6
Continuous
 62
    92
370
     5
100
AcDbLine
 10
-2012.081444790688
 20
2091.94679454571
 30
0.0
 11
-2018.081444790686
 21
2085.94679454571
 31
0.0
  0
LINE
  5
1A3
330
1F
100
AcDbEntity
  8
0-4_枠
  6
Continuous
 62
    92
370
     5
100
AcDbLine
 10
-2018.081444790686
 20
2637.945943352719
 30
0.0
 11
-2192.081444790688
 21
2637.945943352719
 31
0.0
  0
LINE
  5
1A4
330
1F
100
AcDbEntity
  8
0-4_枠
  6
Continuous
 62
    92
370
     5
100
AcDbLine
 10
-2012.081444790688
 20
2631.945943352719
 30
0.0
 11
-2012.081444790688
 21
2091.94679454571
 31
0.0
  0
LINE
  5
1A5
330
1F
100
AcDbEntity
  8
0-4_枠
  6
Continuous
 62
    92
370
     5
100
AcDbLine
 10
-2018.081444790686
 20
2637.945943352719
 30
0.0
 11
-2012.081444790688
 21
2631.945943352719
 31
0.0
  0
LINE
  5
1A6
330
1F
100
AcDbEntity
  8
0-C_ハッチ
  6
Continuous
 62
   120
370
     5
100
AcDbLine
 10
-2192.081444790688
 20
2588.279052834935
 30
0.0
 11
-2190.414554272907
 21
2589.945943352714
 31
0.0
  0
LINE
  5
1A7
330
1F
100
AcDbEntity
  8
0-4_枠
  6
Continuous
 62
    92
370
     5
100
AcDbLine
 10
-2126.081444790686
 20
2145.946794545712
 30
0.0
 11
-2126.081444790686
 21
2085.94679454571
 31
0.0
  0
LINE
  5
1A8
330
1F
100
AcDbEntity
  8
0-4_枠
  6
Continuous
 62
    92
370
     5
100
AcDbLine
 10
-2072.081444790688
 20
2145.946794545712
 30
0.0
 11
-2126.081444790686
 21
2145.946794545712
 31
0.0
  0
LINE
  5
1A9
330
1F
100
AcDbEntity
  8
0-4_枠
  6
Continuous
 62
    92
370
     5
100
AcDbLine
 10
-2072.081444790688
 20
2145.946794545712
 30
0.0
 11
-2072.081444790688
 21
2085.94679454571
 31
0.0
  0
LINE
  5
1AA
330
1F
100
AcDbEntity
  8
0-C_ハッチ
  6
Continuous
 62
   120
370
     5
100
AcDbLine
 10
-2192.081667486532
 20
2206.622701165219
 30
0.0
 11
-2126.081444790686
 21
2140.622845865954
 31
0.0
  0
LWPOLYLINE
  5
1AB
330
1F
100
AcDbEntity
  8
0-B_寸法
  6
Continuous
 62
     7
370
     5
100
AcDbPolyline
 90
        4
 70
     1
 43
3.0
 10
-2010.581395314724
 20
1806.945997789481
 42
0.4142135623731
 10
-2012.081395314724
 20
1808.445997789481
 42
0.4142135623731
 10
-2013.581395314724
 20
1806.945997789481
 42
0.4142135623731
 10
-2012.081395314724
 20
1805.445997789481
 42
0.4142135623731
  0
LWPOLYLINE
  5
1AC
330
1F
100
AcDbEntity
  8
0-B_寸法
  6
Continuous
 62
     7
370
     5
100
AcDbPolyline
 90
        4
 70
     1
 43
3.0
 10
-2070.581395314724
 20
1806.945997789481
 42
0.4142135623731
 10
-2072.081395314724
 20
1808.445997789481
 42
0.4142135623731
 10
-2073.581395314724
 20
1806.945997789481
 42
0.4142135623731
 10
-2072.081395314724
 20
1805.445997789481
 42
0.4142135623731
  0
LWPOLYLINE
  5
1AD
330
1F
100
AcDbEntity
  8
0-B_寸法
  6
Continuous
 62
     7
370
     5
100
AcDbPolyline
 90
        4
 70
     1
 43
3.0
 10
-2124.581395314723
 20
1806.945997789481
 42
0.4142135623731
 10
-2126.081395314723
 20
1808.445997789481
 42
0.4142135623731
 10
-2127.581395314723
 20
1806.945997789481
 42
0.4142135623731
 10
-2126.081395314723
 20
1805.445997789481
 42
0.4142135623731
  0
LWPOLYLINE
  5
1AE
330
1F
100
AcDbEntity
  8
0-B_寸法
  6
Continuous
 62
     7
370
     5
100
AcDbPolyline
 90
        4
 70
     1
 43
3.0
 10
-2160.581395314724
 20
1806.945997789481
 42
0.4142135623731
 10
-2162.081395314724
 20
1808.445997789481
 42
0.4142135623731
 10
-2163.581395314724
 20
1806.945997789481
 42
0.4142135623731
 10
-2162.081395314724
 20
1805.445997789481
 42
0.4142135623731
  0
LWPOLYLINE
  5
1AF
330
1F
100
AcDbEntity
  8
0-B_寸法
  6
Continuous
 62
     7
370
     5
100
AcDbPolyline
 90
        4
 70
     1
 43
3.0
 10
-2190.581618010561
 20
1806.945997789481
 42
0.4142135623731
 10
-2192.081618010561
 20
1808.445997789481
 42
0.4142135623731
 10
-2193.581618010561
 20
1806.945997789481
 42
0.4142135623731
 10
-2192.081618010561
 20
1805.445997789481
 42
0.4142135623731
  0
LINE
  5
1B0
330
1F
100
AcDbEntity
  8
0-B_寸法
  6
Continuous
 62
   120
370
     5
100
AcDbLine
 10
-2012.081395314724
 20
1806.945997789481
 30
0.0
 11
-2192.081618010561
 21
1806.945997789481
 31
0.0
  0
LINE
  5
1B1
330
1F
100
AcDbEntity
  8
0-B_寸法
  6
Continuous
 62
   120
370
     5
100
AcDbLine
 10
-2072.081395314724
 20
1806.945997789481
 30
0.0
 11
-2072.081395314724
 21
1986.945997789481
 31
0.0
  0
LINE
  5
1B2
330
1F
100
AcDbEntity
  8
0-B_寸法
  6
Continuous
 62
   120
370
     5
100
AcDbLine
 10
-2126.081395314723
 20
1806.945997789481
 30
0.0
 11
-2126.081395314723
 21
1986.945997789481
 31
0.0
  0
LINE
  5
1B3
330
1F
100
AcDbEntity
  8
0-B_寸法
  6
Continuous
 62
   120
370
     5
100
AcDbLine
 10
-2162.081395314724
 20
1806.945997789481
 30
0.0
 11
-2162.081395314724
 21
1986.945997789481
 31
0.0
  0
LINE
  5
1B4
330
1F
100
AcDbEntity
  8
0-0_補助線
  6
JWW_HOJO
 62
   120
370
     5
100
AcDbLine
 10
-2762.081197362861
 20
2961.945997789481
 30
0.0
 11
-2762.081197362861
 21
1086.945997789479
 31
0.0
  0
LWPOLYLINE
  5
1B5
330
1F
100
AcDbEntity
  8
0-B_寸法
  6
Continuous
 62
     7
370
     5
100
AcDbPolyline
 90
        4
 70
     1
 43
3.0
 10
-2010.581444790688
 20
2324.36004749702
 42
0.4142135623731
 10
-2012.081444790688
 20
2325.86004749702
 42
0.4142135623731
 10
-2013.581444790688
 20
2324.36004749702
 42
0.4142135623731
 10
-2012.081444790688
 20
2322.86004749702
 42
0.4142135623731
  0
LINE
  5
1B6
330
1F
100
AcDbEntity
  8
0-B_寸法
  6
Continuous
 62
   120
370
     5
100
AcDbLine
 10
-2012.081444790688
 20
2405.689310720205
 30
0.0
 11
-2012.081444790688
 21
2324.36004749702
 31
0.0
  0
LINE
  5
1B7
330
1F
100
AcDbEntity
  8
0-B_寸法
  6
Continuous
 62
   120
370
     5
100
AcDbLine
 10
-2012.081444790688
 20
2324.36004749702
 30
0.0
 11
-1997.081444790688
 21
2324.36004749702
 31
0.0
  0
MTEXT
  5
1B8
330
1F
100
AcDbEntity
  8
0-B_寸法
  6
Continuous
 62
     7
370
   211
100
AcDbMText
 10
566.4185242883311
 20
1447.665997789481
 30
0.0
 40
91.43999999999998
 41
900.0
 46
0.0
 71
     7
 72
     1
  1
{\fＭＳ ゴシック|b0|i0|c128|p49;折戸：ＤＷ＝566}
 73
     1
 44
1.0
  0
MTEXT
  5
1B9
330
1F
100
AcDbEntity
  8
0-B_寸法
  6
Continuous
 62
     7
370
   211
100
AcDbMText
 10
179.4187129596952
 20
1627.665997789481
 30
0.0
 40
91.43999999999997
 41
660.0
 46
0.0
 71
     7
 72
     1
  1
{\fＭＳ ゴシック|b0|i0|c128|p49;ＤＷ＝282.5}
 73
     1
 44
1.0
  0
LINE
  5
1BA
330
1F
100
AcDbEntity
  8
0-B_寸法
  6
Continuous
 62
   120
370
     5
100
AcDbLine
 10
15.9185428433176
 20
1446.945997789481
 30
0.0
 11
15.9185428433176
 21
1806.945997789481
 31
0.0
  0
LWPOLYLINE
  5
1BB
330
1F
100
AcDbEntity
  8
0-B_寸法
  6
Continuous
 62
     7
370
     5
100
AcDbPolyline
 90
        4
 70
     1
 43
3.0
 10
17.4185428433176
 20
1446.945997789481
 42
0.4142135623731
 10
15.9185428433176
 20
1448.445997789481
 42
0.4142135623731
 10
14.4185428433176
 20
1446.945997789481
 42
0.4142135623731
 10
15.9185428433176
 20
1445.445997789481
 42
0.4142135623731
  0
LINE
  5
1BC
330
1F
100
AcDbEntity
  8
0-B_寸法
  6
Continuous
 62
   120
370
     5
100
AcDbLine
 10
1002.918883076073
 20
1626.945997789481
 30
0.0
 11
1002.918883076073
 21
1806.945997789481
 31
0.0
  0
LWPOLYLINE
  5
1BD
330
1F
100
AcDbEntity
  8
0-B_寸法
  6
Continuous
 62
     7
370
     5
100
AcDbPolyline
 90
        4
 70
     1
 43
3.0
 10
1004.418883076073
 20
1626.945997789481
 42
0.4142135623731
 10
1002.918883076073
 20
1628.445997789481
 42
0.4142135623731
 10
1001.418883076073
 20
1626.945997789481
 42
0.4142135623731
 10
1002.918883076073
 20
1625.445997789481
 42
0.4142135623731
  0
LWPOLYLINE
  5
1BE
330
1F
100
AcDbEntity
  8
0-B_寸法
  6
Continuous
 62
     7
370
     5
100
AcDbPolyline
 90
        4
 70
     1
 43
3.0
 10
17.4185428433176
 20
1626.945997789481
 42
0.4142135623731
 10
15.9185428433176
 20
1628.445997789481
 42
0.4142135623731
 10
14.4185428433176
 20
1626.945997789481
 42
0.4142135623731
 10
15.9185428433176
 20
1625.445997789481
 42
0.4142135623731
  0
LINE
  5
1BF
330
1F
100
AcDbEntity
  8
0-B_寸法
  6
Continuous
 62
   120
370
     5
100
AcDbLine
 10
15.9185428433176
 20
1626.945997789481
 30
0.0
 11
1002.918883076073
 21
1626.945997789481
 31
0.0
  0
LINE
  5
1C0
330
1F
100
AcDbEntity
  8
0-6_扉
  6
Continuous
 62
   200
370
     5
100
AcDbLine
 10
15.9185428433176
 20
2280.94599778948
 30
0.0
 11
15.9185428433176
 21
2442.947294374153
 31
0.0
  0
LINE
  5
1C1
330
1F
100
AcDbEntity
  8
0-6_扉
  6
Continuous
 62
   200
370
     5
100
AcDbLine
 10
15.9185428433176
 20
2280.94599778948
 30
0.0
 11
477.918694401709
 21
2280.94599778948
 31
0.0
  0
LINE
  5
1C2
330
1F
100
AcDbEntity
  8
0-6_扉
  6
Continuous
 62
   200
370
     5
100
AcDbLine
 10
15.9185428433176
 20
2442.947294374153
 30
0.0
 11
477.918694401709
 21
2442.947294374153
 31
0.0
  0
LINE
  5
1C3
330
1F
100
AcDbEntity
  8
0-0_補助線
  6
JWW_HOJO
 62
     7
370
     5
100
AcDbLine
 10
477.918694401709
 20
2442.947294374153
 30
0.0
 11
477.918694401709
 21
2280.94599778948
 31
0.0
  0
LINE
  5
1C4
330
1F
100
AcDbEntity
  8
0-6_扉
  6
Continuous
 62
   200
370
     5
100
AcDbLine
 10
537.918694401709
 20
2442.947294374153
 30
0.0
 11
1002.918883076073
 21
2442.947294374153
 31
0.0
  0
LINE
  5
1C5
330
1F
100
AcDbEntity
  8
0-0_補助線
  6
JWW_HOJO
 62
     7
370
     5
100
AcDbLine
 10
537.918694401709
 20
2442.947294374153
 30
0.0
 11
537.918694401709
 21
2280.94599778948
 31
0.0
  0
LINE
  5
1C6
330
1F
100
AcDbEntity
  8
0-6_扉
  6
Continuous
 62
   200
370
     5
100
AcDbLine
 10
537.918694401709
 20
2280.94599778948
 30
0.0
 11
1002.918883076073
 21
2280.94599778948
 31
0.0
  0
LINE
  5
1C7
330
1F
100
AcDbEntity
  8
0-6_扉
  6
Continuous
 62
   200
370
     5
100
AcDbLine
 10
1002.918883076073
 20
2442.947294374153
 30
0.0
 11
1002.918883076073
 21
2280.94599778948
 31
0.0
  0
CIRCLE
  5
1C8
330
1F
100
AcDbEntity
  8
0-A_文字
  6
Continuous
 62
     7
370
     5
100
AcDbCircle
 10
1005.918845960102
 20
2472.945997789482
 30
0.0
 40
30.0
  0
CIRCLE
  5
1C9
330
1F
100
AcDbEntity
  8
0-A_文字
  6
Continuous
 62
     7
370
     5
100
AcDbCircle
 10
1005.918845960102
 20
2472.945997789482
 30
0.0
 40
21.00000000000001
  0
LINE
  5
1CA
330
1F
100
AcDbEntity
  8
0-0_補助線
  6
JWW_HOJO
 62
     7
370
     5
100
AcDbLine
 10
2001.919223308827
 20
906.945997789479
 30
0.0
 11
2001.919223308827
 21
3141.945997789481
 31
0.0
  0
LINE
  5
1CB
330
1F
100
AcDbEntity
  8
0-6_扉
  6
Continuous
 62
   200
370
     5
100
AcDbLine
 10
2016.918579965286
 20
2442.947294374153
 30
0.0
 11
2016.918579965286
 21
2280.94599778948
 31
0.0
  0
LINE
  5
1CC
330
1F
100
AcDbEntity
  8
0-6_扉
  6
Continuous
 62
   200
370
     5
100
AcDbLine
 10
2016.918530477324
 20
2442.947294374153
 30
0.0
 11
2016.918530477324
 21
2280.94599778948
 31
0.0
  0
LINE
  5
1CD
330
1F
100
AcDbEntity
  8
0-6_扉
  6
Continuous
 62
   200
370
     5
100
AcDbLine
 10
1533.919071750435
 20
2442.947294374153
 30
0.0
 11
2016.918579965286
 21
2442.947294374153
 31
0.0
  0
LINE
  5
1CE
330
1F
100
AcDbEntity
  8
0-6_扉
  6
Continuous
 62
   200
370
     5
100
AcDbLine
 10
1533.919071750435
 20
2280.94599778948
 30
0.0
 11
2016.918579965286
 21
2280.94599778948
 31
0.0
  0
LINE
  5
1CF
330
1F
100
AcDbEntity
  8
0-0_補助線
  6
JWW_HOJO
 62
     7
370
     5
100
AcDbLine
 10
1533.919071750435
 20
2442.947294374153
 30
0.0
 11
1533.919071750435
 21
2280.94599778948
 31
0.0
  0
LINE
  5
1D0
330
1F
100
AcDbEntity
  8
0-0_補助線
  6
JWW_HOJO
 62
     7
370
     5
100
AcDbLine
 10
1473.919071750435
 20
2442.947294374153
 30
0.0
 11
1473.919071750435
 21
2280.94599778948
 31
0.0
  0
LINE
  5
1D1
330
1F
100
AcDbEntity
  8
0-6_扉
  6
Continuous
 62
   200
370
     5
100
AcDbLine
 10
1008.918883076072
 20
2442.947294374153
 30
0.0
 11
1473.919071750435
 21
2442.947294374153
 31
0.0
  0
LINE
  5
1D2
330
1F
100
AcDbEntity
  8
0-6_扉
  6
Continuous
 62
   200
370
     5
100
AcDbLine
 10
1008.918883076072
 20
2280.94599778948
 30
0.0
 11
1473.919071750435
 21
2280.94599778948
 31
0.0
  0
LINE
  5
1D3
330
1F
100
AcDbEntity
  8
0-6_扉
  6
Continuous
 62
   200
370
     5
100
AcDbLine
 10
1008.918883076072
 20
2442.947294374153
 30
0.0
 11
1008.918883076072
 21
2280.94599778948
 31
0.0
  0
LINE
  5
1D4
330
1F
100
AcDbEntity
  8
0-6_扉
  6
JWW_DASHED2
 62
    40
370
     5
100
AcDbLine
 10
1758.735673352564
 20
2539.44223608628
 30
0.0
 11
1724.270844786867
 21
2085.94679454571
 31
0.0
  0
LINE
  5
1D5
330
1F
100
AcDbEntity
  8
0-6_扉
  6
JWW_DASHED2
 62
    40
370
     5
100
AcDbLine
 10
1469.35321671358
 20
2538.078202301088
 30
0.0
 11
1503.714381193019
 21
2085.94679454571
 31
0.0
  0
LINE
  5
1D6
330
1F
100
AcDbEntity
  8
0-6_扉
  6
JWW_DASHED2
 62
    40
370
     5
100
AcDbLine
 10
1920.269856603231
 20
2527.165932019534
 30
0.0
 11
1886.738004813755
 21
2085.94679454571
 31
0.0
  0
LINE
  5
1D7
330
1F
100
AcDbEntity
  8
0-6_扉
  6
JWW_DASHED2
 62
    40
370
     5
100
AcDbLine
 10
1307.819033462913
 20
2525.801898234345
 30
0.0
 11
1341.247221166133
 21
2085.94679454571
 31
0.0
  0
ARC
  5
1D8
330
1F
100
AcDbEntity
  8
0-6_扉
  6
JWW_DASHED2
 62
    40
370
     5
100
AcDbCircle
 10
1902.321614019822
 20
2528.529965804728
 30
0.0
 40
18.0
100
AcDbArc
 50
355.6539792783596
 51
85.65397927835919
  0
LINE
  5
1D9
330
1F
100
AcDbEntity
  8
0-6_扉
  6
JWW_DASHED2
 62
    40
370
     5
100
AcDbLine
 10
1903.685647805018
 20
2546.478208388137
 30
0.0
 11
1778.047949721162
 21
2556.026444884493
 31
0.0
  0
ARC
  5
1DA
330
1F
100
AcDbEntity
  8
0-6_扉
  6
JWW_DASHED2
 62
    40
370
     5
100
AcDbCircle
 10
1776.683915935966
 20
2538.078202301088
 30
0.0
 40
18.0
100
AcDbArc
 50
85.65397927835929
 51
175.6539792783603
  0
ARC
  5
1DB
330
1F
100
AcDbEntity
  8
0-6_扉
  6
JWW_DASHED2
 62
    40
370
     5
100
AcDbCircle
 10
1451.404974130172
 20
2536.714168515894
 30
0.0
 40
18.0
100
AcDbArc
 50
4.346020721638936
 51
94.34602072163932
  0
LINE
  5
1DC
330
1F
100
AcDbEntity
  8
0-6_扉
  6
JWW_DASHED2
 62
    40
370
     5
100
AcDbLine
 10
1450.040940344981
 20
2554.662411099302
 30
0.0
 11
1324.403242261127
 21
2545.114174602948
 31
0.0
  0
ARC
  5
1DD
330
1F
100
AcDbEntity
  8
0-6_扉
  6
JWW_DASHED2
 62
    40
370
     5
100
AcDbCircle
 10
1325.767276046322
 20
2527.165932019539
 30
0.0
 40
18.0
100
AcDbArc
 50
94.34602072163928
 51
184.346020721639
  0
LINE
  5
1DE
330
1F
100
AcDbEntity
  8
0-1_通り芯
  6
JWW_CENTER1
 62
   120
370
     5
100
AcDbLine
 10
1307.819033462913
 20
2781.945997789481
 30
0.0
 11
1307.819033462913
 21
2528.529965804735
 31
0.0
  0
LWPOLYLINE
  5
1DF
330
1F
100
AcDbEntity
  8
0-B_寸法
  6
Continuous
 62
     7
370
     5
100
AcDbPolyline
 90
        4
 70
     1
 43
3.0
 10
1309.319033462912
 20
2961.945997789481
 42
0.4142135623731
 10
1307.819033462913
 20
2963.44599778948
 42
0.4142135623731
 10
1306.319033462913
 20
2961.945997789481
 42
0.4142135623731
 10
1307.819033462913
 20
2960.445997789481
 42
0.4142135623731
  0
LINE
  5
1E0
330
1F
100
AcDbEntity
  8
0-B_寸法
  6
Continuous
 62
   120
370
     5
100
AcDbLine
 10
1307.819033462913
 20
2961.945997789481
 30
0.0
 11
1307.819033462913
 21
2781.945997789481
 31
0.0
  0
LINE
  5
1E1
330
1F
100
AcDbEntity
  8
0-B_寸法
  6
Continuous
 62
   120
370
     5
100
AcDbLine
 10
1008.918883076072
 20
1626.945997789481
 30
0.0
 11
2016.918579965286
 21
1626.945997789481
 31
0.0
  0
LWPOLYLINE
  5
1E2
330
1F
100
AcDbEntity
  8
0-B_寸法
  6
Continuous
 62
     7
370
     5
100
AcDbPolyline
 90
        4
 70
     1
 43
3.0
 10
1010.418883076072
 20
1626.945997789481
 42
0.4142135623731
 10
1008.918883076072
 20
1628.445997789481
 42
0.4142135623731
 10
1007.418883076073
 20
1626.945997789481
 42
0.4142135623731
 10
1008.918883076072
 20
1625.445997789481
 42
0.4142135623731
  0
LWPOLYLINE
  5
1E3
330
1F
100
AcDbEntity
  8
0-B_寸法
  6
Continuous
 62
     7
370
     5
100
AcDbPolyline
 90
        4
 70
     1
 43
3.0
 10
2018.418579965286
 20
1626.945997789481
 42
0.4142135623731
 10
2016.918579965286
 20
1628.445997789481
 42
0.4142135623731
 10
2015.418579965287
 20
1626.945997789481
 42
0.4142135623731
 10
2016.918579965286
 20
1625.445997789481
 42
0.4142135623731
  0
LINE
  5
1E4
330
1F
100
AcDbEntity
  8
0-B_寸法
  6
Continuous
 62
   120
370
     5
100
AcDbLine
 10
1008.918883076072
 20
1626.945997789481
 30
0.0
 11
1008.918883076072
 21
1806.945997789481
 31
0.0
  0
LINE
  5
1E5
330
1F
100
AcDbEntity
  8
0-B_寸法
  6
Continuous
 62
   120
370
     5
100
AcDbLine
 10
15.9185428433176
 20
1446.945997789481
 30
0.0
 11
2016.918579965286
 21
1446.945997789481
 31
0.0
  0
LWPOLYLINE
  5
1E6
330
1F
100
AcDbEntity
  8
0-B_寸法
  6
Continuous
 62
     7
370
     5
100
AcDbPolyline
 90
        4
 70
     1
 43
3.0
 10
2018.418579965286
 20
1446.945997789481
 42
0.4142135623731
 10
2016.918579965286
 20
1448.445997789481
 42
0.4142135623731
 10
2015.418579965287
 20
1446.945997789481
 42
0.4142135623731
 10
2016.918579965286
 20
1445.445997789481
 42
0.4142135623731
  0
LINE
  5
1E7
330
1F
100
AcDbEntity
  8
0-B_寸法
  6
Continuous
 62
   120
370
     5
100
AcDbLine
 10
2016.918579965286
 20
1446.945997789481
 30
0.0
 11
2016.918579965286
 21
1806.945997789481
 31
0.0
  0
MTEXT
  5
1E8
330
1F
100
AcDbEntity
  8
0-B_寸法
  6
Continuous
 62
     7
370
   211
100
AcDbMText
 10
1182.91873152068
 20
1627.665997789481
 30
0.0
 40
91.43999999999997
 41
660.0
 46
0.0
 71
     7
 72
     1
  1
{\fＭＳ ゴシック|b0|i0|c128|p49;ＤＷ＝282.5}
 73
     1
 44
1.0
  0
LINE
  5
1E9
330
1F
100
AcDbEntity
  8
0-0_補助線
  6
JWW_HOJO
 62
     7
370
     5
100
AcDbLine
 10
1005.918883076073
 20
906.945997789479
 30
0.0
 11
1005.918883076073
 21
3141.945997789481
 31
0.0
  0
LINE
  5
1EA
330
1F
100
AcDbEntity
  8
0-B_寸法
  6
Continuous
 62
   120
370
     5
100
AcDbLine
 10
3.918542843316573
 20
1446.945997789481
 30
0.0
 11
15.9185428433176
 21
1446.945997789481
 31
0.0
  0
LINE
  5
1EB
330
1F
100
AcDbEntity
  8
0-B_寸法
  6
Continuous
 62
   120
370
     5
100
AcDbLine
 10
-1287.981947776276
 20
2961.945997789481
 30
0.0
 11
1307.819033462913
 21
2961.945997789481
 31
0.0
  0
LINE
  5
1EC
330
1F
100
AcDbEntity
  8
0-4_枠
  6
Continuous
 62
    92
370
     5
100
AcDbLine
 10
2031.918579965286
 20
2631.945943352719
 30
0.0
 11
2031.918579965286
 21
2091.94679454571
 31
0.0
  0
LINE
  5
1ED
330
1F
100
AcDbEntity
  8
0-0_補助線
  6
JWW_HOJO
 62
   120
370
     5
100
AcDbLine
 10
2781.918332525465
 20
2961.945997789481
 30
0.0
 11
2781.918332525465
 21
1086.945997789479
 31
0.0
  0
LINE
  5
1EE
330
1F
100
AcDbEntity
  8
0-C_ハッチ
  6
Continuous
 62
   120
370
     5
100
AcDbLine
 10
2211.918802661127
 20
2206.622701165219
 30
0.0
 11
2145.918579965285
 21
2140.622845865954
 31
0.0
  0
LINE
  5
1EF
330
1F
100
AcDbEntity
  8
0-4_枠
  6
Continuous
 62
    92
370
     5
100
AcDbLine
 10
2145.918579965285
 20
2145.946794545712
 30
0.0
 11
2145.918579965285
 21
2085.94679454571
 31
0.0
  0
LINE
  5
1F0
330
1F
100
AcDbEntity
  8
0-4_枠
  6
Continuous
 62
    92
370
     5
100
AcDbLine
 10
2091.918579965286
 20
2145.946794545712
 30
0.0
 11
2145.918579965285
 21
2145.946794545712
 31
0.0
  0
LINE
  5
1F1
330
1F
100
AcDbEntity
  8
0-4_枠
  6
Continuous
 62
    92
370
     5
100
AcDbLine
 10
2091.918579965286
 20
2145.946794545712
 30
0.0
 11
2091.918579965286
 21
2085.94679454571
 31
0.0
  0
LINE
  5
1F2
330
1F
100
AcDbEntity
  8
0-4_枠
  6
Continuous
 62
    92
370
     5
100
AcDbLine
 10
2211.918579965286
 20
2637.945943352719
 30
0.0
 11
2211.918579965286
 21
2127.946794545711
 31
0.0
  0
LINE
  5
1F3
330
1F
100
AcDbEntity
  8
0-4_枠
  6
Continuous
 62
    92
370
     5
100
AcDbLine
 10
2181.918579965286
 20
2127.946794545711
 30
0.0
 11
2211.918579965286
 21
2127.946794545711
 31
0.0
  0
LINE
  5
1F4
330
1F
100
AcDbEntity
  8
0-4_枠
  6
Continuous
 62
    92
370
     5
100
AcDbLine
 10
2181.918579965286
 20
2127.946794545711
 30
0.0
 11
2181.918579965286
 21
2085.94679454571
 31
0.0
  0
LINE
  5
1F5
330
1F
100
AcDbEntity
  8
0-4_枠
  6
Continuous
 62
    92
370
     5
100
AcDbLine
 10
2145.918579965285
 20
2085.94679454571
 30
0.0
 11
2181.918579965286
 21
2085.94679454571
 31
0.0
  0
LINE
  5
1F6
330
1F
100
AcDbEntity
  8
0-C_ハッチ
  6
Continuous
 62
   120
370
     5
100
AcDbLine
 10
2134.124835903843
 20
2637.945943352719
 30
0.0
 11
2031.918579965286
 21
2535.740429733632
 31
0.0
  0
LINE
  5
1F7
330
1F
100
AcDbEntity
  8
0-C_ハッチ
  6
Continuous
 62
   120
370
     5
100
AcDbLine
 10
2211.918802661127
 20
2630.887227532407
 30
0.0
 11
2031.918579965286
 21
2450.887375996299
 31
0.0
  0
LINE
  5
1F8
330
1F
100
AcDbEntity
  8
0-C_ハッチ
  6
Continuous
 62
   120
370
     5
100
AcDbLine
 10
2211.918802661127
 20
2291.47575490255
 30
0.0
 11
2031.918579965286
 21
2111.475903366444
 31
0.0
  0
LINE
  5
1F9
330
1F
100
AcDbEntity
  8
0-C_ハッチ
  6
Continuous
 62
   120
370
     5
100
AcDbLine
 10
2031.918579965286
 20
2281.181268521637
 30
0.0
 11
2211.918802661127
 21
2461.181120057744
 31
0.0
  0
LINE
  5
1FA
330
1F
100
AcDbEntity
  8
0-C_ハッチ
  6
Continuous
 62
   120
370
     5
100
AcDbLine
 10
2031.918579965286
 20
2196.328214784307
 30
0.0
 11
2211.918802661127
 21
2376.328808639882
 31
0.0
  0
LINE
  5
1FB
330
1F
100
AcDbEntity
  8
0-C_ハッチ
  6
Continuous
 62
   120
370
     5
100
AcDbLine
 10
2181.918579965286
 20
2091.769591731948
 30
0.0
 11
2176.09575036571
 21
2085.94679454571
 31
0.0
  0
LINE
  5
1FC
330
1F
100
AcDbEntity
  8
0-4_枠
  6
Continuous
 62
    92
370
     5
100
AcDbLine
 10
2037.918579965286
 20
2085.94679454571
 30
0.0
 11
2091.918579965286
 21
2085.94679454571
 31
0.0
  0
LINE
  5
1FD
330
1F
100
AcDbEntity
  8
0-4_枠
  6
Continuous
 62
    92
370
     5
100
AcDbLine
 10
2031.918579965286
 20
2091.94679454571
 30
0.0
 11
2037.918579965286
 21
2085.94679454571
 31
0.0
  0
LINE
  5
1FE
330
1F
100
AcDbEntity
  8
0-4_枠
  6
Continuous
 62
    92
370
     5
100
AcDbLine
 10
2037.918579965286
 20
2637.945943352719
 30
0.0
 11
2211.918579965286
 21
2637.945943352719
 31
0.0
  0
LINE
  5
1FF
330
1F
100
AcDbEntity
  8
0-4_枠
  6
Continuous
 62
    92
370
     5
100
AcDbLine
 10
2037.918579965286
 20
2637.945943352719
 30
0.0
 11
2031.918579965286
 21
2631.945943352719
 31
0.0
  0
LINE
  5
200
330
1F
100
AcDbEntity
  8
0-7_金物
  6
Continuous
 62
     7
370
     5
100
AcDbLine
 10
2211.918579965286
 20
2415.946032121756
 30
0.0
 11
2217.918648629828
 21
2415.946032121756
 31
0.0
  0
LINE
  5
201
330
1F
100
AcDbEntity
  8
0-7_金物
  6
Continuous
 62
     7
370
     5
100
AcDbLine
 10
2217.918648629828
 20
2307.945963457205
 30
0.0
 11
2211.918579965286
 21
2307.945963457205
 31
0.0
  0
LINE
  5
202
330
1F
100
AcDbEntity
  8
0-7_金物
  6
Continuous
 62
     7
370
     5
100
AcDbLine
 10
2217.918648629828
 20
2301.945797517874
 30
0.0
 11
2217.918648629828
 21
2421.94545419512
 31
0.0
  0
LINE
  5
203
330
1F
100
AcDbEntity
  8
0-7_金物
  6
Continuous
 62
     7
370
     5
100
AcDbLine
 10
2229.918242364569
 20
2421.94545419512
 30
0.0
 11
2217.918648629828
 21
2421.94545419512
 31
0.0
  0
LINE
  5
204
330
1F
100
AcDbEntity
  8
0-7_金物
  6
Continuous
 62
     7
370
     5
100
AcDbLine
 10
2229.918242364569
 20
2301.945797517874
 30
0.0
 11
2217.918648629828
 21
2301.945797517874
 31
0.0
  0
LINE
  5
205
330
1F
100
AcDbEntity
  8
0-7_金物
  6
Continuous
 62
     7
370
     5
100
AcDbLine
 10
2241.918579965278
 20
2271.945694521051
 30
0.0
 11
2241.918579965278
 21
2451.945557191944
 31
0.0
  0
LINE
  5
206
330
1F
100
AcDbEntity
  8
0-7_金物
  6
Continuous
 62
     7
370
     5
100
AcDbLine
 10
2241.918579965278
 20
2271.945694521051
 30
0.0
 11
2229.918242364569
 21
2271.945694521051
 31
0.0
  0
LINE
  5
207
330
1F
100
AcDbEntity
  8
0-7_金物
  6
Continuous
 62
     7
370
     5
100
AcDbLine
 10
2241.918579965278
 20
2451.945557191944
 30
0.0
 11
2229.918242364569
 21
2451.945557191944
 31
0.0
  0
LINE
  5
208
330
1F
100
AcDbEntity
  8
0-7_金物
  6
Continuous
 62
     7
370
     5
100
AcDbLine
 10
2229.918242364569
 20
2271.945694521051
 30
0.0
 11
2229.918242364569
 21
2451.945557191944
 31
0.0
  0
LWPOLYLINE
  5
209
330
1F
100
AcDbEntity
  8
0-B_寸法
  6
Continuous
 62
     7
370
     5
100
AcDbPolyline
 90
        4
 70
     1
 43
3.0
 10
2033.418579965286
 20
1266.945997789479
 42
0.4142135623731
 10
2031.918579965286
 20
1268.445997789479
 42
0.4142135623731
 10
2030.418579965287
 20
1266.945997789479
 42
0.4142135623731
 10
2031.918579965286
 20
1265.445997789479
 42
0.4142135623731
  0
LINE
  5
20A
330
1F
100
AcDbEntity
  8
0-B_寸法
  6
Continuous
 62
   120
370
     5
100
AcDbLine
 10
2031.918579965286
 20
1266.945997789479
 30
0.0
 11
2031.918579965286
 21
1986.945997789481
 31
0.0
  0
LINE
  5
20B
330
1F
100
AcDbEntity
  8
0-B_寸法
  6
Continuous
 62
   120
370
     5
100
AcDbLine
 10
2031.918579965286
 20
1266.945997789479
 30
0.0
 11
2211.918579965286
 21
1266.945997789479
 31
0.0
  0
LWPOLYLINE
  5
20C
330
1F
100
AcDbEntity
  8
0-B_寸法
  6
Continuous
 62
     7
370
     5
100
AcDbPolyline
 90
        4
 70
     1
 43
3.0
 10
2213.418579965286
 20
1266.945997789479
 42
0.4142135623731
 10
2211.918579965286
 20
1268.445997789479
 42
0.4142135623731
 10
2210.418579965286
 20
1266.945997789479
 42
0.4142135623731
 10
2211.918579965286
 20
1265.445997789479
 42
0.4142135623731
  0
MTEXT
  5
20D
330
1F
100
AcDbEntity
  8
0-B_寸法
  6
Continuous
 62
     7
370
   211
100
AcDbMText
 10
2061.918579965287
 20
1267.665997789479
 30
0.0
 40
91.44
 41
120.0
 46
0.0
 71
     7
 72
     1
  1
{\fＭＳ ゴシック|b0|i0|c128|p49;30}
 73
     1
 44
1.0
  0
LWPOLYLINE
  5
20E
330
1F
100
AcDbEntity
  8
0-B_寸法
  6
Continuous
 62
     7
370
     5
100
AcDbPolyline
 90
        4
 70
     1
 43
3.0
 10
2213.418579965286
 20
1086.945997789479
 42
0.4142135623731
 10
2211.918579965286
 20
1088.445997789479
 42
0.4142135623731
 10
2210.418579965286
 20
1086.945997789479
 42
0.4142135623731
 10
2211.918579965286
 20
1085.445997789479
 42
0.4142135623731
  0
LINE
  5
20F
330
1F
100
AcDbEntity
  8
0-B_寸法
  6
Continuous
 62
   120
370
     5
100
AcDbLine
 10
2211.918579965286
 20
1086.945997789479
 30
0.0
 11
2211.918579965286
 21
1986.945997789481
 31
0.0
  0
LINE
  5
210
330
1F
100
AcDbEntity
  8
0-B_寸法
  6
Continuous
 62
   120
370
     5
100
AcDbLine
 10
2211.918579965286
 20
1086.945997789479
 30
0.0
 11
2241.918579965278
 21
1086.945997789479
 31
0.0
  0
LWPOLYLINE
  5
211
330
1F
100
AcDbEntity
  8
0-B_寸法
  6
Continuous
 62
     7
370
     5
100
AcDbPolyline
 90
        4
 70
     1
 43
3.0
 10
2243.418579965278
 20
1086.945997789479
 42
0.4142135623731
 10
2241.918579965278
 20
1088.445997789479
 42
0.4142135623731
 10
2240.418579965278
 20
1086.945997789479
 42
0.4142135623731
 10
2241.918579965278
 20
1085.445997789479
 42
0.4142135623731
  0
LINE
  5
212
330
1F
100
AcDbEntity
  8
0-B_寸法
  6
Continuous
 62
   120
370
     5
100
AcDbLine
 10
2241.918579965278
 20
1086.945997789479
 30
0.0
 11
2241.918579965278
 21
1986.945997789481
 31
0.0
  0
LINE
  5
213
330
1F
100
AcDbEntity
  8
0-0_補助線
  6
JWW_HOJO
 62
   120
370
     5
100
AcDbLine
 10
2777.419006779264
 20
1806.945997789481
 30
0.0
 11
-2766.580622072993
 21
1806.945997789481
 31
0.0
  0
LINE
  5
214
330
1F
100
AcDbEntity
  8
0-0_補助線
  6
JWW_HOJO
 62
   120
370
     5
100
AcDbLine
 10
2777.419006779264
 20
1986.945997789481
 30
0.0
 11
-2766.580622072993
 21
1986.945997789481
 31
0.0
  0
LINE
  5
215
330
1F
100
AcDbEntity
  8
0-0_補助線
  6
JWW_HOJO
 62
   120
370
     5
100
AcDbLine
 10
2777.419006779264
 20
1626.945997789481
 30
0.0
 11
-2766.580622072993
 21
1626.945997789481
 31
0.0
  0
LINE
  5
216
330
1F
100
AcDbEntity
  8
0-0_補助線
  6
JWW_HOJO
 62
   120
370
     5
100
AcDbLine
 10
2777.419006779264
 20
1446.945997789481
 30
0.0
 11
-2766.580622072993
 21
1446.945997789481
 31
0.0
  0
LINE
  5
217
330
1F
100
AcDbEntity
  8
0-0_補助線
  6
JWW_HOJO
 62
   120
370
     5
100
AcDbLine
 10
-2762.081197362861
 20
1266.945997789479
 30
0.0
 11
2781.918332525465
 21
1266.945997789479
 31
0.0
  0
LINE
  5
218
330
1F
100
AcDbEntity
  8
0-0_補助線
  6
JWW_HOJO
 62
   120
370
     5
100
AcDbLine
 10
-2762.081197362861
 20
1086.945997789479
 30
0.0
 11
2781.918332525465
 21
1086.945997789479
 31
0.0
  0
LINE
  5
219
330
1F
100
AcDbEntity
  8
0-0_補助線
  6
JWW_HOJO
 62
   120
370
     5
100
AcDbLine
 10
-2762.081197362861
 20
3141.945997789481
 30
0.0
 11
2781.918332525465
 21
3141.945997789481
 31
0.0
  0
LINE
  5
21A
330
1F
100
AcDbEntity
  8
0-1_通り芯
  6
JWW_CENTER1
 62
   120
370
     5
100
AcDbLine
 10
-2762.081197362861
 20
2361.945997789481
 30
0.0
 11
2781.918332525465
 21
2361.945997789481
 31
0.0
  0
LINE
  5
21B
330
1F
100
AcDbEntity
  8
0-0_補助線
  6
JWW_HOJO
 62
   120
370
     5
100
AcDbLine
 10
-2762.081197362861
 20
2781.945997789481
 30
0.0
 11
2781.918332525465
 21
2781.945997789481
 31
0.0
  0
LINE
  5
21C
330
1F
100
AcDbEntity
  8
0-0_補助線
  6
JWW_HOJO
 62
   120
370
     5
100
AcDbLine
 10
-2762.081197362861
 20
2961.945997789481
 30
0.0
 11
2781.918332525465
 21
2961.945997789481
 31
0.0
  0
LINE
  5
21D
330
1F
100
AcDbEntity
  8
0-B_寸法
  6
Continuous
 62
   120
370
     5
100
AcDbLine
 10
-2012.081444790688
 20
1266.945997789479
 30
0.0
 11
2031.918579965286
 21
1266.945997789479
 31
0.0
  0
LINE
  5
21E
330
1F
100
AcDbEntity
  8
0-B_寸法
  6
Continuous
 62
   120
370
     5
100
AcDbLine
 10
-2192.081444790688
 20
1086.945997789479
 30
0.0
 11
2211.918579965286
 21
1086.945997789479
 31
0.0
  0
LINE
  5
21F
330
1F
100
AcDbEntity
  8
0-C_ハッチ
  6
Continuous
 62
   120
370
     5
100
AcDbLine
 10
2211.918802661127
 20
2546.034173795075
 30
0.0
 11
2031.918579965286
 21
2366.033579939502
 31
0.0
  0
LWPOLYLINE
  5
220
330
1F
100
AcDbEntity
  8
0-B_寸法
  6
Continuous
 62
     7
370
     5
100
AcDbPolyline
 90
        4
 70
     1
 43
3.0
 10
-2220.581444790678
 20
3141.945997789481
 42
0.4142135623731
 10
-2222.081444790678
 20
3143.445997789481
 42
0.4142135623731
 10
-2223.581444790678
 20
3141.945997789481
 42
0.4142135623731
 10
-2222.081444790678
 20
3140.445997789482
 42
0.4142135623731
  0
LINE
  5
221
330
1F
100
AcDbEntity
  8
0-B_寸法
  6
Continuous
 62
   120
370
     5
100
AcDbLine
 10
-2222.081444790678
 20
3141.945997789481
 30
0.0
 11
-2222.081444790678
 21
2781.945997789481
 31
0.0
  0
LINE
  5
222
330
1F
100
AcDbEntity
  8
0-B_寸法
  6
Continuous
 62
   120
370
     5
100
AcDbLine
 10
2241.918579965278
 20
3141.945997789481
 30
0.0
 11
2241.918579965278
 21
2781.945997789481
 31
0.0
  0
LWPOLYLINE
  5
223
330
1F
100
AcDbEntity
  8
0-B_寸法
  6
Continuous
 62
     7
370
     5
100
AcDbPolyline
 90
        4
 70
     1
 43
3.0
 10
2243.418579965278
 20
3141.945997789481
 42
0.4142135623731
 10
2241.918579965278
 20
3143.445997789481
 42
0.4142135623731
 10
2240.418579965278
 20
3141.945997789481
 42
0.4142135623731
 10
2241.918579965278
 20
3140.445997789482
 42
0.4142135623731
  0
LINE
  5
224
330
1F
100
AcDbEntity
  8
0-B_寸法
  6
Continuous
 62
   120
370
     5
100
AcDbLine
 10
-2222.081444790678
 20
3141.945997789481
 30
0.0
 11
2241.918579965278
 21
3141.945997789481
 31
0.0
  0
MTEXT
  5
225
330
1F
100
AcDbEntity
  8
0-B_寸法
  6
Continuous
 62
     7
370
   211
100
AcDbMText
 10
-380.0814571566829
 20
3142.665997789481
 30
0.0
 40
91.43999999999997
 41
780.0
 46
0.0
 71
     7
 72
     1
  1
{\fＭＳ ゴシック|b0|i0|c128|p49;ＲＯＷ＝1,209}
 73
     1
 44
1.0
  0
MTEXT
  5
226
330
1F
100
AcDbEntity
  8
0-B_寸法
  6
Continuous
 62
     7
370
   211
100
AcDbMText
 10
-500.0814571566829
 20
2962.665997789481
 30
0.0
 40
91.43999999999998
 41
1020.0
 46
0.0
 71
     7
 72
     1
  1
{\fＭＳ ゴシック|b0|i0|c128|p49;有効開口寸法＝881}
 73
     1
 44
1.0
  0
MTEXT
  5
227
330
1F
100
AcDbEntity
  8
0-B_寸法
  6
Continuous
 62
     7
370
   211
100
AcDbMText
 10
-320.0814571566829
 20
1267.665997789479
 30
0.0
 40
91.43999999999997
 41
660.0
 46
0.0
 71
     7
 72
     1
  1
{\fＭＳ ゴシック|b0|i0|c128|p49;枠内＝1,139}
 73
     1
 44
1.0
  0
MTEXT
  5
228
330
1F
100
AcDbEntity
  8
0-B_寸法
  6
Continuous
 62
     7
370
   211
100
AcDbMText
 10
-320.0814571566829
 20
1087.665997789479
 30
0.0
 40
91.43999999999997
 41
660.0
 46
0.0
 71
     7
 72
     1
  1
{\fＭＳ ゴシック|b0|i0|c128|p49;枠外＝1,199}
 73
     1
 44
1.0
  0
LINE
  5
229
330
1F
100
AcDbEntity
  8
0-C_ハッチ
  6
JWW_DASHED1
 62
   120
370
     5
100
AcDbLine
 10
-2720.473869218856
 20
2052.946547105862
 30
0.0
 11
-2645.473621779024
 21
2127.946794545698
 31
0.0
  0
LINE
  5
22A
330
1F
100
AcDbEntity
  8
0-C_ハッチ
  6
JWW_DASHED1
 62
   120
370
     5
100
AcDbLine
 10
-2678.047462347629
 20
2052.94654710589
 30
0.0
 11
-2603.047214907797
 21
2127.946794545719
 31
0.0
  0
LINE
  5
22B
330
1F
100
AcDbEntity
  8
0-C_ハッチ
  6
JWW_DASHED1
 62
   120
370
     5
100
AcDbLine
 10
-2635.621055476436
 20
2052.946547105886
 30
0.0
 11
-2560.620808036604
 21
2127.946794545715
 31
0.0
  0
LINE
  5
22C
330
1F
100
AcDbEntity
  8
0-C_ハッチ
  6
JWW_DASHED1
 62
   120
370
     5
100
AcDbLine
 10
-2593.194648605236
 20
2052.94654710588
 30
0.0
 11
-2518.19440116541
 21
2127.946794545711
 31
0.0
  0
LINE
  5
22D
330
1F
100
AcDbEntity
  8
0-C_ハッチ
  6
JWW_DASHED1
 62
   120
370
     5
100
AcDbLine
 10
-2550.768241734036
 20
2052.94654710588
 30
0.0
 11
-2475.767994294204
 21
2127.946794545715
 31
0.0
  0
LINE
  5
22E
330
1F
100
AcDbEntity
  8
0-C_ハッチ
  6
JWW_DASHED1
 62
   120
370
     5
100
AcDbLine
 10
-2508.341834862842
 20
2052.946547105879
 30
0.0
 11
-2433.34158742301
 21
2127.946794545711
 31
0.0
  0
LINE
  5
22F
330
1F
100
AcDbEntity
  8
0-C_ハッチ
  6
JWW_DASHED1
 62
   120
370
     5
100
AcDbLine
 10
-2465.915427991642
 20
2052.946547105876
 30
0.0
 11
-2390.91518055181
 21
2127.946794545708
 31
0.0
  0
LINE
  5
230
330
1F
100
AcDbEntity
  8
0-C_ハッチ
  6
JWW_DASHED1
 62
   120
370
     5
100
AcDbLine
 10
-2423.489021120449
 20
2052.946547105872
 30
0.0
 11
-2348.488773680614
 21
2127.946794545705
 31
0.0
  0
LINE
  5
231
330
1F
100
AcDbEntity
  8
0-C_ハッチ
  6
JWW_DASHED1
 62
   120
370
     5
100
AcDbLine
 10
-2381.062614249294
 20
2052.946547105879
 30
0.0
 11
-2306.062366809465
 21
2127.946794545712
 31
0.0
  0
LINE
  5
232
330
1F
100
AcDbEntity
  8
0-C_ハッチ
  6
JWW_DASHED1
 62
   120
370
     5
100
AcDbLine
 10
-2338.63620737809
 20
2052.946547105883
 30
0.0
 11
-2263.635959938265
 21
2127.946794545712
 31
0.0
  0
LINE
  5
233
330
1F
100
AcDbEntity
  8
0-C_ハッチ
  6
JWW_DASHED1
 62
   120
370
     5
100
AcDbLine
 10
-2296.209800506897
 20
2052.946547105879
 30
0.0
 11
-2221.209553067065
 21
2127.946794545708
 31
0.0
  0
LINE
  5
234
330
1F
100
AcDbEntity
  8
0-C_ハッチ
  6
JWW_DASHED1
 62
   120
370
     5
100
AcDbLine
 10
-2253.783393635704
 20
2052.946547105872
 30
0.0
 11
-2178.783146195872
 21
2127.946794545705
 31
0.0
  0
LINE
  5
235
330
1F
100
AcDbEntity
  8
0-C_ハッチ
  6
JWW_DASHED1
 62
   120
370
     5
100
AcDbLine
 10
-2211.35698676449
 20
2052.946547105883
 30
0.0
 11
-2162.081444790688
 21
2102.222089079685
 31
0.0
  0
LINE
  5
236
330
1F
100
AcDbEntity
  8
0-C_ハッチ
  6
JWW_DASHED1
 62
   120
370
     5
100
AcDbLine
 10
-2168.930579893294
 20
2052.946547105879
 30
0.0
 11
-2162.081444790688
 21
2059.795682208485
 31
0.0
  0
LINE
  5
237
330
1F
100
AcDbEntity
  8
0-C_ハッチ
  6
Continuous
 62
    40
370
     5
100
AcDbLine
 10
-2162.081444790688
 20
2127.946794545711
 30
0.0
 11
-2162.081444790688
 21
2052.946794545711
 31
0.0
  0
LINE
  5
238
330
1F
100
AcDbEntity
  8
0-C_ハッチ
  6
JWW_DASHED1
 62
   120
370
     5
100
AcDbLine
 10
2181.918579965286
 20
2093.875749731668
 30
0.0
 11
2215.989624779347
 21
2127.946794545729
 31
0.0
  0
LINE
  5
239
330
1F
100
AcDbEntity
  8
0-C_ハッチ
  6
JWW_DASHED1
 62
   120
370
     5
100
AcDbLine
 10
2650.106507233686
 20
2052.946794545722
 30
0.0
 11
2725.106507233682
 21
2127.946794545718
 31
0.0
  0
LINE
  5
23A
330
1F
100
AcDbEntity
  8
0-C_ハッチ
  6
JWW_DASHED1
 62
   120
370
     5
100
AcDbLine
 10
2607.680100362489
 20
2052.946794545725
 30
0.0
 11
2682.680100362486
 21
2127.946794545722
 31
0.0
  0
LINE
  5
23B
330
1F
100
AcDbEntity
  8
0-C_ハッチ
  6
JWW_DASHED1
 62
   120
370
     5
100
AcDbLine
 10
2565.253693491282
 20
2052.946794545718
 30
0.0
 11
2640.253693491275
 21
2127.946794545711
 31
0.0
  0
LINE
  5
23C
330
1F
100
AcDbEntity
  8
0-C_ハッチ
  6
JWW_DASHED1
 62
   120
370
     5
100
AcDbLine
 10
2522.827286620085
 20
2052.946794545722
 30
0.0
 11
2597.827286620079
 21
2127.946794545715
 31
0.0
  0
LINE
  5
23D
330
1F
100
AcDbEntity
  8
0-C_ハッチ
  6
JWW_DASHED1
 62
   120
370
     5
100
AcDbLine
 10
2480.400879748873
 20
2052.946794545711
 30
0.0
 11
2555.400879748884
 21
2127.946794545719
 31
0.0
  0
LINE
  5
23E
330
1F
100
AcDbEntity
  8
0-C_ハッチ
  6
JWW_DASHED1
 62
   120
370
     5
100
AcDbLine
 10
2437.97447287767
 20
2052.946794545705
 30
0.0
 11
2512.974472877682
 21
2127.946794545718
 31
0.0
  0
LINE
  5
23F
330
1F
100
AcDbEntity
  8
0-C_ハッチ
  6
JWW_DASHED1
 62
   120
370
     5
100
AcDbLine
 10
2395.548066006473
 20
2052.946794545711
 30
0.0
 11
2470.548066006468
 21
2127.946794545705
 31
0.0
  0
LINE
  5
240
330
1F
100
AcDbEntity
  8
0-C_ハッチ
  6
JWW_DASHED1
 62
   120
370
     5
100
AcDbLine
 10
2353.121659135335
 20
2052.946794545718
 30
0.0
 11
2428.121659135331
 21
2127.946794545712
 31
0.0
  0
LINE
  5
241
330
1F
100
AcDbEntity
  8
0-C_ハッチ
  6
JWW_DASHED1
 62
   120
370
     5
100
AcDbLine
 10
2310.695252264138
 20
2052.946794545719
 30
0.0
 11
2385.695252264135
 21
2127.946794545718
 31
0.0
  0
LINE
  5
242
330
1F
100
AcDbEntity
  8
0-C_ハッチ
  6
JWW_DASHED1
 62
   120
370
     5
100
AcDbLine
 10
2268.268845392941
 20
2052.946794545725
 30
0.0
 11
2343.268845392938
 21
2127.946794545719
 31
0.0
  0
LINE
  5
243
330
1F
100
AcDbEntity
  8
0-C_ハッチ
  6
JWW_DASHED1
 62
   120
370
     5
100
AcDbLine
 10
2225.842438521743
 20
2052.946794545725
 30
0.0
 11
2300.842438521736
 21
2127.946794545719
 31
0.0
  0
LINE
  5
244
330
1F
100
AcDbEntity
  8
0-C_ハッチ
  6
JWW_DASHED1
 62
   120
370
     5
100
AcDbLine
 10
2183.416031650531
 20
2052.946794545712
 30
0.0
 11
2258.416031650541
 21
2127.946794545725
 31
0.0
  0
LINE
  5
245
330
1F
100
AcDbEntity
  8
0-C_ハッチ
  6
JWW_DASHED1
 62
   120
370
     5
100
AcDbLine
 10
2734.959320976021
 20
2052.946794545711
 30
0.0
 11
2781.918332525465
 21
2099.905806095156
 31
0.0
  0
LINE
  5
246
330
1F
100
AcDbEntity
  8
0-C_ハッチ
  6
JWW_DASHED1
 62
   120
370
     5
100
AcDbLine
 10
2692.532914104882
 20
2052.946794545718
 30
0.0
 11
2767.532914104873
 21
2127.946794545711
 31
0.0
  0
LINE
  5
247
330
1F
100
AcDbEntity
  8
0-3_仕上げ
  6
Continuous
 62
    40
370
     5
100
AcDbLine
 10
2181.918579965286
 20
2127.946794545711
 30
0.0
 11
2781.918332525465
 21
2127.946794545711
 31
0.0
  0
LINE
  5
248
330
1F
100
AcDbEntity
  8
0-3_仕上げ
  6
Continuous
 62
    40
370
     5
100
AcDbLine
 10
2181.918579965286
 20
2052.946794545711
 30
0.0
 11
2781.918332525465
 21
2052.946794545711
 31
0.0
  0
LINE
  5
249
330
1F
100
AcDbEntity
  8
0-C_ハッチ
  6
Continuous
 62
    40
370
     5
100
AcDbLine
 10
2181.918579965286
 20
2052.946794545711
 30
0.0
 11
2181.918579965286
 21
2127.946794545711
 31
0.0
  0
LINE
  5
24A
330
1F
100
AcDbEntity
  8
0-3_仕上げ
  6
Continuous
 62
    40
370
     5
100
AcDbLine
 10
-2162.081444790688
 20
2127.946794545711
 30
0.0
 11
-2762.081197362861
 21
2127.946794545711
 31
0.0
  0
LINE
  5
24B
330
1F
100
AcDbEntity
  8
0-3_仕上げ
  6
Continuous
 62
    40
370
     5
100
AcDbLine
 10
-2162.081444790688
 20
2052.946794545711
 30
0.0
 11
-2762.081197362861
 21
2052.946794545711
 31
0.0
  0
LINE
  5
24C
330
1F
100
AcDbEntity
  8
0-C_ハッチ
  6
JWW_DASHED1
 62
   120
370
     5
100
AcDbLine
 10
-2762.081197362861
 20
2053.765625833002
 30
0.0
 11
-2687.900028650163
 21
2127.946794545705
 31
0.0
  0
LINE
  5
24D
330
1F
100
AcDbEntity
  8
0-3_仕上げ
  6
Continuous
 62
   120
370
     5
100
AcDbLine
 10
-2514.545328444393
 20
-208.000848704567
 30
0.0
 11
-2514.545328444393
 21
-406.0008487045681
 31
0.0
  0
LINE
  5
24E
330
1F
100
AcDbEntity
  8
0-C_ハッチ
  6
JWW_DASHED1
 62
   120
370
     5
100
AcDbLine
 10
-2514.54532844439
 20
66.32547189310401
 30
0.0
 11
-2439.545328444397
 21
141.3254718930985
 31
0.0
  0
LINE
  5
24F
330
1F
100
AcDbEntity
  8
0-C_ハッチ
  6
JWW_DASHED1
 62
   120
370
     5
100
AcDbLine
 10
-2514.5453284444
 20
23.89906502194748
 30
0.0
 11
-2439.54532844439
 21
98.89906502195984
 31
0.0
  0
LINE
  5
250
330
1F
100
AcDbEntity
  8
0-C_ハッチ
  6
JWW_DASHED1
 62
   120
370
     5
100
AcDbLine
 10
-2514.545328444397
 20
-18.52734184924827
 30
0.0
 11
-2439.545328444383
 21
56.47265815076281
 31
0.0
  0
LINE
  5
251
330
1F
100
AcDbEntity
  8
0-C_ハッチ
  6
JWW_DASHED1
 62
   120
370
     5
100
AcDbLine
 10
-2514.545328444393
 20
-60.95374872044573
 30
0.0
 11
-2439.545328444397
 21
14.04625127955043
 31
0.0
  0
LINE
  5
252
330
1F
100
AcDbEntity
  8
0-C_ハッチ
  6
JWW_DASHED1
 62
   120
370
     5
100
AcDbLine
 10
-2514.54532844439
 20
-103.3801555916415
 30
0.0
 11
-2439.545328444393
 21
-28.38015559164702
 31
0.0
  0
LINE
  5
253
330
1F
100
AcDbEntity
  8
0-C_ハッチ
  6
JWW_DASHED1
 62
   120
370
     5
100
AcDbLine
 10
-2514.545328444387
 20
-145.8065624628389
 30
0.0
 11
-2439.54532844439
 21
-70.80656246284406
 31
0.0
  0
LINE
  5
254
330
1F
100
AcDbEntity
  8
0-C_ハッチ
  6
JWW_DASHED1
 62
   120
370
     5
100
AcDbLine
 10
-2514.545328444383
 20
-188.2329693340373
 30
0.0
 11
-2439.54532844439
 21
-113.2329693340415
 31
0.0
  0
LINE
  5
255
330
1F
100
AcDbEntity
  8
0-C_ハッチ
  6
JWW_DASHED1
 62
   120
370
     5
100
AcDbLine
 10
-2514.545328444387
 20
-230.659376205239
 30
0.0
 11
-2439.54532844439
 21
-155.6593762052441
 31
0.0
  0
LINE
  5
256
330
1F
100
AcDbEntity
  8
0-C_ハッチ
  6
JWW_DASHED1
 62
   120
370
     5
100
AcDbLine
 10
-2514.545328444383
 20
-273.0857830764347
 30
0.0
 11
-2439.545328444387
 21
-198.0857830764403
 31
0.0
  0
LINE
  5
257
330
1F
100
AcDbEntity
  8
0-C_ハッチ
  6
JWW_DASHED1
 62
   120
370
     5
100
AcDbLine
 10
-2514.545328444403
 20
-315.5121899475994
 30
0.0
 11
-2439.54532844439
 21
-240.512189947587
 31
0.0
  0
LINE
  5
258
330
1F
100
AcDbEntity
  8
0-C_ハッチ
  6
JWW_DASHED1
 62
   120
370
     5
100
AcDbLine
 10
-2514.545328444397
 20
-357.9385968187972
 30
0.0
 11
-2439.545328444387
 21
-282.9385968187844
 31
0.0
  0
LINE
  5
259
330
1F
100
AcDbEntity
  8
0-C_ハッチ
  6
JWW_DASHED1
 62
   120
370
     5
100
AcDbLine
 10
-2514.545328444397
 20
-400.365003689993
 30
0.0
 11
-2439.545328444397
 21
-325.3650036899964
 31
0.0
  0
LINE
  5
25A
330
1F
100
AcDbEntity
  8
0-C_ハッチ
  6
JWW_DASHED1
 62
   120
370
     5
100
AcDbLine
 10
-2507.900687568597
 20
-436.1467696853941
 30
0.0
 11
-2439.545328444397
 21
-367.7914105611939
 31
0.0
  0
LINE
  5
25B
330
1F
100
AcDbEntity
  8
0-C_ハッチ
  6
JWW_DASHED1
 62
   120
370
     5
100
AcDbLine
 10
-2465.474280697397
 20
-436.1467696853941
 30
0.0
 11
-2439.54532844439
 21
-410.2178174323896
 31
0.0
  0
LINE
  5
25C
330
1F
100
AcDbEntity
  8
0-3_仕上げ
  6
Continuous
 62
    40
370
     5
100
AcDbLine
 10
-2439.545328444393
 20
-436.1467696853933
 30
0.0
 11
-2514.545328444393
 21
-436.1467696853933
 31
0.0
  0
LINE
  5
25D
330
1F
100
AcDbEntity
  8
0-3_仕上げ
  6
Continuous
 62
   120
370
     5
100
AcDbLine
 10
-2514.545328444393
 20
-340.0010318100374
 30
0.0
 11
-2934.545328444397
 21
-340.0010318100374
 31
0.0
  0
LINE
  5
25E
330
1F
100
AcDbEntity
  8
0-3_仕上げ
  6
Continuous
 62
   120
370
     5
100
AcDbLine
 10
-2934.545328444397
 20
-340.0010318100374
 30
0.0
 11
-2934.545328444397
 21
-160.0010318100374
 31
0.0
  0
LINE
  5
25F
330
1F
100
AcDbEntity
  8
0-3_仕上げ
  6
Continuous
 62
   120
370
     5
100
AcDbLine
 10
-2934.545328444397
 20
-160.0010318100374
 30
0.0
 11
-2514.545328444393
 21
-160.0010318100374
 31
0.0
  0
LINE
  5
260
330
1F
100
AcDbEntity
  8
0-3_仕上げ
  6
Continuous
 62
   120
370
     5
100
AcDbLine
 10
-2934.545328444397
 20
-160.0010318100374
 30
0.0
 11
-2514.545328444393
 21
-340.0010318100374
 31
0.0
  0
LINE
  5
261
330
1F
100
AcDbEntity
  8
0-3_仕上げ
  6
Continuous
 62
    40
370
     5
100
AcDbLine
 10
-2514.545328444393
 20
-436.1467696853933
 30
0.0
 11
-2514.545328444393
 21
229.9989830363511
 31
0.0
  0
LINE
  5
262
330
1F
100
AcDbEntity
  8
0-3_仕上げ
  6
Continuous
 62
    40
370
     5
100
AcDbLine
 10
-2439.545328444393
 20
-436.1467696853933
 30
0.0
 11
-2439.545328444393
 21
229.9989830363511
 31
0.0
  0
LINE
  5
263
330
1F
100
AcDbEntity
  8
0-C_ハッチ
  6
JWW_DASHED1
 62
   120
370
     5
100
AcDbLine
 10
-2514.545328444383
 20
151.1782856355109
 30
0.0
 11
-2439.545328444393
 21
226.1782856354855
 31
0.0
  0
LINE
  5
264
330
1F
100
AcDbEntity
  8
0-C_ハッチ
  6
JWW_DASHED1
 62
   120
370
     5
100
AcDbLine
 10
-2514.545328444393
 20
108.7518787642998
 30
0.0
 11
-2439.545328444393
 21
183.751878764301
 31
0.0
  0
MTEXT
  5
265
330
1F
100
AcDbEntity
  8
0-B_寸法
  6
Continuous
 62
     7
370
   211
100
AcDbMText
 10
-1974.309655205087
 20
1910.728893476916
 30
0.0
 40
91.43999999999984
 41
119.9999999999998
 46
0.0
 71
     7
 72
     1
  1
{\fＭＳ ゴシック|b0|i0|c128|p49;10}
 73
     1
 44
1.0
  0
LINE
  5
266
330
1F
100
AcDbEntity
  8
0-B_寸法
  6
Continuous
 62
   120
370
     5
100
AcDbLine
 10
-2042.081444790691
 20
1806.945997789481
 30
0.0
 11
-1983.202815911754
 21
1919.027093596059
 31
0.0
  0
LINE
  5
267
330
1F
100
AcDbEntity
  8
0-B_寸法
  6
Continuous
 62
   120
370
     5
100
AcDbLine
 10
-1983.202815911754
 20
1919.027093596059
 30
0.0
 11
-1873.539334135265
 21
1919.027093596059
 31
0.0
  0
LINE
  5
268
330
1F
100
AcDbEntity
  8
0-B_寸法
  6
Continuous
 62
   120
370
     5
100
AcDbLine
 10
-2264.08139531472
 20
1694.864901982902
 30
0.0
 11
-2319.168109233086
 21
1694.864901982902
 31
0.0
  0
LINE
  5
269
330
1F
100
AcDbEntity
  8
0-B_寸法
  6
Continuous
 62
   120
370
     5
100
AcDbLine
 10
-2144.08139531472
 20
1806.945997789481
 30
0.0
 11
-2264.08139531472
 21
1694.864901982902
 31
0.0
  0
MTEXT
  5
26A
330
1F
100
AcDbEntity
  8
0-B_寸法
  6
Continuous
 62
     7
370
   211
100
AcDbMText
 10
-2316.581395314719
 20
1677.917678873781
 30
0.0
 40
91.44
 41
60.0
 46
0.0
 71
     7
 72
     1
  1
{\fＭＳ ゴシック|b0|i0|c128|p49;6}
 73
     1
 44
1.0
  0
LINE
  5
26B
330
1F
100
AcDbEntity
  8
0-B_寸法
  6
Continuous
 62
   120
370
     5
100
AcDbLine
 10
-2293.083064092758
 20
1919.027093596059
 30
0.0
 11
-2348.169778011124
 21
1919.027093596059
 31
0.0
  0
MTEXT
  5
26C
330
1F
100
AcDbEntity
  8
0-B_寸法
  6
Continuous
 62
     7
370
   211
100
AcDbMText
 10
-2344.903135598305
 20
1913.908300745146
 30
0.0
 40
91.44
 41
60.0
 46
0.0
 71
     7
 72
     1
  1
{\fＭＳ ゴシック|b0|i0|c128|p49;5}
 73
     1
 44
1.0
  0
LINE
  5
26D
330
1F
100
AcDbEntity
  8
0-B_寸法
  6
Continuous
 62
   120
370
     5
100
AcDbLine
 10
-2173.083064092758
 20
1806.945997789481
 30
0.0
 11
-2293.083064092758
 21
1919.027093596059
 31
0.0
  0
LWPOLYLINE
  5
26E
330
1F
100
AcDbEntity
  8
0-B_寸法
  6
Continuous
 62
     7
370
     5
100
AcDbPolyline
 90
        4
 70
     1
 43
3.0
 10
-2471.045352604166
 20
-881.4833562677842
 42
0.4142135623731
 10
-2472.545352604166
 20
-879.9833562677842
 42
0.4142135623731
 10
-2474.045352604166
 20
-881.4833562677842
 42
0.4142135623731
 10
-2472.545352604166
 20
-882.9833562677842
 42
0.4142135623731
  0
LINE
  5
26F
330
1F
100
AcDbEntity
  8
0-B_寸法
  6
Continuous
 62
   120
370
     5
100
AcDbLine
 10
-2472.545352604166
 20
-881.4833562677842
 30
0.0
 11
-2472.545352604166
 21
-727.7724088458899
 31
0.0
  0
LWPOLYLINE
  5
270
330
1F
100
AcDbEntity
  8
0-B_寸法
  6
Continuous
 62
     7
370
     5
100
AcDbPolyline
 90
        4
 70
     1
 43
3.0
 10
-3005.045398380532
 20
-881.4833562677842
 42
0.4142135623731
 10
-3006.545398380532
 20
-879.9833562677842
 42
0.4142135623731
 10
-3008.045398380532
 20
-881.4833562677842
 42
0.4142135623731
 10
-3006.545398380532
 20
-882.9833562677842
 42
0.4142135623731
  0
LINE
  5
271
330
1F
100
AcDbEntity
  8
0-B_寸法
  6
Continuous
 62
   120
370
     5
100
AcDbLine
 10
-3006.545398380532
 20
-881.4833562677842
 30
0.0
 11
-3006.545398380532
 21
-727.7724088458899
 31
0.0
  0
LINE
  5
272
330
1F
100
AcDbEntity
  8
0-B_寸法
  6
Continuous
 62
   120
370
     5
100
AcDbLine
 10
-2472.545352604166
 20
-881.4833562677842
 30
0.0
 11
-3006.545398380532
 21
-881.4833562677842
 31
0.0
  0
MTEXT
  5
273
330
1F
100
AcDbEntity
  8
0-B_寸法
  6
Continuous
 62
     7
370
     0
100
AcDbMText
 10
-2799.545336709579
 20
-880.7633562677842
 30
0.0
 40
91.44
 41
120.0
 46
0.0
 71
     7
 72
     1
  1
{\fＭＳ ゴシック|b0|i0|c128|p49;89}
 73
     1
 44
1.0
  0
LINE
  5
274
330
1F
100
AcDbEntity
  8
0-4_枠
  6
Continuous
 62
   120
370
     5
100
AcDbLine
 10
-2463.545336709584
 20
-436.1467696853933
 30
0.0
 11
-2463.545336709584
 21
-3298.000683140455
 31
0.0
  0
LINE
  5
275
330
1F
100
AcDbEntity
  8
0-4_枠
  6
Continuous
 62
   120
370
     5
100
AcDbLine
 10
-2871.545352604161
 20
-370.1469527908625
 30
0.0
 11
-3015.54533670958
 21
-370.1469527908625
 31
0.0
  0
MTEXT
  5
276
330
1F
100
AcDbEntity
  8
0-B_寸法
  6
Continuous
 62
     7
370
   211
100
AcDbMText
 10
-2164.906462585034
 20
1087.665997789479
 30
0.0
 40
91.44
 41
60.0
 46
0.0
 71
     7
 72
     1
  1
{\fＭＳ ゴシック|b0|i0|c128|p49;5}
 73
     1
 44
1.0
  0
MTEXT
  5
277
330
1F
100
AcDbEntity
  8
0-B_寸法
  6
Continuous
 62
     7
370
   211
100
AcDbMText
 10
2127.014546923495
 20
1087.665997789479
 30
0.0
 40
91.44
 41
60.0
 46
0.0
 71
     7
 72
     1
  1
{\fＭＳ ゴシック|b0|i0|c128|p49;5}
 73
     1
 44
1.0
  0
MTEXT
  5
278
330
1F
100
AcDbEntity
  8
0-0_補助線
  6
Continuous
 62
     7
370
     0
100
AcDbMText
 10
-945.709857599942
 20
-456.9448390042269
 30
0.0
 40
91.44
 41
1440.0
 46
0.0
 71
     7
 72
     1
  1
{\fＭＳ ゴシック|b0|i0|c128|p49;竪枠下端形状図（S＝1/3）}
 73
     1
 44
1.0
  0
MTEXT
  5
279
330
1F
100
AcDbEntity
  8
0-0_補助線
  6
Continuous
 62
     7
370
   211
100
AcDbMText
 10
-250.5924023261923
 20
-1241.601415352089
 30
0.0
 40
91.44
 41
120.0
 46
0.0
 71
     7
 72
     1
  1
{\fＭＳ ゴシック|b0|i0|c128|p49;92}
 73
     1
 44
1.0
  0
MTEXT
  5
27A
330
1F
100
AcDbEntity
  8
0-C_ハッチ
  6
Continuous
 62
     7
370
     5
100
AcDbMText
 10
772.4436331715276
 20
-232.1503521683902
 30
0.0
 40
91.43999999999997
 41
2520.0
 46
0.0
 71
     7
 72
     1
  1
{\fＭＳ ゴシック|b0|i0|c128|p49;■ガイドランナーの取り付け(ＭＵＫＵ調整枠)}
 73
     1
 44
1.0
  0
MTEXT
  5
27B
330
1F
100
AcDbEntity
  8
0-C_ハッチ
  6
Continuous
 62
     7
370
     5
100
AcDbMText
 10
1471.524823235351
 20
-453.1832160419708
 30
0.0
 40
91.44
 41
960.0
 46
0.0
 71
     7
 72
     1
  1
{\fＭＳ ゴシック|b0|i0|c128|p49;下固定ストッパー}
 73
     1
 44
1.0
  0
MTEXT
  5
27C
330
1F
100
AcDbEntity
  8
0-C_ハッチ
  6
Continuous
 62
     7
370
     5
100
AcDbMText
 10
3240.324823235356
 20
-453.1832160419709
 30
0.0
 40
91.43999999999997
 41
2160.0
 46
0.0
 71
     7
 72
     1
  1
{\fＭＳ ゴシック|b0|i0|c128|p49;ストライク(可動側受け金具)の取り付け}
 73
     1
 44
1.0
  0
MTEXT
  5
27D
330
1F
100
AcDbEntity
  8
0-C_ハッチ
  6
Continuous
 62
     7
370
     5
100
AcDbMText
 10
880.5782096573059
 20
-687.8619431966667
 30
0.0
 40
64.00799999999997
 41
1973.999999999999
 46
0.0
 71
     7
 72
     1
  1
{\fＭＳ ゴシック|b0|i0|c128|p49;竪枠の後ろ面から6.5㎜内側に取り付けてください。}
 73
     1
 44
1.0
  0
MTEXT
  5
27E
330
1F
100
AcDbEntity
  8
0-C_ハッチ
  6
Continuous
 62
     7
370
     5
100
AcDbMText
 10
3198.120915689083
 20
-687.8619431966667
 30
0.0
 40
64.00800000000001
 41
2100.0
 46
0.0
 71
     7
 72
     1
  1
{\fＭＳ ゴシック|b0|i0|c128|p49;扉を吊った後ストライクを取り付ける際は、下図のよう}
 73
     1
 44
1.0
  0
MTEXT
  5
27F
330
1F
100
AcDbEntity
  8
0-C_ハッチ
  6
Continuous
 62
     7
370
     5
100
AcDbMText
 10
880.5782096573051
 20
-810.261943196668
 30
0.0
 40
64.00800000000005
 41
1806.000000000001
 46
0.0
 71
     7
 72
     1
  1
{\fＭＳ ゴシック|b0|i0|c128|p49;ストッパー側面は竪枠から6.5㎜離して下さい。}
 73
     1
 44
1.0
  0
MTEXT
  5
280
330
1F
100
AcDbEntity
  8
0-C_ハッチ
  6
Continuous
 62
     7
370
     5
100
AcDbMText
 10
3198.120915689083
 20
-810.2619431966646
 30
0.0
 40
64.00800000000001
 41
2100.0
 46
0.0
 71
     7
 72
     1
  1
{\fＭＳ ゴシック|b0|i0|c128|p49;に下用ガイド軸とストライクの位置決め溝をそろえて、}
 73
     1
 44
1.0
  0
MTEXT
  5
281
330
1F
100
AcDbEntity
  8
0-C_ハッチ
  6
Continuous
 62
     7
370
     5
100
AcDbMText
 10
3198.120915689083
 20
-932.6619431966658
 30
0.0
 40
64.00799999999998
 41
1511.999999999999
 46
0.0
 71
     7
 72
     1
  1
{\fＭＳ ゴシック|b0|i0|c128|p49;床に付属のビスで取り付けてください。}
 73
     1
 44
1.0
  0
MTEXT
  5
282
330
1F
100
AcDbEntity
  8
0-C_ハッチ
  6
Continuous
 62
     7
370
     5
100
AcDbMText
 10
1744.388509928367
 20
-1211.530516104894
 30
0.0
 40
45.72
 41
300.0
 46
0.0
 71
     7
 72
     1
  1
{\fＭＳ ゴシック|b0|i0|c128|p49;枠センター}
 73
     1
 44
1.0
  0
MTEXT
  5
283
330
1F
100
AcDbEntity
  8
0-C_ハッチ
  6
Continuous
 62
     7
370
     5
100
AcDbMText
 10
2447.604595177376
 20
-1406.694461590851
 30
0.0
 40
45.71999999999998
 41
600.0
 46
0.0
 71
     7
 72
     1
  1
{\fＭＳ ゴシック|b0|i0|c128|p49;取り付けビス(同梱品)}
 73
     1
 44
1.0
  0
MTEXT
  5
284
330
1F
100
AcDbEntity
  8
0-C_ハッチ
  6
Continuous
 62
     7
370
   211
100
AcDbMText
 10
1881.828189925701
 20
-1826.289951635738
 30
0.0
 40
68.57999999999998
 41
225.0
 46
0.0
 71
     7
 72
     1
  1
{\fＭＳ ゴシック|b0|i0|c128|p49;6.5㎜}
 73
     1
 44
1.0
  0
MTEXT
  5
285
330
1F
100
AcDbEntity
  8
0-C_ハッチ
  6
Continuous
 62
     7
370
     5
100
AcDbMText
 10
4746.433980554568
 20
-1886.856973283327
 30
0.0
 40
45.72
 41
180.0
 46
0.0
 71
     7
 72
     1
  1
{\fＭＳ ゴシック|b0|i0|c128|p49;ガイド}
 73
     1
 44
1.0
  0
MTEXT
  5
286
330
1F
100
AcDbEntity
  8
0-C_ハッチ
  6
Continuous
 62
     7
370
     5
100
AcDbMText
 10
4614.8620451083
 20
-2106.334354980748
 30
0.0
 40
45.71999999999999
 41
600.0
 46
0.0
 71
     7
 72
     1
  1
{\fＭＳ ゴシック|b0|i0|c128|p49;ストライクとガイドの}
 73
     1
 44
1.0
  0
MTEXT
  5
287
330
1F
100
AcDbEntity
  8
0-C_ハッチ
  6
Continuous
 62
     7
370
     5
100
AcDbMText
 10
3984.932856190254
 20
-2135.621996034335
 30
0.0
 40
45.72
 41
360.0
 46
0.0
 71
     7
 72
     1
  1
{\fＭＳ ゴシック|b0|i0|c128|p49;枠の前面より}
 73
     1
 44
1.0
  0
MTEXT
  5
288
330
1F
100
AcDbEntity
  8
0-C_ハッチ
  6
Continuous
 62
     7
370
     5
100
AcDbMText
 10
4614.8620451083
 20
-2174.362880596937
 30
0.0
 40
45.72
 41
300.0
 46
0.0
 71
     7
 72
     1
  1
{\fＭＳ ゴシック|b0|i0|c128|p49;位置決め溝}
 73
     1
 44
1.0
  0
LINE
  5
289
330
1F
100
AcDbEntity
  8
0-C_ハッチ
  6
Continuous
 62
    92
370
     5
100
AcDbLine
 10
5504.724823235356
 20
-486.9032160419694
 30
0.0
 11
767.1248232353471
 21
-486.9032160419694
 31
0.0
  0
LINE
  5
28A
330
1F
100
AcDbEntity
  8
0-C_ハッチ
  6
JWW_HOJO
 62
   120
370
     5
100
AcDbLine
 10
3198.120915689083
 20
-568.6659431966679
 30
0.0
 11
5292.134674649084
 21
-568.6659431966679
 31
0.0
  0
LINE
  5
28B
330
1F
100
AcDbEntity
  8
0-C_ハッチ
  6
JWW_HOJO
 62
   120
370
     5
100
AcDbLine
 10
3198.120915689083
 20
-935.8659431966647
 30
0.0
 11
5292.134674649084
 21
-935.8659431966647
 31
0.0
  0
LINE
  5
28C
330
1F
100
AcDbEntity
  8
0-C_ハッチ
  6
JWW_HOJO
 62
   120
370
     5
100
AcDbLine
 10
3198.120915689083
 20
-691.0659431966657
 30
0.0
 11
5292.134674649084
 21
-691.0659431966657
 31
0.0
  0
LINE
  5
28D
330
1F
100
AcDbEntity
  8
0-C_ハッチ
  6
JWW_HOJO
 62
   120
370
     5
100
AcDbLine
 10
3198.120915689083
 20
-813.4659431966656
 30
0.0
 11
5292.134674649084
 21
-813.4659431966656
 31
0.0
  0
LINE
  5
28E
330
1F
100
AcDbEntity
  8
0-C_ハッチ
  6
JWW_HOJO
 62
   120
370
     5
100
AcDbLine
 10
5292.134674649084
 20
-568.6659431966679
 30
0.0
 11
5292.134674649084
 21
-935.8659431966647
 31
0.0
  0
LINE
  5
28F
330
1F
100
AcDbEntity
  8
0-C_ハッチ
  6
Continuous
 62
   120
370
     5
100
AcDbLine
 10
4351.696449626924
 20
-1849.716973283327
 30
0.0
 11
4717.633980554559
 21
-1849.716973283327
 31
0.0
  0
LINE
  5
290
330
1F
100
AcDbEntity
  8
0-C_ハッチ
  6
Continuous
 62
   120
370
     5
100
AcDbLine
 10
4555.98729978532
 20
-2069.194354980748
 30
0.0
 11
4614.8620451083
 21
-2069.194354980748
 31
0.0
  0
LINE
  5
291
330
1F
100
AcDbEntity
  8
0-C_ハッチ
  6
Continuous
 62
   120
370
     5
100
AcDbLine
 10
4432.155760628747
 20
-1945.362815824175
 30
0.0
 11
4555.98729978532
 21
-2069.194354980748
 31
0.0
  0
LINE
  5
292
330
1F
100
AcDbEntity
  8
0-C_ハッチ
  6
Continuous
 62
   120
370
     5
100
AcDbLine
 10
3852.757161893132
 20
-1983.928005596795
 30
0.0
 11
3971.33458015226
 21
-2095.530281605389
 31
0.0
  0
LINE
  5
293
330
1F
100
AcDbEntity
  8
0-C_ハッチ
  6
Continuous
 62
    92
370
     5
100
AcDbLine
 10
3135.924823235353
 20
-3370.000660870872
 30
0.0
 11
3135.924823235353
 21
-270.9032160419697
 31
0.0
  0
LINE
  5
294
330
1F
100
AcDbEntity
  8
0-C_ハッチ
  6
Continuous
 62
    92
370
     5
100
AcDbLine
 10
767.1248232353471
 20
-270.9032160419697
 30
0.0
 11
5504.724823235356
 21
-270.9032160419697
 31
0.0
  0
LINE
  5
295
330
1F
100
AcDbEntity
  8
0-C_ハッチ
  6
Continuous
 62
    92
370
     5
100
AcDbLine
 10
5504.724823235356
 20
-3370.000660870872
 30
0.0
 11
5504.724823235356
 21
-270.9032160419697
 31
0.0
  0
LINE
  5
296
330
1F
100
AcDbEntity
  8
0-C_ハッチ
  6
Continuous
 62
    92
370
     5
100
AcDbLine
 10
767.1248232353471
 20
-3370.000660870872
 30
0.0
 11
767.1248232353471
 21
-270.9032160419697
 31
0.0
  0
LINE
  5
297
330
1F
100
AcDbEntity
  8
0-C_ハッチ
  6
JWW_HOJO
 62
   120
370
     5
100
AcDbLine
 10
880.5782096573059
 20
-568.6659431966679
 30
0.0
 11
2949.1891870973
 21
-568.6659431966679
 31
0.0
  0
LINE
  5
298
330
1F
100
AcDbEntity
  8
0-C_ハッチ
  6
JWW_HOJO
 62
   120
370
     5
100
AcDbLine
 10
880.5782096573059
 20
-691.0659431966678
 30
0.0
 11
2949.1891870973
 21
-691.0659431966678
 31
0.0
  0
LINE
  5
299
330
1F
100
AcDbEntity
  8
0-C_ハッチ
  6
JWW_HOJO
 62
   120
370
     5
100
AcDbLine
 10
2949.1891870973
 20
-568.6659431966679
 30
0.0
 11
2949.1891870973
 21
-813.4659431966669
 31
0.0
  0
LINE
  5
29A
330
1F
100
AcDbEntity
  8
0-C_ハッチ
  6
JWW_HOJO
 62
   120
370
     5
100
AcDbLine
 10
880.5782096573059
 20
-568.6659431966679
 30
0.0
 11
880.5782096573059
 21
-813.4659431966669
 31
0.0
  0
LINE
  5
29B
330
1F
100
AcDbEntity
  8
0-C_ハッチ
  6
JWW_HOJO
 62
   120
370
     5
100
AcDbLine
 10
2949.1891870973
 20
-813.4659431966669
 30
0.0
 11
880.5782096573059
 21
-813.4659431966669
 31
0.0
  0
LINE
  5
29C
330
1F
100
AcDbEntity
  8
0-C_ハッチ
  6
Continuous
 62
     7
370
     5
100
AcDbLine
 10
3485.31550709282
 20
-3169.417063814756
 30
0.0
 11
3485.31550709282
 21
-2289.481528361924
 31
0.0
  0
LINE
  5
29D
330
1F
100
AcDbEntity
  8
0-C_ハッチ
  6
Continuous
 62
     7
370
     5
100
AcDbLine
 10
5155.334139377892
 20
-3169.417063814756
 30
0.0
 11
5155.334139377892
 21
-2289.481528361924
 31
0.0
  0
LINE
  5
29E
330
1F
100
AcDbEntity
  8
0-C_ハッチ
  6
Continuous
 62
     7
370
     5
100
AcDbLine
 10
3485.31550709282
 20
-3169.417063814756
 30
0.0
 11
5155.334139377892
 21
-3169.417063814756
 31
0.0
  0
LINE
  5
29F
330
1F
100
AcDbEntity
  8
0-C_ハッチ
  6
Continuous
 62
     7
370
     5
100
AcDbLine
 10
5155.334139377892
 20
-2289.481528361924
 30
0.0
 11
3485.31550709282
 21
-2289.481528361924
 31
0.0
  0
LINE
  5
2A0
330
1F
100
AcDbEntity
  8
0-C_ハッチ
  6
JWW_CENTER1
 62
   120
370
     5
100
AcDbLine
 10
3417.724289410769
 20
-2058.994182125165
 30
0.0
 11
5269.390461394169
 21
-1700.834871942616
 31
0.0
  0
LINE
  5
2A1
330
1F
100
AcDbEntity
  8
0-C_ハッチ
  6
Continuous
 62
    40
370
     5
100
AcDbLine
 10
3514.659207552962
 20
-1867.522469858088
 30
0.0
 11
3514.659207552962
 21
-1283.020619243872
 31
0.0
  0
LINE
  5
2A2
330
1F
100
AcDbEntity
  8
0-C_ハッチ
  6
Continuous
 62
    40
370
     5
100
AcDbLine
 10
3757.352402675051
 20
-1910.196846592524
 30
0.0
 11
3757.352402675051
 21
-1304.363056870185
 31
0.0
  0
LINE
  5
2A3
330
1F
100
AcDbEntity
  8
0-C_ハッチ
  6
Continuous
 62
    40
370
     5
100
AcDbLine
 10
3757.352402675051
 20
-1910.196846592524
 30
0.0
 11
3514.659207552962
 21
-1867.522469858088
 31
0.0
  0
LINE
  5
2A4
330
1F
100
AcDbEntity
  8
0-C_ハッチ
  6
Continuous
 62
    40
370
     5
100
AcDbLine
 10
4096.319109293429
 20
-1850.779433050355
 30
0.0
 11
3757.352402675051
 21
-1910.196846592524
 31
0.0
  0
LINE
  5
2A5
330
1F
100
AcDbEntity
  8
0-C_ハッチ
  6
Continuous
 62
    40
370
     5
100
AcDbLine
 10
1385.934452407211
 20
-2086.202672344737
 30
0.0
 11
1385.934452407211
 21
-1213.944755288705
 31
0.0
  0
LINE
  5
2A6
330
1F
100
AcDbEntity
  8
0-C_ハッチ
  6
Continuous
 62
    40
370
     5
100
AcDbLine
 10
1272.926287174456
 20
-2144.36981414128
 30
0.0
 11
1385.934369553022
 21
-2086.2025113747
 31
0.0
  0
LINE
  5
2A7
330
1F
100
AcDbEntity
  8
0-C_ハッチ
  6
Continuous
 62
    40
370
     5
100
AcDbLine
 10
1272.926287174456
 20
-2144.36981414128
 30
0.0
 11
1272.926287174456
 21
-1273.689042981774
 31
0.0
  0
LINE
  5
2A8
330
1F
100
AcDbEntity
  8
0-C_ハッチ
  6
Continuous
 62
    40
370
     5
100
AcDbLine
 10
1272.926287174456
 20
-2144.36981414128
 30
0.0
 11
1082.684295989976
 21
-1950.181595003065
 31
0.0
  0
LINE
  5
2A9
330
1F
100
AcDbEntity
  8
0-C_ハッチ
  6
Continuous
 62
    40
370
     5
100
AcDbLine
 10
1082.684295989976
 20
-1146.219679690388
 30
0.0
 11
1082.684295989976
 21
-1950.181595003065
 31
0.0
  0
LINE
  5
2AA
330
1F
100
AcDbEntity
  8
0-C_ハッチ
  6
Continuous
 62
    40
370
     5
100
AcDbLine
 10
1472.208327892501
 20
-1272.730251948974
 30
0.0
 11
1472.208327892501
 21
-2154.606502511033
 31
0.0
  0
LINE
  5
2AB
330
1F
100
AcDbEntity
  8
0-C_ハッチ
  6
Continuous
 62
    40
370
     5
100
AcDbLine
 10
1447.131232036635
 20
-1266.460977985008
 30
0.0
 11
1447.131232036635
 21
-2148.668869104149
 31
0.0
  0
LINE
  5
2AC
330
1F
100
AcDbEntity
  8
0-C_ハッチ
  6
Continuous
 62
    40
370
     5
100
AcDbLine
 10
1447.131232036635
 20
-2148.668869104149
 30
0.0
 11
1385.934452407211
 21
-2086.202672344737
 31
0.0
  0
LINE
  5
2AD
330
1F
100
AcDbEntity
  8
0-C_ハッチ
  6
Continuous
 62
    40
370
     5
100
AcDbLine
 10
1472.208327892501
 20
-2154.606502511033
 30
0.0
 11
1447.131232036635
 21
-2148.668869104149
 31
0.0
  0
LINE
  5
2AE
330
1F
100
AcDbEntity
  8
0-C_ハッチ
  6
JWW_CENTER1
 62
   120
370
     5
100
AcDbLine
 10
1856.917119333963
 20
-1244.06438601202
 30
0.0
 11
1856.917119333963
 21
-1956.569067425861
 31
0.0
  0
LINE
  5
2AF
330
1F
100
AcDbEntity
  8
0-C_ハッチ
  6
JWW_CENTER1
 62
   120
370
     5
100
AcDbLine
 10
1857.015119087364
 20
-1956.455538633524
 30
0.0
 11
2497.131329145633
 21
-2509.013435544076
 31
0.0
  0
LWPOLYLINE
  5
2B0
330
1F
100
AcDbEntity
  8
0-C_ハッチ
  6
Continuous
 62
   120
370
     5
100
AcDbPolyline
 90
        4
 70
     1
 43
3.0
 10
2950.866574691815
 20
-2370.501501299208
 42
0.4142135623731
 10
2949.366574691815
 20
-2369.001501299208
 42
0.4142135623731
 10
2947.866574691815
 20
-2370.501501299208
 42
0.4142135623731
 10
2949.366574691815
 20
-2372.001501299208
 42
0.4142135623731
  0
LINE
  5
2B1
330
1F
100
AcDbEntity
  8
0-C_ハッチ
  6
JWW_DASHED1
 62
     7
370
     5
100
AcDbLine
 10
2322.945550326933
 20
-1716.615740984128
 30
0.0
 11
2887.651401468947
 21
-2204.078286967318
 31
0.0
  0
LINE
  5
2B2
330
1F
100
AcDbEntity
  8
0-C_ハッチ
  6
Continuous
 62
   120
370
     5
100
AcDbLine
 10
2949.366574691815
 20
-2370.501501299208
 30
0.0
 11
3029.404957639171
 21
-2326.667496468399
 31
0.0
  0
LWPOLYLINE
  5
2B3
330
1F
100
AcDbEntity
  8
0-C_ハッチ
  6
Continuous
 62
   120
370
     5
100
AcDbPolyline
 90
        4
 70
     1
 43
3.0
 10
3030.904957639171
 20
-2326.667496468399
 42
0.4142135623731
 10
3029.404957639171
 20
-2325.167496468399
 42
0.4142135623731
 10
3027.904957639172
 20
-2326.667496468399
 42
0.4142135623731
 10
3029.404957639171
 20
-2328.167496468399
 42
0.4142135623731
  0
LINE
  5
2B4
330
1F
100
AcDbEntity
  8
0-C_ハッチ
  6
Continuous
 62
   120
370
     5
100
AcDbLine
 10
3029.404957639171
 20
-2326.667496468399
 30
0.0
 11
2887.885712444976
 21
-2204.506125393229
 31
0.0
  0
LINE
  5
2B5
330
1F
100
AcDbEntity
  8
0-C_ハッチ
  6
Continuous
 62
    40
370
     5
100
AcDbLine
 10
2322.945550326933
 20
-1716.615740984128
 30
0.0
 11
2322.945550326933
 21
-1186.902963951724
 31
0.0
  0
LINE
  5
2B6
330
1F
100
AcDbEntity
  8
0-C_ハッチ
  6
Continuous
 62
   120
370
     5
100
AcDbLine
 10
2949.366574691815
 20
-2370.501501299208
 30
0.0
 11
2807.501438811403
 21
-2248.041552596575
 31
0.0
  0
LINE
  5
2B7
330
1F
100
AcDbEntity
  8
0-C_ハッチ
  6
Continuous
 62
    40
370
     5
100
AcDbLine
 10
1472.208456053354
 20
-2154.606751491731
 30
0.0
 11
2323.004182486793
 21
-1716.66635314241
 31
0.0
  0
ARC
  5
2B8
330
1F
100
AcDbEntity
  8
0-C_ハッチ
  6
Continuous
 62
     7
370
     5
100
AcDbCircle
 10
4499.612762923941
 20
-1720.114603399221
 30
0.0
 40
30.0
100
AcDbArc
 50
247.1651394203828
 51
5.793612550752308
  0
LINE
  5
2B9
330
1F
100
AcDbEntity
  8
0-C_ハッチ
  6
Continuous
 62
     7
370
     5
100
AcDbLine
 10
4529.459521982139
 20
-1717.086241841902
 30
0.0
 11
4522.426666435533
 21
-1647.772211460217
 31
0.0
  0
ARC
  5
2BA
330
1F
100
AcDbEntity
  8
0-C_ハッチ
  6
Continuous
 62
     7
370
     5
100
AcDbCircle
 10
4492.391699653742
 20
-1416.038111213025
 30
0.0
 40
180.0
100
AcDbArc
 50
0.0
 51
48.66116247688833
  0
LINE
  5
2BB
330
1F
100
AcDbEntity
  8
0-C_ハッチ
  6
Continuous
 62
     7
370
     5
100
AcDbLine
 10
4672.391699653742
 20
-1727.436542255681
 30
0.0
 11
4672.391699653742
 21
-1416.038111213025
 31
0.0
  0
LINE
  5
2BC
330
1F
100
AcDbEntity
  8
0-C_ハッチ
  6
Continuous
 62
     7
370
     5
100
AcDbLine
 10
4407.245061217995
 20
-1836.835301192774
 30
0.0
 11
4401.808666036802
 21
-1875.457981138877
 31
0.0
  0
LINE
  5
2BD
330
1F
100
AcDbEntity
  8
0-C_ハッチ
  6
Continuous
 62
     7
370
     5
100
AcDbLine
 10
4359.727718042997
 20
-1898.548215735977
 30
0.0
 11
4357.475523428514
 21
-1898.945059723519
 31
0.0
  0
LINE
  5
2BE
330
1F
100
AcDbEntity
  8
0-C_ハッチ
  6
Continuous
 62
     7
370
     5
100
AcDbLine
 10
4357.475523428514
 20
-1898.945059723519
 30
0.0
 11
4355.358759698665
 21
-1899.318282045136
 31
0.0
  0
LINE
  5
2BF
330
1F
100
AcDbEntity
  8
0-C_ハッチ
  6
Continuous
 62
     7
370
     5
100
AcDbLine
 10
4355.358759698665
 20
-1899.318282045136
 30
0.0
 11
4353.377689316412
 21
-1899.667357774919
 31
0.0
  0
LINE
  5
2C0
330
1F
100
AcDbEntity
  8
0-C_ハッチ
  6
Continuous
 62
     7
370
     5
100
AcDbLine
 10
4353.377689316412
 20
-1899.667357774919
 30
0.0
 11
4351.532049818795
 21
-1899.992811838776
 31
0.0
  0
LINE
  5
2C1
330
1F
100
AcDbEntity
  8
0-C_ハッチ
  6
Continuous
 62
     7
370
     5
100
AcDbLine
 10
4351.532049818795
 20
-1899.992811838776
 30
0.0
 11
4349.822103668769
 21
-1900.294119310798
 31
0.0
  0
LINE
  5
2C2
330
1F
100
AcDbEntity
  8
0-C_ハッチ
  6
Continuous
 62
     7
370
     5
100
AcDbLine
 10
4349.822103668769
 20
-1900.294119310798
 30
0.0
 11
4348.263073717711
 21
-1900.49254130457
 31
0.0
  0
LINE
  5
2C3
330
1F
100
AcDbEntity
  8
0-C_ハッチ
  6
Continuous
 62
     7
370
     5
100
AcDbLine
 10
4348.263073717711
 20
-1900.49254130457
 30
0.0
 11
4346.383051573025
 21
-1900.709335705172
 31
0.0
  0
LINE
  5
2C4
330
1F
100
AcDbEntity
  8
0-C_ハッチ
  6
Continuous
 62
     7
370
     5
100
AcDbLine
 10
4346.383051573025
 20
-1900.709335705172
 30
0.0
 11
4344.182037234713
 21
-1900.945027438513
 31
0.0
  0
LINE
  5
2C5
330
1F
100
AcDbEntity
  8
0-C_ハッチ
  6
Continuous
 62
     7
370
     5
100
AcDbLine
 10
4344.182037234713
 20
-1900.945027438513
 30
0.0
 11
4341.660030702773
 21
-1901.199616504596
 31
0.0
  0
LINE
  5
2C6
330
1F
100
AcDbEntity
  8
0-C_ハッチ
  6
Continuous
 62
     7
370
     5
100
AcDbLine
 10
4341.660030702773
 20
-1901.199616504596
 30
0.0
 11
4338.817294440161
 21
-1901.473627829328
 31
0.0
  0
LINE
  5
2C7
330
1F
100
AcDbEntity
  8
0-C_ハッチ
  6
Continuous
 62
     7
370
     5
100
AcDbLine
 10
4338.817294440161
 20
-1901.473627829328
 30
0.0
 11
4335.653303520966
 21
-1901.76601156089
 31
0.0
  0
LINE
  5
2C8
330
1F
100
AcDbEntity
  8
0-C_ハッチ
  6
Continuous
 62
     7
370
     5
100
AcDbLine
 10
4335.653303520966
 20
-1901.76601156089
 30
0.0
 11
4332.1685828711
 21
-1902.077292625192
 31
0.0
  0
LINE
  5
2C9
330
1F
100
AcDbEntity
  8
0-C_ハッチ
  6
Continuous
 62
     7
370
     5
100
AcDbLine
 10
4332.1685828711
 20
-1902.077292625192
 30
0.0
 11
4328.362870027606
 21
-1902.407471022235
 31
0.0
  0
LINE
  5
2CA
330
1F
100
AcDbEntity
  8
0-C_ハッチ
  6
Continuous
 62
     7
370
     5
100
AcDbLine
 10
4328.362870027606
 20
-1902.407471022235
 30
0.0
 11
4324.332751357823
 21
-1902.732400160182
 31
0.0
  0
LINE
  5
2CB
330
1F
100
AcDbEntity
  8
0-C_ハッチ
  6
Continuous
 62
     7
370
     5
100
AcDbLine
 10
4324.332751357823
 20
-1902.732400160182
 30
0.0
 11
4320.174550766136
 21
-1903.026883595383
 31
0.0
  0
LINE
  5
2CC
330
1F
100
AcDbEntity
  8
0-C_ハッチ
  6
Continuous
 62
     7
370
     5
100
AcDbLine
 10
4320.174550766136
 20
-1903.026883595383
 30
0.0
 11
4315.888793178453
 21
-1903.291446253744
 31
0.0
  0
LINE
  5
2CD
330
1F
100
AcDbEntity
  8
0-C_ハッチ
  6
Continuous
 62
     7
370
     5
100
AcDbLine
 10
4315.888793178453
 20
-1903.291446253744
 30
0.0
 11
4311.475216131819
 21
-1903.525563209357
 31
0.0
  0
LINE
  5
2CE
330
1F
100
AcDbEntity
  8
0-C_ハッチ
  6
Continuous
 62
     7
370
     5
100
AcDbLine
 10
4311.475216131819
 20
-1903.525563209357
 30
0.0
 11
4306.933819626236
 21
-1903.729759388132
 31
0.0
  0
LINE
  5
2CF
330
1F
100
AcDbEntity
  8
0-C_ハッチ
  6
Continuous
 62
     7
370
     5
100
AcDbLine
 10
4306.933819626236
 20
-1903.729759388132
 30
0.0
 11
4302.2646036617
 21
-1903.904034790069
 31
0.0
  0
LINE
  5
2D0
330
1F
100
AcDbEntity
  8
0-C_ハッチ
  6
Continuous
 62
     7
370
     5
100
AcDbLine
 10
4302.2646036617
 20
-1903.904034790069
 30
0.0
 11
4297.467568238216
 21
-1904.047864489258
 31
0.0
  0
LINE
  5
2D1
330
1F
100
AcDbEntity
  8
0-C_ハッチ
  6
Continuous
 62
     7
370
     5
100
AcDbLine
 10
4297.467568238216
 20
-1904.047864489258
 30
0.0
 11
4292.542713355781
 21
-1904.162298337517
 31
0.0
  0
LINE
  5
2D2
330
1F
100
AcDbEntity
  8
0-C_ハッチ
  6
Continuous
 62
     7
370
     5
100
AcDbLine
 10
4292.542713355781
 20
-1904.162298337517
 30
0.0
 11
4287.595549122193
 21
-1904.209541669366
 31
0.0
  0
LINE
  5
2D3
330
1F
100
AcDbEntity
  8
0-C_ハッチ
  6
Continuous
 62
     7
370
     5
100
AcDbLine
 10
4287.595549122193
 20
-1904.209541669366
 30
0.0
 11
4282.732110571164
 21
-1904.153374597056
 31
0.0
  0
LINE
  5
2D4
330
1F
100
AcDbEntity
  8
0-C_ハッチ
  6
Continuous
 62
     7
370
     5
100
AcDbLine
 10
4282.732110571164
 20
-1904.153374597056
 30
0.0
 11
4277.952397702688
 21
-1903.994846972404
 31
0.0
  0
LINE
  5
2D5
330
1F
100
AcDbEntity
  8
0-C_ハッチ
  6
Continuous
 62
     7
370
     5
100
AcDbLine
 10
4277.952397702688
 20
-1903.994846972404
 30
0.0
 11
4273.255885590865
 21
-1903.73238401768
 31
0.0
  0
LINE
  5
2D6
330
1F
100
AcDbEntity
  8
0-C_ハッチ
  6
Continuous
 62
     7
370
     5
100
AcDbLine
 10
4273.255885590865
 20
-1903.73238401768
 30
0.0
 11
4268.643099161593
 21
-1903.367035584704
 31
0.0
  0
LINE
  5
2D7
330
1F
100
AcDbEntity
  8
0-C_ハッチ
  6
Continuous
 62
     7
370
     5
100
AcDbLine
 10
4268.643099161593
 20
-1903.367035584704
 30
0.0
 11
4264.114038414881
 21
-1902.898801673477
 31
0.0
  0
LINE
  5
2D8
330
1F
100
AcDbEntity
  8
0-C_ハッチ
  6
Continuous
 62
     7
370
     5
100
AcDbLine
 10
4264.114038414881
 20
-1902.898801673477
 30
0.0
 11
4259.668178424817
 21
-1902.327157358089
 31
0.0
  0
LINE
  5
2D9
330
1F
100
AcDbEntity
  8
0-C_ハッチ
  6
Continuous
 62
     7
370
     5
100
AcDbLine
 10
4259.668178424817
 20
-1902.327157358089
 30
0.0
 11
4255.30604411731
 21
-1901.652627564449
 31
0.0
  0
LINE
  5
2DA
330
1F
100
AcDbEntity
  8
0-C_ハッチ
  6
Continuous
 62
     7
370
     5
100
AcDbLine
 10
4255.30604411731
 20
-1901.652627564449
 30
0.0
 11
4251.222907930674
 21
-1900.917206365313
 31
0.0
  0
LINE
  5
2DB
330
1F
100
AcDbEntity
  8
0-C_ハッチ
  6
Continuous
 62
     7
370
     5
100
AcDbLine
 10
4251.222907930674
 20
-1900.917206365313
 30
0.0
 11
4247.614042303221
 21
-1900.163412759347
 31
0.0
  0
LINE
  5
2DC
330
1F
100
AcDbEntity
  8
0-C_ハッチ
  6
Continuous
 62
     7
370
     5
100
AcDbLine
 10
4247.614042303221
 20
-1900.163412759347
 30
0.0
 11
4244.479184772003
 21
-1899.39177167246
 31
0.0
  0
LINE
  5
2DD
330
1F
100
AcDbEntity
  8
0-C_ハッチ
  6
Continuous
 62
     7
370
     5
100
AcDbLine
 10
4244.479184772003
 20
-1899.39177167246
 30
0.0
 11
4241.818860262922
 21
-1898.60228310465
 31
0.0
  0
LINE
  5
2DE
330
1F
100
AcDbEntity
  8
0-C_ハッチ
  6
Continuous
 62
     7
370
     5
100
AcDbLine
 10
4241.818860262922
 20
-1898.60228310465
 30
0.0
 11
4239.63280631303
 21
-1897.793897204102
 31
0.0
  0
LINE
  5
2DF
330
1F
100
AcDbEntity
  8
0-C_ハッチ
  6
Continuous
 62
     7
370
     5
100
AcDbLine
 10
4239.63280631303
 20
-1897.793897204102
 30
0.0
 11
4237.920760459367
 21
-1896.96818874854
 31
0.0
  0
LINE
  5
2E0
330
1F
100
AcDbEntity
  8
0-C_ハッチ
  6
Continuous
 62
     7
370
     5
100
AcDbLine
 10
4237.920760459367
 20
-1896.96818874854
 30
0.0
 11
4236.683247627843
 21
-1896.123582960239
 31
0.0
  0
LINE
  5
2E1
330
1F
100
AcDbEntity
  8
0-C_ハッチ
  6
Continuous
 62
     7
370
     5
100
AcDbLine
 10
4236.683247627843
 20
-1896.123582960239
 30
0.0
 11
4235.919742892554
 21
-1895.261129691017
 31
0.0
  0
LINE
  5
2E2
330
1F
100
AcDbEntity
  8
0-C_ハッチ
  6
Continuous
 62
     7
370
     5
100
AcDbLine
 10
4235.919742892554
 20
-1895.261129691017
 30
0.0
 11
4235.530772793652
 21
-1894.40340075498
 31
0.0
  0
LINE
  5
2E3
330
1F
100
AcDbEntity
  8
0-C_ハッチ
  6
Continuous
 62
     7
370
     5
100
AcDbLine
 10
4235.530772793652
 20
-1894.40340075498
 30
0.0
 11
4235.416338945394
 21
-1893.572443040325
 31
0.0
  0
LINE
  5
2E4
330
1F
100
AcDbEntity
  8
0-C_ハッチ
  6
Continuous
 62
     7
370
     5
100
AcDbLine
 10
4235.416338945394
 20
-1893.572443040325
 30
0.0
 11
4235.57617888482
 21
-1892.768781472961
 31
0.0
  0
LINE
  5
2E5
330
1F
100
AcDbEntity
  8
0-C_ハッチ
  6
Continuous
 62
     7
370
     5
100
AcDbLine
 10
4235.57617888482
 20
-1892.768781472961
 30
0.0
 11
4236.010555074888
 21
-1891.99136620107
 31
0.0
  0
LINE
  5
2E6
330
1F
100
AcDbEntity
  8
0-C_ハッチ
  6
Continuous
 62
     7
370
     5
100
AcDbLine
 10
4236.010555074888
 20
-1891.99136620107
 30
0.0
 11
4236.719205052643
 21
-1891.241772002379
 31
0.0
  0
LINE
  5
2E7
330
1F
100
AcDbEntity
  8
0-C_ハッチ
  6
Continuous
 62
     7
370
     5
100
AcDbLine
 10
4236.719205052643
 20
-1891.241772002379
 30
0.0
 11
4237.702653743991
 21
-1890.51894902507
 31
0.0
  0
LINE
  5
2E8
330
1F
100
AcDbEntity
  8
0-C_ハッチ
  6
Continuous
 62
     7
370
     5
100
AcDbLine
 10
4237.702653743991
 20
-1890.51894902507
 30
0.0
 11
4238.960113760072
 21
-1889.822897269142
 31
0.0
  0
LINE
  5
2E9
330
1F
100
AcDbEntity
  8
0-C_ハッチ
  6
Continuous
 62
     7
370
     5
100
AcDbLine
 10
4238.960113760072
 20
-1889.822897269142
 30
0.0
 11
4240.492372489751
 21
-1889.154141660506
 31
0.0
  0
LINE
  5
2EA
330
1F
100
AcDbEntity
  8
0-C_ハッチ
  6
Continuous
 62
     7
370
     5
100
AcDbLine
 10
4240.492372489751
 20
-1889.154141660506
 30
0.0
 11
4242.12987886427
 21
-1888.52423056917
 31
0.0
  0
LINE
  5
2EB
330
1F
100
AcDbEntity
  8
0-C_ハッチ
  6
Continuous
 62
     7
370
     5
100
AcDbLine
 10
4242.12987886427
 20
-1888.52423056917
 30
0.0
 11
4243.703869203749
 21
-1887.94523729105
 31
0.0
  0
LINE
  5
2EC
330
1F
100
AcDbEntity
  8
0-C_ハッチ
  6
Continuous
 62
     7
370
     5
100
AcDbLine
 10
4243.703869203749
 20
-1887.94523729105
 30
0.0
 11
4245.214081045228
 21
-1887.417161826145
 31
0.0
  0
LINE
  5
2ED
330
1F
100
AcDbEntity
  8
0-C_ハッチ
  6
Continuous
 62
     7
370
     5
100
AcDbLine
 10
4245.214081045228
 20
-1887.417161826145
 30
0.0
 11
4246.660776851667
 21
-1886.940004174458
 31
0.0
  0
LINE
  5
2EE
330
1F
100
AcDbEntity
  8
0-C_ハッチ
  6
Continuous
 62
     7
370
     5
100
AcDbLine
 10
4246.660776851667
 20
-1886.940004174458
 30
0.0
 11
4248.043956623059
 21
-1886.513764335986
 31
0.0
  0
LINE
  5
2EF
330
1F
100
AcDbEntity
  8
0-C_ハッチ
  6
Continuous
 62
     7
370
     5
100
AcDbLine
 10
4248.043956623059
 20
-1886.513764335986
 30
0.0
 11
4249.363620359411
 21
-1886.138442310731
 31
0.0
  0
LINE
  5
2F0
330
1F
100
AcDbEntity
  8
0-C_ハッチ
  6
Continuous
 62
     7
370
     5
100
AcDbLine
 10
4249.363620359411
 20
-1886.138442310731
 30
0.0
 11
4250.619505597764
 21
-1885.813513172783
 31
0.0
  0
LINE
  5
2F1
330
1F
100
AcDbEntity
  8
0-C_ハッチ
  6
Continuous
 62
     7
370
     5
100
AcDbLine
 10
4250.619505597764
 20
-1885.813513172783
 30
0.0
 11
4251.811874801074
 21
-1885.540026773961
 31
0.0
  0
LINE
  5
2F2
330
1F
100
AcDbEntity
  8
0-C_ハッチ
  6
Continuous
 62
     7
370
     5
100
AcDbLine
 10
4251.811874801074
 20
-1885.540026773961
 30
0.0
 11
4252.930491914107
 21
-1885.301710411072
 31
0.0
  0
LINE
  5
2F3
330
1F
100
AcDbEntity
  8
0-C_ハッチ
  6
Continuous
 62
     7
370
     5
100
AcDbLine
 10
4252.930491914107
 20
-1885.301710411072
 30
0.0
 11
4253.964858418671
 21
-1885.083341232742
 31
0.0
  0
LINE
  5
2F4
330
1F
100
AcDbEntity
  8
0-C_ハッチ
  6
Continuous
 62
     7
370
     5
100
AcDbLine
 10
4253.964858418671
 20
-1885.083341232742
 30
0.0
 11
4254.915499240682
 21
-1884.884919238971
 31
0.0
  0
LINE
  5
2F5
330
1F
100
AcDbEntity
  8
0-C_ハッチ
  6
Continuous
 62
     7
370
     5
100
AcDbLine
 10
4254.915499240682
 20
-1884.884919238971
 30
0.0
 11
4255.781626991268
 21
-1884.706444429759
 31
0.0
  0
LINE
  5
2F6
330
1F
100
AcDbEntity
  8
0-C_ハッチ
  6
Continuous
 62
     7
370
     5
100
AcDbLine
 10
4255.781626991268
 20
-1884.706444429759
 30
0.0
 11
4256.564029059302
 21
-1884.547916805105
 31
0.0
  0
LINE
  5
2F7
330
1F
100
AcDbEntity
  8
0-C_ハッチ
  6
Continuous
 62
     7
370
     5
100
AcDbLine
 10
4256.564029059302
 20
-1884.547916805105
 30
0.0
 11
4257.262180518866
 21
-1884.409336365011
 31
0.0
  0
LINE
  5
2F8
330
1F
100
AcDbEntity
  8
0-C_ハッチ
  6
Continuous
 62
     7
370
     5
100
AcDbLine
 10
4257.262180518866
 20
-1884.409336365011
 30
0.0
 11
4257.87634383292
 21
-1884.290703109476
 31
0.0
  0
LINE
  5
2F9
330
1F
100
AcDbEntity
  8
0-C_ハッチ
  6
Continuous
 62
     7
370
     5
100
AcDbLine
 10
4257.87634383292
 20
-1884.290703109476
 30
0.0
 11
4258.406256538507
 21
-1884.192017038501
 31
0.0
  0
LINE
  5
2FA
330
1F
100
AcDbEntity
  8
0-C_ハッチ
  6
Continuous
 62
     7
370
     5
100
AcDbLine
 10
4258.406256538507
 20
-1884.192017038501
 30
0.0
 11
4261.621690196827
 21
-1883.625097056297
 31
0.0
  0
LINE
  5
2FB
330
1F
100
AcDbEntity
  8
0-C_ハッチ
  6
Continuous
 62
     7
370
     5
100
AcDbLine
 10
4261.621690196827
 20
-1883.625097056297
 30
0.0
 11
4265.139218716033
 21
-1883.00463463133
 31
0.0
  0
LINE
  5
2FC
330
1F
100
AcDbEntity
  8
0-C_ハッチ
  6
Continuous
 62
     7
370
     5
100
AcDbLine
 10
4265.139218716033
 20
-1883.00463463133
 30
0.0
 11
4268.959629484991
 21
-1882.331679615419
 31
0.0
  0
LINE
  5
2FD
330
1F
100
AcDbEntity
  8
0-C_ハッチ
  6
Continuous
 62
     7
370
     5
100
AcDbLine
 10
4268.959629484991
 20
-1882.331679615419
 30
0.0
 11
4273.082135114837
 21
-1881.604657230834
 31
0.0
  0
LINE
  5
2FE
330
1F
100
AcDbEntity
  8
0-C_ハッチ
  6
Continuous
 62
     7
370
     5
100
AcDbLine
 10
4273.082135114837
 20
-1881.604657230834
 30
0.0
 11
4277.507522994433
 21
-1880.824617329396
 31
0.0
  0
LINE
  5
2FF
330
1F
100
AcDbEntity
  8
0-C_ハッチ
  6
Continuous
 62
     7
370
     5
100
AcDbLine
 10
4158.888620349941
 20
-1876.651611280732
 30
0.0
 11
4165.22801507994
 21
-1875.425411181694
 31
0.0
  0
LINE
  5
300
330
1F
100
AcDbEntity
  8
0-C_ハッチ
  6
Continuous
 62
     7
370
     5
100
AcDbLine
 10
4371.352184242883
 20
-1913.838704869008
 30
0.0
 11
4378.111718015724
 21
-1912.686040907744
 31
0.0
  0
LINE
  5
301
330
1F
100
AcDbEntity
  8
0-C_ハッチ
  6
Continuous
 62
     7
370
     5
100
AcDbLine
 10
4371.352184242883
 20
-1913.838704869008
 30
0.0
 11
4423.94107319076
 21
-1923.043238103674
 31
0.0
  0
LINE
  5
302
330
1F
100
AcDbEntity
  8
0-C_ハッチ
  6
Continuous
 62
     7
370
     5
100
AcDbLine
 10
4378.111718015724
 20
-1912.686040907744
 30
0.0
 11
4430.700606963601
 21
-1921.89057414241
 31
0.0
  0
LINE
  5
303
330
1F
100
AcDbEntity
  8
0-C_ハッチ
  6
Continuous
 62
     7
370
     5
100
AcDbLine
 10
4370.858729791538
 20
-1835.753496518723
 30
0.0
 11
4370.858729791538
 21
-1860.809483708043
 31
0.0
  0
ELLIPSE
  5
304
330
1F
100
AcDbEntity
  8
0-C_ハッチ
  6
Continuous
 62
     7
370
     5
100
AcDbEllipse
 10
4333.960969363283
 20
-1860.809483708043
 30
0.0
 11
36.89776042825395
 21
0.0
 31
0.0
210
0.0
220
0.0
230
1.0
 40
0.5
 41
3.141592653589793
 42
6.283185307179586
  0
LINE
  5
305
330
1F
100
AcDbEntity
  8
0-C_ハッチ
  6
Continuous
 62
     7
370
     5
100
AcDbLine
 10
4297.063208935028
 20
-1835.753496518723
 30
0.0
 11
4297.063208935028
 21
-1860.809483708043
 31
0.0
  0
LINE
  5
306
330
1F
100
AcDbEntity
  8
0-C_ハッチ
  6
Continuous
 62
     7
370
     5
100
AcDbLine
 10
4314.423724965185
 20
-1792.228147258774
 30
0.0
 11
4160.169522140885
 21
-1820.79514017681
 31
0.0
  0
LINE
  5
307
330
1F
100
AcDbEntity
  8
0-C_ハッチ
  6
Continuous
 62
     7
370
     5
100
AcDbLine
 10
4314.423724965185
 20
-1792.228147258774
 30
0.0
 11
4332.944423365263
 21
-1805.457330028667
 31
0.0
  0
LINE
  5
308
330
1F
100
AcDbEntity
  8
0-C_ハッチ
  6
Continuous
 62
     7
370
     5
100
AcDbLine
 10
4313.100649210422
 20
-1669.197062454313
 30
0.0
 11
4314.423724965185
 21
-1792.228147258774
 31
0.0
  0
LINE
  5
309
330
1F
100
AcDbEntity
  8
0-C_ハッチ
  6
Continuous
 62
     7
370
     5
100
AcDbLine
 10
4332.944423365263
 20
-1682.467714371052
 30
0.0
 11
4522.426666435533
 21
-1647.772211460217
 31
0.0
  0
LINE
  5
30A
330
1F
100
AcDbEntity
  8
0-C_ハッチ
  6
Continuous
 62
     7
370
     5
100
AcDbLine
 10
4348.602438318168
 20
-1661.766211280175
 30
0.0
 11
4313.100649210422
 21
-1669.197062454313
 31
0.0
  0
LINE
  5
30B
330
1F
100
AcDbEntity
  8
0-C_ハッチ
  6
Continuous
 62
     7
370
     5
100
AcDbLine
 10
4348.602438318168
 20
-1661.766211280175
 30
0.0
 11
4373.737990566148
 21
-1666.551435870698
 31
0.0
  0
LINE
  5
30C
330
1F
100
AcDbEntity
  8
0-C_ハッチ
  6
Continuous
 62
     7
370
     5
100
AcDbLine
 10
4478.336302060365
 20
-1646.707661715857
 30
0.0
 11
4494.211373876828
 21
-1638.769732113194
 31
0.0
  0
LINE
  5
30D
330
1F
100
AcDbEntity
  8
0-C_ハッチ
  6
Continuous
 62
     7
370
     5
100
AcDbLine
 10
4494.211373876828
 20
-1638.769732113194
 30
0.0
 11
4534.022804701137
 21
-1634.801292237771
 31
0.0
  0
LINE
  5
30E
330
1F
100
AcDbEntity
  8
0-C_ハッチ
  6
Continuous
 62
     7
370
     5
100
AcDbLine
 10
4534.022804701137
 20
-1634.801292237771
 30
0.0
 11
4534.022804701137
 21
-1753.517147404698
 31
0.0
  0
LINE
  5
30F
330
1F
100
AcDbEntity
  8
0-C_ハッチ
  6
Continuous
 62
     7
370
     5
100
AcDbLine
 10
4373.258208284914
 20
-1278.20704865424
 30
0.0
 11
4373.737990566148
 21
-1666.551435870698
 31
0.0
  0
LINE
  5
310
330
1F
100
AcDbEntity
  8
0-C_ハッチ
  6
Continuous
 62
     7
370
     5
100
AcDbLine
 10
4348.602438318168
 20
-1661.766211280175
 30
0.0
 11
4348.602438318168
 21
-1282.384903823915
 31
0.0
  0
LINE
  5
311
330
1F
100
AcDbEntity
  8
0-C_ハッチ
  6
Continuous
 62
     7
370
     5
100
AcDbLine
 10
4478.336302060365
 20
-1260.990696941539
 30
0.0
 11
4478.336302060365
 21
-1646.707661715857
 31
0.0
  0
LINE
  5
312
330
1F
100
AcDbEntity
  8
0-C_ハッチ
  6
Continuous
 62
     7
370
     5
100
AcDbLine
 10
4494.211373876828
 20
-1638.769732113194
 30
0.0
 11
4494.211373876828
 21
-1258.372763882913
 31
0.0
  0
ELLIPSE
  5
313
330
1F
100
AcDbEntity
  8
0-C_ハッチ
  6
Continuous
 62
     7
370
     5
100
AcDbEllipse
 10
4628.896733659152
 20
-1628.354265473987
 30
0.0
 11
2.171034762115338E-15
 21
35.45685934649716
 31
0.0
210
0.0
220
0.0
230
1.0
 40
0.8
 41
0.0
 42
6.283185307179586
  0
ELLIPSE
  5
314
330
1F
100
AcDbEntity
  8
0-C_ハッチ
  6
Continuous
 62
     7
370
     5
100
AcDbEllipse
 10
4628.896733659152
 20
-1628.354265473987
 30
0.0
 11
1.068889043675199E-15
 21
17.45685934649716
 31
0.0
210
0.0
220
0.0
230
1.0
 40
0.5937773382631759
 41
0.0
 42
6.283185307179586
  0
LINE
  5
315
330
1F
100
AcDbEntity
  8
0-C_ハッチ
  6
Continuous
 62
     7
370
     5
100
AcDbLine
 10
4601.575442587322
 20
-1657.092458912318
 30
0.0
 11
4620.994798863118
 21
-1662.407539598381
 31
0.0
  0
ELLIPSE
  5
316
330
1F
100
AcDbEntity
  8
0-C_ハッチ
  6
Continuous
 62
     7
370
     5
100
AcDbEllipse
 10
4606.057201097049
 20
-1622.080971501051
 30
0.0
 11
2.171034762115338E-15
 21
35.45685934649716
 31
0.0
210
0.0
220
0.0
230
1.0
 40
0.8
 41
5.997256757456505
 42
9.266112668701924
  0
ELLIPSE
  5
317
330
1F
100
AcDbEntity
  8
0-C_ハッチ
  6
Continuous
 62
     7
370
     5
100
AcDbEllipse
 10
4239.349195494712
 20
-1693.994101344597
 30
0.0
 11
2.171034762115338E-15
 21
35.45685934649716
 31
0.0
210
0.0
220
0.0
230
1.0
 40
0.8
 41
0.0
 42
6.283185307179586
  0
ELLIPSE
  5
318
330
1F
100
AcDbEntity
  8
0-C_ハッチ
  6
Continuous
 62
     7
370
     5
100
AcDbEllipse
 10
4239.349195494712
 20
-1693.994101344597
 30
0.0
 11
1.068889043675199E-15
 21
17.45685934649716
 31
0.0
210
0.0
220
0.0
230
1.0
 40
0.5937773382631759
 41
0.0
 42
6.283185307179586
  0
LINE
  5
319
330
1F
100
AcDbEntity
  8
0-C_ハッチ
  6
Continuous
 62
     7
370
     5
100
AcDbLine
 10
4212.027904422883
 20
-1722.732294782927
 30
0.0
 11
4231.44726069868
 21
-1728.047375468991
 31
0.0
  0
ELLIPSE
  5
31A
330
1F
100
AcDbEntity
  8
0-C_ハッチ
  6
Continuous
 62
     7
370
     5
100
AcDbEllipse
 10
4216.50966293261
 20
-1687.720807371661
 30
0.0
 11
2.171034762115338E-15
 21
35.45685934649716
 31
0.0
210
0.0
220
0.0
230
1.0
 40
0.8
 41
5.997256757456505
 42
9.266112668701924
  0
LINE
  5
31B
330
1F
100
AcDbEntity
  8
0-C_ハッチ
  6
Continuous
 62
     7
370
     5
100
AcDbLine
 10
4224.51010395797
 20
-1653.703490476007
 30
0.0
 11
4243.929460233766
 21
-1659.01857116207
 31
0.0
  0
LINE
  5
31C
330
1F
100
AcDbEntity
  8
0-C_ハッチ
  6
Continuous
 62
     7
370
     5
100
AcDbLine
 10
4614.05764212241
 20
-1588.063654605397
 30
0.0
 11
4633.476998398207
 21
-1593.37873529146
 31
0.0
  0
LINE
  5
31D
330
1F
100
AcDbEntity
  8
0-C_ハッチ
  6
Continuous
 62
     7
370
     5
100
AcDbLine
 10
4123.452083360876
 20
-1868.113449289927
 30
0.0
 11
4165.22801507994
 21
-1875.425411181694
 31
0.0
  0
LINE
  5
31E
330
1F
100
AcDbEntity
  8
0-C_ハッチ
  6
Continuous
 62
     7
370
     5
100
AcDbLine
 10
4116.653098674064
 20
-1869.259208232735
 30
0.0
 11
4158.888620349941
 21
-1876.651611280732
 31
0.0
  0
LINE
  5
31F
330
1F
100
AcDbEntity
  8
0-C_ハッチ
  6
Continuous
 62
     7
370
     5
100
AcDbLine
 10
4407.245061217995
 20
-1820.28890529341
 30
0.0
 11
4366.590337846196
 21
-1827.140003658288
 31
0.0
  0
LINE
  5
320
330
1F
100
AcDbEntity
  8
0-C_ハッチ
  6
Continuous
 62
     7
370
     5
100
AcDbLine
 10
4407.245061217995
 20
-1820.28890529341
 30
0.0
 11
4401.808666036802
 21
-1858.911585239514
 31
0.0
  0
LINE
  5
321
330
1F
100
AcDbEntity
  8
0-C_ハッチ
  6
Continuous
 62
     7
370
     5
100
AcDbLine
 10
4370.112100920162
 20
-1864.502057734991
 30
0.0
 11
4401.808666036802
 21
-1858.911585239514
 31
0.0
  0
LINE
  5
322
330
1F
100
AcDbEntity
  8
0-C_ハッチ
  6
Continuous
 62
     7
370
     5
100
AcDbLine
 10
4277.509326929796
 20
-1880.834845186661
 30
0.0
 11
4310.444606107743
 21
-1875.02589485726
 31
0.0
  0
LINE
  5
323
330
1F
100
AcDbEntity
  8
0-C_ハッチ
  6
Continuous
 62
     7
370
     5
100
AcDbLine
 10
4254.30940372518
 20
-1901.47312082287
 30
0.0
 11
4401.808666036563
 21
-1875.457981137524
 31
0.0
  0
LINE
  5
324
330
1F
100
AcDbEntity
  8
0-C_ハッチ
  6
Continuous
 62
     7
370
     5
100
AcDbLine
 10
4401.808666036802
 20
-1858.911585239514
 30
0.0
 11
4401.808666036563
 21
-1875.457981137524
 31
0.0
  0
LINE
  5
325
330
1F
100
AcDbEntity
  8
0-C_ハッチ
  6
Continuous
 62
     7
370
     5
100
AcDbLine
 10
4407.245061217995
 20
-1836.835301191794
 30
0.0
 11
4407.245061217995
 21
-1820.28890529341
 31
0.0
  0
LINE
  5
326
330
1F
100
AcDbEntity
  8
0-C_ハッチ
  6
Continuous
 62
     7
370
     5
100
AcDbLine
 10
4497.869845002721
 20
-1874.197427722621
 30
0.0
 11
4359.72896917131
 21
-1898.555311260546
 31
0.0
  0
ELLIPSE
  5
327
330
1F
100
AcDbEntity
  8
0-C_ハッチ
  6
Continuous
 62
     7
370
     5
100
AcDbEllipse
 10
4333.960969363283
 20
-1835.753496518723
 30
0.0
 11
18.52285489353675
 21
0.0
 31
0.0
210
0.0
220
0.0
230
1.0
 40
0.5
 41
3.141592653589793
 42
6.283185307179586
  0
ARC
  5
328
330
1F
100
AcDbEntity
  8
0-C_ハッチ
  6
Continuous
 62
     7
370
     5
100
AcDbCircle
 10
4234.673119943239
 20
-1772.71968956291
 30
0.0
 40
180.0
100
AcDbArc
 50
260.070167268476
 51
279.6772325660855
  0
LINE
  5
329
330
1F
100
AcDbEntity
  8
0-C_ハッチ
  6
Continuous
 62
     7
370
     5
100
AcDbLine
 10
4266.507836219498
 20
-1985.558902204062
 30
0.0
 11
4733.929569523431
 21
-1904.645960113939
 31
0.0
  0
LINE
  5
32A
330
1F
100
AcDbEntity
  8
0-C_ハッチ
  6
Continuous
 62
     7
370
     5
100
AcDbLine
 10
4204.552008840659
 20
-1985.462584299984
 30
0.0
 11
3911.770907309009
 21
-1933.842659109491
 31
0.0
  0
ARC
  5
32B
330
1F
100
AcDbEntity
  8
0-C_ハッチ
  6
Continuous
 62
     7
370
     5
100
AcDbCircle
 10
4235.805578966828
 20
-1808.19664184524
 30
0.0
 40
180.0
100
AcDbArc
 50
260.0010025806856
 51
279.8208509823177
  0
ELLIPSE
  5
32C
330
1F
100
AcDbEntity
  8
0-C_ハッチ
  6
Continuous
 62
     7
370
     5
100
AcDbEllipse
 10
4498.849026883772
 20
-1892.756823876049
 30
0.0
 11
19.86135961083638
 21
0.0
 31
0.0
210
0.0
220
0.0
230
1.0
 40
0.5
 41
0.0
 42
6.283185307179586
  0
ELLIPSE
  5
32D
330
1F
100
AcDbEntity
  8
0-C_ハッチ
  6
Continuous
 62
     7
370
     5
100
AcDbEllipse
 10
4499.608938879404
 20
-1898.329511844019
 30
0.0
 11
13.10465733292201
 21
0.0
 31
0.0
210
0.0
220
0.0
230
1.0
 40
0.4
 41
0.0
 42
6.283185307179586
  0
ELLIPSE
  5
32E
330
1F
100
AcDbEntity
  8
0-C_ハッチ
  6
Continuous
 62
     7
370
     5
100
AcDbEllipse
 10
4176.242637488006
 20
-1908.532913535373
 30
0.0
 11
19.86135961083638
 21
0.0
 31
0.0
210
0.0
220
0.0
230
1.0
 40
0.5
 41
0.0
 42
6.283185307179586
  0
ELLIPSE
  5
32F
330
1F
100
AcDbEntity
  8
0-C_ハッチ
  6
Continuous
 62
     7
370
     5
100
AcDbEllipse
 10
4177.002549483638
 20
-1914.105601503343
 30
0.0
 11
13.10465733292201
 21
0.0
 31
0.0
210
0.0
220
0.0
230
1.0
 40
0.4
 41
0.0
 42
6.283185307179586
  0
LINE
  5
330
330
1F
100
AcDbEntity
  8
0-C_ハッチ
  6
Continuous
 62
     7
370
     5
100
AcDbLine
 10
3929.348513224495
 20
-1902.005648778988
 30
0.0
 11
4203.633559389986
 21
-1950.023230646164
 31
0.0
  0
LINE
  5
331
330
1F
100
AcDbEntity
  8
0-C_ハッチ
  6
Continuous
 62
     7
370
     5
100
AcDbLine
 10
3929.352272795746
 20
-1900.822979314877
 30
0.0
 11
4297.063208935028
 21
-1838.856654509451
 31
0.0
  0
LINE
  5
332
330
1F
100
AcDbEntity
  8
0-C_ハッチ
  6
Continuous
 62
     7
370
     5
100
AcDbLine
 10
4315.438114469745
 20
-1835.753496518723
 30
0.0
 11
4315.438114469745
 21
-1826.243468453669
 31
0.0
  0
LINE
  5
333
330
1F
100
AcDbEntity
  8
0-C_ハッチ
  6
Continuous
 62
     7
370
     5
100
AcDbLine
 10
4352.483824256819
 20
-1835.753496518723
 30
0.0
 11
4352.483824256819
 21
-1819.711309224709
 31
0.0
  0
ELLIPSE
  5
334
330
1F
100
AcDbEntity
  8
0-C_ハッチ
  6
Continuous
 62
     7
370
     5
100
AcDbEllipse
 10
4333.960969363283
 20
-1835.753496518723
 30
0.0
 11
36.89776042825395
 21
0.0
 31
0.0
210
0.0
220
0.0
230
1.0
 40
0.5
 41
2.768968464067914
 42
7.32806629937406
  0
LINE
  5
335
330
1F
100
AcDbEntity
  8
0-C_ハッチ
  6
Continuous
 62
     7
370
     5
100
AcDbLine
 10
4430.700606963601
 20
-1921.89057414241
 30
0.0
 11
4430.700606963601
 21
-1957.136346716691
 31
0.0
  0
LINE
  5
336
330
1F
100
AcDbEntity
  8
0-C_ハッチ
  6
Continuous
 62
     7
370
     5
100
AcDbLine
 10
4423.94107319076
 20
-1923.043238103674
 30
0.0
 11
4423.94107319076
 21
-1958.306454406918
 31
0.0
  0
LINE
  5
337
330
1F
100
AcDbEntity
  8
0-C_ハッチ
  6
Continuous
 62
     7
370
     5
100
AcDbLine
 10
4096.319109293429
 20
-1850.779433050355
 30
0.0
 11
4142.361587561211
 21
-1856.762178300237
 31
0.0
  0
LINE
  5
338
330
1F
100
AcDbEntity
  8
0-C_ハッチ
  6
Continuous
 62
     7
370
     5
100
AcDbLine
 10
4160.169522140885
 20
-1466.206676116607
 30
0.0
 11
4160.169522140885
 21
-1838.789075426758
 31
0.0
  0
ARC
  5
339
330
1F
100
AcDbEntity
  8
0-C_ハッチ
  6
Continuous
 62
     7
370
     5
100
AcDbCircle
 10
4340.169522140885
 20
-1466.206676116607
 30
0.0
 40
180.0
100
AcDbArc
 50
99.36427710995552
 51
180.0
  0
LINE
  5
33A
330
1F
100
AcDbEntity
  8
0-C_ハッチ
  6
Continuous
 62
     7
370
     5
100
AcDbLine
 10
4142.361673125835
 20
-1454.292610217996
 30
0.0
 11
4142.361673125835
 21
-1856.762013640327
 31
0.0
  0
ARC
  5
33B
330
1F
100
AcDbEntity
  8
0-C_ハッチ
  6
Continuous
 62
     7
370
     5
100
AcDbCircle
 10
4322.361673125835
 20
-1454.292610217996
 30
0.0
 40
180.0
100
AcDbArc
 50
100.4830549659711
 51
180.0
  0
LINE
  5
33C
330
1F
100
AcDbEntity
  8
0-C_ハッチ
  6
Continuous
 62
     7
370
     5
100
AcDbLine
 10
4095.749564681679
 20
-1429.693147550651
 30
0.0
 11
4095.749564681679
 21
-1850.705418497123
 31
0.0
  0
ARC
  5
33D
330
1F
100
AcDbEntity
  8
0-C_ハッチ
  6
Continuous
 62
     7
370
     5
100
AcDbCircle
 10
4275.74956468168
 20
-1429.693147550651
 30
0.0
 40
180.0
100
AcDbArc
 50
99.74095296447314
 51
180.0
  0
LINE
  5
33E
330
1F
100
AcDbEntity
  8
0-C_ハッチ
  6
Continuous
 62
     7
370
     5
100
AcDbLine
 10
4501.186123192854
 20
-1238.148735891925
 30
0.0
 11
4289.611622950597
 21
-1277.297033398914
 31
0.0
  0
LINE
  5
33F
330
1F
100
AcDbEntity
  8
0-C_ハッチ
  6
Continuous
 62
     7
370
     5
100
AcDbLine
 10
4713.936173368092
 20
-1415.144312711008
 30
0.0
 11
4713.936173368092
 21
-1755.977497356957
 31
0.0
  0
LINE
  5
340
330
1F
100
AcDbEntity
  8
0-C_ハッチ
  6
Continuous
 62
     7
370
     5
100
AcDbLine
 10
4483.378274177805
 20
-1256.687783248516
 30
0.0
 11
4310.881574334175
 21
-1288.605392018569
 31
0.0
  0
LINE
  5
341
330
1F
100
AcDbEntity
  8
0-C_ハッチ
  6
Continuous
 62
     7
370
     5
100
AcDbLine
 10
4696.128324353042
 20
-1433.683360067596
 30
0.0
 11
4696.128324353042
 21
-1740.779109022016
 31
0.0
  0
ARC
  5
342
330
1F
100
AcDbEntity
  8
0-C_ハッチ
  6
Continuous
 62
     7
370
     5
100
AcDbCircle
 10
4516.128324353042
 20
-1433.683360067596
 30
0.0
 40
180.0
100
AcDbArc
 50
0.0
 51
100.4830549659711
  0
LINE
  5
343
330
1F
100
AcDbEntity
  8
0-C_ハッチ
  6
Continuous
 62
     7
370
     5
100
AcDbLine
 10
4245.294665941958
 20
-1252.288245863148
 30
0.0
 11
4402.418742970978
 21
-1225.314933344871
 31
0.0
  0
ARC
  5
344
330
1F
100
AcDbEntity
  8
0-C_ハッチ
  6
Continuous
 62
     7
370
     5
100
AcDbCircle
 10
4435.168793146216
 20
-1402.310510163952
 30
0.0
 40
180.0
100
AcDbArc
 50
82.78560205276084
 51
100.4830549659711
  0
LINE
  5
345
330
1F
100
AcDbEntity
  8
0-C_ハッチ
  6
Continuous
 62
     7
370
     5
100
AcDbLine
 10
4457.773650288631
 20
-1223.735538699385
 30
0.0
 11
4557.719372783049
 21
-1236.722454673411
 31
0.0
  0
ARC
  5
346
330
1F
100
AcDbEntity
  8
0-C_ハッチ
  6
Continuous
 62
     7
370
     5
100
AcDbCircle
 10
4533.936173368092
 20
-1415.144312711008
 30
0.0
 40
180.0
100
AcDbArc
 50
0.0
 51
82.48094193237357
  0
ARC
  5
347
330
1F
100
AcDbEntity
  8
0-C_ハッチ
  6
Continuous
 62
     7
370
     5
100
AcDbCircle
 10
4533.936173368092
 20
-1415.144312711008
 30
0.0
 40
180.0
100
AcDbArc
 50
82.48094193237357
 51
100.4830549659711
  0
ARC
  5
348
330
1F
100
AcDbEntity
  8
0-C_ハッチ
  6
Continuous
 62
     7
370
     5
100
AcDbCircle
 10
4314.753972115147
 20
-1374.033691403563
 30
0.0
 40
12.0
100
AcDbArc
 50
0.0
 51
139.3154869822215
  0
LINE
  5
349
330
1F
100
AcDbEntity
  8
0-C_ハッチ
  6
Continuous
 62
     7
370
     5
100
AcDbLine
 10
4326.753972115148
 20
-1565.264207008067
 30
0.0
 11
4326.753972115148
 21
-1374.033691403563
 31
0.0
  0
ARC
  5
34A
330
1F
100
AcDbEntity
  8
0-C_ハッチ
  6
Continuous
 62
     7
370
     5
100
AcDbCircle
 10
4314.753972115147
 20
-1565.264207008067
 30
0.0
 40
12.0
100
AcDbArc
 50
226.7801567871272
 51
0.0
  0
LINE
  5
34B
330
1F
100
AcDbEntity
  8
0-C_ハッチ
  6
Continuous
 62
     7
370
     5
100
AcDbLine
 10
4282.076216598151
 20
-1393.637949230446
 30
0.0
 11
4305.654245275909
 21
-1366.210969917325
 31
0.0
  0
LINE
  5
34C
330
1F
100
AcDbEntity
  8
0-C_ハッチ
  6
Continuous
 62
     7
370
     5
100
AcDbLine
 10
4290.897541614162
 20
-1559.312944683314
 30
0.0
 11
4306.536377777511
 21
-1574.008985067117
 31
0.0
  0
ARC
  5
34D
330
1F
100
AcDbEntity
  8
0-C_ハッチ
  6
Continuous
 62
     7
370
     5
100
AcDbCircle
 10
4373.073484990535
 20
-1471.865164092821
 30
0.0
 40
120.0
100
AcDbArc
 50
139.3154869822216
 51
226.7801567871272
  0
ARC
  5
34E
330
1F
100
AcDbEntity
  8
0-C_ハッチ
  6
Continuous
 62
     7
370
     5
100
AcDbCircle
 10
4292.2653263749
 20
-1545.380029447278
 30
0.0
 40
12.0
100
AcDbArc
 50
249.9839863783417
 51
0.0
  0
LINE
  5
34F
330
1F
100
AcDbEntity
  8
0-C_ハッチ
  6
Continuous
 62
     7
370
     5
100
AcDbLine
 10
4304.2653263749
 20
-1545.380029447278
 30
0.0
 11
4304.2653263749
 21
-1367.826620253758
 31
0.0
  0
ARC
  5
350
330
1F
100
AcDbEntity
  8
0-C_ハッチ
  6
Continuous
 62
     7
370
     5
100
AcDbCircle
 10
4435.736915872324
 20
-1437.172719662493
 30
0.0
 40
120.0
100
AcDbArc
 50
313.2198432128728
 51
40.68451301777836
  0
ARC
  5
351
330
1F
100
AcDbEntity
  8
0-C_ハッチ
  6
Continuous
 62
     7
370
     5
100
AcDbCircle
 10
4520.036748723139
 20
-1340.391124019588
 30
0.0
 40
12.0
100
AcDbArc
 50
40.68451301777846
 51
180.0
  0
LINE
  5
352
330
1F
100
AcDbEntity
  8
0-C_ハッチ
  6
Continuous
 62
     7
370
     5
100
AcDbLine
 10
4508.036748723138
 20
-1531.621639624093
 30
0.0
 11
4508.036748723138
 21
-1340.391124019588
 31
0.0
  0
ARC
  5
353
330
1F
100
AcDbEntity
  8
0-C_ハッチ
  6
Continuous
 62
     7
370
     5
100
AcDbCircle
 10
4520.036748723139
 20
-1531.621639624093
 30
0.0
 40
12.0
100
AcDbArc
 50
180.0
 51
313.2198432128728
  0
LINE
  5
354
330
1F
100
AcDbEntity
  8
0-C_ハッチ
  6
Continuous
 62
     7
370
     5
100
AcDbLine
 10
4552.714504240136
 20
-1359.99538184647
 30
0.0
 11
4529.136475562376
 21
-1332.568402533351
 31
0.0
  0
LINE
  5
355
330
1F
100
AcDbEntity
  8
0-C_ハッチ
  6
Continuous
 62
     7
370
     5
100
AcDbLine
 10
4543.893179224126
 20
-1525.67037729934
 30
0.0
 11
4528.254343060776
 21
-1540.366417683142
 31
0.0
  0
ARC
  5
356
330
1F
100
AcDbEntity
  8
0-C_ハッチ
  6
Continuous
 62
     7
370
     5
100
AcDbCircle
 10
4461.717235847752
 20
-1438.222596708845
 30
0.0
 40
120.0
100
AcDbArc
 50
313.2198432128728
 51
40.68451301777836
  0
LINE
  5
357
330
1F
100
AcDbEntity
  8
0-C_ハッチ
  6
Continuous
 62
     7
370
     5
100
AcDbLine
 10
4526.734184264709
 20
-1358.945504800118
 30
0.0
 11
4508.369859765039
 21
-1337.583330929027
 31
0.0
  0
LINE
  5
358
330
1F
100
AcDbEntity
  8
0-C_ハッチ
  6
Continuous
 62
     7
370
     5
100
AcDbLine
 10
4517.912859248699
 20
-1524.620500252987
 30
0.0
 11
4508.222776591787
 21
-1533.72641098451
 31
0.0
  0
LINE
  5
359
330
1F
100
AcDbEntity
  8
0-C_ハッチ
  6
Continuous
 62
     7
370
     5
100
AcDbLine
 10
4160.169522140885
 20
-1838.789075426758
 30
0.0
 11
4377.024402421886
 21
-1798.938042606076
 31
0.0
  0
LINE
  5
35A
330
1F
100
AcDbEntity
  8
0-C_ハッチ
  6
Continuous
 62
     7
370
     5
100
AcDbLine
 10
4142.361673125835
 20
-1856.761519805321
 30
0.0
 11
4404.55365903166
 21
-1810.529990963299
 31
0.0
  0
LINE
  5
35B
330
1F
100
AcDbEntity
  8
0-C_ハッチ
  6
Continuous
 62
     7
370
     5
100
AcDbLine
 10
4332.944423365263
 20
-1682.467714371052
 30
0.0
 11
4332.944423365263
 21
-1805.457330028667
 31
0.0
  0
LINE
  5
35C
330
1F
100
AcDbEntity
  8
0-C_ハッチ
  6
Continuous
 62
     7
370
     5
100
AcDbLine
 10
4487.970470754942
 20
-1747.763419523093
 30
0.0
 11
4332.938079507273
 21
-1682.482780146805
 31
0.0
  0
LINE
  5
35D
330
1F
100
AcDbEntity
  8
0-C_ハッチ
  6
Continuous
 62
     7
370
     5
100
AcDbLine
 10
4487.970470754942
 20
-1845.654926857038
 30
0.0
 11
4332.944423365263
 21
-1780.376958736107
 31
0.0
  0
LINE
  5
35E
330
1F
100
AcDbEntity
  8
0-C_ハッチ
  6
Continuous
 62
     7
370
     5
100
AcDbLine
 10
4529.612762923941
 20
-1720.114603399221
 30
0.0
 11
4529.612762923941
 21
-1818.006110733166
 31
0.0
  0
ARC
  5
35F
330
1F
100
AcDbEntity
  8
0-C_ハッチ
  6
Continuous
 62
     7
370
     5
100
AcDbCircle
 10
4499.612762923941
 20
-1818.006110733166
 30
0.0
 40
30.0
100
AcDbArc
 50
247.1651394203828
 51
0.0
  0
LINE
  5
360
330
1F
100
AcDbEntity
  8
0-C_ハッチ
  6
Continuous
 62
     7
370
     5
100
AcDbLine
 10
4529.612762923941
 20
-1754.348298559286
 30
0.0
 11
4672.391699653742
 21
-1727.436542255681
 31
0.0
  0
LINE
  5
361
330
1F
100
AcDbEntity
  8
0-C_ハッチ
  6
Continuous
 62
     7
370
     5
100
AcDbLine
 10
4696.128324353042
 20
-1740.779109022016
 30
0.0
 11
4529.612762923941
 21
-1772.677286585523
 31
0.0
  0
LINE
  5
362
330
1F
100
AcDbEntity
  8
0-C_ハッチ
  6
Continuous
 62
     7
370
     5
100
AcDbLine
 10
4529.612762923941
 20
-1788.478693138238
 30
0.0
 11
4713.936173368092
 21
-1755.977497356957
 31
0.0
  0
LINE
  5
363
330
1F
100
AcDbEntity
  8
0-C_ハッチ
  6
Continuous
 62
     7
370
     5
100
AcDbLine
 10
4402.707662077764
 20
-1655.407953108092
 30
0.0
 11
4381.075757489652
 21
-1659.93570981309
 31
0.0
  0
LINE
  5
364
330
1F
100
AcDbEntity
  8
0-C_ハッチ
  6
Continuous
 62
     7
370
     5
100
AcDbLine
 10
4474.471263480834
 20
-1640.387170906322
 30
0.0
 11
4452.839358892724
 21
-1644.91492761132
 31
0.0
  0
LINE
  5
365
330
1F
100
AcDbEntity
  8
0-C_ハッチ
  6
Continuous
 62
     7
370
     5
100
AcDbLine
 10
4402.707662077764
 20
-1628.237667997491
 30
0.0
 11
4402.707662077764
 21
-1655.407953108092
 31
0.0
  0
ARC
  5
366
330
1F
100
AcDbEntity
  8
0-C_ハッチ
  6
Continuous
 62
     7
370
     5
100
AcDbCircle
 10
4426.707662077765
 20
-1628.237667997491
 30
0.0
 40
24.0
100
AcDbArc
 50
101.82186584
 51
180.0
  0
LINE
  5
367
330
1F
100
AcDbEntity
  8
0-C_ハッチ
  6
Continuous
 62
     7
370
     5
100
AcDbLine
 10
4423.922488421075
 20
-1604.30054162523
 30
0.0
 11
4421.790791606117
 21
-1604.746725386242
 31
0.0
  0
LINE
  5
368
330
1F
100
AcDbEntity
  8
0-C_ハッチ
  6
Continuous
 62
     7
370
     5
100
AcDbLine
 10
4452.839358892724
 20
-1627.791484236481
 30
0.0
 11
4452.839358892724
 21
-1644.91492761132
 31
0.0
  0
ARC
  5
369
330
1F
100
AcDbEntity
  8
0-C_ハッチ
  6
Continuous
 62
     7
370
     5
100
AcDbCircle
 10
4428.839358892724
 20
-1627.791484236481
 30
0.0
 40
24.0
100
AcDbArc
 50
0.0
 51
101.82186584
  0
LINE
  5
36A
330
1F
100
AcDbEntity
  8
0-C_ハッチ
  6
Continuous
 62
     7
370
     5
100
AcDbLine
 10
4413.370148480374
 20
-1643.117833775751
 30
0.0
 11
4413.370148480374
 21
-1662.137033353173
 31
0.0
  0
ARC
  5
36B
330
1F
100
AcDbEntity
  8
0-C_ハッチ
  6
Continuous
 62
     7
370
     5
100
AcDbCircle
 10
4430.170148480374
 20
-1643.117833775751
 30
0.0
 40
16.8
100
AcDbArc
 50
101.82186584
 51
180.0
  0
LINE
  5
36C
330
1F
100
AcDbEntity
  8
0-C_ハッチ
  6
Continuous
 62
     7
370
     5
100
AcDbLine
 10
4428.220526920692
 20
-1626.361845315169
 30
0.0
 11
4426.72833915022
 21
-1626.674173947877
 31
0.0
  0
LINE
  5
36D
330
1F
100
AcDbEntity
  8
0-C_ハッチ
  6
Continuous
 62
     7
370
     5
100
AcDbLine
 10
4448.462336250846
 20
-1642.805505143044
 30
0.0
 11
4448.462336250846
 21
-1654.791915505432
 31
0.0
  0
ARC
  5
36E
330
1F
100
AcDbEntity
  8
0-C_ハッチ
  6
Continuous
 62
     7
370
     5
100
AcDbCircle
 10
4431.662336250846
 20
-1642.805505143044
 30
0.0
 40
16.8
100
AcDbArc
 50
0.0
 51
101.82186584
  0
LINE
  5
36F
330
1F
100
AcDbEntity
  8
0-C_ハッチ
  6
Continuous
 62
     7
370
     5
100
AcDbLine
 10
4463.604669462523
 20
-1651.622485811933
 30
0.0
 11
4448.462336250846
 21
-1654.791915505432
 31
0.0
  0
LINE
  5
370
330
1F
100
AcDbEntity
  8
0-C_ハッチ
  6
Continuous
 62
     7
370
     5
100
AcDbLine
 10
4413.370148480374
 20
-1662.137033353173
 30
0.0
 11
4398.227815268697
 21
-1665.306463046671
 31
0.0
  0
LINE
  5
371
330
1F
100
AcDbEntity
  8
0-C_ハッチ
  6
Continuous
 62
     7
370
     5
100
AcDbLine
 10
3911.770907309009
 20
-1933.842659109491
 30
0.0
 11
3928.940960702284
 21
-1901.100215465775
 31
0.0
  0
ARC
  5
372
330
1F
100
AcDbEntity
  8
0-C_ハッチ
  6
Continuous
 62
     7
370
     5
100
AcDbCircle
 10
3929.451978426341
 20
-1901.414636975377
 30
0.0
 40
0.6000000000000001
100
AcDbArc
 50
99.56556047057619
 51
260.070167268476
  0
LINE
  5
373
330
1F
100
AcDbEntity
  8
0-C_ハッチ
  6
Continuous
 62
     7
370
     5
100
AcDbLine
 10
4707.235561616394
 20
-1873.525691236121
 30
0.0
 11
4497.869845002721
 21
-1874.197427722621
 31
0.0
  0
LINE
  5
374
330
1F
100
AcDbEntity
  8
0-C_ハッチ
  6
Continuous
 62
     7
370
     5
100
AcDbLine
 10
4707.338345276373
 20
-1874.717150353925
 30
0.0
 11
4264.930702442977
 21
-1950.158351362619
 31
0.0
  0
ARC
  5
375
330
1F
100
AcDbEntity
  8
0-C_ハッチ
  6
Continuous
 62
     7
370
     5
100
AcDbCircle
 10
4707.237486668039
 20
-1874.125688147926
 30
0.0
 40
0.6000000000000001
100
AcDbArc
 50
279.6772325660855
 51
90.18382920651953
  0
LINE
  5
376
330
1F
100
AcDbEntity
  8
0-C_ハッチ
  6
Continuous
 62
     7
370
     5
100
AcDbLine
 10
4733.929569523431
 20
-1904.645960113939
 30
0.0
 11
4707.65812495148
 21
-1873.695495876326
 31
0.0
  0
LINE
  5
377
330
1F
100
AcDbEntity
  8
0-C_ハッチ
  6
Continuous
 62
     7
370
     5
100
AcDbLine
 10
4696.128324353042
 20
-1740.779109022016
 30
0.0
 11
4672.391699653742
 21
-1727.436542255681
 31
0.0
  0
LINE
  5
378
330
1F
100
AcDbEntity
  8
0-C_ハッチ
  6
Continuous
 62
    40
370
     5
100
AcDbLine
 10
4713.936173368092
 20
-1738.414822524026
 30
0.0
 11
5069.506024039335
 21
-1675.502997404504
 31
0.0
  0
LINE
  5
379
330
1F
100
AcDbEntity
  8
0-C_ハッチ
  6
Continuous
 62
     7
370
     5
100
AcDbLine
 10
1840.766749982452
 20
-2108.672369546039
 30
0.0
 11
1840.766749982452
 21
-2102.67236954604
 31
0.0
  0
LINE
  5
37A
330
1F
100
AcDbEntity
  8
0-C_ハッチ
  6
Continuous
 62
     7
370
     5
100
AcDbLine
 10
2080.329056399804
 20
-1957.900818406228
 30
0.0
 11
1840.766749982452
 21
-2102.67236954604
 31
0.0
  0
LINE
  5
37B
330
1F
100
AcDbEntity
  8
0-C_ハッチ
  6
Continuous
 62
     7
370
     5
100
AcDbLine
 10
2493.730256977823
 20
-2357.07104635545
 30
0.0
 11
2239.359830303961
 21
-2513.557322298202
 31
0.0
  0
LINE
  5
37C
330
1F
100
AcDbEntity
  8
0-C_ハッチ
  6
Continuous
 62
     7
370
     5
100
AcDbLine
 10
2239.365470336595
 20
-2507.566490291544
 30
0.0
 11
2239.359830303961
 21
-2513.557322298202
 31
0.0
  0
LINE
  5
37D
330
1F
100
AcDbEntity
  8
0-C_ハッチ
  6
Continuous
 62
     7
370
     5
100
AcDbLine
 10
2493.730256977823
 20
-2351.071046355449
 30
0.0
 11
2239.365470336595
 21
-2507.566490291544
 31
0.0
  0
LINE
  5
37E
330
1F
100
AcDbEntity
  8
0-C_ハッチ
  6
Continuous
 62
     7
370
     5
100
AcDbLine
 10
1924.060438736665
 20
-2207.477470933208
 30
0.0
 11
1924.060438736662
 21
-2213.477470933203
 31
0.0
  0
LINE
  5
37F
330
1F
100
AcDbEntity
  8
0-C_ハッチ
  6
Continuous
 62
     7
370
     5
100
AcDbLine
 10
1923.103512519942
 20
-2206.15053424162
 30
0.0
 11
1923.10351251994
 21
-2212.150534241615
 31
0.0
  0
LINE
  5
380
330
1F
100
AcDbEntity
  8
0-C_ハッチ
  6
Continuous
 62
     7
370
     5
100
AcDbLine
 10
1925.58026272793
 20
-2209.022396460119
 30
0.0
 11
1925.580262727927
 21
-2215.022396460115
 31
0.0
  0
LINE
  5
381
330
1F
100
AcDbEntity
  8
0-C_ハッチ
  6
Continuous
 62
     7
370
     5
100
AcDbLine
 10
2134.768092342755
 20
-2421.514103100615
 30
0.0
 11
2134.768092342752
 21
-2427.514103100613
 31
0.0
  0
LINE
  5
382
330
1F
100
AcDbEntity
  8
0-C_ハッチ
  6
Continuous
 62
     7
370
     5
100
AcDbLine
 10
2137.972147396061
 20
-2424.09793526637
 30
0.0
 11
2137.972147396059
 21
-2430.09793526637
 31
0.0
  0
LINE
  5
383
330
1F
100
AcDbEntity
  8
0-C_ハッチ
  6
Continuous
 62
     7
370
     5
100
AcDbLine
 10
2141.138447377863
 20
-2425.688330397546
 30
0.0
 11
2141.138447377861
 21
-2431.688330397546
 31
0.0
  0
LINE
  5
384
330
1F
100
AcDbEntity
  8
0-C_ハッチ
  6
Continuous
 62
     7
370
     5
100
AcDbLine
 10
2144.821382622352
 20
-2426.671261809364
 30
0.0
 11
2144.82138262235
 21
-2432.671261809363
 31
0.0
  0
LINE
  5
385
330
1F
100
AcDbEntity
  8
0-C_ハッチ
  6
Continuous
 62
     7
370
     5
100
AcDbLine
 10
2148.99087133273
 20
-2426.832113814998
 30
0.0
 11
2148.990871332727
 21
-2432.832113814997
 31
0.0
  0
LINE
  5
386
330
1F
100
AcDbEntity
  8
0-C_ハッチ
  6
Continuous
 62
     7
370
     5
100
AcDbLine
 10
2152.790431310891
 20
-2426.120301636638
 30
0.0
 11
2152.790431310889
 21
-2432.120301636638
 31
0.0
  0
ARC
  5
387
330
1F
100
AcDbEntity
  8
0-C_ハッチ
  6
Continuous
 62
     7
370
     5
100
AcDbCircle
 10
1928.40307804809
 20
-2209.337243426066
 30
0.0
 40
6.0
100
AcDbArc
 50
180.0
 51
224.5510943265451
  0
LINE
  5
388
330
1F
100
AcDbEntity
  8
0-C_ハッチ
  6
Continuous
 62
     7
370
     5
100
AcDbLine
 10
1922.40307804809
 20
-2203.337243426069
 30
0.0
 11
1922.40307804809
 21
-2209.337243426066
 31
0.0
  0
LINE
  5
389
330
1F
100
AcDbEntity
  8
0-C_ハッチ
  6
Continuous
 62
     7
370
     5
100
AcDbLine
 10
1840.766749982452
 20
-2108.672369546039
 30
0.0
 11
1927.544609001233
 21
-2196.820783310059
 31
0.0
  0
ARC
  5
38A
330
1F
100
AcDbEntity
  8
0-C_ハッチ
  6
Continuous
 62
     7
370
     5
100
AcDbCircle
 10
1928.40307804809
 20
-2203.337243426069
 30
0.0
 40
6.0
100
AcDbArc
 50
121.6015005399993
 51
224.5510943265456
  0
LINE
  5
38B
330
1F
100
AcDbEntity
  8
0-C_ハッチ
  6
Continuous
 62
     7
370
     5
100
AcDbLine
 10
1925.25902877623
 20
-2198.226964160107
 30
0.0
 11
1931.223256941951
 21
-2194.557531190652
 31
0.0
  0
LINE
  5
38C
330
1F
100
AcDbEntity
  8
0-C_ハッチ
  6
Continuous
 62
     7
370
     5
100
AcDbLine
 10
1924.127327329142
 20
-2207.546513646596
 30
0.0
 11
2134.768092342755
 21
-2421.514103100615
 31
0.0
  0
LINE
  5
38D
330
1F
100
AcDbEntity
  8
0-C_ハッチ
  6
Continuous
 62
     7
370
     5
100
AcDbLine
 10
1924.127327329142
 20
-2213.546513646595
 30
0.0
 11
2134.768092342752
 21
-2427.514103100613
 31
0.0
  0
LINE
  5
38E
330
1F
100
AcDbEntity
  8
0-C_ハッチ
  6
Continuous
 62
     7
370
     5
100
AcDbLine
 10
2157.203847722899
 20
-2424.10722098521
 30
0.0
 11
2157.203847722899
 21
-2430.10810392554
 31
0.0
  0
LINE
  5
38F
330
1F
100
AcDbEntity
  8
0-C_ハッチ
  6
Continuous
 62
     7
370
     5
100
AcDbLine
 10
2157.2038477229
 20
-2430.107220985208
 30
0.0
 11
2239.357211670936
 21
-2513.55810118992
 31
0.0
  0
ARC
  5
390
330
1F
100
AcDbEntity
  8
0-C_ハッチ
  6
Continuous
 62
     7
370
     5
100
AcDbCircle
 10
2147.595344499597
 20
-2414.886292439033
 30
0.0
 40
18.0
100
AcDbArc
 50
224.5510943265451
 51
302.2629554764407
  0
LINE
  5
391
330
1F
100
AcDbEntity
  8
0-C_ハッチ
  6
Continuous
 62
     7
370
     5
100
AcDbLine
 10
2157.203847722899
 20
-2424.10722098521
 30
0.0
 11
2239.365470336595
 21
-2507.566490291544
 31
0.0
  0
ARC
  5
392
330
1F
100
AcDbEntity
  8
0-C_ハッチ
  6
Continuous
 62
     7
370
     5
100
AcDbCircle
 10
2147.595344499599
 20
-2408.886292439034
 30
0.0
 40
18.0
100
AcDbArc
 50
224.5510943265456
 51
302.2629554764285
  0
LINE
  5
393
330
1F
100
AcDbEntity
  8
0-C_ハッチ
  6
Continuous
 62
     7
370
     5
100
AcDbLine
 10
1840.766749982452
 20
-2102.67236954604
 30
0.0
 11
1931.223256941951
 21
-2194.557531190652
 31
0.0
  0
LINE
  5
394
330
1F
100
AcDbEntity
  8
0-C_ハッチ
  6
Continuous
 62
   120
370
     5
100
AcDbLine
 10
2332.180838197363
 20
-1582.907913444745
 30
0.0
 11
2647.967841984054
 21
-1415.905171057554
 31
0.0
  0
LINE
  5
395
330
1F
100
AcDbEntity
  8
0-C_ハッチ
  6
Continuous
 62
   120
370
     5
100
AcDbLine
 10
2628.655046372928
 20
-1829.198997135662
 30
0.0
 11
2647.967841984054
 21
-1415.905171057554
 31
0.0
  0
LINE
  5
396
330
1F
100
AcDbEntity
  8
0-C_ハッチ
  6
Continuous
 62
     7
370
     5
100
AcDbLine
 10
2305.223754132182
 20
-1534.181042442097
 30
0.0
 11
2305.223754132182
 21
-1668.04324868236
 31
0.0
  0
LINE
  5
397
330
1F
100
AcDbEntity
  8
0-C_ハッチ
  6
Continuous
 62
     7
370
     5
100
AcDbLine
 10
2279.201617098017
 20
-1533.955388749783
 30
0.0
 11
2279.201617098017
 21
-1668.04324868236
 31
0.0
  0
ELLIPSE
  5
398
330
1F
100
AcDbEntity
  8
0-C_ハッチ
  6
Continuous
 62
     7
370
     5
100
AcDbEllipse
 10
2292.540537865932
 20
-1520.457492900322
 30
0.0
 11
26.15375705822504
 21
0.0
 31
0.0
210
0.0
220
0.0
230
1.0
 40
0.6
 41
3.230595867857267
 42
6.465060446500363
  0
LINE
  5
399
330
1F
100
AcDbEntity
  8
0-C_ハッチ
  6
Continuous
 62
     7
370
     5
100
AcDbLine
 10
2305.223754132182
 20
-1566.772982772132
 30
0.0
 11
2279.201617098017
 21
-1579.243331558637
 31
0.0
  0
LINE
  5
39A
330
1F
100
AcDbEntity
  8
0-C_ハッチ
  6
Continuous
 62
     7
370
     5
100
AcDbLine
 10
2305.223754132182
 20
-1554.609367963865
 30
0.0
 11
2279.201617098017
 21
-1567.079716750367
 31
0.0
  0
LINE
  5
39B
330
1F
100
AcDbEntity
  8
0-C_ハッチ
  6
Continuous
 62
     7
370
     5
100
AcDbLine
 10
2305.223754132182
 20
-1542.445753155595
 30
0.0
 11
2279.201617098017
 21
-1554.916101942097
 31
0.0
  0
LINE
  5
39C
330
1F
100
AcDbEntity
  8
0-C_ハッチ
  6
Continuous
 62
     7
370
     5
100
AcDbLine
 10
2305.223754132182
 20
-1591.100212390438
 30
0.0
 11
2279.201617098017
 21
-1603.570561176941
 31
0.0
  0
LINE
  5
39D
330
1F
100
AcDbEntity
  8
0-C_ハッチ
  6
Continuous
 62
     7
370
     5
100
AcDbLine
 10
2305.223754132182
 20
-1603.263827200475
 30
0.0
 11
2279.201617098017
 21
-1615.734175986977
 31
0.0
  0
LINE
  5
39E
330
1F
100
AcDbEntity
  8
0-C_ハッチ
  6
Continuous
 62
     7
370
     5
100
AcDbLine
 10
2305.223754132182
 20
-1627.591056820546
 30
0.0
 11
2279.201617098017
 21
-1640.061405607047
 31
0.0
  0
LINE
  5
39F
330
1F
100
AcDbEntity
  8
0-C_ハッチ
  6
Continuous
 62
     7
370
     5
100
AcDbLine
 10
2305.223754132182
 20
-1615.427442010509
 30
0.0
 11
2279.201617098017
 21
-1627.897790797013
 31
0.0
  0
LINE
  5
3A0
330
1F
100
AcDbEntity
  8
0-C_ハッチ
  6
Continuous
 62
     7
370
     5
100
AcDbLine
 10
2305.223754132182
 20
-1639.754671630581
 30
0.0
 11
2279.201617098017
 21
-1652.225020417085
 31
0.0
  0
LINE
  5
3A1
330
1F
100
AcDbEntity
  8
0-C_ハッチ
  6
Continuous
 62
     7
370
     5
100
AcDbLine
 10
2305.223754132182
 20
-1651.918286440618
 30
0.0
 11
2279.201617098017
 21
-1664.38863522712
 31
0.0
  0
LINE
  5
3A2
330
1F
100
AcDbEntity
  8
0-C_ハッチ
  6
Continuous
 62
     7
370
     5
100
AcDbLine
 10
2305.223754132182
 20
-1578.936597580402
 30
0.0
 11
2279.201617098017
 21
-1591.406946366907
 31
0.0
  0
LINE
  5
3A3
330
1F
100
AcDbEntity
  8
0-C_ハッチ
  6
Continuous
 62
     7
370
     5
100
AcDbLine
 10
2305.223754132182
 20
-1668.04324868236
 30
0.0
 11
2292.212685615099
 21
-1690.579080414707
 31
0.0
  0
LINE
  5
3A4
330
1F
100
AcDbEntity
  8
0-C_ハッチ
  6
Continuous
 62
     7
370
     5
100
AcDbLine
 10
2279.201617098017
 20
-1668.04324868236
 30
0.0
 11
2292.212685615099
 21
-1690.579080414707
 31
0.0
  0
LINE
  5
3A5
330
1F
100
AcDbEntity
  8
0-C_ハッチ
  6
Continuous
 62
     7
370
     5
100
AcDbLine
 10
2292.212685614886
 20
-1522.032680120917
 30
0.0
 11
2300.558615451897
 21
-1527.397920730424
 31
0.0
  0
LINE
  5
3A6
330
1F
100
AcDbEntity
  8
0-C_ハッチ
  6
Continuous
 62
     7
370
     5
100
AcDbLine
 10
2279.171013025124
 20
-1513.648747741786
 30
0.0
 11
2287.516942862136
 21
-1519.013988351293
 31
0.0
  0
LINE
  5
3A7
330
1F
100
AcDbEntity
  8
0-C_ハッチ
  6
Continuous
 62
     7
370
     5
100
AcDbLine
 10
2292.212685614886
 20
-1522.032680120917
 30
0.0
 11
2283.866755777874
 21
-1527.397920730424
 31
0.0
  0
LINE
  5
3A8
330
1F
100
AcDbEntity
  8
0-C_ハッチ
  6
Continuous
 62
     7
370
     5
100
AcDbLine
 10
2305.254358204646
 20
-1513.648747741786
 30
0.0
 11
2296.908428367636
 21
-1519.013988351293
 31
0.0
  0
LINE
  5
3A9
330
1F
100
AcDbEntity
  8
0-C_ハッチ
  6
Continuous
 62
     7
370
     5
100
AcDbLine
 10
2296.908428367636
 20
-1519.013988351293
 30
0.0
 11
2305.254358204646
 21
-1524.3792289608
 31
0.0
  0
LINE
  5
3AA
330
1F
100
AcDbEntity
  8
0-C_ハッチ
  6
Continuous
 62
     7
370
     5
100
AcDbLine
 10
2283.866755777874
 20
-1510.630055972162
 30
0.0
 11
2292.212685614886
 21
-1515.995296581669
 31
0.0
  0
LINE
  5
3AB
330
1F
100
AcDbEntity
  8
0-C_ハッチ
  6
Continuous
 62
     7
370
     5
100
AcDbLine
 10
2287.516942862136
 20
-1519.013988351293
 30
0.0
 11
2279.171013025124
 21
-1524.3792289608
 31
0.0
  0
LINE
  5
3AC
330
1F
100
AcDbEntity
  8
0-C_ハッチ
  6
Continuous
 62
     7
370
     5
100
AcDbLine
 10
2300.558615451897
 20
-1510.630055972162
 30
0.0
 11
2292.212685614886
 21
-1515.995296581669
 31
0.0
  0
LINE
  5
3AD
330
1F
100
AcDbEntity
  8
0-C_ハッチ
  6
Continuous
 62
     7
370
     5
100
AcDbLine
 10
2283.866755777874
 20
-1510.630055972162
 30
0.0
 11
2279.171013025124
 21
-1513.648747741786
 31
0.0
  0
LINE
  5
3AE
330
1F
100
AcDbEntity
  8
0-C_ハッチ
  6
Continuous
 62
     7
370
     5
100
AcDbLine
 10
2300.558615451897
 20
-1510.630055972162
 30
0.0
 11
2305.254358204646
 21
-1513.648747741786
 31
0.0
  0
LINE
  5
3AF
330
1F
100
AcDbEntity
  8
0-C_ハッチ
  6
Continuous
 62
     7
370
     5
100
AcDbLine
 10
2305.254358204646
 20
-1524.3792289608
 30
0.0
 11
2300.558615451897
 21
-1527.397920730424
 31
0.0
  0
LINE
  5
3B0
330
1F
100
AcDbEntity
  8
0-C_ハッチ
  6
Continuous
 62
     7
370
     5
100
AcDbLine
 10
2279.171013025124
 20
-1524.3792289608
 30
0.0
 11
2283.866755777874
 21
-1527.397920730424
 31
0.0
  0
ELLIPSE
  5
3B1
330
1F
100
AcDbEntity
  8
0-C_ハッチ
  6
Continuous
 62
     7
370
     5
100
AcDbEllipse
 10
2292.212685614886
 20
-1519.013988351293
 30
0.0
 11
26.15375705822504
 21
0.0
 31
0.0
210
0.0
220
0.0
230
1.0
 40
0.6
 41
0.0
 42
6.283185307179586
  0
LINE
  5
3B2
330
1F
100
AcDbEntity
  8
0-C_ハッチ
  6
Continuous
 62
     7
370
     5
100
AcDbLine
 10
2609.497266633321
 20
-1800.447081536687
 30
0.0
 11
2609.497266633321
 21
-1934.309287776951
 31
0.0
  0
LINE
  5
3B3
330
1F
100
AcDbEntity
  8
0-C_ハッチ
  6
Continuous
 62
     7
370
     5
100
AcDbLine
 10
2583.475129599155
 20
-1800.221427844373
 30
0.0
 11
2583.475129599155
 21
-1934.309287776951
 31
0.0
  0
ELLIPSE
  5
3B4
330
1F
100
AcDbEntity
  8
0-C_ハッチ
  6
Continuous
 62
     7
370
     5
100
AcDbEllipse
 10
2596.81405036707
 20
-1786.723531994912
 30
0.0
 11
26.15375705822504
 21
0.0
 31
0.0
210
0.0
220
0.0
230
1.0
 40
0.6
 41
3.230595867857267
 42
6.465060446500363
  0
LINE
  5
3B5
330
1F
100
AcDbEntity
  8
0-C_ハッチ
  6
Continuous
 62
     7
370
     5
100
AcDbLine
 10
2609.497266633321
 20
-1833.039021866723
 30
0.0
 11
2583.475129599155
 21
-1845.509370653227
 31
0.0
  0
LINE
  5
3B6
330
1F
100
AcDbEntity
  8
0-C_ハッチ
  6
Continuous
 62
     7
370
     5
100
AcDbLine
 10
2609.497266633321
 20
-1820.875407058455
 30
0.0
 11
2583.475129599155
 21
-1833.345755844958
 31
0.0
  0
LINE
  5
3B7
330
1F
100
AcDbEntity
  8
0-C_ハッチ
  6
Continuous
 62
     7
370
     5
100
AcDbLine
 10
2609.497266633321
 20
-1808.711792250185
 30
0.0
 11
2583.475129599155
 21
-1821.182141036688
 31
0.0
  0
LINE
  5
3B8
330
1F
100
AcDbEntity
  8
0-C_ハッチ
  6
Continuous
 62
     7
370
     5
100
AcDbLine
 10
2609.497266633321
 20
-1857.366251485028
 30
0.0
 11
2583.475129599155
 21
-1869.836600271532
 31
0.0
  0
LINE
  5
3B9
330
1F
100
AcDbEntity
  8
0-C_ハッチ
  6
Continuous
 62
     7
370
     5
100
AcDbLine
 10
2609.497266633321
 20
-1869.529866295065
 30
0.0
 11
2583.475129599155
 21
-1882.000215081567
 31
0.0
  0
LINE
  5
3BA
330
1F
100
AcDbEntity
  8
0-C_ハッチ
  6
Continuous
 62
     7
370
     5
100
AcDbLine
 10
2609.497266633321
 20
-1893.857095915137
 30
0.0
 11
2583.475129599155
 21
-1906.327444701637
 31
0.0
  0
LINE
  5
3BB
330
1F
100
AcDbEntity
  8
0-C_ハッチ
  6
Continuous
 62
     7
370
     5
100
AcDbLine
 10
2609.497266633321
 20
-1881.6934811051
 30
0.0
 11
2583.475129599155
 21
-1894.163829891604
 31
0.0
  0
LINE
  5
3BC
330
1F
100
AcDbEntity
  8
0-C_ハッチ
  6
Continuous
 62
     7
370
     5
100
AcDbLine
 10
2609.497266633321
 20
-1906.020710725172
 30
0.0
 11
2583.475129599155
 21
-1918.491059511676
 31
0.0
  0
LINE
  5
3BD
330
1F
100
AcDbEntity
  8
0-C_ハッチ
  6
Continuous
 62
     7
370
     5
100
AcDbLine
 10
2609.497266633321
 20
-1918.184325535209
 30
0.0
 11
2583.475129599155
 21
-1930.654674321711
 31
0.0
  0
LINE
  5
3BE
330
1F
100
AcDbEntity
  8
0-C_ハッチ
  6
Continuous
 62
     7
370
     5
100
AcDbLine
 10
2609.497266633321
 20
-1845.202636674993
 30
0.0
 11
2583.475129599155
 21
-1857.672985461497
 31
0.0
  0
LINE
  5
3BF
330
1F
100
AcDbEntity
  8
0-C_ハッチ
  6
Continuous
 62
     7
370
     5
100
AcDbLine
 10
2609.497266633321
 20
-1934.309287776951
 30
0.0
 11
2596.486198116237
 21
-1956.845119509298
 31
0.0
  0
LINE
  5
3C0
330
1F
100
AcDbEntity
  8
0-C_ハッチ
  6
Continuous
 62
     7
370
     5
100
AcDbLine
 10
2583.475129599155
 20
-1934.309287776951
 30
0.0
 11
2596.486198116237
 21
-1956.845119509298
 31
0.0
  0
LINE
  5
3C1
330
1F
100
AcDbEntity
  8
0-C_ハッチ
  6
Continuous
 62
     7
370
     5
100
AcDbLine
 10
2596.486198116024
 20
-1788.298719215507
 30
0.0
 11
2604.832127953036
 21
-1793.663959825014
 31
0.0
  0
LINE
  5
3C2
330
1F
100
AcDbEntity
  8
0-C_ハッチ
  6
Continuous
 62
     7
370
     5
100
AcDbLine
 10
2583.444525526262
 20
-1779.914786836376
 30
0.0
 11
2591.790455363274
 21
-1785.280027445883
 31
0.0
  0
LINE
  5
3C3
330
1F
100
AcDbEntity
  8
0-C_ハッチ
  6
Continuous
 62
     7
370
     5
100
AcDbLine
 10
2596.486198116024
 20
-1788.298719215507
 30
0.0
 11
2588.140268279012
 21
-1793.663959825014
 31
0.0
  0
LINE
  5
3C4
330
1F
100
AcDbEntity
  8
0-C_ハッチ
  6
Continuous
 62
     7
370
     5
100
AcDbLine
 10
2609.527870705784
 20
-1779.914786836376
 30
0.0
 11
2601.181940868774
 21
-1785.280027445883
 31
0.0
  0
LINE
  5
3C5
330
1F
100
AcDbEntity
  8
0-C_ハッチ
  6
Continuous
 62
     7
370
     5
100
AcDbLine
 10
2601.181940868774
 20
-1785.280027445883
 30
0.0
 11
2609.527870705784
 21
-1790.64526805539
 31
0.0
  0
LINE
  5
3C6
330
1F
100
AcDbEntity
  8
0-C_ハッチ
  6
Continuous
 62
     7
370
     5
100
AcDbLine
 10
2588.140268279012
 20
-1776.896095066752
 30
0.0
 11
2596.486198116024
 21
-1782.261335676259
 31
0.0
  0
LINE
  5
3C7
330
1F
100
AcDbEntity
  8
0-C_ハッチ
  6
Continuous
 62
     7
370
     5
100
AcDbLine
 10
2591.790455363274
 20
-1785.280027445883
 30
0.0
 11
2583.444525526262
 21
-1790.64526805539
 31
0.0
  0
LINE
  5
3C8
330
1F
100
AcDbEntity
  8
0-C_ハッチ
  6
Continuous
 62
     7
370
     5
100
AcDbLine
 10
2604.832127953036
 20
-1776.896095066752
 30
0.0
 11
2596.486198116024
 21
-1782.261335676259
 31
0.0
  0
LINE
  5
3C9
330
1F
100
AcDbEntity
  8
0-C_ハッチ
  6
Continuous
 62
     7
370
     5
100
AcDbLine
 10
2588.140268279012
 20
-1776.896095066752
 30
0.0
 11
2583.444525526262
 21
-1779.914786836376
 31
0.0
  0
LINE
  5
3CA
330
1F
100
AcDbEntity
  8
0-C_ハッチ
  6
Continuous
 62
     7
370
     5
100
AcDbLine
 10
2604.832127953036
 20
-1776.896095066752
 30
0.0
 11
2609.527870705784
 21
-1779.914786836376
 31
0.0
  0
LINE
  5
3CB
330
1F
100
AcDbEntity
  8
0-C_ハッチ
  6
Continuous
 62
     7
370
     5
100
AcDbLine
 10
2609.527870705784
 20
-1790.64526805539
 30
0.0
 11
2604.832127953036
 21
-1793.663959825014
 31
0.0
  0
LINE
  5
3CC
330
1F
100
AcDbEntity
  8
0-C_ハッチ
  6
Continuous
 62
     7
370
     5
100
AcDbLine
 10
2583.444525526262
 20
-1790.64526805539
 30
0.0
 11
2588.140268279012
 21
-1793.663959825014
 31
0.0
  0
ELLIPSE
  5
3CD
330
1F
100
AcDbEntity
  8
0-C_ハッチ
  6
Continuous
 62
     7
370
     5
100
AcDbEllipse
 10
2596.486198116024
 20
-1785.280027445883
 30
0.0
 11
26.15375705822504
 21
0.0
 31
0.0
210
0.0
220
0.0
230
1.0
 40
0.6
 41
0.0
 42
6.283185307179586
  0
LINE
  5
3CE
330
1F
100
AcDbEntity
  8
0-C_ハッチ
  6
Continuous
 62
     7
370
     5
100
AcDbLine
 10
2292.212685615099
 20
-1915.952827752379
 30
0.0
 11
2292.212685615099
 21
-1695.228077083532
 31
0.0
  0
LINE
  5
3CF
330
1F
100
AcDbEntity
  8
0-C_ハッチ
  6
Continuous
 62
     7
370
     5
100
AcDbLine
 10
2596.486198116237
 20
-2182.21886684697
 30
0.0
 11
2596.486198116237
 21
-1961.494116178122
 31
0.0
  0
LINE
  5
3D0
330
1F
100
AcDbEntity
  8
0-C_ハッチ
  6
Continuous
 62
     7
370
     5
100
AcDbLine
 10
2450.591706901183
 20
-2016.371037843312
 30
0.0
 11
2467.283566575206
 21
-2027.101519062328
 31
0.0
  0
LINE
  5
3D1
330
1F
100
AcDbEntity
  8
0-C_ハッチ
  6
Continuous
 62
     7
370
     5
100
AcDbLine
 10
2424.50836172166
 20
-1999.60317308505
 30
0.0
 11
2441.200221395683
 21
-2010.333654304063
 31
0.0
  0
LINE
  5
3D2
330
1F
100
AcDbEntity
  8
0-C_ハッチ
  6
Continuous
 62
     7
370
     5
100
AcDbLine
 10
2450.591706901183
 20
-2016.371037843312
 30
0.0
 11
2433.89984722716
 21
-2027.101519062328
 31
0.0
  0
LINE
  5
3D3
330
1F
100
AcDbEntity
  8
0-C_ハッチ
  6
Continuous
 62
     7
370
     5
100
AcDbLine
 10
2476.675052080703
 20
-1999.60317308505
 30
0.0
 11
2459.983192406683
 21
-2010.333654304063
 31
0.0
  0
LINE
  5
3D4
330
1F
100
AcDbEntity
  8
0-C_ハッチ
  6
Continuous
 62
     7
370
     5
100
AcDbLine
 10
2459.983192406683
 20
-2010.333654304063
 30
0.0
 11
2476.675052080703
 21
-2021.064135523077
 31
0.0
  0
LINE
  5
3D5
330
1F
100
AcDbEntity
  8
0-C_ハッチ
  6
Continuous
 62
     7
370
     5
100
AcDbLine
 10
2433.89984722716
 20
-1993.565789545799
 30
0.0
 11
2450.591706901183
 21
-2004.296270764815
 31
0.0
  0
LINE
  5
3D6
330
1F
100
AcDbEntity
  8
0-C_ハッチ
  6
Continuous
 62
     7
370
     5
100
AcDbLine
 10
2441.200221395683
 20
-2010.333654304063
 30
0.0
 11
2424.50836172166
 21
-2021.064135523077
 31
0.0
  0
LINE
  5
3D7
330
1F
100
AcDbEntity
  8
0-C_ハッチ
  6
Continuous
 62
     7
370
     5
100
AcDbLine
 10
2467.283566575206
 20
-1993.565789545799
 30
0.0
 11
2450.591706901183
 21
-2004.296270764815
 31
0.0
  0
LINE
  5
3D8
330
1F
100
AcDbEntity
  8
0-C_ハッチ
  6
Continuous
 62
     7
370
     5
100
AcDbLine
 10
2433.89984722716
 20
-1993.565789545799
 30
0.0
 11
2424.50836172166
 21
-1999.60317308505
 31
0.0
  0
LINE
  5
3D9
330
1F
100
AcDbEntity
  8
0-C_ハッチ
  6
Continuous
 62
     7
370
     5
100
AcDbLine
 10
2467.283566575206
 20
-1993.565789545799
 30
0.0
 11
2476.675052080703
 21
-1999.60317308505
 31
0.0
  0
LINE
  5
3DA
330
1F
100
AcDbEntity
  8
0-C_ハッチ
  6
Continuous
 62
     7
370
     5
100
AcDbLine
 10
2476.675052080703
 20
-2021.064135523077
 30
0.0
 11
2467.283566575206
 21
-2027.101519062328
 31
0.0
  0
LINE
  5
3DB
330
1F
100
AcDbEntity
  8
0-C_ハッチ
  6
Continuous
 62
     7
370
     5
100
AcDbLine
 10
2424.50836172166
 20
-2021.064135523077
 30
0.0
 11
2433.89984722716
 21
-2027.101519062328
 31
0.0
  0
ARC
  5
3DC
330
1F
100
AcDbEntity
  8
0-C_ハッチ
  6
Continuous
 62
     7
370
     5
100
AcDbCircle
 10
2528.739935581592
 20
-2215.219588739933
 30
0.0
 40
12.0
100
AcDbArc
 50
117.3949267100002
 51
165.5224878140668
  0
LINE
  5
3DD
330
1F
100
AcDbEntity
  8
0-C_ハッチ
  6
Continuous
 62
     7
370
     5
100
AcDbLine
 10
2517.769931794065
 20
-2204.355535193596
 30
0.0
 11
2517.769931794065
 21
-2210.355535193597
 31
0.0
  0
LINE
  5
3DE
330
1F
100
AcDbEntity
  8
0-C_ハッチ
  6
Continuous
 62
     7
370
     5
100
AcDbLine
 10
2518.970780379756
 20
-2202.250829406849
 30
0.0
 11
2518.970780379756
 21
-2208.250829406851
 31
0.0
  0
LINE
  5
3DF
330
1F
100
AcDbEntity
  8
0-C_ハッチ
  6
Continuous
 62
     7
370
     5
100
AcDbLine
 10
2523.218481531739
 20
-2198.565315175988
 30
0.0
 11
2523.218481531739
 21
-2204.565315175989
 31
0.0
  0
LINE
  5
3E0
330
1F
100
AcDbEntity
  8
0-C_ハッチ
  6
Continuous
 62
     7
370
     5
100
AcDbLine
 10
2627.671512807845
 20
-2152.719521469279
 30
0.0
 11
2627.671512807845
 21
-2158.719521469282
 31
0.0
  0
LINE
  5
3E1
330
1F
100
AcDbEntity
  8
0-C_ハッチ
  6
Continuous
 62
     7
370
     5
100
AcDbLine
 10
2623.361247647038
 20
-2150.418662183398
 30
0.0
 11
2623.361247647038
 21
-2156.418662183399
 31
0.0
  0
LINE
  5
3E2
330
1F
100
AcDbEntity
  8
0-C_ハッチ
  6
Continuous
 62
     7
370
     5
100
AcDbLine
 10
2621.735098520581
 20
-2150.062031801998
 30
0.0
 11
2621.735098520581
 21
-2156.062031802
 31
0.0
  0
LINE
  5
3E3
330
1F
100
AcDbEntity
  8
0-C_ハッチ
  6
Continuous
 62
     7
370
     5
100
AcDbLine
 10
2618.382729552196
 20
-2150.040822888684
 30
0.0
 11
2618.382729552196
 21
-2156.040822888686
 31
0.0
  0
LINE
  5
3E4
330
1F
100
AcDbEntity
  8
0-C_ハッチ
  6
Continuous
 62
     7
370
     5
100
AcDbLine
 10
2616.931704177819
 20
-2150.328152057719
 30
0.0
 11
2616.931704177819
 21
-2156.32815205772
 31
0.0
  0
LINE
  5
3E5
330
1F
100
AcDbEntity
  8
0-C_ハッチ
  6
Continuous
 62
     7
370
     5
100
AcDbLine
 10
2614.462287254571
 20
-2151.27926816314
 30
0.0
 11
2614.462287254571
 21
-2157.279268163139
 31
0.0
  0
ARC
  5
3E6
330
1F
100
AcDbEntity
  8
0-C_ハッチ
  6
Continuous
 62
     7
370
     5
100
AcDbCircle
 10
2630.866636055603
 20
-2177.013748390614
 30
0.0
 40
12.0
100
AcDbArc
 50
20.75540117989427
 51
50.15987174704777
  0
LINE
  5
3E7
330
1F
100
AcDbEntity
  8
0-C_ハッチ
  6
Continuous
 62
     7
370
     5
100
AcDbLine
 10
2614.462287254573
 20
-2157.279268163139
 30
0.0
 11
2523.218481531739
 21
-2204.565315175989
 31
0.0
  0
LINE
  5
3E8
330
1F
100
AcDbEntity
  8
0-C_ハッチ
  6
Continuous
 62
     7
370
     5
100
AcDbLine
 10
2627.671512807845
 20
-2158.719521469281
 30
0.0
 11
2638.554407559023
 21
-2167.799728132813
 31
0.0
  0
ARC
  5
3E9
330
1F
100
AcDbEntity
  8
0-C_ハッチ
  6
Continuous
 62
     7
370
     5
100
AcDbCircle
 10
2619.983741304427
 20
-2167.933541727085
 30
0.0
 40
12.0
100
AcDbArc
 50
50.15987174704691
 51
117.3949267100002
  0
LINE
  5
3EA
330
1F
100
AcDbEntity
  8
0-C_ハッチ
  6
Continuous
 62
     7
370
     5
100
AcDbLine
 10
2619.983741304427
 20
-2149.933541727085
 30
0.0
 11
2619.983741304427
 21
-2155.933541727086
 31
0.0
  0
ARC
  5
3EB
330
1F
100
AcDbEntity
  8
0-C_ハッチ
  6
Continuous
 62
     7
370
     5
100
AcDbCircle
 10
2224.466423080455
 20
-1948.953549645343
 30
0.0
 40
12.0
100
AcDbArc
 50
117.3949267100002
 51
165.5224878140668
  0
LINE
  5
3EC
330
1F
100
AcDbEntity
  8
0-C_ハッチ
  6
Continuous
 62
     7
370
     5
100
AcDbLine
 10
2213.496419292927
 20
-1938.089496099005
 30
0.0
 11
2213.496419292927
 21
-1944.089496099007
 31
0.0
  0
LINE
  5
3ED
330
1F
100
AcDbEntity
  8
0-C_ハッチ
  6
Continuous
 62
     7
370
     5
100
AcDbLine
 10
2214.697267878618
 20
-1935.984790312259
 30
0.0
 11
2214.697267878618
 21
-1941.98479031226
 31
0.0
  0
LINE
  5
3EE
330
1F
100
AcDbEntity
  8
0-C_ハッチ
  6
Continuous
 62
     7
370
     5
100
AcDbLine
 10
2218.944969030601
 20
-1932.299276081397
 30
0.0
 11
2218.944969030601
 21
-1938.299276081399
 31
0.0
  0
LINE
  5
3EF
330
1F
100
AcDbEntity
  8
0-C_ハッチ
  6
Continuous
 62
     7
370
     5
100
AcDbLine
 10
2323.398000306707
 20
-1886.453482374689
 30
0.0
 11
2323.398000306707
 21
-1892.453482374692
 31
0.0
  0
LINE
  5
3F0
330
1F
100
AcDbEntity
  8
0-C_ハッチ
  6
Continuous
 62
     7
370
     5
100
AcDbLine
 10
2319.087735145899
 20
-1884.152623088807
 30
0.0
 11
2319.087735145899
 21
-1890.152623088808
 31
0.0
  0
LINE
  5
3F1
330
1F
100
AcDbEntity
  8
0-C_ハッチ
  6
Continuous
 62
     7
370
     5
100
AcDbLine
 10
2317.461586019444
 20
-1883.795992707408
 30
0.0
 11
2317.461586019444
 21
-1889.795992707409
 31
0.0
  0
LINE
  5
3F2
330
1F
100
AcDbEntity
  8
0-C_ハッチ
  6
Continuous
 62
     7
370
     5
100
AcDbLine
 10
2314.109217051058
 20
-1883.774783794094
 30
0.0
 11
2314.109217051058
 21
-1889.774783794095
 31
0.0
  0
LINE
  5
3F3
330
1F
100
AcDbEntity
  8
0-C_ハッチ
  6
Continuous
 62
     7
370
     5
100
AcDbLine
 10
2312.658191676682
 20
-1884.062112963128
 30
0.0
 11
2312.658191676682
 21
-1890.062112963129
 31
0.0
  0
LINE
  5
3F4
330
1F
100
AcDbEntity
  8
0-C_ハッチ
  6
Continuous
 62
     7
370
     5
100
AcDbLine
 10
2310.188774753433
 20
-1885.013229068549
 30
0.0
 11
2310.188774753433
 21
-1891.013229068549
 31
0.0
  0
ARC
  5
3F5
330
1F
100
AcDbEntity
  8
0-C_ハッチ
  6
Continuous
 62
     7
370
     5
100
AcDbCircle
 10
2326.593123554467
 20
-1910.747709296023
 30
0.0
 40
12.0
100
AcDbArc
 50
20.75540117989427
 51
50.15987174704777
  0
LINE
  5
3F6
330
1F
100
AcDbEntity
  8
0-C_ハッチ
  6
Continuous
 62
     7
370
     5
100
AcDbLine
 10
2310.188774753435
 20
-1891.013229068549
 30
0.0
 11
2218.944969030601
 21
-1938.299276081399
 31
0.0
  0
LINE
  5
3F7
330
1F
100
AcDbEntity
  8
0-C_ハッチ
  6
Continuous
 62
     7
370
     5
100
AcDbLine
 10
2323.398000306707
 20
-1892.45348237469
 30
0.0
 11
2334.280895057886
 21
-1901.533689038222
 31
0.0
  0
ARC
  5
3F8
330
1F
100
AcDbEntity
  8
0-C_ハッチ
  6
Continuous
 62
     7
370
     5
100
AcDbCircle
 10
2315.710228803289
 20
-1901.667502632495
 30
0.0
 40
12.0
100
AcDbArc
 50
50.15987174704691
 51
117.3949267100002
  0
LINE
  5
3F9
330
1F
100
AcDbEntity
  8
0-C_ハッチ
  6
Continuous
 62
     7
370
     5
100
AcDbLine
 10
2315.710228803289
 20
-1883.667502632494
 30
0.0
 11
2315.710228803289
 21
-1889.667502632496
 31
0.0
  0
ELLIPSE
  5
3FA
330
1F
100
AcDbEntity
  8
0-C_ハッチ
  6
Continuous
 62
     7
370
     5
100
AcDbEllipse
 10
2146.341204609763
 20
-2224.370325930652
 30
0.0
 11
79.69551291525261
 21
0.0
 31
0.0
210
0.0
220
0.0
230
1.0
 40
0.7
 41
0.2111186597640594
 42
2.949786527099673
  0
ARC
  5
3FB
330
1F
100
AcDbEntity
  8
0-C_ハッチ
  6
Continuous
 62
     7
370
     5
100
AcDbCircle
 10
2619.983741304425
 20
-2161.933541727084
 30
0.0
 40
12.0
100
AcDbArc
 50
50.15987174704691
 51
117.3949267100002
  0
LINE
  5
3FC
330
1F
100
AcDbEntity
  8
0-C_ハッチ
  6
Continuous
 62
     7
370
     5
100
AcDbLine
 10
2614.462287254571
 20
-2151.27926816314
 30
0.0
 11
2523.218481531739
 21
-2198.565315175989
 31
0.0
  0
LINE
  5
3FD
330
1F
100
AcDbEntity
  8
0-C_ハッチ
  6
Continuous
 62
     7
370
     5
100
AcDbLine
 10
2627.671512807845
 20
-2152.719521469279
 30
0.0
 11
2638.554407559022
 21
-2161.799728132811
 31
0.0
  0
ARC
  5
3FE
330
1F
100
AcDbEntity
  8
0-C_ハッチ
  6
Continuous
 62
     7
370
     5
100
AcDbCircle
 10
2630.866636055603
 20
-2171.013748390614
 30
0.0
 40
12.0
100
AcDbArc
 50
297.3949267103216
 51
50.15987174704777
  0
LINE
  5
3FF
330
1F
100
AcDbEntity
  8
0-C_ハッチ
  6
Continuous
 62
     7
370
     5
100
AcDbLine
 10
2636.388090105516
 20
-2181.668021954528
 30
0.0
 11
2545.144284383164
 21
-2228.954068967776
 31
0.0
  0
ARC
  5
400
330
1F
100
AcDbEntity
  8
0-C_ハッチ
  6
Continuous
 62
     7
370
     5
100
AcDbCircle
 10
2539.62283033325
 20
-2218.299795403863
 30
0.0
 40
12.0
100
AcDbArc
 50
230.159871747048
 51
297.3949267103217
  0
LINE
  5
401
330
1F
100
AcDbEntity
  8
0-C_ハッチ
  6
Continuous
 62
     7
370
     5
100
AcDbLine
 10
2531.93505882983
 20
-2227.513815661668
 30
0.0
 11
2521.052164078172
 21
-2218.433608997737
 31
0.0
  0
ARC
  5
402
330
1F
100
AcDbEntity
  8
0-C_ハッチ
  6
Continuous
 62
     7
370
     5
100
AcDbCircle
 10
2528.739935581592
 20
-2209.219588739932
 30
0.0
 40
12.0
100
AcDbArc
 50
117.3949267100002
 51
230.1598717470478
  0
ARC
  5
403
330
1F
100
AcDbEntity
  8
0-C_ハッチ
  6
Continuous
 62
     7
370
     5
100
AcDbCircle
 10
2315.710228803289
 20
-1895.667502632493
 30
0.0
 40
12.0
100
AcDbArc
 50
50.15987174704691
 51
117.3949267100002
  0
LINE
  5
404
330
1F
100
AcDbEntity
  8
0-C_ハッチ
  6
Continuous
 62
     7
370
     5
100
AcDbLine
 10
2310.188774753435
 20
-1885.013229068548
 30
0.0
 11
2218.944969030601
 21
-1932.299276081397
 31
0.0
  0
LINE
  5
405
330
1F
100
AcDbEntity
  8
0-C_ハッチ
  6
Continuous
 62
     7
370
     5
100
AcDbLine
 10
2323.398000306707
 20
-1886.453482374689
 30
0.0
 11
2334.280895057886
 21
-1895.533689038221
 31
0.0
  0
ARC
  5
406
330
1F
100
AcDbEntity
  8
0-C_ハッチ
  6
Continuous
 62
     7
370
     5
100
AcDbCircle
 10
2326.593123554467
 20
-1904.747709296022
 30
0.0
 40
12.0
100
AcDbArc
 50
297.3949267103216
 51
50.15987174704777
  0
LINE
  5
407
330
1F
100
AcDbEntity
  8
0-C_ハッチ
  6
Continuous
 62
     7
370
     5
100
AcDbLine
 10
2332.114577604379
 20
-1915.401982859936
 30
0.0
 11
2240.870771882026
 21
-1962.688029873184
 31
0.0
  0
ARC
  5
408
330
1F
100
AcDbEntity
  8
0-C_ハッチ
  6
Continuous
 62
     7
370
     5
100
AcDbCircle
 10
2235.349317832112
 20
-1952.033756309272
 30
0.0
 40
12.0
100
AcDbArc
 50
230.159871747048
 51
297.3949267103217
  0
LINE
  5
409
330
1F
100
AcDbEntity
  8
0-C_ハッチ
  6
Continuous
 62
     7
370
     5
100
AcDbLine
 10
2227.661546328693
 20
-1961.247776567077
 30
0.0
 11
2216.778651577035
 21
-1952.167569903145
 31
0.0
  0
ARC
  5
40A
330
1F
100
AcDbEntity
  8
0-C_ハッチ
  6
Continuous
 62
     7
370
     5
100
AcDbCircle
 10
2224.466423080455
 20
-1942.953549645341
 30
0.0
 40
12.0
100
AcDbArc
 50
117.3949267100002
 51
230.1598717470478
  0
ELLIPSE
  5
40B
330
1F
100
AcDbEntity
  8
0-C_ハッチ
  6
Continuous
 62
     7
370
     5
100
AcDbEllipse
 10
2450.591706901181
 20
-2010.333654304063
 30
0.0
 11
45.7135540476191
 21
0.0
 31
0.0
210
0.0
220
0.0
230
1.0
 40
0.7
 41
0.0
 42
6.283185307179586
  0
LINE
  5
40C
330
1F
100
AcDbEntity
  8
0-C_ハッチ
  6
Continuous
 62
     7
370
     5
100
AcDbLine
 10
2757.853552353101
 20
-2209.110836416899
 30
0.0
 11
2754.691398674589
 21
-2233.636621605317
 31
0.0
  0
LINE
  5
40D
330
1F
100
AcDbEntity
  8
0-C_ハッチ
  6
Continuous
 62
     7
370
     5
100
AcDbLine
 10
2757.853552353101
 20
-2203.110836416901
 30
0.0
 11
2757.853552353101
 21
-2209.110836416899
 31
0.0
  0
LINE
  5
40E
330
1F
100
AcDbEntity
  8
0-C_ハッチ
  6
Continuous
 62
     7
370
     5
100
AcDbLine
 10
2754.691398674589
 20
-2233.636621605317
 30
0.0
 11
2754.691398674589
 21
-2227.636621605316
 31
0.0
  0
LINE
  5
40F
330
1F
100
AcDbEntity
  8
0-C_ハッチ
  6
Continuous
 62
     7
370
     5
100
AcDbLine
 10
2535.339821504941
 20
-2367.923036528673
 30
0.0
 11
2754.691398674589
 21
-2233.636621605317
 31
0.0
  0
LINE
  5
410
330
1F
100
AcDbEntity
  8
0-C_ハッチ
  6
Continuous
 62
     7
370
     5
100
AcDbLine
 10
2506.023759314125
 20
-2363.582107836601
 30
0.0
 11
2493.730195451945
 21
-2357.07094634513
 31
0.0
  0
LINE
  5
411
330
1F
100
AcDbEntity
  8
0-C_ハッチ
  6
Continuous
 62
     7
370
     5
100
AcDbLine
 10
2506.023759314125
 20
-2357.582161720498
 30
0.0
 11
2506.023759314125
 21
-2363.582107836601
 31
0.0
  0
LINE
  5
412
330
1F
100
AcDbEntity
  8
0-C_ハッチ
  6
Continuous
 62
     7
370
     5
100
AcDbLine
 10
2535.339821504941
 20
-2367.923036528673
 30
0.0
 11
2506.023759314125
 21
-2363.582107836601
 31
0.0
  0
LINE
  5
413
330
1F
100
AcDbEntity
  8
0-C_ハッチ
  6
Continuous
 62
     7
370
     5
100
AcDbLine
 10
2535.339821504941
 20
-2361.923036528672
 30
0.0
 11
2535.339821504941
 21
-2367.923036528673
 31
0.0
  0
LINE
  5
414
330
1F
100
AcDbEntity
  8
0-C_ハッチ
  6
Continuous
 62
     7
370
     5
100
AcDbLine
 10
2493.730256977823
 20
-2351.071046355449
 30
0.0
 11
2493.730256977823
 21
-2357.07104635545
 31
0.0
  0
LINE
  5
415
330
1F
100
AcDbEntity
  8
0-C_ハッチ
  6
Continuous
 62
     7
370
     5
100
AcDbLine
 10
2425.309956629567
 20
-1917.665071655658
 30
0.0
 11
2157.744086568692
 21
-2056.671922738815
 31
0.0
  0
LINE
  5
416
330
1F
100
AcDbEntity
  8
0-C_ハッチ
  6
Continuous
 62
     7
370
     5
100
AcDbLine
 10
2282.066770266986
 20
-2173.647367923235
 30
0.0
 11
2559.762648949566
 21
-2017.027875910631
 31
0.0
  0
LINE
  5
417
330
1F
100
AcDbEntity
  8
0-C_ハッチ
  6
Continuous
 62
     7
370
     5
100
AcDbLine
 10
2454.727271468101
 20
-1932.282926825719
 30
0.0
 11
2166.14942550069
 21
-2082.206000538985
 31
0.0
  0
LINE
  5
418
330
1F
100
AcDbEntity
  8
0-C_ハッチ
  6
Continuous
 62
     7
370
     5
100
AcDbLine
 10
2468.065385232757
 20
-1935.593880310249
 30
0.0
 11
2174.553387955314
 21
-2088.080363311181
 31
0.0
  0
LINE
  5
419
330
1F
100
AcDbEntity
  8
0-C_ハッチ
  6
Continuous
 62
     7
370
     5
100
AcDbLine
 10
1970.722951729458
 20
-2195.778080772091
 30
0.0
 11
1936.182564424865
 21
-2179.282874609356
 31
0.0
  0
LINE
  5
41A
330
1F
100
AcDbEntity
  8
0-C_ハッチ
  6
Continuous
 62
     7
370
     5
100
AcDbLine
 10
2110.807304554138
 20
-2343.009365469635
 30
0.0
 11
1970.722951729458
 21
-2195.778080772091
 31
0.0
  0
LINE
  5
41B
330
1F
100
AcDbEntity
  8
0-C_ハッチ
  6
Continuous
 62
     7
370
     5
100
AcDbLine
 10
2148.091742050368
 20
-2410.152572931313
 30
0.0
 11
2110.807304554138
 21
-2343.009365469635
 31
0.0
  0
LINE
  5
41C
330
1F
100
AcDbEntity
  8
0-C_ハッチ
  6
Continuous
 62
     7
370
     5
100
AcDbLine
 10
1984.427454910356
 20
-2170.058614065591
 30
0.0
 11
2118.869379134386
 21
-2299.585656999463
 31
0.0
  0
LINE
  5
41D
330
1F
100
AcDbEntity
  8
0-C_ハッチ
  6
Continuous
 62
     7
370
     5
100
AcDbLine
 10
1881.689743302178
 20
-2121.208812085202
 30
0.0
 11
1984.427454910356
 21
-2170.058614065591
 31
0.0
  0
LINE
  5
41E
330
1F
100
AcDbEntity
  8
0-C_ハッチ
  6
Continuous
 62
     7
370
     5
100
AcDbLine
 10
2185.438383266867
 20
-2435.530903412411
 30
0.0
 11
2118.869379134386
 21
-2299.585656999463
 31
0.0
  0
LINE
  5
41F
330
1F
100
AcDbEntity
  8
0-C_ハッチ
  6
Continuous
 62
     7
370
     5
100
AcDbLine
 10
2401.512823583963
 20
-2309.074281467284
 30
0.0
 11
2201.384263381112
 21
-2416.738470928516
 31
0.0
  0
LINE
  5
420
330
1F
100
AcDbEntity
  8
0-C_ハッチ
  6
Continuous
 62
     7
370
     5
100
AcDbLine
 10
2282.05335906725
 20
-2223.760896768652
 30
0.0
 11
2138.976141169859
 21
-2300.73288257456
 31
0.0
  0
LINE
  5
421
330
1F
100
AcDbEntity
  8
0-C_ハッチ
  6
Continuous
 62
     7
370
     5
100
AcDbLine
 10
2152.680644350757
 20
-2099.427273935633
 30
0.0
 11
2009.604213842227
 21
-2176.383905658693
 31
0.0
  0
LINE
  5
422
330
1F
100
AcDbEntity
  8
0-C_ハッチ
  6
Continuous
 62
     7
370
     5
100
AcDbLine
 10
2101.025572694541
 20
-1999.154286319529
 30
0.0
 11
1902.29334771094
 21
-2112.496157455932
 31
0.0
  0
LINE
  5
423
330
1F
100
AcDbEntity
  8
0-C_ハッチ
  6
Continuous
 62
     7
370
     5
100
AcDbLine
 10
2159.734861184864
 20
-2094.605895073101
 30
0.0
 11
2110.156133963469
 21
-1993.402607513973
 31
0.0
  0
LINE
  5
424
330
1F
100
AcDbEntity
  8
0-C_ハッチ
  6
Continuous
 62
     7
370
     5
100
AcDbLine
 10
2290.223305921892
 20
-2215.730317742969
 30
0.0
 11
2159.734861184864
 21
-2094.605895073101
 31
0.0
  0
LINE
  5
425
330
1F
100
AcDbEntity
  8
0-C_ハッチ
  6
Continuous
 62
     7
370
     5
100
AcDbLine
 10
2426.059695824367
 20
-2299.973249167854
 30
0.0
 11
2290.223305921892
 21
-2215.730317742969
 31
0.0
  0
LINE
  5
426
330
1F
100
AcDbEntity
  8
0-C_ハッチ
  6
Continuous
 62
     7
370
     5
100
AcDbLine
 10
2445.485366492331
 20
-2301.709638460565
 30
0.0
 11
2493.730256977823
 21
-2351.071046355449
 31
0.0
  0
LINE
  5
427
330
1F
100
AcDbEntity
  8
0-C_ハッチ
  6
Continuous
 62
     7
370
     5
100
AcDbLine
 10
2300.175901165013
 20
-2207.141676859809
 30
0.0
 11
2445.485366492331
 21
-2301.709638460565
 31
0.0
  0
LINE
  5
428
330
1F
100
AcDbEntity
  8
0-C_ハッチ
  6
Continuous
 62
     7
370
     5
100
AcDbLine
 10
2165.424533117365
 20
-2086.09481199306
 30
0.0
 11
2300.175901165013
 21
-2207.141676859809
 31
0.0
  0
LINE
  5
429
330
1F
100
AcDbEntity
  8
0-C_ハッチ
  6
Continuous
 62
     7
370
     5
100
AcDbLine
 10
2113.768674072285
 20
-1985.806273446882
 30
0.0
 11
2165.424533117365
 21
-2086.09481199306
 31
0.0
  0
LINE
  5
42A
330
1F
100
AcDbEntity
  8
0-C_ハッチ
  6
Continuous
 62
     7
370
     5
100
AcDbLine
 10
2088.158063876256
 20
-1962.52082256675
 30
0.0
 11
2113.768674072285
 21
-1985.806273446882
 31
0.0
  0
LINE
  5
42B
330
1F
100
AcDbEntity
  8
0-C_ハッチ
  6
Continuous
 62
     7
370
     5
100
AcDbLine
 10
2405.177355757685
 20
-2256.859575062947
 30
0.0
 11
2427.718724161175
 21
-2282.051884924886
 31
0.0
  0
LINE
  5
42C
330
1F
100
AcDbEntity
  8
0-C_ハッチ
  6
Continuous
 62
     7
370
     5
100
AcDbLine
 10
2302.160121102725
 20
-2192.987574637469
 30
0.0
 11
2405.177355757685
 21
-2256.859575062947
 31
0.0
  0
LINE
  5
42D
330
1F
100
AcDbEntity
  8
0-C_ハッチ
  6
Continuous
 62
     7
370
     5
100
AcDbLine
 10
2615.784979590711
 20
-2096.280080645544
 30
0.0
 11
2378.434480374979
 21
-2232.674926099932
 31
0.0
  0
LINE
  5
42E
330
1F
100
AcDbEntity
  8
0-C_ハッチ
  6
Continuous
 62
     7
370
     5
100
AcDbLine
 10
2602.607239559944
 20
-2068.126794959891
 30
0.0
 11
2340.452416345093
 21
-2215.172255885489
 31
0.0
  0
LINE
  5
42F
330
1F
100
AcDbEntity
  8
0-C_ハッチ
  6
Continuous
 62
     7
370
     5
100
AcDbLine
 10
2556.036337799679
 20
-2049.802287618468
 30
0.0
 11
2302.160121102725
 21
-2192.987574637469
 31
0.0
  0
LINE
  5
430
330
1F
100
AcDbEntity
  8
0-C_ハッチ
  6
Continuous
 62
     7
370
     5
100
AcDbLine
 10
2440.818512694389
 20
-1920.0581222053
 30
0.0
 11
2157.331750371416
 21
-2067.336256540264
 31
0.0
  0
LINE
  5
431
330
1F
100
AcDbEntity
  8
0-C_ハッチ
  6
Continuous
 62
     7
370
     5
100
AcDbLine
 10
2282.404534500672
 20
-1831.887104584286
 30
0.0
 11
2082.499100109458
 21
-1934.336631868179
 31
0.0
  0
LINE
  5
432
330
1F
100
AcDbEntity
  8
0-C_ハッチ
  6
Continuous
 62
     7
370
     5
100
AcDbLine
 10
2506.023759314125
 20
-2357.582161720498
 30
0.0
 11
2493.730256977823
 21
-2351.071046355449
 31
0.0
  0
LINE
  5
433
330
1F
100
AcDbEntity
  8
0-C_ハッチ
  6
Continuous
 62
     7
370
     5
100
AcDbLine
 10
2535.339821504941
 20
-2361.923036528672
 30
0.0
 11
2506.023759314125
 21
-2357.582161720498
 31
0.0
  0
LINE
  5
434
330
1F
100
AcDbEntity
  8
0-C_ハッチ
  6
Continuous
 62
     7
370
     5
100
AcDbLine
 10
2754.691398674589
 20
-2227.636621605316
 30
0.0
 11
2535.339821504941
 21
-2361.923036528672
 31
0.0
  0
LINE
  5
435
330
1F
100
AcDbEntity
  8
0-C_ハッチ
  6
Continuous
 62
     7
370
     5
100
AcDbLine
 10
2757.853552353101
 20
-2203.110836416901
 30
0.0
 11
2754.691398674589
 21
-2227.636621605316
 31
0.0
  0
LINE
  5
436
330
1F
100
AcDbEntity
  8
0-C_ハッチ
  6
Continuous
 62
     7
370
     5
100
AcDbLine
 10
2615.784979590711
 20
-2084.017286474942
 30
0.0
 11
2757.853552353101
 21
-2203.110836416901
 31
0.0
  0
LINE
  5
437
330
1F
100
AcDbEntity
  8
0-C_ハッチ
  6
Continuous
 62
     7
370
     5
100
AcDbLine
 10
2601.863157083302
 20
-2059.677718752902
 30
0.0
 11
2615.784979590711
 21
-2084.017286474942
 31
0.0
  0
LINE
  5
438
330
1F
100
AcDbEntity
  8
0-C_ハッチ
  6
Continuous
 62
     7
370
     5
100
AcDbLine
 10
2570.511694678602
 20
-2036.513722605066
 30
0.0
 11
2601.863157083302
 21
-2059.677718752902
 31
0.0
  0
LINE
  5
439
330
1F
100
AcDbEntity
  8
0-C_ハッチ
  6
Continuous
 62
     7
370
     5
100
AcDbLine
 10
2563.663773726904
 20
-2014.827655355284
 30
0.0
 11
2570.511694678602
 21
-2036.513722605066
 31
0.0
  0
LINE
  5
43A
330
1F
100
AcDbEntity
  8
0-C_ハッチ
  6
Continuous
 62
     7
370
     5
100
AcDbLine
 10
2469.886547392993
 20
-1933.871285049453
 30
0.0
 11
2563.663773726904
 21
-2014.827655355284
 31
0.0
  0
LINE
  5
43B
330
1F
100
AcDbEntity
  8
0-C_ハッチ
  6
Continuous
 62
     7
370
     5
100
AcDbLine
 10
2456.802506637061
 20
-1931.204792660938
 30
0.0
 11
2469.886547392993
 21
-1933.871285049453
 31
0.0
  0
LINE
  5
43C
330
1F
100
AcDbEntity
  8
0-C_ハッチ
  6
Continuous
 62
     7
370
     5
100
AcDbLine
 10
2446.260157134676
 20
-1920.973068065469
 30
0.0
 11
2456.802506637061
 21
-1931.204792660938
 31
0.0
  0
LINE
  5
43D
330
1F
100
AcDbEntity
  8
0-C_ハッチ
  6
Continuous
 62
     7
370
     5
100
AcDbLine
 10
2427.656520440905
 20
-1916.445975790916
 30
0.0
 11
2446.260157134676
 21
-1920.973068065469
 31
0.0
  0
LINE
  5
43E
330
1F
100
AcDbEntity
  8
0-C_ハッチ
  6
Continuous
 62
     7
370
     5
100
AcDbLine
 10
2310.59384322686
 20
-1826.296643648673
 30
0.0
 11
2427.656520440905
 21
-1916.445975790916
 31
0.0
  0
LINE
  5
43F
330
1F
100
AcDbEntity
  8
0-C_ハッチ
  6
Continuous
 62
     7
370
     5
100
AcDbLine
 10
2287.324140124014
 20
-1829.365885441212
 30
0.0
 11
2310.59384322686
 21
-1826.296643648673
 31
0.0
  0
LINE
  5
440
330
1F
100
AcDbEntity
  8
0-C_ハッチ
  6
Continuous
 62
     7
370
     5
100
AcDbLine
 10
2282.404534500672
 20
-1831.887104584286
 30
0.0
 11
2287.324140124014
 21
-1829.365885441212
 31
0.0
  0
LINE
  5
441
330
1F
100
AcDbEntity
  8
0-C_ハッチ
  6
Continuous
 62
     7
370
     5
100
AcDbLine
 10
2082.499100109458
 20
-1934.336631868179
 30
0.0
 11
2080.329056399804
 21
-1957.900818406228
 31
0.0
  0
ELLIPSE
  5
442
330
1F
100
AcDbEntity
  8
0-C_ハッチ
  6
Continuous
 62
     7
370
     5
100
AcDbEllipse
 10
2146.033227401683
 20
-2202.045202452171
 30
0.0
 11
79.69551291525261
 21
0.0
 31
0.0
210
0.0
220
0.0
230
1.0
 40
0.7
 41
0.0
 42
6.283185307179586
  0
MTEXT
  5
443
330
1F
100
AcDbEntity
  8
0-C_ハッチ
  6
Continuous
 62
     7
370
     5
100
AcDbMText
 10
3984.932856190254
 20
-2210.138400745759
 30
0.0
 40
45.72
 41
240.0
 46
0.0
 71
     7
 72
     1
  1
{\fＭＳ ゴシック|b0|i0|c128|p49;46㎜後ろ}
 73
     1
 44
1.0
  0
LINE
  5
444
330
1F
100
AcDbEntity
  8
0-C_ハッチ
  6
Continuous
 62
   120
370
     5
100
AcDbLine
 10
4752.918164340383
 20
-2953.821394744336
 30
0.0
 11
4686.917941644539
 21
-3019.821250043602
 31
0.0
  0
LINE
  5
445
330
1F
100
AcDbEntity
  8
0-4_枠
  6
Continuous
 62
    92
370
     5
100
AcDbLine
 10
4686.917941644539
 20
-3014.497301363844
 30
0.0
 11
4686.917941644539
 21
-3074.497301363844
 31
0.0
  0
LINE
  5
446
330
1F
100
AcDbEntity
  8
0-4_枠
  6
Continuous
 62
    92
370
     5
100
AcDbLine
 10
4632.917941644541
 20
-3014.497301363844
 30
0.0
 11
4686.917941644539
 21
-3014.497301363844
 31
0.0
  0
LINE
  5
447
330
1F
100
AcDbEntity
  8
0-4_枠
  6
Continuous
 62
    92
370
     5
100
AcDbLine
 10
4632.917941644541
 20
-3014.497301363844
 30
0.0
 11
4632.917941644541
 21
-3074.497301363844
 31
0.0
  0
LINE
  5
448
330
1F
100
AcDbEntity
  8
0-4_枠
  6
Continuous
 62
    92
370
     5
100
AcDbLine
 10
4752.917941644541
 20
-2522.498152556836
 30
0.0
 11
4752.917941644541
 21
-3032.497301363844
 31
0.0
  0
LINE
  5
449
330
1F
100
AcDbEntity
  8
0-4_枠
  6
Continuous
 62
    92
370
     5
100
AcDbLine
 10
4722.917941644541
 20
-3032.497301363844
 30
0.0
 11
4752.917941644541
 21
-3032.497301363844
 31
0.0
  0
LINE
  5
44A
330
1F
100
AcDbEntity
  8
0-4_枠
  6
Continuous
 62
    92
370
     5
100
AcDbLine
 10
4722.917941644541
 20
-3032.497301363844
 30
0.0
 11
4722.917941644541
 21
-3074.497301363844
 31
0.0
  0
LINE
  5
44B
330
1F
100
AcDbEntity
  8
0-4_枠
  6
Continuous
 62
    92
370
     5
100
AcDbLine
 10
4686.917941644539
 20
-3074.497301363844
 30
0.0
 11
4722.917941644541
 21
-3074.497301363844
 31
0.0
  0
LINE
  5
44C
330
1F
100
AcDbEntity
  8
0-C_ハッチ
  6
Continuous
 62
   120
370
     5
100
AcDbLine
 10
4675.124197583097
 20
-2522.498152556836
 30
0.0
 11
4572.917941644541
 21
-2624.703666175924
 31
0.0
  0
LINE
  5
44D
330
1F
100
AcDbEntity
  8
0-C_ハッチ
  6
Continuous
 62
   120
370
     5
100
AcDbLine
 10
4752.918164340383
 20
-2529.556868377149
 30
0.0
 11
4572.917941644541
 21
-2709.556719913255
 31
0.0
  0
LINE
  5
44E
330
1F
100
AcDbEntity
  8
0-C_ハッチ
  6
Continuous
 62
   120
370
     5
100
AcDbLine
 10
4752.918164340383
 20
-2868.968341007005
 30
0.0
 11
4572.917941644541
 21
-3048.968192543111
 31
0.0
  0
LINE
  5
44F
330
1F
100
AcDbEntity
  8
0-C_ハッチ
  6
Continuous
 62
   120
370
     5
100
AcDbLine
 10
4572.917941644541
 20
-2879.262827387918
 30
0.0
 11
4752.918164340383
 21
-2699.262975851811
 31
0.0
  0
LINE
  5
450
330
1F
100
AcDbEntity
  8
0-C_ハッチ
  6
Continuous
 62
   120
370
     5
100
AcDbLine
 10
4572.917941644541
 20
-2964.115881125249
 30
0.0
 11
4752.918164340383
 21
-2784.115287269674
 31
0.0
  0
LINE
  5
451
330
1F
100
AcDbEntity
  8
0-C_ハッチ
  6
Continuous
 62
   120
370
     5
100
AcDbLine
 10
4752.918164340383
 20
-2614.40992211448
 30
0.0
 11
4572.917941644541
 21
-2794.410515970051
 31
0.0
  0
LINE
  5
452
330
1F
100
AcDbEntity
  8
0-C_ハッチ
  6
Continuous
 62
   120
370
     5
100
AcDbLine
 10
4722.917941644541
 20
-3068.674504177608
 30
0.0
 11
4717.095112044964
 21
-3074.497301363844
 31
0.0
  0
LINE
  5
453
330
1F
100
AcDbEntity
  8
0-4_枠
  6
Continuous
 62
    92
370
     5
100
AcDbLine
 10
4578.917941644542
 20
-3074.497301363844
 30
0.0
 11
4632.917941644541
 21
-3074.497301363844
 31
0.0
  0
LINE
  5
454
330
1F
100
AcDbEntity
  8
0-4_枠
  6
Continuous
 62
    92
370
     5
100
AcDbLine
 10
4572.917941644541
 20
-3068.497301363843
 30
0.0
 11
4578.917941644542
 21
-3074.497301363844
 31
0.0
  0
LINE
  5
455
330
1F
100
AcDbEntity
  8
0-4_枠
  6
Continuous
 62
    92
370
     5
100
AcDbLine
 10
4578.917941644542
 20
-2522.498152556836
 30
0.0
 11
4752.917941644541
 21
-2522.498152556836
 31
0.0
  0
LINE
  5
456
330
1F
100
AcDbEntity
  8
0-4_枠
  6
Continuous
 62
    92
370
     5
100
AcDbLine
 10
4572.917941644541
 20
-2528.498152556836
 30
0.0
 11
4572.917941644541
 21
-3068.497301363843
 31
0.0
  0
LINE
  5
457
330
1F
100
AcDbEntity
  8
0-4_枠
  6
Continuous
 62
    92
370
     5
100
AcDbLine
 10
4578.917941644542
 20
-2522.498152556836
 30
0.0
 11
4572.917941644541
 21
-2528.498152556836
 31
0.0
  0
LINE
  5
458
330
1F
100
AcDbEntity
  8
0-7_金物
  6
Continuous
 62
     7
370
     5
100
AcDbLine
 10
4752.917941644541
 20
-2744.498063787798
 30
0.0
 11
4758.918010309082
 21
-2744.498063787798
 31
0.0
  0
LINE
  5
459
330
1F
100
AcDbEntity
  8
0-7_金物
  6
Continuous
 62
     7
370
     5
100
AcDbLine
 10
4758.918010309082
 20
-2852.498132452349
 30
0.0
 11
4752.917941644541
 21
-2852.498132452349
 31
0.0
  0
LINE
  5
45A
330
1F
100
AcDbEntity
  8
0-7_金物
  6
Continuous
 62
     7
370
     5
100
AcDbLine
 10
4758.918010309082
 20
-2858.49829839168
 30
0.0
 11
4758.918010309082
 21
-2738.498641714434
 31
0.0
  0
LINE
  5
45B
330
1F
100
AcDbEntity
  8
0-7_金物
  6
Continuous
 62
     7
370
     5
100
AcDbLine
 10
4770.917604043825
 20
-2738.498641714434
 30
0.0
 11
4758.918010309082
 21
-2738.498641714434
 31
0.0
  0
LINE
  5
45C
330
1F
100
AcDbEntity
  8
0-7_金物
  6
Continuous
 62
     7
370
     5
100
AcDbLine
 10
4770.917604043825
 20
-2858.49829839168
 30
0.0
 11
4758.918010309082
 21
-2858.49829839168
 31
0.0
  0
LINE
  5
45D
330
1F
100
AcDbEntity
  8
0-7_金物
  6
Continuous
 62
     7
370
     5
100
AcDbLine
 10
4782.917941644534
 20
-2888.498401388506
 30
0.0
 11
4782.917941644534
 21
-2708.498538717609
 31
0.0
  0
LINE
  5
45E
330
1F
100
AcDbEntity
  8
0-7_金物
  6
Continuous
 62
     7
370
     5
100
AcDbLine
 10
4782.917941644534
 20
-2888.498401388506
 30
0.0
 11
4770.917604043825
 21
-2888.498401388506
 31
0.0
  0
LINE
  5
45F
330
1F
100
AcDbEntity
  8
0-7_金物
  6
Continuous
 62
     7
370
     5
100
AcDbLine
 10
4782.917941644534
 20
-2708.498538717609
 30
0.0
 11
4770.917604043825
 21
-2708.498538717609
 31
0.0
  0
LINE
  5
460
330
1F
100
AcDbEntity
  8
0-7_金物
  6
Continuous
 62
     7
370
     5
100
AcDbLine
 10
4770.917604043825
 20
-2888.498401388506
 30
0.0
 11
4770.917604043825
 21
-2708.498538717609
 31
0.0
  0
LINE
  5
461
330
1F
100
AcDbEntity
  8
0-C_ハッチ
  6
Continuous
 62
   120
370
     5
100
AcDbLine
 10
4752.917941644539
 20
-2572.16504307462
 30
0.0
 11
4751.251051126757
 21
-2570.498152556839
 31
0.0
  0
LINE
  5
462
330
1F
100
AcDbEntity
  8
0-6_扉
  6
Continuous
 62
   200
370
     5
100
AcDbLine
 10
4557.917941644541
 20
-2717.498098120074
 30
0.0
 11
4557.917941644541
 21
-2879.498098120072
 31
0.0
  0
LINE
  5
463
330
1F
100
AcDbEntity
  8
0-C_ハッチ
  6
JWW_CENTER1
 62
   120
370
     5
100
AcDbLine
 10
4347.917941644541
 20
-2735.496801535402
 30
0.0
 11
4347.917941644541
 21
-2861.497454776535
 31
0.0
  0
ARC
  5
464
330
1F
100
AcDbEntity
  8
0-C_ハッチ
  6
Continuous
 62
     7
370
     5
100
AcDbCircle
 10
4356.917941644539
 20
-2798.498098120074
 30
0.0
 40
27.00000000000017
100
AcDbArc
 50
270.0
 51
90.0
  0
ARC
  5
465
330
1F
100
AcDbEntity
  8
0-C_ハッチ
  6
Continuous
 62
     7
370
     5
100
AcDbCircle
 10
4212.917941644539
 20
-2910.998098120074
 30
0.0
 40
6.0
100
AcDbArc
 50
135.0000000000086
 51
270.0
  0
ARC
  5
466
330
1F
100
AcDbEntity
  8
0-C_ハッチ
  6
Continuous
 62
     7
370
     5
100
AcDbCircle
 10
4212.917941644539
 20
-2685.998098120074
 30
0.0
 40
6.0
100
AcDbArc
 50
90.0
 51
224.9999999999913
  0
CIRCLE
  5
467
330
1F
100
AcDbEntity
  8
0-C_ハッチ
  6
Continuous
 62
     7
370
     5
100
AcDbCircle
 10
4305.917941644539
 20
-2873.498098120074
 30
0.0
 40
11.7
  0
CIRCLE
  5
468
330
1F
100
AcDbEntity
  8
0-C_ハッチ
  6
Continuous
 62
     7
370
     5
100
AcDbCircle
 10
4305.917941644539
 20
-2723.498098120074
 30
0.0
 40
11.7
  0
CIRCLE
  5
469
330
1F
100
AcDbEntity
  8
0-C_ハッチ
  6
Continuous
 62
     7
370
     5
100
AcDbCircle
 10
4305.917941644539
 20
-2723.498098120074
 30
0.0
 40
22.5
  0
CIRCLE
  5
46A
330
1F
100
AcDbEntity
  8
0-C_ハッチ
  6
Continuous
 62
     7
370
     5
100
AcDbCircle
 10
4305.917941644539
 20
-2873.498098120074
 30
0.0
 40
22.5
  0
CIRCLE
  5
46B
330
1F
100
AcDbEntity
  8
0-C_ハッチ
  6
Continuous
 62
     7
370
     5
100
AcDbCircle
 10
4434.917941644539
 20
-2798.498098120074
 30
0.0
 40
11.7
  0
CIRCLE
  5
46C
330
1F
100
AcDbEntity
  8
0-C_ハッチ
  6
Continuous
 62
     7
370
     5
100
AcDbCircle
 10
4434.917941644539
 20
-2798.498098120074
 30
0.0
 40
22.5
  0
LINE
  5
46D
330
1F
100
AcDbEntity
  8
0-C_ハッチ
  6
Continuous
 62
     7
370
     5
100
AcDbLine
 10
4407.491534773346
 20
-2916.998098120073
 30
0.0
 11
4212.917941644539
 21
-2916.998098120073
 31
0.0
  0
ARC
  5
46E
330
1F
100
AcDbEntity
  8
0-C_ハッチ
  6
Continuous
 62
     7
370
     5
100
AcDbCircle
 10
4407.491534773346
 20
-2886.998098120073
 30
0.0
 40
30.0
100
AcDbArc
 50
270.0
 51
315.0
  0
LINE
  5
46F
330
1F
100
AcDbEntity
  8
0-C_ハッチ
  6
Continuous
 62
     7
370
     5
100
AcDbLine
 10
4471.131145080135
 20
-2865.784894684477
 30
0.0
 11
4428.704738208942
 21
-2908.21130155567
 31
0.0
  0
ARC
  5
470
330
1F
100
AcDbEntity
  8
0-C_ハッチ
  6
Continuous
 62
     7
370
     5
100
AcDbCircle
 10
4449.917941644539
 20
-2844.571691248881
 30
0.0
 40
30.0
100
AcDbArc
 50
314.9999999999999
 51
359.9999999999999
  0
LINE
  5
471
330
1F
100
AcDbEntity
  8
0-C_ハッチ
  6
Continuous
 62
     7
370
     5
100
AcDbLine
 10
4479.917941644539
 20
-2752.424504991267
 30
0.0
 11
4479.917941644539
 21
-2844.571691248881
 31
0.0
  0
ARC
  5
472
330
1F
100
AcDbEntity
  8
0-C_ハッチ
  6
Continuous
 62
     7
370
     5
100
AcDbCircle
 10
4449.917941644539
 20
-2752.424504991267
 30
0.0
 40
30.0
100
AcDbArc
 50
0.0000000000000127
 51
45.00000000000001
  0
LINE
  5
473
330
1F
100
AcDbEntity
  8
0-C_ハッチ
  6
Continuous
 62
     7
370
     5
100
AcDbLine
 10
4428.704738208942
 20
-2688.784894684477
 30
0.0
 11
4471.131145080135
 21
-2731.21130155567
 31
0.0
  0
LINE
  5
474
330
1F
100
AcDbEntity
  8
0-C_ハッチ
  6
Continuous
 62
     7
370
     5
100
AcDbLine
 10
4407.491534773346
 20
-2679.998098120073
 30
0.0
 11
4212.917941644539
 21
-2679.998098120073
 31
0.0
  0
ARC
  5
475
330
1F
100
AcDbEntity
  8
0-C_ハッチ
  6
Continuous
 62
     7
370
     5
100
AcDbCircle
 10
4407.491534773346
 20
-2709.998098120073
 30
0.0
 40
30.0
100
AcDbArc
 50
45.00000000000006
 51
90.00000000000006
  0
LINE
  5
476
330
1F
100
AcDbEntity
  8
0-C_ハッチ
  6
Continuous
 62
     7
370
     5
100
AcDbLine
 10
4281.145863705896
 20
-2762.71130155567
 30
0.0
 11
4208.675300957418
 21
-2690.240738807193
 31
0.0
  0
LINE
  5
477
330
1F
100
AcDbEntity
  8
0-C_ハッチ
  6
Continuous
 62
     7
370
     5
100
AcDbLine
 10
4302.359067141492
 20
-2771.498098120073
 30
0.0
 11
4356.917941644539
 21
-2771.498098120073
 31
0.0
  0
ARC
  5
478
330
1F
100
AcDbEntity
  8
0-C_ハッチ
  6
Continuous
 62
     7
370
     5
100
AcDbCircle
 10
4302.359067141492
 20
-2741.498098120073
 30
0.0
 40
30.0
100
AcDbArc
 50
225.0000000000006
 51
270.0
  0
LINE
  5
479
330
1F
100
AcDbEntity
  8
0-C_ハッチ
  6
Continuous
 62
     7
370
     5
100
AcDbLine
 10
4302.359067141492
 20
-2825.498098120073
 30
0.0
 11
4356.917941644539
 21
-2825.498098120073
 31
0.0
  0
LINE
  5
47A
330
1F
100
AcDbEntity
  8
0-C_ハッチ
  6
Continuous
 62
     7
370
     5
100
AcDbLine
 10
4281.145863705896
 20
-2834.284894684477
 30
0.0
 11
4208.675300957418
 21
-2906.755457432954
 31
0.0
  0
ARC
  5
47B
330
1F
100
AcDbEntity
  8
0-C_ハッチ
  6
Continuous
 62
     7
370
     5
100
AcDbCircle
 10
4302.359067141492
 20
-2855.498098120073
 30
0.0
 40
30.0
100
AcDbArc
 50
90.0
 51
134.9999999999995
  0
LINE
  5
47C
330
1F
100
AcDbEntity
  8
0-C_ハッチ
  6
JWW_CENTER1
 62
   120
370
     5
100
AcDbLine
 10
4305.917941644539
 20
-2690.552666607316
 30
0.0
 11
4305.917941644539
 21
-2756.488763073874
 31
0.0
  0
LINE
  5
47D
330
1F
100
AcDbEntity
  8
0-C_ハッチ
  6
JWW_CENTER1
 62
   120
370
     5
100
AcDbLine
 10
4305.917941644539
 20
-2838.192186956347
 30
0.0
 11
4305.917941644539
 21
-2903.411586722181
 31
0.0
  0
LINE
  5
47E
330
1F
100
AcDbEntity
  8
0-C_ハッチ
  6
JWW_CENTER1
 62
   120
370
     5
100
AcDbLine
 10
4434.917941644539
 20
-2765.089123482555
 30
0.0
 11
4434.917941644539
 21
-2831.741916649836
 31
0.0
  0
LINE
  5
47F
330
1F
100
AcDbEntity
  8
0-C_ハッチ
  6
JWW_CENTER1
 62
   120
370
     5
100
AcDbLine
 10
4273.961039629098
 20
-2873.498098120074
 30
0.0
 11
4340.613832796379
 21
-2873.498098120074
 31
0.0
  0
LINE
  5
480
330
1F
100
AcDbEntity
  8
0-C_ハッチ
  6
JWW_CENTER1
 62
   120
370
     5
100
AcDbLine
 10
4273.961039629098
 20
-2723.498098120074
 30
0.0
 11
4340.613832796379
 21
-2723.498098120074
 31
0.0
  0
LWPOLYLINE
  5
481
330
1F
100
AcDbEntity
  8
0-C_ハッチ
  6
Continuous
 62
     7
370
     5
100
AcDbPolyline
 90
        4
 70
     1
 43
3.0
 10
4208.417941644539
 20
-2685.998098120074
 42
0.4142135623731
 10
4206.917941644538
 20
-2684.498098120074
 42
0.4142135623731
 10
4205.417941644538
 20
-2685.998098120074
 42
0.4142135623731
 10
4206.917941644538
 20
-2687.498098120073
 42
0.4142135623731
  0
LWPOLYLINE
  5
482
330
1F
100
AcDbEntity
  8
0-C_ハッチ
  6
Continuous
 62
     7
370
     5
100
AcDbPolyline
 90
        4
 70
     1
 43
3.0
 10
4208.417941644539
 20
-2910.998098120074
 42
0.4142135623731
 10
4206.917941644538
 20
-2909.498098120074
 42
0.4142135623731
 10
4205.417941644538
 20
-2910.998098120074
 42
0.4142135623731
 10
4206.917941644538
 20
-2912.498098120073
 42
0.4142135623731
  0
LWPOLYLINE
  5
483
330
1F
100
AcDbEntity
  8
0-C_ハッチ
  6
Continuous
 62
     7
370
     5
100
AcDbPolyline
 90
        4
 70
     1
 43
3.0
 10
3967.809439546696
 20
-2798.498098120074
 42
0.4142135623731
 10
3966.309439546696
 20
-2796.998098120074
 42
0.4142135623731
 10
3964.809439546696
 20
-2798.498098120074
 42
0.4142135623731
 10
3966.309439546696
 20
-2799.998098120073
 42
0.4142135623731
  0
MTEXT
  5
484
330
1F
100
AcDbEntity
  8
0-C_ハッチ
  6
Continuous
 62
     7
370
   211
100
AcDbMText
 10
4451.41794164454
 20
-2403.571475170067
 30
0.0
 40
57.15
 41
150.0
 46
0.0
 71
     7
 72
     1
  1
{\fＭＳ ゴシック|b0|i0|c128|p49;15.5}
 73
     1
 44
1.0
  0
LINE
  5
485
330
1F
100
AcDbEntity
  8
0-C_ハッチ
  6
Continuous
 62
   120
370
     5
100
AcDbLine
 10
3966.309439546696
 20
-2798.498098120074
 30
0.0
 11
3984.251046194474
 21
-2798.498098120074
 31
0.0
  0
LWPOLYLINE
  5
486
330
1F
100
AcDbEntity
  8
0-C_ハッチ
  6
Continuous
 62
     7
370
     5
100
AcDbPolyline
 90
        4
 70
     1
 43
3.0
 10
4066.639368539341
 20
-2679.997024231252
 42
0.4142135623731
 10
4065.139368539341
 20
-2678.497024231252
 42
0.4142135623731
 10
4063.639368539341
 20
-2679.997024231252
 42
0.4142135623731
 10
4065.139368539341
 20
-2681.497024231252
 42
0.4142135623731
  0
LINE
  5
487
330
1F
100
AcDbEntity
  8
0-C_ハッチ
  6
Continuous
 62
   120
370
     5
100
AcDbLine
 10
4065.139368539341
 20
-2679.997024231252
 30
0.0
 11
4163.969297531987
 21
-2679.997024231252
 31
0.0
  0
LWPOLYLINE
  5
488
330
1F
100
AcDbEntity
  8
0-C_ハッチ
  6
Continuous
 62
     7
370
     5
100
AcDbPolyline
 90
        4
 70
     1
 43
3.0
 10
4066.639368539341
 20
-2916.997024231244
 42
0.4142135623731
 10
4065.139368539341
 20
-2915.497024231244
 42
0.4142135623731
 10
4063.639368539341
 20
-2916.997024231244
 42
0.4142135623731
 10
4065.139368539341
 20
-2918.497024231244
 42
0.4142135623731
  0
LINE
  5
489
330
1F
100
AcDbEntity
  8
0-C_ハッチ
  6
Continuous
 62
   120
370
     5
100
AcDbLine
 10
4065.139368539341
 20
-2916.997024231244
 30
0.0
 11
4163.969297531987
 21
-2916.997024231244
 31
0.0
  0
LINE
  5
48A
330
1F
100
AcDbEntity
  8
0-C_ハッチ
  6
Continuous
 62
   120
370
     5
100
AcDbLine
 10
4065.139368539341
 20
-2679.997024231252
 30
0.0
 11
4065.139368539341
 21
-2916.997024231244
 31
0.0
  0
LWPOLYLINE
  5
48B
330
1F
100
AcDbEntity
  8
0-C_ハッチ
  6
Continuous
 62
     7
370
     5
100
AcDbPolyline
 90
        4
 70
     1
 43
3.0
 10
4481.417941644539
 20
-2400.646475170067
 42
0.4142135623731
 10
4479.917941644539
 20
-2399.146475170067
 42
0.4142135623731
 10
4478.417941644539
 20
-2400.646475170067
 42
0.4142135623731
 10
4479.917941644539
 20
-2402.146475170067
 42
0.4142135623731
  0
LINE
  5
48C
330
1F
100
AcDbEntity
  8
0-C_ハッチ
  6
Continuous
 62
   120
370
     5
100
AcDbLine
 10
4479.917941644539
 20
-2400.646475170067
 30
0.0
 11
4479.917941644539
 21
-2468.146475170067
 31
0.0
  0
LWPOLYLINE
  5
48D
330
1F
100
AcDbEntity
  8
0-C_ハッチ
  6
Continuous
 62
     7
370
     5
100
AcDbPolyline
 90
        4
 70
     1
 43
3.0
 10
4066.639368539341
 20
-2522.498152556836
 42
0.4142135623731
 10
4065.139368539341
 20
-2520.998152556836
 42
0.4142135623731
 10
4063.639368539341
 20
-2522.498152556836
 42
0.4142135623731
 10
4065.139368539341
 20
-2523.998152556836
 42
0.4142135623731
  0
LINE
  5
48E
330
1F
100
AcDbEntity
  8
0-C_ハッチ
  6
Continuous
 62
   120
370
     5
100
AcDbLine
 10
3963.761651500942
 20
-2522.498152556836
 30
0.0
 11
4523.151366137397
 21
-2522.498152556836
 31
0.0
  0
LWPOLYLINE
  5
48F
330
1F
100
AcDbEntity
  8
0-C_ハッチ
  6
Continuous
 62
     7
370
     5
100
AcDbPolyline
 90
        4
 70
     1
 43
3.0
 10
3967.809439546696
 20
-2522.498152556836
 42
0.4142135623731
 10
3966.309439546696
 20
-2520.998152556836
 42
0.4142135623731
 10
3964.809439546696
 20
-2522.498152556836
 42
0.4142135623731
 10
3966.309439546696
 20
-2523.998152556836
 42
0.4142135623731
  0
LINE
  5
490
330
1F
100
AcDbEntity
  8
0-C_ハッチ
  6
Continuous
 62
   120
370
     5
100
AcDbLine
 10
3966.309439546696
 20
-2522.498152556836
 30
0.0
 11
3966.309439546696
 21
-2798.498098120074
 31
0.0
  0
LINE
  5
491
330
1F
100
AcDbEntity
  8
0-C_ハッチ
  6
Continuous
 62
   120
370
     5
100
AcDbLine
 10
3867.479510554052
 20
-2522.498152556836
 30
0.0
 11
3963.761651500942
 21
-2522.498152556836
 31
0.0
  0
LWPOLYLINE
  5
492
330
1F
100
AcDbEntity
  8
0-C_ハッチ
  6
Continuous
 62
     7
370
     5
100
AcDbPolyline
 90
        4
 70
     1
 43
3.0
 10
3868.979510554052
 20
-2522.498152556836
 42
0.4142135623731
 10
3867.479510554052
 20
-2520.998152556836
 42
0.4142135623731
 10
3865.979510554051
 20
-2522.498152556836
 42
0.4142135623731
 10
3867.479510554052
 20
-2523.998152556836
 42
0.4142135623731
  0
LINE
  5
493
330
1F
100
AcDbEntity
  8
0-C_ハッチ
  6
Continuous
 62
   120
370
     5
100
AcDbLine
 10
4065.139368539341
 20
-2522.498152556836
 30
0.0
 11
4065.139368539341
 21
-2679.997024231252
 31
0.0
  0
LWPOLYLINE
  5
494
330
1F
100
AcDbEntity
  8
0-C_ハッチ
  6
Continuous
 62
     7
370
     5
100
AcDbPolyline
 90
        4
 70
     1
 43
3.0
 10
4066.639368539341
 20
-3074.497301363844
 42
0.4142135623731
 10
4065.139368539341
 20
-3072.997301363844
 42
0.4142135623731
 10
4063.639368539341
 20
-3074.497301363844
 42
0.4142135623731
 10
4065.139368539341
 20
-3075.997301363844
 42
0.4142135623731
  0
LINE
  5
495
330
1F
100
AcDbEntity
  8
0-C_ハッチ
  6
Continuous
 62
   120
370
     5
100
AcDbLine
 10
3963.761651500942
 20
-3074.497301363844
 30
0.0
 11
4523.151366137397
 21
-3074.497301363844
 31
0.0
  0
LWPOLYLINE
  5
496
330
1F
100
AcDbEntity
  8
0-C_ハッチ
  6
Continuous
 62
     7
370
     5
100
AcDbPolyline
 90
        4
 70
     1
 43
3.0
 10
3967.809439546696
 20
-3074.497301363844
 42
0.4142135623731
 10
3966.309439546696
 20
-3072.997301363844
 42
0.4142135623731
 10
3964.809439546696
 20
-3074.497301363844
 42
0.4142135623731
 10
3966.309439546696
 20
-3075.997301363844
 42
0.4142135623731
  0
LINE
  5
497
330
1F
100
AcDbEntity
  8
0-C_ハッチ
  6
Continuous
 62
   120
370
     5
100
AcDbLine
 10
3966.309439546696
 20
-2798.498098120074
 30
0.0
 11
3966.309439546696
 21
-3074.497301363844
 31
0.0
  0
LINE
  5
498
330
1F
100
AcDbEntity
  8
0-C_ハッチ
  6
Continuous
 62
   120
370
     5
100
AcDbLine
 10
3867.479510554052
 20
-3074.497301363844
 30
0.0
 11
3963.761651500942
 21
-3074.497301363844
 31
0.0
  0
LWPOLYLINE
  5
499
330
1F
100
AcDbEntity
  8
0-C_ハッチ
  6
Continuous
 62
     7
370
     5
100
AcDbPolyline
 90
        4
 70
     1
 43
3.0
 10
3868.979510554052
 20
-3074.497301363844
 42
0.4142135623731
 10
3867.479510554052
 20
-3072.997301363844
 42
0.4142135623731
 10
3865.979510554051
 20
-3074.497301363844
 42
0.4142135623731
 10
3867.479510554052
 20
-3075.997301363844
 42
0.4142135623731
  0
LINE
  5
49A
330
1F
100
AcDbEntity
  8
0-C_ハッチ
  6
Continuous
 62
   120
370
     5
100
AcDbLine
 10
4065.139368539341
 20
-2916.997024231244
 30
0.0
 11
4065.139368539341
 21
-3074.497301363844
 31
0.0
  0
LINE
  5
49B
330
1F
100
AcDbEntity
  8
0-C_ハッチ
  6
Continuous
 62
   120
370
     5
100
AcDbLine
 10
3867.479510554052
 20
-2522.498152556836
 30
0.0
 11
3867.479510554052
 21
-3074.497301363844
 31
0.0
  0
MTEXT
  5
49C
330
1F
100
AcDbEntity
  8
0-C_ハッチ
  6
Continuous
 62
     7
370
     5
100
AcDbMText
 10
3576.406952846949
 20
-2412.815560685643
 30
0.0
 40
57.15
 41
225.0
 46
0.0
 71
     7
 72
     1
  1
{\fＭＳ ゴシック|b0|i0|c128|p49;平面図}
 73
     1
 44
1.0
  0
MTEXT
  5
49D
330
1F
100
AcDbEntity
  8
0-C_ハッチ
  6
Continuous
 62
     7
370
   211
100
AcDbMText
 10
2799.490434325485
 20
-2508.96585246839
 30
0.0
 40
68.57999999999998
 41
225.0
 46
0.0
 71
     7
 72
     1
  1
{\fＭＳ ゴシック|b0|i0|c128|p49;6.5㎜}
 73
     1
 44
1.0
  0
LWPOLYLINE
  5
49E
330
1F
100
AcDbEntity
  8
0-C_ハッチ
  6
Continuous
 62
     7
370
     5
100
AcDbPolyline
 90
        4
 70
     1
 43
3.0
 10
4574.417941644541
 20
-2400.646475170067
 42
0.4142135623731
 10
4572.917941644541
 20
-2399.146475170067
 42
0.4142135623731
 10
4571.41794164454
 20
-2400.646475170067
 42
0.4142135623731
 10
4572.917941644541
 20
-2402.146475170067
 42
0.4142135623731
  0
LINE
  5
49F
330
1F
100
AcDbEntity
  8
0-C_ハッチ
  6
Continuous
 62
   120
370
     5
100
AcDbLine
 10
4572.917941644541
 20
-2400.646475170067
 30
0.0
 11
4572.917941644541
 21
-2468.146475170067
 31
0.0
  0
MTEXT
  5
4A0
330
1F
100
AcDbEntity
  8
0-C_ハッチ
  6
Continuous
 62
     7
370
   211
100
AcDbMText
 10
4059.431211542203
 20
-2647.672588394044
 30
0.0
 40
57.15
 41
75.0
 46
0.0
 71
     7
 72
     1
  1
{\fＭＳ ゴシック|b0|i0|c128|p49;26}
 11
6.123031769111886E-17
 21
1.0
 31
0.0
 73
     1
 44
1.0
  0
LINE
  5
4A1
330
1F
100
AcDbEntity
  8
0-C_ハッチ
  6
Continuous
 62
   120
370
     5
100
AcDbLine
 10
4572.917941644541
 20
-2400.646475170067
 30
0.0
 11
4479.917941644539
 21
-2400.646475170067
 31
0.0
  0
MTEXT
  5
4A2
330
1F
100
AcDbEntity
  8
0-C_ハッチ
  6
Continuous
 62
     7
370
   211
100
AcDbMText
 10
3960.309439546696
 20
-2706.923125338455
 30
0.0
 40
57.15
 41
75.0
 46
0.0
 71
     7
 72
     1
  1
{\fＭＳ ゴシック|b0|i0|c128|p49;46}
 11
6.123031769111886E-17
 21
1.0
 31
0.0
 73
     1
 44
1.0
  0
MTEXT
  5
4A3
330
1F
100
AcDbEntity
  8
0-C_ハッチ
  6
Continuous
 62
     7
370
   211
100
AcDbMText
 10
3861.771353556914
 20
-2844.922024231249
 30
0.0
 40
57.15
 41
75.0
 46
0.0
 71
     7
 72
     1
  1
{\fＭＳ ゴシック|b0|i0|c128|p49;92}
 11
6.123031769111886E-17
 21
1.0
 31
0.0
 73
     1
 44
1.0
  0
MTEXT
  5
4A4
330
1F
100
AcDbEntity
  8
0-C_ハッチ
  6
Continuous
 62
     7
370
   211
100
AcDbMText
 10
4059.139368539341
 20
-2850.923098120074
 30
0.0
 40
57.15
 41
75.0
 46
0.0
 71
     7
 72
     1
  1
{\fＭＳ ゴシック|b0|i0|c128|p49;40}
 11
6.123031769111886E-17
 21
1.0
 31
0.0
 73
     1
 44
1.0
  0
LINE
  5
4A5
330
1F
100
AcDbEntity
  8
0-C_ハッチ
  6
JWW_CENTER1
 62
   120
370
     5
100
AcDbLine
 10
4124.150369188254
 20
-2798.498098120074
 30
0.0
 11
4767.054694143797
 21
-2798.498098120074
 31
0.0
  0
LINE
  5
4A6
330
1F
100
AcDbEntity
  8
0-6_扉
  6
Continuous
 62
   200
370
     5
100
AcDbLine
 10
4124.150369188254
 20
-2717.498098120074
 30
0.0
 11
4557.917941644541
 21
-2717.498098120074
 31
0.0
  0
LINE
  5
4A7
330
1F
100
AcDbEntity
  8
0-6_扉
  6
Continuous
 62
   200
370
     5
100
AcDbLine
 10
4124.150369188254
 20
-2879.498098120072
 30
0.0
 11
4557.917941644541
 21
-2879.498098120072
 31
0.0
  0
LINE
  5
4A8
330
1F
100
AcDbEntity
  8
0-C_ハッチ
  6
JWW_HOJO
 62
   120
370
     5
100
AcDbLine
 10
3477.242018821655
 20
-2916.329217870213
 30
0.0
 11
5147.260651106719
 21
-2916.329217870213
 31
0.0
  0
LWPOLYLINE
  5
4A9
330
1F
100
AcDbEntity
  8
0-C_ハッチ
  6
Continuous
 62
   120
370
     5
100
AcDbPolyline
 90
        4
 70
     1
 43
3.0
 10
2194.827657637582
 20
-1877.538109292291
 42
0.4142135623731
 10
2193.327657637582
 20
-1876.038109292291
 42
0.4142135623731
 10
2191.827657637583
 20
-1877.538109292291
 42
0.4142135623731
 10
2193.327657637582
 20
-1879.038109292291
 42
0.4142135623731
  0
LWPOLYLINE
  5
4AA
330
1F
100
AcDbEntity
  8
0-C_ハッチ
  6
Continuous
 62
   120
370
     5
100
AcDbPolyline
 90
        4
 70
     1
 43
3.0
 10
2126.466727096218
 20
-1818.527930488435
 42
0.4142135623731
 10
2124.966727096218
 20
-1817.027930488435
 42
0.4142135623731
 10
2123.466727096219
 20
-1818.527930488435
 42
0.4142135623731
 10
2124.966727096218
 20
-1820.027930488435
 42
0.4142135623731
  0
LINE
  5
4AB
330
1F
100
AcDbEntity
  8
0-C_ハッチ
  6
Continuous
 62
   120
370
     5
100
AcDbLine
 10
2124.966727096218
 20
-1818.527930488435
 30
0.0
 11
2193.327657637582
 21
-1877.538109292291
 31
0.0
  0
MTEXT
  5
4AC
330
1F
100
AcDbEntity
  8
0-C_ハッチ
  6
Continuous
 62
     7
370
   211
100
AcDbMText
 10
3960.309439546696
 20
-2982.922699741959
 30
0.0
 40
57.15
 41
75.0
 46
0.0
 71
     7
 72
     1
  1
{\fＭＳ ゴシック|b0|i0|c128|p49;46}
 11
6.123031769111886E-17
 21
1.0
 31
0.0
 73
     1
 44
1.0
  0
LWPOLYLINE
  5
4AD
330
1F
100
AcDbEntity
  8
0-0_補助線
  6
Continuous
 62
     7
370
     5
100
AcDbPolyline
 90
        4
 70
     1
 43
3.0
 10
-633.3944132304922
 20
-1242.321415352089
 42
0.4142135623731
 10
-634.8944132304922
 20
-1240.821415352089
 42
0.4142135623731
 10
-636.3944132304922
 20
-1242.321415352089
 42
0.4142135623731
 10
-634.8944132304922
 20
-1243.821415352089
 42
0.4142135623731
  0
LINE
  5
4AE
330
1F
100
AcDbEntity
  8
0-0_補助線
  6
Continuous
 62
   120
370
     5
100
AcDbLine
 10
-634.8944132304922
 20
-1242.321415352089
 30
0.0
 11
-634.8944132304922
 21
-1385.86346515209
 31
0.0
  0
LINE
  5
4AF
330
1F
100
AcDbEntity
  8
0-0_補助線
  6
Continuous
 62
    92
370
     5
100
AcDbLine
 10
-634.8944132304922
 20
-1435.863465152089
 30
0.0
 11
-634.8944132304922
 21
-2311.154670700916
 31
0.0
  0
MTEXT
  5
4B0
330
1F
100
AcDbEntity
  8
0-C_ハッチ
  6
Continuous
 62
     7
370
   211
100
AcDbMText
 10
4059.431211542203
 20
-3031.113913618668
 30
0.0
 40
57.15
 41
75.0
 46
0.0
 71
     7
 72
     1
  1
{\fＭＳ ゴシック|b0|i0|c128|p49;26}
 11
6.123031769111886E-17
 21
1.0
 31
0.0
 73
     1
 44
1.0
  0
LWPOLYLINE
  5
4B1
330
1F
100
AcDbEntity
  8
0-0_補助線
  6
Continuous
 62
     7
370
     5
100
AcDbPolyline
 90
        4
 70
     1
 43
3.0
 10
286.6059496812543
 20
-1242.321415352089
 42
0.4142135623731
 10
285.1059496812542
 20
-1240.821415352089
 42
0.4142135623731
 10
283.6059496812542
 20
-1242.321415352089
 42
0.4142135623731
 10
285.1059496812542
 20
-1243.821415352089
 42
0.4142135623731
  0
LINE
  5
4B2
330
1F
100
AcDbEntity
  8
0-0_補助線
  6
JWW_HOJO
 62
   120
370
     5
100
AcDbLine
 10
-669.8947596462511
 20
-1385.86346515209
 30
0.0
 11
285.1059496812542
 21
-1385.86346515209
 31
0.0
  0
LINE
  5
4B3
330
1F
100
AcDbEntity
  8
0-0_補助線
  6
JWW_HOJO
 62
   120
370
     5
100
AcDbLine
 10
-669.8947596462511
 20
-1435.863465152089
 30
0.0
 11
285.1059496812542
 21
-1435.863465152089
 31
0.0
  0
LINE
  5
4B4
330
1F
100
AcDbEntity
  8
0-0_補助線
  6
Continuous
 62
    92
370
     5
100
AcDbLine
 10
285.1059496812542
 20
-1435.863465152089
 30
0.0
 11
285.1059496812542
 21
-2311.154670700916
 31
0.0
  0
LINE
  5
4B5
330
1F
100
AcDbEntity
  8
0-0_補助線
  6
Continuous
 62
    92
370
     5
100
AcDbLine
 10
-634.8944132304922
 20
-2311.154670700916
 30
0.0
 11
285.1059496812542
 21
-2311.154670700916
 31
0.0
  0
LINE
  5
4B6
330
1F
100
AcDbEntity
  8
0-0_補助線
  6
Continuous
 62
   120
370
     5
100
AcDbLine
 10
-634.8944132304922
 20
-1242.321415352089
 30
0.0
 11
285.1059496812542
 21
-1242.321415352089
 31
0.0
  0
LINE
  5
4B7
330
1F
100
AcDbEntity
  8
0-0_補助線
  6
Continuous
 62
   120
370
     5
100
AcDbLine
 10
285.1059496812542
 20
-1242.321415352089
 30
0.0
 11
285.1059496812542
 21
-1385.86346515209
 31
0.0
  0
MTEXT
  5
4B8
330
1F
100
AcDbEntity
  8
0-C_ハッチ
  6
Continuous
 62
     7
370
     5
100
AcDbMText
 10
1693.128788374685
 20
-3310.358371916675
 30
0.0
 40
57.14999999999998
 41
1425.0
 46
0.0
 71
     7
 72
     1
  1
{\fＭＳ ゴシック|b0|i0|c128|p49;※現場にて左右どちらでも施工可能です。}
 73
     1
 44
1.0
  0
LINE
  5
4B9
330
1F
100
AcDbEntity
  8
0-0_補助線
  6
Continuous
 62
    92
370
     5
100
AcDbLine
 10
-1218.544538435233
 20
-486.9032160419703
 30
0.0
 11
767.1248232353471
 21
-486.9032160419703
 31
0.0
  0
LINE
  5
4BA
330
1F
100
AcDbEntity
  8
0-0_補助線
  6
Continuous
 62
    92
370
     5
100
AcDbLine
 10
-1218.544538435233
 20
-270.9032160419697
 30
0.0
 11
767.1248232353471
 21
-270.9032160419697
 31
0.0
  0
LINE
  5
4BB
330
1F
100
AcDbEntity
  8
0-0_補助線
  6
Continuous
 62
    92
370
     5
100
AcDbLine
 10
-1218.544538435233
 20
-270.9032160419697
 30
0.0
 11
-1218.544538435233
 21
-3370.000660870872
 31
0.0
  0
LINE
  5
4BC
330
1F
100
AcDbEntity
  8
0-C_ハッチ
  6
Continuous
 62
    92
370
     5
100
AcDbLine
 10
-1218.544538435233
 20
-3370.000660870872
 30
0.0
 11
5504.724823235356
 21
-3370.000660870872
 31
0.0
  0
LINE
  5
4BD
330
1F
100
AcDbEntity
  8
0-C_ハッチ
  6
JWW_DASHED1
 62
   120
370
     5
100
AcDbLine
 10
4722.917941644541
 20
-3066.568346177885
 30
0.0
 11
4756.988986458602
 21
-3032.497301363826
 31
0.0
  0
LINE
  5
4BE
330
1F
100
AcDbEntity
  8
0-C_ハッチ
  6
JWW_DASHED1
 62
   120
370
     5
100
AcDbLine
 10
4809.268207072198
 20
-3107.49730136383
 30
0.0
 11
4884.268207072193
 21
-3032.497301363833
 31
0.0
  0
LINE
  5
4BF
330
1F
100
AcDbEntity
  8
0-C_ハッチ
  6
JWW_DASHED1
 62
   120
370
     5
100
AcDbLine
 10
4766.841800200998
 20
-3107.497301363828
 30
0.0
 11
4841.841800200991
 21
-3032.497301363833
 31
0.0
  0
LINE
  5
4C0
330
1F
100
AcDbEntity
  8
0-C_ハッチ
  6
JWW_DASHED1
 62
   120
370
     5
100
AcDbLine
 10
4724.415393329786
 20
-3107.497301363841
 30
0.0
 11
4799.415393329798
 21
-3032.49730136383
 31
0.0
  0
LINE
  5
4C1
330
1F
100
AcDbEntity
  8
0-3_仕上げ
  6
Continuous
 62
    40
370
     5
100
AcDbLine
 10
4722.917941644541
 20
-3032.497301363844
 30
0.0
 11
4912.19058287134
 21
-3032.497301363844
 31
0.0
  0
LINE
  5
4C2
330
1F
100
AcDbEntity
  8
0-3_仕上げ
  6
Continuous
 62
    40
370
     5
100
AcDbLine
 10
4722.917941644541
 20
-3107.497301363844
 30
0.0
 11
4912.19058287134
 21
-3107.497301363844
 31
0.0
  0
LINE
  5
4C3
330
1F
100
AcDbEntity
  8
0-C_ハッチ
  6
JWW_DASHED1
 62
   120
370
     5
100
AcDbLine
 10
4894.121020814591
 20
-3107.497301363837
 30
0.0
 11
4912.19058287134
 21
-3089.427739307087
 31
0.0
  0
LINE
  5
4C4
330
1F
100
AcDbEntity
  8
0-C_ハッチ
  6
JWW_DASHED1
 62
   120
370
     5
100
AcDbLine
 10
4851.694613943393
 20
-3107.497301363833
 30
0.0
 11
4912.19058287134
 21
-3047.001332435887
 31
0.0
  0
LINE
  5
4C5
330
1F
100
AcDbEntity
  8
0-C_ハッチ
  6
Continuous
 62
    40
370
     5
100
AcDbLine
 10
4722.917941644541
 20
-3032.497301363844
 30
0.0
 11
4722.917941644541
 21
-3107.497301363844
 31
0.0
  0
LINE
  5
4C6
330
1F
100
AcDbEntity
  8
0-A_文字
  6
Continuous
 62
    92
370
     5
100
AcDbLine
 10
-5659.999495325868
 20
3730.000181456216
 30
0.0
 11
-5659.999495325868
 21
4000.000181456216
 31
0.0
  0
MTEXT
  5
4C7
330
1F
100
AcDbEntity
  8
0-A_文字
  6
Continuous
 62
    92
370
     5
100
AcDbMText
 10
-5592.499495325869
 20
3758.994391982531
 30
0.0
 40
147.9884210526316
 41
3690.000000000001
 46
0.0
 71
     7
 72
     1
  1
{\fＭＳ ゴシック|b0|i0|c128|p49;クローゼットドア　調整枠　間口４．５尺}
 73
     1
 44
1.0
  0
LINE
  5
4C8
330
1F
100
AcDbEntity
  8
0-A_文字
  6
Continuous
 62
    92
370
     5
100
AcDbLine
 10
-5659.999495325868
 20
3730.000181456216
 30
0.0
 11
-1853.571428571428
 21
3730.000181456216
 31
0.0
  0
LINE
  5
4C9
330
1F
100
AcDbEntity
  8
0-A_文字
  6
Continuous
 62
    92
370
     5
100
AcDbLine
 10
-5659.999495325868
 20
4000.000181456216
 30
0.0
 11
-1853.571428571428
 21
4000.000181456216
 31
0.0
  0
LINE
  5
4CA
330
1F
100
AcDbEntity
  8
0-A_文字
  6
Continuous
 62
    92
370
     5
100
AcDbLine
 10
-1853.571428571428
 20
3730.000181456216
 30
0.0
 11
-1853.571428571428
 21
4000.000181456216
 31
0.0
  0
MTEXT
  5
4CB
330
1F
100
AcDbEntity
  8
F-A_文字
  6
Continuous
 62
     7
370
     0
100
AcDbMText
 10
4439.917891251784
 20
-3887.143854850754
 30
0.0
 40
45.72
 41
240.0
 46
0.0
 71
     7
 72
     1
  1
{\fＭＳ ゴシック|b0|i0|c128|p49;ＤＡＴＥ}
 73
     1
 44
1.0
  0
MTEXT
  5
4CC
330
1F
100
AcDbEntity
  8
F-A_文字
  6
Continuous
 62
     7
370
     0
100
AcDbMText
 10
4439.917891251784
 20
-4087.143857410839
 30
0.0
 40
45.72
 41
180.0
 46
0.0
 71
     7
 72
     1
  1
{\fＭＳ ゴシック|b0|i0|c128|p49;ＮＯ．}
 73
     1
 44
1.0
  0
MTEXT
  5
4CD
330
1F
100
AcDbEntity
  8
F-A_文字
  6
Continuous
 62
     7
370
     0
100
AcDbMText
 10
2939.917396372138
 20
-3887.142460617774
 30
0.0
 40
45.72
 41
300.0
 46
0.0
 71
     7
 72
     1
  1
{\fＭＳ ゴシック|b0|i0|c128|p49;ＳＣＡＬＥ}
 73
     1
 44
1.0
  0
MTEXT
  5
4CE
330
1F
100
AcDbEntity
  8
F-A_文字
  6
Continuous
 62
     7
370
     0
100
AcDbMText
 10
2939.917396372138
 20
-4087.14246317786
 30
0.0
 40
45.72
 41
240.0
 46
0.0
 71
     7
 72
     1
  1
{\fＭＳ ゴシック|b0|i0|c128|p49;ＦＩＬＥ}
 73
     1
 44
1.0
  0
MTEXT
  5
4CF
330
1F
100
AcDbEntity
  8
F-A_文字
  6
Continuous
 62
     7
370
     0
100
AcDbMText
 10
1604.917396372138
 20
-4164.281754523929
 30
0.0
 40
101.44125
 41
1065.0
 46
0.0
 71
     7
 72
     1
  1
{\fＭＳ ゴシック|b0|i0|c128|p49;ウッドワン・・・}
 73
     1
 44
1.0
  0
MTEXT
  5
4D0
330
1F
100
AcDbEntity
  8
F-A_文字
  6
Continuous
 62
     7
370
     0
100
AcDbMText
 10
1394.917396372138
 20
-4096.140669266149
 30
0.0
 40
45.72
 41
120.0
 46
0.0
 71
     7
 72
     1
  1
{\fＭＳ ゴシック|b0|i0|c128|p49;株式}
 73
     1
 44
1.0
  0
MTEXT
  5
4D1
330
1F
100
AcDbEntity
  8
F-A_文字
  6
Continuous
 62
     7
370
     0
100
AcDbMText
 10
1394.917396372138
 20
-4168.140669266187
 30
0.0
 40
45.72
 41
120.0
 46
0.0
 71
     7
 72
     1
  1
{\fＭＳ ゴシック|b0|i0|c128|p49;会社}
 73
     1
 44
1.0
  0
MTEXT
  5
4D2
330
1F
100
AcDbEntity
  8
F-A_文字
  6
Continuous
 62
     7
370
     0
100
AcDbMText
 10
99.91854284331623
 20
-3887.139820871936
 30
0.0
 40
45.72
 41
180.0
 46
0.0
 71
     7
 72
     1
  1
{\fＭＳ ゴシック|b0|i0|c128|p49;図面名}
 73
     1
 44
1.0
  0
LINE
  5
4D3
330
1F
100
AcDbEntity
  8
F-0_補助線
  6
JWW_HOJO
 62
     7
370
     5
100
AcDbLine
 10
509.9185840832865
 20
-3795.000003092998
 30
0.0
 11
509.9185840832865
 21
-4195.000008247994
 31
0.0
  0
LINE
  5
4D4
330
1F
100
AcDbEntity
  8
F-1_枠
  6
Continuous
 62
   200
370
     5
100
AcDbLine
 10
4349.917891251784
 20
-3795.000003092998
 30
0.0
 11
4349.917891251784
 21
-4195.000008247994
 31
0.0
  0
LINE
  5
4D5
330
1F
100
AcDbEntity
  8
F-1_枠
  6
Continuous
 62
   200
370
     5
100
AcDbLine
 10
2849.917396372138
 20
-3795.000003092998
 30
0.0
 11
2849.917396372138
 21
-4195.000008247994
 31
0.0
  0
LINE
  5
4D6
330
1F
100
AcDbEntity
  8
F-1_枠
  6
Continuous
 62
   200
370
     5
100
AcDbLine
 10
9.918542843316231
 20
-3795.000003092998
 30
0.0
 11
9.918542843316231
 21
-4195.000008247994
 31
0.0
  0
LINE
  5
4D7
330
1F
100
AcDbEntity
  8
F-0_補助線
  6
JWW_HOJO
 62
     7
370
     5
100
AcDbLine
 10
2939.917396372138
 20
-3795.000003092998
 30
0.0
 11
2939.917396372138
 21
-4195.000008247994
 31
0.0
  0
LINE
  5
4D8
330
1F
100
AcDbEntity
  8
F-0_補助線
  6
JWW_HOJO
 62
     7
370
     5
100
AcDbLine
 10
99.91854284331623
 20
-3795.000003092998
 30
0.0
 11
99.91854284331623
 21
-4195.000008247994
 31
0.0
  0
LINE
  5
4D9
330
1F
100
AcDbEntity
  8
F-0_補助線
  6
JWW_HOJO
 62
     7
370
     5
100
AcDbLine
 10
4439.917891251784
 20
-3795.000003092998
 30
0.0
 11
4439.917891251784
 21
-4195.000008247994
 31
0.0
  0
LINE
  5
4DA
330
1F
100
AcDbEntity
  8
F-0_補助線
  6
JWW_HOJO
 62
     7
370
     5
100
AcDbLine
 10
-5087.628710189611
 20
-3795.000003092999
 30
0.0
 11
-5087.628710189611
 21
-4205.000164959882
 31
0.0
  0
LINE
  5
4DB
330
1F
100
AcDbEntity
  8
F-0_補助線
  6
JWW_HOJO
 62
     7
370
     5
100
AcDbLine
 10
-50.08145715668377
 20
-3795.000003092998
 30
0.0
 11
-50.08145715668377
 21
-4195.000008247994
 31
0.0
  0
LINE
  5
4DC
330
1F
100
AcDbEntity
  8
F-0_補助線
  6
JWW_HOJO
 62
     7
370
     5
100
AcDbLine
 10
3764.917643811962
 20
-3795.000003092998
 30
0.0
 11
3764.917643811962
 21
-4195.000008247994
 31
0.0
  0
MTEXT
  5
4DD
330
1F
100
AcDbEntity
  8
F-A_文字
  6
Continuous
 62
     7
370
     0
100
AcDbMText
 10
3689.917643811962
 20
-3946.903115907308
 30
0.0
 40
76.19999999999999
 41
150.0
 46
0.0
 71
     7
 72
     1
  1
{\fＭＳ ゴシック|b0|i0|c128|p49;1/5}
 73
     1
 44
1.0
  0
LINE
  5
4DE
330
1F
100
AcDbEntity
  8
F-0_補助線
  6
JWW_HOJO
 62
     7
370
     5
100
AcDbLine
 10
1349.918584083287
 20
-3795.000003092998
 30
0.0
 11
1349.918584083287
 21
-4195.000008247994
 31
0.0
  0
LINE
  5
4DF
330
1F
100
AcDbEntity
  8
F-0_補助線
  6
JWW_HOJO
 62
     7
370
     5
100
AcDbLine
 10
4889.917891251784
 20
-3795.000003092998
 30
0.0
 11
4889.917891251784
 21
-4195.000008247994
 31
0.0
  0
MTEXT
  5
4E0
330
1F
100
AcDbEntity
  8
F-A_文字
  6
Continuous
 62
     7
370
     0
100
AcDbMText
 10
4889.917891251784
 20
-3945.570773120548
 30
0.0
 40
78.86699999999999
 41
517.5
 46
0.0
 71
     7
 72
     1
  1
{\fＭＳ ゴシック|b0|i0|c128|p49;2021.04.01}
 73
     1
 44
1.0
  0
MTEXT
  5
4E1
330
1F
100
AcDbEntity
  8
F-A_文字
  6
Continuous
 62
     7
370
     0
100
AcDbMText
 10
1349.918584083287
 20
-3945.948482732445
 30
0.0
 40
78.105
 41
615.0
 46
0.0
 71
     7
 72
     1
  1
{\fＭＳ ゴシック|b0|i0|c128|p49;建具納まり図}
 73
     1
 44
1.0
  0
MTEXT
  5
4E2
330
1F
100
AcDbEntity
  8
F-A_文字
  6
Continuous
 62
     7
370
     0
100
AcDbMText
 10
509.9185840832865
 20
-3956.425201962234
 30
0.0
 40
57.15
 41
675.0
 46
0.0
 71
     7
 72
     1
  1
{\fＭＳ ゴシック|b0|i0|c128|p49;ＰＩＮＯＥＡＲＴＨ}
 73
     1
 44
1.0
  0
MTEXT
  5
4E3
330
1F
100
AcDbEntity
  8
F-A_文字
  6
Continuous
 62
     7
370
     0
100
AcDbMText
 10
-5080.081323642279
 20
-4045.066373578391
 30
0.0
 40
79.86712499999994
 41
4192.5
 46
0.0
 71
     7
 72
     1
  1
{\fＭＳ ゴシック|b0|i0|c128|p49;ピノアース　クローゼットドア  調整枠　３方枠下レール無し　枠外H2,038　枠外W1,199}
 73
     1
 44
1.0
  0
MTEXT
  5
4E4
330
1F
100
AcDbEntity
  8
F-A_文字
  6
Continuous
 62
     7
370
     5
100
AcDbMText
 10
5096.167700144057
 20
-4147.857012699985
 30
0.0
 40
74.295
 41
97.5
 46
0.0
 71
     7
 72
     1
  1
{\fＭＳ ゴシック|b0|i0|c128|p49;02}
 73
     1
 44
1.0
  0
ENDSEC
  0
SECTION
  2
OBJECTS
  0
DICTIONARY
  5
C
330
0
100
AcDbDictionary
281
     1
  3
ACAD_GROUP
350
D
  3
ACAD_LAYOUT
350
1A
  3
ACAD_MATERIAL
350
3B
  3
ACAD_MLEADERSTYLE
350
4E6
  3
ACAD_MLINESTYLE
350
17
  3
ACAD_PLOTSETTINGS
350
19
  3
ACAD_PLOTSTYLENAME
350
E
  3
ACAD_TABLESTYLE
350
4E5
  3
ACAD_VISUALSTYLE
350
2A
  0
DICTIONARY
  5
D
102
{ACAD_REACTORS
330
C
102
}
330
C
100
AcDbDictionary
281
     1
  0
DICTIONARY
  5
1A
102
{ACAD_REACTORS
330
C
102
}
330
C
100
AcDbDictionary
281
     1
  3
Layout1
350
1E
  3
Layout2
350
26
  3
Model
350
22
  0
DICTIONARY
  5
3B
102
{ACAD_REACTORS
330
C
102
}
330
C
100
AcDbDictionary
281
     1
  3
ByBlock
350
3D
  3
ByLayer
350
3C
  3
Global
350
3E
  0
DICTIONARY
  5
4E6
102
{ACAD_REACTORS
330
C
102
}
330
C
100
AcDbDictionary
281
     1
  0
DICTIONARY
  5
17
102
{ACAD_REACTORS
330
C
102
}
330
C
100
AcDbDictionary
281
     1
  3
Standard
350
18
  0
DICTIONARY
  5
19
102
{ACAD_REACTORS
330
C
102
}
330
C
100
AcDbDictionary
281
     1
  0
ACDBDICTIONARYWDFLT
  5
E
102
{ACAD_REACTORS
330
C
102
}
330
C
100
AcDbDictionary
281
     1
  3
Normal
350
F
100
AcDbDictionaryWithDefault
340
F
  0
DICTIONARY
  5
4E5
102
{ACAD_REACTORS
330
C
102
}
330
C
100
AcDbDictionary
281
     1
  0
DICTIONARY
  5
2A
102
{ACAD_REACTORS
330
C
102
}
330
C
100
AcDbDictionary
281
     1
  3
2dWireframe
350
2F
  3
3D Hidden
350
31
  3
3dWireframe
350
30
  3
Basic
350
32
  3
Brighten
350
36
  3
ColorChange
350
3A
  3
Conceptual
350
34
  3
Dim
350
35
  3
Facepattern
350
39
  3
Flat
350
2B
  3
FlatWithEdges
350
2C
  3
Gouraud
350
2D
  3
GouraudWithEdges
350
2E
  3
Linepattern
350
38
  3
Realistic
350
33
  3
Thicken
350
37
  0
LAYOUT
  5
1E
102
{ACAD_REACTORS
330
1A
102
}
330
1A
100
AcDbPlotSettings
  1

  2
none_device
  4

  6

 40
0.0
 41
0.0
 42
0.0
 43
0.0
 44
0.0
 45
0.0
 46
0.0
 47
0.0
 48
0.0
 49
0.0
140
0.0
141
0.0
142
1.0
143
1.0
 70
   688
 72
     0
 73
     0
 74
     5
  7

 75
    16
 76
     0
 77
     5
 78
   300
147
1.0
148
0.0
149
0.0
100
AcDbLayout
  1
Layout1
 70
     1
 71
     1
 10
0.0
 20
0.0
 11
420.0
 21
297.0
 12
0.0
 22
0.0
 32
0.0
 14
1.000000000000000E+20
 24
1.000000000000000E+20
 34
1.000000000000000E+20
 15
-1.000000000000000E+20
 25
-1.000000000000000E+20
 35
-1.000000000000000E+20
146
0.0
 13
0.0
 23
0.0
 33
0.0
 16
1.0
 26
0.0
 36
0.0
 17
0.0
 27
1.0
 37
0.0
 76
     0
330
1B
  0
LAYOUT
  5
26
102
{ACAD_REACTORS
330
1A
102
}
330
1A
100
AcDbPlotSettings
  1

  2
none_device
  4

  6

 40
0.0
 41
0.0
 42
0.0
 43
0.0
 44
0.0
 45
0.0
 46
0.0
 47
0.0
 48
0.0
 49
0.0
140
0.0
141
0.0
142
1.0
143
1.0
 70
   688
 72
     0
 73
     0
 74
     5
  7

 75
    16
 76
     0
 77
     5
 78
   300
147
1.0
148
0.0
149
0.0
100
AcDbLayout
  1
Layout2
 70
     1
 71
     2
 10
0.0
 20
0.0
 11
0.0
 21
0.0
 12
0.0
 22
0.0
 32
0.0
 14
0.0
 24
0.0
 34
0.0
 15
0.0
 25
0.0
 35
0.0
146
0.0
 13
0.0
 23
0.0
 33
0.0
 16
1.0
 26
0.0
 36
0.0
 17
0.0
 27
1.0
 37
0.0
 76
     0
330
23
  0
LAYOUT
  5
22
102
{ACAD_REACTORS
330
1A
102
}
330
1A
100
AcDbPlotSettings
  1

  2
none_device
  4

  6

 40
0.0
 41
0.0
 42
0.0
 43
0.0
 44
0.0
 45
0.0
 46
0.0
 47
0.0
 48
0.0
 49
0.0
140
0.0
141
0.0
142
1.0
143
1.0
 70
  1712
 72
     0
 73
     0
 74
     0
  7

 75
     0
 76
     0
 77
     5
 78
   300
147
1.0
148
0.0
149
0.0
100
AcDbLayout
  1
Model
 70
     1
 71
     0
 10
-6300.0
 20
-4455.0
 11
6300.0
 21
4455.0
 12
0.0
 22
0.0
 32
0.0
 14
-6300.0
 24
-4455.0
 34
0.0
 15
6300.0
 25
4455.0
 35
0.0
146
0.0
 13
0.0
 23
0.0
 33
0.0
 16
1.0
 26
0.0
 36
0.0
 17
0.0
 27
1.0
 37
0.0
 76
     0
330
1F
331
29
  0
MATERIAL
  5
3D
102
{ACAD_REACTORS
330
3B
102
}
330
3B
100
AcDbMaterial
  1
ByBlock
 72
     1
 94
      127
  0
MATERIAL
  5
3C
102
{ACAD_REACTORS
330
3B
102
}
330
3B
100
AcDbMaterial
  1
ByLayer
 72
     1
 94
      127
  0
MATERIAL
  5
3E
102
{ACAD_REACTORS
330
3B
102
}
330
3B
100
AcDbMaterial
  1
Global
 72
     1
 94
      127
  0
MLINESTYLE
  5
18
102
{ACAD_REACTORS
330
17
102
}
330
17
100
AcDbMlineStyle
  2
Standard
 70
     0
  3

 62
   256
 51
90.0
 52
90.0
 71
     2
 49
0.5
 62
   256
  6
BYLAYER
 49
-0.5
 62
   256
  6
BYLAYER
  0
ACDBPLACEHOLDER
  5
F
102
{ACAD_REACTORS
330
E
102
}
330
E
  0
VISUALSTYLE
  5
2F
102
{ACAD_REACTORS
330
2A
102
}
330
2A
100
AcDbVisualStyle
  2
2dWireframe
 70
     4
177
     2
291
     0
 71
     0
176
     1
 72
     2
176
     1
 73
     0
176
     1
 90
        0
176
     1
 40
-0.6
176
     1
 41
-30.0
176
     1
 62
     5
 63
     7
421
 16777215
176
     1
 74
     1
176
     1
 91
        4
176
     1
 64
     7
176
     1
 65
   257
176
     1
 75
     1
176
     1
175
     1
176
     1
 42
1.0
176
     1
 92
        0
176
     1
 66
   257
176
     1
 43
1.0
176
     1
 76
     1
176
     1
 77
     6
176
     1
 78
     2
176
     1
 67
     7
176
     1
 79
     5
176
     1
170
     0
176
     1
171
     0
176
     1
290
     0
176
     1
 93
        1
176
     1
 44
0.0
176
     1
173
     0
176
     1
  0
VISUALSTYLE
  5
31
102
{ACAD_REACTORS
330
2A
102
}
330
2A
100
AcDbVisualStyle
  2
3D Hidden
 70
     6
177
     2
291
     0
 71
     1
176
     1
 72
     2
176
     1
 73
     2
176
     1
 90
        0
176
     1
 40
-0.6
176
     1
 41
-30.0
176
     1
 62
     5
 63
     7
421
 16777215
176
     1
 74
     2
176
     1
 91
        2
176
     1
 64
     7
176
     1
 65
   257
176
     1
 75
     2
176
     1
175
     1
176
     1
 42
40.0
176
     1
 92
        0
176
     1
 66
   257
176
     1
 43
1.0
176
     1
 76
     1
176
     1
 77
     6
176
     1
 78
     2
176
     1
 67
     7
176
     1
 79
     3
176
     1
170
     0
176
     1
171
     0
176
     1
290
     0
176
     1
 93
        1
176
     1
 44
0.0
176
     1
173
     0
176
     1
  0
VISUALSTYLE
  5
30
102
{ACAD_REACTORS
330
2A
102
}
330
2A
100
AcDbVisualStyle
  2
3dWireframe
 70
     5
177
     2
291
     0
 71
     0
176
     1
 72
     2
176
     1
 73
     0
176
     1
 90
        0
176
     1
 40
-0.6
176
     1
 41
-30.0
176
     1
 62
     5
 63
     7
421
 16777215
176
     1
 74
     1
176
     1
 91
        4
176
     1
 64
     7
176
     1
 65
   257
176
     1
 75
     1
176
     1
175
     1
176
     1
 42
1.0
176
     1
 92
        0
176
     1
 66
   257
176
     1
 43
1.0
176
     1
 76
     1
176
     1
 77
     6
176
     1
 78
     2
176
     1
 67
     7
176
     1
 79
     5
176
     1
170
     0
176
     1
171
     0
176
     1
290
     0
176
     1
 93
        1
176
     1
 44
0.0
176
     1
173
     0
176
     1
  0
VISUALSTYLE
  5
32
102
{ACAD_REACTORS
330
2A
102
}
330
2A
100
AcDbVisualStyle
  2
Basic
 70
     7
177
     2
291
     1
 71
     1
176
     1
 72
     0
176
     1
 73
     1
176
     1
 90
        0
176
     1
 40
-0.6
176
     1
 41
-30.0
176
     1
 62
     5
 63
     7
421
 16777215
176
     1
 74
     0
176
     1
 91
        4
176
     1
 64
     7
176
     1
 65
   257
176
     1
 75
     1
176
     1
175
     1
176
     1
 42
1.0
176
     1
 92
        8
176
     1
 66
     7
176
     1
 43
1.0
176
     1
 76
     1
176
     1
 77
     6
176
     1
 78
     2
176
     1
 67
     7
176
     1
 79
     5
176
     1
170
     0
176
     1
171
     0
176
     1
290
     0
176
     1
 93
        1
176
     1
 44
0.0
176
     1
173
     0
176
     1
  0
VISUALSTYLE
  5
36
102
{ACAD_REACTORS
330
2A
102
}
330
2A
100
AcDbVisualStyle
  2
Brighten
 70
    12
177
     2
291
     1
 71
     2
176
     1
 72
     2
176
     1
 73
     0
176
     1
 90
        0
176
     1
 40
-0.6
176
     1
 41
-30.0
176
     1
 62
     5
 63
     7
421
 16777215
176
     1
 74
     1
176
     1
 91
        4
176
     1
 64
     7
176
     1
 65
   257
176
     1
 75
     1
176
     1
175
     1
176
     1
 42
1.0
176
     1
 92
        8
176
     1
 66
     7
176
     1
 43
1.0
176
     1
 76
     1
176
     1
 77
     6
176
     1
 78
     2
176
     1
 67
     7
176
     1
 79
     5
176
     1
170
     0
176
     1
171
     0
176
     1
290
     0
176
     1
 93
        1
176
     1
 44
50.0
176
     1
173
     0
176
     1
  0
VISUALSTYLE
  5
3A
102
{ACAD_REACTORS
330
2A
102
}
330
2A
100
AcDbVisualStyle
  2
ColorChange
 70
    16
177
     2
291
     1
 71
     2
176
     1
 72
     2
176
     1
 73
     3
176
     1
 90
        0
176
     1
 40
-0.6
176
     1
 41
-30.0
176
     1
 62
     5
 63
     8
421
  8421504
176
     1
 74
     1
176
     1
 91
        4
176
     1
 64
     7
176
     1
 65
   257
176
     1
 75
     1
176
     1
175
     1
176
     1
 42
1.0
176
     1
 92
        8
176
     1
 66
     8
424
  8421504
176
     1
 43
1.0
176
     1
 76
     1
176
     1
 77
     6
176
     1
 78
     2
176
     1
 67
     7
176
     1
 79
     5
176
     1
170
     0
176
     1
171
     0
176
     1
290
     0
176
     1
 93
        1
176
     1
 44
0.0
176
     1
173
     0
176
     1
  0
VISUALSTYLE
  5
34
102
{ACAD_REACTORS
330
2A
102
}
330
2A
100
AcDbVisualStyle
  2
Conceptual
 70
     9
177
     2
291
     0
 71
     3
176
     1
 72
     2
176
     1
 73
     0
176
     1
 90
        0
176
     1
 40
-0.6
176
     1
 41
-30.0
176
     1
 62
     5
 63
     7
421
 16777215
176
     1
 74
     2
176
     1
 91
        2
176
     1
 64
     7
176
     1
 65
   257
176
     1
 75
     1
176
     1
175
     1
176
     1
 42
40.0
176
     1
 92
        8
176
     1
 66
     7
176
     1
 43
1.0
176
     1
 76
     1
176
     1
 77
     6
176
     1
 78
     2
176
     1
 67
     7
176
     1
 79
     3
176
     1
170
     0
176
     1
171
     0
176
     1
290
     0
176
     1
 93
        1
176
     1
 44
0.0
176
     1
173
     0
176
     1
  0
VISUALSTYLE
  5
35
102
{ACAD_REACTORS
330
2A
102
}
330
2A
100
AcDbVisualStyle
  2
Dim
 70
    11
177
     2
291
     1
 71
     2
176
     1
 72
     2
176
     1
 73
     0
176
     1
 90
        0
176
     1
 40
-0.6
176
     1
 41
-30.0
176
     1
 62
     5
 63
     7
421
 16777215
176
     1
 74
     1
176
     1
 91
        4
176
     1
 64
     7
176
     1
 65
   257
176
     1
 75
     1
176
     1
175
     1
176
     1
 42
1.0
176
     1
 92
        8
176
     1
 66
     7
176
     1
 43
1.0
176
     1
 76
     1
176
     1
 77
     6
176
     1
 78
     2
176
     1
 67
     7
176
     1
 79
     5
176
     1
170
     0
176
     1
171
     0
176
     1
290
     0
176
     1
 93
        1
176
     1
 44
-50.0
176
     1
173
     0
176
     1
  0
VISUALSTYLE
  5
39
102
{ACAD_REACTORS
330
2A
102
}
330
2A
100
AcDbVisualStyle
  2
Facepattern
 70
    15
177
     2
291
     1
 71
     2
176
     1
 72
     2
176
     1
 73
     0
176
     1
 90
        0
176
     1
 40
-0.6
176
     1
 41
-30.0
176
     1
 62
     5
 63
     7
421
 16777215
176
     1
 74
     1
176
     1
 91
        4
176
     1
 64
     7
176
     1
 65
   257
176
     1
 75
     1
176
     1
175
     1
176
     1
 42
1.0
176
     1
 92
        8
176
     1
 66
     7
176
     1
 43
1.0
176
     1
 76
     1
176
     1
 77
     6
176
     1
 78
     2
176
     1
 67
     7
176
     1
 79
     5
176
     1
170
     0
176
     1
171
     0
176
     1
290
     0
176
     1
 93
        1
176
     1
 44
0.0
176
     1
173
     0
176
     1
  0
VISUALSTYLE
  5
2B
102
{ACAD_REACTORS
330
2A
102
}
330
2A
100
AcDbVisualStyle
  2
Flat
 70
     0
177
     2
291
     1
 71
     2
176
     1
 72
     1
176
     1
 73
     1
176
     1
 90
        2
176
     1
 40
-0.6
176
     1
 41
30.0
176
     1
 62
     5
 63
     7
421
 16777215
176
     1
 74
     0
176
     1
 91
        4
176
     1
 64
     7
176
     1
 65
   257
176
     1
 75
     1
176
     1
175
     1
176
     1
 42
1.0
176
     1
 92
        8
176
     1
 66
     7
176
     1
 43
1.0
176
     1
 76
     1
176
     1
 77
     6
176
     1
 78
     2
176
     1
 67
     7
176
     1
 79
     5
176
     1
170
     0
176
     1
171
     0
176
     1
290
     0
176
     1
 93
       13
176
     1
 44
0.0
176
     1
173
     0
176
     1
  0
VISUALSTYLE
  5
2C
102
{ACAD_REACTORS
330
2A
102
}
330
2A
100
AcDbVisualStyle
  2
FlatWithEdges
 70
     1
177
     2
291
     1
 71
     2
176
     1
 72
     1
176
     1
 73
     1
176
     1
 90
        2
176
     1
 40
-0.6
176
     1
 41
30.0
176
     1
 62
     5
 63
     7
421
 16777215
176
     1
 74
     1
176
     1
 91
        4
176
     1
 64
     7
176
     1
 65
   257
176
     1
 75
     1
176
     1
175
     1
176
     1
 42
1.0
176
     1
 92
        0
176
     1
 66
   257
176
     1
 43
1.0
176
     1
 76
     1
176
     1
 77
     6
176
     1
 78
     2
176
     1
 67
     7
176
     1
 79
     5
176
     1
170
     0
176
     1
171
     0
176
     1
290
     0
176
     1
 93
       13
176
     1
 44
0.0
176
     1
173
     0
176
     1
  0
VISUALSTYLE
  5
2D
102
{ACAD_REACTORS
330
2A
102
}
330
2A
100
AcDbVisualStyle
  2
Gouraud
 70
     2
177
     2
291
     1
 71
     2
176
     1
 72
     2
176
     1
 73
     1
176
     1
 90
        2
176
     1
 40
-0.6
176
     1
 41
30.0
176
     1
 62
     5
 63
     7
421
 16777215
176
     1
 74
     0
176
     1
 91
        4
176
     1
 64
     7
176
     1
 65
   257
176
     1
 75
     1
176
     1
175
     1
176
     1
 42
1.0
176
     1
 92
        0
176
     1
 66
     7
176
     1
 43
1.0
176
     1
 76
     1
176
     1
 77
     6
176
     1
 78
     2
176
     1
 67
     7
176
     1
 79
     5
176
     1
170
     0
176
     1
171
     0
176
     1
290
     0
176
     1
 93
       13
176
     1
 44
0.0
176
     1
173
     0
176
     1
  0
VISUALSTYLE
  5
2E
102
{ACAD_REACTORS
330
2A
102
}
330
2A
100
AcDbVisualStyle
  2
GouraudWithEdges
 70
     3
177
     2
291
     1
 71
     2
176
     1
 72
     2
176
     1
 73
     1
176
     1
 90
        2
176
     1
 40
-0.6
176
     1
 41
30.0
176
     1
 62
     5
 63
     7
421
 16777215
176
     1
 74
     1
176
     1
 91
        4
176
     1
 64
     7
176
     1
 65
   257
176
     1
 75
     1
176
     1
175
     1
176
     1
 42
1.0
176
     1
 92
        0
176
     1
 66
   257
176
     1
 43
1.0
176
     1
 76
     1
176
     1
 77
     6
176
     1
 78
     2
176
     1
 67
     7
176
     1
 79
     5
176
     1
170
     0
176
     1
171
     0
176
     1
290
     0
176
     1
 93
       13
176
     1
 44
0.0
176
     1
173
     0
176
     1
  0
VISUALSTYLE
  5
38
102
{ACAD_REACTORS
330
2A
102
}
330
2A
100
AcDbVisualStyle
  2
Linepattern
 70
    14
177
     2
291
     1
 71
     2
176
     1
 72
     2
176
     1
 73
     0
176
     1
 90
        0
176
     1
 40
-0.6
176
     1
 41
-30.0
176
     1
 62
     5
 63
     7
421
 16777215
176
     1
 74
     1
176
     1
 91
        4
176
     1
 64
     7
176
     1
 65
   257
176
     1
 75
     7
176
     1
175
     7
176
     1
 42
1.0
176
     1
 92
        8
176
     1
 66
     7
176
     1
 43
1.0
176
     1
 76
     1
176
     1
 77
     6
176
     1
 78
     2
176
     1
 67
     7
176
     1
 79
     5
176
     1
170
     0
176
     1
171
     0
176
     1
290
     0
176
     1
 93
        1
176
     1
 44
0.0
176
     1
173
     0
176
     1
  0
VISUALSTYLE
  5
33
102
{ACAD_REACTORS
330
2A
102
}
330
2A
100
AcDbVisualStyle
  2
Realistic
 70
     8
177
     2
291
     0
 71
     2
176
     1
 72
     2
176
     1
 73
     0
176
     1
 90
        0
176
     1
 40
-0.6
176
     1
 41
-30.0
176
     1
 62
     5
 63
     7
421
 16777215
176
     1
 74
     1
176
     1
 91
        0
176
     1
 64
     7
176
     1
 65
   257
176
     1
 75
     1
176
     1
175
     1
176
     1
 42
1.0
176
     1
 92
        8
176
     1
 66
     8
424
  7895160
176
     1
 43
1.0
176
     1
 76
     1
176
     1
 77
     6
176
     1
 78
     2
176
     1
 67
     7
176
     1
 79
     5
176
     1
170
     0
176
     1
171
     0
176
     1
290
     0
176
     1
 93
       13
176
     1
 44
0.0
176
     1
173
     0
176
     1
  0
VISUALSTYLE
  5
37
102
{ACAD_REACTORS
330
2A
102
}
330
2A
100
AcDbVisualStyle
  2
Thicken
 70
    13
177
     2
291
     1
 71
     2
176
     1
 72
     2
176
     1
 73
     0
176
     1
 90
        0
176
     1
 40
-0.6
176
     1
 41
-30.0
176
     1
 62
     5
 63
     7
421
 16777215
176
     1
 74
     1
176
     1
 91
        4
176
     1
 64
     7
176
     1
 65
   257
176
     1
 75
     1
176
     1
175
     1
176
     1
 42
1.0
176
     1
 92
       12
176
     1
 66
     7
176
     1
 43
1.0
176
     1
 76
     1
176
     1
 77
     6
176
     1
 78
     2
176
     1
 67
     7
176
     1
 79
     5
176
     1
170
     0
176
     1
171
     0
176
     1
290
     0
176
     1
 93
        1
176
     1
 44
0.0
176
     1
173
     0
176
     1
  0
ENDSEC
  0
EOF
