  0
SECTION
  2
HEADER
  9
$ACADVER
  1
AC1024
  9
$ACADMAINTVER
 70
     6
  9
$DWGCODEPAGE
  3
ANSI_932
  9
$INSBASE
 10
0.0
 20
0.0
 30
0.0
  9
$EXTMIN
 10
-6300.0
 20
-4455.0
 30
0.0
  9
$EXTMAX
 10
6300.0
 20
4455.0
 30
0.0
  9
$LIMMIN
 10
-6300.0
 20
-4455.0
  9
$LIMMAX
 10
6300.0
 20
4455.0
  9
$ORTHOMODE
 70
     0
  9
$REGENMODE
 70
     1
  9
$FILLMODE
 70
     1
  9
$QTEXTMODE
 70
     0
  9
$MIRRTEXT
 70
     1
  9
$LTSCALE
 40
30.0
  9
$ATTMODE
 70
     1
  9
$TEXTSIZE
 40
2.5
  9
$TRACEWID
 40
1.0
  9
$TEXTSTYLE
  7
Standard
  9
$CLAYER
  8
0
  9
$CELTYPE
  6
ByLayer
  9
$CECOLOR
 62
   256
  9
$CELTSCALE
 40
1.0
  9
$DISPSILH
 70
     0
  9
$DIMSCALE
 40
1.0
  9
$DIMASZ
 40
2.5
  9
$DIMEXO
 40
0.625
  9
$DIMDLI
 40
3.75
  9
$DIMRND
 40
0.0
  9
$DIMDLE
 40
0.0
  9
$DIMEXE
 40
1.25
  9
$DIMTP
 40
0.0
  9
$DIMTM
 40
0.0
  9
$DIMTXT
 40
2.5
  9
$DIMCEN
 40
2.5
  9
$DIMTSZ
 40
0.0
  9
$DIMTOL
 70
     0
  9
$DIMLIM
 70
     0
  9
$DIMTIH
 70
     0
  9
$DIMTOH
 70
     0
  9
$DIMSE1
 70
     0
  9
$DIMSE2
 70
     0
  9
$DIMTAD
 70
     1
  9
$DIMZIN
 70
     8
  9
$DIMBLK
  1

  9
$DIMASO
 70
     1
  9
$DIMSHO
 70
     1
  9
$DIMPOST
  1

  9
$DIMAPOST
  1

  9
$DIMALT
 70
     0
  9
$DIMALTD
 70
     3
  9
$DIMALTF
 40
0.03937007874016
  9
$DIMLFAC
 40
1.0
  9
$DIMTOFL
 70
     1
  9
$DIMTVP
 40
0.0
  9
$DIMTIX
 70
     0
  9
$DIMSOXD
 70
     0
  9
$DIMSAH
 70
     0
  9
$DIMBLK1
  1

  9
$DIMBLK2
  1

  9
$DIMSTYLE
  2
ISO-25
  9
$DIMCLRD
 70
     0
  9
$DIMCLRE
 70
     0
  9
$DIMCLRT
 70
     0
  9
$DIMTFAC
 40
1.0
  9
$DIMGAP
 40
0.625
  9
$DIMJUST
 70
     0
  9
$DIMSD1
 70
     0
  9
$DIMSD2
 70
     0
  9
$DIMTOLJ
 70
     0
  9
$DIMTZIN
 70
     8
  9
$DIMALTZ
 70
     0
  9
$DIMALTTZ
 70
     0
  9
$DIMUPT
 70
     0
  9
$DIMDEC
 70
     2
  9
$DIMTDEC
 70
     2
  9
$DIMALTU
 70
     2
  9
$DIMALTTD
 70
     3
  9
$DIMTXSTY
  7
Standard
  9
$DIMAUNIT
 70
     0
  9
$DIMADEC
 70
     0
  9
$DIMALTRND
 40
0.0
  9
$DIMAZIN
 70
     0
  9
$DIMDSEP
 70
    44
  9
$DIMATFIT
 70
     3
  9
$DIMFRAC
 70
     0
  9
$DIMLDRBLK
  1

  9
$DIMLUNIT
 70
     2
  9
$DIMLWD
 70
    -2
  9
$DIMLWE
 70
    -2
  9
$DIMTMOVE
 70
     0
  9
$DIMFXL
 40
1.0
  9
$DIMFXLON
 70
     0
  9
$DIMJOGANG
 40
0.7853981633974483
  9
$DIMTFILL
 70
     0
  9
$DIMTFILLCLR
 70
     0
  9
$DIMARCSYM
 70
     0
  9
$DIMLTYPE
  6

  9
$DIMLTEX1
  6

  9
$DIMLTEX2
  6

  9
$DIMTXTDIRECTION
 70
     0
  9
$LUNITS
 70
     2
  9
$LUPREC
 70
     4
  9
$SKETCHINC
 40
1.0
  9
$FILLETRAD
 40
10.0
  9
$AUNITS
 70
     0
  9
$AUPREC
 70
     0
  9
$MENU
  1
.
  9
$ELEVATION
 40
0.0
  9
$PELEVATION
 40
0.0
  9
$THICKNESS
 40
0.0
  9
$LIMCHECK
 70
     0
  9
$CHAMFERA
 40
10.0
  9
$CHAMFERB
 40
10.0
  9
$CHAMFERC
 40
20.0
  9
$CHAMFERD
 40
0.0
  9
$SKPOLY
 70
     0
  9
$TDCREATE
 40
2459380.615238877
  9
$TDUCREATE
 40
2459380.240238877
  9
$TDUPDATE
 40
2459380.615238889
  9
$TDUUPDATE
 40
2459380.240238889
  9
$TDINDWG
 40
0.0000000116
  9
$TDUSRTIMER
 40
0.0000000116
  9
$USRTIMER
 70
     1
  9
$ANGBASE
 50
0.0
  9
$ANGDIR
 70
     0
  9
$PDMODE
 70
     0
  9
$PDSIZE
 40
0.0
  9
$PLINEWID
 40
0.0
  9
$SPLFRAME
 70
     0
  9
$SPLINETYPE
 70
     6
  9
$SPLINESEGS
 70
     8
  9
$HANDSEED
  5
38D
  9
$SURFTAB1
 70
     6
  9
$SURFTAB2
 70
     6
  9
$SURFTYPE
 70
     6
  9
$SURFU
 70
     6
  9
$SURFV
 70
     6
  9
$UCSBASE
  2

  9
$UCSNAME
  2

  9
$UCSORG
 10
0.0
 20
0.0
 30
0.0
  9
$UCSXDIR
 10
1.0
 20
0.0
 30
0.0
  9
$UCSYDIR
 10
0.0
 20
1.0
 30
0.0
  9
$UCSORTHOREF
  2

  9
$UCSORTHOVIEW
 70
     0
  9
$UCSORGTOP
 10
0.0
 20
0.0
 30
0.0
  9
$UCSORGBOTTOM
 10
0.0
 20
0.0
 30
0.0
  9
$UCSORGLEFT
 10
0.0
 20
0.0
 30
0.0
  9
$UCSORGRIGHT
 10
0.0
 20
0.0
 30
0.0
  9
$UCSORGFRONT
 10
0.0
 20
0.0
 30
0.0
  9
$UCSORGBACK
 10
0.0
 20
0.0
 30
0.0
  9
$PUCSBASE
  2

  9
$PUCSNAME
  2

  9
$PUCSORG
 10
0.0
 20
0.0
 30
0.0
  9
$PUCSXDIR
 10
1.0
 20
0.0
 30
0.0
  9
$PUCSYDIR
 10
0.0
 20
1.0
 30
0.0
  9
$PUCSORTHOREF
  2

  9
$PUCSORTHOVIEW
 70
     0
  9
$PUCSORGTOP
 10
0.0
 20
0.0
 30
0.0
  9
$PUCSORGBOTTOM
 10
0.0
 20
0.0
 30
0.0
  9
$PUCSORGLEFT
 10
0.0
 20
0.0
 30
0.0
  9
$PUCSORGRIGHT
 10
0.0
 20
0.0
 30
0.0
  9
$PUCSORGFRONT
 10
0.0
 20
0.0
 30
0.0
  9
$PUCSORGBACK
 10
0.0
 20
0.0
 30
0.0
  9
$USERI1
 70
     0
  9
$USERI2
 70
     0
  9
$USERI3
 70
     0
  9
$USERI4
 70
     0
  9
$USERI5
 70
     0
  9
$USERR1
 40
0.0
  9
$USERR2
 40
0.0
  9
$USERR3
 40
0.0
  9
$USERR4
 40
0.0
  9
$USERR5
 40
0.0
  9
$WORLDVIEW
 70
     1
  9
$SHADEDGE
 70
     3
  9
$SHADEDIF
 70
    70
  9
$TILEMODE
 70
     1
  9
$MAXACTVP
 70
    64
  9
$PINSBASE
 10
0.0
 20
0.0
 30
0.0
  9
$PLIMCHECK
 70
     0
  9
$PEXTMIN
 10
1.000000000000000E+20
 20
1.000000000000000E+20
 30
1.000000000000000E+20
  9
$PEXTMAX
 10
-1.000000000000000E+20
 20
-1.000000000000000E+20
 30
-1.000000000000000E+20
  9
$PLIMMIN
 10
0.0
 20
0.0
  9
$PLIMMAX
 10
420.0
 20
297.0
  9
$UNITMODE
 70
     0
  9
$VISRETAIN
 70
     1
  9
$PLINEGEN
 70
     0
  9
$PSLTSCALE
 70
     1
  9
$TREEDEPTH
 70
  3020
  9
$CMLSTYLE
  2
Standard
  9
$CMLJUST
 70
     0
  9
$CMLSCALE
 40
20.0
  9
$PROXYGRAPHICS
 70
     1
  9
$MEASUREMENT
 70
     1
  9
$CELWEIGHT
370
    -1
  9
$ENDCAPS
280
     0
  9
$JOINSTYLE
280
     0
  9
$LWDISPLAY
290
     0
  9
$INSUNITS
 70
     4
  9
$HYPERLINKBASE
  1

  9
$STYLESHEET
  1

  9
$XEDIT
290
     1
  9
$CEPSNTYPE
380
     0
  9
$PSTYLEMODE
290
     1
  9
$FINGERPRINTGUID
  2
{79BF2E0F-3877-4B8E-9DD6-DC11B071417C}
  9
$VERSIONGUID
  2
{FAEB1C32-E019-11D5-929B-00C0DF256EC4}
  9
$EXTNAMES
290
     1
  9
$PSVPSCALE
 40
0.0
  9
$OLESTARTUP
290
     0
  9
$SORTENTS
280
   127
  9
$INDEXCTL
280
     0
  9
$HIDETEXT
280
     1
  9
$XCLIPFRAME
280
     2
  9
$HALOGAP
280
     0
  9
$OBSCOLOR
 70
   257
  9
$OBSLTYPE
280
     0
  9
$INTERSECTIONDISPLAY
280
     0
  9
$INTERSECTIONCOLOR
 70
   257
  9
$DIMASSOC
280
     2
  9
$PROJECTNAME
  1

  9
$CAMERADISPLAY
290
     0
  9
$LENSLENGTH
 40
50.0
  9
$CAMERAHEIGHT
 40
0.0
  9
$STEPSPERSEC
 40
2.0
  9
$STEPSIZE
 40
6.0
  9
$3DDWFPREC
 40
2.0
  9
$PSOLWIDTH
 40
5.0
  9
$PSOLHEIGHT
 40
80.0
  9
$LOFTANG1
 40
1.570796326794897
  9
$LOFTANG2
 40
1.570796326794897
  9
$LOFTMAG1
 40
0.0
  9
$LOFTMAG2
 40
0.0
  9
$LOFTPARAM
 70
     7
  9
$LOFTNORMALS
280
     1
  9
$LATITUDE
 40
37.795
  9
$LONGITUDE
 40
-122.394
  9
$NORTHDIRECTION
 40
0.0
  9
$TIMEZONE
 70
 -8000
  9
$LIGHTGLYPHDISPLAY
280
     1
  9
$TILEMODELIGHTSYNCH
280
     1
  9
$SOLIDHIST
280
     1
  9
$SHOWHIST
280
     1
  9
$DWFFRAME
280
     2
  9
$DGNFRAME
280
     2
  9
$REALWORLDSCALE
290
     1
  9
$INTERFERECOLOR
 62
   256
  9
$CSHADOW
280
     0
  9
$SHADOWPLANELOCATION
 40
0.0
  0
ENDSEC
  0
SECTION
  2
CLASSES
  0
CLASS
  1
ACDBDICTIONARYWDFLT
  2
AcDbDictionaryWithDefault
  3
ObjectDBX Classes
 90
        0
 91
        4
280
     0
281
     0
  0
CLASS
  1
VISUALSTYLE
  2
AcDbVisualStyle
  3
ObjectDBX Classes
 90
     4095
 91
        4
280
     0
281
     0
  0
CLASS
  1
MATERIAL
  2
AcDbMaterial
  3
ObjectDBX Classes
 90
     1153
 91
        4
280
     0
281
     0
  0
ENDSEC
  0
SECTION
  2
TABLES
  0
TABLE
  2
VPORT
  5
8
330
0
100
AcDbSymbolTable
 70
     1
  0
VPORT
  5
29
330
8
100
AcDbSymbolTableRecord
100
AcDbViewportTableRecord
  2
*Active
 70
     0
 10
0.0
 20
0.0
 11
1.0
 21
1.0
 12
0.0
 22
0.0
 13
0.0
 23
0.0
 14
10.0
 24
10.0
 15
10.0
 25
10.0
 16
0.0
 26
0.0
 36
1.0
 17
0.0
 27
0.0
 37
0.0
 40
9801.0
 41
1.414141414141414
 42
50.0
 43
0.0
 44
0.0
 50
0.0
 51
0.0
 71
     0
 72
 10000
 73
     1
 74
     3
 75
     0
 76
     0
 77
     0
 78
     0
281
     0
 65
     1
110
0.0
120
0.0
130
0.0
111
1.0
121
0.0
131
0.0
112
0.0
122
1.0
132
0.0
 79
     0
146
0.0
 60
     3
 61
     5
292
     1
282
     1
141
0.0
142
0.0
 63
   250
  0
ENDTAB
  0
TABLE
  2
LTYPE
  5
5
330
0
100
AcDbSymbolTable
 70
     5
  0
LTYPE
  5
14
330
5
100
AcDbSymbolTableRecord
100
AcDbLinetypeTableRecord
  2
ByBlock
 70
     0
  3

 72
    65
 73
     0
 40
0.0
  0
LTYPE
  5
15
330
5
100
AcDbSymbolTableRecord
100
AcDbLinetypeTableRecord
  2
ByLayer
 70
     0
  3

 72
    65
 73
     0
 40
0.0
  0
LTYPE
  5
16
330
5
100
AcDbSymbolTableRecord
100
AcDbLinetypeTableRecord
  2
Continuous
 70
     0
  3
Solid line
 72
    65
 73
     0
 40
0.0
  0
LTYPE
  5
3F
330
5
100
AcDbSymbolTableRecord
100
AcDbLinetypeTableRecord
  2
JWW_HOJO
 70
     0
  3
  -   -   -   -   -   -   -   - 
 72
    65
 73
     2
 40
1.693333333333333
 49
-1.27
 74
     0
 49
0.4233333333333333
 74
     0
  0
LTYPE
  5
40
330
5
100
AcDbSymbolTableRecord
100
AcDbLinetypeTableRecord
  2
JWW_DASHED2
 70
     0
  3
--    ----    ----    ----    --
 72
    65
 73
     2
 40
3.386666666666667
 49
1.693333333333333
 74
     0
 49
-1.693333333333333
 74
     0
  0
LTYPE
  5
41
330
5
100
AcDbSymbolTableRecord
100
AcDbLinetypeTableRecord
  2
JWW_CENTER1
 70
     0
  3
-----  --  ----------  --  -----
 72
    65
 73
     4
 40
6.773333333333333
 49
4.233333333333333
 74
     0
 49
-0.8466666666666667
 74
     0
 49
0.8466666666666667
 74
     0
 49
-0.8466666666666667
 74
     0
  0
LTYPE
  5
42
330
5
100
AcDbSymbolTableRecord
100
AcDbLinetypeTableRecord
  2
JWW_DASHED1
 70
     0
  3
-  --  --  --  --  --  --  --  -
 72
    65
 73
     2
 40
1.693333333333333
 49
0.8466666666666667
 74
     0
 49
-0.8466666666666667
 74
     0
  0
ENDTAB
  0
TABLE
  2
LAYER
  5
2
330
0
100
AcDbSymbolTable
 70
    20
  0
LAYER
  5
10
330
2
100
AcDbSymbolTableRecord
100
AcDbLayerTableRecord
  2
0
 70
     0
 62
     7
  6
Continuous
370
    -3
390
F
347
3E
  0
LAYER
  5
43
330
2
100
AcDbSymbolTableRecord
100
AcDbLayerTableRecord
  2
0-B_寸法
 70
     0
 62
     7
  6
Continuous
370
    -3
390
F
347
3E
  0
LAYER
  5
44
330
2
100
AcDbSymbolTableRecord
100
AcDbLayerTableRecord
  2
0-A_文字
 70
     0
 62
     7
  6
Continuous
370
    -3
390
F
347
3E
  0
LAYER
  5
45
330
2
100
AcDbSymbolTableRecord
100
AcDbLayerTableRecord
  2
0-0_補助線
 70
     0
 62
     7
  6
Continuous
370
    -3
390
F
347
3E
  0
LAYER
  5
46
330
2
100
AcDbSymbolTableRecord
100
AcDbLayerTableRecord
  2
0-6_扉
 70
     0
 62
     7
  6
Continuous
370
    -3
390
F
347
3E
  0
LAYER
  5
47
330
2
100
AcDbSymbolTableRecord
100
AcDbLayerTableRecord
  2
0-1_通り芯
 70
     0
 62
     7
  6
Continuous
370
    -3
390
F
347
3E
  0
LAYER
  5
48
330
2
100
AcDbSymbolTableRecord
100
AcDbLayerTableRecord
  2
0-7_金物
 70
     0
 62
     7
  6
Continuous
370
    -3
390
F
347
3E
  0
LAYER
  5
49
330
2
100
AcDbSymbolTableRecord
100
AcDbLayerTableRecord
  2
0-4_枠
 70
     0
 62
     7
  6
Continuous
370
    -3
390
F
347
3E
  0
LAYER
  5
4A
330
2
100
AcDbSymbolTableRecord
100
AcDbLayerTableRecord
  2
0-C_ハッチ
 70
     0
 62
     7
  6
Continuous
370
    -3
390
F
347
3E
  0
LAYER
  5
4B
330
2
100
AcDbSymbolTableRecord
100
AcDbLayerTableRecord
  2
0-3_仕上げ
 70
     0
 62
     7
  6
Continuous
370
    -3
390
F
347
3E
  0
LAYER
  5
4C
330
2
100
AcDbSymbolTableRecord
100
AcDbLayerTableRecord
  2
F-A_文字
 70
     0
 62
     7
  6
Continuous
370
    -3
390
F
347
3E
  0
LAYER
  5
4D
330
2
100
AcDbSymbolTableRecord
100
AcDbLayerTableRecord
  2
F-0_補助線
 70
     0
 62
     7
  6
Continuous
370
    -3
390
F
347
3E
  0
LAYER
  5
4E
330
2
100
AcDbSymbolTableRecord
100
AcDbLayerTableRecord
  2
F-1_枠
 70
     0
 62
     7
  6
Continuous
370
    -3
390
F
347
3E
  0
LAYER
  5
4F
330
2
100
AcDbSymbolTableRecord
100
AcDbLayerTableRecord
  2
戸当り
 70
     0
 62
     7
  6
Continuous
370
    -3
390
F
347
3E
  0
LAYER
  5
50
330
2
100
AcDbSymbolTableRecord
100
AcDbLayerTableRecord
  2
1-A_文字
 70
     0
 62
     7
  6
Continuous
370
    -3
390
F
347
3E
  0
LAYER
  5
51
330
2
100
AcDbSymbolTableRecord
100
AcDbLayerTableRecord
  2
1-4_枠
 70
     0
 62
     7
  6
Continuous
370
    -3
390
F
347
3E
  0
LAYER
  5
52
330
2
100
AcDbSymbolTableRecord
100
AcDbLayerTableRecord
  2
1-6_扉
 70
     0
 62
     7
  6
Continuous
370
    -3
390
F
347
3E
  0
LAYER
  5
53
330
2
100
AcDbSymbolTableRecord
100
AcDbLayerTableRecord
  2
1-1_通り芯
 70
     0
 62
     7
  6
Continuous
370
    -3
390
F
347
3E
  0
LAYER
  5
54
330
2
100
AcDbSymbolTableRecord
100
AcDbLayerTableRecord
  2
1-B_寸法
 70
     0
 62
     7
  6
Continuous
370
    -3
390
F
347
3E
  0
LAYER
  5
55
330
2
100
AcDbSymbolTableRecord
100
AcDbLayerTableRecord
  2
1-3_仕上げ
 70
     0
 62
     7
  6
Continuous
370
    -3
390
F
347
3E
  0
ENDTAB
  0
TABLE
  2
STYLE
  5
3
330
0
100
AcDbSymbolTable
 70
     1
  0
STYLE
  5
11
330
3
100
AcDbSymbolTableRecord
100
AcDbTextStyleTableRecord
  2
Standard
 70
     0
 40
0.0
 41
1.0
 50
0.0
 71
     0
 42
2.5
  3
txt
  4

  0
ENDTAB
  0
TABLE
  2
VIEW
  5
6
330
0
100
AcDbSymbolTable
 70
     0
  0
ENDTAB
  0
TABLE
  2
UCS
  5
7
330
0
100
AcDbSymbolTable
 70
     0
  0
ENDTAB
  0
TABLE
  2
APPID
  5
9
330
0
100
AcDbSymbolTable
 70
     1
  0
APPID
  5
12
330
9
100
AcDbSymbolTableRecord
100
AcDbRegAppTableRecord
  2
ACAD
 70
     0
  0
ENDTAB
  0
TABLE
  2
DIMSTYLE
  5
A
330
0
100
AcDbSymbolTable
 70
     1
100
AcDbDimStyleTable
  0
DIMSTYLE
105
27
330
A
100
AcDbSymbolTableRecord
100
AcDbDimStyleTableRecord
  2
ISO-25
 70
     0
 41
2.5
 42
0.625
 43
3.75
 44
1.25
 73
     0
 74
     0
 77
     1
 78
     8
140
2.5
141
2.5
143
0.03937007874016
147
0.625
171
     3
172
     1
178
     0
271
     2
272
     2
274
     3
278
    44
283
     0
284
     8
340
11
  0
ENDTAB
  0
TABLE
  2
BLOCK_RECORD
  5
1
330
0
100
AcDbSymbolTable
 70
     2
  0
BLOCK_RECORD
  5
1F
330
1
100
AcDbSymbolTableRecord
100
AcDbBlockTableRecord
  2
*Model_Space
340
22
 70
     0
280
     1
281
     0
  0
BLOCK_RECORD
  5
1B
330
1
100
AcDbSymbolTableRecord
100
AcDbBlockTableRecord
  2
*Paper_Space
340
1E
 70
     0
280
     1
281
     0
  0
BLOCK_RECORD
  5
23
330
1
100
AcDbSymbolTableRecord
100
AcDbBlockTableRecord
  2
*Paper_Space0
340
26
 70
     0
280
     1
281
     0
  0
BLOCK_RECORD
  5
56
330
1
100
AcDbSymbolTableRecord
100
AcDbBlockTableRecord
  2
03@@SfigorgFlag@@4
340
0
102
{BLKREFS
331
34A
102
}
 70
     0
280
     1
281
     0
  0
ENDTAB
  0
ENDSEC
  0
SECTION
  2
BLOCKS
  0
BLOCK
  5
20
330
1F
100
AcDbEntity
  8
0
100
AcDbBlockBegin
  2
*Model_Space
 70
     0
 10
0.0
 20
0.0
 30
0.0
  3
*Model_Space
  1

  0
ENDBLK
  5
21
330
1F
100
AcDbEntity
  8
0
100
AcDbBlockEnd
  0
BLOCK
  5
1C
330
1B
100
AcDbEntity
 67
     1
  8
0
100
AcDbBlockBegin
  2
*Paper_Space
 70
     0
 10
0.0
 20
0.0
 30
0.0
  3
*Paper_Space
  1

  0
ENDBLK
  5
1D
330
1B
100
AcDbEntity
 67
     1
  8
0
100
AcDbBlockEnd
  0
BLOCK
  5
24
330
23
100
AcDbEntity
  8
0
100
AcDbBlockBegin
  2
*Paper_Space0
 70
     0
 10
0.0
 20
0.0
 30
0.0
  3
*Paper_Space0
  1

  0
ENDBLK
  5
25
330
23
100
AcDbEntity
  8
0
100
AcDbBlockEnd
  0
BLOCK
  5
57
330
56
100
AcDbEntity
  8
0
100
AcDbBlockBegin
  2
03@@SfigorgFlag@@4
 70
     0
 10
0.0
 20
0.0
 30
0.0
  3
03@@SfigorgFlag@@4
  1

  0
LINE
  5
363
330
56
100
AcDbEntity
  8
0-0_補助線
  6
Continuous
 62
     7
370
     9
100
AcDbLine
 10
-0.3159038607017521
 20
0.4295350827996884
 30
0.0
 11
0.3840961392983289
 21
0.4295350827996884
 31
0.0
  0
LINE
  5
364
330
56
100
AcDbEntity
  8
0-0_補助線
  6
Continuous
 62
     7
370
     9
100
AcDbLine
 10
1.044096139298325
 20
-0.1204838333161433
 30
0.0
 11
1.044096139298325
 21
-0.3504649172002416
 31
0.0
  0
LINE
  5
365
330
56
100
AcDbEntity
  8
0-0_補助線
  6
Continuous
 62
     7
370
     9
100
AcDbLine
 10
1.084096139298332
 20
-0.3904649172002479
 30
0.0
 11
1.194096139298246
 21
-0.3904649172002479
 31
0.0
  0
LINE
  5
366
330
56
100
AcDbEntity
  8
0-0_補助線
  6
Continuous
 62
     7
370
     9
100
AcDbLine
 10
1.194096139298246
 20
-0.3904649172002479
 30
0.0
 11
1.194096139298246
 21
-0.5304649172002485
 31
0.0
  0
LINE
  5
367
330
56
100
AcDbEntity
  8
0-0_補助線
  6
Continuous
 62
     7
370
     9
100
AcDbLine
 10
1.044096139298325
 20
-0.3504649172002416
 30
0.0
 11
1.044096139298325
 21
-0.3904649172002479
 31
0.0
  0
LINE
  5
368
330
56
100
AcDbEntity
  8
0-0_補助線
  6
Continuous
 62
     7
370
     9
100
AcDbLine
 10
1.044096139298325
 20
-0.3904649172002479
 30
0.0
 11
1.084096139298332
 21
-0.3904649172002479
 31
0.0
  0
LINE
  5
369
330
56
100
AcDbEntity
  8
0-0_補助線
  6
Continuous
 62
     7
370
     9
100
AcDbLine
 10
0.6340961392982436
 20
0.2695350827996918
 30
0.0
 11
0.6340961392982436
 21
0.1695350827996975
 31
0.0
  0
LINE
  5
36A
330
56
100
AcDbEntity
  8
0-0_補助線
  6
Continuous
 62
     7
370
     9
100
AcDbLine
 10
0.6340961392982436
 20
0.2695350827996918
 30
0.0
 11
0.5340961392982493
 21
0.3695350827996862
 31
0.0
  0
LINE
  5
36B
330
56
100
AcDbEntity
  8
0-0_補助線
  6
Continuous
 62
     7
370
     9
100
AcDbLine
 10
-0.4659038607017578
 20
0.3695350827996862
 30
0.0
 11
-0.5659038607017521
 21
0.2695350827996918
 31
0.0
  0
LINE
  5
36C
330
56
100
AcDbEntity
  8
0-0_補助線
  6
Continuous
 62
     7
370
     9
100
AcDbLine
 10
-0.5659038607017237
 20
0.1695350827996975
 30
0.0
 11
-0.5659038607017521
 21
0.2695350827996918
 31
0.0
  0
LINE
  5
36D
330
56
100
AcDbEntity
  8
0-0_補助線
  6
Continuous
 62
     7
370
     9
100
AcDbLine
 10
-1.015903860701826
 20
-0.3904649172002479
 30
0.0
 11
-0.9759038607018056
 21
-0.3904649172002479
 31
0.0
  0
LINE
  5
36E
330
56
100
AcDbEntity
  8
0-0_補助線
  6
Continuous
 62
     7
370
     9
100
AcDbLine
 10
-0.9759038607018056
 20
-0.3904649172002479
 30
0.0
 11
-0.9759038607018056
 21
-0.3504649172002416
 31
0.0
  0
LINE
  5
36F
330
56
100
AcDbEntity
  8
0-0_補助線
  6
Continuous
 62
     7
370
     9
100
AcDbLine
 10
-1.125903860701726
 20
-0.5304649172002485
 30
0.0
 11
-1.125903860701726
 21
-0.3904649172002479
 31
0.0
  0
LINE
  5
370
330
56
100
AcDbEntity
  8
0-0_補助線
  6
Continuous
 62
     7
370
     9
100
AcDbLine
 10
-1.125903860701726
 20
-0.3904649172002479
 30
0.0
 11
-1.015903860701826
 21
-0.3904649172002479
 31
0.0
  0
LINE
  5
371
330
56
100
AcDbEntity
  8
0-0_補助線
  6
Continuous
 62
     7
370
     9
100
AcDbLine
 10
-0.9759038607018056
 20
-0.3504649172002416
 30
0.0
 11
-0.9759038607018056
 21
-0.1204838333161433
 31
0.0
  0
ARC
  5
372
330
56
100
AcDbEntity
  8
0-0_補助線
  6
Continuous
 62
     7
370
     9
100
AcDbCircle
 10
1.034096139298249
 20
-0.5304649172002485
 30
0.0
 40
0.1600000000000016
100
AcDbArc
 50
270.0
 51
0.0
  0
ARC
  5
373
330
56
100
AcDbEntity
  8
0-0_補助線
  6
Continuous
 62
     7
370
     9
100
AcDbCircle
 10
-0.9659038607017294
 20
-0.5304649172002485
 30
0.0
 40
0.1600000000000023
100
AcDbArc
 50
180.0
 51
270.0
  0
LINE
  5
374
330
56
100
AcDbEntity
  8
0-0_補助線
  6
Continuous
 62
     7
370
     9
100
AcDbLine
 10
-0.5659038607017237
 20
0.4736168279767838
 30
0.0
 11
0.6340961392982436
 21
0.473616827976798
 31
0.0
  0
LINE
  5
375
330
56
100
AcDbEntity
  8
0-0_補助線
  6
Continuous
 62
     7
370
     9
100
AcDbLine
 10
-0.3159038607017521
 20
0.4295350827996884
 30
0.0
 11
-0.5659038607017237
 21
0.4736168279767838
 31
0.0
  0
LINE
  5
376
330
56
100
AcDbEntity
  8
0-0_補助線
  6
Continuous
 62
     7
370
     9
100
AcDbLine
 10
0.3840961392983289
 20
0.4295350827996884
 30
0.0
 11
0.6340961392982436
 21
0.473616827976798
 31
0.0
  0
LINE
  5
377
330
56
100
AcDbEntity
  8
0-0_補助線
  6
Continuous
 62
     7
370
     9
100
AcDbLine
 10
-0.3159038607017521
 20
0.4295350827996884
 30
0.0
 11
-0.3159038607017521
 21
0.3695350827996862
 31
0.0
  0
LINE
  5
378
330
56
100
AcDbEntity
  8
0-0_補助線
  6
Continuous
 62
     7
370
     9
100
AcDbLine
 10
0.3840961392983289
 20
0.4295350827996884
 30
0.0
 11
0.3840961392983289
 21
0.3695350827996862
 31
0.0
  0
LINE
  5
379
330
56
100
AcDbEntity
  8
0-0_補助線
  6
Continuous
 62
     7
370
     9
100
AcDbLine
 10
-0.4659038607017578
 20
0.3695350827996862
 30
0.0
 11
0.5340961392982493
 21
0.3695350827996862
 31
0.0
  0
LINE
  5
37A
330
56
100
AcDbEntity
  8
0-0_補助線
  6
Continuous
 62
     7
370
     9
100
AcDbLine
 10
0.6340961392982436
 20
0.2695350827996918
 30
0.0
 11
-0.5659038607017521
 21
0.2695350827997771
 31
0.0
  0
LINE
  5
37B
330
56
100
AcDbEntity
  8
0-0_補助線
  6
Continuous
 62
     7
370
     9
100
AcDbLine
 10
-1.001672218598486
 20
-0.1164025263725961
 30
0.0
 11
-0.9759038607018056
 21
-0.1204838333161433
 31
0.0
  0
LINE
  5
37C
330
56
100
AcDbEntity
  8
0-0_補助線
  6
Continuous
 62
     7
370
     9
100
AcDbLine
 10
-0.9759038607018056
 20
-0.3904649172002479
 30
0.0
 11
1.044096139298325
 21
-0.3904649172002479
 31
0.0
  0
LINE
  5
37D
330
56
100
AcDbEntity
  8
0-0_補助線
  6
Continuous
 62
     7
370
     9
100
AcDbLine
 10
-0.9659038607017294
 20
-0.6904649172002593
 30
0.0
 11
1.034096139298249
 21
-0.6904649172002593
 31
0.0
  0
LINE
  5
37E
330
56
100
AcDbEntity
  8
0-0_補助線
  6
Continuous
 62
     7
370
     9
100
AcDbLine
 10
-0.9759038607018056
 20
-0.1225824922177026
 30
0.0
 11
1.044096139298325
 21
-0.1225824922177026
 31
0.0
  0
LINE
  5
37F
330
56
100
AcDbEntity
  8
0-0_補助線
  6
Continuous
 62
     7
370
     9
100
AcDbLine
 10
-0.5659038607013542
 20
1.2813521170538
 30
0.0
 11
-0.5659038607017237
 21
0.4736168279767838
 31
0.0
  0
LINE
  5
380
330
56
100
AcDbEntity
  8
0-0_補助線
  6
Continuous
 62
     7
370
     9
100
AcDbLine
 10
0.6340961392982436
 20
0.473616827976798
 30
0.0
 11
0.6340961392986202
 21
1.2813521170538
 31
0.0
  0
LINE
  5
381
330
56
100
AcDbEntity
  8
0-0_補助線
  6
Continuous
 62
     7
370
     9
100
AcDbLine
 10
-1.291710868090519
 20
-0.0704649172003116
 30
0.0
 11
-1.001672218598486
 21
-0.1164025263725961
 31
0.0
  0
LINE
  5
382
330
56
100
AcDbEntity
  8
0-0_補助線
  6
Continuous
 62
     7
370
     9
100
AcDbLine
 10
-1.365903860701707
 20
0.1695350827996975
 30
0.0
 11
0.6340961392982436
 21
0.1695350827996975
 31
0.0
  0
LINE
  5
383
330
56
100
AcDbEntity
  8
0-0_補助線
  6
Continuous
 62
     7
370
     9
100
AcDbLine
 10
-1.465903860701701
 20
-0.0704649172003116
 30
0.0
 11
-1.465903860701729
 21
0.069535082799689
 31
0.0
  0
ARC
  5
384
330
56
100
AcDbEntity
  8
0-0_補助線
  6
Continuous
 62
     7
370
     9
100
AcDbCircle
 10
-1.365903860701707
 20
0.069535082799689
 30
0.0
 40
0.1
100
AcDbArc
 50
90.0
 51
180.0
  0
LINE
  5
385
330
56
100
AcDbEntity
  8
0-0_補助線
  6
Continuous
 62
     7
370
     9
100
AcDbLine
 10
-1.465903860701701
 20
-0.0704649172003116
 30
0.0
 11
-1.291710868090519
 21
-0.0704649172003116
 31
0.0
  0
LINE
  5
386
330
56
100
AcDbEntity
  8
0-0_補助線
  6
Continuous
 62
     7
370
     9
100
AcDbLine
 10
0.6340961392982436
 20
0.1695350827996975
 30
0.0
 11
1.434096139298227
 21
0.1695350827996975
 31
0.0
  0
ARC
  5
387
330
56
100
AcDbEntity
  8
0-0_補助線
  6
Continuous
 62
     7
370
     9
100
AcDbCircle
 10
1.434096139298227
 20
0.069535082799689
 30
0.0
 40
0.1000000000000227
100
AcDbArc
 50
0.0
 51
90.0
  0
LINE
  5
388
330
56
100
AcDbEntity
  8
0-0_補助線
  6
Continuous
 62
     7
370
     9
100
AcDbLine
 10
1.534096139298249
 20
0.069535082799689
 30
0.0
 11
1.534096139298221
 21
-0.0704649172003116
 31
0.0
  0
LINE
  5
389
330
56
100
AcDbEntity
  8
0-0_補助線
  6
Continuous
 62
     7
370
     9
100
AcDbLine
 10
1.359903146687024
 20
-0.0704649172003116
 30
0.0
 11
1.534096139298221
 21
-0.0704649172003116
 31
0.0
  0
LINE
  5
38A
330
56
100
AcDbEntity
  8
0-0_補助線
  6
Continuous
 62
     7
370
     9
100
AcDbLine
 10
1.044096139298325
 20
-0.1204838333161433
 30
0.0
 11
1.359903146687024
 21
-0.0704649172003116
 31
0.0
  0
ENDBLK
  5
58
330
56
100
AcDbEntity
  8
0
100
AcDbBlockEnd
  0
ENDSEC
  0
SECTION
  2
ENTITIES
  0
MTEXT
  5
59
330
1F
100
AcDbEntity
  8
0-B_寸法
  6
Continuous
 62
     7
370
   211
100
AcDbMText
 10
903.4182829694088
 20
1447.665146596153
 30
0.0
 40
91.43999999999998
 41
900.0
 46
0.0
 71
     7
 72
     1
  1
{\fＭＳ ゴシック|b0|i0|c128|p49;折戸：ＤＷ＝833}
 73
     1
 44
1.0
  0
MTEXT
  5
5A
330
1F
100
AcDbEntity
  8
0-B_寸法
  6
Continuous
 62
     7
370
   211
100
AcDbMText
 10
-1783.581791276622
 20
1447.665146596153
 30
0.0
 40
91.43999999999998
 41
900.0
 46
0.0
 71
     7
 72
     1
  1
{\fＭＳ ゴシック|b0|i0|c128|p49;折戸：ＤＷ＝833}
 73
     1
 44
1.0
  0
MTEXT
  5
5B
330
1F
100
AcDbEntity
  8
0-B_寸法
  6
Continuous
 62
     7
370
   211
100
AcDbMText
 10
-440.0814571566838
 20
1447.665146596153
 30
0.0
 40
91.43999999999998
 41
900.0
 46
0.0
 71
     7
 72
     1
  1
{\fＭＳ ゴシック|b0|i0|c128|p49;折戸：ＤＷ＝833}
 73
     1
 44
1.0
  0
MTEXT
  5
5C
330
1F
100
AcDbEntity
  8
0-B_寸法
  6
Continuous
 62
     7
370
     0
100
AcDbMText
 10
-320.0820138962848
 20
1087.665196084118
 30
0.0
 40
91.43999999999997
 41
660.0
 46
0.0
 71
     7
 72
     1
  1
{\fＭＳ ゴシック|b0|i0|c128|p49;枠外＝2,568}
 73
     1
 44
1.0
  0
MTEXT
  5
5D
330
1F
100
AcDbEntity
  8
0-B_寸法
  6
Continuous
 62
     7
370
     0
100
AcDbMText
 10
-320.081457156684
 20
1267.665196084118
 30
0.0
 40
91.44000000000004
 41
660.0000000000005
 46
0.0
 71
     7
 72
     1
  1
{\fＭＳ ゴシック|b0|i0|c128|p49;枠内＝2,508}
 73
     1
 44
1.0
  0
MTEXT
  5
5E
330
1F
100
AcDbEntity
  8
0-B_寸法
  6
Continuous
 62
     7
370
   211
100
AcDbMText
 10
-560.0814571566838
 20
2782.665146596154
 30
0.0
 40
91.43999999999998
 41
1140.0
 46
0.0
 71
     7
 72
     1
  1
{\fＭＳ ゴシック|b0|i0|c128|p49;有効開口寸法＝2,129}
 73
     1
 44
1.0
  0
MTEXT
  5
5F
330
1F
100
AcDbEntity
  8
0-A_文字
  6
Continuous
 62
     7
370
     9
100
AcDbMText
 10
-2762.081816058701
 20
3142.213602323257
 30
0.0
 40
100.584
 41
660.0
 46
0.0
 71
     7
 72
     1
  1
{\fＭＳ ゴシック|b0|i0|c128|p49;■横断面図}
 73
     1
 44
1.0
  0
MTEXT
  5
60
330
1F
100
AcDbEntity
  8
0-B_寸法
  6
Continuous
 62
     7
370
   211
100
AcDbMText
 10
-2177.082063546529
 20
1087.665146596153
 30
0.0
 40
91.44
 41
60.0
 46
0.0
 71
     7
 72
     1
  1
{\fＭＳ ゴシック|b0|i0|c128|p49;5}
 73
     1
 44
1.0
  0
MTEXT
  5
61
330
1F
100
AcDbEntity
  8
0-B_寸法
  6
Continuous
 62
     7
370
   211
100
AcDbMText
 10
2136.916971438184
 20
1087.665146596153
 30
0.0
 40
91.44
 41
60.0
 46
0.0
 71
     7
 72
     1
  1
{\fＭＳ ゴシック|b0|i0|c128|p49;5}
 73
     1
 44
1.0
  0
LINE
  5
62
330
1F
100
AcDbEntity
  8
0-B_寸法
  6
Continuous
 62
   120
370
     5
100
AcDbLine
 10
2241.917911709495
 20
1086.945146596153
 30
0.0
 11
2241.917911709495
 21
1626.94514659615
 31
0.0
  0
LINE
  5
63
330
1F
100
AcDbEntity
  8
0-B_寸法
  6
Continuous
 62
   120
370
     5
100
AcDbLine
 10
2211.917911709502
 20
1086.945146596153
 30
0.0
 11
2211.917911709502
 21
1626.94514659615
 31
0.0
  0
LWPOLYLINE
  5
64
330
1F
100
AcDbEntity
  8
0-B_寸法
  6
Continuous
 62
     7
370
     9
100
AcDbPolyline
 90
        4
 70
     1
 43
3.0
 10
2243.417911709495
 20
1086.945146596153
 42
0.4142135623731
 10
2241.917911709495
 20
1088.445146596153
 42
0.4142135623731
 10
2240.417911709495
 20
1086.945146596153
 42
0.4142135623731
 10
2241.917911709495
 20
1085.445146596153
 42
0.4142135623731
  0
LWPOLYLINE
  5
65
330
1F
100
AcDbEntity
  8
0-B_寸法
  6
Continuous
 62
     7
370
     9
100
AcDbPolyline
 90
        4
 70
     1
 43
3.0
 10
2213.417911709502
 20
1086.945146596153
 42
0.4142135623731
 10
2211.917911709502
 20
1088.445146596153
 42
0.4142135623731
 10
2210.417911709502
 20
1086.945146596153
 42
0.4142135623731
 10
2211.917911709502
 20
1085.445146596153
 42
0.4142135623731
  0
LINE
  5
66
330
1F
100
AcDbEntity
  8
0-B_寸法
  6
Continuous
 62
   120
370
     5
100
AcDbLine
 10
2211.917911709502
 20
1086.945146596153
 30
0.0
 11
2241.917911709495
 21
1086.945146596153
 31
0.0
  0
LINE
  5
67
330
1F
100
AcDbEntity
  8
0-B_寸法
  6
Continuous
 62
   120
370
     5
100
AcDbLine
 10
-2192.082063546522
 20
1086.945146596153
 30
0.0
 11
-2192.082063546522
 21
1626.94514659615
 31
0.0
  0
LINE
  5
68
330
1F
100
AcDbEntity
  8
0-B_寸法
  6
Continuous
 62
   120
370
     5
100
AcDbLine
 10
-2222.08206354651
 20
1086.945146596153
 30
0.0
 11
-2222.08206354651
 21
1626.94514659615
 31
0.0
  0
LWPOLYLINE
  5
69
330
1F
100
AcDbEntity
  8
0-B_寸法
  6
Continuous
 62
     7
370
     9
100
AcDbPolyline
 90
        4
 70
     1
 43
3.0
 10
-2190.582063546522
 20
1086.945146596153
 42
0.4142135623731
 10
-2192.082063546522
 20
1088.445146596153
 42
0.4142135623731
 10
-2193.582063546522
 20
1086.945146596153
 42
0.4142135623731
 10
-2192.082063546522
 20
1085.445146596153
 42
0.4142135623731
  0
LWPOLYLINE
  5
6A
330
1F
100
AcDbEntity
  8
0-B_寸法
  6
Continuous
 62
     7
370
     9
100
AcDbPolyline
 90
        4
 70
     1
 43
3.0
 10
-2220.58206354651
 20
1086.945146596153
 42
0.4142135623731
 10
-2222.08206354651
 20
1088.445146596153
 42
0.4142135623731
 10
-2223.58206354651
 20
1086.945146596153
 42
0.4142135623731
 10
-2222.08206354651
 20
1085.445146596153
 42
0.4142135623731
  0
LINE
  5
6B
330
1F
100
AcDbEntity
  8
0-B_寸法
  6
Continuous
 62
   120
370
     5
100
AcDbLine
 10
-2222.08206354651
 20
1086.945146596153
 30
0.0
 11
-2192.082063546522
 21
1086.945146596153
 31
0.0
  0
LINE
  5
6C
330
1F
100
AcDbEntity
  8
0-0_補助線
  6
JWW_HOJO
 62
   120
370
     5
100
AcDbLine
 10
2781.917713757646
 20
1806.94514659615
 30
0.0
 11
-2762.081816058703
 21
1806.94514659615
 31
0.0
  0
MTEXT
  5
6D
330
1F
100
AcDbEntity
  8
0-A_文字
  6
Continuous
 62
     7
370
     9
100
AcDbMText
 10
-83.0830780497777
 20
931.6903738688801
 30
0.0
 40
79.49045454545441
 41
2294.999999999996
 46
0.0
 71
     7
 72
     1
  1
{\fＭＳ ゴシック|b0|i0|c128|p49;※有効開口寸法にはハンドルの突出は含まない。}
 73
     1
 44
1.0
  0
MTEXT
  5
6E
330
1F
100
AcDbEntity
  8
0-A_文字
  6
Continuous
 62
     7
370
     9
100
AcDbMText
 10
-608.0830780497778
 20
826.7384799294862
 30
0.0
 40
79.58666666666657
 41
2819.999999999996
 46
0.0
 71
     7
 72
     1
  1
{\fＭＳ ゴシック|b0|i0|c128|p49;※有効開口寸法は扉の厚さや調整によって若干異なります。}
 73
     1
 44
1.0
  0
LINE
  5
6F
330
1F
100
AcDbEntity
  8
0-0_補助線
  6
JWW_HOJO
 62
   120
370
     5
100
AcDbLine
 10
683.9186542293169
 20
2961.945146596154
 30
0.0
 11
683.9186542293169
 21
906.9451465961529
 31
0.0
  0
LINE
  5
70
330
1F
100
AcDbEntity
  8
0-0_補助線
  6
JWW_HOJO
 62
   120
370
     5
100
AcDbLine
 10
9.918542843316231
 20
2961.945146596154
 30
0.0
 11
9.918542843316231
 21
906.9451465961529
 31
0.0
  0
LINE
  5
71
330
1F
100
AcDbEntity
  8
0-0_補助線
  6
JWW_HOJO
 62
   120
370
     5
100
AcDbLine
 10
-664.0815685426887
 20
2961.945146596154
 30
0.0
 11
-664.0815685426887
 21
906.9451465961529
 31
0.0
  0
LINE
  5
72
330
1F
100
AcDbEntity
  8
0-0_補助線
  6
JWW_HOJO
 62
   120
370
     5
100
AcDbLine
 10
1357.918765615318
 20
2961.945146596154
 30
0.0
 11
1357.918765615318
 21
906.9451465961529
 31
0.0
  0
LINE
  5
73
330
1F
100
AcDbEntity
  8
0-0_補助線
  6
JWW_HOJO
 62
   120
370
     5
100
AcDbLine
 10
-1338.081679928688
 20
2961.945146596154
 30
0.0
 11
-1338.081679928688
 21
906.9451465961529
 31
0.0
  0
LINE
  5
74
330
1F
100
AcDbEntity
  8
0-0_補助線
  6
JWW_HOJO
 62
     7
370
     9
100
AcDbLine
 10
2001.918827513357
 20
906.9451465961529
 30
0.0
 11
2001.918827513357
 21
2961.945146596154
 31
0.0
  0
LINE
  5
75
330
1F
100
AcDbEntity
  8
0-0_補助線
  6
JWW_HOJO
 62
     7
370
     9
100
AcDbLine
 10
-1982.081370666989
 20
2961.945146596154
 30
0.0
 11
-1982.081370666989
 21
906.9451465961529
 31
0.0
  0
LINE
  5
76
330
1F
100
AcDbEntity
  8
0-6_扉
  6
JWW_DASHED2
 62
    40
370
    15
100
AcDbLine
 10
1920.269188359443
 20
2347.165080826209
 30
0.0
 11
1886.73733656997
 21
1905.945943352384
 31
0.0
  0
ARC
  5
77
330
1F
100
AcDbEntity
  8
0-6_扉
  6
JWW_DASHED2
 62
    40
370
    15
100
AcDbCircle
 10
1902.320945776036
 20
2348.529114611403
 30
0.0
 40
18.0
100
AcDbArc
 50
355.6539792783596
 51
85.65397927835917
  0
LINE
  5
78
330
1F
100
AcDbEntity
  8
0-6_扉
  6
JWW_DASHED2
 62
    40
370
    15
100
AcDbLine
 10
1903.68497956123
 20
2366.477357194809
 30
0.0
 11
1778.047281477375
 21
2376.025593691167
 31
0.0
  0
LINE
  5
79
330
1F
100
AcDbEntity
  8
0-6_扉
  6
JWW_DASHED2
 62
    40
370
    15
100
AcDbLine
 10
1758.735005108774
 20
2359.441384892953
 30
0.0
 11
1724.270176543079
 21
1905.945943352384
 31
0.0
  0
ARC
  5
7A
330
1F
100
AcDbEntity
  8
0-6_扉
  6
JWW_DASHED2
 62
    40
370
    15
100
AcDbCircle
 10
1776.68324769218
 20
2358.07735110776
 30
0.0
 40
18.0
100
AcDbArc
 50
85.65397927835929
 51
175.6539792783603
  0
LINE
  5
7B
330
1F
100
AcDbEntity
  8
0-6_扉
  6
JWW_DASHED2
 62
    40
370
    15
100
AcDbLine
 10
1469.352548469794
 20
2358.07735110776
 30
0.0
 11
1503.713712949233
 21
1905.945943352384
 31
0.0
  0
LINE
  5
7C
330
1F
100
AcDbEntity
  8
0-6_扉
  6
JWW_DASHED2
 62
    40
370
    15
100
AcDbLine
 10
1307.818365219126
 20
2345.80104704102
 30
0.0
 11
1341.246552922343
 21
1905.945943352384
 31
0.0
  0
ARC
  5
7D
330
1F
100
AcDbEntity
  8
0-6_扉
  6
JWW_DASHED2
 62
    40
370
    15
100
AcDbCircle
 10
1325.766607802534
 20
2347.165080826214
 30
0.0
 40
18.0
100
AcDbArc
 50
94.34602072163928
 51
184.346020721639
  0
LINE
  5
7E
330
1F
100
AcDbEntity
  8
0-6_扉
  6
JWW_DASHED2
 62
    40
370
    15
100
AcDbLine
 10
1450.040272101192
 20
2374.661559905976
 30
0.0
 11
1324.40257401734
 21
2365.11332340962
 31
0.0
  0
ARC
  5
7F
330
1F
100
AcDbEntity
  8
0-6_扉
  6
JWW_DASHED2
 62
    40
370
    15
100
AcDbCircle
 10
1451.404305886386
 20
2356.713317322567
 30
0.0
 40
18.0
100
AcDbArc
 50
4.346020721638924
 51
94.34602072163929
  0
LINE
  5
80
330
1F
100
AcDbEntity
  8
0-6_扉
  6
JWW_DASHED2
 62
    40
370
    15
100
AcDbLine
 10
-1900.433290708495
 20
2347.165080826209
 30
0.0
 11
-1866.901438919022
 21
1905.945943352384
 31
0.0
  0
ARC
  5
81
330
1F
100
AcDbEntity
  8
0-6_扉
  6
JWW_DASHED2
 62
    40
370
    15
100
AcDbCircle
 10
-1882.48504812509
 20
2348.529114611403
 30
0.0
 40
18.0
100
AcDbArc
 50
94.34602072164084
 51
184.3460207216404
  0
LINE
  5
82
330
1F
100
AcDbEntity
  8
0-6_扉
  6
JWW_DASHED2
 62
    40
370
    15
100
AcDbLine
 10
-1738.899107457825
 20
2359.441384892953
 30
0.0
 11
-1704.434278892132
 21
1905.945943352384
 31
0.0
  0
ARC
  5
83
330
1F
100
AcDbEntity
  8
0-6_扉
  6
JWW_DASHED2
 62
    40
370
    15
100
AcDbCircle
 10
-1756.847350041234
 20
2358.07735110776
 30
0.0
 40
18.0
100
AcDbArc
 50
4.346020721639738
 51
94.3460207216407
  0
LINE
  5
84
330
1F
100
AcDbEntity
  8
0-6_扉
  6
JWW_DASHED2
 62
    40
370
    15
100
AcDbLine
 10
-1883.849081910283
 20
2366.477357194809
 30
0.0
 11
-1758.211383826427
 21
2376.025593691167
 31
0.0
  0
LINE
  5
85
330
1F
100
AcDbEntity
  8
0-6_扉
  6
JWW_DASHED2
 62
    40
370
    15
100
AcDbLine
 10
-1449.516650818848
 20
2358.07735110776
 30
0.0
 11
-1483.877815298287
 21
1905.945943352384
 31
0.0
  0
ARC
  5
86
330
1F
100
AcDbEntity
  8
0-6_扉
  6
JWW_DASHED2
 62
    40
370
    15
100
AcDbCircle
 10
-1431.568408235439
 20
2356.713317322567
 30
0.0
 40
18.0
100
AcDbArc
 50
85.6539792783607
 51
175.6539792783611
  0
LINE
  5
87
330
1F
100
AcDbEntity
  8
0-6_扉
  6
JWW_DASHED2
 62
    40
370
    15
100
AcDbLine
 10
-1287.982467568178
 20
2345.80104704102
 30
0.0
 11
-1321.410655271395
 21
1905.945943352384
 31
0.0
  0
ARC
  5
88
330
1F
100
AcDbEntity
  8
0-6_扉
  6
JWW_DASHED2
 62
    40
370
    15
100
AcDbCircle
 10
-1305.930710151586
 20
2347.165080826214
 30
0.0
 40
18.0
100
AcDbArc
 50
355.653979278361
 51
85.65397927836072
  0
LINE
  5
89
330
1F
100
AcDbEntity
  8
0-6_扉
  6
JWW_DASHED2
 62
    40
370
    15
100
AcDbLine
 10
-1430.204374450244
 20
2374.661559905976
 30
0.0
 11
-1304.566676366393
 21
2365.11332340962
 31
0.0
  0
LINE
  5
8A
330
1F
100
AcDbEntity
  8
0-1_通り芯
  6
JWW_CENTER1
 62
   120
370
     5
100
AcDbLine
 10
-1287.982467568178
 20
2601.945146596154
 30
0.0
 11
-1287.982467568178
 21
2348.529114611407
 31
0.0
  0
LINE
  5
8B
330
1F
100
AcDbEntity
  8
0-1_通り芯
  6
JWW_CENTER1
 62
   120
370
     5
100
AcDbLine
 10
1307.818365219126
 20
2601.945146596154
 30
0.0
 11
1307.818365219126
 21
2348.529114611407
 31
0.0
  0
LINE
  5
8C
330
1F
100
AcDbEntity
  8
0-B_寸法
  6
Continuous
 62
   120
370
     5
100
AcDbLine
 10
-1287.982467568178
 20
2781.945146596154
 30
0.0
 11
1307.818365219126
 21
2781.945146596154
 31
0.0
  0
LINE
  5
8D
330
1F
100
AcDbEntity
  8
0-B_寸法
  6
Continuous
 62
   120
370
     5
100
AcDbLine
 10
-1287.982467568178
 20
2781.945146596154
 30
0.0
 11
-1287.982467568178
 21
2601.945146596154
 31
0.0
  0
LWPOLYLINE
  5
8E
330
1F
100
AcDbEntity
  8
0-B_寸法
  6
Continuous
 62
     7
370
     9
100
AcDbPolyline
 90
        4
 70
     1
 43
3.0
 10
-1286.482467568178
 20
2781.945146596154
 42
0.4142135623731
 10
-1287.982467568178
 20
2783.445146596154
 42
0.4142135623731
 10
-1289.482467568178
 20
2781.945146596154
 42
0.4142135623731
 10
-1287.982467568178
 20
2780.445146596154
 42
0.4142135623731
  0
LINE
  5
8F
330
1F
100
AcDbEntity
  8
0-B_寸法
  6
Continuous
 62
   120
370
     5
100
AcDbLine
 10
1307.818365219126
 20
2781.945146596154
 30
0.0
 11
1307.818365219126
 21
2601.945146596154
 31
0.0
  0
LWPOLYLINE
  5
90
330
1F
100
AcDbEntity
  8
0-B_寸法
  6
Continuous
 62
     7
370
     9
100
AcDbPolyline
 90
        4
 70
     1
 43
3.0
 10
1309.318365219126
 20
2781.945146596154
 42
0.4142135623731
 10
1307.818365219126
 20
2783.445146596154
 42
0.4142135623731
 10
1306.318365219126
 20
2781.945146596154
 42
0.4142135623731
 10
1307.818365219126
 20
2780.445146596154
 42
0.4142135623731
  0
MTEXT
  5
91
330
1F
100
AcDbEntity
  8
0-B_寸法
  6
Continuous
 62
     7
370
   211
100
AcDbMText
 10
-640.0815685426841
 20
1447.665146596153
 30
0.0
 40
91.44
 41
60.0
 46
0.0
 71
     7
 72
     1
  1
{\fＭＳ ゴシック|b0|i0|c128|p49;2}
 73
     1
 44
1.0
  0
MTEXT
  5
92
330
1F
100
AcDbEntity
  8
0-B_寸法
  6
Continuous
 62
     7
370
   211
100
AcDbMText
 10
707.9186542293168
 20
1447.665146596153
 30
0.0
 40
91.44000000000064
 41
60.00000000000043
 46
0.0
 71
     7
 72
     1
  1
{\fＭＳ ゴシック|b0|i0|c128|p49;2}
 73
     1
 44
1.0
  0
LINE
  5
93
330
1F
100
AcDbEntity
  8
0-B_寸法
  6
Continuous
 62
   120
370
     5
100
AcDbLine
 10
2016.917911709502
 20
1626.94514659615
 30
0.0
 11
2016.917911709502
 21
1806.94514659615
 31
0.0
  0
LINE
  5
94
330
1F
100
AcDbEntity
  8
0-B_寸法
  6
Continuous
 62
   120
370
     5
100
AcDbLine
 10
1354.91880273129
 20
1626.94514659615
 30
0.0
 11
1354.91880273129
 21
1806.94514659615
 31
0.0
  0
LINE
  5
95
330
1F
100
AcDbEntity
  8
0-B_寸法
  6
Continuous
 62
   120
370
     5
100
AcDbLine
 10
689.9186542293165
 20
1626.94514659615
 30
0.0
 11
689.9186542293165
 21
1806.94514659615
 31
0.0
  0
LINE
  5
96
330
1F
100
AcDbEntity
  8
0-B_寸法
  6
Continuous
 62
   120
370
     5
100
AcDbLine
 10
677.9186542293172
 20
1626.94514659615
 30
0.0
 11
677.9186542293172
 21
1806.94514659615
 31
0.0
  0
LINE
  5
97
330
1F
100
AcDbEntity
  8
0-B_寸法
  6
Continuous
 62
   120
370
     5
100
AcDbLine
 10
12.91850572734177
 20
1626.94514659615
 30
0.0
 11
12.91850572734177
 21
1806.94514659615
 31
0.0
  0
LINE
  5
98
330
1F
100
AcDbEntity
  8
0-B_寸法
  6
Continuous
 62
   120
370
     5
100
AcDbLine
 10
6.918579959289417
 20
1626.94514659615
 30
0.0
 11
6.918579959289417
 21
1806.94514659615
 31
0.0
  0
LINE
  5
99
330
1F
100
AcDbEntity
  8
0-B_寸法
  6
Continuous
 62
   120
370
     5
100
AcDbLine
 10
-658.0815685426874
 20
1626.94514659615
 30
0.0
 11
-658.0815685426874
 21
1806.94514659615
 31
0.0
  0
LINE
  5
9A
330
1F
100
AcDbEntity
  8
0-B_寸法
  6
Continuous
 62
   120
370
     5
100
AcDbLine
 10
-670.0815685426858
 20
1626.94514659615
 30
0.0
 11
-670.0815685426858
 21
1806.94514659615
 31
0.0
  0
LINE
  5
9B
330
1F
100
AcDbEntity
  8
0-B_寸法
  6
Continuous
 62
   120
370
     5
100
AcDbLine
 10
-1335.081717044662
 20
1626.94514659615
 30
0.0
 11
-1335.081717044662
 21
1806.94514659615
 31
0.0
  0
LINE
  5
9C
330
1F
100
AcDbEntity
  8
0-B_寸法
  6
Continuous
 62
   120
370
     5
100
AcDbLine
 10
-1341.081642812713
 20
1626.94514659615
 30
0.0
 11
-1341.081642812713
 21
1806.94514659615
 31
0.0
  0
LINE
  5
9D
330
1F
100
AcDbEntity
  8
0-B_寸法
  6
Continuous
 62
   120
370
     5
100
AcDbLine
 10
-1997.082014010559
 20
1626.94514659615
 30
0.0
 11
-1997.082014010559
 21
1806.94514659615
 31
0.0
  0
MTEXT
  5
9E
330
1F
100
AcDbEntity
  8
0-B_寸法
  6
Continuous
 62
     7
370
   211
100
AcDbMText
 10
1475.918357220398
 20
1621.95014659615
 30
0.0
 40
80.00999999999999
 41
420.0
 46
0.0
 71
     7
 72
     1
  1
{\fＭＳ ゴシック|b0|i0|c128|p49;ＤＷ=416}
 73
     1
 44
1.0
  0
MTEXT
  5
9F
330
1F
100
AcDbEntity
  8
0-B_寸法
  6
Continuous
 62
     7
370
   211
100
AcDbMText
 10
812.4187284803043
 20
1621.95014659615
 30
0.0
 40
80.00999999999999
 41
420.0
 46
0.0
 71
     7
 72
     1
  1
{\fＭＳ ゴシック|b0|i0|c128|p49;ＤＷ=416}
 73
     1
 44
1.0
  0
MTEXT
  5
A0
330
1F
100
AcDbEntity
  8
0-B_寸法
  6
Continuous
 62
     7
370
   211
100
AcDbMText
 10
135.4185799783295
 20
1621.95014659615
 30
0.0
 40
80.00999999999999
 41
420.0
 46
0.0
 71
     7
 72
     1
  1
{\fＭＳ ゴシック|b0|i0|c128|p49;ＤＷ=416}
 73
     1
 44
1.0
  0
MTEXT
  5
A1
330
1F
100
AcDbEntity
  8
0-B_寸法
  6
Continuous
 62
     7
370
   211
100
AcDbMText
 10
-535.5814942917013
 20
1621.95014659615
 30
0.0
 40
80.00999999999998
 41
419.9999999999999
 46
0.0
 71
     7
 72
     1
  1
{\fＭＳ ゴシック|b0|i0|c128|p49;ＤＷ=416}
 73
     1
 44
1.0
  0
MTEXT
  5
A2
330
1F
100
AcDbEntity
  8
0-B_寸法
  6
Continuous
 62
     7
370
   211
100
AcDbMText
 10
-1212.581642793675
 20
1621.95014659615
 30
0.0
 40
80.00999999999999
 41
420.0
 46
0.0
 71
     7
 72
     1
  1
{\fＭＳ ゴシック|b0|i0|c128|p49;ＤＷ=416}
 73
     1
 44
1.0
  0
MTEXT
  5
A3
330
1F
100
AcDbEntity
  8
0-B_寸法
  6
Continuous
 62
     7
370
   211
100
AcDbMText
 10
-1879.08182841164
 20
1621.95014659615
 30
0.0
 40
80.00999999999999
 41
420.0
 46
0.0
 71
     7
 72
     1
  1
{\fＭＳ ゴシック|b0|i0|c128|p49;ＤＷ=416}
 73
     1
 44
1.0
  0
LWPOLYLINE
  5
A4
330
1F
100
AcDbEntity
  8
0-B_寸法
  6
Continuous
 62
     7
370
     9
100
AcDbPolyline
 90
        4
 70
     1
 43
3.0
 10
2018.417911709502
 20
1626.94514659615
 42
0.4142135623731
 10
2016.917911709502
 20
1628.44514659615
 42
0.4142135623731
 10
2015.417911709503
 20
1626.94514659615
 42
0.4142135623731
 10
2016.917911709502
 20
1625.44514659615
 42
0.4142135623731
  0
LINE
  5
A5
330
1F
100
AcDbEntity
  8
0-B_寸法
  6
Continuous
 62
   120
370
     5
100
AcDbLine
 10
689.9186542293165
 20
1626.94514659615
 30
0.0
 11
2016.917911709502
 21
1626.94514659615
 31
0.0
  0
LWPOLYLINE
  5
A6
330
1F
100
AcDbEntity
  8
0-B_寸法
  6
Continuous
 62
     7
370
     9
100
AcDbPolyline
 90
        4
 70
     1
 43
3.0
 10
1356.41880273129
 20
1626.94514659615
 42
0.4142135623731
 10
1354.91880273129
 20
1628.44514659615
 42
0.4142135623731
 10
1353.41880273129
 20
1626.94514659615
 42
0.4142135623731
 10
1354.91880273129
 20
1625.44514659615
 42
0.4142135623731
  0
LWPOLYLINE
  5
A7
330
1F
100
AcDbEntity
  8
0-B_寸法
  6
Continuous
 62
     7
370
     9
100
AcDbPolyline
 90
        4
 70
     1
 43
3.0
 10
691.4186542293165
 20
1626.94514659615
 42
0.4142135623731
 10
689.9186542293165
 20
1628.44514659615
 42
0.4142135623731
 10
688.4186542293165
 20
1626.94514659615
 42
0.4142135623731
 10
689.9186542293165
 20
1625.44514659615
 42
0.4142135623731
  0
LWPOLYLINE
  5
A8
330
1F
100
AcDbEntity
  8
0-B_寸法
  6
Continuous
 62
     7
370
     9
100
AcDbPolyline
 90
        4
 70
     1
 43
3.0
 10
679.4186542293172
 20
1626.94514659615
 42
0.4142135623731
 10
677.9186542293172
 20
1628.44514659615
 42
0.4142135623731
 10
676.4186542293172
 20
1626.94514659615
 42
0.4142135623731
 10
677.9186542293172
 20
1625.44514659615
 42
0.4142135623731
  0
LINE
  5
A9
330
1F
100
AcDbEntity
  8
0-B_寸法
  6
Continuous
 62
   120
370
     5
100
AcDbLine
 10
12.91850572734177
 20
1626.94514659615
 30
0.0
 11
677.9186542293172
 21
1626.94514659615
 31
0.0
  0
LWPOLYLINE
  5
AA
330
1F
100
AcDbEntity
  8
0-B_寸法
  6
Continuous
 62
     7
370
     9
100
AcDbPolyline
 90
        4
 70
     1
 43
3.0
 10
14.41850572734177
 20
1626.94514659615
 42
0.4142135623731
 10
12.91850572734177
 20
1628.44514659615
 42
0.4142135623731
 10
11.41850572734177
 20
1626.94514659615
 42
0.4142135623731
 10
12.91850572734177
 20
1625.44514659615
 42
0.4142135623731
  0
LWPOLYLINE
  5
AB
330
1F
100
AcDbEntity
  8
0-B_寸法
  6
Continuous
 62
     7
370
     9
100
AcDbPolyline
 90
        4
 70
     1
 43
3.0
 10
8.418579959289417
 20
1626.94514659615
 42
0.4142135623731
 10
6.918579959289417
 20
1628.44514659615
 42
0.4142135623731
 10
5.418579959289417
 20
1626.94514659615
 42
0.4142135623731
 10
6.918579959289417
 20
1625.44514659615
 42
0.4142135623731
  0
LINE
  5
AC
330
1F
100
AcDbEntity
  8
0-B_寸法
  6
Continuous
 62
   120
370
     5
100
AcDbLine
 10
-658.0815685426874
 20
1626.94514659615
 30
0.0
 11
6.918579959289417
 21
1626.94514659615
 31
0.0
  0
LWPOLYLINE
  5
AD
330
1F
100
AcDbEntity
  8
0-B_寸法
  6
Continuous
 62
     7
370
     9
100
AcDbPolyline
 90
        4
 70
     1
 43
3.0
 10
-656.5815685426873
 20
1626.94514659615
 42
0.4142135623731
 10
-658.0815685426874
 20
1628.44514659615
 42
0.4142135623731
 10
-659.5815685426874
 20
1626.94514659615
 42
0.4142135623731
 10
-658.0815685426874
 20
1625.44514659615
 42
0.4142135623731
  0
LWPOLYLINE
  5
AE
330
1F
100
AcDbEntity
  8
0-B_寸法
  6
Continuous
 62
     7
370
     9
100
AcDbPolyline
 90
        4
 70
     1
 43
3.0
 10
-668.5815685426858
 20
1626.94514659615
 42
0.4142135623731
 10
-670.0815685426858
 20
1628.44514659615
 42
0.4142135623731
 10
-671.5815685426858
 20
1626.94514659615
 42
0.4142135623731
 10
-670.0815685426858
 20
1625.44514659615
 42
0.4142135623731
  0
LINE
  5
AF
330
1F
100
AcDbEntity
  8
0-B_寸法
  6
Continuous
 62
   120
370
     5
100
AcDbLine
 10
-1335.081717044662
 20
1626.94514659615
 30
0.0
 11
-670.0815685426858
 21
1626.94514659615
 31
0.0
  0
LWPOLYLINE
  5
B0
330
1F
100
AcDbEntity
  8
0-B_寸法
  6
Continuous
 62
     7
370
     9
100
AcDbPolyline
 90
        4
 70
     1
 43
3.0
 10
-1333.581717044662
 20
1626.94514659615
 42
0.4142135623731
 10
-1335.081717044662
 20
1628.44514659615
 42
0.4142135623731
 10
-1336.581717044662
 20
1626.94514659615
 42
0.4142135623731
 10
-1335.081717044662
 20
1625.44514659615
 42
0.4142135623731
  0
LWPOLYLINE
  5
B1
330
1F
100
AcDbEntity
  8
0-B_寸法
  6
Continuous
 62
     7
370
     9
100
AcDbPolyline
 90
        4
 70
     1
 43
3.0
 10
-1339.581642812713
 20
1626.94514659615
 42
0.4142135623731
 10
-1341.081642812713
 20
1628.44514659615
 42
0.4142135623731
 10
-1342.581642812713
 20
1626.94514659615
 42
0.4142135623731
 10
-1341.081642812713
 20
1625.44514659615
 42
0.4142135623731
  0
LINE
  5
B2
330
1F
100
AcDbEntity
  8
0-B_寸法
  6
Continuous
 62
   120
370
     5
100
AcDbLine
 10
-1997.082014010559
 20
1626.94514659615
 30
0.0
 11
-1341.081642812713
 21
1626.94514659615
 31
0.0
  0
LWPOLYLINE
  5
B3
330
1F
100
AcDbEntity
  8
0-B_寸法
  6
Continuous
 62
     7
370
     9
100
AcDbPolyline
 90
        4
 70
     1
 43
3.0
 10
-1995.582014010559
 20
1626.94514659615
 42
0.4142135623731
 10
-1997.082014010559
 20
1628.44514659615
 42
0.4142135623731
 10
-1998.582014010559
 20
1626.94514659615
 42
0.4142135623731
 10
-1997.082014010559
 20
1625.44514659615
 42
0.4142135623731
  0
LINE
  5
B4
330
1F
100
AcDbEntity
  8
0-B_寸法
  6
Continuous
 62
   120
370
     5
100
AcDbLine
 10
-2192.082236706397
 20
1086.945146596153
 30
0.0
 11
2211.917020926142
 21
1086.945146596153
 31
0.0
  0
LINE
  5
B5
330
1F
100
AcDbEntity
  8
0-B_寸法
  6
Continuous
 62
   120
370
     5
100
AcDbLine
 10
-2192.082236706397
 20
1266.945146596153
 30
0.0
 11
2211.917020926142
 21
1266.945146596153
 31
0.0
  0
LINE
  5
B6
330
1F
100
AcDbEntity
  8
0-B_寸法
  6
Continuous
 62
   120
370
     5
100
AcDbLine
 10
2031.917911709502
 20
1626.94514659615
 30
0.0
 11
2031.917911709502
 21
1266.945146596153
 31
0.0
  0
LINE
  5
B7
330
1F
100
AcDbEntity
  8
0-B_寸法
  6
Continuous
 62
   120
370
     5
100
AcDbLine
 10
2211.917020926142
 20
1626.94514659615
 30
0.0
 11
2211.917020926142
 21
1086.945146596153
 31
0.0
  0
LWPOLYLINE
  5
B8
330
1F
100
AcDbEntity
  8
0-B_寸法
  6
Continuous
 62
     7
370
     9
100
AcDbPolyline
 90
        4
 70
     1
 43
3.0
 10
2213.417020926142
 20
1086.945146596153
 42
0.4142135623731
 10
2211.917020926142
 20
1088.445146596153
 42
0.4142135623731
 10
2210.417020926142
 20
1086.945146596153
 42
0.4142135623731
 10
2211.917020926142
 20
1085.445146596153
 42
0.4142135623731
  0
LWPOLYLINE
  5
B9
330
1F
100
AcDbEntity
  8
0-B_寸法
  6
Continuous
 62
     7
370
     9
100
AcDbPolyline
 90
        4
 70
     1
 43
3.0
 10
2213.417020926142
 20
1266.945146596153
 42
0.4142135623731
 10
2211.917020926142
 20
1268.445146596153
 42
0.4142135623731
 10
2210.417020926142
 20
1266.945146596153
 42
0.4142135623731
 10
2211.917020926142
 20
1265.445146596153
 42
0.4142135623731
  0
LWPOLYLINE
  5
BA
330
1F
100
AcDbEntity
  8
0-B_寸法
  6
Continuous
 62
     7
370
     9
100
AcDbPolyline
 90
        4
 70
     1
 43
3.0
 10
2033.417911709502
 20
1266.945146596153
 42
0.4142135623731
 10
2031.917911709502
 20
1268.445146596153
 42
0.4142135623731
 10
2030.417911709503
 20
1266.945146596153
 42
0.4142135623731
 10
2031.917911709502
 20
1265.445146596153
 42
0.4142135623731
  0
MTEXT
  5
BB
330
1F
100
AcDbEntity
  8
0-B_寸法
  6
Continuous
 62
     7
370
     0
100
AcDbMText
 10
2061.917268365965
 20
1267.665196084118
 30
0.0
 40
91.44
 41
120.0
 46
0.0
 71
     7
 72
     1
  1
{\fＭＳ ゴシック|b0|i0|c128|p49;30}
 73
     1
 44
1.0
  0
LINE
  5
BC
330
1F
100
AcDbEntity
  8
0-0_補助線
  6
JWW_HOJO
 62
   120
370
     5
100
AcDbLine
 10
2781.917713757646
 20
1446.945146596153
 30
0.0
 11
-2762.081816058703
 21
1446.945146596153
 31
0.0
  0
LINE
  5
BD
330
1F
100
AcDbEntity
  8
0-B_寸法
  6
Continuous
 62
   120
370
     5
100
AcDbLine
 10
-1997.082014010559
 20
1446.945146596153
 30
0.0
 11
2016.918134405343
 21
1446.945146596153
 31
0.0
  0
LINE
  5
BE
330
1F
100
AcDbEntity
  8
0-B_寸法
  6
Continuous
 62
   120
370
     5
100
AcDbLine
 10
-2012.082014010559
 20
1626.94514659615
 30
0.0
 11
-2012.082014010559
 21
1266.945146596153
 31
0.0
  0
LINE
  5
BF
330
1F
100
AcDbEntity
  8
0-B_寸法
  6
Continuous
 62
   120
370
     5
100
AcDbLine
 10
-2192.082236706397
 20
1626.94514659615
 30
0.0
 11
-2192.082236706397
 21
1086.945146596153
 31
0.0
  0
LWPOLYLINE
  5
C0
330
1F
100
AcDbEntity
  8
0-B_寸法
  6
Continuous
 62
     7
370
     9
100
AcDbPolyline
 90
        4
 70
     1
 43
3.0
 10
-2190.582236706398
 20
1086.945146596153
 42
0.4142135623731
 10
-2192.082236706397
 20
1088.445146596153
 42
0.4142135623731
 10
-2193.582236706397
 20
1086.945146596153
 42
0.4142135623731
 10
-2192.082236706397
 20
1085.445146596153
 42
0.4142135623731
  0
LWPOLYLINE
  5
C1
330
1F
100
AcDbEntity
  8
0-B_寸法
  6
Continuous
 62
     7
370
     9
100
AcDbPolyline
 90
        4
 70
     1
 43
3.0
 10
-2010.582014010559
 20
1266.945146596153
 42
0.4142135623731
 10
-2012.082014010559
 20
1268.445146596153
 42
0.4142135623731
 10
-2013.582014010559
 20
1266.945146596153
 42
0.4142135623731
 10
-2012.082014010559
 20
1265.445146596153
 42
0.4142135623731
  0
LWPOLYLINE
  5
C2
330
1F
100
AcDbEntity
  8
0-B_寸法
  6
Continuous
 62
     7
370
     9
100
AcDbPolyline
 90
        4
 70
     1
 43
3.0
 10
-2190.582236706398
 20
1266.945146596153
 42
0.4142135623731
 10
-2192.082236706397
 20
1268.445146596153
 42
0.4142135623731
 10
-2193.582236706397
 20
1266.945146596153
 42
0.4142135623731
 10
-2192.082236706397
 20
1265.445146596153
 42
0.4142135623731
  0
MTEXT
  5
C3
330
1F
100
AcDbEntity
  8
0-B_寸法
  6
Continuous
 62
     7
370
     0
100
AcDbMText
 10
-2162.082323310337
 20
1267.665196084118
 30
0.0
 40
91.44
 41
120.0
 46
0.0
 71
     7
 72
     1
  1
{\fＭＳ ゴシック|b0|i0|c128|p49;30}
 73
     1
 44
1.0
  0
LINE
  5
C4
330
1F
100
AcDbEntity
  8
0-B_寸法
  6
Continuous
 62
   120
370
     5
100
AcDbLine
 10
2016.917911709502
 20
1446.945146596153
 30
0.0
 11
2016.917911709502
 21
1626.94514659615
 31
0.0
  0
LWPOLYLINE
  5
C5
330
1F
100
AcDbEntity
  8
0-B_寸法
  6
Continuous
 62
     7
370
     9
100
AcDbPolyline
 90
        4
 70
     1
 43
3.0
 10
2018.417911709502
 20
1446.945146596153
 42
0.4142135623731
 10
2016.917911709502
 20
1448.445146596153
 42
0.4142135623731
 10
2015.417911709503
 20
1446.945146596153
 42
0.4142135623731
 10
2016.917911709502
 20
1445.445146596153
 42
0.4142135623731
  0
LINE
  5
C6
330
1F
100
AcDbEntity
  8
0-0_補助線
  6
JWW_HOJO
 62
   120
370
     5
100
AcDbLine
 10
2781.917713757646
 20
1086.945146596153
 30
0.0
 11
-2762.081816058703
 21
1086.945146596153
 31
0.0
  0
LINE
  5
C7
330
1F
100
AcDbEntity
  8
0-0_補助線
  6
JWW_HOJO
 62
   120
370
     5
100
AcDbLine
 10
2781.917713757646
 20
1266.945146596153
 30
0.0
 11
-2762.081816058703
 21
1266.945146596153
 31
0.0
  0
LINE
  5
C8
330
1F
100
AcDbEntity
  8
0-0_補助線
  6
JWW_HOJO
 62
   120
370
     5
100
AcDbLine
 10
2781.917713757646
 20
2781.945146596154
 30
0.0
 11
2781.917713757646
 21
1086.945146596153
 31
0.0
  0
LINE
  5
C9
330
1F
100
AcDbEntity
  8
0-B_寸法
  6
Continuous
 62
   120
370
     5
100
AcDbLine
 10
689.9186542293165
 20
1446.945146596153
 30
0.0
 11
689.9186542293165
 21
1626.94514659615
 31
0.0
  0
LINE
  5
CA
330
1F
100
AcDbEntity
  8
0-B_寸法
  6
Continuous
 62
   120
370
     5
100
AcDbLine
 10
677.9186542293172
 20
1446.945146596153
 30
0.0
 11
677.9186542293172
 21
1626.94514659615
 31
0.0
  0
LWPOLYLINE
  5
CB
330
1F
100
AcDbEntity
  8
0-B_寸法
  6
Continuous
 62
     7
370
     9
100
AcDbPolyline
 90
        4
 70
     1
 43
3.0
 10
691.4186542293165
 20
1446.945146596153
 42
0.4142135623731
 10
689.9186542293165
 20
1448.445146596153
 42
0.4142135623731
 10
688.4186542293165
 20
1446.945146596153
 42
0.4142135623731
 10
689.9186542293165
 20
1445.445146596153
 42
0.4142135623731
  0
LWPOLYLINE
  5
CC
330
1F
100
AcDbEntity
  8
0-B_寸法
  6
Continuous
 62
     7
370
     9
100
AcDbPolyline
 90
        4
 70
     1
 43
3.0
 10
679.4186542293172
 20
1446.945146596153
 42
0.4142135623731
 10
677.9186542293172
 20
1448.445146596153
 42
0.4142135623731
 10
676.4186542293172
 20
1446.945146596153
 42
0.4142135623731
 10
677.9186542293172
 20
1445.445146596153
 42
0.4142135623731
  0
LINE
  5
CD
330
1F
100
AcDbEntity
  8
0-B_寸法
  6
Continuous
 62
   120
370
     5
100
AcDbLine
 10
-658.0815685426874
 20
1446.945146596153
 30
0.0
 11
-658.0815685426874
 21
1626.94514659615
 31
0.0
  0
LINE
  5
CE
330
1F
100
AcDbEntity
  8
0-B_寸法
  6
Continuous
 62
   120
370
     5
100
AcDbLine
 10
-670.0815685426858
 20
1446.945146596153
 30
0.0
 11
-670.0815685426858
 21
1626.94514659615
 31
0.0
  0
LWPOLYLINE
  5
CF
330
1F
100
AcDbEntity
  8
0-B_寸法
  6
Continuous
 62
     7
370
     9
100
AcDbPolyline
 90
        4
 70
     1
 43
3.0
 10
-656.5815685426873
 20
1446.945146596153
 42
0.4142135623731
 10
-658.0815685426874
 20
1448.445146596153
 42
0.4142135623731
 10
-659.5815685426874
 20
1446.945146596153
 42
0.4142135623731
 10
-658.0815685426874
 20
1445.445146596153
 42
0.4142135623731
  0
LWPOLYLINE
  5
D0
330
1F
100
AcDbEntity
  8
0-B_寸法
  6
Continuous
 62
     7
370
     9
100
AcDbPolyline
 90
        4
 70
     1
 43
3.0
 10
-668.5815685426858
 20
1446.945146596153
 42
0.4142135623731
 10
-670.0815685426858
 20
1448.445146596153
 42
0.4142135623731
 10
-671.5815685426858
 20
1446.945146596153
 42
0.4142135623731
 10
-670.0815685426858
 20
1445.445146596153
 42
0.4142135623731
  0
LINE
  5
D1
330
1F
100
AcDbEntity
  8
0-0_補助線
  6
JWW_HOJO
 62
   120
370
     5
100
AcDbLine
 10
-2762.081816058703
 20
2781.945146596154
 30
0.0
 11
-2762.081816058703
 21
1086.945146596153
 31
0.0
  0
LINE
  5
D2
330
1F
100
AcDbEntity
  8
0-B_寸法
  6
Continuous
 62
   120
370
     5
100
AcDbLine
 10
-1997.082014010559
 20
1446.945146596153
 30
0.0
 11
-1997.082014010559
 21
1626.94514659615
 31
0.0
  0
LWPOLYLINE
  5
D3
330
1F
100
AcDbEntity
  8
0-B_寸法
  6
Continuous
 62
     7
370
     9
100
AcDbPolyline
 90
        4
 70
     1
 43
3.0
 10
-1995.582014010559
 20
1446.945146596153
 42
0.4142135623731
 10
-1997.082014010559
 20
1448.445146596153
 42
0.4142135623731
 10
-1998.582014010559
 20
1446.945146596153
 42
0.4142135623731
 10
-1997.082014010559
 20
1445.445146596153
 42
0.4142135623731
  0
LINE
  5
D4
330
1F
100
AcDbEntity
  8
0-0_補助線
  6
JWW_HOJO
 62
   120
370
     5
100
AcDbLine
 10
2781.917713757646
 20
1626.94514659615
 30
0.0
 11
-2762.081816058703
 21
1626.94514659615
 31
0.0
  0
MTEXT
  5
D5
330
1F
100
AcDbEntity
  8
0-B_寸法
  6
Continuous
 62
     7
370
     0
100
AcDbMText
 10
-1280.338629870588
 20
2049.164374583906
 30
0.0
 40
91.44
 41
240.0
 46
0.0
 71
     7
 72
     1
  1
{\fＭＳ ゴシック|b0|i0|c128|p49;(24)}
 11
6.123031769111886E-17
 21
1.0
 31
0.0
 73
     1
 44
1.0
  0
MTEXT
  5
D6
330
1F
100
AcDbEntity
  8
0-B_寸法
  6
Continuous
 62
     7
370
   211
100
AcDbMText
 10
-380.0820511505256
 20
2962.665146596154
 30
0.0
 40
91.43999999999997
 41
780.0
 46
0.0
 71
     7
 72
     1
  1
{\fＭＳ ゴシック|b0|i0|c128|p49;ＲＯＷ＝2,578}
 73
     1
 44
1.0
  0
LINE
  5
D7
330
1F
100
AcDbEntity
  8
0-B_寸法
  6
Continuous
 62
   120
370
     5
100
AcDbLine
 10
-2222.08206354651
 20
2961.945146596154
 30
0.0
 11
2241.917911709495
 21
2961.945146596154
 31
0.0
  0
LINE
  5
D8
330
1F
100
AcDbEntity
  8
0-B_寸法
  6
Continuous
 62
   120
370
     5
100
AcDbLine
 10
2241.917911709495
 20
2961.945146596154
 30
0.0
 11
2241.917911709495
 21
2601.945146596156
 31
0.0
  0
LWPOLYLINE
  5
D9
330
1F
100
AcDbEntity
  8
0-B_寸法
  6
Continuous
 62
     7
370
     9
100
AcDbPolyline
 90
        4
 70
     1
 43
3.0
 10
2243.417911709495
 20
2961.945146596154
 42
0.4142135623731
 10
2241.917911709495
 20
2963.445146596154
 42
0.4142135623731
 10
2240.417911709495
 20
2961.945146596154
 42
0.4142135623731
 10
2241.917911709495
 20
2960.445146596154
 42
0.4142135623731
  0
LINE
  5
DA
330
1F
100
AcDbEntity
  8
0-B_寸法
  6
Continuous
 62
   120
370
     5
100
AcDbLine
 10
-2222.08206354651
 20
2961.945146596154
 30
0.0
 11
-2222.08206354651
 21
2601.945146596156
 31
0.0
  0
LWPOLYLINE
  5
DB
330
1F
100
AcDbEntity
  8
0-B_寸法
  6
Continuous
 62
     7
370
     9
100
AcDbPolyline
 90
        4
 70
     1
 43
3.0
 10
-2220.58206354651
 20
2961.945146596154
 42
0.4142135623731
 10
-2222.08206354651
 20
2963.445146596154
 42
0.4142135623731
 10
-2223.58206354651
 20
2961.945146596154
 42
0.4142135623731
 10
-2222.08206354651
 20
2960.445146596154
 42
0.4142135623731
  0
LINE
  5
DC
330
1F
100
AcDbEntity
  8
0-7_金物
  6
Continuous
 62
     7
370
     9
100
AcDbLine
 10
2229.917574108786
 20
2091.944843327723
 30
0.0
 11
2229.917574108786
 21
2271.94470599862
 31
0.0
  0
LINE
  5
DD
330
1F
100
AcDbEntity
  8
0-7_金物
  6
Continuous
 62
     7
370
     9
100
AcDbLine
 10
2241.917911709495
 20
2271.94470599862
 30
0.0
 11
2229.917574108786
 21
2271.94470599862
 31
0.0
  0
LINE
  5
DE
330
1F
100
AcDbEntity
  8
0-7_金物
  6
Continuous
 62
     7
370
     9
100
AcDbLine
 10
2241.917911709495
 20
2091.944843327723
 30
0.0
 11
2229.917574108786
 21
2091.944843327723
 31
0.0
  0
LINE
  5
DF
330
1F
100
AcDbEntity
  8
0-7_金物
  6
Continuous
 62
     7
370
     9
100
AcDbLine
 10
2241.917911709495
 20
2091.944843327723
 30
0.0
 11
2241.917911709495
 21
2271.94470599862
 31
0.0
  0
LINE
  5
E0
330
1F
100
AcDbEntity
  8
0-7_金物
  6
Continuous
 62
     7
370
     9
100
AcDbLine
 10
2229.917574108786
 20
2121.944946324547
 30
0.0
 11
2217.917980374045
 21
2121.944946324547
 31
0.0
  0
LINE
  5
E1
330
1F
100
AcDbEntity
  8
0-7_金物
  6
Continuous
 62
     7
370
     9
100
AcDbLine
 10
2229.917574108786
 20
2241.944603001795
 30
0.0
 11
2217.917980374045
 21
2241.944603001795
 31
0.0
  0
LINE
  5
E2
330
1F
100
AcDbEntity
  8
0-7_金物
  6
Continuous
 62
     7
370
     9
100
AcDbLine
 10
2217.917980374045
 20
2121.944946324547
 30
0.0
 11
2217.917980374045
 21
2241.944603001795
 31
0.0
  0
LINE
  5
E3
330
1F
100
AcDbEntity
  8
0-7_金物
  6
Continuous
 62
     7
370
     9
100
AcDbLine
 10
2217.917980374045
 20
2127.945112263878
 30
0.0
 11
2211.917911709502
 21
2127.945112263878
 31
0.0
  0
LINE
  5
E4
330
1F
100
AcDbEntity
  8
0-7_金物
  6
Continuous
 62
     7
370
     9
100
AcDbLine
 10
2211.917911709502
 20
2235.945180928431
 30
0.0
 11
2217.917980374045
 21
2235.945180928431
 31
0.0
  0
LINE
  5
E5
330
1F
100
AcDbEntity
  8
0-7_金物
  6
Continuous
 62
     7
370
     9
100
AcDbLine
 10
-2210.081725945801
 20
2091.944843327723
 30
0.0
 11
-2210.081725945801
 21
2271.94470599862
 31
0.0
  0
LINE
  5
E6
330
1F
100
AcDbEntity
  8
0-7_金物
  6
Continuous
 62
     7
370
     9
100
AcDbLine
 10
-2222.08206354651
 20
2271.94470599862
 30
0.0
 11
-2210.081725945801
 21
2271.94470599862
 31
0.0
  0
LINE
  5
E7
330
1F
100
AcDbEntity
  8
0-7_金物
  6
Continuous
 62
     7
370
     9
100
AcDbLine
 10
-2222.08206354651
 20
2091.944843327723
 30
0.0
 11
-2210.081725945801
 21
2091.944843327723
 31
0.0
  0
LINE
  5
E8
330
1F
100
AcDbEntity
  8
0-7_金物
  6
Continuous
 62
     7
370
     9
100
AcDbLine
 10
-2222.08206354651
 20
2091.944843327723
 30
0.0
 11
-2222.08206354651
 21
2271.94470599862
 31
0.0
  0
LINE
  5
E9
330
1F
100
AcDbEntity
  8
0-7_金物
  6
Continuous
 62
     7
370
     9
100
AcDbLine
 10
-2210.081725945801
 20
2121.944946324547
 30
0.0
 11
-2198.082132211063
 21
2121.944946324547
 31
0.0
  0
LINE
  5
EA
330
1F
100
AcDbEntity
  8
0-7_金物
  6
Continuous
 62
     7
370
     9
100
AcDbLine
 10
-2210.081725945801
 20
2241.944603001795
 30
0.0
 11
-2198.082132211063
 21
2241.944603001795
 31
0.0
  0
LINE
  5
EB
330
1F
100
AcDbEntity
  8
0-7_金物
  6
Continuous
 62
     7
370
     9
100
AcDbLine
 10
-2198.082132211063
 20
2121.944946324547
 30
0.0
 11
-2198.082132211063
 21
2241.944603001795
 31
0.0
  0
LINE
  5
EC
330
1F
100
AcDbEntity
  8
0-7_金物
  6
Continuous
 62
     7
370
     9
100
AcDbLine
 10
-2198.082132211063
 20
2127.945112263878
 30
0.0
 11
-2192.082063546522
 21
2127.945112263878
 31
0.0
  0
LINE
  5
ED
330
1F
100
AcDbEntity
  8
0-7_金物
  6
Continuous
 62
     7
370
     9
100
AcDbLine
 10
-2192.082063546522
 20
2235.945180928431
 30
0.0
 11
-2198.082132211063
 21
2235.945180928431
 31
0.0
  0
LINE
  5
EE
330
1F
100
AcDbEntity
  8
0-4_枠
  6
Continuous
 62
    92
370
    13
100
AcDbLine
 10
2211.917911709502
 20
2457.945092159393
 30
0.0
 11
2211.917911709502
 21
1905.945943352384
 31
0.0
  0
LINE
  5
EF
330
1F
100
AcDbEntity
  8
0-4_枠
  6
Continuous
 62
    92
370
    13
100
AcDbLine
 10
2049.917911709503
 20
1905.945943352384
 30
0.0
 11
2211.917911709502
 21
1905.945943352384
 31
0.0
  0
LINE
  5
F0
330
1F
100
AcDbEntity
  8
0-4_枠
  6
Continuous
 62
    92
370
    13
100
AcDbLine
 10
2049.918045327008
 20
2457.945092159393
 30
0.0
 11
2211.917911709502
 21
2457.945092159393
 31
0.0
  0
ARC
  5
F1
330
1F
100
AcDbEntity
  8
0-4_枠
  6
Continuous
 62
    92
370
    13
100
AcDbCircle
 10
2049.917911709503
 20
1923.945943352383
 30
0.0
 40
18.0
100
AcDbArc
 50
180.0
 51
270.0
  0
LINE
  5
F2
330
1F
100
AcDbEntity
  8
0-4_枠
  6
Continuous
 62
    92
370
    13
100
AcDbLine
 10
2031.917911709502
 20
1923.945943352383
 30
0.0
 11
2031.917911709502
 21
2439.945329701624
 31
0.0
  0
ARC
  5
F3
330
1F
100
AcDbEntity
  8
0-4_枠
  6
Continuous
 62
    92
370
    13
100
AcDbCircle
 10
2049.918045327008
 20
2439.945329701624
 30
0.0
 40
17.99999878213213
100
AcDbArc
 50
90.0
 51
180.0
  0
LINE
  5
F4
330
1F
100
AcDbEntity
  8
0-4_枠
  6
Continuous
 62
    92
370
    13
100
AcDbLine
 10
-2192.082063546522
 20
2457.945092159393
 30
0.0
 11
-2192.082063546522
 21
1905.945943352384
 31
0.0
  0
LINE
  5
F5
330
1F
100
AcDbEntity
  8
0-4_枠
  6
Continuous
 62
    92
370
    13
100
AcDbLine
 10
-2030.082063546519
 20
1905.945943352384
 30
0.0
 11
-2192.082063546522
 21
1905.945943352384
 31
0.0
  0
LINE
  5
F6
330
1F
100
AcDbEntity
  8
0-4_枠
  6
Continuous
 62
    92
370
    13
100
AcDbLine
 10
-2030.082197164023
 20
2457.945092159393
 30
0.0
 11
-2192.082063546522
 21
2457.945092159393
 31
0.0
  0
ARC
  5
F7
330
1F
100
AcDbEntity
  8
0-4_枠
  6
Continuous
 62
    92
370
    13
100
AcDbCircle
 10
-2030.082063546519
 20
1923.945943352383
 30
0.0
 40
18.0
100
AcDbArc
 50
270.0
 51
0.0
  0
LINE
  5
F8
330
1F
100
AcDbEntity
  8
0-4_枠
  6
Continuous
 62
    92
370
    13
100
AcDbLine
 10
-2012.082063546522
 20
1923.945943352383
 30
0.0
 11
-2012.082063546522
 21
2439.945329701624
 31
0.0
  0
ARC
  5
F9
330
1F
100
AcDbEntity
  8
0-4_枠
  6
Continuous
 62
    92
370
    13
100
AcDbCircle
 10
-2030.082197164023
 20
2439.945329701624
 30
0.0
 40
17.99999878213213
100
AcDbArc
 50
0.0
 51
90.0
  0
LINE
  5
FA
330
1F
100
AcDbEntity
  8
0-C_ハッチ
  6
JWW_DASHED1
 62
   120
370
     5
100
AcDbLine
 10
-2198.931198649124
 20
1998.944899156324
 30
0.0
 11
-2192.082063546522
 21
2005.79403425893
 31
0.0
  0
LINE
  5
FB
330
1F
100
AcDbEntity
  8
0-C_ハッチ
  6
JWW_DASHED1
 62
   120
370
     5
100
AcDbLine
 10
-2241.357605520324
 20
1998.944899156328
 30
0.0
 11
-2192.082063546522
 21
2048.22044113013
 31
0.0
  0
LINE
  5
FC
330
1F
100
AcDbEntity
  8
0-C_ハッチ
  6
JWW_DASHED1
 62
   120
370
     5
100
AcDbLine
 10
2211.917911709502
 20
2039.874101782113
 30
0.0
 11
2245.988956523563
 21
2073.945146596174
 31
0.0
  0
LINE
  5
FD
330
1F
100
AcDbEntity
  8
0-C_ハッチ
  6
Continuous
 62
   120
370
     5
100
AcDbLine
 10
2211.917911709502
 20
2278.087292782611
 30
0.0
 11
2040.989078829864
 21
2449.016125662248
 31
0.0
  0
LINE
  5
FE
330
1F
100
AcDbEntity
  8
0-C_ハッチ
  6
Continuous
 62
   120
370
     5
100
AcDbLine
 10
2211.917911709499
 20
2456.278201641609
 30
0.0
 11
2210.251021191718
 21
2457.94509215939
 31
0.0
  0
LINE
  5
FF
330
1F
100
AcDbEntity
  8
0-C_ハッチ
  6
Continuous
 62
   120
370
     5
100
AcDbLine
 10
2211.917911709499
 20
2396.881232021907
 30
0.0
 11
2150.854051572021
 21
2457.945092159383
 31
0.0
  0
LINE
  5
100
330
1F
100
AcDbEntity
  8
0-C_ハッチ
  6
Continuous
 62
   120
370
     5
100
AcDbLine
 10
2211.917911709495
 20
2337.484262402265
 30
0.0
 11
2091.457081952374
 21
2457.945092159386
 31
0.0
  0
LINE
  5
101
330
1F
100
AcDbEntity
  8
0-C_ハッチ
  6
Continuous
 62
   120
370
     5
100
AcDbLine
 10
2211.917911709489
 20
2218.69032316292
 30
0.0
 11
2031.91791170949
 21
2398.690323162918
 31
0.0
  0
LINE
  5
102
330
1F
100
AcDbEntity
  8
0-C_ハッチ
  6
Continuous
 62
   120
370
     5
100
AcDbLine
 10
2211.917911709492
 20
2159.29335354327
 30
0.0
 11
2031.917911709499
 21
2339.293353543263
 31
0.0
  0
LINE
  5
103
330
1F
100
AcDbEntity
  8
0-C_ハッチ
  6
Continuous
 62
   120
370
     5
100
AcDbLine
 10
2211.917911709484
 20
2099.896383923575
 30
0.0
 11
2031.917911709485
 21
2279.896383923573
 31
0.0
  0
LINE
  5
104
330
1F
100
AcDbEntity
  8
0-C_ハッチ
  6
Continuous
 62
   120
370
     5
100
AcDbLine
 10
2211.917911709497
 20
2040.499414303918
 30
0.0
 11
2031.917911709497
 21
2220.499414303914
 31
0.0
  0
LINE
  5
105
330
1F
100
AcDbEntity
  8
0-C_ハッチ
  6
Continuous
 62
   120
370
     5
100
AcDbLine
 10
2211.917911709492
 20
1981.102444684271
 30
0.0
 11
2031.917911709502
 21
2161.102444684265
 31
0.0
  0
LINE
  5
106
330
1F
100
AcDbEntity
  8
0-C_ハッチ
  6
Continuous
 62
   120
370
     5
100
AcDbLine
 10
2211.91791170949
 20
1921.705475064573
 30
0.0
 11
2031.917911709492
 21
2101.705475064572
 31
0.0
  0
LINE
  5
107
330
1F
100
AcDbEntity
  8
0-C_ハッチ
  6
Continuous
 62
   120
370
     5
100
AcDbLine
 10
2168.280473802049
 20
1905.945943352367
 30
0.0
 11
2031.917911709492
 21
2042.308505444925
 31
0.0
  0
LINE
  5
108
330
1F
100
AcDbEntity
  8
0-C_ハッチ
  6
Continuous
 62
   120
370
     5
100
AcDbLine
 10
2108.883504182347
 20
1905.945943352368
 30
0.0
 11
2031.917911709488
 21
1982.911535825226
 31
0.0
  0
LINE
  5
109
330
1F
100
AcDbEntity
  8
0-C_ハッチ
  6
Continuous
 62
   120
370
     5
100
AcDbLine
 10
2049.486534562689
 20
1905.94594335238
 30
0.0
 11
2031.917911709499
 21
1923.514566205569
 31
0.0
  0
LINE
  5
10A
330
1F
100
AcDbEntity
  8
0-C_ハッチ
  6
JWW_DASHED1
 62
   120
370
     5
100
AcDbLine
 10
2030.518081336588
 20
2072.19038476665
 30
0.0
 11
2028.763319507088
 21
2073.945146596152
 31
0.0
  0
LINE
  5
10B
330
1F
100
AcDbEntity
  8
0-C_ハッチ
  6
Continuous
 62
   120
370
     5
100
AcDbLine
 10
-2192.082063546517
 20
2278.087292782611
 30
0.0
 11
-2021.15323066688
 21
2449.016125662248
 31
0.0
  0
LINE
  5
10C
330
1F
100
AcDbEntity
  8
0-C_ハッチ
  6
Continuous
 62
   120
370
     5
100
AcDbLine
 10
-2192.082063546515
 20
2456.278201641609
 30
0.0
 11
-2190.415173028734
 21
2457.94509215939
 31
0.0
  0
LINE
  5
10D
330
1F
100
AcDbEntity
  8
0-C_ハッチ
  6
Continuous
 62
   120
370
     5
100
AcDbLine
 10
-2192.082063546515
 20
2396.881232021907
 30
0.0
 11
-2131.018203409039
 21
2457.945092159383
 31
0.0
  0
LINE
  5
10E
330
1F
100
AcDbEntity
  8
0-C_ハッチ
  6
Continuous
 62
   120
370
     5
100
AcDbLine
 10
-2192.08206354651
 20
2337.484262402265
 30
0.0
 11
-2071.621233789392
 21
2457.945092159386
 31
0.0
  0
LINE
  5
10F
330
1F
100
AcDbEntity
  8
0-C_ハッチ
  6
Continuous
 62
   120
370
     5
100
AcDbLine
 10
-2192.082063546508
 20
2218.69032316292
 30
0.0
 11
-2012.082063546508
 21
2398.690323162918
 31
0.0
  0
LINE
  5
110
330
1F
100
AcDbEntity
  8
0-C_ハッチ
  6
Continuous
 62
   120
370
     5
100
AcDbLine
 10
-2192.082063546508
 20
2159.29335354327
 30
0.0
 11
-2012.082063546515
 21
2339.293353543263
 31
0.0
  0
LINE
  5
111
330
1F
100
AcDbEntity
  8
0-C_ハッチ
  6
Continuous
 62
   120
370
     5
100
AcDbLine
 10
-2192.082063546502
 20
2099.896383923575
 30
0.0
 11
-2012.082063546502
 21
2279.896383923573
 31
0.0
  0
LINE
  5
112
330
1F
100
AcDbEntity
  8
0-C_ハッチ
  6
Continuous
 62
   120
370
     5
100
AcDbLine
 10
-2192.082063546515
 20
2040.499414303918
 30
0.0
 11
-2012.082063546515
 21
2220.499414303914
 31
0.0
  0
LINE
  5
113
330
1F
100
AcDbEntity
  8
0-C_ハッチ
  6
Continuous
 62
   120
370
     5
100
AcDbLine
 10
-2192.082063546508
 20
1981.102444684271
 30
0.0
 11
-2012.082063546517
 21
2161.102444684265
 31
0.0
  0
LINE
  5
114
330
1F
100
AcDbEntity
  8
0-C_ハッチ
  6
Continuous
 62
   120
370
     5
100
AcDbLine
 10
-2192.082063546508
 20
1921.705475064573
 30
0.0
 11
-2012.082063546508
 21
2101.705475064572
 31
0.0
  0
LINE
  5
115
330
1F
100
AcDbEntity
  8
0-C_ハッチ
  6
Continuous
 62
   120
370
     5
100
AcDbLine
 10
-2148.444625639064
 20
1905.945943352367
 30
0.0
 11
-2012.082063546508
 21
2042.308505444925
 31
0.0
  0
LINE
  5
116
330
1F
100
AcDbEntity
  8
0-C_ハッチ
  6
Continuous
 62
   120
370
     5
100
AcDbLine
 10
-2089.047656019362
 20
1905.945943352368
 30
0.0
 11
-2012.082063546503
 21
1982.911535825226
 31
0.0
  0
LINE
  5
117
330
1F
100
AcDbEntity
  8
0-C_ハッチ
  6
Continuous
 62
   120
370
     5
100
AcDbLine
 10
-2029.650686399707
 20
1905.94594335238
 30
0.0
 11
-2012.082063546515
 21
1923.514566205569
 31
0.0
  0
LINE
  5
118
330
1F
100
AcDbEntity
  8
0-C_ハッチ
  6
JWW_DASHED1
 62
   120
370
     5
100
AcDbLine
 10
2764.958652720236
 20
1998.945146596157
 30
0.0
 11
2781.917713757639
 21
2015.90420763356
 31
0.0
  0
LINE
  5
119
330
1F
100
AcDbEntity
  8
0-C_ハッチ
  6
JWW_DASHED1
 62
   120
370
     5
100
AcDbLine
 10
2722.532245849098
 20
1998.945146596163
 30
0.0
 11
2781.917713757639
 21
2058.330614504704
 31
0.0
  0
LINE
  5
11A
330
1F
100
AcDbEntity
  8
0-C_ハッチ
  6
JWW_DASHED1
 62
   120
370
     5
100
AcDbLine
 10
2680.105838977901
 20
1998.945146596167
 30
0.0
 11
2755.105838977898
 21
2073.945146596163
 31
0.0
  0
LINE
  5
11B
330
1F
100
AcDbEntity
  8
0-C_ハッチ
  6
JWW_DASHED1
 62
   120
370
     5
100
AcDbLine
 10
2637.679432106705
 20
1998.94514659617
 30
0.0
 11
2712.679432106701
 21
2073.945146596167
 31
0.0
  0
LINE
  5
11C
330
1F
100
AcDbEntity
  8
0-C_ハッチ
  6
JWW_DASHED1
 62
   120
370
     5
100
AcDbLine
 10
2595.253025235498
 20
1998.945146596163
 30
0.0
 11
2670.253025235491
 21
2073.945146596157
 31
0.0
  0
LINE
  5
11D
330
1F
100
AcDbEntity
  8
0-C_ハッチ
  6
JWW_DASHED1
 62
   120
370
     5
100
AcDbLine
 10
2552.826618364301
 20
1998.945146596167
 30
0.0
 11
2627.826618364295
 21
2073.94514659616
 31
0.0
  0
LINE
  5
11E
330
1F
100
AcDbEntity
  8
0-C_ハッチ
  6
JWW_DASHED1
 62
   120
370
     5
100
AcDbLine
 10
2510.400211493091
 20
1998.945146596156
 30
0.0
 11
2585.4002114931
 21
2073.945146596166
 31
0.0
  0
LINE
  5
11F
330
1F
100
AcDbEntity
  8
0-C_ハッチ
  6
JWW_DASHED1
 62
   120
370
     5
100
AcDbLine
 10
2467.973804621886
 20
1998.945146596152
 30
0.0
 11
2542.973804621898
 21
2073.945146596163
 31
0.0
  0
LINE
  5
120
330
1F
100
AcDbEntity
  8
0-C_ハッチ
  6
JWW_DASHED1
 62
   120
370
     5
100
AcDbLine
 10
2425.547397750691
 20
1998.945146596156
 30
0.0
 11
2500.547397750684
 21
2073.945146596152
 31
0.0
  0
LINE
  5
121
330
1F
100
AcDbEntity
  8
0-C_ハッチ
  6
JWW_DASHED1
 62
   120
370
     5
100
AcDbLine
 10
2383.120990879552
 20
1998.945146596162
 30
0.0
 11
2458.120990879547
 21
2073.945146596159
 31
0.0
  0
LINE
  5
122
330
1F
100
AcDbEntity
  8
0-C_ハッチ
  6
JWW_DASHED1
 62
   120
370
     5
100
AcDbLine
 10
2340.694584008354
 20
1998.945146596166
 30
0.0
 11
2415.694584008352
 21
2073.945146596162
 31
0.0
  0
LINE
  5
123
330
1F
100
AcDbEntity
  8
0-C_ハッチ
  6
JWW_DASHED1
 62
   120
370
     5
100
AcDbLine
 10
2298.268177137159
 20
1998.945146596169
 30
0.0
 11
2373.268177137154
 21
2073.945146596166
 31
0.0
  0
LINE
  5
124
330
1F
100
AcDbEntity
  8
0-C_ハッチ
  6
JWW_DASHED1
 62
   120
370
     5
100
AcDbLine
 10
2255.841770265959
 20
1998.94514659617
 30
0.0
 11
2330.841770265952
 21
2073.945146596166
 31
0.0
  0
LINE
  5
125
330
1F
100
AcDbEntity
  8
0-C_ハッチ
  6
JWW_DASHED1
 62
   120
370
     5
100
AcDbLine
 10
2213.415363394747
 20
1998.945146596159
 30
0.0
 11
2288.415363394759
 21
2073.945146596169
 31
0.0
  0
LINE
  5
126
330
1F
100
AcDbEntity
  8
0-C_ハッチ
  6
JWW_DASHED1
 62
   120
370
     5
100
AcDbLine
 10
-2283.784012391531
 20
1998.944899156318
 30
0.0
 11
-2208.783764951706
 21
2073.945146596149
 31
0.0
  0
LINE
  5
127
330
1F
100
AcDbEntity
  8
0-C_ハッチ
  6
JWW_DASHED1
 62
   120
370
     5
100
AcDbLine
 10
-2326.210419262731
 20
1998.944899156324
 30
0.0
 11
-2251.210171822899
 21
2073.945146596153
 31
0.0
  0
LINE
  5
128
330
1F
100
AcDbEntity
  8
0-C_ハッチ
  6
JWW_DASHED1
 62
   120
370
     5
100
AcDbLine
 10
-2368.636826133924
 20
1998.944899156328
 30
0.0
 11
-2293.636578694092
 21
2073.945146596159
 31
0.0
  0
LINE
  5
129
330
1F
100
AcDbEntity
  8
0-C_ハッチ
  6
JWW_DASHED1
 62
   120
370
     5
100
AcDbLine
 10
-2411.063233005124
 20
1998.944899156324
 30
0.0
 11
-2336.062985565292
 21
2073.945146596159
 31
0.0
  0
LINE
  5
12A
330
1F
100
AcDbEntity
  8
0-C_ハッチ
  6
JWW_DASHED1
 62
   120
370
     5
100
AcDbLine
 10
-2453.489639876283
 20
1998.944899156318
 30
0.0
 11
-2378.489392436445
 21
2073.94514659615
 31
0.0
  0
LINE
  5
12B
330
1F
100
AcDbEntity
  8
0-C_ハッチ
  6
JWW_DASHED1
 62
   120
370
     5
100
AcDbLine
 10
-2495.916046747477
 20
1998.944899156321
 30
0.0
 11
-2420.915799307645
 21
2073.945146596153
 31
0.0
  0
LINE
  5
12C
330
1F
100
AcDbEntity
  8
0-C_ハッチ
  6
JWW_DASHED1
 62
   120
370
     5
100
AcDbLine
 10
-2538.342453618677
 20
1998.944899156324
 30
0.0
 11
-2463.342206178845
 21
2073.945146596156
 31
0.0
  0
LINE
  5
12D
330
1F
100
AcDbEntity
  8
0-C_ハッチ
  6
JWW_DASHED1
 62
   120
370
     5
100
AcDbLine
 10
-2580.76886048987
 20
1998.944899156327
 30
0.0
 11
-2505.768613050038
 21
2073.94514659616
 31
0.0
  0
LINE
  5
12E
330
1F
100
AcDbEntity
  8
0-C_ハッチ
  6
JWW_DASHED1
 62
   120
370
     5
100
AcDbLine
 10
-2623.19526736107
 20
1998.944899156327
 30
0.0
 11
-2548.195019921238
 21
2073.945146596157
 31
0.0
  0
LINE
  5
12F
330
1F
100
AcDbEntity
  8
0-C_ハッチ
  6
JWW_DASHED1
 62
   120
370
     5
100
AcDbLine
 10
-2665.621674232263
 20
1998.944899156331
 30
0.0
 11
-2590.621426792438
 21
2073.94514659616
 31
0.0
  0
LINE
  5
130
330
1F
100
AcDbEntity
  8
0-C_ハッチ
  6
JWW_DASHED1
 62
   120
370
     5
100
AcDbLine
 10
-2708.048081103463
 20
1998.944899156335
 30
0.0
 11
-2633.047833663631
 21
2073.945146596166
 31
0.0
  0
LINE
  5
131
330
1F
100
AcDbEntity
  8
0-C_ハッチ
  6
JWW_DASHED1
 62
   120
370
     5
100
AcDbLine
 10
-2750.47448797469
 20
1998.944899156307
 30
0.0
 11
-2675.474240534858
 21
2073.945146596142
 31
0.0
  0
LINE
  5
132
330
1F
100
AcDbEntity
  8
0-C_ハッチ
  6
JWW_DASHED1
 62
   120
370
     5
100
AcDbLine
 10
-2762.081816106683
 20
2029.763977895459
 30
0.0
 11
-2717.900647405997
 21
2073.945146596149
 31
0.0
  0
MTEXT
  5
133
330
1F
100
AcDbEntity
  8
0-B_寸法
  6
Continuous
 62
     7
370
     0
100
AcDbMText
 10
-1436.295720047657
 20
2109.164374583909
 30
0.0
 40
91.44
 41
120.0
 46
0.0
 71
     7
 72
     1
  1
{\fＭＳ ゴシック|b0|i0|c128|p49;27}
 11
6.123031769111886E-17
 21
1.0
 31
0.0
 73
     1
 44
1.0
  0
LWPOLYLINE
  5
134
330
1F
100
AcDbEntity
  8
0-B_寸法
  6
Continuous
 62
     7
370
     9
100
AcDbPolyline
 90
        4
 70
     1
 43
3.0
 10
-1419.795670559695
 20
2100.944503252615
 42
0.4142135623731
 10
-1421.295670559695
 20
2102.444503252615
 42
0.4142135623731
 10
-1422.795670559695
 20
2100.944503252615
 42
0.4142135623731
 10
-1421.295670559695
 20
2099.444503252615
 42
0.4142135623731
  0
LWPOLYLINE
  5
135
330
1F
100
AcDbEntity
  8
0-B_寸法
  6
Continuous
 62
     7
370
     9
100
AcDbPolyline
 90
        4
 70
     1
 43
3.0
 10
-1419.795670559695
 20
2262.945146596157
 42
0.4142135623731
 10
-1421.295670559695
 20
2264.445146596157
 42
0.4142135623731
 10
-1422.795670559695
 20
2262.945146596157
 42
0.4142135623731
 10
-1421.295670559695
 20
2261.445146596157
 42
0.4142135623731
  0
LINE
  5
136
330
1F
100
AcDbEntity
  8
0-B_寸法
  6
Continuous
 62
   120
370
     5
100
AcDbLine
 10
-1421.295670559695
 20
2100.944503252615
 30
0.0
 11
-1421.295670559695
 21
2262.945146596157
 31
0.0
  0
MTEXT
  5
137
330
1F
100
AcDbEntity
  8
0-B_寸法
  6
Continuous
 62
     7
370
     9
100
AcDbMText
 10
-1679.40650760981
 20
2107.874763171833
 30
0.0
 40
91.44
 41
120.0
 46
0.0
 71
     7
 72
     1
  1
{\fＭＳ ゴシック|b0|i0|c128|p49;92}
 11
6.123031769111886E-17
 21
1.0
 31
0.0
 73
     1
 44
1.0
  0
LINE
  5
138
330
1F
100
AcDbEntity
  8
0-B_寸法
  6
Continuous
 62
   120
370
     5
100
AcDbLine
 10
-1664.405344642643
 20
1905.945943352384
 30
0.0
 11
-1664.405344642643
 21
2457.945092159393
 31
0.0
  0
LINE
  5
139
330
1F
100
AcDbEntity
  8
0-B_寸法
  6
Continuous
 62
   120
370
     5
100
AcDbLine
 10
-1783.180913424316
 20
2457.945092159393
 30
0.0
 11
-1664.405344642643
 21
2457.945092159393
 31
0.0
  0
LWPOLYLINE
  5
13A
330
1F
100
AcDbEntity
  8
0-B_寸法
  6
Continuous
 62
     7
370
     9
100
AcDbPolyline
 90
        4
 70
     1
 43
3.0
 10
-1662.905344642643
 20
2457.945092159393
 42
0.4142135623731
 10
-1664.405344642643
 20
2459.445092159393
 42
0.4142135623731
 10
-1665.905344642643
 20
2457.945092159393
 42
0.4142135623731
 10
-1664.405344642643
 20
2456.445092159393
 42
0.4142135623731
  0
LINE
  5
13B
330
1F
100
AcDbEntity
  8
0-B_寸法
  6
Continuous
 62
   120
370
     5
100
AcDbLine
 10
-1783.180913424316
 20
1905.945943352384
 30
0.0
 11
-1664.405344642643
 21
1905.945943352384
 31
0.0
  0
LWPOLYLINE
  5
13C
330
1F
100
AcDbEntity
  8
0-B_寸法
  6
Continuous
 62
     7
370
     9
100
AcDbPolyline
 90
        4
 70
     1
 43
3.0
 10
-1662.905344642643
 20
1905.945943352384
 42
0.4142135623731
 10
-1664.405344642643
 20
1907.445943352384
 42
0.4142135623731
 10
-1665.905344642643
 20
1905.945943352384
 42
0.4142135623731
 10
-1664.405344642643
 20
1904.445943352385
 42
0.4142135623731
  0
LINE
  5
13D
330
1F
100
AcDbEntity
  8
0-3_仕上げ
  6
Continuous
 62
    40
370
    15
100
AcDbLine
 10
-2192.082063546522
 20
1998.945146596156
 30
0.0
 11
-2763.481646479608
 21
1998.945146596156
 31
0.0
  0
LINE
  5
13E
330
1F
100
AcDbEntity
  8
0-3_仕上げ
  6
Continuous
 62
    40
370
    15
100
AcDbLine
 10
-2192.082063546522
 20
2073.945146596156
 30
0.0
 11
-2763.481646479608
 21
2073.945146596156
 31
0.0
  0
LINE
  5
13F
330
1F
100
AcDbEntity
  8
0-3_仕上げ
  6
Continuous
 62
    40
370
    15
100
AcDbLine
 10
2211.917911709502
 20
1998.945146596156
 30
0.0
 11
2782.782202556291
 21
1998.945146596156
 31
0.0
  0
LINE
  5
140
330
1F
100
AcDbEntity
  8
0-3_仕上げ
  6
Continuous
 62
    40
370
    15
100
AcDbLine
 10
2211.917911709502
 20
2073.945146596156
 30
0.0
 11
2782.782202556291
 21
2073.945146596156
 31
0.0
  0
LINE
  5
141
330
1F
100
AcDbEntity
  8
0-B_寸法
  6
Continuous
 62
   120
370
     5
100
AcDbLine
 10
-2012.082063546522
 20
2144.359196303693
 30
0.0
 11
-1997.082014058553
 21
2144.359196303693
 31
0.0
  0
LINE
  5
142
330
1F
100
AcDbEntity
  8
0-B_寸法
  6
Continuous
 62
   120
370
     5
100
AcDbLine
 10
-1997.082014058553
 20
2225.688459526879
 30
0.0
 11
-1997.082014058553
 21
2144.359196303693
 31
0.0
  0
LINE
  5
143
330
1F
100
AcDbEntity
  8
0-B_寸法
  6
Continuous
 62
   120
370
     5
100
AcDbLine
 10
-2012.082063546522
 20
2225.688459526879
 30
0.0
 11
-2012.082063546522
 21
2144.359196303693
 31
0.0
  0
LWPOLYLINE
  5
144
330
1F
100
AcDbEntity
  8
0-B_寸法
  6
Continuous
 62
     7
370
     9
100
AcDbPolyline
 90
        4
 70
     1
 43
3.0
 10
-2010.582063546522
 20
2144.359196303693
 42
0.4142135623731
 10
-2012.082063546522
 20
2145.859196303693
 42
0.4142135623731
 10
-2013.582063546522
 20
2144.359196303693
 42
0.4142135623731
 10
-2012.082063546522
 20
2142.859196303693
 42
0.4142135623731
  0
LWPOLYLINE
  5
145
330
1F
100
AcDbEntity
  8
0-B_寸法
  6
Continuous
 62
     7
370
     9
100
AcDbPolyline
 90
        4
 70
     1
 43
3.0
 10
-1995.582014058553
 20
2144.359196303693
 42
0.4142135623731
 10
-1997.082014058553
 20
2145.859196303693
 42
0.4142135623731
 10
-1998.582014058553
 20
2144.359196303693
 42
0.4142135623731
 10
-1997.082014058553
 20
2142.859196303693
 42
0.4142135623731
  0
MTEXT
  5
146
330
1F
100
AcDbEntity
  8
0-B_寸法
  6
Continuous
 62
     7
370
     9
100
AcDbMText
 10
-1987.002545324816
 20
2131.828631193027
 30
0.0
 40
91.43999999999913
 41
179.9999999999983
 46
0.0
 71
     7
 72
     1
  1
{\fＭＳ ゴシック|b0|i0|c128|p49;2.5}
 73
     1
 44
1.0
  0
LINE
  5
147
330
1F
100
AcDbEntity
  8
0-0_補助線
  6
JWW_HOJO
 62
   120
370
     5
100
AcDbLine
 10
2781.917713757646
 20
2961.945146596154
 30
0.0
 11
-2762.081816058703
 21
2961.945146596154
 31
0.0
  0
LINE
  5
148
330
1F
100
AcDbEntity
  8
0-6_扉
  6
Continuous
 62
   200
370
    20
100
AcDbLine
 10
2016.917911709502
 20
2262.946443180826
 30
0.0
 11
2016.917911709502
 21
2100.945146596155
 31
0.0
  0
LINE
  5
149
330
1F
100
AcDbEntity
  8
0-6_扉
  6
Continuous
 62
   200
370
    20
100
AcDbLine
 10
1718.918320104424
 20
2262.945146596157
 30
0.0
 11
2016.917911709502
 21
2262.945146596157
 31
0.0
  0
LINE
  5
14A
330
1F
100
AcDbEntity
  8
0-6_扉
  6
Continuous
 62
   200
370
    20
100
AcDbLine
 10
1718.918320104424
 20
2100.944503252615
 30
0.0
 11
2016.917911709502
 21
2100.944503252615
 31
0.0
  0
LINE
  5
14B
330
1F
100
AcDbEntity
  8
0-1_通り芯
  6
JWW_CENTER1
 62
   120
370
     5
100
AcDbLine
 10
2781.917713757646
 20
2181.945146596156
 30
0.0
 11
-2762.081816058703
 21
2181.945146596156
 31
0.0
  0
LINE
  5
14C
330
1F
100
AcDbEntity
  8
0-6_扉
  6
Continuous
 62
   200
370
    20
100
AcDbLine
 10
1360.918728499346
 20
2100.944503252615
 30
0.0
 11
1658.918320104424
 21
2100.944503252615
 31
0.0
  0
LINE
  5
14D
330
1F
100
AcDbEntity
  8
0-6_扉
  6
Continuous
 62
   200
370
    20
100
AcDbLine
 10
1360.918728499346
 20
2262.945146596157
 30
0.0
 11
1658.918320104424
 21
2262.945146596157
 31
0.0
  0
LINE
  5
14E
330
1F
100
AcDbEntity
  8
0-0_補助線
  6
JWW_HOJO
 62
     7
370
     9
100
AcDbLine
 10
1658.918320104424
 20
2262.945146596157
 30
0.0
 11
1658.918320104424
 21
2100.944503252615
 31
0.0
  0
LINE
  5
14F
330
1F
100
AcDbEntity
  8
0-6_扉
  6
Continuous
 62
   200
370
    20
100
AcDbLine
 10
1052.418728480304
 20
2100.944503252615
 30
0.0
 11
1354.91880273129
 21
2100.944503252615
 31
0.0
  0
LINE
  5
150
330
1F
100
AcDbEntity
  8
0-6_扉
  6
Continuous
 62
   200
370
    20
100
AcDbLine
 10
1052.418728480304
 20
2262.945146596157
 30
0.0
 11
1354.91880273129
 21
2262.945146596157
 31
0.0
  0
LINE
  5
151
330
1F
100
AcDbEntity
  8
0-6_扉
  6
Continuous
 62
   200
370
    20
100
AcDbLine
 10
1360.918728499346
 20
2262.945146596157
 30
0.0
 11
1360.918728499346
 21
2100.944503252615
 31
0.0
  0
LINE
  5
152
330
1F
100
AcDbEntity
  8
0-6_扉
  6
Continuous
 62
   200
370
    20
100
AcDbLine
 10
1354.91880273129
 20
2262.945146596157
 30
0.0
 11
1354.91880273129
 21
2100.944503252615
 31
0.0
  0
CIRCLE
  5
153
330
1F
100
AcDbEntity
  8
0-7_金物
  6
Continuous
 62
     7
370
     9
100
AcDbCircle
 10
1357.918765615318
 20
2292.945146596157
 30
0.0
 40
30.0
  0
CIRCLE
  5
154
330
1F
100
AcDbEntity
  8
0-7_金物
  6
Continuous
 62
     7
370
     9
100
AcDbCircle
 10
1357.918765615318
 20
2292.945146596157
 30
0.0
 40
21.00000000000001
  0
LINE
  5
155
330
1F
100
AcDbEntity
  8
0-6_扉
  6
Continuous
 62
   200
370
    20
100
AcDbLine
 10
689.9186542293165
 20
2262.945146596157
 30
0.0
 11
689.9186542293165
 21
2100.944503252615
 31
0.0
  0
LINE
  5
156
330
1F
100
AcDbEntity
  8
0-6_扉
  6
Continuous
 62
   200
370
    20
100
AcDbLine
 10
677.9186542293172
 20
2262.945146596157
 30
0.0
 11
677.9186542293172
 21
2100.944503252615
 31
0.0
  0
LINE
  5
157
330
1F
100
AcDbEntity
  8
0-6_扉
  6
Continuous
 62
   200
370
    20
100
AcDbLine
 10
375.4185799783295
 20
2262.945146596157
 30
0.0
 11
677.9186542293172
 21
2262.945146596157
 31
0.0
  0
LINE
  5
158
330
1F
100
AcDbEntity
  8
0-6_扉
  6
Continuous
 62
   200
370
    20
100
AcDbLine
 10
375.4185799783295
 20
2100.944503252615
 30
0.0
 11
677.9186542293172
 21
2100.944503252615
 31
0.0
  0
LINE
  5
159
330
1F
100
AcDbEntity
  8
0-0_補助線
  6
JWW_HOJO
 62
     7
370
     9
100
AcDbLine
 10
375.4185799783295
 20
2262.945146596157
 30
0.0
 11
375.4185799783295
 21
2100.944503252615
 31
0.0
  0
LINE
  5
15A
330
1F
100
AcDbEntity
  8
0-0_補助線
  6
JWW_HOJO
 62
     7
370
     9
100
AcDbLine
 10
315.4185799783295
 20
2262.945146596157
 30
0.0
 11
315.4185799783295
 21
2100.944503252615
 31
0.0
  0
LINE
  5
15B
330
1F
100
AcDbEntity
  8
0-6_扉
  6
Continuous
 62
   200
370
    20
100
AcDbLine
 10
12.91850572734177
 20
2262.945146596157
 30
0.0
 11
315.4185799783295
 21
2262.945146596157
 31
0.0
  0
LINE
  5
15C
330
1F
100
AcDbEntity
  8
0-6_扉
  6
Continuous
 62
   200
370
    20
100
AcDbLine
 10
12.91850572734177
 20
2100.944503252615
 30
0.0
 11
315.4185799783295
 21
2100.944503252615
 31
0.0
  0
CIRCLE
  5
15D
330
1F
100
AcDbEntity
  8
0-7_金物
  6
Continuous
 62
     7
370
     9
100
AcDbCircle
 10
9.918542843316231
 20
2292.945146596157
 30
0.0
 40
30.0
  0
CIRCLE
  5
15E
330
1F
100
AcDbEntity
  8
0-7_金物
  6
Continuous
 62
     7
370
     9
100
AcDbCircle
 10
9.918542843316231
 20
2292.945146596157
 30
0.0
 40
21.00000000000001
  0
LINE
  5
15F
330
1F
100
AcDbEntity
  8
0-6_扉
  6
Continuous
 62
   200
370
    20
100
AcDbLine
 10
6.918579959289417
 20
2262.945146596157
 30
0.0
 11
6.918579959289417
 21
2100.944503252615
 31
0.0
  0
LINE
  5
160
330
1F
100
AcDbEntity
  8
0-6_扉
  6
Continuous
 62
   200
370
    20
100
AcDbLine
 10
12.91850572734177
 20
2262.945146596157
 30
0.0
 11
12.91850572734177
 21
2100.944503252615
 31
0.0
  0
LINE
  5
161
330
1F
100
AcDbEntity
  8
0-6_扉
  6
Continuous
 62
   200
370
    20
100
AcDbLine
 10
-295.5814942917004
 20
2262.945146596157
 30
0.0
 11
6.918579959289417
 21
2262.945146596157
 31
0.0
  0
LINE
  5
162
330
1F
100
AcDbEntity
  8
0-6_扉
  6
Continuous
 62
   200
370
    20
100
AcDbLine
 10
-295.5814942917004
 20
2100.944503252615
 30
0.0
 11
6.918579959289417
 21
2100.944503252615
 31
0.0
  0
LINE
  5
163
330
1F
100
AcDbEntity
  8
0-0_補助線
  6
JWW_HOJO
 62
     7
370
     9
100
AcDbLine
 10
-295.5814942917004
 20
2262.945146596157
 30
0.0
 11
-295.5814942917004
 21
2100.944503252615
 31
0.0
  0
LINE
  5
164
330
1F
100
AcDbEntity
  8
0-0_補助線
  6
JWW_HOJO
 62
     7
370
     9
100
AcDbLine
 10
-355.5814942917004
 20
2262.945146596157
 30
0.0
 11
-355.5814942917004
 21
2100.944503252615
 31
0.0
  0
LINE
  5
165
330
1F
100
AcDbEntity
  8
0-6_扉
  6
Continuous
 62
   200
370
    20
100
AcDbLine
 10
-658.0815685426874
 20
2262.945146596157
 30
0.0
 11
-355.5814942917004
 21
2262.945146596157
 31
0.0
  0
LINE
  5
166
330
1F
100
AcDbEntity
  8
0-6_扉
  6
Continuous
 62
   200
370
    20
100
AcDbLine
 10
-658.0815685426874
 20
2100.944503252615
 30
0.0
 11
-355.5814942917004
 21
2100.944503252615
 31
0.0
  0
LINE
  5
167
330
1F
100
AcDbEntity
  8
0-6_扉
  6
Continuous
 62
   200
370
    20
100
AcDbLine
 10
-658.0815685426874
 20
2262.945146596157
 30
0.0
 11
-658.0815685426874
 21
2100.944503252615
 31
0.0
  0
LINE
  5
168
330
1F
100
AcDbEntity
  8
0-6_扉
  6
Continuous
 62
   200
370
    20
100
AcDbLine
 10
-670.0815685426858
 20
2262.945146596157
 30
0.0
 11
-670.0815685426858
 21
2100.944503252615
 31
0.0
  0
LINE
  5
169
330
1F
100
AcDbEntity
  8
0-6_扉
  6
Continuous
 62
   200
370
    20
100
AcDbLine
 10
-972.5816427936718
 20
2262.945146596157
 30
0.0
 11
-670.0815685426858
 21
2262.945146596157
 31
0.0
  0
LINE
  5
16A
330
1F
100
AcDbEntity
  8
0-6_扉
  6
Continuous
 62
   200
370
    20
100
AcDbLine
 10
-972.5816427936718
 20
2100.944503252615
 30
0.0
 11
-670.0815685426858
 21
2100.944503252615
 31
0.0
  0
LINE
  5
16B
330
1F
100
AcDbEntity
  8
0-0_補助線
  6
JWW_HOJO
 62
     7
370
     9
100
AcDbLine
 10
-972.5816427936718
 20
2262.945146596157
 30
0.0
 11
-972.5816427936718
 21
2100.944503252615
 31
0.0
  0
LINE
  5
16C
330
1F
100
AcDbEntity
  8
0-0_補助線
  6
JWW_HOJO
 62
     7
370
     9
100
AcDbLine
 10
-1032.581642793672
 20
2262.945146596157
 30
0.0
 11
-1032.581642793672
 21
2100.944503252615
 31
0.0
  0
LINE
  5
16D
330
1F
100
AcDbEntity
  8
0-6_扉
  6
Continuous
 62
   200
370
    20
100
AcDbLine
 10
-1335.081717044662
 20
2262.945146596157
 30
0.0
 11
-1032.581642793672
 21
2262.945146596157
 31
0.0
  0
LINE
  5
16E
330
1F
100
AcDbEntity
  8
0-6_扉
  6
Continuous
 62
   200
370
    20
100
AcDbLine
 10
-1335.081717044662
 20
2100.944503252615
 30
0.0
 11
-1032.581642793672
 21
2100.944503252615
 31
0.0
  0
CIRCLE
  5
16F
330
1F
100
AcDbEntity
  8
0-7_金物
  6
Continuous
 62
     7
370
     9
100
AcDbCircle
 10
-1338.081679928688
 20
2292.945146596157
 30
0.0
 40
21.00000000000001
  0
CIRCLE
  5
170
330
1F
100
AcDbEntity
  8
0-7_金物
  6
Continuous
 62
     7
370
     9
100
AcDbCircle
 10
-1338.081679928688
 20
2292.945146596157
 30
0.0
 40
30.0
  0
LINE
  5
171
330
1F
100
AcDbEntity
  8
0-6_扉
  6
Continuous
 62
   200
370
    20
100
AcDbLine
 10
-1341.081642812713
 20
2262.945146596157
 30
0.0
 11
-1341.081642812713
 21
2100.944503252615
 31
0.0
  0
LINE
  5
172
330
1F
100
AcDbEntity
  8
0-6_扉
  6
Continuous
 62
   200
370
    20
100
AcDbLine
 10
-1335.081717044662
 20
2262.945146596157
 30
0.0
 11
-1335.081717044662
 21
2100.944503252615
 31
0.0
  0
LINE
  5
173
330
1F
100
AcDbEntity
  8
0-6_扉
  6
Continuous
 62
   200
370
    20
100
AcDbLine
 10
-1639.08182841164
 20
2262.945146596157
 30
0.0
 11
-1341.081642812713
 21
2262.945146596157
 31
0.0
  0
LINE
  5
174
330
1F
100
AcDbEntity
  8
0-6_扉
  6
Continuous
 62
   200
370
    20
100
AcDbLine
 10
-1639.08182841164
 20
2100.944503252615
 30
0.0
 11
-1341.081642812713
 21
2100.944503252615
 31
0.0
  0
LINE
  5
175
330
1F
100
AcDbEntity
  8
0-0_補助線
  6
JWW_HOJO
 62
     7
370
     9
100
AcDbLine
 10
-1639.08182841164
 20
2262.945146596157
 30
0.0
 11
-1639.08182841164
 21
2100.944503252615
 31
0.0
  0
LINE
  5
176
330
1F
100
AcDbEntity
  8
0-0_補助線
  6
JWW_HOJO
 62
     7
370
     9
100
AcDbLine
 10
-1699.08182841164
 20
2262.945146596157
 30
0.0
 11
-1699.08182841164
 21
2100.944503252615
 31
0.0
  0
LINE
  5
177
330
1F
100
AcDbEntity
  8
0-6_扉
  6
Continuous
 62
   200
370
    20
100
AcDbLine
 10
-1997.082014010559
 20
2262.945146596157
 30
0.0
 11
-1699.08182841164
 21
2262.945146596157
 31
0.0
  0
LINE
  5
178
330
1F
100
AcDbEntity
  8
0-6_扉
  6
Continuous
 62
   200
370
    20
100
AcDbLine
 10
-1997.082014010559
 20
2100.944503252615
 30
0.0
 11
-1699.08182841164
 21
2100.944503252615
 31
0.0
  0
LINE
  5
179
330
1F
100
AcDbEntity
  8
0-6_扉
  6
Continuous
 62
   200
370
    20
100
AcDbLine
 10
-1997.082014010559
 20
2262.946443180826
 30
0.0
 11
-1997.082014010559
 21
2100.945146596155
 31
0.0
  0
LINE
  5
17A
330
1F
100
AcDbEntity
  8
0-6_扉
  6
Continuous
 62
   200
370
    20
100
AcDbLine
 10
689.9186542293165
 20
2100.944503252615
 30
0.0
 11
992.4187284803043
 21
2100.944503252615
 31
0.0
  0
LINE
  5
17B
330
1F
100
AcDbEntity
  8
0-6_扉
  6
Continuous
 62
   200
370
    20
100
AcDbLine
 10
689.9186542293165
 20
2262.945146596157
 30
0.0
 11
992.4187284803043
 21
2262.945146596157
 31
0.0
  0
LINE
  5
17C
330
1F
100
AcDbEntity
  8
0-0_補助線
  6
JWW_HOJO
 62
     7
370
     9
100
AcDbLine
 10
992.4187284803043
 20
2262.945146596157
 30
0.0
 11
992.4187284803043
 21
2100.944503252615
 31
0.0
  0
LINE
  5
17D
330
1F
100
AcDbEntity
  8
0-0_補助線
  6
JWW_HOJO
 62
     7
370
     9
100
AcDbLine
 10
1052.418728480304
 20
2262.945146596157
 30
0.0
 11
1052.418728480304
 21
2100.944503252615
 31
0.0
  0
LINE
  5
17E
330
1F
100
AcDbEntity
  8
0-0_補助線
  6
JWW_HOJO
 62
   120
370
     5
100
AcDbLine
 10
2781.917713757646
 20
2601.945146596156
 30
0.0
 11
-2762.081816058703
 21
2601.945146596156
 31
0.0
  0
LINE
  5
17F
330
1F
100
AcDbEntity
  8
0-0_補助線
  6
JWW_HOJO
 62
   120
370
     5
100
AcDbLine
 10
2781.917713757646
 20
2781.945146596154
 30
0.0
 11
-2762.081816058703
 21
2781.945146596154
 31
0.0
  0
LINE
  5
180
330
1F
100
AcDbEntity
  8
0-0_補助線
  6
JWW_HOJO
 62
     7
370
     9
100
AcDbLine
 10
1718.918320104424
 20
2262.945146596157
 30
0.0
 11
1718.918320104424
 21
2100.944503252615
 31
0.0
  0
MTEXT
  5
181
330
1F
100
AcDbEntity
  8
F-A_文字
  6
Continuous
 62
     7
370
     0
100
AcDbMText
 10
5768.321977672939
 20
-4314.841419020919
 30
0.0
 40
68.58
 41
90.0
 46
0.0
 71
     7
 72
     1
  1
{\fＭＳ ゴシック|b0|i0|c128|p49;）}
 73
     1
 44
1.0
  0
MTEXT
  5
182
330
1F
100
AcDbEntity
  8
F-A_文字
  6
Continuous
 62
     7
370
     0
100
AcDbMText
 10
5548.066114483239
 20
-4314.771967288282
 30
0.0
 40
74.295
 41
195.0
 46
0.0
 71
     7
 72
     1
  1
{\fＭＳ ゴシック|b0|i0|c128|p49;印刷}
 73
     1
 44
1.0
  0
MTEXT
  5
183
330
1F
100
AcDbEntity
  8
F-A_文字
  6
Continuous
 62
     7
370
     0
100
AcDbMText
 10
5393.32938200033
 20
-4314.771967288282
 30
0.0
 40
74.295
 41
97.5
 46
0.0
 71
     7
 72
     1
  1
{\fＭＳ ゴシック|b0|i0|c128|p49;$d}
 73
     1
 44
1.0
  0
MTEXT
  5
184
330
1F
100
AcDbEntity
  8
F-A_文字
  6
Continuous
 62
     7
370
     0
100
AcDbMText
 10
5350.114617405298
 20
-4316.235443869856
 30
0.0
 40
68.58
 41
45.0
 46
0.0
 71
     7
 72
     1
  1
{\fＭＳ ゴシック|b0|i0|c128|p49;,}
 73
     1
 44
1.0
  0
MTEXT
  5
185
330
1F
100
AcDbEntity
  8
F-A_文字
  6
Continuous
 62
     7
370
     0
100
AcDbMText
 10
5238.592649517422
 20
-4314.771967288282
 30
0.0
 40
74.295
 41
97.5
 46
0.0
 71
     7
 72
     1
  1
{\fＭＳ ゴシック|b0|i0|c128|p49;$m}
 73
     1
 44
1.0
  0
MTEXT
  5
186
330
1F
100
AcDbEntity
  8
F-A_文字
  6
Continuous
 62
     7
370
     0
100
AcDbMText
 10
5191.195810375571
 20
-4319.023493567732
 30
0.0
 40
68.58
 41
45.0
 46
0.0
 71
     7
 72
     1
  1
{\fＭＳ ゴシック|b0|i0|c128|p49;,}
 73
     1
 44
1.0
  0
MTEXT
  5
187
330
1F
100
AcDbEntity
  8
F-A_文字
  6
Continuous
 62
     7
370
     0
100
AcDbMText
 10
5083.855928478601
 20
-4314.771967288282
 30
0.0
 40
74.295
 41
97.5
 46
0.0
 71
     7
 72
     1
  1
{\fＭＳ ゴシック|b0|i0|c128|p49;$y}
 73
     1
 44
1.0
  0
MTEXT
  5
188
330
1F
100
AcDbEntity
  8
F-A_文字
  6
Continuous
 62
     7
370
     0
100
AcDbMText
 10
4943.952040816226
 20
-4319.023493567732
 30
0.0
 40
68.58
 41
90.0
 46
0.0
 71
     7
 72
     1
  1
{\fＭＳ ゴシック|b0|i0|c128|p49;（}
 73
     1
 44
1.0
  0
MTEXT
  5
189
330
1F
100
AcDbEntity
  8
F-A_文字
  6
Continuous
 62
     7
370
     0
100
AcDbMText
 10
4439.917891251784
 20
-3887.143854850754
 30
0.0
 40
45.72
 41
240.0
 46
0.0
 71
     7
 72
     1
  1
{\fＭＳ ゴシック|b0|i0|c128|p49;ＤＡＴＥ}
 73
     1
 44
1.0
  0
MTEXT
  5
18A
330
1F
100
AcDbEntity
  8
F-A_文字
  6
Continuous
 62
     7
370
     0
100
AcDbMText
 10
4439.917891251784
 20
-4087.143857410839
 30
0.0
 40
45.72
 41
180.0
 46
0.0
 71
     7
 72
     1
  1
{\fＭＳ ゴシック|b0|i0|c128|p49;ＮＯ．}
 73
     1
 44
1.0
  0
MTEXT
  5
18B
330
1F
100
AcDbEntity
  8
F-A_文字
  6
Continuous
 62
     7
370
     0
100
AcDbMText
 10
2939.917396372139
 20
-3887.142460617774
 30
0.0
 40
45.72
 41
300.0
 46
0.0
 71
     7
 72
     1
  1
{\fＭＳ ゴシック|b0|i0|c128|p49;ＳＣＡＬＥ}
 73
     1
 44
1.0
  0
MTEXT
  5
18C
330
1F
100
AcDbEntity
  8
F-A_文字
  6
Continuous
 62
     7
370
     0
100
AcDbMText
 10
2939.917396372139
 20
-4087.14246317786
 30
0.0
 40
45.72
 41
240.0
 46
0.0
 71
     7
 72
     1
  1
{\fＭＳ ゴシック|b0|i0|c128|p49;ＦＩＬＥ}
 73
     1
 44
1.0
  0
MTEXT
  5
18D
330
1F
100
AcDbEntity
  8
F-A_文字
  6
Continuous
 62
     7
370
     0
100
AcDbMText
 10
1604.917396372138
 20
-4164.281754523929
 30
0.0
 40
101.44125
 41
1065.0
 46
0.0
 71
     7
 72
     1
  1
{\fＭＳ ゴシック|b0|i0|c128|p49;ウッドワン・・・}
 73
     1
 44
1.0
  0
MTEXT
  5
18E
330
1F
100
AcDbEntity
  8
F-A_文字
  6
Continuous
 62
     7
370
     0
100
AcDbMText
 10
1394.917396372138
 20
-4096.140669266149
 30
0.0
 40
45.72
 41
120.0
 46
0.0
 71
     7
 72
     1
  1
{\fＭＳ ゴシック|b0|i0|c128|p49;株式}
 73
     1
 44
1.0
  0
MTEXT
  5
18F
330
1F
100
AcDbEntity
  8
F-A_文字
  6
Continuous
 62
     7
370
     0
100
AcDbMText
 10
1394.917396372138
 20
-4168.140669266187
 30
0.0
 40
45.72
 41
120.0
 46
0.0
 71
     7
 72
     1
  1
{\fＭＳ ゴシック|b0|i0|c128|p49;会社}
 73
     1
 44
1.0
  0
MTEXT
  5
190
330
1F
100
AcDbEntity
  8
F-A_文字
  6
Continuous
 62
     7
370
     0
100
AcDbMText
 10
99.91854284331623
 20
-3887.139820871936
 30
0.0
 40
45.72
 41
180.0
 46
0.0
 71
     7
 72
     1
  1
{\fＭＳ ゴシック|b0|i0|c128|p49;図面名}
 73
     1
 44
1.0
  0
LINE
  5
191
330
1F
100
AcDbEntity
  8
F-0_補助線
  6
JWW_HOJO
 62
   120
370
     5
100
AcDbLine
 10
-6140.081333436773
 20
-4455.0
 30
0.0
 11
-6140.081333436773
 21
4424.999604096284
 31
0.0
  0
LINE
  5
192
330
1F
100
AcDbEntity
  8
F-0_補助線
  6
JWW_HOJO
 62
   120
370
     5
100
AcDbLine
 10
-6140.081333436773
 20
4424.999604096284
 30
0.0
 11
6159.917676803936
 21
4424.999604096284
 31
0.0
  0
LINE
  5
193
330
1F
100
AcDbEntity
  8
F-0_補助線
  6
JWW_HOJO
 62
   120
370
     5
100
AcDbLine
 10
6159.917676803936
 20
4424.999604096284
 30
0.0
 11
6159.917676803936
 21
-4455.0
 31
0.0
  0
LINE
  5
194
330
1F
100
AcDbEntity
  8
F-0_補助線
  6
JWW_HOJO
 62
   120
370
     5
100
AcDbLine
 10
6159.917676803936
 20
-4455.0
 30
0.0
 11
-6140.081333436773
 21
-4455.0
 31
0.0
  0
LINE
  5
195
330
1F
100
AcDbEntity
  8
F-0_補助線
  6
JWW_HOJO
 62
     7
370
     9
100
AcDbLine
 10
509.9185840832865
 20
-3795.000003092998
 30
0.0
 11
509.9185840832865
 21
-4195.000008247994
 31
0.0
  0
LINE
  5
196
330
1F
100
AcDbEntity
  8
F-1_枠
  6
Continuous
 62
   200
370
    20
100
AcDbLine
 10
5859.917429364114
 20
4174.999769056166
 30
0.0
 11
5859.917429364114
 21
-4205.000164959882
 31
0.0
  0
LINE
  5
197
330
1F
100
AcDbEntity
  8
F-1_枠
  6
Continuous
 62
   200
370
    20
100
AcDbLine
 10
-5840.081317971782
 20
4174.999769056166
 30
0.0
 11
-5840.081317971782
 21
-4205.000164959882
 31
0.0
  0
LINE
  5
198
330
1F
100
AcDbEntity
  8
F-1_枠
  6
Continuous
 62
   200
370
    20
100
AcDbLine
 10
5859.917429364114
 20
-4205.000002577498
 30
0.0
 11
-5840.081085996952
 21
-4205.000002577498
 31
0.0
  0
LINE
  5
199
330
1F
100
AcDbEntity
  8
F-1_枠
  6
Continuous
 62
   200
370
    20
100
AcDbLine
 10
-5830.081323642279
 20
4174.999769056166
 30
0.0
 11
-5830.081323642279
 21
-4205.000164959882
 31
0.0
  0
LINE
  5
19A
330
1F
100
AcDbEntity
  8
F-1_枠
  6
Continuous
 62
   200
370
    20
100
AcDbLine
 10
-5835.081309208291
 20
4174.999769056166
 30
0.0
 11
-5835.081309208291
 21
-4205.000164959882
 31
0.0
  0
LINE
  5
19B
330
1F
100
AcDbEntity
  8
F-1_枠
  6
Continuous
 62
   200
370
    20
100
AcDbLine
 10
5854.917165428304
 20
4174.999769056166
 30
0.0
 11
5854.917165428304
 21
-4205.000164959882
 31
0.0
  0
LINE
  5
19C
330
1F
100
AcDbEntity
  8
F-1_枠
  6
Continuous
 62
   200
370
    20
100
AcDbLine
 10
5849.917643811961
 20
4174.999769056166
 30
0.0
 11
5849.917643811961
 21
-4205.000164959882
 31
0.0
  0
LINE
  5
19D
330
1F
100
AcDbEntity
  8
F-1_枠
  6
Continuous
 62
   200
370
    20
100
AcDbLine
 10
5859.917429364114
 20
-4199.999993814004
 30
0.0
 11
-5840.081085996952
 21
-4199.999993814004
 31
0.0
  0
LINE
  5
19E
330
1F
100
AcDbEntity
  8
F-1_枠
  6
Continuous
 62
   200
370
    20
100
AcDbLine
 10
5859.917429364114
 20
-4195.000008247994
 30
0.0
 11
-5840.081085996952
 21
-4195.000008247994
 31
0.0
  0
LINE
  5
19F
330
1F
100
AcDbEntity
  8
F-1_枠
  6
Continuous
 62
   200
370
    20
100
AcDbLine
 10
4349.917891251784
 20
-3795.000003092998
 30
0.0
 11
4349.917891251784
 21
-4195.000008247994
 31
0.0
  0
LINE
  5
1A0
330
1F
100
AcDbEntity
  8
F-1_枠
  6
Continuous
 62
   200
370
    20
100
AcDbLine
 10
2849.917396372139
 20
-3795.000003092998
 30
0.0
 11
2849.917396372139
 21
-4195.000008247994
 31
0.0
  0
LINE
  5
1A1
330
1F
100
AcDbEntity
  8
F-1_枠
  6
Continuous
 62
   200
370
    20
100
AcDbLine
 10
9.918542843316231
 20
-3795.000003092998
 30
0.0
 11
9.918542843316231
 21
-4195.000008247994
 31
0.0
  0
LINE
  5
1A2
330
1F
100
AcDbEntity
  8
F-1_枠
  6
Continuous
 62
   200
370
    20
100
AcDbLine
 10
9.918542843316231
 20
-3994.999936078046
 30
0.0
 11
5849.917643811961
 21
-3995.005364289155
 31
0.0
  0
LINE
  5
1A3
330
1F
100
AcDbEntity
  8
F-1_枠
  6
Continuous
 62
   200
370
    20
100
AcDbLine
 10
-5840.081085996952
 20
4174.999769056166
 30
0.0
 11
5859.917429364114
 21
4174.999769056166
 31
0.0
  0
LINE
  5
1A4
330
1F
100
AcDbEntity
  8
F-1_枠
  6
Continuous
 62
   200
370
    20
100
AcDbLine
 10
-5840.081085996952
 20
4164.999983504013
 30
0.0
 11
5859.917429364114
 21
4164.999983504013
 31
0.0
  0
LINE
  5
1A5
330
1F
100
AcDbEntity
  8
F-1_枠
  6
Continuous
 62
   200
370
    20
100
AcDbLine
 10
-5840.081085996952
 20
4169.999505120355
 30
0.0
 11
5859.917429364114
 21
4169.999505120355
 31
0.0
  0
LINE
  5
1A6
330
1F
100
AcDbEntity
  8
F-0_補助線
  6
JWW_HOJO
 62
     7
370
     9
100
AcDbLine
 10
-5830.081323642279
 20
-3994.99993607839
 30
0.0
 11
9.918542843316231
 21
-3994.99993607839
 31
0.0
  0
LINE
  5
1A7
330
1F
100
AcDbEntity
  8
F-0_補助線
  6
JWW_HOJO
 62
     7
370
     9
100
AcDbLine
 10
-5830.081323642279
 20
-3904.99993607839
 30
0.0
 11
9.918542843316231
 21
-3904.99993607839
 31
0.0
  0
LINE
  5
1A8
330
1F
100
AcDbEntity
  8
F-0_補助線
  6
JWW_HOJO
 62
     7
370
     9
100
AcDbLine
 10
-5830.081323642279
 20
-4084.99993607839
 30
0.0
 11
9.918542843316231
 21
-4084.99993607839
 31
0.0
  0
LINE
  5
1A9
330
1F
100
AcDbEntity
  8
F-0_補助線
  6
JWW_HOJO
 62
     7
370
     9
100
AcDbLine
 10
9.918408067688347
 20
-4139.999739777983
 30
0.0
 11
5849.917509036332
 21
-4140.005167989091
 31
0.0
  0
LINE
  5
1AA
330
1F
100
AcDbEntity
  8
F-0_補助線
  6
JWW_HOJO
 62
     7
370
     9
100
AcDbLine
 10
9.918491721639953
 20
-4049.999739778022
 30
0.0
 11
5849.917592690284
 21
-4050.005167989131
 31
0.0
  0
LINE
  5
1AB
330
1F
100
AcDbEntity
  8
F-0_補助線
  6
JWW_HOJO
 62
     7
370
     9
100
AcDbLine
 10
9.918593965360003
 20
-3939.99973721807
 30
0.0
 11
5849.917694934004
 21
-3940.005165429179
 31
0.0
  0
LINE
  5
1AC
330
1F
100
AcDbEntity
  8
F-0_補助線
  6
JWW_HOJO
 62
     7
370
     9
100
AcDbLine
 10
9.918677619311609
 20
-3849.999737218109
 30
0.0
 11
5849.917778587956
 21
-3850.005165429218
 31
0.0
  0
LINE
  5
1AD
330
1F
100
AcDbEntity
  8
F-0_補助線
  6
JWW_HOJO
 62
     7
370
     9
100
AcDbLine
 10
2939.917396372139
 20
-3795.000003092998
 30
0.0
 11
2939.917396372139
 21
-4195.000008247994
 31
0.0
  0
LINE
  5
1AE
330
1F
100
AcDbEntity
  8
F-0_補助線
  6
JWW_HOJO
 62
     7
370
     9
100
AcDbLine
 10
99.91854284331623
 20
-3795.000003092998
 30
0.0
 11
99.91854284331623
 21
-4195.000008247994
 31
0.0
  0
LINE
  5
1AF
330
1F
100
AcDbEntity
  8
F-0_補助線
  6
JWW_HOJO
 62
     7
370
     9
100
AcDbLine
 10
4439.917891251784
 20
-3795.000003092998
 30
0.0
 11
4439.917891251784
 21
-4195.000008247994
 31
0.0
  0
LINE
  5
1B0
330
1F
100
AcDbEntity
  8
F-1_枠
  6
Continuous
 62
   200
370
    20
100
AcDbLine
 10
5859.917429364114
 20
-3795.000003092998
 30
0.0
 11
-5840.081085996952
 21
-3795.000003092998
 31
0.0
  0
LINE
  5
1B1
330
1F
100
AcDbEntity
  8
F-1_枠
  6
Continuous
 62
   200
370
    20
100
AcDbLine
 10
5859.917429364114
 20
-3790.000017526987
 30
0.0
 11
-5840.081085996952
 21
-3790.000017526987
 31
0.0
  0
LINE
  5
1B2
330
1F
100
AcDbEntity
  8
F-0_補助線
  6
JWW_HOJO
 62
     7
370
     9
100
AcDbLine
 10
-5087.628710189611
 20
-3795.000003092999
 30
0.0
 11
-5087.628710189611
 21
-4205.000164959882
 31
0.0
  0
LINE
  5
1B3
330
1F
100
AcDbEntity
  8
F-0_補助線
  6
JWW_HOJO
 62
     7
370
     9
100
AcDbLine
 10
-50.08145715668377
 20
-3795.000003092998
 30
0.0
 11
-50.08145715668377
 21
-4195.000008247994
 31
0.0
  0
ELLIPSE
  5
1B4
330
1F
100
AcDbEntity
  8
戸当り
  6
Continuous
 62
    92
370
    13
100
AcDbEllipse
 10
4675.430917458078
 20
2876.053590301511
 30
0.0
 11
11.36181697857171
 21
42.40287823032828
 31
0.0
210
0.0
220
0.0
230
0.9999999999999999
 40
0.6
 41
1.570796326794897
 42
4.71238898038469
  0
LINE
  5
1B5
330
1F
100
AcDbEntity
  8
戸当り
  6
Continuous
 62
    92
370
    13
100
AcDbLine
 10
4700.872644396272
 20
2869.236500114367
 30
0.0
 11
4649.989190519878
 21
2882.870680488653
 31
0.0
  0
LINE
  5
1B6
330
1F
100
AcDbEntity
  8
戸当り
  6
Continuous
 62
    92
370
    13
100
AcDbLine
 10
4704.133764364564
 20
2881.407165525609
 30
0.0
 11
4653.25031048817
 21
2895.041345899896
 31
0.0
  0
ELLIPSE
  5
1B7
330
1F
100
AcDbEntity
  8
戸当り
  6
Continuous
 62
    92
370
    13
100
AcDbEllipse
 10
4699.604310755758
 20
2966.269922279796
 30
0.0
 11
21.86569797210526
 21
81.6038957748525
 31
0.0
210
0.0
220
0.0
230
1.0
 40
0.5
 41
4.340591432030095
 42
8.225779182329084
  0
ELLIPSE
  5
1B8
330
1F
100
AcDbEntity
  8
戸当り
  6
Continuous
 62
    92
370
    13
100
AcDbEllipse
 10
4698.978687882654
 20
2963.935065931004
 30
0.0
 11
26.49533313827761
 21
98.88192943551533
 31
0.0
210
0.0
220
0.0
230
0.9999999999999999
 40
0.4
 41
3.840308517104466
 42
4.432552034522944
  0
ELLIPSE
  5
1B9
330
1F
100
AcDbEntity
  8
戸当り
  6
Continuous
 62
    92
370
    13
100
AcDbEllipse
 10
4698.978687882654
 20
2963.935065931004
 30
0.0
 11
26.49533313827761
 21
98.88192943551533
 31
0.0
210
0.0
220
0.0
230
0.9999999999999999
 40
0.4
 41
1.850633272656679
 42
2.442876790075129
  0
ELLIPSE
  5
1BA
330
1F
100
AcDbEntity
  8
戸当り
  6
Continuous
 62
    92
370
    13
100
AcDbEllipse
 10
4560.316707711373
 20
2838.28484693721
 30
0.0
 11
-7.622927487939132
 21
43.23177007461331
 31
0.0
210
0.0
220
0.0
230
1.0
 40
0.6000000000000001
 41
1.570796326794897
 42
4.71238898038469
  0
LINE
  5
1BB
330
1F
100
AcDbEntity
  8
戸当り
  6
Continuous
 62
    92
370
    13
100
AcDbLine
 10
4586.255769756144
 20
2842.858603429973
 30
0.0
 11
4534.377645666606
 21
2833.711090444447
 31
0.0
  0
LINE
  5
1BC
330
1F
100
AcDbEntity
  8
戸当り
  6
Continuous
 62
    92
370
    13
100
AcDbLine
 10
4584.067802717541
 20
2855.267181117928
 30
0.0
 11
4532.189678628002
 21
2846.1196681324
 31
0.0
  0
ELLIPSE
  5
1BD
330
1F
100
AcDbEntity
  8
戸当り
  6
Continuous
 62
    92
370
    13
100
AcDbEllipse
 10
4544.098172894875
 20
2930.264728582853
 30
0.0
 11
-14.67024424252691
 21
83.19908946199426
 31
0.0
210
0.0
220
0.0
230
1.0
 40
0.5
 41
4.340591432030095
 42
8.225779182329084
  0
ELLIPSE
  5
1BE
330
1F
100
AcDbEntity
  8
戸当り
  6
Continuous
 62
    92
370
    13
100
AcDbEllipse
 10
4544.517918944779
 20
2927.884230441196
 30
0.0
 11
-17.7763823922528
 21
100.8148742797557
 31
0.0
210
0.0
220
0.0
230
1.0
 40
0.4000000000000001
 41
3.840308517104466
 42
4.432552034522944
  0
ELLIPSE
  5
1BF
330
1F
100
AcDbEntity
  8
戸当り
  6
Continuous
 62
    92
370
    13
100
AcDbEllipse
 10
4544.517918944779
 20
2927.884230441196
 30
0.0
 11
-17.7763823922528
 21
100.8148742797557
 31
0.0
210
0.0
220
0.0
230
1.0
 40
0.4000000000000001
 41
1.850633272656679
 42
2.442876790075129
  0
LINE
  5
1C0
330
1F
100
AcDbEntity
  8
0-0_補助線
  6
JWW_HOJO
 62
   120
370
     5
100
AcDbLine
 10
4619.917643811961
 20
2718.999983504013
 30
0.0
 11
4619.917643811961
 21
3536.444090120683
 31
0.0
  0
LINE
  5
1C1
330
1F
100
AcDbEntity
  8
0-A_文字
  6
Continuous
 62
    92
370
    13
100
AcDbLine
 10
3869.917643811962
 20
3684.999983504013
 30
0.0
 11
3869.917643811962
 21
2718.999983504013
 31
0.0
  0
LINE
  5
1C2
330
1F
100
AcDbEntity
  8
0-0_補助線
  6
JWW_HOJO
 62
   120
370
     5
100
AcDbLine
 10
3899.917643811962
 20
3684.999983504013
 30
0.0
 11
3899.917643811962
 21
2718.999983504013
 31
0.0
  0
LINE
  5
1C3
330
1F
100
AcDbEntity
  8
0-A_文字
  6
Continuous
 62
    92
370
    13
100
AcDbLine
 10
5369.917643811961
 20
2718.999983504013
 30
0.0
 11
3869.917643811962
 21
2718.999983504013
 31
0.0
  0
LINE
  5
1C4
330
1F
100
AcDbEntity
  8
0-A_文字
  6
Continuous
 62
    92
370
    13
100
AcDbLine
 10
5369.917643811961
 20
3684.999983504013
 30
0.0
 11
5369.917643811961
 21
2718.999983504013
 31
0.0
  0
LINE
  5
1C5
330
1F
100
AcDbEntity
  8
0-0_補助線
  6
JWW_HOJO
 62
   120
370
     5
100
AcDbLine
 10
5339.917643811961
 20
3684.999983504013
 30
0.0
 11
5339.917643811961
 21
2718.999983504013
 31
0.0
  0
LINE
  5
1C6
330
1F
100
AcDbEntity
  8
戸当り
  6
Continuous
 62
    40
370
    15
100
AcDbLine
 10
4573.330215693508
 20
3385.504011182749
 30
0.0
 11
4619.917643811961
 21
3211.637362450716
 31
0.0
  0
LINE
  5
1C7
330
1F
100
AcDbEntity
  8
戸当り
  6
Continuous
 62
    40
370
    15
100
AcDbLine
 10
4666.505071930415
 20
3385.504011182749
 30
0.0
 11
4619.917643811961
 21
3211.637362450717
 31
0.0
  0
LINE
  5
1C8
330
1F
100
AcDbEntity
  8
戸当り
  6
Continuous
 62
    40
370
    15
100
AcDbLine
 10
5066.742787575054
 20
3385.504011182749
 30
0.0
 11
5113.330215693508
 21
3211.637362450716
 31
0.0
  0
LINE
  5
1C9
330
1F
100
AcDbEntity
  8
戸当り
  6
Continuous
 62
    40
370
    15
100
AcDbLine
 10
5159.917643811961
 20
3385.504011182749
 30
0.0
 11
5113.330215693508
 21
3211.637362450717
 31
0.0
  0
LINE
  5
1CA
330
1F
100
AcDbEntity
  8
戸当り
  6
Continuous
 62
    40
370
    15
100
AcDbLine
 10
4173.09250004887
 20
3385.504011182749
 30
0.0
 11
4126.505071930415
 21
3211.637362450717
 31
0.0
  0
LINE
  5
1CB
330
1F
100
AcDbEntity
  8
戸当り
  6
Continuous
 62
    40
370
    15
100
AcDbLine
 10
4079.917643811962
 20
3385.504011182749
 30
0.0
 11
4126.505071930415
 21
3211.637362450716
 31
0.0
  0
CIRCLE
  5
1CC
330
1F
100
AcDbEntity
  8
0-0_補助線
  6
JWW_HOJO
 62
   120
370
     5
100
AcDbCircle
 10
5159.917643811961
 20
3385.504011182749
 30
0.0
 40
179.9999999999991
  0
CIRCLE
  5
1CD
330
1F
100
AcDbEntity
  8
0-0_補助線
  6
JWW_HOJO
 62
   120
370
     5
100
AcDbCircle
 10
4799.917643811961
 20
3385.504011182749
 30
0.0
 40
180.0
  0
CIRCLE
  5
1CE
330
1F
100
AcDbEntity
  8
0-0_補助線
  6
JWW_HOJO
 62
   120
370
     5
100
AcDbCircle
 10
4439.917643811961
 20
3385.504011182749
 30
0.0
 40
180.0
  0
CIRCLE
  5
1CF
330
1F
100
AcDbEntity
  8
0-0_補助線
  6
JWW_HOJO
 62
   120
370
     5
100
AcDbCircle
 10
4079.917643811962
 20
3385.504011182749
 30
0.0
 40
180.0
  0
LINE
  5
1D0
330
1F
100
AcDbEntity
  8
戸当り
  6
JWW_DASHED2
 62
     7
370
     9
100
AcDbLine
 10
5159.917643811961
 20
3385.504011182749
 30
0.0
 11
4079.917643811962
 21
3385.504011182749
 31
0.0
  0
LINE
  5
1D1
330
1F
100
AcDbEntity
  8
戸当り
  6
Continuous
 62
    40
370
    15
100
AcDbLine
 10
4079.917643811962
 20
3439.504011182749
 30
0.0
 11
4079.917643811962
 21
3385.504011182749
 31
0.0
  0
LINE
  5
1D2
330
1F
100
AcDbEntity
  8
戸当り
  6
Continuous
 62
    40
370
    15
100
AcDbLine
 10
4079.917643811962
 20
3439.504011182749
 30
0.0
 11
3899.917643811962
 21
3439.504011182749
 31
0.0
  0
LINE
  5
1D3
330
1F
100
AcDbEntity
  8
戸当り
  6
Continuous
 62
    40
370
    15
100
AcDbLine
 10
4079.917643811962
 20
3385.504011182749
 30
0.0
 11
3899.917643811962
 21
3385.504011182749
 31
0.0
  0
LINE
  5
1D4
330
1F
100
AcDbEntity
  8
戸当り
  6
Continuous
 62
    40
370
    15
100
AcDbLine
 10
5159.917643811961
 20
3439.504011182749
 30
0.0
 11
5159.917643811961
 21
3385.504011182749
 31
0.0
  0
LINE
  5
1D5
330
1F
100
AcDbEntity
  8
戸当り
  6
Continuous
 62
    40
370
    15
100
AcDbLine
 10
5159.917643811961
 20
3439.504011182749
 30
0.0
 11
5339.917643811961
 21
3439.504011182749
 31
0.0
  0
LINE
  5
1D6
330
1F
100
AcDbEntity
  8
戸当り
  6
Continuous
 62
    40
370
    15
100
AcDbLine
 10
5159.917643811961
 20
3385.504011182749
 30
0.0
 11
5339.917643811961
 21
3385.504011182749
 31
0.0
  0
MTEXT
  5
1D7
330
1F
100
AcDbEntity
  8
0-A_文字
  6
Continuous
 62
     7
370
     9
100
AcDbMText
 10
4259.917643811962
 20
3562.188554932584
 30
0.0
 40
78.37714285714276
 41
719.9999999999991
 46
0.0
 71
     7
 72
     1
  1
{\fＭＳ ゴシック|b0|i0|c128|p49;フリーオープン}
 73
     1
 44
1.0
  0
LINE
  5
1D8
330
1F
100
AcDbEntity
  8
0-A_文字
  6
Continuous
 62
    92
370
    13
100
AcDbLine
 10
5369.917643811961
 20
3540.999983504012
 30
0.0
 11
3869.917643811962
 21
3540.999983504012
 31
0.0
  0
LINE
  5
1D9
330
1F
100
AcDbEntity
  8
0-A_文字
  6
Continuous
 62
    92
370
    13
100
AcDbLine
 10
5369.917643811961
 20
3684.999983504013
 30
0.0
 11
3869.917643811962
 21
3684.999983504013
 31
0.0
  0
LINE
  5
1DA
330
1F
100
AcDbEntity
  8
F-0_補助線
  6
JWW_HOJO
 62
     7
370
     9
100
AcDbLine
 10
3764.917643811961
 20
-3795.000003092998
 30
0.0
 11
3764.917643811961
 21
-4195.000008247994
 31
0.0
  0
MTEXT
  5
1DB
330
1F
100
AcDbEntity
  8
F-A_文字
  6
Continuous
 62
     7
370
     0
100
AcDbMText
 10
3689.917643811961
 20
-3946.903115907308
 30
0.0
 40
76.19999999999999
 41
150.0
 46
0.0
 71
     7
 72
     1
  1
{\fＭＳ ゴシック|b0|i0|c128|p49;1/5}
 73
     1
 44
1.0
  0
MTEXT
  5
1DC
330
1F
100
AcDbEntity
  8
0-A_文字
  6
Continuous
 62
     7
370
     9
100
AcDbMText
 10
-2709.664058652776
 20
188.8883755636553
 30
0.0
 40
91.44
 41
600.0
 46
0.0
 71
     7
 72
     1
  1
{\fＭＳ ゴシック|b0|i0|c128|p49;■縦断面図}
 73
     1
 44
1.0
  0
MTEXT
  5
1DD
330
1F
100
AcDbEntity
  8
0-A_文字
  6
Continuous
 62
     7
370
     9
100
AcDbMText
 10
-2709.664058652773
 20
40.3681103962111
 30
0.0
 40
91.43999999999998
 41
1440.0
 46
0.0
 71
     7
 72
     1
  1
{\fＭＳ ゴシック|b0|i0|c128|p49;　[３方枠＋床直付レール]}
 73
     1
 44
1.0
  0
MTEXT
  5
1DE
330
1F
100
AcDbEntity
  8
0-A_文字
  6
Continuous
 62
     7
370
   211
100
AcDbMText
 10
-1910.464450075354
 20
-2973.881991564327
 30
0.0
 40
91.44
 41
240.0
 46
0.0
 71
     7
 72
     1
  1
{\fＭＳ ゴシック|b0|i0|c128|p49;27.4}
 73
     1
 44
1.0
  0
LINE
  5
1DF
330
1F
100
AcDbEntity
  8
0-0_補助線
  6
JWW_HOJO
 62
   120
370
     5
100
AcDbLine
 10
-1140.498221827715
 20
-3369.999831818972
 30
0.0
 11
-1140.498923844706
 21
-100.1455670908138
 31
0.0
  0
LINE
  5
1E0
330
1F
100
AcDbEntity
  8
0-0_補助線
  6
JWW_HOJO
 62
   120
370
     5
100
AcDbLine
 10
-930.4980470277942
 20
-3369.999831818972
 30
0.0
 11
-930.4987490447834
 21
-100.1455670908138
 31
0.0
  0
LINE
  5
1E1
330
1F
100
AcDbEntity
  8
0-1_通り芯
  6
JWW_CENTER1
 62
   120
370
     5
100
AcDbLine
 10
-1758.664450075352
 20
-100.1455670908138
 30
0.0
 11
-1758.664450075352
 21
-3453.829988306616
 31
0.0
  0
LINE
  5
1E2
330
1F
100
AcDbEntity
  8
0-0_補助線
  6
JWW_HOJO
 62
   120
370
     5
100
AcDbLine
 10
-720.4980470277874
 20
-3297.999854088556
 30
0.0
 11
-720.4987490447813
 21
-100.1455670908138
 31
0.0
  0
LINE
  5
1E3
330
1F
100
AcDbEntity
  8
0-B_寸法
  6
Continuous
 62
   120
370
     5
100
AcDbLine
 10
-930.4988023526896
 20
-3369.999646265361
 30
0.0
 11
-720.4988023526896
 21
-3369.999646265361
 31
0.0
  0
LWPOLYLINE
  5
1E4
330
1F
100
AcDbEntity
  8
0-B_寸法
  6
Continuous
 62
     7
370
     9
100
AcDbPolyline
 90
        4
 70
     1
 43
3.0
 10
-508.9988023526896
 20
-3370.000017425096
 42
0.4142135623731
 10
-510.4988023526896
 20
-3368.500017425096
 42
0.4142135623731
 10
-511.9988023526896
 20
-3370.000017425096
 42
0.4142135623731
 10
-510.4988023526896
 20
-3371.500017425095
 42
0.4142135623731
  0
LINE
  5
1E5
330
1F
100
AcDbEntity
  8
0-B_寸法
  6
Continuous
 62
   120
370
     5
100
AcDbLine
 10
-1140.498237086473
 20
-3370.000017425096
 30
0.0
 11
-510.4988023526896
 21
-3370.000017425096
 31
0.0
  0
LINE
  5
1E6
330
1F
100
AcDbEntity
  8
0-0_補助線
  6
JWW_HOJO
 62
   120
370
     5
100
AcDbLine
 10
-1140.498221827715
 20
-3369.999831818972
 30
0.0
 11
-465.8180043327785
 21
-3369.999831818972
 31
0.0
  0
LINE
  5
1E7
330
1F
100
AcDbEntity
  8
0-6_扉
  6
Continuous
 62
   200
370
    20
100
AcDbLine
 10
-1839.664999391758
 20
-3229.00003969468
 30
0.0
 11
-1677.664999391758
 21
-3229.00003969468
 31
0.0
  0
LWPOLYLINE
  5
1E8
330
1F
100
AcDbEntity
  8
0-B_寸法
  6
Continuous
 62
     7
370
     9
100
AcDbPolyline
 90
        4
 70
     1
 43
3.0
 10
-928.9988023526896
 20
-3229.00003969468
 42
0.4142135623731
 10
-930.4988023526896
 20
-3227.50003969468
 42
0.4142135623731
 10
-931.9988023526896
 20
-3229.00003969468
 42
0.4142135623731
 10
-930.4988023526896
 20
-3230.50003969468
 42
0.4142135623731
  0
LINE
  5
1E9
330
1F
100
AcDbEntity
  8
0-B_寸法
  6
Continuous
 62
   120
370
     5
100
AcDbLine
 10
-1140.498247894899
 20
-3229.00003969468
 30
0.0
 11
-930.4988023526896
 21
-3229.00003969468
 31
0.0
  0
LWPOLYLINE
  5
1EA
330
1F
100
AcDbEntity
  8
0-B_寸法
  6
Continuous
 62
     7
370
     9
100
AcDbPolyline
 90
        4
 70
     1
 43
3.0
 10
-718.9988023526896
 20
-3268.00003969468
 42
0.4142135623731
 10
-720.4988023526896
 20
-3266.50003969468
 42
0.4142135623731
 10
-721.9988023526896
 20
-3268.00003969468
 42
0.4142135623731
 10
-720.4988023526896
 20
-3269.50003969468
 42
0.4142135623731
  0
LINE
  5
1EB
330
1F
100
AcDbEntity
  8
0-B_寸法
  6
Continuous
 62
   120
370
     5
100
AcDbLine
 10
-1140.498247894899
 20
-3268.00003969468
 30
0.0
 11
-720.4988023526896
 21
-3268.00003969468
 31
0.0
  0
LWPOLYLINE
  5
1EC
330
1F
100
AcDbEntity
  8
0-B_寸法
  6
Continuous
 62
     7
370
     9
100
AcDbPolyline
 90
        4
 70
     1
 43
3.0
 10
-928.9988023526896
 20
-3268.00003969468
 42
0.4142135623731
 10
-930.4988023526896
 20
-3266.50003969468
 42
0.4142135623731
 10
-931.9988023526896
 20
-3268.00003969468
 42
0.4142135623731
 10
-930.4988023526896
 20
-3269.50003969468
 42
0.4142135623731
  0
LWPOLYLINE
  5
1ED
330
1F
100
AcDbEntity
  8
0-B_寸法
  6
Continuous
 62
     7
370
     9
100
AcDbPolyline
 90
        4
 70
     1
 43
3.0
 10
-508.9988023526896
 20
-3297.999668534946
 42
0.4142135623731
 10
-510.4988023526896
 20
-3296.499668534946
 42
0.4142135623731
 10
-511.9988023526896
 20
-3297.999668534946
 42
0.4142135623731
 10
-510.4988023526896
 20
-3299.499668534946
 42
0.4142135623731
  0
LINE
  5
1EE
330
1F
100
AcDbEntity
  8
0-B_寸法
  6
Continuous
 62
   120
370
     5
100
AcDbLine
 10
-1140.498237086553
 20
-3297.999668534946
 30
0.0
 11
-510.4988023526896
 21
-3297.999668534946
 31
0.0
  0
LWPOLYLINE
  5
1EF
330
1F
100
AcDbEntity
  8
0-B_寸法
  6
Continuous
 62
     7
370
     9
100
AcDbPolyline
 90
        4
 70
     1
 43
3.0
 10
-718.9988023526896
 20
-3297.999668534946
 42
0.4142135623731
 10
-720.4988023526896
 20
-3296.499668534946
 42
0.4142135623731
 10
-721.9988023526896
 20
-3297.999668534946
 42
0.4142135623731
 10
-720.4988023526896
 20
-3299.499668534946
 42
0.4142135623731
  0
LINE
  5
1F0
330
1F
100
AcDbEntity
  8
0-4_枠
  6
Continuous
 62
   120
370
     5
100
AcDbLine
 10
-2034.664450075353
 20
-1953.999789600728
 30
0.0
 11
-2034.664450075353
 21
-3298.00003969468
 31
0.0
  0
LINE
  5
1F1
330
1F
100
AcDbEntity
  8
0-4_枠
  6
Continuous
 62
   120
370
     5
100
AcDbLine
 10
-1482.664450075351
 20
-1953.999789600728
 30
0.0
 11
-1482.664450075351
 21
-3298.00003969468
 31
0.0
  0
LINE
  5
1F2
330
1F
100
AcDbEntity
  8
0-6_扉
  6
Continuous
 62
   200
370
    20
100
AcDbLine
 10
-1839.664999391758
 20
-3229.00003969468
 30
0.0
 11
-1839.664999391758
 21
-1953.999789600728
 31
0.0
  0
LINE
  5
1F3
330
1F
100
AcDbEntity
  8
0-6_扉
  6
Continuous
 62
   200
370
    20
100
AcDbLine
 10
-1677.664999391758
 20
-3229.00003969468
 30
0.0
 11
-1677.664999391758
 21
-1953.999789600728
 31
0.0
  0
LINE
  5
1F4
330
1F
100
AcDbEntity
  8
0-7_金物
  6
Continuous
 62
     7
370
     9
100
AcDbLine
 10
-1823.66045990201
 20
-591.9995396865044
 30
0.0
 11
-1860.664347078525
 21
-591.9995396865044
 31
0.0
  0
LINE
  5
1F5
330
1F
100
AcDbEntity
  8
0-7_金物
  6
Continuous
 62
     7
370
     9
100
AcDbLine
 10
-1746.664112474643
 20
-630.9995396865064
 30
0.0
 11
-1746.664112474643
 21
-585.9994481337728
 31
0.0
  0
LINE
  5
1F6
330
1F
100
AcDbEntity
  8
0-7_金物
  6
Continuous
 62
     7
370
     9
100
AcDbLine
 10
-1770.664793398105
 20
-585.9994481337728
 30
0.0
 11
-1770.664793398105
 21
-630.9995396865064
 31
0.0
  0
LINE
  5
1F7
330
1F
100
AcDbEntity
  8
0-7_金物
  6
Continuous
 62
     7
370
     9
100
AcDbLine
 10
-1770.664793398105
 20
-630.9995396865064
 30
0.0
 11
-1746.664112474643
 21
-630.9995396865064
 31
0.0
  0
LINE
  5
1F8
330
1F
100
AcDbEntity
  8
0-7_金物
  6
Continuous
 62
     7
370
     9
100
AcDbLine
 10
-1656.666045095647
 20
-585.9994481337728
 30
0.0
 11
-1656.666045095647
 21
-591.9995396865044
 31
0.0
  0
LINE
  5
1F9
330
1F
100
AcDbEntity
  8
0-7_金物
  6
Continuous
 62
     7
370
     9
100
AcDbLine
 10
-1694.450847055637
 20
-591.9995396865044
 30
0.0
 11
-1656.666045095647
 21
-591.9995396865044
 31
0.0
  0
LINE
  5
1FA
330
1F
100
AcDbEntity
  8
0-7_金物
  6
Continuous
 62
     7
370
     9
100
AcDbLine
 10
-1860.664347078525
 20
-585.9994481337728
 30
0.0
 11
-1860.664347078525
 21
-591.9995396865044
 31
0.0
  0
LINE
  5
1FB
330
1F
100
AcDbEntity
  8
0-7_金物
  6
Continuous
 62
     7
370
     9
100
AcDbLine
 10
-1694.450847055637
 20
-591.9995396865044
 30
0.0
 11
-1694.450847055637
 21
-585.9994481337728
 31
0.0
  0
LINE
  5
1FC
330
1F
100
AcDbEntity
  8
0-7_金物
  6
Continuous
 62
     7
370
     9
100
AcDbLine
 10
-1823.66045990201
 20
-591.9995396865044
 30
0.0
 11
-1823.66045990201
 21
-585.9994481337728
 31
0.0
  0
LINE
  5
1FD
330
1F
100
AcDbEntity
  8
0-6_扉
  6
Continuous
 62
   200
370
    20
100
AcDbLine
 10
-1839.664999391758
 20
-630.9995396865064
 30
0.0
 11
-1677.664999391758
 21
-630.9995396865064
 31
0.0
  0
LINE
  5
1FE
330
1F
100
AcDbEntity
  8
0-C_ハッチ
  6
Continuous
 62
   120
370
     5
100
AcDbLine
 10
-1516.538884612113
 20
-586.0383621993047
 30
0.0
 11
-1500.6058374349
 21
-570.1053150220911
 31
0.0
  0
LINE
  5
1FF
330
1F
100
AcDbEntity
  8
0-C_ハッチ
  6
Continuous
 62
   120
370
     5
100
AcDbLine
 10
-1576.042875993515
 20
-586.1453839610065
 30
0.0
 11
-1500.498827868344
 21
-510.6013358358356
 31
0.0
  0
LINE
  5
200
330
1F
100
AcDbEntity
  8
0-C_ハッチ
  6
Continuous
 62
   120
370
     5
100
AcDbLine
 10
-1635.439845613152
 20
-586.1453839609975
 30
0.0
 11
-1500.498840456212
 21
-451.2043788040545
 31
0.0
  0
LINE
  5
201
330
1F
100
AcDbEntity
  8
0-C_ハッチ
  6
Continuous
 62
   120
370
     5
100
AcDbLine
 10
-1674.498684900561
 20
-565.8072536287556
 30
0.0
 11
-1514.948544902637
 21
-406.2571136308314
 31
0.0
  0
LINE
  5
202
330
1F
100
AcDbEntity
  8
0-C_ハッチ
  6
Continuous
 62
   120
370
     5
100
AcDbLine
 10
-1674.498684900561
 20
-506.410284009055
 30
0.0
 11
-1574.345514522325
 21
-406.2571136308199
 31
0.0
  0
LINE
  5
203
330
1F
100
AcDbEntity
  8
0-C_ハッチ
  6
Continuous
 62
   120
370
     5
100
AcDbLine
 10
-1693.63029670847
 20
-466.1449261973166
 30
0.0
 11
-1632.498850245354
 21
-405.0134797342001
 31
0.0
  0
LINE
  5
204
330
1F
100
AcDbEntity
  8
0-C_ハッチ
  6
Continuous
 62
   120
370
     5
100
AcDbLine
 10
-1873.027724091857
 20
-586.1453839610043
 30
0.0
 11
-1842.498937743454
 21
-555.6165976125997
 31
0.0
  0
LINE
  5
205
330
1F
100
AcDbEntity
  8
0-C_ハッチ
  6
Continuous
 62
   120
370
     5
100
AcDbLine
 10
-1753.027266328188
 20
-466.1449261973324
 30
0.0
 11
-1657.027907197303
 21
-370.1455670664471
 31
0.0
  0
LINE
  5
206
330
1F
100
AcDbEntity
  8
0-C_ハッチ
  6
Continuous
 62
   120
370
     5
100
AcDbLine
 10
-1932.424693711491
 20
-586.1453839609873
 30
0.0
 11
-1842.498937743474
 21
-496.2196279929728
 31
0.0
  0
LINE
  5
207
330
1F
100
AcDbEntity
  8
0-C_ハッチ
  6
Continuous
 62
   120
370
     5
100
AcDbLine
 10
-1812.424235947815
 20
-466.144926197312
 30
0.0
 11
-1716.424876816957
 21
-370.1455670664561
 31
0.0
  0
LINE
  5
208
330
1F
100
AcDbEntity
  8
0-C_ハッチ
  6
Continuous
 62
   120
370
     5
100
AcDbLine
 10
-1991.821663331209
 20
-586.1453839610065
 30
0.0
 11
-1775.821846436659
 21
-370.1455670664561
 31
0.0
  0
LINE
  5
209
330
1F
100
AcDbEntity
  8
0-C_ハッチ
  6
Continuous
 62
   120
370
     5
100
AcDbLine
 10
-2016.498819216564
 20
-551.4255702267154
 30
0.0
 11
-1835.218816056303
 21
-370.1455670664506
 31
0.0
  0
LINE
  5
20A
330
1F
100
AcDbEntity
  8
0-C_ハッチ
  6
Continuous
 62
   120
370
     5
100
AcDbLine
 10
-2016.498831804412
 20
-492.0286131949159
 30
0.0
 11
-1930.727332240321
 21
-406.2571136308212
 31
0.0
  0
LINE
  5
20B
330
1F
100
AcDbEntity
  8
0-C_ハッチ
  6
Continuous
 62
   120
370
     5
100
AcDbLine
 10
-2016.498844392287
 20
-432.6316561630857
 30
0.0
 11
-1990.124301860019
 21
-406.2571136308178
 31
0.0
  0
LWPOLYLINE
  5
20C
330
1F
100
AcDbEntity
  8
0-B_寸法
  6
Continuous
 62
     7
370
     9
100
AcDbPolyline
 90
        4
 70
     1
 43
3.0
 10
-928.9988023526896
 20
-630.9991710011716
 42
0.4142135623731
 10
-930.4988023526896
 20
-629.4991710011715
 42
0.4142135623731
 10
-931.9988023526896
 20
-630.9991710011716
 42
0.4142135623731
 10
-930.4988023526896
 20
-632.4991710011716
 42
0.4142135623731
  0
LWPOLYLINE
  5
20D
330
1F
100
AcDbEntity
  8
0-B_寸法
  6
Continuous
 62
     7
370
     9
100
AcDbPolyline
 90
        4
 70
     1
 43
3.0
 10
-928.9988023526896
 20
-585.9990225372778
 42
0.4142135623731
 10
-930.4988023526896
 20
-584.4990225372777
 42
0.4142135623731
 10
-931.9988023526896
 20
-585.9990225372778
 42
0.4142135623731
 10
-930.4988023526896
 20
-587.4990225372778
 42
0.4142135623731
  0
LINE
  5
20E
330
1F
100
AcDbEntity
  8
0-B_寸法
  6
Continuous
 62
   120
370
     5
100
AcDbLine
 10
-1140.49880235269
 20
-630.9991710011716
 30
0.0
 11
-930.4988023526896
 21
-630.9991710011716
 31
0.0
  0
LINE
  5
20F
330
1F
100
AcDbEntity
  8
0-B_寸法
  6
Continuous
 62
   120
370
     5
100
AcDbLine
 10
-1140.49881188947
 20
-585.9990225372778
 30
0.0
 11
-930.4988023526896
 21
-585.9990225372778
 31
0.0
  0
LWPOLYLINE
  5
210
330
1F
100
AcDbEntity
  8
0-B_寸法
  6
Continuous
 62
     7
370
     9
100
AcDbPolyline
 90
        4
 70
     1
 43
3.0
 10
-718.9988023526896
 20
-369.9996460856288
 42
0.4142135623731
 10
-720.4988023526896
 20
-368.4996460856287
 42
0.4142135623731
 10
-721.9988023526896
 20
-369.9996460856288
 42
0.4142135623731
 10
-720.4988023526896
 20
-371.4996460856288
 42
0.4142135623731
  0
LWPOLYLINE
  5
211
330
1F
100
AcDbEntity
  8
0-B_寸法
  6
Continuous
 62
     7
370
     9
100
AcDbPolyline
 90
        4
 70
     1
 43
3.0
 10
-718.9988023526896
 20
-585.9986513775413
 42
0.4142135623731
 10
-720.4988023526896
 20
-584.4986513775413
 42
0.4142135623731
 10
-721.9988023526896
 20
-585.9986513775413
 42
0.4142135623731
 10
-720.4988023526896
 20
-587.4986513775413
 42
0.4142135623731
  0
LINE
  5
212
330
1F
100
AcDbEntity
  8
0-B_寸法
  6
Continuous
 62
   120
370
     5
100
AcDbLine
 10
-930.4988023526896
 20
-585.9986513775413
 30
0.0
 11
-720.4988023526896
 21
-585.9986513775413
 31
0.0
  0
LWPOLYLINE
  5
213
330
1F
100
AcDbEntity
  8
0-B_寸法
  6
Continuous
 62
     7
370
     9
100
AcDbPolyline
 90
        4
 70
     1
 43
3.0
 10
-508.9988023526896
 20
-369.9996460856288
 42
0.4142135623731
 10
-510.4988023526896
 20
-368.4996460856287
 42
0.4142135623731
 10
-511.9988023526896
 20
-369.9996460856288
 42
0.4142135623731
 10
-510.4988023526896
 20
-371.4996460856288
 42
0.4142135623731
  0
LINE
  5
214
330
1F
100
AcDbEntity
  8
0-B_寸法
  6
Continuous
 62
   120
370
     5
100
AcDbLine
 10
-1140.498857665747
 20
-369.9996460856288
 30
0.0
 11
-510.4988023526896
 21
-369.9996460856288
 31
0.0
  0
LINE
  5
215
330
1F
100
AcDbEntity
  8
0-4_枠
  6
Continuous
 62
    92
370
    13
100
AcDbLine
 10
-1884.498857634832
 20
-370.1455390919838
 30
0.0
 11
-1884.498849981785
 21
-406.2571136308144
 31
0.0
  0
LINE
  5
216
330
1F
100
AcDbEntity
  8
0-4_枠
  6
Continuous
 62
    92
370
    13
100
AcDbLine
 10
-1842.498937743471
 20
-466.1449261973141
 30
0.0
 11
-1842.498937743471
 21
-586.145383960986
 31
0.0
  0
LINE
  5
217
330
1F
100
AcDbEntity
  8
0-4_枠
  6
Continuous
 62
    92
370
    13
100
AcDbLine
 10
-1674.498684900567
 20
-466.1449261973141
 30
0.0
 11
-1842.498937743471
 21
-466.1449261973141
 31
0.0
  0
LINE
  5
218
330
1F
100
AcDbEntity
  8
0-4_枠
  6
Continuous
 62
    92
370
    13
100
AcDbLine
 10
-1674.498684900567
 20
-586.145383960986
 30
0.0
 11
-1674.498684900567
 21
-466.1449261973141
 31
0.0
  0
LINE
  5
219
330
1F
100
AcDbEntity
  8
0-4_枠
  6
Continuous
 62
    92
370
    13
100
AcDbLine
 10
-1518.498815673163
 20
-586.145383960986
 30
0.0
 11
-1674.498684900567
 21
-586.145383960986
 31
0.0
  0
ARC
  5
21A
330
1F
100
AcDbEntity
  8
0-4_枠
  6
Continuous
 62
    92
370
    13
100
AcDbCircle
 10
-1518.498815673163
 20
-568.1453839609866
 30
0.0
 40
18.0
100
AcDbArc
 50
270.0
 51
0.0000121425689963
  0
LINE
  5
21B
330
1F
100
AcDbEntity
  8
0-4_枠
  6
Continuous
 62
    92
370
    13
100
AcDbLine
 10
-1998.498815673163
 20
-586.145383960986
 30
0.0
 11
-1842.498937743471
 21
-586.145383960986
 31
0.0
  0
ARC
  5
21C
330
1F
100
AcDbEntity
  8
0-4_枠
  6
Continuous
 62
    92
370
    13
100
AcDbCircle
 10
-1998.498815673163
 20
-568.1453839609866
 30
0.0
 40
18.0
100
AcDbArc
 50
180.000012142569
 51
270.0
  0
LINE
  5
21D
330
1F
100
AcDbEntity
  8
0-4_枠
  6
Continuous
 62
    92
370
    13
100
AcDbLine
 10
-1632.498849981793
 20
-406.2571136308144
 30
0.0
 11
-1500.49885763483
 21
-406.2571136308144
 31
0.0
  0
LINE
  5
21E
330
1F
100
AcDbEntity
  8
0-4_枠
  6
Continuous
 62
    92
370
    13
100
AcDbLine
 10
-1632.498857634833
 20
-370.1455670664561
 30
0.0
 11
-1884.498857634825
 21
-370.1455670664561
 31
0.0
  0
LINE
  5
21F
330
1F
100
AcDbEntity
  8
0-4_枠
  6
Continuous
 62
    92
370
    13
100
AcDbLine
 10
-1632.498857634833
 20
-370.1455670664561
 30
0.0
 11
-1632.498850005432
 21
-406.1455670664553
 31
0.0
  0
LINE
  5
220
330
1F
100
AcDbEntity
  8
0-4_枠
  6
Continuous
 62
    92
370
    13
100
AcDbLine
 10
-1500.498815673163
 20
-568.1453801462861
 30
0.0
 11
-1500.498850005429
 21
-406.1455670664553
 31
0.0
  0
LINE
  5
221
330
1F
100
AcDbEntity
  8
0-4_枠
  6
Continuous
 62
    92
370
    13
100
AcDbLine
 10
-2016.498815673161
 20
-568.145387775687
 30
0.0
 11
-2016.498849981788
 21
-406.2571136308144
 31
0.0
  0
LINE
  5
222
330
1F
100
AcDbEntity
  8
0-4_枠
  6
Continuous
 62
    92
370
    13
100
AcDbLine
 10
-1884.498849981785
 20
-406.2571136308144
 30
0.0
 11
-2016.498849981788
 21
-406.2571136308144
 31
0.0
  0
LINE
  5
223
330
1F
100
AcDbEntity
  8
0-7_金物
  6
Continuous
 62
     7
370
     9
100
AcDbLine
 10
-1823.494821685121
 20
-592.145475513721
 30
0.0
 11
-1860.498708861635
 21
-592.145475513721
 31
0.0
  0
LINE
  5
224
330
1F
100
AcDbEntity
  8
0-7_金物
  6
Continuous
 62
     7
370
     9
100
AcDbLine
 10
-1788.50040258722
 20
-586.145383960986
 30
0.0
 11
-1728.49871458368
 21
-586.145383960986
 31
0.0
  0
LINE
  5
225
330
1F
100
AcDbEntity
  8
0-7_金物
  6
Continuous
 62
     7
370
     9
100
AcDbLine
 10
-1824.318796294496
 20
-572.9331342051272
 30
0.0
 11
-1788.50040258722
 21
-572.9331342051272
 31
0.0
  0
LINE
  5
226
330
1F
100
AcDbEntity
  8
0-7_金物
  6
Continuous
 62
     7
370
     9
100
AcDbLine
 10
-1728.49871458368
 20
-572.9331342051272
 30
0.0
 11
-1692.319548743531
 21
-572.9331342051272
 31
0.0
  0
LINE
  5
227
330
1F
100
AcDbEntity
  8
0-7_金物
  6
Continuous
 62
     7
370
     9
100
AcDbLine
 10
-1656.500406878754
 20
-586.145383960986
 30
0.0
 11
-1656.500406878754
 21
-592.145475513721
 31
0.0
  0
LINE
  5
228
330
1F
100
AcDbEntity
  8
0-7_金物
  6
Continuous
 62
     7
370
     9
100
AcDbLine
 10
-1694.285208838748
 20
-592.145475513721
 30
0.0
 11
-1656.500406878754
 21
-592.145475513721
 31
0.0
  0
LINE
  5
229
330
1F
100
AcDbEntity
  8
0-7_金物
  6
Continuous
 62
     7
370
     9
100
AcDbLine
 10
-1860.498708861635
 20
-586.145383960986
 30
0.0
 11
-1860.498708861635
 21
-592.145475513721
 31
0.0
  0
LINE
  5
22A
330
1F
100
AcDbEntity
  8
0-7_金物
  6
Continuous
 62
     7
370
     9
100
AcDbLine
 10
-1694.285208838748
 20
-586.145383960986
 30
0.0
 11
-1686.498278277681
 21
-586.145383960986
 31
0.0
  0
LINE
  5
22B
330
1F
100
AcDbEntity
  8
0-7_金物
  6
Continuous
 62
     7
370
     9
100
AcDbLine
 10
-1694.285208838748
 20
-592.145475513721
 30
0.0
 11
-1694.285208838748
 21
-586.145383960986
 31
0.0
  0
LINE
  5
22C
330
1F
100
AcDbEntity
  8
0-7_金物
  6
Continuous
 62
     7
370
     9
100
AcDbLine
 10
-1674.498684900567
 20
-586.145383960986
 30
0.0
 11
-1656.500406878754
 21
-586.145383960986
 31
0.0
  0
LINE
  5
22D
330
1F
100
AcDbEntity
  8
0-7_金物
  6
Continuous
 62
     7
370
     9
100
AcDbLine
 10
-1830.498605864808
 20
-586.145383960986
 30
0.0
 11
-1823.494821685121
 21
-586.145383960986
 31
0.0
  0
LINE
  5
22E
330
1F
100
AcDbEntity
  8
0-7_金物
  6
Continuous
 62
     7
370
     9
100
AcDbLine
 10
-1823.494821685121
 20
-592.145475513721
 30
0.0
 11
-1823.494821685121
 21
-586.145383960986
 31
0.0
  0
LINE
  5
22F
330
1F
100
AcDbEntity
  8
0-7_金物
  6
Continuous
 62
     7
370
     9
100
AcDbLine
 10
-1842.498937743471
 20
-586.145383960986
 30
0.0
 11
-1860.498708861635
 21
-586.145383960986
 31
0.0
  0
LINE
  5
230
330
1F
100
AcDbEntity
  8
0-7_金物
  6
Continuous
 62
     7
370
     9
100
AcDbLine
 10
-1788.50040258722
 20
-506.9331342051279
 30
0.0
 11
-1824.318796294496
 21
-506.9331342051279
 31
0.0
  0
LINE
  5
231
330
1F
100
AcDbEntity
  8
0-7_金物
  6
Continuous
 62
     7
370
     9
100
AcDbLine
 10
-1824.318796294496
 20
-506.9331342051279
 30
0.0
 11
-1824.318796294496
 21
-572.9331342051272
 31
0.0
  0
LINE
  5
232
330
1F
100
AcDbEntity
  8
0-7_金物
  6
Continuous
 62
     7
370
     9
100
AcDbLine
 10
-1788.50040258722
 20
-490.144926197314
 30
0.0
 11
-1788.50040258722
 21
-586.145383960986
 31
0.0
  0
LINE
  5
233
330
1F
100
AcDbEntity
  8
0-7_金物
  6
Continuous
 62
     7
370
     9
100
AcDbLine
 10
-1728.49871458368
 20
-490.144926197314
 30
0.0
 11
-1788.50040258722
 21
-490.144926197314
 31
0.0
  0
LINE
  5
234
330
1F
100
AcDbEntity
  8
0-7_金物
  6
Continuous
 62
     7
370
     9
100
AcDbLine
 10
-1728.49871458368
 20
-586.145383960986
 30
0.0
 11
-1728.49871458368
 21
-490.144926197314
 31
0.0
  0
LINE
  5
235
330
1F
100
AcDbEntity
  8
0-7_金物
  6
Continuous
 62
     7
370
     9
100
AcDbLine
 10
-1692.319548743531
 20
-506.9331342051279
 30
0.0
 11
-1728.49871458368
 21
-506.9331342051279
 31
0.0
  0
LINE
  5
236
330
1F
100
AcDbEntity
  8
0-7_金物
  6
Continuous
 62
     7
370
     9
100
AcDbLine
 10
-1692.319548743531
 20
-572.9331342051272
 30
0.0
 11
-1692.319548743531
 21
-506.9331342051279
 31
0.0
  0
LINE
  5
237
330
1F
100
AcDbEntity
  8
0-7_金物
  6
Continuous
 62
     7
370
     9
100
AcDbLine
 10
-1686.498278277681
 20
-586.145383960986
 30
0.0
 11
-1686.498278277681
 21
-478.1452924082529
 31
0.0
  0
LINE
  5
238
330
1F
100
AcDbEntity
  8
0-7_金物
  6
Continuous
 62
     7
370
     9
100
AcDbLine
 10
-1686.498278277681
 20
-478.1452924082529
 30
0.0
 11
-1830.498605864808
 21
-478.1452924082529
 31
0.0
  0
LINE
  5
239
330
1F
100
AcDbEntity
  8
0-7_金物
  6
Continuous
 62
     7
370
     9
100
AcDbLine
 10
-1830.498605864808
 20
-478.1452924082529
 30
0.0
 11
-1830.498605864808
 21
-586.145383960986
 31
0.0
  0
LINE
  5
23A
330
1F
100
AcDbEntity
  8
0-4_枠
  6
Continuous
 62
   120
370
     5
100
AcDbLine
 10
-1500.49885763483
 20
-406.2571136308144
 30
0.0
 11
-1482.664450075351
 21
-406.2571136308144
 31
0.0
  0
LINE
  5
23B
330
1F
100
AcDbEntity
  8
0-4_枠
  6
Continuous
 62
   120
370
     5
100
AcDbLine
 10
-2016.498849981788
 20
-406.2571136308144
 30
0.0
 11
-2034.664450075353
 21
-406.2571136308144
 31
0.0
  0
LINE
  5
23C
330
1F
100
AcDbEntity
  8
0-4_枠
  6
Continuous
 62
   120
370
     5
100
AcDbLine
 10
-2034.664450075353
 20
-406.2571136308144
 30
0.0
 11
-2034.664450075353
 21
-1833.999789600726
 31
0.0
  0
LINE
  5
23D
330
1F
100
AcDbEntity
  8
0-6_扉
  6
Continuous
 62
   200
370
    20
100
AcDbLine
 10
-1839.664999391758
 20
-1833.999789600726
 30
0.0
 11
-1839.664999391758
 21
-630.9995396865064
 31
0.0
  0
LINE
  5
23E
330
1F
100
AcDbEntity
  8
0-6_扉
  6
Continuous
 62
   200
370
    20
100
AcDbLine
 10
-1677.664999391758
 20
-1833.999789600726
 30
0.0
 11
-1677.664999391758
 21
-630.9995396865064
 31
0.0
  0
LINE
  5
23F
330
1F
100
AcDbEntity
  8
0-4_枠
  6
Continuous
 62
   120
370
     5
100
AcDbLine
 10
-1482.664450075351
 20
-406.2571136308144
 30
0.0
 11
-1482.664450075351
 21
-1833.999789600726
 31
0.0
  0
LINE
  5
240
330
1F
100
AcDbEntity
  8
0-B_寸法
  6
Continuous
 62
   120
370
     5
100
AcDbLine
 10
-930.4988023526896
 20
-3268.00003969468
 30
0.0
 11
-930.4988023526896
 21
-585.9990225372778
 31
0.0
  0
LINE
  5
241
330
1F
100
AcDbEntity
  8
0-B_寸法
  6
Continuous
 62
   120
370
     5
100
AcDbLine
 10
-720.4988023526896
 20
-3297.999668534946
 30
0.0
 11
-720.4988023526896
 21
-369.9996460856288
 31
0.0
  0
LINE
  5
242
330
1F
100
AcDbEntity
  8
0-B_寸法
  6
Continuous
 62
   120
370
     5
100
AcDbLine
 10
-510.4988023526896
 20
-339.9996460856279
 30
0.0
 11
-1140.498857665747
 21
-339.9996460856279
 31
0.0
  0
LWPOLYLINE
  5
243
330
1F
100
AcDbEntity
  8
0-B_寸法
  6
Continuous
 62
     7
370
     9
100
AcDbPolyline
 90
        4
 70
     1
 43
3.0
 10
-508.9988023526896
 20
-339.9996460856279
 42
0.4142135623731
 10
-510.4988023526896
 20
-338.4996460856279
 42
0.4142135623731
 10
-511.9988023526896
 20
-339.9996460856279
 42
0.4142135623731
 10
-510.4988023526896
 20
-341.4996460856279
 42
0.4142135623731
  0
LINE
  5
244
330
1F
100
AcDbEntity
  8
0-7_金物
  6
Continuous
 62
     7
370
     9
100
AcDbLine
 10
-1704.664415743077
 20
-370.1455670664561
 30
0.0
 11
-1704.664415743077
 21
-363.9995774210786
 31
0.0
  0
LINE
  5
245
330
1F
100
AcDbEntity
  8
0-7_金物
  6
Continuous
 62
     7
370
     9
100
AcDbLine
 10
-1812.664484407627
 20
-363.9995774210786
 30
0.0
 11
-1812.664484407627
 21
-370.1455670664561
 31
0.0
  0
LINE
  5
246
330
1F
100
AcDbEntity
  8
0-7_金物
  6
Continuous
 62
     7
370
     9
100
AcDbLine
 10
-1818.664650346959
 20
-363.9995774210786
 30
0.0
 11
-1698.664993669712
 21
-363.9995774210786
 31
0.0
  0
LINE
  5
247
330
1F
100
AcDbEntity
  8
0-7_金物
  6
Continuous
 62
     7
370
     9
100
AcDbLine
 10
-1698.664993669712
 20
-351.999983686336
 30
0.0
 11
-1698.664993669712
 21
-363.9995774210786
 31
0.0
  0
LINE
  5
248
330
1F
100
AcDbEntity
  8
0-7_金物
  6
Continuous
 62
     7
370
     9
100
AcDbLine
 10
-1818.664650346959
 20
-351.999983686336
 30
0.0
 11
-1818.664650346959
 21
-363.9995774210786
 31
0.0
  0
LINE
  5
249
330
1F
100
AcDbEntity
  8
0-7_金物
  6
Continuous
 62
     7
370
     9
100
AcDbLine
 10
-1848.664753343785
 20
-339.9996460856279
 30
0.0
 11
-1668.664890672889
 21
-339.9996460856279
 31
0.0
  0
LINE
  5
24A
330
1F
100
AcDbEntity
  8
0-7_金物
  6
Continuous
 62
     7
370
     9
100
AcDbLine
 10
-1848.664753343785
 20
-339.9996460856279
 30
0.0
 11
-1848.664753343785
 21
-351.999983686336
 31
0.0
  0
LINE
  5
24B
330
1F
100
AcDbEntity
  8
0-7_金物
  6
Continuous
 62
     7
370
     9
100
AcDbLine
 10
-1668.664890672889
 20
-339.9996460856279
 30
0.0
 11
-1668.664890672889
 21
-351.999983686336
 31
0.0
  0
LINE
  5
24C
330
1F
100
AcDbEntity
  8
0-7_金物
  6
Continuous
 62
     7
370
     9
100
AcDbLine
 10
-1848.664753343785
 20
-351.999983686336
 30
0.0
 11
-1668.664890672889
 21
-351.999983686336
 31
0.0
  0
LINE
  5
24D
330
1F
100
AcDbEntity
  8
0-3_仕上げ
  6
Continuous
 62
   120
370
     5
100
AcDbLine
 10
-1968.664450075352
 20
-339.9996460856279
 30
0.0
 11
-1548.664450075352
 21
-339.9996460856279
 31
0.0
  0
LINE
  5
24E
330
1F
100
AcDbEntity
  8
0-3_仕上げ
  6
Continuous
 62
   120
370
     5
100
AcDbLine
 10
-1548.664450075352
 20
-339.9996460856279
 30
0.0
 11
-1548.664450075352
 21
-159.9996460856266
 31
0.0
  0
LINE
  5
24F
330
1F
100
AcDbEntity
  8
0-3_仕上げ
  6
Continuous
 62
   120
370
     5
100
AcDbLine
 10
-1548.664450075352
 20
-159.9996460856266
 30
0.0
 11
-1968.664450075352
 21
-159.9996460856266
 31
0.0
  0
LINE
  5
250
330
1F
100
AcDbEntity
  8
0-3_仕上げ
  6
Continuous
 62
   120
370
     5
100
AcDbLine
 10
-1968.664450075352
 20
-159.9996460856266
 30
0.0
 11
-1968.664450075352
 21
-339.9996460856279
 31
0.0
  0
LINE
  5
251
330
1F
100
AcDbEntity
  8
0-3_仕上げ
  6
Continuous
 62
   120
370
     5
100
AcDbLine
 10
-1548.664450075352
 20
-159.9996460856266
 30
0.0
 11
-1968.664450075352
 21
-339.9996460856279
 31
0.0
  0
LINE
  5
252
330
1F
100
AcDbEntity
  8
0-0_補助線
  6
JWW_HOJO
 62
   120
370
     5
100
AcDbLine
 10
-510.4980470277853
 20
-3369.999831818972
 30
0.0
 11
-510.4986997967261
 21
-339.9996460856074
 31
0.0
  0
LINE
  5
253
330
1F
100
AcDbEntity
  8
0-B_寸法
  6
Continuous
 62
   120
370
     5
100
AcDbLine
 10
-510.4988023526896
 20
-339.9996460856279
 30
0.0
 11
-510.4988023526896
 21
-3370.000017425096
 31
0.0
  0
LINE
  5
254
330
1F
100
AcDbEntity
  8
0-0_補助線
  6
JWW_HOJO
 62
   120
370
     5
100
AcDbLine
 10
-2709.663356635781
 20
-3369.999831818972
 30
0.0
 11
-2709.664058652772
 21
-100.1455670908138
 31
0.0
  0
LINE
  5
255
330
1F
100
AcDbEntity
  8
0-0_補助線
  6
JWW_HOJO
 62
   120
370
     5
100
AcDbLine
 10
-2709.664058652772
 20
-100.1455670908138
 30
0.0
 11
-510.4987490447762
 21
-100.1455670908138
 31
0.0
  0
LINE
  5
256
330
1F
100
AcDbEntity
  8
0-0_補助線
  6
JWW_HOJO
 62
   120
370
     5
100
AcDbLine
 10
-2709.664111960681
 20
-3370.000017218973
 30
0.0
 11
-510.4988023526811
 21
-3370.000017218973
 31
0.0
  0
LWPOLYLINE
  5
257
330
1F
100
AcDbEntity
  8
0-B_寸法
  6
Continuous
 62
     7
370
     9
100
AcDbPolyline
 90
        4
 70
     1
 43
3.0
 10
-2708.164111960681
 20
-3370.000017425096
 42
0.4142135623731
 10
-2709.664111960681
 20
-3368.500017425096
 42
0.4142135623731
 10
-2711.16411196068
 20
-3370.000017425096
 42
0.4142135623731
 10
-2709.664111960681
 20
-3371.500017425095
 42
0.4142135623731
  0
LWPOLYLINE
  5
258
330
1F
100
AcDbEntity
  8
0-B_寸法
  6
Continuous
 62
     7
370
     9
100
AcDbPolyline
 90
        4
 70
     1
 43
3.0
 10
-2708.164111960681
 20
-339.9996460856279
 42
0.4142135623731
 10
-2709.664111960681
 20
-338.4996460856279
 42
0.4142135623731
 10
-2711.16411196068
 20
-339.9996460856279
 42
0.4142135623731
 10
-2709.664111960681
 20
-341.4996460856279
 42
0.4142135623731
  0
LINE
  5
259
330
1F
100
AcDbEntity
  8
0-B_寸法
  6
Continuous
 62
   120
370
     5
100
AcDbLine
 10
-2709.664111960681
 20
-339.9996460856279
 30
0.0
 11
-2709.664111960681
 21
-3370.000017425096
 31
0.0
  0
LINE
  5
25A
330
1F
100
AcDbEntity
  8
0-B_寸法
  6
Continuous
 62
   120
370
     5
100
AcDbLine
 10
-2709.664111960681
 20
-3370.000017425096
 30
0.0
 11
-2373.640491050351
 21
-3370.000017425096
 31
0.0
  0
LINE
  5
25B
330
1F
100
AcDbEntity
  8
0-B_寸法
  6
Continuous
 62
   120
370
     5
100
AcDbLine
 10
-2709.664111960681
 20
-339.9996460856279
 30
0.0
 11
-2373.640491050351
 21
-339.9996460856279
 31
0.0
  0
LINE
  5
25C
330
1F
100
AcDbEntity
  8
0-0_補助線
  6
JWW_HOJO
 62
   120
370
     5
100
AcDbLine
 10
-2373.63973572545
 20
-3369.999831818972
 30
0.0
 11
-2373.640437742443
 21
-100.1455670908138
 31
0.0
  0
LINE
  5
25D
330
1F
100
AcDbEntity
  8
0-3_仕上げ
  6
Continuous
 62
    40
370
    15
100
AcDbLine
 10
-2373.639750984208
 20
-3370.000017425096
 30
0.0
 11
-1140.498237086473
 21
-3370.000017425096
 31
0.0
  0
LINE
  5
25E
330
1F
100
AcDbEntity
  8
0-3_仕上げ
  6
Continuous
 62
    40
370
    15
100
AcDbLine
 10
-2373.639750984208
 20
-3298.00003969468
 30
0.0
 11
-1140.49823682272
 21
-3298.00003969468
 31
0.0
  0
LINE
  5
25F
330
1F
100
AcDbEntity
  8
0-3_仕上げ
  6
Continuous
 62
     7
370
     9
100
AcDbLine
 10
-2373.639750984208
 20
-3358.000052066674
 30
0.0
 11
-1140.498224326845
 21
-3358.000052066674
 31
0.0
  0
LINE
  5
260
330
1F
100
AcDbEntity
  8
0-3_仕上げ
  6
Continuous
 62
     7
370
     9
100
AcDbLine
 10
-2373.639750984208
 20
-3309.999819473236
 30
0.0
 11
-1140.498234323591
 21
-3309.999819473236
 31
0.0
  0
LINE
  5
261
330
1F
100
AcDbEntity
  8
0-3_仕上げ
  6
Continuous
 62
     7
370
     9
100
AcDbLine
 10
-2373.639750984208
 20
-3321.99997041153
 30
0.0
 11
-1140.498231824385
 21
-3321.99997041153
 31
0.0
  0
LINE
  5
262
330
1F
100
AcDbEntity
  8
0-3_仕上げ
  6
Continuous
 62
     7
370
     9
100
AcDbLine
 10
-2373.639750984208
 20
-3333.999935769952
 30
0.0
 11
-1140.498229325218
 21
-3333.999935769952
 31
0.0
  0
LINE
  5
263
330
1F
100
AcDbEntity
  8
0-3_仕上げ
  6
Continuous
 62
     7
370
     9
100
AcDbLine
 10
-2373.639750984208
 20
-3345.999901128377
 30
0.0
 11
-1140.498226826051
 21
-3345.999901128377
 31
0.0
  0
LINE
  5
264
330
1F
100
AcDbEntity
  8
0-0_補助線
  6
JWW_HOJO
 62
   120
370
     5
100
AcDbLine
 10
-1130.112132816675
 20
-1833.999789600726
 30
0.0
 11
-2373.640039731688
 21
-1833.999789600726
 31
0.0
  0
LINE
  5
265
330
1F
100
AcDbEntity
  8
0-0_補助線
  6
JWW_HOJO
 62
   120
370
     5
100
AcDbLine
 10
-1130.112132816675
 20
-1953.999789600728
 30
0.0
 11
-2373.640039731688
 21
-1953.999789600728
 31
0.0
  0
LINE
  5
266
330
1F
100
AcDbEntity
  8
0-B_寸法
  6
Continuous
 62
   120
370
     5
100
AcDbLine
 10
-1839.664999391758
 20
-1146.743163740106
 30
0.0
 11
-1839.664999391758
 21
-1230.980092319078
 31
0.0
  0
LWPOLYLINE
  5
267
330
1F
100
AcDbEntity
  8
0-B_寸法
  6
Continuous
 62
     7
370
     9
100
AcDbPolyline
 90
        4
 70
     1
 43
3.0
 10
-1838.164999391758
 20
-1230.980092319078
 42
0.4142135623731
 10
-1839.664999391758
 20
-1229.480092319078
 42
0.4142135623731
 10
-1841.164999391758
 20
-1230.980092319078
 42
0.4142135623731
 10
-1839.664999391758
 20
-1232.480092319077
 42
0.4142135623731
  0
LINE
  5
268
330
1F
100
AcDbEntity
  8
0-B_寸法
  6
Continuous
 62
   120
370
     5
100
AcDbLine
 10
-1677.664999391758
 20
-1146.743163740106
 30
0.0
 11
-1677.664999391758
 21
-1230.980092319078
 31
0.0
  0
LWPOLYLINE
  5
269
330
1F
100
AcDbEntity
  8
0-B_寸法
  6
Continuous
 62
     7
370
     9
100
AcDbPolyline
 90
        4
 70
     1
 43
3.0
 10
-1676.164999391758
 20
-1230.980092319078
 42
0.4142135623731
 10
-1677.664999391758
 20
-1229.480092319078
 42
0.4142135623731
 10
-1679.164999391758
 20
-1230.980092319078
 42
0.4142135623731
 10
-1677.664999391758
 20
-1232.480092319077
 42
0.4142135623731
  0
LINE
  5
26A
330
1F
100
AcDbEntity
  8
0-B_寸法
  6
Continuous
 62
   120
370
     5
100
AcDbLine
 10
-1677.664999391758
 20
-1230.980092319078
 30
0.0
 11
-1839.664999391758
 21
-1230.980092319078
 31
0.0
  0
LINE
  5
26B
330
1F
100
AcDbEntity
  8
0-B_寸法
  6
Continuous
 62
   120
370
     5
100
AcDbLine
 10
-2016.664450075353
 20
-881.4819705433773
 30
0.0
 11
-1500.664450075351
 21
-881.4819705433773
 31
0.0
  0
MTEXT
  5
26C
330
1F
100
AcDbEntity
  8
0-B_寸法
  6
Continuous
 62
     7
370
   211
100
AcDbMText
 10
-525.4988023526896
 20
-351.7575695061652
 30
0.0
 40
91.4400000000052
 41
60.00000000000341
 46
0.0
 71
     7
 72
     1
  1
{\fＭＳ ゴシック|b0|i0|c128|p49;5}
 11
6.123031769111886E-17
 21
1.0
 31
0.0
 73
     1
 44
1.0
  0
LWPOLYLINE
  5
26D
330
1F
100
AcDbEntity
  8
0-B_寸法
  6
Continuous
 62
     7
370
     9
100
AcDbPolyline
 90
        4
 70
     1
 43
3.0
 10
-2015.164450075353
 20
-881.4819705433773
 42
0.4142135623731
 10
-2016.664450075353
 20
-879.9819705433773
 42
0.4142135623731
 10
-2018.164450075353
 20
-881.4819705433773
 42
0.4142135623731
 10
-2016.664450075353
 20
-882.9819705433773
 42
0.4142135623731
  0
LWPOLYLINE
  5
26E
330
1F
100
AcDbEntity
  8
0-B_寸法
  6
Continuous
 62
     7
370
     9
100
AcDbPolyline
 90
        4
 70
     1
 43
3.0
 10
-1499.164450075351
 20
-881.4819705433773
 42
0.4142135623731
 10
-1500.664450075351
 20
-879.9819705433773
 42
0.4142135623731
 10
-1502.164450075351
 20
-881.4819705433773
 42
0.4142135623731
 10
-1500.664450075351
 20
-882.9819705433773
 42
0.4142135623731
  0
LINE
  5
26F
330
1F
100
AcDbEntity
  8
0-B_寸法
  6
Continuous
 62
   120
370
     5
100
AcDbLine
 10
-2016.664450075353
 20
-881.4819705433773
 30
0.0
 11
-2016.664450075353
 21
-764.0284906666691
 31
0.0
  0
LINE
  5
270
330
1F
100
AcDbEntity
  8
0-B_寸法
  6
Continuous
 62
   120
370
     5
100
AcDbLine
 10
-1500.664450075351
 20
-881.4819705433773
 30
0.0
 11
-1500.664450075351
 21
-764.0284906666691
 31
0.0
  0
LINE
  5
271
330
1F
100
AcDbEntity
  8
0-0_補助線
  6
JWW_HOJO
 62
   120
370
     5
100
AcDbLine
 10
-510.4980470277922
 20
-3297.99980798778
 30
0.0
 11
-510.4987490447865
 21
-100.1455209900368
 31
0.0
  0
MTEXT
  5
272
330
1F
100
AcDbEntity
  8
0-B_寸法
  6
Continuous
 62
     7
370
     0
100
AcDbMText
 10
-735.4981095211851
 20
-548.5291487315851
 30
0.0
 40
91.4399999999974
 41
119.9999999999966
 46
0.0
 71
     7
 72
     1
  1
{\fＭＳ ゴシック|b0|i0|c128|p49;36}
 11
6.123031769111886E-17
 21
1.0
 31
0.0
 73
     1
 44
1.0
  0
MTEXT
  5
273
330
1F
100
AcDbEntity
  8
0-B_寸法
  6
Continuous
 62
     7
370
     0
100
AcDbMText
 10
-944.9265849329904
 20
-838.4402588510801
 30
0.0
 40
91.44
 41
180.0
 46
0.0
 71
     7
 72
     1
  1
{\fＭＳ ゴシック|b0|i0|c128|p49;7.5}
 11
6.123031769111886E-17
 21
1.0
 31
0.0
 73
     1
 44
1.0
  0
LINE
  5
274
330
1F
100
AcDbEntity
  8
0-4_枠
  6
Continuous
 62
     7
370
     9
100
AcDbLine
 10
-1860.664450075351
 20
-3269.800039694681
 30
0.0
 11
-1838.464450075351
 21
-3269.800039694681
 31
0.0
  0
LINE
  5
275
330
1F
100
AcDbEntity
  8
0-4_枠
  6
Continuous
 62
     7
370
     9
100
AcDbLine
 10
-1836.664450075352
 20
-3271.60003969468
 30
0.0
 11
-1838.464450075351
 21
-3269.800039694681
 31
0.0
  0
LINE
  5
276
330
1F
100
AcDbEntity
  8
0-4_枠
  6
Continuous
 62
     7
370
     9
100
AcDbLine
 10
-1836.664450075352
 20
-3271.60003969468
 30
0.0
 11
-1834.864450075351
 21
-3269.800039694681
 31
0.0
  0
ARC
  5
277
330
1F
100
AcDbEntity
  8
0-4_枠
  6
Continuous
 62
     7
370
     9
100
AcDbCircle
 10
-1797.064450075351
 20
-3271.600039694679
 30
0.0
 40
1.800000000000579
100
AcDbArc
 50
359.9999999999784
 51
90.00000000000004
  0
LINE
  5
278
330
1F
100
AcDbEntity
  8
0-4_枠
  6
Continuous
 62
     7
370
     9
100
AcDbLine
 10
-1795.264450075351
 20
-3271.60003969468
 30
0.0
 11
-1795.264450075351
 21
-3274.60003969468
 31
0.0
  0
ARC
  5
279
330
1F
100
AcDbEntity
  8
0-4_枠
  6
Continuous
 62
     7
370
     9
100
AcDbCircle
 10
-1796.464450075352
 20
-3274.60003969468
 30
0.0
 40
1.200000000000273
100
AcDbArc
 50
270.0
 51
359.9999999999674
  0
LINE
  5
27A
330
1F
100
AcDbEntity
  8
0-4_枠
  6
Continuous
 62
     7
370
     9
100
AcDbLine
 10
-1796.464450075352
 20
-3275.80003969468
 30
0.0
 11
-1800.064450075352
 21
-3275.80003969468
 31
0.0
  0
ARC
  5
27B
330
1F
100
AcDbEntity
  8
0-4_枠
  6
Continuous
 62
     7
370
     9
100
AcDbCircle
 10
-1800.064450075352
 20
-3277.600039694679
 30
0.0
 40
1.799999999999727
100
AcDbArc
 50
90.0
 51
180.0
  0
LINE
  5
27C
330
1F
100
AcDbEntity
  8
0-4_枠
  6
Continuous
 62
     7
370
     9
100
AcDbLine
 10
-1801.864450075352
 20
-3277.600039694679
 30
0.0
 11
-1801.864450075352
 21
-3289.60003969468
 31
0.0
  0
ARC
  5
27D
330
1F
100
AcDbEntity
  8
0-4_枠
  6
Continuous
 62
     7
370
     9
100
AcDbCircle
 10
-1798.864450075353
 20
-3289.60003969468
 30
0.0
 40
3.0
100
AcDbArc
 50
180.0
 51
270.0
  0
LINE
  5
27E
330
1F
100
AcDbEntity
  8
0-4_枠
  6
Continuous
 62
     7
370
     9
100
AcDbLine
 10
-1798.864450075353
 20
-3292.600039694681
 30
0.0
 11
-1760.464450075353
 21
-3292.600039694682
 31
0.0
  0
LINE
  5
27F
330
1F
100
AcDbEntity
  8
0-4_枠
  6
Continuous
 62
     7
370
     9
100
AcDbLine
 10
-1758.664450075352
 20
-3294.400039694681
 30
0.0
 11
-1760.464450075353
 21
-3292.600039694682
 31
0.0
  0
LINE
  5
280
330
1F
100
AcDbEntity
  8
0-4_枠
  6
Continuous
 62
     7
370
     9
100
AcDbLine
 10
-1758.664450075352
 20
-3294.400039694681
 30
0.0
 11
-1756.864450075352
 21
-3292.600039694682
 31
0.0
  0
LINE
  5
281
330
1F
100
AcDbEntity
  8
0-4_枠
  6
Continuous
 62
     7
370
     9
100
AcDbLine
 10
-1756.864450075352
 20
-3292.600039694682
 30
0.0
 11
-1718.464450075358
 21
-3292.600039694681
 31
0.0
  0
ARC
  5
282
330
1F
100
AcDbEntity
  8
0-4_枠
  6
Continuous
 62
     7
370
     9
100
AcDbCircle
 10
-1718.464450075358
 20
-3289.60003969468
 30
0.0
 40
3.0
100
AcDbArc
 50
270.0
 51
0.0
  0
LINE
  5
283
330
1F
100
AcDbEntity
  8
0-4_枠
  6
Continuous
 62
     7
370
     9
100
AcDbLine
 10
-1715.464450075357
 20
-3277.600039694679
 30
0.0
 11
-1715.464450075357
 21
-3289.60003969468
 31
0.0
  0
ARC
  5
284
330
1F
100
AcDbEntity
  8
0-4_枠
  6
Continuous
 62
     7
370
     9
100
AcDbCircle
 10
-1717.264450075358
 20
-3277.600039694679
 30
0.0
 40
1.800000000000069
100
AcDbArc
 50
0.0
 51
90.0
  0
LINE
  5
285
330
1F
100
AcDbEntity
  8
0-4_枠
  6
Continuous
 62
     7
370
     9
100
AcDbLine
 10
-1720.864450075352
 20
-3275.80003969468
 30
0.0
 11
-1717.264450075358
 21
-3275.80003969468
 31
0.0
  0
ARC
  5
286
330
1F
100
AcDbEntity
  8
0-4_枠
  6
Continuous
 62
     7
370
     9
100
AcDbCircle
 10
-1720.864450075352
 20
-3274.60003969468
 30
0.0
 40
1.199999999999932
100
AcDbArc
 50
179.9999999999674
 51
270.0
  0
LINE
  5
287
330
1F
100
AcDbEntity
  8
0-4_枠
  6
Continuous
 62
     7
370
     9
100
AcDbLine
 10
-1722.064450075351
 20
-3271.600039694679
 30
0.0
 11
-1722.064450075351
 21
-3274.600039694679
 31
0.0
  0
ARC
  5
288
330
1F
100
AcDbEntity
  8
0-4_枠
  6
Continuous
 62
     7
370
     9
100
AcDbCircle
 10
-1720.264450075353
 20
-3271.600039694679
 30
0.0
 40
1.799999999999727
100
AcDbArc
 50
89.99999999996201
 51
180.0
  0
ARC
  5
289
330
1F
100
AcDbEntity
  8
0-4_枠
  6
Continuous
 62
     7
370
     9
100
AcDbCircle
 10
-1720.264450075358
 20
-3281.80003969468
 30
0.0
 40
12.0
100
AcDbArc
 50
359.9999999999968
 51
89.9999999999682
  0
LINE
  5
28A
330
1F
100
AcDbEntity
  8
0-4_枠
  6
Continuous
 62
     7
370
     9
100
AcDbLine
 10
-1708.264450075357
 20
-3281.800039694681
 30
0.0
 11
-1708.264450075357
 21
-3298.00003969468
 31
0.0
  0
ARC
  5
28B
330
1F
100
AcDbEntity
  8
0-4_枠
  6
Continuous
 62
     7
370
     9
100
AcDbCircle
 10
-1802.464450075351
 20
-3292.000039694681
 30
0.0
 40
6.0
100
AcDbArc
 50
180.0
 51
270.0
  0
LINE
  5
28C
330
1F
100
AcDbEntity
  8
0-4_枠
  6
Continuous
 62
     7
370
     9
100
AcDbLine
 10
-1808.464450075351
 20
-3280.445624106952
 30
0.0
 11
-1808.464450075351
 21
-3292.000039694681
 31
0.0
  0
ARC
  5
28D
330
1F
100
AcDbEntity
  8
0-4_枠
  6
Continuous
 62
     7
370
     9
100
AcDbCircle
 10
-1810.264450075353
 20
-3280.445624106952
 30
0.0
 40
1.800000000000069
100
AcDbArc
 50
359.9999999999784
 51
135.0000000000384
  0
LINE
  5
28E
330
1F
100
AcDbEntity
  8
0-4_枠
  6
Continuous
 62
     7
370
     9
100
AcDbLine
 10
-1817.537242281486
 20
-3285.172831900818
 30
0.0
 11
-1811.537242281488
 21
-3279.172831900818
 31
0.0
  0
ARC
  5
28F
330
1F
100
AcDbEntity
  8
0-4_枠
  6
Continuous
 62
     7
370
     9
100
AcDbCircle
 10
-1816.264450075351
 20
-3286.445624106953
 30
0.0
 40
1.799999999999605
100
AcDbArc
 50
135.0000000000057
 51
180.0000000000034
  0
LINE
  5
290
330
1F
100
AcDbEntity
  8
0-4_枠
  6
Continuous
 62
     7
370
     9
100
AcDbLine
 10
-1818.064450075351
 20
-3298.00003969468
 30
0.0
 11
-1818.064450075351
 21
-3286.445624106953
 31
0.0
  0
LINE
  5
291
330
1F
100
AcDbEntity
  8
0-4_枠
  6
Continuous
 62
     7
370
     9
100
AcDbLine
 10
-1824.664450075352
 20
-3298.00003969468
 30
0.0
 11
-1818.064450075351
 21
-3298.00003969468
 31
0.0
  0
LINE
  5
292
330
1F
100
AcDbEntity
  8
0-4_枠
  6
Continuous
 62
     7
370
     9
100
AcDbLine
 10
-1824.664450075352
 20
-3298.00003969468
 30
0.0
 11
-1824.664450075352
 21
-3282.400039694681
 31
0.0
  0
ARC
  5
293
330
1F
100
AcDbEntity
  8
0-4_枠
  6
Continuous
 62
     7
370
     9
100
AcDbCircle
 10
-1825.264450075351
 20
-3282.400039694681
 30
0.0
 40
0.599999999999966
100
AcDbArc
 50
0.0
 51
90.0
  0
LINE
  5
294
330
1F
100
AcDbEntity
  8
0-4_枠
  6
Continuous
 62
     7
370
     9
100
AcDbLine
 10
-1848.064450075351
 20
-3281.800039694681
 30
0.0
 11
-1825.264450075351
 21
-3281.800039694681
 31
0.0
  0
ARC
  5
295
330
1F
100
AcDbEntity
  8
0-4_枠
  6
Continuous
 62
     7
370
     9
100
AcDbCircle
 10
-1848.064450075351
 20
-3282.400039694681
 30
0.0
 40
0.6000000000001362
100
AcDbArc
 50
90.0
 51
180.0
  0
LINE
  5
296
330
1F
100
AcDbEntity
  8
0-4_枠
  6
Continuous
 62
     7
370
     9
100
AcDbLine
 10
-1848.664450075352
 20
-3298.00003969468
 30
0.0
 11
-1848.664450075352
 21
-3282.400039694681
 31
0.0
  0
LINE
  5
297
330
1F
100
AcDbEntity
  8
0-4_枠
  6
Continuous
 62
     7
370
     9
100
AcDbLine
 10
-1855.264450075353
 20
-3298.00003969468
 30
0.0
 11
-1848.664450075352
 21
-3298.00003969468
 31
0.0
  0
LINE
  5
298
330
1F
100
AcDbEntity
  8
0-4_枠
  6
Continuous
 62
     7
370
     9
100
AcDbLine
 10
-1855.264450075353
 20
-3298.00003969468
 30
0.0
 11
-1855.264450075353
 21
-3285.700039694682
 31
0.0
  0
LINE
  5
299
330
1F
100
AcDbEntity
  8
0-4_枠
  6
Continuous
 62
     7
370
     9
100
AcDbLine
 10
-1855.264450075353
 20
-3285.700039694682
 30
0.0
 11
-1861.543129731794
 21
-3279.42136003824
 31
0.0
  0
ARC
  5
29A
330
1F
100
AcDbEntity
  8
0-4_枠
  6
Continuous
 62
     7
370
     9
100
AcDbCircle
 10
-1863.664450075352
 20
-3281.5426803818
 30
0.0
 40
2.999999999998578
100
AcDbArc
 50
45.0
 51
180.0000000000261
  0
LINE
  5
29B
330
1F
100
AcDbEntity
  8
0-4_枠
  6
Continuous
 62
     7
370
     9
100
AcDbLine
 10
-1866.664450075352
 20
-3298.00003969468
 30
0.0
 11
-1866.664450075353
 21
-3281.5426803818
 31
0.0
  0
LINE
  5
29C
330
1F
100
AcDbEntity
  8
0-4_枠
  6
Continuous
 62
     7
370
     9
100
AcDbLine
 10
-1872.664450075351
 20
-3298.00003969468
 30
0.0
 11
-1866.664450075352
 21
-3298.00003969468
 31
0.0
  0
LINE
  5
29D
330
1F
100
AcDbEntity
  8
0-4_枠
  6
Continuous
 62
     7
370
     9
100
AcDbLine
 10
-1872.664450075351
 20
-3298.00003969468
 30
0.0
 11
-1872.664450075353
 21
-3281.80003969468
 31
0.0
  0
ARC
  5
29E
330
1F
100
AcDbEntity
  8
0-4_枠
  6
Continuous
 62
     7
370
     9
100
AcDbCircle
 10
-1860.664450075351
 20
-3281.80003969468
 30
0.0
 40
12.0
100
AcDbArc
 50
90.0
 51
180.0
  0
LINE
  5
29F
330
1F
100
AcDbEntity
  8
0-4_枠
  6
Continuous
 62
     7
370
     9
100
AcDbLine
 10
-1802.464450075351
 20
-3298.00003969468
 30
0.0
 11
-1708.264450075357
 21
-3298.00003969468
 31
0.0
  0
LINE
  5
2A0
330
1F
100
AcDbEntity
  8
0-4_枠
  6
Continuous
 62
     7
370
     9
100
AcDbLine
 10
-1797.064450075351
 20
-3269.80003969468
 30
0.0
 11
-1834.864450075351
 21
-3269.80003969468
 31
0.0
  0
LINE
  5
2A1
330
1F
100
AcDbEntity
  8
0-A_文字
  6
Continuous
 62
   120
370
     5
100
AcDbLine
 10
-1708.264450075357
 20
-2974.601991564327
 30
0.0
 11
-1872.664450075351
 21
-2974.601991564327
 31
0.0
  0
LWPOLYLINE
  5
2A2
330
1F
100
AcDbEntity
  8
0-A_文字
  6
Continuous
 62
     7
370
     9
100
AcDbPolyline
 90
        4
 70
     1
 43
3.0
 10
-1706.764450075357
 20
-2974.601991564327
 42
0.4142135623731
 10
-1708.264450075357
 20
-2973.101991564327
 42
0.4142135623731
 10
-1709.764450075357
 20
-2974.601991564327
 42
0.4142135623731
 10
-1708.264450075357
 20
-2976.101991564327
 42
0.4142135623731
  0
LWPOLYLINE
  5
2A3
330
1F
100
AcDbEntity
  8
0-A_文字
  6
Continuous
 62
     7
370
     9
100
AcDbPolyline
 90
        4
 70
     1
 43
3.0
 10
-1871.164450075351
 20
-2974.601991564327
 42
0.4142135623731
 10
-1872.664450075351
 20
-2973.101991564327
 42
0.4142135623731
 10
-1874.16445007535
 20
-2974.601991564327
 42
0.4142135623731
 10
-1872.664450075351
 20
-2976.101991564327
 42
0.4142135623731
  0
LINE
  5
2A4
330
1F
100
AcDbEntity
  8
0-A_文字
  6
Continuous
 62
   120
370
     5
100
AcDbLine
 10
-1708.264450075357
 20
-2974.601991564327
 30
0.0
 11
-1708.264450075357
 21
-3082.720003122343
 31
0.0
  0
LINE
  5
2A5
330
1F
100
AcDbEntity
  8
0-A_文字
  6
Continuous
 62
   120
370
     5
100
AcDbLine
 10
-1872.664450075351
 20
-2974.601991564327
 30
0.0
 11
-1872.664450075351
 21
-3082.720003122343
 31
0.0
  0
LINE
  5
2A6
330
1F
100
AcDbEntity
  8
0-7_金物
  6
Continuous
 62
     7
370
     9
100
AcDbLine
 10
-1749.665118162872
 20
-3229.253439095283
 30
0.0
 11
-1749.665118162872
 21
-3292.600039694682
 31
0.0
  0
LINE
  5
2A7
330
1F
100
AcDbEntity
  8
0-7_金物
  6
Continuous
 62
     7
370
     9
100
AcDbLine
 10
-1767.664880620644
 20
-3229.253439095283
 30
0.0
 11
-1767.664880620644
 21
-3292.600039694682
 31
0.0
  0
LINE
  5
2A8
330
1F
100
AcDbEntity
  8
0-7_金物
  6
Continuous
 62
     7
370
     9
100
AcDbLine
 10
-1749.662920897248
 20
-3292.600039694682
 30
0.0
 11
-1767.66268335502
 21
-3292.600039694682
 31
0.0
  0
MTEXT
  5
2A9
330
1F
100
AcDbEntity
  8
0-B_寸法
  6
Continuous
 62
     7
370
     0
100
AcDbMText
 10
-1814.914450075352
 20
-880.7619705433773
 30
0.0
 40
91.44
 41
120.0
 46
0.0
 71
     7
 72
     1
  1
{\fＭＳ ゴシック|b0|i0|c128|p49;86}
 73
     1
 44
1.0
  0
MTEXT
  5
2AA
330
1F
100
AcDbEntity
  8
0-B_寸法
  6
Continuous
 62
     7
370
     0
100
AcDbMText
 10
-1811.164444816779
 20
-1230.259996435953
 30
0.0
 40
91.43999999999791
 41
119.9999999999973
 46
0.0
 71
     7
 72
     1
  1
{\fＭＳ ゴシック|b0|i0|c128|p49;27}
 11
0.9999999999914964
 21
-4.124000483563069E-6
 31
0.0
 73
     1
 44
1.0
  0
MTEXT
  5
2AB
330
1F
100
AcDbEntity
  8
0-B_寸法
  6
Continuous
 62
     7
370
     0
100
AcDbMText
 10
-1874.914435250549
 20
-1380.515930267813
 30
0.0
 40
91.43999999999912
 41
239.9999999999977
 46
0.0
 71
     7
 72
     1
  1
{\fＭＳ ゴシック|b0|i0|c128|p49;(24)}
 11
0.9999999999914964
 21
-4.124000456917716E-6
 31
0.0
 73
     1
 44
1.0
  0
MTEXT
  5
2AC
330
1F
100
AcDbEntity
  8
0-B_寸法
  6
Continuous
 62
     7
370
     0
100
AcDbMText
 10
-944.9652976000984
 20
-3237.912308719535
 30
0.0
 40
91.44
 41
180.0
 46
0.0
 71
     7
 72
     1
  1
{\fＭＳ ゴシック|b0|i0|c128|p49;6.5}
 11
6.123031769111886E-17
 21
1.0
 31
0.0
 73
     1
 44
1.0
  0
MTEXT
  5
2AD
330
1F
100
AcDbEntity
  8
0-B_寸法
  6
Continuous
 62
     7
370
     0
100
AcDbMText
 10
-731.5022192862539
 20
-3276.912308719536
 30
0.0
 40
91.44
 41
60.0
 46
0.0
 71
     7
 72
     1
  1
{\fＭＳ ゴシック|b0|i0|c128|p49;5}
 11
6.123031769111886E-17
 21
1.0
 31
0.0
 73
     1
 44
1.0
  0
MTEXT
  5
2AE
330
1F
100
AcDbEntity
  8
0-B_寸法
  6
Continuous
 62
     7
370
     0
100
AcDbMText
 10
-521.5001422724076
 20
-3508.863753866126
 30
0.0
 40
91.44
 41
120.0
 46
0.0
 71
     7
 72
     1
  1
{\fＭＳ ゴシック|b0|i0|c128|p49;12}
 11
6.123031769111886E-17
 21
1.0
 31
0.0
 73
     1
 44
1.0
  0
MTEXT
  5
2AF
330
1F
100
AcDbEntity
  8
0-A_文字
  6
Continuous
 62
     7
370
     0
100
AcDbMText
 10
-2709.664111960681
 20
-3613.551295839955
 30
0.0
 40
68.58000000000001
 41
1395.0
 46
0.0
 71
     7
 72
     1
  1
{\fＭＳ ゴシック|b0|i0|c128|p49;※ 扉厚（　）内はルーバーの場合}
 73
     1
 44
1.0
  0
MTEXT
  5
2B0
330
1F
100
AcDbEntity
  8
0-B_寸法
  6
Continuous
 62
     7
370
     0
100
AcDbMText
 10
-945.4981095211851
 20
-2238.279789600727
 30
0.0
 40
91.43999999999997
 41
660.0
 46
0.0
 71
     7
 72
     1
  1
{\fＭＳ ゴシック|b0|i0|c128|p49;ＤＨ＝2,284}
 11
6.123031769111886E-17
 21
1.0
 31
0.0
 73
     1
 44
1.0
  0
MTEXT
  5
2B1
330
1F
100
AcDbEntity
  8
0-B_寸法
  6
Continuous
 62
     7
370
     0
100
AcDbMText
 10
-735.4981095211851
 20
-2238.279789600727
 30
0.0
 40
91.43999999999997
 41
660.0
 46
0.0
 71
     7
 72
     1
  1
{\fＭＳ ゴシック|b0|i0|c128|p49;枠内＝2,298}
 11
6.123031769111886E-17
 21
1.0
 31
0.0
 73
     1
 44
1.0
  0
MTEXT
  5
2B2
330
1F
100
AcDbEntity
  8
0-B_寸法
  6
Continuous
 62
     7
370
     0
100
AcDbMText
 10
-525.499594160119
 20
-2238.279789600727
 30
0.0
 40
91.43999999999997
 41
660.0
 46
0.0
 71
     7
 72
     1
  1
{\fＭＳ ゴシック|b0|i0|c128|p49;枠外＝2,339}
 11
6.123031769111886E-17
 21
1.0
 31
0.0
 73
     1
 44
1.0
  0
MTEXT
  5
2B3
330
1F
100
AcDbEntity
  8
0-B_寸法
  6
Continuous
 62
     7
370
   211
100
AcDbMText
 10
-2724.664111960681
 20
-2298.279789600727
 30
0.0
 40
91.43999999999997
 41
780.0
 46
0.0
 71
     7
 72
     1
  1
{\fＭＳ ゴシック|b0|i0|c128|p49;ＲＯＨ＝2,356}
 11
6.123031769111886E-17
 21
1.0
 31
0.0
 73
     1
 44
1.0
  0
MTEXT
  5
2B4
330
1F
100
AcDbEntity
  8
1-A_文字
  6
Continuous
 62
     7
370
     9
100
AcDbMText
 10
4247.323881551066
 20
-1566.127844812323
 30
0.0
 40
91.44
 41
480.0
 46
0.0
 71
     7
 72
     1
  1
{\fＭＳ ゴシック|b0|i0|c128|p49;竪枠前面}
 73
     1
 44
1.0
  0
MTEXT
  5
2B5
330
1F
100
AcDbEntity
  8
1-A_文字
  6
Continuous
 62
     7
370
     9
100
AcDbMText
 10
4307.323881551066
 20
-1767.438370026804
 30
0.0
 40
91.44
 41
360.0
 46
0.0
 71
     7
 72
     1
  1
{\fＭＳ ゴシック|b0|i0|c128|p49;室内側}
 73
     1
 44
1.0
  0
LINE
  5
2B6
330
1F
100
AcDbEntity
  8
1-A_文字
  6
Continuous
 62
     7
370
     9
100
AcDbLine
 10
4239.546522270882
 20
-1790.298357471876
 30
0.0
 11
4239.546522270882
 21
-1596.018382581731
 31
0.0
  0
LINE
  5
2B7
330
1F
100
AcDbEntity
  8
1-A_文字
  6
Continuous
 62
     7
370
     9
100
AcDbLine
 10
4735.101240831249
 20
-1790.298357471876
 30
0.0
 11
4239.546522270882
 21
-1790.298357471876
 31
0.0
  0
LINE
  5
2B8
330
1F
100
AcDbEntity
  8
1-A_文字
  6
Continuous
 62
     7
370
     9
100
AcDbLine
 10
4735.101240831249
 20
-1596.018382581731
 30
0.0
 11
4735.101240831249
 21
-1790.298357471876
 31
0.0
  0
LINE
  5
2B9
330
1F
100
AcDbEntity
  8
1-A_文字
  6
Continuous
 62
     7
370
     9
100
AcDbLine
 10
4239.546522270882
 20
-1596.018382581731
 30
0.0
 11
4735.101240831249
 21
-1596.018382581731
 31
0.0
  0
LINE
  5
2BA
330
1F
100
AcDbEntity
  8
1-4_枠
  6
Continuous
 62
    92
370
    13
100
AcDbLine
 10
2771.561231879226
 20
-2589.358106397392
 30
0.0
 11
2771.561231879226
 21
-769.8551252513912
 31
0.0
  0
LINE
  5
2BB
330
1F
100
AcDbEntity
  8
1-4_枠
  6
Continuous
 62
    92
370
    13
100
AcDbLine
 10
4151.56123187923
 20
-2589.358106397392
 30
0.0
 11
4151.56123187923
 21
-769.8551252513912
 31
0.0
  0
LINE
  5
2BC
330
1F
100
AcDbEntity
  8
1-6_扉
  6
JWW_DASHED2
 62
     7
370
     9
100
AcDbLine
 10
3259.059858588218
 20
-769.8551252513912
 30
0.0
 11
3259.059858588218
 21
-2416.85810639739
 31
0.0
  0
LINE
  5
2BD
330
1F
100
AcDbEntity
  8
1-1_通り芯
  6
JWW_CENTER1
 62
   120
370
     5
100
AcDbLine
 10
3461.56123187923
 20
-2909.590496694175
 30
0.0
 11
3461.56123187923
 21
-769.8551252513912
 31
0.0
  0
LINE
  5
2BE
330
1F
100
AcDbEntity
  8
1-B_寸法
  6
Continuous
 62
   120
370
     5
100
AcDbLine
 10
3176.561231879234
 20
-2323.858106397387
 30
0.0
 11
3587.561231879217
 21
-2323.858106397387
 31
0.0
  0
LWPOLYLINE
  5
2BF
330
1F
100
AcDbEntity
  8
1-B_寸法
  6
Continuous
 62
     7
370
     9
100
AcDbPolyline
 90
        4
 70
     1
 43
3.0
 10
3178.061231879234
 20
-2323.858106397387
 42
0.4142135623731
 10
3176.561231879234
 20
-2322.358106397387
 42
0.4142135623731
 10
3175.061231879234
 20
-2323.858106397387
 42
0.4142135623731
 10
3176.561231879234
 20
-2325.358106397387
 42
0.4142135623731
  0
LWPOLYLINE
  5
2C0
330
1F
100
AcDbEntity
  8
1-B_寸法
  6
Continuous
 62
     7
370
     9
100
AcDbPolyline
 90
        4
 70
     1
 43
3.0
 10
3589.061231879217
 20
-2323.858106397387
 42
0.4142135623731
 10
3587.561231879217
 20
-2322.358106397387
 42
0.4142135623731
 10
3586.061231879217
 20
-2323.858106397387
 42
0.4142135623731
 10
3587.561231879217
 20
-2325.358106397387
 42
0.4142135623731
  0
LINE
  5
2C1
330
1F
100
AcDbEntity
  8
1-B_寸法
  6
Continuous
 62
   120
370
     5
100
AcDbLine
 10
3176.561231879234
 20
-2323.858106397387
 30
0.0
 11
3176.561231879234
 21
-2473.858106397387
 31
0.0
  0
LINE
  5
2C2
330
1F
100
AcDbEntity
  8
1-B_寸法
  6
Continuous
 62
   120
370
     5
100
AcDbLine
 10
3587.561231879217
 20
-2323.858106397387
 30
0.0
 11
3587.561231879217
 21
-2473.858106397387
 31
0.0
  0
MTEXT
  5
2C3
330
1F
100
AcDbEntity
  8
1-B_寸法
  6
Continuous
 62
     7
370
   211
100
AcDbMText
 10
3401.561231879228
 20
-1048.811183234746
 30
0.0
 40
91.43999999999967
 41
119.9999999999996
 46
0.0
 71
     7
 72
     1
  1
{\fＭＳ ゴシック|b0|i0|c128|p49;92}
 73
     1
 44
1.0
  0
LINE
  5
2C4
330
1F
100
AcDbEntity
  8
1-B_寸法
  6
Continuous
 62
   120
370
     5
100
AcDbLine
 10
3587.561231879217
 20
-2323.858106397387
 30
0.0
 11
4151.56123187923
 21
-2323.858106397387
 31
0.0
  0
LWPOLYLINE
  5
2C5
330
1F
100
AcDbEntity
  8
1-B_寸法
  6
Continuous
 62
     7
370
     9
100
AcDbPolyline
 90
        4
 70
     1
 43
3.0
 10
4153.06123187923
 20
-2323.858106397387
 42
0.4142135623731
 10
4151.56123187923
 20
-2322.358106397387
 42
0.4142135623731
 10
4150.06123187923
 20
-2323.858106397387
 42
0.4142135623731
 10
4151.56123187923
 20
-2325.358106397387
 42
0.4142135623731
  0
LINE
  5
2C6
330
1F
100
AcDbEntity
  8
1-B_寸法
  6
Continuous
 62
   120
370
     5
100
AcDbLine
 10
4151.56123187923
 20
-2323.858106397387
 30
0.0
 11
4151.56123187923
 21
-2473.858106397387
 31
0.0
  0
MTEXT
  5
2C7
330
1F
100
AcDbEntity
  8
1-B_寸法
  6
Continuous
 62
     7
370
   211
100
AcDbMText
 10
3262.061231879224
 20
-2323.138106397387
 30
0.0
 40
91.43999999999984
 41
239.9999999999996
 46
0.0
 71
     7
 72
     1
  1
{\fＭＳ ゴシック|b0|i0|c128|p49;27.4}
 73
     1
 44
1.0
  0
LINE
  5
2C8
330
1F
100
AcDbEntity
  8
1-3_仕上げ
  6
Continuous
 62
    40
370
    15
100
AcDbLine
 10
4658.08790451391
 20
-2589.358106397392
 30
0.0
 11
2573.087904513906
 21
-2589.358106397392
 31
0.0
  0
LINE
  5
2C9
330
1F
100
AcDbEntity
  8
1-3_仕上げ
  6
Continuous
 62
    40
370
    15
100
AcDbLine
 10
2573.087904513906
 20
-2769.358050723434
 30
0.0
 11
4658.08790451391
 21
-2769.358050723434
 31
0.0
  0
LINE
  5
2CA
330
1F
100
AcDbEntity
  8
1-3_仕上げ
  6
Continuous
 62
     7
370
     9
100
AcDbLine
 10
2573.087904513906
 20
-2709.357759981636
 30
0.0
 11
4658.08790451391
 21
-2709.357759981636
 31
0.0
  0
LINE
  5
2CB
330
1F
100
AcDbEntity
  8
1-3_仕上げ
  6
Continuous
 62
     7
370
     9
100
AcDbLine
 10
2573.087904513906
 20
-2679.357846585574
 30
0.0
 11
4658.08790451391
 21
-2679.357846585574
 31
0.0
  0
LINE
  5
2CC
330
1F
100
AcDbEntity
  8
1-3_仕上げ
  6
Continuous
 62
     7
370
     9
100
AcDbLine
 10
2573.087904513906
 20
-2739.358137327376
 30
0.0
 11
4658.08790451391
 21
-2739.358137327376
 31
0.0
  0
LINE
  5
2CD
330
1F
100
AcDbEntity
  8
1-3_仕上げ
  6
Continuous
 62
     7
370
     9
100
AcDbLine
 10
2573.087904513906
 20
-2649.357933189517
 30
0.0
 11
4658.08790451391
 21
-2649.357933189517
 31
0.0
  0
LINE
  5
2CE
330
1F
100
AcDbEntity
  8
1-3_仕上げ
  6
Continuous
 62
     7
370
     9
100
AcDbLine
 10
2573.087904513906
 20
-2619.357555843781
 30
0.0
 11
4658.08790451391
 21
-2619.357555843781
 31
0.0
  0
LINE
  5
2CF
330
1F
100
AcDbEntity
  8
1-B_寸法
  6
Continuous
 62
   120
370
     5
100
AcDbLine
 10
2771.561231879226
 20
-1049.531183234746
 30
0.0
 11
4151.56123187923
 21
-1049.531183234746
 31
0.0
  0
LWPOLYLINE
  5
2D0
330
1F
100
AcDbEntity
  8
1-B_寸法
  6
Continuous
 62
     7
370
     9
100
AcDbPolyline
 90
        4
 70
     1
 43
3.0
 10
2773.061231879226
 20
-1049.531183234746
 42
0.4142135623731
 10
2771.561231879226
 20
-1048.031183234746
 42
0.4142135623731
 10
2770.061231879226
 20
-1049.531183234746
 42
0.4142135623731
 10
2771.561231879226
 20
-1051.031183234746
 42
0.4142135623731
  0
LWPOLYLINE
  5
2D1
330
1F
100
AcDbEntity
  8
1-B_寸法
  6
Continuous
 62
     7
370
     9
100
AcDbPolyline
 90
        4
 70
     1
 43
3.0
 10
4153.06123187923
 20
-1049.531183234746
 42
0.4142135623731
 10
4151.56123187923
 20
-1048.031183234746
 42
0.4142135623731
 10
4150.06123187923
 20
-1049.531183234746
 42
0.4142135623731
 10
4151.56123187923
 20
-1051.031183234746
 42
0.4142135623731
  0
MTEXT
  5
2D2
330
1F
100
AcDbEntity
  8
1-B_寸法
  6
Continuous
 62
     7
370
   211
100
AcDbMText
 10
3749.561231879224
 20
-2323.138106397387
 30
0.0
 40
91.44000000000017
 41
240.0000000000004
 46
0.0
 71
     7
 72
     1
  1
{\fＭＳ ゴシック|b0|i0|c128|p49;37.5}
 73
     1
 44
1.0
  0
LINE
  5
2D3
330
1F
100
AcDbEntity
  8
0-0_補助線
  6
Continuous
 62
    92
370
    13
100
AcDbLine
 10
2295.587904513896
 20
-255.7023992437001
 30
0.0
 11
4935.587904513899
 21
-255.7023992437001
 31
0.0
  0
LINE
  5
2D4
330
1F
100
AcDbEntity
  8
0-0_補助線
  6
Continuous
 62
    92
370
    13
100
AcDbLine
 10
309.9185428433162
 20
-255.7023992437001
 30
0.0
 11
2295.587904513896
 21
-255.7023992437001
 31
0.0
  0
LINE
  5
2D5
330
1F
100
AcDbEntity
  8
0-0_補助線
  6
Continuous
 62
    92
370
    13
100
AcDbLine
 10
309.9185428433162
 20
-471.7023992437007
 30
0.0
 11
2295.587904513896
 21
-471.7023992437007
 31
0.0
  0
LINE
  5
2D6
330
1F
100
AcDbEntity
  8
0-0_補助線
  6
Continuous
 62
    92
370
    13
100
AcDbLine
 10
2295.587904513896
 20
-3354.799844072605
 30
0.0
 11
2295.587904513896
 21
-255.7023992437001
 31
0.0
  0
LINE
  5
2D7
330
1F
100
AcDbEntity
  8
0-0_補助線
  6
Continuous
 62
    92
370
    13
100
AcDbLine
 10
4935.587904513899
 20
-255.7023992437001
 30
0.0
 11
4935.587904513899
 21
-3354.799844072605
 31
0.0
  0
LINE
  5
2D8
330
1F
100
AcDbEntity
  8
0-0_補助線
  6
Continuous
 62
    92
370
    13
100
AcDbLine
 10
309.9185428433162
 20
-255.7023992437001
 30
0.0
 11
309.9185428433162
 21
-3354.799844072605
 31
0.0
  0
LINE
  5
2D9
330
1F
100
AcDbEntity
  8
0-0_補助線
  6
Continuous
 62
    92
370
    13
100
AcDbLine
 10
309.9185428433162
 20
-3354.799844072605
 30
0.0
 11
4935.587904513899
 21
-3354.799844072605
 31
0.0
  0
LINE
  5
2DA
330
1F
100
AcDbEntity
  8
0-0_補助線
  6
Continuous
 62
    92
370
    13
100
AcDbLine
 10
2295.587904513896
 20
-471.7023992437007
 30
0.0
 11
4935.587904513899
 21
-471.7023992437007
 31
0.0
  0
MTEXT
  5
2DB
330
1F
100
AcDbEntity
  8
0-0_補助線
  6
Continuous
 62
     7
370
     9
100
AcDbMText
 10
2595.5879045139
 20
-438.5222400476182
 30
0.0
 40
91.44
 41
2100.0
 46
0.0
 71
     7
 72
     1
  1
{\fＭＳ ゴシック|b0|i0|c128|p49;床直付レール取り付け位置（Ｓ＝1/2）}
 73
     1
 44
1.0
  0
LWPOLYLINE
  5
2DC
330
1F
100
AcDbEntity
  8
0-0_補助線
  6
Continuous
 62
     7
370
     9
100
AcDbPolyline
 90
        4
 70
     1
 43
3.0
 10
895.0686680480563
 20
-747.8223379673452
 42
0.4142135623731
 10
893.5686680480563
 20
-746.3223379673451
 42
0.4142135623731
 10
892.0686680480562
 20
-747.8223379673452
 42
0.4142135623731
 10
893.5686680480563
 20
-749.3223379673452
 42
0.4142135623731
  0
LINE
  5
2DD
330
1F
100
AcDbEntity
  8
0-0_補助線
  6
Continuous
 62
   120
370
     5
100
AcDbLine
 10
893.5686680480563
 20
-747.8223379673452
 30
0.0
 11
893.5686680480563
 21
-891.364387767346
 31
0.0
  0
LINE
  5
2DE
330
1F
100
AcDbEntity
  8
0-0_補助線
  6
Continuous
 62
    92
370
    13
100
AcDbLine
 10
893.5686680480563
 20
-941.3643877673449
 30
0.0
 11
893.5686680480563
 21
-1816.655593316171
 31
0.0
  0
LINE
  5
2DF
330
1F
100
AcDbEntity
  8
0-0_補助線
  6
Continuous
 62
    92
370
    13
100
AcDbLine
 10
309.9185428433162
 20
-2263.685504773927
 30
0.0
 11
2295.587904513896
 21
-2263.685504773927
 31
0.0
  0
LINE
  5
2E0
330
1F
100
AcDbEntity
  8
0-0_補助線
  6
Continuous
 62
    92
370
    13
100
AcDbLine
 10
309.9185428433162
 20
-2479.685504773929
 30
0.0
 11
2295.587904513896
 21
-2479.685504773929
 31
0.0
  0
MTEXT
  5
2E1
330
1F
100
AcDbEntity
  8
0-0_補助線
  6
Continuous
 62
     7
370
     0
100
AcDbMText
 10
582.7532236786049
 20
-441.7440222059566
 30
0.0
 40
91.44000000000014
 41
1440.000000000002
 46
0.0
 71
     7
 72
     1
  1
{\fＭＳ ゴシック|b0|i0|c128|p49;竪枠下端形状図（S＝1/3）}
 73
     1
 44
1.0
  0
LINE
  5
2E2
330
1F
100
AcDbEntity
  8
0-0_補助線
  6
Continuous
 62
     7
370
     9
100
AcDbLine
 10
1020.247947521319
 20
-2941.075486296123
 30
0.0
 11
1131.247947521327
 21
-2941.075486296123
 31
0.0
  0
LINE
  5
2E3
330
1F
100
AcDbEntity
  8
0-0_補助線
  6
Continuous
 62
     7
370
     9
100
AcDbLine
 10
1140.247947521326
 20
-2950.075486296122
 30
0.0
 11
1131.247947521327
 21
-2941.075486296123
 31
0.0
  0
LINE
  5
2E4
330
1F
100
AcDbEntity
  8
0-0_補助線
  6
Continuous
 62
     7
370
     9
100
AcDbLine
 10
1140.247947521326
 20
-2950.075486296122
 30
0.0
 11
1149.247947521324
 21
-2941.075486296123
 31
0.0
  0
LINE
  5
2E5
330
1F
100
AcDbEntity
  8
0-0_補助線
  6
Continuous
 62
     7
370
     9
100
AcDbLine
 10
1347.247947521325
 20
-2950.075486296122
 30
0.0
 11
1347.247947521325
 21
-2965.075486296122
 31
0.0
  0
LINE
  5
2E6
330
1F
100
AcDbEntity
  8
0-0_補助線
  6
Continuous
 62
     7
370
     9
100
AcDbLine
 10
1341.247947521317
 20
-2971.07548629612
 30
0.0
 11
1323.24794752132
 21
-2971.07548629612
 31
0.0
  0
LINE
  5
2E7
330
1F
100
AcDbEntity
  8
0-0_補助線
  6
Continuous
 62
     7
370
     9
100
AcDbLine
 10
1314.247947521321
 20
-2980.075486296119
 30
0.0
 11
1314.247947521321
 21
-3040.075486296122
 31
0.0
  0
LINE
  5
2E8
330
1F
100
AcDbEntity
  8
0-0_補助線
  6
Continuous
 62
     7
370
     9
100
AcDbLine
 10
1329.247947521321
 20
-3055.075486296122
 30
0.0
 11
1521.24794752132
 21
-3055.075486296128
 31
0.0
  0
LINE
  5
2E9
330
1F
100
AcDbEntity
  8
0-0_補助線
  6
Continuous
 62
     7
370
     9
100
AcDbLine
 10
1530.247947521319
 20
-3064.075486296127
 30
0.0
 11
1521.24794752132
 21
-3055.075486296128
 31
0.0
  0
LINE
  5
2EA
330
1F
100
AcDbEntity
  8
0-0_補助線
  6
Continuous
 62
     7
370
     9
100
AcDbLine
 10
1530.247947521319
 20
-3064.075486296127
 30
0.0
 11
1539.247947521321
 21
-3055.075486296128
 31
0.0
  0
LINE
  5
2EB
330
1F
100
AcDbEntity
  8
0-0_補助線
  6
Continuous
 62
     7
370
     9
100
AcDbLine
 10
1539.247947521321
 20
-3055.075486296128
 30
0.0
 11
1731.247947521289
 21
-3055.075486296122
 31
0.0
  0
LINE
  5
2EC
330
1F
100
AcDbEntity
  8
0-0_補助線
  6
Continuous
 62
     7
370
     9
100
AcDbLine
 10
1746.247947521293
 20
-2980.075486296119
 30
0.0
 11
1746.247947521293
 21
-3040.075486296122
 31
0.0
  0
LINE
  5
2ED
330
1F
100
AcDbEntity
  8
0-0_補助線
  6
Continuous
 62
     7
370
     9
100
AcDbLine
 10
1719.247947521317
 20
-2971.07548629612
 30
0.0
 11
1737.247947521294
 21
-2971.07548629612
 31
0.0
  0
LINE
  5
2EE
330
1F
100
AcDbEntity
  8
0-0_補助線
  6
Continuous
 62
     7
370
     9
100
AcDbLine
 10
1713.247947521319
 20
-2950.075486296115
 30
0.0
 11
1713.247947521319
 21
-2965.075486296115
 31
0.0
  0
LINE
  5
2EF
330
1F
100
AcDbEntity
  8
0-0_補助線
  6
Continuous
 62
     7
370
     9
100
AcDbLine
 10
1782.247947521294
 20
-3001.075486296127
 30
0.0
 11
1782.247947521291
 21
-3082.075486296122
 31
0.0
  0
LINE
  5
2F0
330
1F
100
AcDbEntity
  8
0-0_補助線
  6
Continuous
 62
     7
370
     9
100
AcDbLine
 10
1281.24794752132
 20
-2994.303408357483
 30
0.0
 11
1281.24794752132
 21
-3052.075486296124
 31
0.0
  0
LINE
  5
2F1
330
1F
100
AcDbEntity
  8
0-0_補助線
  6
Continuous
 62
     7
370
     9
100
AcDbLine
 10
1235.883986490647
 20
-3017.939447326809
 30
0.0
 11
1265.883986490637
 21
-2987.939447326809
 31
0.0
  0
LINE
  5
2F2
330
1F
100
AcDbEntity
  8
0-0_補助線
  6
Continuous
 62
     7
370
     9
100
AcDbLine
 10
1233.247947521327
 20
-3082.075486296122
 30
0.0
 11
1233.247947521327
 21
-3024.303408357488
 31
0.0
  0
LINE
  5
2F3
330
1F
100
AcDbEntity
  8
0-0_補助線
  6
Continuous
 62
     7
370
     9
100
AcDbLine
 10
1200.247947521322
 20
-3082.075486296122
 30
0.0
 11
1233.247947521327
 21
-3082.075486296122
 31
0.0
  0
LINE
  5
2F4
330
1F
100
AcDbEntity
  8
0-0_補助線
  6
Continuous
 62
     7
370
     9
100
AcDbLine
 10
1200.247947521322
 20
-3082.075486296122
 30
0.0
 11
1200.247947521322
 21
-3004.075486296129
 31
0.0
  0
LINE
  5
2F5
330
1F
100
AcDbEntity
  8
0-0_補助線
  6
Continuous
 62
     7
370
     9
100
AcDbLine
 10
1083.247947521327
 20
-3001.075486296127
 30
0.0
 11
1197.247947521325
 21
-3001.075486296127
 31
0.0
  0
LINE
  5
2F6
330
1F
100
AcDbEntity
  8
0-0_補助線
  6
Continuous
 62
     7
370
     9
100
AcDbLine
 10
1080.247947521326
 20
-3082.075486296122
 30
0.0
 11
1080.247947521326
 21
-3004.075486296129
 31
0.0
  0
LINE
  5
2F7
330
1F
100
AcDbEntity
  8
0-0_補助線
  6
Continuous
 62
     7
370
     9
100
AcDbLine
 10
1047.247947521322
 20
-3082.075486296122
 30
0.0
 11
1080.247947521326
 21
-3082.075486296122
 31
0.0
  0
LINE
  5
2F8
330
1F
100
AcDbEntity
  8
0-0_補助線
  6
Continuous
 62
     7
370
     9
100
AcDbLine
 10
1047.247947521322
 20
-3082.075486296122
 30
0.0
 11
1047.247947521322
 21
-3020.57548629613
 31
0.0
  0
LINE
  5
2F9
330
1F
100
AcDbEntity
  8
0-0_補助線
  6
Continuous
 62
     7
370
     9
100
AcDbLine
 10
1047.247947521322
 20
-3020.57548629613
 30
0.0
 11
1015.854549239109
 21
-2989.182088013923
 31
0.0
  0
LINE
  5
2FA
330
1F
100
AcDbEntity
  8
0-0_補助線
  6
Continuous
 62
     7
370
     9
100
AcDbLine
 10
990.247947521326
 20
-3082.075486296122
 30
0.0
 11
990.2479475213191
 21
-2999.788689731723
 31
0.0
  0
LINE
  5
2FB
330
1F
100
AcDbEntity
  8
0-0_補助線
  6
Continuous
 62
     7
370
     9
100
AcDbLine
 10
960.2479475213225
 20
-3082.075486296122
 30
0.0
 11
990.247947521326
 21
-3082.075486296122
 31
0.0
  0
LINE
  5
2FC
330
1F
100
AcDbEntity
  8
0-0_補助線
  6
Continuous
 62
     7
370
     9
100
AcDbLine
 10
960.2479475213225
 20
-3082.075486296122
 30
0.0
 11
960.2479475213191
 21
-3001.075486296123
 31
0.0
  0
LINE
  5
2FD
330
1F
100
AcDbEntity
  8
0-0_補助線
  6
Continuous
 62
     7
370
     9
100
AcDbLine
 10
1311.247947521324
 20
-3082.075486296122
 30
0.0
 11
1782.247947521291
 21
-3082.075486296122
 31
0.0
  0
LINE
  5
2FE
330
1F
100
AcDbEntity
  8
0-0_補助線
  6
Continuous
 62
     7
370
     9
100
AcDbLine
 10
1338.24794752132
 20
-2941.07548629612
 30
0.0
 11
1149.247947521324
 21
-2941.07548629612
 31
0.0
  0
ARC
  5
2FF
330
1F
100
AcDbEntity
  8
0-0_補助線
  6
Continuous
 62
     7
370
     9
100
AcDbCircle
 10
1338.24794752132
 20
-2950.075486296119
 30
0.0
 40
9.000000000002899
100
AcDbArc
 50
359.9999999999784
 51
90.00000000000004
  0
ARC
  5
300
330
1F
100
AcDbEntity
  8
0-0_補助線
  6
Continuous
 62
     7
370
     9
100
AcDbCircle
 10
1341.247947521317
 20
-2965.075486296119
 30
0.0
 40
6.000000000001368
100
AcDbArc
 50
270.0
 51
359.9999999999674
  0
ARC
  5
301
330
1F
100
AcDbEntity
  8
0-0_補助線
  6
Continuous
 62
     7
370
     9
100
AcDbCircle
 10
1323.24794752132
 20
-2980.075486296119
 30
0.0
 40
8.999999999998636
100
AcDbArc
 50
90.0
 51
180.0
  0
ARC
  5
302
330
1F
100
AcDbEntity
  8
0-0_補助線
  6
Continuous
 62
     7
370
     9
100
AcDbCircle
 10
1329.247947521321
 20
-3040.075486296122
 30
0.0
 40
15.0
100
AcDbArc
 50
180.0
 51
270.0
  0
ARC
  5
303
330
1F
100
AcDbEntity
  8
0-0_補助線
  6
Continuous
 62
     7
370
     9
100
AcDbCircle
 10
1731.247947521289
 20
-3040.075486296122
 30
0.0
 40
15.0
100
AcDbArc
 50
270.0
 51
0.0
  0
ARC
  5
304
330
1F
100
AcDbEntity
  8
0-0_補助線
  6
Continuous
 62
     7
370
     9
100
AcDbCircle
 10
1737.247947521294
 20
-2980.075486296119
 30
0.0
 40
9.000000000000343
100
AcDbArc
 50
0.0
 51
90.0
  0
ARC
  5
305
330
1F
100
AcDbEntity
  8
0-0_補助線
  6
Continuous
 62
     7
370
     9
100
AcDbCircle
 10
1719.247947521317
 20
-2965.075486296119
 30
0.0
 40
5.99999999999966
100
AcDbArc
 50
179.9999999999674
 51
270.0
  0
ARC
  5
306
330
1F
100
AcDbEntity
  8
0-0_補助線
  6
Continuous
 62
     7
370
     9
100
AcDbCircle
 10
1722.247947521321
 20
-2950.075486296115
 30
0.0
 40
8.999999999998636
100
AcDbArc
 50
89.99999999996201
 51
180.0
  0
ARC
  5
307
330
1F
100
AcDbEntity
  8
0-0_補助線
  6
Continuous
 62
     7
370
     9
100
AcDbCircle
 10
1722.247947521291
 20
-3001.075486296123
 30
0.0
 40
60.0
100
AcDbArc
 50
359.9999999999968
 51
89.9999999999682
  0
ARC
  5
308
330
1F
100
AcDbEntity
  8
0-0_補助線
  6
Continuous
 62
     7
370
     9
100
AcDbCircle
 10
1311.247947521324
 20
-3052.075486296124
 30
0.0
 40
30.0
100
AcDbArc
 50
180.0
 51
270.0
  0
ARC
  5
309
330
1F
100
AcDbEntity
  8
0-0_補助線
  6
Continuous
 62
     7
370
     9
100
AcDbCircle
 10
1272.247947521322
 20
-2994.30340835748
 30
0.0
 40
9.000000000000343
100
AcDbArc
 50
359.9999999999784
 51
135.0000000000384
  0
ARC
  5
30A
330
1F
100
AcDbEntity
  8
0-0_補助線
  6
Continuous
 62
     7
370
     9
100
AcDbCircle
 10
1242.247947521329
 20
-3024.303408357487
 30
0.0
 40
8.999999999998023
100
AcDbArc
 50
135.0000000000057
 51
180.0000000000034
  0
ARC
  5
30B
330
1F
100
AcDbEntity
  8
0-0_補助線
  6
Continuous
 62
     7
370
     9
100
AcDbCircle
 10
1197.247947521325
 20
-3004.075486296129
 30
0.0
 40
2.99999999999983
100
AcDbArc
 50
0.0
 51
90.0
  0
ARC
  5
30C
330
1F
100
AcDbEntity
  8
0-0_補助線
  6
Continuous
 62
     7
370
     9
100
AcDbCircle
 10
1083.247947521327
 20
-3004.075486296129
 30
0.0
 40
3.000000000000682
100
AcDbArc
 50
90.0
 51
180.0
  0
ARC
  5
30D
330
1F
100
AcDbEntity
  8
0-0_補助線
  6
Continuous
 62
     7
370
     9
100
AcDbCircle
 10
1005.247947521319
 20
-2999.788689731716
 30
0.0
 40
14.99999999999289
100
AcDbArc
 50
45.0
 51
180.0000000000261
  0
ARC
  5
30E
330
1F
100
AcDbEntity
  8
0-0_補助線
  6
Continuous
 62
     7
370
     9
100
AcDbCircle
 10
1020.247947521319
 20
-3001.075486296123
 30
0.0
 40
60.0
100
AcDbArc
 50
90.0
 51
180.0
  0
LINE
  5
30F
330
1F
100
AcDbEntity
  8
0-0_補助線
  6
Continuous
 62
   120
370
     5
100
AcDbLine
 10
960.2479475213225
 20
-2745.577289545912
 30
0.0
 11
1782.247947521291
 21
-2745.577289545912
 31
0.0
  0
LWPOLYLINE
  5
310
330
1F
100
AcDbEntity
  8
0-0_補助線
  6
Continuous
 62
     7
370
     9
100
AcDbPolyline
 90
        4
 70
     1
 43
3.0
 10
961.7479475213224
 20
-2745.577289545912
 42
0.4142135623731
 10
960.2479475213225
 20
-2744.077289545912
 42
0.4142135623731
 10
958.7479475213225
 20
-2745.577289545912
 42
0.4142135623731
 10
960.2479475213225
 20
-2747.077289545912
 42
0.4142135623731
  0
LWPOLYLINE
  5
311
330
1F
100
AcDbEntity
  8
0-0_補助線
  6
Continuous
 62
     7
370
     9
100
AcDbPolyline
 90
        4
 70
     1
 43
3.0
 10
1783.747947521291
 20
-2745.577289545912
 42
0.4142135623731
 10
1782.247947521291
 20
-2744.077289545912
 42
0.4142135623731
 10
1780.747947521291
 20
-2745.577289545912
 42
0.4142135623731
 10
1782.247947521291
 20
-2747.077289545912
 42
0.4142135623731
  0
LINE
  5
312
330
1F
100
AcDbEntity
  8
0-0_補助線
  6
Continuous
 62
   120
370
     5
100
AcDbLine
 10
960.2479475213225
 20
-2745.577289545912
 30
0.0
 11
960.2479475213225
 21
-2877.900503287832
 31
0.0
  0
LINE
  5
313
330
1F
100
AcDbEntity
  8
0-0_補助線
  6
Continuous
 62
   120
370
     5
100
AcDbLine
 10
1782.247947521291
 20
-2745.577289545912
 30
0.0
 11
1782.247947521291
 21
-2877.900503287832
 31
0.0
  0
MTEXT
  5
314
330
1F
100
AcDbEntity
  8
0-0_補助線
  6
Continuous
 62
     7
370
   211
100
AcDbMText
 10
1251.247947521305
 20
-2744.857289545911
 30
0.0
 40
91.44000000000081
 41
240.0000000000021
 46
0.0
 71
     7
 72
     1
  1
{\fＭＳ ゴシック|b0|i0|c128|p49;27.4}
 73
     1
 44
1.0
  0
LINE
  5
315
330
1F
100
AcDbEntity
  8
0-0_補助線
  6
Continuous
 62
   120
370
     5
100
AcDbLine
 10
772.5990467681902
 20
-2941.075486296123
 30
0.0
 11
772.5990467681902
 21
-3082.075486296122
 31
0.0
  0
LWPOLYLINE
  5
316
330
1F
100
AcDbEntity
  8
0-0_補助線
  6
Continuous
 62
     7
370
     9
100
AcDbPolyline
 90
        4
 70
     1
 43
3.0
 10
774.0990467681902
 20
-2941.075486296123
 42
0.4142135623731
 10
772.5990467681902
 20
-2939.575486296123
 42
0.4142135623731
 10
771.0990467681902
 20
-2941.075486296123
 42
0.4142135623731
 10
772.5990467681902
 20
-2942.575486296123
 42
0.4142135623731
  0
LWPOLYLINE
  5
317
330
1F
100
AcDbEntity
  8
0-0_補助線
  6
Continuous
 62
     7
370
     9
100
AcDbPolyline
 90
        4
 70
     1
 43
3.0
 10
774.0990467681902
 20
-3082.075486296122
 42
0.4142135623731
 10
772.5990467681902
 20
-3080.575486296122
 42
0.4142135623731
 10
771.0990467681902
 20
-3082.075486296122
 42
0.4142135623731
 10
772.5990467681902
 20
-3083.575486296122
 42
0.4142135623731
  0
LINE
  5
318
330
1F
100
AcDbEntity
  8
0-0_補助線
  6
Continuous
 62
   120
370
     5
100
AcDbLine
 10
772.5990467681902
 20
-2941.075486296123
 30
0.0
 11
900.3593910707343
 21
-2941.075486296123
 31
0.0
  0
LINE
  5
319
330
1F
100
AcDbEntity
  8
0-0_補助線
  6
Continuous
 62
   120
370
     5
100
AcDbLine
 10
772.5990467681902
 20
-3082.075486296122
 30
0.0
 11
900.3593910707343
 21
-3082.075486296122
 31
0.0
  0
MTEXT
  5
31A
330
1F
100
AcDbEntity
  8
0-0_補助線
  6
Continuous
 62
     7
370
   211
100
AcDbMText
 10
757.5990467681897
 20
-3065.322053805293
 30
0.0
 40
91.4399999999987
 41
59.99999999999915
 46
0.0
 71
     7
 72
     1
  1
{\fＭＳ ゴシック|b0|i0|c128|p49;5}
 11
6.123031769111886E-17
 21
1.0
 31
0.0
 73
     1
 44
1.0
  0
MTEXT
  5
31B
330
1F
100
AcDbEntity
  8
0-0_補助線
  6
Continuous
 62
     7
370
     0
100
AcDbMText
 10
706.0328324001284
 20
-2449.727127736184
 30
0.0
 40
91.43999999999998
 41
1200.0
 46
0.0
 71
     7
 72
     1
  1
{\fＭＳ ゴシック|b0|i0|c128|p49;下枠詳細図（S＝1/1）}
 73
     1
 44
1.0
  0
LINE
  5
31C
330
1F
100
AcDbEntity
  8
0-0_補助線
  6
Continuous
 62
     7
370
     9
100
AcDbLine
 10
3206.561231879221
 20
-2518.858060296615
 30
0.0
 11
3262.061231879222
 21
-2518.858060296615
 31
0.0
  0
LINE
  5
31D
330
1F
100
AcDbEntity
  8
0-0_補助線
  6
Continuous
 62
     7
370
     9
100
AcDbLine
 10
3266.561231879222
 20
-2523.358060296614
 30
0.0
 11
3262.061231879222
 21
-2518.858060296615
 31
0.0
  0
LINE
  5
31E
330
1F
100
AcDbEntity
  8
0-0_補助線
  6
Continuous
 62
     7
370
     9
100
AcDbLine
 10
3266.561231879222
 20
-2523.358060296614
 30
0.0
 11
3271.061231879224
 21
-2518.858060296615
 31
0.0
  0
ARC
  5
31F
330
1F
100
AcDbEntity
  8
0-0_補助線
  6
Continuous
 62
     7
370
     9
100
AcDbCircle
 10
3365.56123187922
 20
-2523.358060296612
 30
0.0
 40
4.50000000000145
100
AcDbArc
 50
359.9999999999784
 51
90.00000000000004
  0
LINE
  5
320
330
1F
100
AcDbEntity
  8
0-0_補助線
  6
Continuous
 62
     7
370
     9
100
AcDbLine
 10
3370.061231879223
 20
-2523.358060296614
 30
0.0
 11
3370.061231879223
 21
-2530.858060296614
 31
0.0
  0
ARC
  5
321
330
1F
100
AcDbEntity
  8
0-0_補助線
  6
Continuous
 62
     7
370
     9
100
AcDbCircle
 10
3367.061231879219
 20
-2530.858060296612
 30
0.0
 40
3.000000000000684
100
AcDbArc
 50
270.0
 51
359.9999999999674
  0
LINE
  5
322
330
1F
100
AcDbEntity
  8
0-0_補助線
  6
Continuous
 62
     7
370
     9
100
AcDbLine
 10
3367.061231879219
 20
-2533.858060296613
 30
0.0
 11
3358.06123187922
 21
-2533.858060296613
 31
0.0
  0
ARC
  5
323
330
1F
100
AcDbEntity
  8
0-0_補助線
  6
Continuous
 62
     7
370
     9
100
AcDbCircle
 10
3358.06123187922
 20
-2538.358060296612
 30
0.0
 40
4.499999999999318
100
AcDbArc
 50
90.0
 51
180.0
  0
LINE
  5
324
330
1F
100
AcDbEntity
  8
0-0_補助線
  6
Continuous
 62
     7
370
     9
100
AcDbLine
 10
3353.561231879221
 20
-2538.358060296612
 30
0.0
 11
3353.561231879221
 21
-2568.358060296614
 31
0.0
  0
ARC
  5
325
330
1F
100
AcDbEntity
  8
0-0_補助線
  6
Continuous
 62
     7
370
     9
100
AcDbCircle
 10
3361.06123187922
 20
-2568.358060296614
 30
0.0
 40
7.5
100
AcDbArc
 50
180.0
 51
270.0
  0
LINE
  5
326
330
1F
100
AcDbEntity
  8
0-0_補助線
  6
Continuous
 62
     7
370
     9
100
AcDbLine
 10
3361.06123187922
 20
-2575.858060296614
 30
0.0
 11
3457.061231879219
 21
-2575.858060296618
 31
0.0
  0
LINE
  5
327
330
1F
100
AcDbEntity
  8
0-0_補助線
  6
Continuous
 62
     7
370
     9
100
AcDbLine
 10
3461.561231879221
 20
-2580.358060296617
 30
0.0
 11
3457.061231879219
 21
-2575.858060296618
 31
0.0
  0
LINE
  5
328
330
1F
100
AcDbEntity
  8
0-0_補助線
  6
Continuous
 62
     7
370
     9
100
AcDbLine
 10
3461.561231879221
 20
-2580.358060296617
 30
0.0
 11
3466.061231879221
 21
-2575.858060296618
 31
0.0
  0
LINE
  5
329
330
1F
100
AcDbEntity
  8
0-0_補助線
  6
Continuous
 62
     7
370
     9
100
AcDbLine
 10
3466.061231879221
 20
-2575.858060296618
 30
0.0
 11
3562.061231879205
 21
-2575.858060296614
 31
0.0
  0
ARC
  5
32A
330
1F
100
AcDbEntity
  8
0-0_補助線
  6
Continuous
 62
     7
370
     9
100
AcDbCircle
 10
3562.061231879205
 20
-2568.358060296614
 30
0.0
 40
7.5
100
AcDbArc
 50
270.0
 51
0.0
  0
LINE
  5
32B
330
1F
100
AcDbEntity
  8
0-0_補助線
  6
Continuous
 62
     7
370
     9
100
AcDbLine
 10
3569.561231879207
 20
-2538.358060296612
 30
0.0
 11
3569.561231879207
 21
-2568.358060296614
 31
0.0
  0
ARC
  5
32C
330
1F
100
AcDbEntity
  8
0-0_補助線
  6
Continuous
 62
     7
370
     9
100
AcDbCircle
 10
3565.061231879207
 20
-2538.358060296612
 30
0.0
 40
4.500000000000171
100
AcDbArc
 50
0.0
 51
90.0
  0
LINE
  5
32D
330
1F
100
AcDbEntity
  8
0-0_補助線
  6
Continuous
 62
     7
370
     9
100
AcDbLine
 10
3556.06123187922
 20
-2533.858060296613
 30
0.0
 11
3565.061231879207
 21
-2533.858060296613
 31
0.0
  0
ARC
  5
32E
330
1F
100
AcDbEntity
  8
0-0_補助線
  6
Continuous
 62
     7
370
     9
100
AcDbCircle
 10
3556.06123187922
 20
-2530.858060296612
 30
0.0
 40
2.99999999999983
100
AcDbArc
 50
179.9999999999674
 51
270.0
  0
LINE
  5
32F
330
1F
100
AcDbEntity
  8
0-0_補助線
  6
Continuous
 62
     7
370
     9
100
AcDbLine
 10
3553.061231879218
 20
-2523.358060296611
 30
0.0
 11
3553.061231879218
 21
-2530.858060296611
 31
0.0
  0
ARC
  5
330
330
1F
100
AcDbEntity
  8
0-0_補助線
  6
Continuous
 62
     7
370
     9
100
AcDbCircle
 10
3557.561231879219
 20
-2523.358060296611
 30
0.0
 40
4.499999999999318
100
AcDbArc
 50
89.99999999996201
 51
180.0
  0
ARC
  5
331
330
1F
100
AcDbEntity
  8
0-0_補助線
  6
Continuous
 62
     7
370
     9
100
AcDbCircle
 10
3557.561231879205
 20
-2548.858060296615
 30
0.0
 40
30.0
100
AcDbArc
 50
359.9999999999968
 51
89.9999999999682
  0
LINE
  5
332
330
1F
100
AcDbEntity
  8
0-0_補助線
  6
Continuous
 62
     7
370
     9
100
AcDbLine
 10
3587.561231879207
 20
-2548.858060296616
 30
0.0
 11
3587.561231879205
 21
-2589.358060296614
 31
0.0
  0
ARC
  5
333
330
1F
100
AcDbEntity
  8
0-0_補助線
  6
Continuous
 62
     7
370
     9
100
AcDbCircle
 10
3352.061231879222
 20
-2574.358060296616
 30
0.0
 40
15.0
100
AcDbArc
 50
180.0
 51
270.0
  0
LINE
  5
334
330
1F
100
AcDbEntity
  8
0-0_補助線
  6
Continuous
 62
     7
370
     9
100
AcDbLine
 10
3337.061231879221
 20
-2545.472021327295
 30
0.0
 11
3337.061231879221
 21
-2574.358060296616
 31
0.0
  0
ARC
  5
335
330
1F
100
AcDbEntity
  8
0-0_補助線
  6
Continuous
 62
     7
370
     9
100
AcDbCircle
 10
3332.56123187922
 20
-2545.472021327293
 30
0.0
 40
4.500000000000171
100
AcDbArc
 50
359.9999999999784
 51
135.0000000000384
  0
LINE
  5
336
330
1F
100
AcDbEntity
  8
0-0_補助線
  6
Continuous
 62
     7
370
     9
100
AcDbLine
 10
3314.379251363885
 20
-2557.290040811958
 30
0.0
 11
3329.379251363879
 21
-2542.290040811958
 31
0.0
  0
ARC
  5
337
330
1F
100
AcDbEntity
  8
0-0_補助線
  6
Continuous
 62
     7
370
     9
100
AcDbCircle
 10
3317.561231879223
 20
-2560.472021327296
 30
0.0
 40
4.499999999999011
100
AcDbArc
 50
135.0000000000057
 51
180.0000000000034
  0
LINE
  5
338
330
1F
100
AcDbEntity
  8
0-0_補助線
  6
Continuous
 62
     7
370
     9
100
AcDbLine
 10
3313.061231879224
 20
-2589.358060296614
 30
0.0
 11
3313.061231879224
 21
-2560.472021327298
 31
0.0
  0
LINE
  5
339
330
1F
100
AcDbEntity
  8
0-0_補助線
  6
Continuous
 62
     7
370
     9
100
AcDbLine
 10
3296.561231879222
 20
-2589.358060296614
 30
0.0
 11
3313.061231879224
 21
-2589.358060296614
 31
0.0
  0
LINE
  5
33A
330
1F
100
AcDbEntity
  8
0-0_補助線
  6
Continuous
 62
     7
370
     9
100
AcDbLine
 10
3296.561231879222
 20
-2589.358060296614
 30
0.0
 11
3296.561231879222
 21
-2550.358060296618
 31
0.0
  0
ARC
  5
33B
330
1F
100
AcDbEntity
  8
0-0_補助線
  6
Continuous
 62
     7
370
     9
100
AcDbCircle
 10
3295.061231879223
 20
-2550.358060296618
 30
0.0
 40
1.499999999999915
100
AcDbArc
 50
0.0
 51
90.0
  0
LINE
  5
33C
330
1F
100
AcDbEntity
  8
0-0_補助線
  6
Continuous
 62
     7
370
     9
100
AcDbLine
 10
3238.061231879224
 20
-2548.858060296616
 30
0.0
 11
3295.061231879223
 21
-2548.858060296616
 31
0.0
  0
ARC
  5
33D
330
1F
100
AcDbEntity
  8
0-0_補助線
  6
Continuous
 62
     7
370
     9
100
AcDbCircle
 10
3238.061231879224
 20
-2550.358060296618
 30
0.0
 40
1.500000000000341
100
AcDbArc
 50
90.0
 51
180.0
  0
LINE
  5
33E
330
1F
100
AcDbEntity
  8
0-0_補助線
  6
Continuous
 62
     7
370
     9
100
AcDbLine
 10
3236.561231879222
 20
-2589.358060296614
 30
0.0
 11
3236.561231879222
 21
-2550.358060296618
 31
0.0
  0
LINE
  5
33F
330
1F
100
AcDbEntity
  8
0-0_補助線
  6
Continuous
 62
     7
370
     9
100
AcDbLine
 10
3220.06123187922
 20
-2589.358060296614
 30
0.0
 11
3236.561231879222
 21
-2589.358060296614
 31
0.0
  0
LINE
  5
340
330
1F
100
AcDbEntity
  8
0-0_補助線
  6
Continuous
 62
     7
370
     9
100
AcDbLine
 10
3220.06123187922
 20
-2589.358060296614
 30
0.0
 11
3220.06123187922
 21
-2558.608060296619
 31
0.0
  0
LINE
  5
341
330
1F
100
AcDbEntity
  8
0-0_補助線
  6
Continuous
 62
     7
370
     9
100
AcDbLine
 10
3220.06123187922
 20
-2558.608060296619
 30
0.0
 11
3204.364532738115
 21
-2542.911361155515
 31
0.0
  0
ARC
  5
342
330
1F
100
AcDbEntity
  8
0-0_補助線
  6
Continuous
 62
     7
370
     9
100
AcDbCircle
 10
3199.061231879221
 20
-2548.214662014412
 30
0.0
 40
7.499999999996445
100
AcDbArc
 50
45.0
 51
180.0000000000261
  0
LINE
  5
343
330
1F
100
AcDbEntity
  8
0-0_補助線
  6
Continuous
 62
     7
370
     9
100
AcDbLine
 10
3191.561231879222
 20
-2589.358060296614
 30
0.0
 11
3191.561231879218
 21
-2548.214662014415
 31
0.0
  0
LINE
  5
344
330
1F
100
AcDbEntity
  8
0-0_補助線
  6
Continuous
 62
     7
370
     9
100
AcDbLine
 10
3176.561231879222
 20
-2589.358060296614
 30
0.0
 11
3191.561231879222
 21
-2589.358060296614
 31
0.0
  0
LINE
  5
345
330
1F
100
AcDbEntity
  8
0-0_補助線
  6
Continuous
 62
     7
370
     9
100
AcDbLine
 10
3176.561231879222
 20
-2589.358060296614
 30
0.0
 11
3176.561231879218
 21
-2548.858060296615
 31
0.0
  0
ARC
  5
346
330
1F
100
AcDbEntity
  8
0-0_補助線
  6
Continuous
 62
     7
370
     9
100
AcDbCircle
 10
3206.561231879221
 20
-2548.858060296615
 30
0.0
 40
30.0
100
AcDbArc
 50
90.0
 51
180.0
  0
LINE
  5
347
330
1F
100
AcDbEntity
  8
0-0_補助線
  6
Continuous
 62
     7
370
     9
100
AcDbLine
 10
3352.061231879222
 20
-2589.358060296614
 30
0.0
 11
3587.561231879205
 21
-2589.358060296614
 31
0.0
  0
LINE
  5
348
330
1F
100
AcDbEntity
  8
0-0_補助線
  6
Continuous
 62
     7
370
     9
100
AcDbLine
 10
3365.56123187922
 20
-2518.858060296613
 30
0.0
 11
3271.061231879224
 21
-2518.858060296613
 31
0.0
  0
LINE
  5
349
330
1F
100
AcDbEntity
  8
0-0_補助線
  6
Continuous
 62
     7
370
     9
100
AcDbLine
 10
3553.06123187922
 20
-2523.35806029661
 30
0.0
 11
3553.06123187922
 21
-2530.85806029661
 31
0.0
  0
INSERT
  5
34A
330
1F
100
AcDbEntity
  8
0-0_補助線
  6
Continuous
 62
     7
370
     9
100
AcDbBlockReference
  2
03@@SfigorgFlag@@4
 10
3459.004021431852
 20
-2512.959469075648
 30
0.0
 41
75.0
 42
75.0
  0
LWPOLYLINE
  5
34B
330
1F
100
AcDbEntity
  8
0-0_補助線
  6
Continuous
 62
     7
370
     9
100
AcDbPolyline
 90
        4
 70
     1
 43
3.0
 10
1815.069030959803
 20
-747.8223379673452
 42
0.4142135623731
 10
1813.569030959803
 20
-746.3223379673451
 42
0.4142135623731
 10
1812.069030959803
 20
-747.8223379673452
 42
0.4142135623731
 10
1813.569030959803
 20
-749.3223379673452
 42
0.4142135623731
  0
LINE
  5
34C
330
1F
100
AcDbEntity
  8
0-0_補助線
  6
Continuous
 62
   120
370
     5
100
AcDbLine
 10
1813.569030959803
 20
-747.8223379673452
 30
0.0
 11
1813.569030959803
 21
-891.364387767346
 31
0.0
  0
LINE
  5
34D
330
1F
100
AcDbEntity
  8
0-0_補助線
  6
Continuous
 62
    92
370
    13
100
AcDbLine
 10
1813.569030959803
 20
-941.3643877673449
 30
0.0
 11
1813.569030959803
 21
-1816.655593316171
 31
0.0
  0
LINE
  5
34E
330
1F
100
AcDbEntity
  8
0-0_補助線
  6
Continuous
 62
    92
370
    13
100
AcDbLine
 10
893.5686680480563
 20
-1816.655593316171
 30
0.0
 11
1813.569030959803
 21
-1816.655593316171
 31
0.0
  0
LINE
  5
34F
330
1F
100
AcDbEntity
  8
0-0_補助線
  6
JWW_HOJO
 62
   120
370
     5
100
AcDbLine
 10
858.5683216322974
 20
-941.3643877673449
 30
0.0
 11
1813.569030959803
 21
-941.3643877673449
 31
0.0
  0
LINE
  5
350
330
1F
100
AcDbEntity
  8
0-0_補助線
  6
JWW_HOJO
 62
   120
370
     5
100
AcDbLine
 10
858.5683216322974
 20
-891.364387767346
 30
0.0
 11
1813.569030959803
 21
-891.364387767346
 31
0.0
  0
LINE
  5
351
330
1F
100
AcDbEntity
  8
0-0_補助線
  6
Continuous
 62
   120
370
     5
100
AcDbLine
 10
893.5686680480563
 20
-747.8223379673452
 30
0.0
 11
1813.569030959803
 21
-747.8223379673452
 31
0.0
  0
LWPOLYLINE
  5
352
330
1F
100
AcDbEntity
  8
0-0_補助線
  6
Continuous
 62
     7
370
     9
100
AcDbPolyline
 90
        4
 70
     1
 43
3.0
 10
895.0686680480563
 20
-747.8223379673452
 42
0.4142135623731
 10
893.5686680480563
 20
-746.3223379673451
 42
0.4142135623731
 10
892.0686680480562
 20
-747.8223379673452
 42
0.4142135623731
 10
893.5686680480563
 20
-749.3223379673452
 42
0.4142135623731
  0
LWPOLYLINE
  5
353
330
1F
100
AcDbEntity
  8
0-0_補助線
  6
Continuous
 62
     7
370
     9
100
AcDbPolyline
 90
        4
 70
     1
 43
3.0
 10
1815.069030959803
 20
-747.8223379673452
 42
0.4142135623731
 10
1813.569030959803
 20
-746.3223379673451
 42
0.4142135623731
 10
1812.069030959803
 20
-747.8223379673452
 42
0.4142135623731
 10
1813.569030959803
 20
-749.3223379673452
 42
0.4142135623731
  0
MTEXT
  5
354
330
1F
100
AcDbEntity
  8
0-0_補助線
  6
Continuous
 62
     7
370
   211
100
AcDbMText
 10
1293.568849503929
 20
-747.1023379673451
 30
0.0
 40
91.44000000000032
 41
120.0000000000004
 46
0.0
 71
     7
 72
     1
  1
{\fＭＳ ゴシック|b0|i0|c128|p49;92}
 73
     1
 44
1.0
  0
LINE
  5
355
330
1F
100
AcDbEntity
  8
1-6_扉
  6
JWW_DASHED2
 62
     7
370
     9
100
AcDbLine
 10
3664.059858588214
 20
-769.8551252513912
 30
0.0
 11
3664.059858588214
 21
-2416.85810639739
 31
0.0
  0
LINE
  5
356
330
1F
100
AcDbEntity
  8
1-6_扉
  6
JWW_DASHED2
 62
     7
370
     9
100
AcDbLine
 10
3259.062605170246
 20
-2416.85810639739
 30
0.0
 11
3664.059858588214
 21
-2416.85810639739
 31
0.0
  0
LINE
  5
357
330
1F
100
AcDbEntity
  8
0-A_文字
  6
Continuous
 62
    92
370
    13
100
AcDbLine
 10
-5659.999495325866
 20
3730.000181455871
 30
0.0
 11
-5659.999495325866
 21
4000.000181455871
 31
0.0
  0
MTEXT
  5
358
330
1F
100
AcDbEntity
  8
0-A_文字
  6
Continuous
 62
    92
370
    13
100
AcDbMText
 10
-5592.499495325861
 20
3758.959004985283
 30
0.0
 40
147.9176470588235
 41
3300.0
 46
0.0
 71
     7
 72
     1
  1
{\fＭＳ ゴシック|b0|i0|c128|p49;クローゼットドア　固定枠　間口９尺}
 73
     1
 44
1.0
  0
LINE
  5
359
330
1F
100
AcDbEntity
  8
0-A_文字
  6
Continuous
 62
    92
370
    13
100
AcDbLine
 10
-5659.999495325866
 20
3730.000181455871
 30
0.0
 11
-2228.571428571428
 21
3730.000181455871
 31
0.0
  0
LINE
  5
35A
330
1F
100
AcDbEntity
  8
0-A_文字
  6
Continuous
 62
    92
370
    13
100
AcDbLine
 10
-5659.999495325866
 20
4000.000181455871
 30
0.0
 11
-2228.571428571428
 21
4000.000181455871
 31
0.0
  0
LINE
  5
35B
330
1F
100
AcDbEntity
  8
0-A_文字
  6
Continuous
 62
    92
370
    13
100
AcDbLine
 10
-2228.571428571428
 20
3730.000181455871
 30
0.0
 11
-2228.571428571428
 21
4000.000181455871
 31
0.0
  0
MTEXT
  5
35C
330
1F
100
AcDbEntity
  8
F-A_文字
  6
Continuous
 62
     7
370
     0
100
AcDbMText
 10
-5080.081323642279
 20
-4045.062971792675
 30
0.0
 40
79.87392857142851
 41
4402.5
 46
0.0
 71
     7
 72
     1
  1
{\fＭＳ ゴシック|b0|i0|c128|p49;ピノアース　クローゼットドア  固定枠　３方枠＋床直付けレール　枠外H2,339　枠外W2,568}
 73
     1
 44
1.0
  0
MTEXT
  5
35D
330
1F
100
AcDbEntity
  8
F-A_文字
  6
Continuous
 62
     7
370
     9
100
AcDbMText
 10
5096.167700144058
 20
-4147.857012699985
 30
0.0
 40
74.295
 41
97.5
 46
0.0
 71
     7
 72
     1
  1
{\fＭＳ ゴシック|b0|i0|c128|p49;04}
 73
     1
 44
1.0
  0
LINE
  5
35E
330
1F
100
AcDbEntity
  8
F-0_補助線
  6
JWW_HOJO
 62
     7
370
     9
100
AcDbLine
 10
1349.918584083287
 20
-3795.000003092998
 30
0.0
 11
1349.918584083287
 21
-4195.000008247994
 31
0.0
  0
LINE
  5
35F
330
1F
100
AcDbEntity
  8
F-0_補助線
  6
JWW_HOJO
 62
     7
370
     9
100
AcDbLine
 10
4889.917891251784
 20
-3795.000003092998
 30
0.0
 11
4889.917891251784
 21
-4195.000008247994
 31
0.0
  0
MTEXT
  5
360
330
1F
100
AcDbEntity
  8
F-A_文字
  6
Continuous
 62
     7
370
     0
100
AcDbMText
 10
4889.917891251784
 20
-3945.570773120548
 30
0.0
 40
78.86699999999999
 41
517.5
 46
0.0
 71
     7
 72
     1
  1
{\fＭＳ ゴシック|b0|i0|c128|p49;2021.04.01}
 73
     1
 44
1.0
  0
MTEXT
  5
361
330
1F
100
AcDbEntity
  8
F-A_文字
  6
Continuous
 62
     7
370
     0
100
AcDbMText
 10
1349.918584083287
 20
-3945.948482732445
 30
0.0
 40
78.105
 41
615.0
 46
0.0
 71
     7
 72
     1
  1
{\fＭＳ ゴシック|b0|i0|c128|p49;建具納まり図}
 73
     1
 44
1.0
  0
MTEXT
  5
362
330
1F
100
AcDbEntity
  8
F-A_文字
  6
Continuous
 62
     7
370
     0
100
AcDbMText
 10
509.9185840832865
 20
-3956.425201962234
 30
0.0
 40
57.15
 41
675.0
 46
0.0
 71
     7
 72
     1
  1
{\fＭＳ ゴシック|b0|i0|c128|p49;ＰＩＮＯＥＡＲＴＨ}
 73
     1
 44
1.0
  0
ENDSEC
  0
SECTION
  2
OBJECTS
  0
DICTIONARY
  5
C
330
0
100
AcDbDictionary
281
     1
  3
ACAD_GROUP
350
D
  3
ACAD_LAYOUT
350
1A
  3
ACAD_MATERIAL
350
3B
  3
ACAD_MLEADERSTYLE
350
38C
  3
ACAD_MLINESTYLE
350
17
  3
ACAD_PLOTSETTINGS
350
19
  3
ACAD_PLOTSTYLENAME
350
E
  3
ACAD_TABLESTYLE
350
38B
  3
ACAD_VISUALSTYLE
350
2A
  0
DICTIONARY
  5
D
102
{ACAD_REACTORS
330
C
102
}
330
C
100
AcDbDictionary
281
     1
  0
DICTIONARY
  5
1A
102
{ACAD_REACTORS
330
C
102
}
330
C
100
AcDbDictionary
281
     1
  3
Layout1
350
1E
  3
Layout2
350
26
  3
Model
350
22
  0
DICTIONARY
  5
3B
102
{ACAD_REACTORS
330
C
102
}
330
C
100
AcDbDictionary
281
     1
  3
ByBlock
350
3D
  3
ByLayer
350
3C
  3
Global
350
3E
  0
DICTIONARY
  5
38C
102
{ACAD_REACTORS
330
C
102
}
330
C
100
AcDbDictionary
281
     1
  0
DICTIONARY
  5
17
102
{ACAD_REACTORS
330
C
102
}
330
C
100
AcDbDictionary
281
     1
  3
Standard
350
18
  0
DICTIONARY
  5
19
102
{ACAD_REACTORS
330
C
102
}
330
C
100
AcDbDictionary
281
     1
  0
ACDBDICTIONARYWDFLT
  5
E
102
{ACAD_REACTORS
330
C
102
}
330
C
100
AcDbDictionary
281
     1
  3
Normal
350
F
100
AcDbDictionaryWithDefault
340
F
  0
DICTIONARY
  5
38B
102
{ACAD_REACTORS
330
C
102
}
330
C
100
AcDbDictionary
281
     1
  0
DICTIONARY
  5
2A
102
{ACAD_REACTORS
330
C
102
}
330
C
100
AcDbDictionary
281
     1
  3
2dWireframe
350
2F
  3
3D Hidden
350
31
  3
3dWireframe
350
30
  3
Basic
350
32
  3
Brighten
350
36
  3
ColorChange
350
3A
  3
Conceptual
350
34
  3
Dim
350
35
  3
Facepattern
350
39
  3
Flat
350
2B
  3
FlatWithEdges
350
2C
  3
Gouraud
350
2D
  3
GouraudWithEdges
350
2E
  3
Linepattern
350
38
  3
Realistic
350
33
  3
Thicken
350
37
  0
LAYOUT
  5
1E
102
{ACAD_REACTORS
330
1A
102
}
330
1A
100
AcDbPlotSettings
  1

  2
none_device
  4

  6

 40
0.0
 41
0.0
 42
0.0
 43
0.0
 44
0.0
 45
0.0
 46
0.0
 47
0.0
 48
0.0
 49
0.0
140
0.0
141
0.0
142
1.0
143
1.0
 70
   688
 72
     0
 73
     0
 74
     5
  7

 75
    16
 76
     0
 77
     5
 78
   300
147
1.0
148
0.0
149
0.0
100
AcDbLayout
  1
Layout1
 70
     1
 71
     1
 10
0.0
 20
0.0
 11
420.0
 21
297.0
 12
0.0
 22
0.0
 32
0.0
 14
1.000000000000000E+20
 24
1.000000000000000E+20
 34
1.000000000000000E+20
 15
-1.000000000000000E+20
 25
-1.000000000000000E+20
 35
-1.000000000000000E+20
146
0.0
 13
0.0
 23
0.0
 33
0.0
 16
1.0
 26
0.0
 36
0.0
 17
0.0
 27
1.0
 37
0.0
 76
     0
330
1B
  0
LAYOUT
  5
26
102
{ACAD_REACTORS
330
1A
102
}
330
1A
100
AcDbPlotSettings
  1

  2
none_device
  4

  6

 40
0.0
 41
0.0
 42
0.0
 43
0.0
 44
0.0
 45
0.0
 46
0.0
 47
0.0
 48
0.0
 49
0.0
140
0.0
141
0.0
142
1.0
143
1.0
 70
   688
 72
     0
 73
     0
 74
     5
  7

 75
    16
 76
     0
 77
     5
 78
   300
147
1.0
148
0.0
149
0.0
100
AcDbLayout
  1
Layout2
 70
     1
 71
     2
 10
0.0
 20
0.0
 11
0.0
 21
0.0
 12
0.0
 22
0.0
 32
0.0
 14
0.0
 24
0.0
 34
0.0
 15
0.0
 25
0.0
 35
0.0
146
0.0
 13
0.0
 23
0.0
 33
0.0
 16
1.0
 26
0.0
 36
0.0
 17
0.0
 27
1.0
 37
0.0
 76
     0
330
23
  0
LAYOUT
  5
22
102
{ACAD_REACTORS
330
1A
102
}
330
1A
100
AcDbPlotSettings
  1

  2
none_device
  4

  6

 40
0.0
 41
0.0
 42
0.0
 43
0.0
 44
0.0
 45
0.0
 46
0.0
 47
0.0
 48
0.0
 49
0.0
140
0.0
141
0.0
142
1.0
143
1.0
 70
  1712
 72
     0
 73
     0
 74
     0
  7

 75
     0
 76
     0
 77
     5
 78
   300
147
1.0
148
0.0
149
0.0
100
AcDbLayout
  1
Model
 70
     1
 71
     0
 10
-6300.0
 20
-4455.0
 11
6300.0
 21
4455.0
 12
0.0
 22
0.0
 32
0.0
 14
-6300.0
 24
-4455.0
 34
0.0
 15
6300.0
 25
4455.0
 35
0.0
146
0.0
 13
0.0
 23
0.0
 33
0.0
 16
1.0
 26
0.0
 36
0.0
 17
0.0
 27
1.0
 37
0.0
 76
     0
330
1F
331
29
  0
MATERIAL
  5
3D
102
{ACAD_REACTORS
330
3B
102
}
330
3B
100
AcDbMaterial
  1
ByBlock
 72
     1
 94
      127
  0
MATERIAL
  5
3C
102
{ACAD_REACTORS
330
3B
102
}
330
3B
100
AcDbMaterial
  1
ByLayer
 72
     1
 94
      127
  0
MATERIAL
  5
3E
102
{ACAD_REACTORS
330
3B
102
}
330
3B
100
AcDbMaterial
  1
Global
 72
     1
 94
      127
  0
MLINESTYLE
  5
18
102
{ACAD_REACTORS
330
17
102
}
330
17
100
AcDbMlineStyle
  2
Standard
 70
     0
  3

 62
   256
 51
90.0
 52
90.0
 71
     2
 49
0.5
 62
   256
  6
BYLAYER
 49
-0.5
 62
   256
  6
BYLAYER
  0
ACDBPLACEHOLDER
  5
F
102
{ACAD_REACTORS
330
E
102
}
330
E
  0
VISUALSTYLE
  5
2F
102
{ACAD_REACTORS
330
2A
102
}
330
2A
100
AcDbVisualStyle
  2
2dWireframe
 70
     4
177
     2
291
     0
 71
     0
176
     1
 72
     2
176
     1
 73
     0
176
     1
 90
        0
176
     1
 40
-0.6
176
     1
 41
-30.0
176
     1
 62
     5
 63
     7
421
 16777215
176
     1
 74
     1
176
     1
 91
        4
176
     1
 64
     7
176
     1
 65
   257
176
     1
 75
     1
176
     1
175
     1
176
     1
 42
1.0
176
     1
 92
        0
176
     1
 66
   257
176
     1
 43
1.0
176
     1
 76
     1
176
     1
 77
     6
176
     1
 78
     2
176
     1
 67
     7
176
     1
 79
     5
176
     1
170
     0
176
     1
171
     0
176
     1
290
     0
176
     1
 93
        1
176
     1
 44
0.0
176
     1
173
     0
176
     1
  0
VISUALSTYLE
  5
31
102
{ACAD_REACTORS
330
2A
102
}
330
2A
100
AcDbVisualStyle
  2
3D Hidden
 70
     6
177
     2
291
     0
 71
     1
176
     1
 72
     2
176
     1
 73
     2
176
     1
 90
        0
176
     1
 40
-0.6
176
     1
 41
-30.0
176
     1
 62
     5
 63
     7
421
 16777215
176
     1
 74
     2
176
     1
 91
        2
176
     1
 64
     7
176
     1
 65
   257
176
     1
 75
     2
176
     1
175
     1
176
     1
 42
40.0
176
     1
 92
        0
176
     1
 66
   257
176
     1
 43
1.0
176
     1
 76
     1
176
     1
 77
     6
176
     1
 78
     2
176
     1
 67
     7
176
     1
 79
     3
176
     1
170
     0
176
     1
171
     0
176
     1
290
     0
176
     1
 93
        1
176
     1
 44
0.0
176
     1
173
     0
176
     1
  0
VISUALSTYLE
  5
30
102
{ACAD_REACTORS
330
2A
102
}
330
2A
100
AcDbVisualStyle
  2
3dWireframe
 70
     5
177
     2
291
     0
 71
     0
176
     1
 72
     2
176
     1
 73
     0
176
     1
 90
        0
176
     1
 40
-0.6
176
     1
 41
-30.0
176
     1
 62
     5
 63
     7
421
 16777215
176
     1
 74
     1
176
     1
 91
        4
176
     1
 64
     7
176
     1
 65
   257
176
     1
 75
     1
176
     1
175
     1
176
     1
 42
1.0
176
     1
 92
        0
176
     1
 66
   257
176
     1
 43
1.0
176
     1
 76
     1
176
     1
 77
     6
176
     1
 78
     2
176
     1
 67
     7
176
     1
 79
     5
176
     1
170
     0
176
     1
171
     0
176
     1
290
     0
176
     1
 93
        1
176
     1
 44
0.0
176
     1
173
     0
176
     1
  0
VISUALSTYLE
  5
32
102
{ACAD_REACTORS
330
2A
102
}
330
2A
100
AcDbVisualStyle
  2
Basic
 70
     7
177
     2
291
     1
 71
     1
176
     1
 72
     0
176
     1
 73
     1
176
     1
 90
        0
176
     1
 40
-0.6
176
     1
 41
-30.0
176
     1
 62
     5
 63
     7
421
 16777215
176
     1
 74
     0
176
     1
 91
        4
176
     1
 64
     7
176
     1
 65
   257
176
     1
 75
     1
176
     1
175
     1
176
     1
 42
1.0
176
     1
 92
        8
176
     1
 66
     7
176
     1
 43
1.0
176
     1
 76
     1
176
     1
 77
     6
176
     1
 78
     2
176
     1
 67
     7
176
     1
 79
     5
176
     1
170
     0
176
     1
171
     0
176
     1
290
     0
176
     1
 93
        1
176
     1
 44
0.0
176
     1
173
     0
176
     1
  0
VISUALSTYLE
  5
36
102
{ACAD_REACTORS
330
2A
102
}
330
2A
100
AcDbVisualStyle
  2
Brighten
 70
    12
177
     2
291
     1
 71
     2
176
     1
 72
     2
176
     1
 73
     0
176
     1
 90
        0
176
     1
 40
-0.6
176
     1
 41
-30.0
176
     1
 62
     5
 63
     7
421
 16777215
176
     1
 74
     1
176
     1
 91
        4
176
     1
 64
     7
176
     1
 65
   257
176
     1
 75
     1
176
     1
175
     1
176
     1
 42
1.0
176
     1
 92
        8
176
     1
 66
     7
176
     1
 43
1.0
176
     1
 76
     1
176
     1
 77
     6
176
     1
 78
     2
176
     1
 67
     7
176
     1
 79
     5
176
     1
170
     0
176
     1
171
     0
176
     1
290
     0
176
     1
 93
        1
176
     1
 44
50.0
176
     1
173
     0
176
     1
  0
VISUALSTYLE
  5
3A
102
{ACAD_REACTORS
330
2A
102
}
330
2A
100
AcDbVisualStyle
  2
ColorChange
 70
    16
177
     2
291
     1
 71
     2
176
     1
 72
     2
176
     1
 73
     3
176
     1
 90
        0
176
     1
 40
-0.6
176
     1
 41
-30.0
176
     1
 62
     5
 63
     8
421
  8421504
176
     1
 74
     1
176
     1
 91
        4
176
     1
 64
     7
176
     1
 65
   257
176
     1
 75
     1
176
     1
175
     1
176
     1
 42
1.0
176
     1
 92
        8
176
     1
 66
     8
424
  8421504
176
     1
 43
1.0
176
     1
 76
     1
176
     1
 77
     6
176
     1
 78
     2
176
     1
 67
     7
176
     1
 79
     5
176
     1
170
     0
176
     1
171
     0
176
     1
290
     0
176
     1
 93
        1
176
     1
 44
0.0
176
     1
173
     0
176
     1
  0
VISUALSTYLE
  5
34
102
{ACAD_REACTORS
330
2A
102
}
330
2A
100
AcDbVisualStyle
  2
Conceptual
 70
     9
177
     2
291
     0
 71
     3
176
     1
 72
     2
176
     1
 73
     0
176
     1
 90
        0
176
     1
 40
-0.6
176
     1
 41
-30.0
176
     1
 62
     5
 63
     7
421
 16777215
176
     1
 74
     2
176
     1
 91
        2
176
     1
 64
     7
176
     1
 65
   257
176
     1
 75
     1
176
     1
175
     1
176
     1
 42
40.0
176
     1
 92
        8
176
     1
 66
     7
176
     1
 43
1.0
176
     1
 76
     1
176
     1
 77
     6
176
     1
 78
     2
176
     1
 67
     7
176
     1
 79
     3
176
     1
170
     0
176
     1
171
     0
176
     1
290
     0
176
     1
 93
        1
176
     1
 44
0.0
176
     1
173
     0
176
     1
  0
VISUALSTYLE
  5
35
102
{ACAD_REACTORS
330
2A
102
}
330
2A
100
AcDbVisualStyle
  2
Dim
 70
    11
177
     2
291
     1
 71
     2
176
     1
 72
     2
176
     1
 73
     0
176
     1
 90
        0
176
     1
 40
-0.6
176
     1
 41
-30.0
176
     1
 62
     5
 63
     7
421
 16777215
176
     1
 74
     1
176
     1
 91
        4
176
     1
 64
     7
176
     1
 65
   257
176
     1
 75
     1
176
     1
175
     1
176
     1
 42
1.0
176
     1
 92
        8
176
     1
 66
     7
176
     1
 43
1.0
176
     1
 76
     1
176
     1
 77
     6
176
     1
 78
     2
176
     1
 67
     7
176
     1
 79
     5
176
     1
170
     0
176
     1
171
     0
176
     1
290
     0
176
     1
 93
        1
176
     1
 44
-50.0
176
     1
173
     0
176
     1
  0
VISUALSTYLE
  5
39
102
{ACAD_REACTORS
330
2A
102
}
330
2A
100
AcDbVisualStyle
  2
Facepattern
 70
    15
177
     2
291
     1
 71
     2
176
     1
 72
     2
176
     1
 73
     0
176
     1
 90
        0
176
     1
 40
-0.6
176
     1
 41
-30.0
176
     1
 62
     5
 63
     7
421
 16777215
176
     1
 74
     1
176
     1
 91
        4
176
     1
 64
     7
176
     1
 65
   257
176
     1
 75
     1
176
     1
175
     1
176
     1
 42
1.0
176
     1
 92
        8
176
     1
 66
     7
176
     1
 43
1.0
176
     1
 76
     1
176
     1
 77
     6
176
     1
 78
     2
176
     1
 67
     7
176
     1
 79
     5
176
     1
170
     0
176
     1
171
     0
176
     1
290
     0
176
     1
 93
        1
176
     1
 44
0.0
176
     1
173
     0
176
     1
  0
VISUALSTYLE
  5
2B
102
{ACAD_REACTORS
330
2A
102
}
330
2A
100
AcDbVisualStyle
  2
Flat
 70
     0
177
     2
291
     1
 71
     2
176
     1
 72
     1
176
     1
 73
     1
176
     1
 90
        2
176
     1
 40
-0.6
176
     1
 41
30.0
176
     1
 62
     5
 63
     7
421
 16777215
176
     1
 74
     0
176
     1
 91
        4
176
     1
 64
     7
176
     1
 65
   257
176
     1
 75
     1
176
     1
175
     1
176
     1
 42
1.0
176
     1
 92
        8
176
     1
 66
     7
176
     1
 43
1.0
176
     1
 76
     1
176
     1
 77
     6
176
     1
 78
     2
176
     1
 67
     7
176
     1
 79
     5
176
     1
170
     0
176
     1
171
     0
176
     1
290
     0
176
     1
 93
       13
176
     1
 44
0.0
176
     1
173
     0
176
     1
  0
VISUALSTYLE
  5
2C
102
{ACAD_REACTORS
330
2A
102
}
330
2A
100
AcDbVisualStyle
  2
FlatWithEdges
 70
     1
177
     2
291
     1
 71
     2
176
     1
 72
     1
176
     1
 73
     1
176
     1
 90
        2
176
     1
 40
-0.6
176
     1
 41
30.0
176
     1
 62
     5
 63
     7
421
 16777215
176
     1
 74
     1
176
     1
 91
        4
176
     1
 64
     7
176
     1
 65
   257
176
     1
 75
     1
176
     1
175
     1
176
     1
 42
1.0
176
     1
 92
        0
176
     1
 66
   257
176
     1
 43
1.0
176
     1
 76
     1
176
     1
 77
     6
176
     1
 78
     2
176
     1
 67
     7
176
     1
 79
     5
176
     1
170
     0
176
     1
171
     0
176
     1
290
     0
176
     1
 93
       13
176
     1
 44
0.0
176
     1
173
     0
176
     1
  0
VISUALSTYLE
  5
2D
102
{ACAD_REACTORS
330
2A
102
}
330
2A
100
AcDbVisualStyle
  2
Gouraud
 70
     2
177
     2
291
     1
 71
     2
176
     1
 72
     2
176
     1
 73
     1
176
     1
 90
        2
176
     1
 40
-0.6
176
     1
 41
30.0
176
     1
 62
     5
 63
     7
421
 16777215
176
     1
 74
     0
176
     1
 91
        4
176
     1
 64
     7
176
     1
 65
   257
176
     1
 75
     1
176
     1
175
     1
176
     1
 42
1.0
176
     1
 92
        0
176
     1
 66
     7
176
     1
 43
1.0
176
     1
 76
     1
176
     1
 77
     6
176
     1
 78
     2
176
     1
 67
     7
176
     1
 79
     5
176
     1
170
     0
176
     1
171
     0
176
     1
290
     0
176
     1
 93
       13
176
     1
 44
0.0
176
     1
173
     0
176
     1
  0
VISUALSTYLE
  5
2E
102
{ACAD_REACTORS
330
2A
102
}
330
2A
100
AcDbVisualStyle
  2
GouraudWithEdges
 70
     3
177
     2
291
     1
 71
     2
176
     1
 72
     2
176
     1
 73
     1
176
     1
 90
        2
176
     1
 40
-0.6
176
     1
 41
30.0
176
     1
 62
     5
 63
     7
421
 16777215
176
     1
 74
     1
176
     1
 91
        4
176
     1
 64
     7
176
     1
 65
   257
176
     1
 75
     1
176
     1
175
     1
176
     1
 42
1.0
176
     1
 92
        0
176
     1
 66
   257
176
     1
 43
1.0
176
     1
 76
     1
176
     1
 77
     6
176
     1
 78
     2
176
     1
 67
     7
176
     1
 79
     5
176
     1
170
     0
176
     1
171
     0
176
     1
290
     0
176
     1
 93
       13
176
     1
 44
0.0
176
     1
173
     0
176
     1
  0
VISUALSTYLE
  5
38
102
{ACAD_REACTORS
330
2A
102
}
330
2A
100
AcDbVisualStyle
  2
Linepattern
 70
    14
177
     2
291
     1
 71
     2
176
     1
 72
     2
176
     1
 73
     0
176
     1
 90
        0
176
     1
 40
-0.6
176
     1
 41
-30.0
176
     1
 62
     5
 63
     7
421
 16777215
176
     1
 74
     1
176
     1
 91
        4
176
     1
 64
     7
176
     1
 65
   257
176
     1
 75
     7
176
     1
175
     7
176
     1
 42
1.0
176
     1
 92
        8
176
     1
 66
     7
176
     1
 43
1.0
176
     1
 76
     1
176
     1
 77
     6
176
     1
 78
     2
176
     1
 67
     7
176
     1
 79
     5
176
     1
170
     0
176
     1
171
     0
176
     1
290
     0
176
     1
 93
        1
176
     1
 44
0.0
176
     1
173
     0
176
     1
  0
VISUALSTYLE
  5
33
102
{ACAD_REACTORS
330
2A
102
}
330
2A
100
AcDbVisualStyle
  2
Realistic
 70
     8
177
     2
291
     0
 71
     2
176
     1
 72
     2
176
     1
 73
     0
176
     1
 90
        0
176
     1
 40
-0.6
176
     1
 41
-30.0
176
     1
 62
     5
 63
     7
421
 16777215
176
     1
 74
     1
176
     1
 91
        0
176
     1
 64
     7
176
     1
 65
   257
176
     1
 75
     1
176
     1
175
     1
176
     1
 42
1.0
176
     1
 92
        8
176
     1
 66
     8
424
  7895160
176
     1
 43
1.0
176
     1
 76
     1
176
     1
 77
     6
176
     1
 78
     2
176
     1
 67
     7
176
     1
 79
     5
176
     1
170
     0
176
     1
171
     0
176
     1
290
     0
176
     1
 93
       13
176
     1
 44
0.0
176
     1
173
     0
176
     1
  0
VISUALSTYLE
  5
37
102
{ACAD_REACTORS
330
2A
102
}
330
2A
100
AcDbVisualStyle
  2
Thicken
 70
    13
177
     2
291
     1
 71
     2
176
     1
 72
     2
176
     1
 73
     0
176
     1
 90
        0
176
     1
 40
-0.6
176
     1
 41
-30.0
176
     1
 62
     5
 63
     7
421
 16777215
176
     1
 74
     1
176
     1
 91
        4
176
     1
 64
     7
176
     1
 65
   257
176
     1
 75
     1
176
     1
175
     1
176
     1
 42
1.0
176
     1
 92
       12
176
     1
 66
     7
176
     1
 43
1.0
176
     1
 76
     1
176
     1
 77
     6
176
     1
 78
     2
176
     1
 67
     7
176
     1
 79
     5
176
     1
170
     0
176
     1
171
     0
176
     1
290
     0
176
     1
 93
        1
176
     1
 44
0.0
176
     1
173
     0
176
     1
  0
ENDSEC
  0
EOF
