  0
SECTION
  2
HEADER
  9
$ACADVER
  1
AC1024
  9
$ACADMAINTVER
 70
     6
  9
$DWGCODEPAGE
  3
ANSI_932
  9
$INSBASE
 10
0.0
 20
0.0
 30
0.0
  9
$EXTMIN
 10
-6300.0
 20
-4455.0
 30
0.0
  9
$EXTMAX
 10
6300.0
 20
4455.0
 30
0.0
  9
$LIMMIN
 10
-6300.0
 20
-4455.0
  9
$LIMMAX
 10
6300.0
 20
4455.0
  9
$ORTHOMODE
 70
     0
  9
$REGENMODE
 70
     1
  9
$FILLMODE
 70
     1
  9
$QTEXTMODE
 70
     0
  9
$MIRRTEXT
 70
     1
  9
$LTSCALE
 40
30.0
  9
$ATTMODE
 70
     1
  9
$TEXTSIZE
 40
2.5
  9
$TRACEWID
 40
1.0
  9
$TEXTSTYLE
  7
Standard
  9
$CLAYER
  8
0
  9
$CELTYPE
  6
ByLayer
  9
$CECOLOR
 62
   256
  9
$CELTSCALE
 40
1.0
  9
$DISPSILH
 70
     0
  9
$DIMSCALE
 40
1.0
  9
$DIMASZ
 40
2.5
  9
$DIMEXO
 40
0.625
  9
$DIMDLI
 40
3.75
  9
$DIMRND
 40
0.0
  9
$DIMDLE
 40
0.0
  9
$DIMEXE
 40
1.25
  9
$DIMTP
 40
0.0
  9
$DIMTM
 40
0.0
  9
$DIMTXT
 40
2.5
  9
$DIMCEN
 40
2.5
  9
$DIMTSZ
 40
0.0
  9
$DIMTOL
 70
     0
  9
$DIMLIM
 70
     0
  9
$DIMTIH
 70
     0
  9
$DIMTOH
 70
     0
  9
$DIMSE1
 70
     0
  9
$DIMSE2
 70
     0
  9
$DIMTAD
 70
     1
  9
$DIMZIN
 70
     8
  9
$DIMBLK
  1

  9
$DIMASO
 70
     1
  9
$DIMSHO
 70
     1
  9
$DIMPOST
  1

  9
$DIMAPOST
  1

  9
$DIMALT
 70
     0
  9
$DIMALTD
 70
     3
  9
$DIMALTF
 40
0.03937007874016
  9
$DIMLFAC
 40
1.0
  9
$DIMTOFL
 70
     1
  9
$DIMTVP
 40
0.0
  9
$DIMTIX
 70
     0
  9
$DIMSOXD
 70
     0
  9
$DIMSAH
 70
     0
  9
$DIMBLK1
  1

  9
$DIMBLK2
  1

  9
$DIMSTYLE
  2
ISO-25
  9
$DIMCLRD
 70
     0
  9
$DIMCLRE
 70
     0
  9
$DIMCLRT
 70
     0
  9
$DIMTFAC
 40
1.0
  9
$DIMGAP
 40
0.625
  9
$DIMJUST
 70
     0
  9
$DIMSD1
 70
     0
  9
$DIMSD2
 70
     0
  9
$DIMTOLJ
 70
     0
  9
$DIMTZIN
 70
     8
  9
$DIMALTZ
 70
     0
  9
$DIMALTTZ
 70
     0
  9
$DIMUPT
 70
     0
  9
$DIMDEC
 70
     2
  9
$DIMTDEC
 70
     2
  9
$DIMALTU
 70
     2
  9
$DIMALTTD
 70
     3
  9
$DIMTXSTY
  7
Standard
  9
$DIMAUNIT
 70
     0
  9
$DIMADEC
 70
     0
  9
$DIMALTRND
 40
0.0
  9
$DIMAZIN
 70
     0
  9
$DIMDSEP
 70
    44
  9
$DIMATFIT
 70
     3
  9
$DIMFRAC
 70
     0
  9
$DIMLDRBLK
  1

  9
$DIMLUNIT
 70
     2
  9
$DIMLWD
 70
    -2
  9
$DIMLWE
 70
    -2
  9
$DIMTMOVE
 70
     0
  9
$DIMFXL
 40
1.0
  9
$DIMFXLON
 70
     0
  9
$DIMJOGANG
 40
0.7853981633974483
  9
$DIMTFILL
 70
     0
  9
$DIMTFILLCLR
 70
     0
  9
$DIMARCSYM
 70
     0
  9
$DIMLTYPE
  6

  9
$DIMLTEX1
  6

  9
$DIMLTEX2
  6

  9
$DIMTXTDIRECTION
 70
     0
  9
$LUNITS
 70
     2
  9
$LUPREC
 70
     4
  9
$SKETCHINC
 40
1.0
  9
$FILLETRAD
 40
10.0
  9
$AUNITS
 70
     0
  9
$AUPREC
 70
     0
  9
$MENU
  1
.
  9
$ELEVATION
 40
0.0
  9
$PELEVATION
 40
0.0
  9
$THICKNESS
 40
0.0
  9
$LIMCHECK
 70
     0
  9
$CHAMFERA
 40
10.0
  9
$CHAMFERB
 40
10.0
  9
$CHAMFERC
 40
20.0
  9
$CHAMFERD
 40
0.0
  9
$SKPOLY
 70
     0
  9
$TDCREATE
 40
2459380.619054132
  9
$TDUCREATE
 40
2459380.244054132
  9
$TDUPDATE
 40
2459380.619054143
  9
$TDUUPDATE
 40
2459380.244054143
  9
$TDINDWG
 40
0.0000000116
  9
$TDUSRTIMER
 40
0.0000000116
  9
$USRTIMER
 70
     1
  9
$ANGBASE
 50
0.0
  9
$ANGDIR
 70
     0
  9
$PDMODE
 70
     0
  9
$PDSIZE
 40
0.0
  9
$PLINEWID
 40
0.0
  9
$SPLFRAME
 70
     0
  9
$SPLINETYPE
 70
     6
  9
$SPLINESEGS
 70
     8
  9
$HANDSEED
  5
462
  9
$SURFTAB1
 70
     6
  9
$SURFTAB2
 70
     6
  9
$SURFTYPE
 70
     6
  9
$SURFU
 70
     6
  9
$SURFV
 70
     6
  9
$UCSBASE
  2

  9
$UCSNAME
  2

  9
$UCSORG
 10
0.0
 20
0.0
 30
0.0
  9
$UCSXDIR
 10
1.0
 20
0.0
 30
0.0
  9
$UCSYDIR
 10
0.0
 20
1.0
 30
0.0
  9
$UCSORTHOREF
  2

  9
$UCSORTHOVIEW
 70
     0
  9
$UCSORGTOP
 10
0.0
 20
0.0
 30
0.0
  9
$UCSORGBOTTOM
 10
0.0
 20
0.0
 30
0.0
  9
$UCSORGLEFT
 10
0.0
 20
0.0
 30
0.0
  9
$UCSORGRIGHT
 10
0.0
 20
0.0
 30
0.0
  9
$UCSORGFRONT
 10
0.0
 20
0.0
 30
0.0
  9
$UCSORGBACK
 10
0.0
 20
0.0
 30
0.0
  9
$PUCSBASE
  2

  9
$PUCSNAME
  2

  9
$PUCSORG
 10
0.0
 20
0.0
 30
0.0
  9
$PUCSXDIR
 10
1.0
 20
0.0
 30
0.0
  9
$PUCSYDIR
 10
0.0
 20
1.0
 30
0.0
  9
$PUCSORTHOREF
  2

  9
$PUCSORTHOVIEW
 70
     0
  9
$PUCSORGTOP
 10
0.0
 20
0.0
 30
0.0
  9
$PUCSORGBOTTOM
 10
0.0
 20
0.0
 30
0.0
  9
$PUCSORGLEFT
 10
0.0
 20
0.0
 30
0.0
  9
$PUCSORGRIGHT
 10
0.0
 20
0.0
 30
0.0
  9
$PUCSORGFRONT
 10
0.0
 20
0.0
 30
0.0
  9
$PUCSORGBACK
 10
0.0
 20
0.0
 30
0.0
  9
$USERI1
 70
     0
  9
$USERI2
 70
     0
  9
$USERI3
 70
     0
  9
$USERI4
 70
     0
  9
$USERI5
 70
     0
  9
$USERR1
 40
0.0
  9
$USERR2
 40
0.0
  9
$USERR3
 40
0.0
  9
$USERR4
 40
0.0
  9
$USERR5
 40
0.0
  9
$WORLDVIEW
 70
     1
  9
$SHADEDGE
 70
     3
  9
$SHADEDIF
 70
    70
  9
$TILEMODE
 70
     1
  9
$MAXACTVP
 70
    64
  9
$PINSBASE
 10
0.0
 20
0.0
 30
0.0
  9
$PLIMCHECK
 70
     0
  9
$PEXTMIN
 10
1.000000000000000E+20
 20
1.000000000000000E+20
 30
1.000000000000000E+20
  9
$PEXTMAX
 10
-1.000000000000000E+20
 20
-1.000000000000000E+20
 30
-1.000000000000000E+20
  9
$PLIMMIN
 10
0.0
 20
0.0
  9
$PLIMMAX
 10
420.0
 20
297.0
  9
$UNITMODE
 70
     0
  9
$VISRETAIN
 70
     1
  9
$PLINEGEN
 70
     0
  9
$PSLTSCALE
 70
     1
  9
$TREEDEPTH
 70
  3020
  9
$CMLSTYLE
  2
Standard
  9
$CMLJUST
 70
     0
  9
$CMLSCALE
 40
20.0
  9
$PROXYGRAPHICS
 70
     1
  9
$MEASUREMENT
 70
     1
  9
$CELWEIGHT
370
    -1
  9
$ENDCAPS
280
     0
  9
$JOINSTYLE
280
     0
  9
$LWDISPLAY
290
     0
  9
$INSUNITS
 70
     4
  9
$HYPERLINKBASE
  1

  9
$STYLESHEET
  1

  9
$XEDIT
290
     1
  9
$CEPSNTYPE
380
     0
  9
$PSTYLEMODE
290
     1
  9
$FINGERPRINTGUID
  2
{5935C08F-EBE7-4E7A-92A4-C810F36F2745}
  9
$VERSIONGUID
  2
{FAEB1C32-E019-11D5-929B-00C0DF256EC4}
  9
$EXTNAMES
290
     1
  9
$PSVPSCALE
 40
0.0
  9
$OLESTARTUP
290
     0
  9
$SORTENTS
280
   127
  9
$INDEXCTL
280
     0
  9
$HIDETEXT
280
     1
  9
$XCLIPFRAME
280
     2
  9
$HALOGAP
280
     0
  9
$OBSCOLOR
 70
   257
  9
$OBSLTYPE
280
     0
  9
$INTERSECTIONDISPLAY
280
     0
  9
$INTERSECTIONCOLOR
 70
   257
  9
$DIMASSOC
280
     2
  9
$PROJECTNAME
  1

  9
$CAMERADISPLAY
290
     0
  9
$LENSLENGTH
 40
50.0
  9
$CAMERAHEIGHT
 40
0.0
  9
$STEPSPERSEC
 40
2.0
  9
$STEPSIZE
 40
6.0
  9
$3DDWFPREC
 40
2.0
  9
$PSOLWIDTH
 40
5.0
  9
$PSOLHEIGHT
 40
80.0
  9
$LOFTANG1
 40
1.570796326794897
  9
$LOFTANG2
 40
1.570796326794897
  9
$LOFTMAG1
 40
0.0
  9
$LOFTMAG2
 40
0.0
  9
$LOFTPARAM
 70
     7
  9
$LOFTNORMALS
280
     1
  9
$LATITUDE
 40
37.795
  9
$LONGITUDE
 40
-122.394
  9
$NORTHDIRECTION
 40
0.0
  9
$TIMEZONE
 70
 -8000
  9
$LIGHTGLYPHDISPLAY
280
     1
  9
$TILEMODELIGHTSYNCH
280
     1
  9
$SOLIDHIST
280
     1
  9
$SHOWHIST
280
     1
  9
$DWFFRAME
280
     2
  9
$DGNFRAME
280
     2
  9
$REALWORLDSCALE
290
     1
  9
$INTERFERECOLOR
 62
   256
  9
$CSHADOW
280
     0
  9
$SHADOWPLANELOCATION
 40
0.0
  0
ENDSEC
  0
SECTION
  2
CLASSES
  0
CLASS
  1
ACDBDICTIONARYWDFLT
  2
AcDbDictionaryWithDefault
  3
ObjectDBX Classes
 90
        0
 91
        4
280
     0
281
     0
  0
CLASS
  1
VISUALSTYLE
  2
AcDbVisualStyle
  3
ObjectDBX Classes
 90
     4095
 91
        4
280
     0
281
     0
  0
CLASS
  1
MATERIAL
  2
AcDbMaterial
  3
ObjectDBX Classes
 90
     1153
 91
        4
280
     0
281
     0
  0
ENDSEC
  0
SECTION
  2
TABLES
  0
TABLE
  2
VPORT
  5
8
330
0
100
AcDbSymbolTable
 70
     1
  0
VPORT
  5
29
330
8
100
AcDbSymbolTableRecord
100
AcDbViewportTableRecord
  2
*Active
 70
     0
 10
0.0
 20
0.0
 11
1.0
 21
1.0
 12
0.0
 22
0.0
 13
0.0
 23
0.0
 14
10.0
 24
10.0
 15
10.0
 25
10.0
 16
0.0
 26
0.0
 36
1.0
 17
0.0
 27
0.0
 37
0.0
 40
9801.0
 41
1.414141414141414
 42
50.0
 43
0.0
 44
0.0
 50
0.0
 51
0.0
 71
     0
 72
 10000
 73
     1
 74
     3
 75
     0
 76
     0
 77
     0
 78
     0
281
     0
 65
     1
110
0.0
120
0.0
130
0.0
111
1.0
121
0.0
131
0.0
112
0.0
122
1.0
132
0.0
 79
     0
146
0.0
 60
     3
 61
     5
292
     1
282
     1
141
0.0
142
0.0
 63
   250
  0
ENDTAB
  0
TABLE
  2
LTYPE
  5
5
330
0
100
AcDbSymbolTable
 70
     5
  0
LTYPE
  5
14
330
5
100
AcDbSymbolTableRecord
100
AcDbLinetypeTableRecord
  2
ByBlock
 70
     0
  3

 72
    65
 73
     0
 40
0.0
  0
LTYPE
  5
15
330
5
100
AcDbSymbolTableRecord
100
AcDbLinetypeTableRecord
  2
ByLayer
 70
     0
  3

 72
    65
 73
     0
 40
0.0
  0
LTYPE
  5
16
330
5
100
AcDbSymbolTableRecord
100
AcDbLinetypeTableRecord
  2
Continuous
 70
     0
  3
Solid line
 72
    65
 73
     0
 40
0.0
  0
LTYPE
  5
3F
330
5
100
AcDbSymbolTableRecord
100
AcDbLinetypeTableRecord
  2
JWW_HOJO
 70
     0
  3
  -   -   -   -   -   -   -   - 
 72
    65
 73
     2
 40
1.693333333333333
 49
-1.27
 74
     0
 49
0.4233333333333333
 74
     0
  0
LTYPE
  5
40
330
5
100
AcDbSymbolTableRecord
100
AcDbLinetypeTableRecord
  2
JWW_DASHED2
 70
     0
  3
--    ----    ----    ----    --
 72
    65
 73
     2
 40
3.386666666666667
 49
1.693333333333333
 74
     0
 49
-1.693333333333333
 74
     0
  0
LTYPE
  5
41
330
5
100
AcDbSymbolTableRecord
100
AcDbLinetypeTableRecord
  2
JWW_CENTER1
 70
     0
  3
-----  --  ----------  --  -----
 72
    65
 73
     4
 40
6.773333333333333
 49
4.233333333333333
 74
     0
 49
-0.8466666666666667
 74
     0
 49
0.8466666666666667
 74
     0
 49
-0.8466666666666667
 74
     0
  0
LTYPE
  5
42
330
5
100
AcDbSymbolTableRecord
100
AcDbLinetypeTableRecord
  2
JWW_DASHED1
 70
     0
  3
-  --  --  --  --  --  --  --  -
 72
    65
 73
     2
 40
1.693333333333333
 49
0.8466666666666667
 74
     0
 49
-0.8466666666666667
 74
     0
  0
ENDTAB
  0
TABLE
  2
LAYER
  5
2
330
0
100
AcDbSymbolTable
 70
    21
  0
LAYER
  5
10
330
2
100
AcDbSymbolTableRecord
100
AcDbLayerTableRecord
  2
0
 70
     0
 62
     7
  6
Continuous
370
    -3
390
F
347
3E
  0
LAYER
  5
43
330
2
100
AcDbSymbolTableRecord
100
AcDbLayerTableRecord
  2
F-A_文字
 70
     0
 62
     7
  6
Continuous
370
    -3
390
F
347
3E
  0
LAYER
  5
44
330
2
100
AcDbSymbolTableRecord
100
AcDbLayerTableRecord
  2
F-0_補助線
 70
     0
 62
     7
  6
Continuous
370
    -3
390
F
347
3E
  0
LAYER
  5
45
330
2
100
AcDbSymbolTableRecord
100
AcDbLayerTableRecord
  2
F-1_枠
 70
     0
 62
     7
  6
Continuous
370
    -3
390
F
347
3E
  0
LAYER
  5
46
330
2
100
AcDbSymbolTableRecord
100
AcDbLayerTableRecord
  2
戸当り
 70
     0
 62
     7
  6
Continuous
370
    -3
390
F
347
3E
  0
LAYER
  5
47
330
2
100
AcDbSymbolTableRecord
100
AcDbLayerTableRecord
  2
0-A_文字
 70
     0
 62
     7
  6
Continuous
370
    -3
390
F
347
3E
  0
LAYER
  5
48
330
2
100
AcDbSymbolTableRecord
100
AcDbLayerTableRecord
  2
0-0_補助線
 70
     0
 62
     7
  6
Continuous
370
    -3
390
F
347
3E
  0
LAYER
  5
49
330
2
100
AcDbSymbolTableRecord
100
AcDbLayerTableRecord
  2
0-B_寸法
 70
     0
 62
     7
  6
Continuous
370
    -3
390
F
347
3E
  0
LAYER
  5
4A
330
2
100
AcDbSymbolTableRecord
100
AcDbLayerTableRecord
  2
0-6_扉
 70
     0
 62
     7
  6
Continuous
370
    -3
390
F
347
3E
  0
LAYER
  5
4B
330
2
100
AcDbSymbolTableRecord
100
AcDbLayerTableRecord
  2
0-7_金物
 70
     0
 62
     7
  6
Continuous
370
    -3
390
F
347
3E
  0
LAYER
  5
4C
330
2
100
AcDbSymbolTableRecord
100
AcDbLayerTableRecord
  2
0-1_通り芯
 70
     0
 62
     7
  6
Continuous
370
    -3
390
F
347
3E
  0
LAYER
  5
4D
330
2
100
AcDbSymbolTableRecord
100
AcDbLayerTableRecord
  2
0-3_仕上げ
 70
     0
 62
     7
  6
Continuous
370
    -3
390
F
347
3E
  0
LAYER
  5
4E
330
2
100
AcDbSymbolTableRecord
100
AcDbLayerTableRecord
  2
0-C_ハッチ
 70
     0
 62
     7
  6
Continuous
370
    -3
390
F
347
3E
  0
LAYER
  5
4F
330
2
100
AcDbSymbolTableRecord
100
AcDbLayerTableRecord
  2
0-4_枠
 70
     0
 62
     7
  6
Continuous
370
    -3
390
F
347
3E
  0
LAYER
  5
50
330
2
100
AcDbSymbolTableRecord
100
AcDbLayerTableRecord
  2
0-D_ハッチ2
 70
     0
 62
     7
  6
Continuous
370
    -3
390
F
347
3E
  0
LAYER
  5
51
330
2
100
AcDbSymbolTableRecord
100
AcDbLayerTableRecord
  2
1-A_文字
 70
     0
 62
     7
  6
Continuous
370
    -3
390
F
347
3E
  0
LAYER
  5
52
330
2
100
AcDbSymbolTableRecord
100
AcDbLayerTableRecord
  2
1-3_仕上げ
 70
     0
 62
     7
  6
Continuous
370
    -3
390
F
347
3E
  0
LAYER
  5
53
330
2
100
AcDbSymbolTableRecord
100
AcDbLayerTableRecord
  2
1-0_補助線
 70
     0
 62
     7
  6
Continuous
370
    -3
390
F
347
3E
  0
LAYER
  5
54
330
2
100
AcDbSymbolTableRecord
100
AcDbLayerTableRecord
  2
1-B_寸法
 70
     0
 62
     7
  6
Continuous
370
    -3
390
F
347
3E
  0
LAYER
  5
55
330
2
100
AcDbSymbolTableRecord
100
AcDbLayerTableRecord
  2
1-C_ハッチ
 70
     0
 62
     7
  6
Continuous
370
    -3
390
F
347
3E
  0
LAYER
  5
56
330
2
100
AcDbSymbolTableRecord
100
AcDbLayerTableRecord
  2
1-7_金物
 70
     0
 62
     7
  6
Continuous
370
    -3
390
F
347
3E
  0
ENDTAB
  0
TABLE
  2
STYLE
  5
3
330
0
100
AcDbSymbolTable
 70
     1
  0
STYLE
  5
11
330
3
100
AcDbSymbolTableRecord
100
AcDbTextStyleTableRecord
  2
Standard
 70
     0
 40
0.0
 41
1.0
 50
0.0
 71
     0
 42
2.5
  3
txt
  4

  0
ENDTAB
  0
TABLE
  2
VIEW
  5
6
330
0
100
AcDbSymbolTable
 70
     0
  0
ENDTAB
  0
TABLE
  2
UCS
  5
7
330
0
100
AcDbSymbolTable
 70
     0
  0
ENDTAB
  0
TABLE
  2
APPID
  5
9
330
0
100
AcDbSymbolTable
 70
     1
  0
APPID
  5
12
330
9
100
AcDbSymbolTableRecord
100
AcDbRegAppTableRecord
  2
ACAD
 70
     0
  0
ENDTAB
  0
TABLE
  2
DIMSTYLE
  5
A
330
0
100
AcDbSymbolTable
 70
     1
100
AcDbDimStyleTable
  0
DIMSTYLE
105
27
330
A
100
AcDbSymbolTableRecord
100
AcDbDimStyleTableRecord
  2
ISO-25
 70
     0
 41
2.5
 42
0.625
 43
3.75
 44
1.25
 73
     0
 74
     0
 77
     1
 78
     8
140
2.5
141
2.5
143
0.03937007874016
147
0.625
171
     3
172
     1
178
     0
271
     2
272
     2
274
     3
278
    44
283
     0
284
     8
340
11
  0
ENDTAB
  0
TABLE
  2
BLOCK_RECORD
  5
1
330
0
100
AcDbSymbolTable
 70
     2
  0
BLOCK_RECORD
  5
1F
330
1
100
AcDbSymbolTableRecord
100
AcDbBlockTableRecord
  2
*Model_Space
340
22
 70
     0
280
     1
281
     0
  0
BLOCK_RECORD
  5
1B
330
1
100
AcDbSymbolTableRecord
100
AcDbBlockTableRecord
  2
*Paper_Space
340
1E
 70
     0
280
     1
281
     0
  0
BLOCK_RECORD
  5
23
330
1
100
AcDbSymbolTableRecord
100
AcDbBlockTableRecord
  2
*Paper_Space0
340
26
 70
     0
280
     1
281
     0
  0
BLOCK_RECORD
  5
57
330
1
100
AcDbSymbolTableRecord
100
AcDbBlockTableRecord
  2
01@@SfigorgFlag@@4
340
0
102
{BLKREFS
331
2BC
102
}
 70
     0
280
     1
281
     0
  0
ENDTAB
  0
ENDSEC
  0
SECTION
  2
BLOCKS
  0
BLOCK
  5
20
330
1F
100
AcDbEntity
  8
0
100
AcDbBlockBegin
  2
*Model_Space
 70
     0
 10
0.0
 20
0.0
 30
0.0
  3
*Model_Space
  1

  0
ENDBLK
  5
21
330
1F
100
AcDbEntity
  8
0
100
AcDbBlockEnd
  0
BLOCK
  5
1C
330
1B
100
AcDbEntity
 67
     1
  8
0
100
AcDbBlockBegin
  2
*Paper_Space
 70
     0
 10
0.0
 20
0.0
 30
0.0
  3
*Paper_Space
  1

  0
ENDBLK
  5
1D
330
1B
100
AcDbEntity
 67
     1
  8
0
100
AcDbBlockEnd
  0
BLOCK
  5
24
330
23
100
AcDbEntity
  8
0
100
AcDbBlockBegin
  2
*Paper_Space0
 70
     0
 10
0.0
 20
0.0
 30
0.0
  3
*Paper_Space0
  1

  0
ENDBLK
  5
25
330
23
100
AcDbEntity
  8
0
100
AcDbBlockEnd
  0
BLOCK
  5
58
330
57
100
AcDbEntity
  8
0
100
AcDbBlockBegin
  2
01@@SfigorgFlag@@4
 70
     0
 10
0.0
 20
0.0
 30
0.0
  3
01@@SfigorgFlag@@4
  1

  0
LINE
  5
439
330
57
100
AcDbEntity
  8
0-0_補助線
  6
Continuous
 62
     7
370
     9
100
AcDbLine
 10
-4.25
 20
-1.491025641025665
 30
0.0
 11
-3.25
 21
-1.491025641025665
 31
0.0
  0
LINE
  5
43A
330
57
100
AcDbEntity
  8
0-0_補助線
  6
Continuous
 62
     7
370
     9
100
AcDbLine
 10
-2.75
 20
-1.491025641025665
 30
0.0
 11
-0.1500000000000909
 21
-1.491025641025665
 31
0.0
  0
LINE
  5
43B
330
57
100
AcDbEntity
  8
0-0_補助線
  6
Continuous
 62
     7
370
     9
100
AcDbLine
 10
-0.1500000000000909
 20
-1.491025641025665
 30
0.0
 11
0.0
 21
-1.641025641025642
 31
0.0
  0
LINE
  5
43C
330
57
100
AcDbEntity
  8
0-0_補助線
  6
Continuous
 62
     7
370
     9
100
AcDbLine
 10
0.0
 20
-1.641025641025642
 30
0.0
 11
0.1500000000000909
 21
-1.491025641025665
 31
0.0
  0
LINE
  5
43D
330
57
100
AcDbEntity
  8
0-0_補助線
  6
Continuous
 62
     7
370
     9
100
AcDbLine
 10
0.1500000000000909
 20
-1.491025641025665
 30
0.0
 11
2.75
 21
-1.491025641025665
 31
0.0
  0
LINE
  5
43E
330
57
100
AcDbEntity
  8
0-0_補助線
  6
Continuous
 62
     7
370
     9
100
AcDbLine
 10
3.25
 20
-1.491025641025665
 30
0.0
 11
4.25
 21
-1.491025641025665
 31
0.0
  0
LINE
  5
43F
330
57
100
AcDbEntity
  8
0-0_補助線
  6
Continuous
 62
     7
370
     9
100
AcDbLine
 10
7.849999999999909
 20
1.408974358974312
 30
0.0
 11
4.849999999999909
 21
1.408974358974312
 31
0.0
  0
LINE
  5
440
330
57
100
AcDbEntity
  8
0-0_補助線
  6
Continuous
 62
     7
370
     9
100
AcDbLine
 10
-4.849999999999909
 20
1.408974358974312
 30
0.0
 11
-7.849999999999909
 21
1.408974358974312
 31
0.0
  0
LINE
  5
441
330
57
100
AcDbEntity
  8
0-0_補助線
  6
Continuous
 62
     7
370
     9
100
AcDbLine
 10
-4.849999999999909
 20
2.008974358974335
 30
0.0
 11
-7.849999999999909
 21
1.70897435897438
 31
0.0
  0
ARC
  5
442
330
57
100
AcDbEntity
  8
0-0_補助線
  6
Continuous
 62
     7
370
     9
100
AcDbCircle
 10
-7.849999999999909
 20
1.558974358974403
 30
0.0
 40
0.15
100
AcDbArc
 50
90.0
 51
270.0
  0
ARC
  5
443
330
57
100
AcDbEntity
  8
0-0_補助線
  6
Continuous
 62
     7
370
     9
100
AcDbCircle
 10
7.849999999999909
 20
1.558974358974403
 30
0.0
 40
0.15
100
AcDbArc
 50
270.0
 51
89.99999999999997
  0
LINE
  5
444
330
57
100
AcDbEntity
  8
0-0_補助線
  6
Continuous
 62
     7
370
     9
100
AcDbLine
 10
7.849999999999909
 20
1.70897435897438
 30
0.0
 11
4.849999999999909
 21
2.008974358974335
 31
0.0
  0
LINE
  5
445
330
57
100
AcDbEntity
  8
0-0_補助線
  6
Continuous
 62
     7
370
     9
100
AcDbLine
 10
-3.050000000000182
 20
2.008974358974335
 30
0.0
 11
-4.849999999999909
 21
2.008974358974335
 31
0.0
  0
ARC
  5
446
330
57
100
AcDbEntity
  8
0-0_補助線
  6
Continuous
 62
     7
370
     9
100
AcDbCircle
 10
-3.050000000000182
 20
1.70897435897438
 30
0.0
 40
0.3
100
AcDbArc
 50
0.0
 51
90.0
  0
ARC
  5
447
330
57
100
AcDbEntity
  8
0-0_補助線
  6
Continuous
 62
     7
370
     9
100
AcDbCircle
 10
-3.050000000000182
 20
1.70897435897438
 30
0.0
 40
0.3
100
AcDbArc
 50
270.0
 51
0.0
  0
ARC
  5
448
330
57
100
AcDbEntity
  8
0-0_補助線
  6
Continuous
 62
     7
370
     9
100
AcDbCircle
 10
3.050000000000182
 20
1.70897435897438
 30
0.0
 40
0.3
100
AcDbArc
 50
180.0
 51
270.0
  0
LINE
  5
449
330
57
100
AcDbEntity
  8
0-0_補助線
  6
Continuous
 62
     7
370
     9
100
AcDbLine
 10
3.050000000000182
 20
2.008974358974335
 30
0.0
 11
4.849999999999909
 21
2.008974358974335
 31
0.0
  0
ARC
  5
44A
330
57
100
AcDbEntity
  8
0-0_補助線
  6
Continuous
 62
     7
370
     9
100
AcDbCircle
 10
3.050000000000182
 20
1.70897435897438
 30
0.0
 40
0.3
100
AcDbArc
 50
90.0
 51
180.0
  0
LINE
  5
44B
330
57
100
AcDbEntity
  8
0-0_補助線
  6
Continuous
 62
     7
370
     9
100
AcDbLine
 10
4.849999999999909
 20
-1.341025641025688
 30
0.0
 11
4.849999999999909
 21
1.408974358974312
 31
0.0
  0
ARC
  5
44C
330
57
100
AcDbEntity
  8
0-0_補助線
  6
Continuous
 62
     7
370
     9
100
AcDbCircle
 10
4.099999999999909
 20
-1.341025641025688
 30
0.0
 40
0.75
100
AcDbArc
 50
270.0
 51
0.0
  0
LINE
  5
44D
330
57
100
AcDbEntity
  8
0-0_補助線
  6
Continuous
 62
     7
370
     9
100
AcDbLine
 10
-4.849999999999909
 20
-1.341025641025688
 30
0.0
 11
-4.849999999999909
 21
1.408974358974312
 31
0.0
  0
LINE
  5
44E
330
57
100
AcDbEntity
  8
0-0_補助線
  6
Continuous
 62
     7
370
     9
100
AcDbLine
 10
-4.099999999999909
 20
-2.091025641025688
 30
0.0
 11
4.099999999999909
 21
-2.091025641025688
 31
0.0
  0
ARC
  5
44F
330
57
100
AcDbEntity
  8
0-0_補助線
  6
Continuous
 62
     7
370
     9
100
AcDbCircle
 10
-4.099999999999909
 20
-1.341025641025688
 30
0.0
 40
0.75
100
AcDbArc
 50
180.0
 51
270.0
  0
LINE
  5
450
330
57
100
AcDbEntity
  8
0-0_補助線
  6
Continuous
 62
     7
370
     9
100
AcDbLine
 10
-4.0
 20
1.408974358974312
 30
0.0
 11
-3.050000000000182
 21
1.408974358974312
 31
0.0
  0
LINE
  5
451
330
57
100
AcDbEntity
  8
0-0_補助線
  6
Continuous
 62
     7
370
     9
100
AcDbLine
 10
-4.25
 20
1.158974358974312
 30
0.0
 11
-4.25
 21
-1.491025641025665
 31
0.0
  0
ARC
  5
452
330
57
100
AcDbEntity
  8
0-0_補助線
  6
Continuous
 62
     7
370
     9
100
AcDbCircle
 10
-4.0
 20
1.158974358974312
 30
0.0
 40
0.25
100
AcDbArc
 50
90.0
 51
180.0
  0
LINE
  5
453
330
57
100
AcDbEntity
  8
0-0_補助線
  6
Continuous
 62
     7
370
     9
100
AcDbLine
 10
4.0
 20
1.408974358974312
 30
0.0
 11
3.050000000000182
 21
1.408974358974312
 31
0.0
  0
LINE
  5
454
330
57
100
AcDbEntity
  8
0-0_補助線
  6
Continuous
 62
     7
370
     9
100
AcDbLine
 10
4.25
 20
1.158974358974312
 30
0.0
 11
4.25
 21
-1.491025641025665
 31
0.0
  0
ARC
  5
455
330
57
100
AcDbEntity
  8
0-0_補助線
  6
Continuous
 62
     7
370
     9
100
AcDbCircle
 10
4.0
 20
1.158974358974312
 30
0.0
 40
0.25
100
AcDbArc
 50
0.0
 51
90.0
  0
LINE
  5
456
330
57
100
AcDbEntity
  8
0-0_補助線
  6
Continuous
 62
     7
370
     9
100
AcDbLine
 10
-3.25
 20
-1.091025641025688
 30
0.0
 11
-3.25
 21
-1.491025641025665
 31
0.0
  0
ARC
  5
457
330
57
100
AcDbEntity
  8
0-0_補助線
  6
Continuous
 62
     7
370
     9
100
AcDbCircle
 10
-3.150000000000091
 20
-1.091025641025688
 30
0.0
 40
0.1
100
AcDbArc
 50
90.0
 51
180.0
  0
LINE
  5
458
330
57
100
AcDbEntity
  8
0-0_補助線
  6
Continuous
 62
     7
370
     9
100
AcDbLine
 10
-2.849999999999909
 20
-0.991025641025665
 30
0.0
 11
-3.150000000000091
 21
-0.991025641025665
 31
0.0
  0
LINE
  5
459
330
57
100
AcDbEntity
  8
0-0_補助線
  6
Continuous
 62
     7
370
     9
100
AcDbLine
 10
-2.75
 20
-1.091025641025688
 30
0.0
 11
-2.75
 21
-1.491025641025665
 31
0.0
  0
ARC
  5
45A
330
57
100
AcDbEntity
  8
0-0_補助線
  6
Continuous
 62
     7
370
     9
100
AcDbCircle
 10
-2.849999999999909
 20
-1.091025641025688
 30
0.0
 40
0.1
100
AcDbArc
 50
0.0
 51
90.0
  0
LINE
  5
45B
330
57
100
AcDbEntity
  8
0-0_補助線
  6
Continuous
 62
     7
370
     9
100
AcDbLine
 10
2.75
 20
-1.091025641025688
 30
0.0
 11
2.75
 21
-1.491025641025665
 31
0.0
  0
ARC
  5
45C
330
57
100
AcDbEntity
  8
0-0_補助線
  6
Continuous
 62
     7
370
     9
100
AcDbCircle
 10
2.849999999999909
 20
-1.091025641025688
 30
0.0
 40
0.1
100
AcDbArc
 50
90.0
 51
180.0
  0
LINE
  5
45D
330
57
100
AcDbEntity
  8
0-0_補助線
  6
Continuous
 62
     7
370
     9
100
AcDbLine
 10
3.150000000000091
 20
-0.991025641025665
 30
0.0
 11
2.849999999999909
 21
-0.991025641025665
 31
0.0
  0
LINE
  5
45E
330
57
100
AcDbEntity
  8
0-0_補助線
  6
Continuous
 62
     7
370
     9
100
AcDbLine
 10
3.25
 20
-1.091025641025688
 30
0.0
 11
3.25
 21
-1.491025641025665
 31
0.0
  0
ARC
  5
45F
330
57
100
AcDbEntity
  8
0-0_補助線
  6
Continuous
 62
     7
370
     9
100
AcDbCircle
 10
3.150000000000091
 20
-1.091025641025688
 30
0.0
 40
0.1
100
AcDbArc
 50
0.0
 51
90.0
  0
ENDBLK
  5
59
330
57
100
AcDbEntity
  8
0
100
AcDbBlockEnd
  0
ENDSEC
  0
SECTION
  2
ENTITIES
  0
MTEXT
  5
5A
330
1F
100
AcDbEntity
  8
F-A_文字
  6
Continuous
 62
     7
370
     0
100
AcDbMText
 10
5768.321977672939
 20
-4314.841419020919
 30
0.0
 40
68.58
 41
90.0
 46
0.0
 71
     7
 72
     1
  1
{\fＭＳ ゴシック|b0|i0|c128|p49;）}
 73
     1
 44
1.0
  0
MTEXT
  5
5B
330
1F
100
AcDbEntity
  8
F-A_文字
  6
Continuous
 62
     7
370
     0
100
AcDbMText
 10
5548.066114483239
 20
-4314.771967288282
 30
0.0
 40
74.295
 41
195.0
 46
0.0
 71
     7
 72
     1
  1
{\fＭＳ ゴシック|b0|i0|c128|p49;印刷}
 73
     1
 44
1.0
  0
MTEXT
  5
5C
330
1F
100
AcDbEntity
  8
F-A_文字
  6
Continuous
 62
     7
370
     0
100
AcDbMText
 10
5393.32938200033
 20
-4314.771967288282
 30
0.0
 40
74.295
 41
97.5
 46
0.0
 71
     7
 72
     1
  1
{\fＭＳ ゴシック|b0|i0|c128|p49;$d}
 73
     1
 44
1.0
  0
MTEXT
  5
5D
330
1F
100
AcDbEntity
  8
F-A_文字
  6
Continuous
 62
     7
370
     0
100
AcDbMText
 10
5350.114617405298
 20
-4316.235443869856
 30
0.0
 40
68.58
 41
45.0
 46
0.0
 71
     7
 72
     1
  1
{\fＭＳ ゴシック|b0|i0|c128|p49;,}
 73
     1
 44
1.0
  0
MTEXT
  5
5E
330
1F
100
AcDbEntity
  8
F-A_文字
  6
Continuous
 62
     7
370
     0
100
AcDbMText
 10
5238.592649517422
 20
-4314.771967288282
 30
0.0
 40
74.295
 41
97.5
 46
0.0
 71
     7
 72
     1
  1
{\fＭＳ ゴシック|b0|i0|c128|p49;$m}
 73
     1
 44
1.0
  0
MTEXT
  5
5F
330
1F
100
AcDbEntity
  8
F-A_文字
  6
Continuous
 62
     7
370
     0
100
AcDbMText
 10
5191.195810375571
 20
-4319.023493567732
 30
0.0
 40
68.58
 41
45.0
 46
0.0
 71
     7
 72
     1
  1
{\fＭＳ ゴシック|b0|i0|c128|p49;,}
 73
     1
 44
1.0
  0
MTEXT
  5
60
330
1F
100
AcDbEntity
  8
F-A_文字
  6
Continuous
 62
     7
370
     0
100
AcDbMText
 10
5083.855928478601
 20
-4314.771967288282
 30
0.0
 40
74.295
 41
97.5
 46
0.0
 71
     7
 72
     1
  1
{\fＭＳ ゴシック|b0|i0|c128|p49;$y}
 73
     1
 44
1.0
  0
MTEXT
  5
61
330
1F
100
AcDbEntity
  8
F-A_文字
  6
Continuous
 62
     7
370
     0
100
AcDbMText
 10
4943.952040816226
 20
-4319.023493567732
 30
0.0
 40
68.58
 41
90.0
 46
0.0
 71
     7
 72
     1
  1
{\fＭＳ ゴシック|b0|i0|c128|p49;（}
 73
     1
 44
1.0
  0
LINE
  5
62
330
1F
100
AcDbEntity
  8
F-0_補助線
  6
JWW_HOJO
 62
   120
370
     5
100
AcDbLine
 10
-6140.081333436773
 20
-4455.0
 30
0.0
 11
-6140.081333436773
 21
4424.999604096284
 31
0.0
  0
LINE
  5
63
330
1F
100
AcDbEntity
  8
F-0_補助線
  6
JWW_HOJO
 62
   120
370
     5
100
AcDbLine
 10
-6140.081333436773
 20
4424.999604096284
 30
0.0
 11
6159.917676803936
 21
4424.999604096284
 31
0.0
  0
LINE
  5
64
330
1F
100
AcDbEntity
  8
F-0_補助線
  6
JWW_HOJO
 62
   120
370
     5
100
AcDbLine
 10
6159.917676803936
 20
4424.999604096284
 30
0.0
 11
6159.917676803936
 21
-4455.0
 31
0.0
  0
LINE
  5
65
330
1F
100
AcDbEntity
  8
F-0_補助線
  6
JWW_HOJO
 62
   120
370
     5
100
AcDbLine
 10
6159.917676803936
 20
-4455.0
 30
0.0
 11
-6140.081333436773
 21
-4455.0
 31
0.0
  0
LINE
  5
66
330
1F
100
AcDbEntity
  8
F-1_枠
  6
Continuous
 62
   200
370
    20
100
AcDbLine
 10
5859.917429364114
 20
4174.999769056166
 30
0.0
 11
5859.917429364114
 21
-4205.000164959882
 31
0.0
  0
LINE
  5
67
330
1F
100
AcDbEntity
  8
F-1_枠
  6
Continuous
 62
   200
370
    20
100
AcDbLine
 10
-5840.081317971782
 20
4174.999769056166
 30
0.0
 11
-5840.081317971782
 21
-4205.000164959882
 31
0.0
  0
LINE
  5
68
330
1F
100
AcDbEntity
  8
F-1_枠
  6
Continuous
 62
   200
370
    20
100
AcDbLine
 10
5859.917429364114
 20
-4205.000002577498
 30
0.0
 11
-5840.081085996952
 21
-4205.000002577498
 31
0.0
  0
LINE
  5
69
330
1F
100
AcDbEntity
  8
F-1_枠
  6
Continuous
 62
   200
370
    20
100
AcDbLine
 10
-5830.081323642279
 20
4174.999769056166
 30
0.0
 11
-5830.081323642279
 21
-4205.000164959882
 31
0.0
  0
LINE
  5
6A
330
1F
100
AcDbEntity
  8
F-1_枠
  6
Continuous
 62
   200
370
    20
100
AcDbLine
 10
-5835.081309208291
 20
4174.999769056166
 30
0.0
 11
-5835.081309208291
 21
-4205.000164959882
 31
0.0
  0
LINE
  5
6B
330
1F
100
AcDbEntity
  8
F-1_枠
  6
Continuous
 62
   200
370
    20
100
AcDbLine
 10
5854.917165428304
 20
4174.999769056166
 30
0.0
 11
5854.917165428304
 21
-4205.000164959882
 31
0.0
  0
LINE
  5
6C
330
1F
100
AcDbEntity
  8
F-1_枠
  6
Continuous
 62
   200
370
    20
100
AcDbLine
 10
5849.917643811961
 20
4174.999769056166
 30
0.0
 11
5849.917643811961
 21
-4205.000164959882
 31
0.0
  0
LINE
  5
6D
330
1F
100
AcDbEntity
  8
F-1_枠
  6
Continuous
 62
   200
370
    20
100
AcDbLine
 10
5859.917429364114
 20
-4199.999993814004
 30
0.0
 11
-5840.081085996952
 21
-4199.999993814004
 31
0.0
  0
LINE
  5
6E
330
1F
100
AcDbEntity
  8
F-1_枠
  6
Continuous
 62
   200
370
    20
100
AcDbLine
 10
5859.917429364114
 20
-4195.000008247994
 30
0.0
 11
-5840.081085996952
 21
-4195.000008247994
 31
0.0
  0
LINE
  5
6F
330
1F
100
AcDbEntity
  8
F-1_枠
  6
Continuous
 62
   200
370
    20
100
AcDbLine
 10
9.918542843316231
 20
-3994.999936078046
 30
0.0
 11
5849.917643811961
 21
-3995.005364289155
 31
0.0
  0
LINE
  5
70
330
1F
100
AcDbEntity
  8
F-1_枠
  6
Continuous
 62
   200
370
    20
100
AcDbLine
 10
-5840.081085996952
 20
4174.999769056166
 30
0.0
 11
5859.917429364114
 21
4174.999769056166
 31
0.0
  0
LINE
  5
71
330
1F
100
AcDbEntity
  8
F-1_枠
  6
Continuous
 62
   200
370
    20
100
AcDbLine
 10
-5840.081085996952
 20
4164.999983504013
 30
0.0
 11
5859.917429364114
 21
4164.999983504013
 31
0.0
  0
LINE
  5
72
330
1F
100
AcDbEntity
  8
F-1_枠
  6
Continuous
 62
   200
370
    20
100
AcDbLine
 10
-5840.081085996952
 20
4169.999505120355
 30
0.0
 11
5859.917429364114
 21
4169.999505120355
 31
0.0
  0
LINE
  5
73
330
1F
100
AcDbEntity
  8
F-0_補助線
  6
JWW_HOJO
 62
     7
370
     9
100
AcDbLine
 10
-5830.081323642279
 20
-3994.99993607839
 30
0.0
 11
9.918542843316231
 21
-3994.99993607839
 31
0.0
  0
LINE
  5
74
330
1F
100
AcDbEntity
  8
F-0_補助線
  6
JWW_HOJO
 62
     7
370
     9
100
AcDbLine
 10
-5830.081323642279
 20
-3904.99993607839
 30
0.0
 11
9.918542843316231
 21
-3904.99993607839
 31
0.0
  0
LINE
  5
75
330
1F
100
AcDbEntity
  8
F-0_補助線
  6
JWW_HOJO
 62
     7
370
     9
100
AcDbLine
 10
-5830.081323642279
 20
-4084.99993607839
 30
0.0
 11
9.918542843316231
 21
-4084.99993607839
 31
0.0
  0
LINE
  5
76
330
1F
100
AcDbEntity
  8
F-0_補助線
  6
JWW_HOJO
 62
     7
370
     9
100
AcDbLine
 10
9.918408067688347
 20
-4139.999739777983
 30
0.0
 11
5849.917509036332
 21
-4140.005167989091
 31
0.0
  0
LINE
  5
77
330
1F
100
AcDbEntity
  8
F-0_補助線
  6
JWW_HOJO
 62
     7
370
     9
100
AcDbLine
 10
9.918491721639953
 20
-4049.999739778022
 30
0.0
 11
5849.917592690284
 21
-4050.005167989131
 31
0.0
  0
LINE
  5
78
330
1F
100
AcDbEntity
  8
F-0_補助線
  6
JWW_HOJO
 62
     7
370
     9
100
AcDbLine
 10
9.918593965360003
 20
-3939.99973721807
 30
0.0
 11
5849.917694934004
 21
-3940.005165429179
 31
0.0
  0
LINE
  5
79
330
1F
100
AcDbEntity
  8
F-0_補助線
  6
JWW_HOJO
 62
     7
370
     9
100
AcDbLine
 10
9.918677619311609
 20
-3849.999737218109
 30
0.0
 11
5849.917778587956
 21
-3850.005165429218
 31
0.0
  0
LINE
  5
7A
330
1F
100
AcDbEntity
  8
F-1_枠
  6
Continuous
 62
   200
370
    20
100
AcDbLine
 10
5859.917429364114
 20
-3795.000003092998
 30
0.0
 11
-5840.081085996952
 21
-3795.000003092998
 31
0.0
  0
LINE
  5
7B
330
1F
100
AcDbEntity
  8
F-1_枠
  6
Continuous
 62
   200
370
    20
100
AcDbLine
 10
5859.917429364114
 20
-3790.000017526987
 30
0.0
 11
-5840.081085996952
 21
-3790.000017526987
 31
0.0
  0
ELLIPSE
  5
7C
330
1F
100
AcDbEntity
  8
戸当り
  6
Continuous
 62
    92
370
    13
100
AcDbEllipse
 10
4855.430917458078
 20
2876.053590301512
 30
0.0
 11
11.36181697857171
 21
42.40287823032828
 31
0.0
210
0.0
220
0.0
230
0.9999999999999999
 40
0.6
 41
1.570796326794897
 42
4.71238898038469
  0
LINE
  5
7D
330
1F
100
AcDbEntity
  8
戸当り
  6
Continuous
 62
    92
370
    13
100
AcDbLine
 10
4880.872644396272
 20
2869.236500114368
 30
0.0
 11
4829.989190519878
 21
2882.870680488653
 31
0.0
  0
LINE
  5
7E
330
1F
100
AcDbEntity
  8
戸当り
  6
Continuous
 62
    92
370
    13
100
AcDbLine
 10
4884.133764364564
 20
2881.40716552561
 30
0.0
 11
4833.25031048817
 21
2895.041345899896
 31
0.0
  0
ELLIPSE
  5
7F
330
1F
100
AcDbEntity
  8
戸当り
  6
Continuous
 62
    92
370
    13
100
AcDbEllipse
 10
4879.604310755758
 20
2966.269922279796
 30
0.0
 11
21.86569797210526
 21
81.6038957748525
 31
0.0
210
0.0
220
0.0
230
1.0
 40
0.5
 41
4.340591432030095
 42
8.225779182329084
  0
ELLIPSE
  5
80
330
1F
100
AcDbEntity
  8
戸当り
  6
Continuous
 62
    92
370
    13
100
AcDbEllipse
 10
4878.978687882654
 20
2963.935065931004
 30
0.0
 11
26.49533313827761
 21
98.88192943551533
 31
0.0
210
0.0
220
0.0
230
0.9999999999999999
 40
0.4
 41
3.840308517104466
 42
4.432552034522944
  0
ELLIPSE
  5
81
330
1F
100
AcDbEntity
  8
戸当り
  6
Continuous
 62
    92
370
    13
100
AcDbEllipse
 10
4878.978687882654
 20
2963.935065931004
 30
0.0
 11
26.49533313827761
 21
98.88192943551533
 31
0.0
210
0.0
220
0.0
230
0.9999999999999999
 40
0.4
 41
1.850633272656679
 42
2.442876790075129
  0
ELLIPSE
  5
82
330
1F
100
AcDbEntity
  8
戸当り
  6
Continuous
 62
    92
370
    13
100
AcDbEllipse
 10
4740.316707711373
 20
2838.28484693721
 30
0.0
 11
-7.622927487939132
 21
43.23177007461331
 31
0.0
210
0.0
220
0.0
230
1.0
 40
0.6000000000000001
 41
1.570796326794897
 42
4.71238898038469
  0
LINE
  5
83
330
1F
100
AcDbEntity
  8
戸当り
  6
Continuous
 62
    92
370
    13
100
AcDbLine
 10
4766.255769756144
 20
2842.858603429974
 30
0.0
 11
4714.377645666606
 21
2833.711090444447
 31
0.0
  0
LINE
  5
84
330
1F
100
AcDbEntity
  8
戸当り
  6
Continuous
 62
    92
370
    13
100
AcDbLine
 10
4764.067802717541
 20
2855.267181117928
 30
0.0
 11
4712.189678628002
 21
2846.1196681324
 31
0.0
  0
ELLIPSE
  5
85
330
1F
100
AcDbEntity
  8
戸当り
  6
Continuous
 62
    92
370
    13
100
AcDbEllipse
 10
4724.098172894875
 20
2930.264728582853
 30
0.0
 11
-14.67024424252691
 21
83.19908946199426
 31
0.0
210
0.0
220
0.0
230
1.0
 40
0.5
 41
4.340591432030095
 42
8.225779182329084
  0
ELLIPSE
  5
86
330
1F
100
AcDbEntity
  8
戸当り
  6
Continuous
 62
    92
370
    13
100
AcDbEllipse
 10
4724.517918944779
 20
2927.884230441197
 30
0.0
 11
-17.7763823922528
 21
100.8148742797557
 31
0.0
210
0.0
220
0.0
230
1.0
 40
0.4000000000000001
 41
3.840308517104466
 42
4.432552034522944
  0
ELLIPSE
  5
87
330
1F
100
AcDbEntity
  8
戸当り
  6
Continuous
 62
    92
370
    13
100
AcDbEllipse
 10
4724.517918944779
 20
2927.884230441197
 30
0.0
 11
-17.7763823922528
 21
100.8148742797557
 31
0.0
210
0.0
220
0.0
230
1.0
 40
0.4000000000000001
 41
1.850633272656679
 42
2.442876790075129
  0
LINE
  5
88
330
1F
100
AcDbEntity
  8
0-A_文字
  6
Continuous
 62
    92
370
    13
100
AcDbLine
 10
5369.917643811961
 20
3684.999983504013
 30
0.0
 11
5369.917643811961
 21
2718.999983504013
 31
0.0
  0
LINE
  5
89
330
1F
100
AcDbEntity
  8
0-A_文字
  6
Continuous
 62
    92
370
    13
100
AcDbLine
 10
5369.917643811961
 20
2718.999983504013
 30
0.0
 11
4229.917643811961
 21
2718.999983504013
 31
0.0
  0
LINE
  5
8A
330
1F
100
AcDbEntity
  8
0-A_文字
  6
Continuous
 62
    92
370
    13
100
AcDbLine
 10
4229.917643811961
 20
3684.999983504013
 30
0.0
 11
4229.917643811961
 21
2718.999983504013
 31
0.0
  0
LINE
  5
8B
330
1F
100
AcDbEntity
  8
0-0_補助線
  6
JWW_HOJO
 62
   120
370
     5
100
AcDbLine
 10
5339.917643811961
 20
3684.999983504013
 30
0.0
 11
5339.917643811961
 21
2718.999983504013
 31
0.0
  0
LINE
  5
8C
330
1F
100
AcDbEntity
  8
0-0_補助線
  6
JWW_HOJO
 62
   120
370
     5
100
AcDbLine
 10
4259.917643811961
 20
3684.999983504013
 30
0.0
 11
4259.917643811961
 21
2718.999983504013
 31
0.0
  0
LINE
  5
8D
330
1F
100
AcDbEntity
  8
0-0_補助線
  6
JWW_HOJO
 62
   120
370
     5
100
AcDbLine
 10
4799.917643811961
 20
3684.999983504013
 30
0.0
 11
4799.917643811961
 21
2718.999983504013
 31
0.0
  0
CIRCLE
  5
8E
330
1F
100
AcDbEntity
  8
0-0_補助線
  6
JWW_HOJO
 62
   120
370
     5
100
AcDbCircle
 10
5159.917643811961
 20
3385.504011182749
 30
0.0
 40
240.0
  0
CIRCLE
  5
8F
330
1F
100
AcDbEntity
  8
0-0_補助線
  6
JWW_HOJO
 62
   120
370
     5
100
AcDbCircle
 10
4799.917643811961
 20
3385.504011182749
 30
0.0
 40
240.0
  0
CIRCLE
  5
90
330
1F
100
AcDbEntity
  8
0-0_補助線
  6
JWW_HOJO
 62
   120
370
     5
100
AcDbCircle
 10
4444.047372024825
 20
3385.504011182749
 30
0.0
 40
240.0
  0
LINE
  5
91
330
1F
100
AcDbEntity
  8
戸当り
  6
Continuous
 62
    40
370
    15
100
AcDbLine
 10
4502.034214636565
 20
3153.681812873372
 30
0.0
 11
4564.150785461171
 21
3385.504011182749
 31
0.0
  0
LINE
  5
92
330
1F
100
AcDbEntity
  8
戸当り
  6
Continuous
 62
    40
370
    15
100
AcDbLine
 10
4502.034214636565
 20
3153.681812873372
 30
0.0
 11
4439.917643811961
 21
3385.504011182749
 31
0.0
  0
LINE
  5
93
330
1F
100
AcDbEntity
  8
戸当り
  6
Continuous
 62
    40
370
    15
100
AcDbLine
 10
5035.684502162751
 20
3385.504011182749
 30
0.0
 11
5097.801072987355
 21
3153.681812873372
 31
0.0
  0
LINE
  5
94
330
1F
100
AcDbEntity
  8
戸当り
  6
Continuous
 62
    40
370
    15
100
AcDbLine
 10
5159.917643811961
 20
3385.504011182749
 30
0.0
 11
5097.801072987355
 21
3153.681812873372
 31
0.0
  0
LINE
  5
95
330
1F
100
AcDbEntity
  8
戸当り
  6
JWW_DASHED2
 62
     7
370
     9
100
AcDbLine
 10
5159.917643811961
 20
3385.504011182749
 30
0.0
 11
4439.917643811961
 21
3385.504011182749
 31
0.0
  0
LINE
  5
96
330
1F
100
AcDbEntity
  8
戸当り
  6
Continuous
 62
    40
370
    15
100
AcDbLine
 10
5159.917643811961
 20
3439.504011182748
 30
0.0
 11
5159.917643811961
 21
3385.504011182749
 31
0.0
  0
LINE
  5
97
330
1F
100
AcDbEntity
  8
戸当り
  6
Continuous
 62
    40
370
    15
100
AcDbLine
 10
5159.917643811961
 20
3439.504011182748
 30
0.0
 11
5339.917643811961
 21
3439.504011182748
 31
0.0
  0
LINE
  5
98
330
1F
100
AcDbEntity
  8
戸当り
  6
Continuous
 62
    40
370
    15
100
AcDbLine
 10
5159.917643811961
 20
3385.504011182749
 30
0.0
 11
5339.917643811961
 21
3385.504011182749
 31
0.0
  0
LINE
  5
99
330
1F
100
AcDbEntity
  8
戸当り
  6
Continuous
 62
    40
370
    15
100
AcDbLine
 10
4439.917643811961
 20
3439.504011182748
 30
0.0
 11
4439.917643811961
 21
3385.504011182749
 31
0.0
  0
LINE
  5
9A
330
1F
100
AcDbEntity
  8
戸当り
  6
Continuous
 62
    40
370
    15
100
AcDbLine
 10
4439.917643811961
 20
3439.504011182748
 30
0.0
 11
4259.917643811961
 21
3439.504011182748
 31
0.0
  0
LINE
  5
9B
330
1F
100
AcDbEntity
  8
戸当り
  6
Continuous
 62
    40
370
    15
100
AcDbLine
 10
4439.917643811961
 20
3385.504011182749
 30
0.0
 11
4259.917643811961
 21
3385.504011182749
 31
0.0
  0
LINE
  5
9C
330
1F
100
AcDbEntity
  8
0-A_文字
  6
Continuous
 62
    92
370
    13
100
AcDbLine
 10
5369.917643811961
 20
3540.999983504012
 30
0.0
 11
4229.917643811961
 21
3540.999983504012
 31
0.0
  0
LINE
  5
9D
330
1F
100
AcDbEntity
  8
0-A_文字
  6
Continuous
 62
    92
370
    13
100
AcDbLine
 10
5369.917643811961
 20
3684.999983504013
 30
0.0
 11
4229.917643811961
 21
3684.999983504013
 31
0.0
  0
MTEXT
  5
9E
330
1F
100
AcDbEntity
  8
0-A_文字
  6
Continuous
 62
     7
370
     9
100
AcDbMText
 10
4278.667643811961
 20
3554.775383504013
 30
0.0
 40
63.55080000000001
 41
1042.5
 46
0.0
 71
     7
 72
     1
  1
{\fＭＳ ゴシック|b0|i0|c128|p49;上吊軸固定/フリーオープン}
 73
     1
 44
1.0
  0
LINE
  5
9F
330
1F
100
AcDbEntity
  8
F-0_補助線
  6
JWW_HOJO
 62
   120
370
     5
100
AcDbLine
 10
-6140.081333436773
 20
2438.999683277028
 30
0.0
 11
6159.917676803936
 21
2438.999683277028
 31
0.0
  0
LINE
  5
A0
330
1F
100
AcDbEntity
  8
F-0_補助線
  6
JWW_HOJO
 62
   120
370
     5
100
AcDbLine
 10
-6140.081333436773
 20
3730.000181455872
 30
0.0
 11
6159.917676803936
 21
3730.000181455872
 31
0.0
  0
LINE
  5
A1
330
1F
100
AcDbEntity
  8
F-0_補助線
  6
JWW_HOJO
 62
   120
370
     5
100
AcDbLine
 10
-6140.081333436773
 20
4000.000181455872
 30
0.0
 11
6159.917676803936
 21
4000.000181455872
 31
0.0
  0
LINE
  5
A2
330
1F
100
AcDbEntity
  8
F-0_補助線
  6
JWW_HOJO
 62
   120
370
     5
100
AcDbLine
 10
9.918171683581818
 20
-4455.0
 30
0.0
 11
9.918171683581818
 21
4424.999604096284
 31
0.0
  0
LINE
  5
A3
330
1F
100
AcDbEntity
  8
F-0_補助線
  6
JWW_HOJO
 62
   120
370
     5
100
AcDbLine
 10
-6140.081333436773
 20
194.9998020481422
 30
0.0
 11
6159.917676803936
 21
194.9998020481422
 31
0.0
  0
LINE
  5
A4
330
1F
100
AcDbEntity
  8
F-0_補助線
  6
JWW_HOJO
 62
   120
370
     5
100
AcDbLine
 10
-6140.081333436773
 20
-3159.000197951857
 30
0.0
 11
6159.917676803936
 21
-3159.000197951857
 31
0.0
  0
LINE
  5
A5
330
1F
100
AcDbEntity
  8
F-0_補助線
  6
JWW_HOJO
 62
   120
370
     5
100
AcDbLine
 10
219.9181716835818
 20
-4455.0
 30
0.0
 11
219.9181716835818
 21
194.9998020481422
 31
0.0
  0
LINE
  5
A6
330
1F
100
AcDbEntity
  8
F-0_補助線
  6
JWW_HOJO
 62
   120
370
     5
100
AcDbLine
 10
-200.0818283164182
 20
-4455.0
 30
0.0
 11
-200.0818283164182
 21
194.9998020481422
 31
0.0
  0
LINE
  5
A7
330
1F
100
AcDbEntity
  8
F-0_補助線
  6
JWW_HOJO
 62
   120
370
     5
100
AcDbLine
 10
-5659.999495325861
 20
4424.999604096284
 30
0.0
 11
-5659.999495325861
 21
-4455.0
 31
0.0
  0
LINE
  5
A8
330
1F
100
AcDbEntity
  8
F-0_補助線
  6
JWW_HOJO
 62
   120
370
     5
100
AcDbLine
 10
5679.835838693025
 20
4000.000181455872
 30
0.0
 11
5679.835838693025
 21
-4455.0
 31
0.0
  0
MTEXT
  5
A9
330
1F
100
AcDbEntity
  8
0-A_文字
  6
Continuous
 62
     7
370
     9
100
AcDbMText
 10
-2762.082187242433
 20
3399.268139004128
 30
0.0
 40
100.584
 41
660.0
 46
0.0
 71
     7
 72
     1
  1
{\fＭＳ ゴシック|b0|i0|c128|p49;■横断面図}
 73
     1
 44
1.0
  0
MTEXT
  5
AA
330
1F
100
AcDbEntity
  8
0-B_寸法
  6
Continuous
 62
     7
370
   211
100
AcDbMText
 10
-380.082447054242
 20
3219.719683277028
 30
0.0
 40
91.43999999999997
 41
780.0
 46
0.0
 71
     7
 72
     1
  1
{\fＭＳ ゴシック|b0|i0|c128|p49;ＲＯＷ＝1,655}
 73
     1
 44
1.0
  0
LINE
  5
AB
330
1F
100
AcDbEntity
  8
0-0_補助線
  6
JWW_HOJO
 62
   120
370
     5
100
AcDbLine
 10
2781.917293133945
 20
2858.999683277028
 30
0.0
 11
-2762.082187242434
 21
2858.999683277028
 31
0.0
  0
LINE
  5
AC
330
1F
100
AcDbEntity
  8
0-0_補助線
  6
JWW_HOJO
 62
   120
370
     5
100
AcDbLine
 10
2781.917293133945
 20
3038.999683277028
 30
0.0
 11
-2762.082187242434
 21
3038.999683277028
 31
0.0
  0
LINE
  5
AD
330
1F
100
AcDbEntity
  8
0-6_扉
  6
Continuous
 62
   200
370
    20
100
AcDbLine
 10
-1997.08238519429
 20
2520.000979861697
 30
0.0
 11
-1997.08238519429
 21
2358.000326620566
 31
0.0
  0
LINE
  5
AE
330
1F
100
AcDbEntity
  8
0-6_扉
  6
Continuous
 62
   200
370
    20
100
AcDbLine
 10
-1997.08238519429
 20
2357.999683277026
 30
0.0
 11
-1530.582171742867
 21
2357.999683277026
 31
0.0
  0
LWPOLYLINE
  5
AF
330
1F
100
AcDbEntity
  8
0-B_寸法
  6
Continuous
 62
     7
370
     9
100
AcDbPolyline
 90
        4
 70
     1
 43
3.0
 10
-1316.206474402772
 20
2357.999683277026
 42
0.4142135623731
 10
-1317.706474402772
 20
2359.499683277026
 42
0.4142135623731
 10
-1319.206474402772
 20
2357.999683277026
 42
0.4142135623731
 10
-1317.706474402772
 20
2356.499683277026
 42
0.4142135623731
  0
LINE
  5
B0
330
1F
100
AcDbEntity
  8
0-6_扉
  6
Continuous
 62
   200
370
    20
100
AcDbLine
 10
-1997.08238519429
 20
2519.999683277025
 30
0.0
 11
-1530.582171742867
 21
2519.999683277025
 31
0.0
  0
LWPOLYLINE
  5
B1
330
1F
100
AcDbEntity
  8
0-B_寸法
  6
Continuous
 62
     7
370
     9
100
AcDbPolyline
 90
        4
 70
     1
 43
3.0
 10
-1316.206474402772
 20
2519.999683277025
 42
0.4142135623731
 10
-1317.706474402772
 20
2521.499683277025
 42
0.4142135623731
 10
-1319.206474402772
 20
2519.999683277025
 42
0.4142135623731
 10
-1317.706474402772
 20
2518.499683277025
 42
0.4142135623731
  0
LINE
  5
B2
330
1F
100
AcDbEntity
  8
0-0_補助線
  6
JWW_HOJO
 62
     7
370
     9
100
AcDbLine
 10
-1470.582171742867
 20
2519.999683277025
 30
0.0
 11
-1470.582171742867
 21
2357.999683277026
 31
0.0
  0
LINE
  5
B3
330
1F
100
AcDbEntity
  8
0-0_補助線
  6
JWW_HOJO
 62
     7
370
     9
100
AcDbLine
 10
-1530.582171742867
 20
2519.999683277025
 30
0.0
 11
-1530.582171742867
 21
2357.999683277026
 31
0.0
  0
LINE
  5
B4
330
1F
100
AcDbEntity
  8
0-B_寸法
  6
Continuous
 62
   120
370
     5
100
AcDbLine
 10
-1317.706474402772
 20
2357.999683277026
 30
0.0
 11
-1317.706474402772
 21
2519.999683277025
 31
0.0
  0
LINE
  5
B5
330
1F
100
AcDbEntity
  8
0-6_扉
  6
Continuous
 62
   200
370
    20
100
AcDbLine
 10
-1470.582171742867
 20
2357.999683277026
 30
0.0
 11
-1004.081958291447
 21
2357.999683277026
 31
0.0
  0
LINE
  5
B6
330
1F
100
AcDbEntity
  8
0-6_扉
  6
Continuous
 62
   200
370
    20
100
AcDbLine
 10
-1470.582171742867
 20
2519.999683277025
 30
0.0
 11
-1004.081958291447
 21
2519.999683277025
 31
0.0
  0
LINE
  5
B7
330
1F
100
AcDbEntity
  8
0-6_扉
  6
Continuous
 62
   200
370
    20
100
AcDbLine
 10
-1004.081958291447
 20
2519.999683277025
 30
0.0
 11
-1004.081958291447
 21
2357.999683277026
 31
0.0
  0
LINE
  5
B8
330
1F
100
AcDbEntity
  8
0-6_扉
  6
Continuous
 62
   200
370
    20
100
AcDbLine
 10
-998.0820325233913
 20
2519.999683277025
 30
0.0
 11
-998.0820325233913
 21
2357.999683277026
 31
0.0
  0
CIRCLE
  5
B9
330
1F
100
AcDbEntity
  8
0-7_金物
  6
Continuous
 62
     7
370
     9
100
AcDbCircle
 10
-1001.081995407422
 20
2550.495897056649
 30
0.0
 40
21.00000000000001
  0
CIRCLE
  5
BA
330
1F
100
AcDbEntity
  8
0-7_金物
  6
Continuous
 62
     7
370
     9
100
AcDbCircle
 10
-1001.081995407422
 20
2550.495897056649
 30
0.0
 40
30.0
  0
LINE
  5
BB
330
1F
100
AcDbEntity
  8
0-6_扉
  6
Continuous
 62
   200
370
    20
100
AcDbLine
 10
-998.0820325233913
 20
2357.999683277026
 30
0.0
 11
-527.0819304199028
 21
2357.999683277026
 31
0.0
  0
LINE
  5
BC
330
1F
100
AcDbEntity
  8
0-6_扉
  6
Continuous
 62
   200
370
    20
100
AcDbLine
 10
-998.0820325233913
 20
2519.999683277025
 30
0.0
 11
-527.0819304199028
 21
2519.999683277025
 31
0.0
  0
LINE
  5
BD
330
1F
100
AcDbEntity
  8
0-0_補助線
  6
JWW_HOJO
 62
     7
370
     9
100
AcDbLine
 10
-467.0819304199028
 20
2519.999683277025
 30
0.0
 11
-467.0819304199028
 21
2357.999683277026
 31
0.0
  0
LINE
  5
BE
330
1F
100
AcDbEntity
  8
0-0_補助線
  6
JWW_HOJO
 62
     7
370
     9
100
AcDbLine
 10
-527.0819304199028
 20
2519.999683277025
 30
0.0
 11
-527.0819304199028
 21
2357.999683277026
 31
0.0
  0
LINE
  5
BF
330
1F
100
AcDbEntity
  8
0-6_扉
  6
Continuous
 62
   200
370
    20
100
AcDbLine
 10
-467.0819304199028
 20
2357.999683277026
 30
0.0
 11
3.918171683582159
 21
2357.999683277026
 31
0.0
  0
LINE
  5
C0
330
1F
100
AcDbEntity
  8
0-6_扉
  6
Continuous
 62
   200
370
    20
100
AcDbLine
 10
-467.0819304199028
 20
2519.999683277025
 30
0.0
 11
3.918171683582159
 21
2519.999683277025
 31
0.0
  0
LINE
  5
C1
330
1F
100
AcDbEntity
  8
0-6_扉
  6
Continuous
 62
   200
370
    20
100
AcDbLine
 10
15.91817168358318
 20
2519.999683277025
 30
0.0
 11
15.91817168358318
 21
2357.999683277026
 31
0.0
  0
LINE
  5
C2
330
1F
100
AcDbEntity
  8
0-6_扉
  6
Continuous
 62
   200
370
    20
100
AcDbLine
 10
3.918171683582159
 20
2519.999683277025
 30
0.0
 11
3.918171683582159
 21
2357.999683277026
 31
0.0
  0
LINE
  5
C3
330
1F
100
AcDbEntity
  8
0-6_扉
  6
Continuous
 62
   200
370
    20
100
AcDbLine
 10
15.91817168358318
 20
2357.999683277026
 30
0.0
 11
486.9182552290823
 21
2357.999683277026
 31
0.0
  0
LINE
  5
C4
330
1F
100
AcDbEntity
  8
0-6_扉
  6
Continuous
 62
   200
370
    20
100
AcDbLine
 10
15.91817168358318
 20
2519.999683277025
 30
0.0
 11
486.9182552290823
 21
2519.999683277025
 31
0.0
  0
LINE
  5
C5
330
1F
100
AcDbEntity
  8
0-0_補助線
  6
JWW_HOJO
 62
     7
370
     9
100
AcDbLine
 10
546.9182552290823
 20
2519.999683277025
 30
0.0
 11
546.9182552290823
 21
2357.999683277026
 31
0.0
  0
LINE
  5
C6
330
1F
100
AcDbEntity
  8
0-0_補助線
  6
JWW_HOJO
 62
     7
370
     9
100
AcDbLine
 10
486.9182552290823
 20
2519.999683277025
 30
0.0
 11
486.9182552290823
 21
2357.999683277026
 31
0.0
  0
LINE
  5
C7
330
1F
100
AcDbEntity
  8
0-6_扉
  6
Continuous
 62
   200
370
    20
100
AcDbLine
 10
546.9182552290823
 20
2357.999683277026
 30
0.0
 11
1017.918338774581
 21
2357.999683277026
 31
0.0
  0
LINE
  5
C8
330
1F
100
AcDbEntity
  8
0-6_扉
  6
Continuous
 62
   200
370
    20
100
AcDbLine
 10
546.9182552290823
 20
2519.999683277025
 30
0.0
 11
1017.918338774581
 21
2519.999683277025
 31
0.0
  0
LINE
  5
C9
330
1F
100
AcDbEntity
  8
0-6_扉
  6
Continuous
 62
   200
370
    20
100
AcDbLine
 10
1023.918338774583
 20
2519.999683277025
 30
0.0
 11
1023.918338774583
 21
2357.999683277026
 31
0.0
  0
LINE
  5
CA
330
1F
100
AcDbEntity
  8
0-6_扉
  6
Continuous
 62
   200
370
    20
100
AcDbLine
 10
1017.918338774581
 20
2519.999683277025
 30
0.0
 11
1017.918338774581
 21
2357.999683277026
 31
0.0
  0
CIRCLE
  5
CB
330
1F
100
AcDbEntity
  8
0-7_金物
  6
Continuous
 62
     7
370
     9
100
AcDbCircle
 10
1020.918301658609
 20
2550.495897056649
 30
0.0
 40
21.00000000000001
  0
CIRCLE
  5
CC
330
1F
100
AcDbEntity
  8
0-7_金物
  6
Continuous
 62
     7
370
     9
100
AcDbCircle
 10
1020.918301658609
 20
2550.495897056649
 30
0.0
 40
30.0
  0
LINE
  5
CD
330
1F
100
AcDbEntity
  8
0-6_扉
  6
Continuous
 62
   200
370
    20
100
AcDbLine
 10
1023.918338774583
 20
2357.999683277026
 30
0.0
 11
1490.417939674174
 21
2357.999683277026
 31
0.0
  0
LINE
  5
CE
330
1F
100
AcDbEntity
  8
0-6_扉
  6
Continuous
 62
   200
370
    20
100
AcDbLine
 10
1023.918338774583
 20
2519.999683277025
 30
0.0
 11
1490.417939674174
 21
2519.999683277025
 31
0.0
  0
LINE
  5
CF
330
1F
100
AcDbEntity
  8
0-0_補助線
  6
JWW_HOJO
 62
     7
370
     9
100
AcDbLine
 10
1550.417939674174
 20
2519.999683277025
 30
0.0
 11
1550.417939674174
 21
2357.999683277026
 31
0.0
  0
LINE
  5
D0
330
1F
100
AcDbEntity
  8
0-0_補助線
  6
JWW_HOJO
 62
     7
370
     9
100
AcDbLine
 10
1490.417939674174
 20
2519.999683277025
 30
0.0
 11
1490.417939674174
 21
2357.999683277026
 31
0.0
  0
LINE
  5
D1
330
1F
100
AcDbEntity
  8
0-1_通り芯
  6
JWW_CENTER1
 62
   120
370
     5
100
AcDbLine
 10
2781.917293133945
 20
2438.999683277028
 30
0.0
 11
-2762.082187242434
 21
2438.999683277028
 31
0.0
  0
LINE
  5
D2
330
1F
100
AcDbEntity
  8
0-6_扉
  6
Continuous
 62
   200
370
    20
100
AcDbLine
 10
1550.417939674174
 20
2357.999683277026
 30
0.0
 11
2016.917540573765
 21
2357.999683277026
 31
0.0
  0
LINE
  5
D3
330
1F
100
AcDbEntity
  8
0-6_扉
  6
Continuous
 62
   200
370
    20
100
AcDbLine
 10
1550.417939674174
 20
2519.999683277025
 30
0.0
 11
2016.917540573765
 21
2519.999683277025
 31
0.0
  0
LINE
  5
D4
330
1F
100
AcDbEntity
  8
0-6_扉
  6
Continuous
 62
   200
370
    20
100
AcDbLine
 10
2016.917540573765
 20
2520.000979861697
 30
0.0
 11
2016.917540573765
 21
2358.000326620566
 31
0.0
  0
MTEXT
  5
D5
330
1F
100
AcDbEntity
  8
0-B_寸法
  6
Continuous
 62
     7
370
     9
100
AcDbMText
 10
-1987.002916460554
 20
2388.883167873901
 30
0.0
 40
91.44
 41
180.0
 46
0.0
 71
     7
 72
     1
  1
{\fＭＳ ゴシック|b0|i0|c128|p49;2.5}
 73
     1
 44
1.0
  0
MTEXT
  5
D6
330
1F
100
AcDbEntity
  8
0-B_寸法
  6
Continuous
 62
     7
370
     9
100
AcDbMText
 10
-1567.882220739707
 20
2364.929299852704
 30
0.0
 40
91.44
 41
120.0
 46
0.0
 71
     7
 72
     1
  1
{\fＭＳ ゴシック|b0|i0|c128|p49;92}
 11
6.123031769111886E-17
 21
1.0
 31
0.0
 73
     1
 44
1.0
  0
MTEXT
  5
D7
330
1F
100
AcDbEntity
  8
0-B_寸法
  6
Continuous
 62
     7
370
     0
100
AcDbMText
 10
-1332.706523890734
 20
2362.468911264775
 30
0.0
 40
91.44
 41
120.0
 46
0.0
 71
     7
 72
     1
  1
{\fＭＳ ゴシック|b0|i0|c128|p49;27}
 11
6.123031769111886E-17
 21
1.0
 31
0.0
 73
     1
 44
1.0
  0
LINE
  5
D8
330
1F
100
AcDbEntity
  8
0-0_補助線
  6
JWW_HOJO
 62
   120
370
     5
100
AcDbLine
 10
2781.917293133945
 20
3218.999683277028
 30
0.0
 11
-2762.082187242434
 21
3218.999683277028
 31
0.0
  0
MTEXT
  5
D9
330
1F
100
AcDbEntity
  8
0-B_寸法
  6
Continuous
 62
     7
370
     0
100
AcDbMText
 10
-1176.749433713665
 20
2302.468911264776
 30
0.0
 40
91.44
 41
240.0
 46
0.0
 71
     7
 72
     1
  1
{\fＭＳ ゴシック|b0|i0|c128|p49;(24)}
 11
6.123031769111886E-17
 21
1.0
 31
0.0
 73
     1
 44
1.0
  0
LWPOLYLINE
  5
DA
330
1F
100
AcDbEntity
  8
0-B_寸法
  6
Continuous
 62
     7
370
     9
100
AcDbPolyline
 90
        4
 70
     1
 43
3.0
 10
-1551.381057772539
 20
2163.000480033256
 42
0.4142135623731
 10
-1552.881057772538
 20
2164.500480033256
 42
0.4142135623731
 10
-1554.381057772538
 20
2163.000480033256
 42
0.4142135623731
 10
-1552.881057772538
 20
2161.500480033256
 42
0.4142135623731
  0
LINE
  5
DB
330
1F
100
AcDbEntity
  8
0-B_寸法
  6
Continuous
 62
   120
370
     5
100
AcDbLine
 10
-1671.656626554214
 20
2163.000480033256
 30
0.0
 11
-1552.881057772538
 21
2163.000480033256
 31
0.0
  0
LWPOLYLINE
  5
DC
330
1F
100
AcDbEntity
  8
0-B_寸法
  6
Continuous
 62
     7
370
     9
100
AcDbPolyline
 90
        4
 70
     1
 43
3.0
 10
-1995.58238519429
 20
2401.413732984567
 42
0.4142135623731
 10
-1997.08238519429
 20
2402.913732984567
 42
0.4142135623731
 10
-1998.58238519429
 20
2401.413732984567
 42
0.4142135623731
 10
-1997.08238519429
 20
2399.913732984567
 42
0.4142135623731
  0
LWPOLYLINE
  5
DD
330
1F
100
AcDbEntity
  8
0-B_寸法
  6
Continuous
 62
     7
370
     9
100
AcDbPolyline
 90
        4
 70
     1
 43
3.0
 10
-2010.582434682259
 20
2401.413732984567
 42
0.4142135623731
 10
-2012.082434682259
 20
2402.913732984567
 42
0.4142135623731
 10
-2013.582434682259
 20
2401.413732984567
 42
0.4142135623731
 10
-2012.082434682259
 20
2399.913732984567
 42
0.4142135623731
  0
LINE
  5
DE
330
1F
100
AcDbEntity
  8
0-B_寸法
  6
Continuous
 62
   120
370
     5
100
AcDbLine
 10
-2012.082434682259
 20
2482.742996207751
 30
0.0
 11
-2012.082434682259
 21
2401.413732984567
 31
0.0
  0
LINE
  5
DF
330
1F
100
AcDbEntity
  8
0-B_寸法
  6
Continuous
 62
   120
370
     5
100
AcDbLine
 10
-1997.08238519429
 20
2482.742996207751
 30
0.0
 11
-1997.08238519429
 21
2401.413732984567
 31
0.0
  0
LINE
  5
E0
330
1F
100
AcDbEntity
  8
0-B_寸法
  6
Continuous
 62
   120
370
     5
100
AcDbLine
 10
-2012.082434682259
 20
2401.413732984567
 30
0.0
 11
-1997.08238519429
 21
2401.413732984567
 31
0.0
  0
LINE
  5
E1
330
1F
100
AcDbEntity
  8
0-3_仕上げ
  6
Continuous
 62
    40
370
    15
100
AcDbLine
 10
2211.917540573765
 20
2330.999683277028
 30
0.0
 11
2782.781831420552
 21
2330.999683277028
 31
0.0
  0
LINE
  5
E2
330
1F
100
AcDbEntity
  8
0-3_仕上げ
  6
Continuous
 62
    40
370
    15
100
AcDbLine
 10
2211.917540573765
 20
2255.999683277028
 30
0.0
 11
2782.781831420552
 21
2255.999683277028
 31
0.0
  0
LINE
  5
E3
330
1F
100
AcDbEntity
  8
0-3_仕上げ
  6
Continuous
 62
    40
370
    15
100
AcDbLine
 10
-2192.082434682259
 20
2330.999683277028
 30
0.0
 11
-2763.482017615345
 21
2330.999683277028
 31
0.0
  0
LINE
  5
E4
330
1F
100
AcDbEntity
  8
0-3_仕上げ
  6
Continuous
 62
    40
370
    15
100
AcDbLine
 10
-2192.082434682259
 20
2255.999683277028
 30
0.0
 11
-2763.482017615345
 21
2255.999683277028
 31
0.0
  0
LWPOLYLINE
  5
E5
330
1F
100
AcDbEntity
  8
0-B_寸法
  6
Continuous
 62
     7
370
     9
100
AcDbPolyline
 90
        4
 70
     1
 43
3.0
 10
-1551.381057772539
 20
2714.999628840265
 42
0.4142135623731
 10
-1552.881057772538
 20
2716.499628840265
 42
0.4142135623731
 10
-1554.381057772538
 20
2714.999628840265
 42
0.4142135623731
 10
-1552.881057772538
 20
2713.499628840266
 42
0.4142135623731
  0
LINE
  5
E6
330
1F
100
AcDbEntity
  8
0-B_寸法
  6
Continuous
 62
   120
370
     5
100
AcDbLine
 10
-1671.656626554214
 20
2714.999628840265
 30
0.0
 11
-1552.881057772538
 21
2714.999628840265
 31
0.0
  0
LINE
  5
E7
330
1F
100
AcDbEntity
  8
0-B_寸法
  6
Continuous
 62
   120
370
     5
100
AcDbLine
 10
-1552.881057772538
 20
2163.000480033256
 30
0.0
 11
-1552.881057772538
 21
2714.999628840265
 31
0.0
  0
LINE
  5
E8
330
1F
100
AcDbEntity
  8
0-C_ハッチ
  6
JWW_DASHED1
 62
   120
370
     5
100
AcDbLine
 10
-2762.08218724242
 20
2286.818514576333
 30
0.0
 11
-2717.901018541734
 21
2330.999683277021
 31
0.0
  0
LINE
  5
E9
330
1F
100
AcDbEntity
  8
0-C_ハッチ
  6
JWW_DASHED1
 62
   120
370
     5
100
AcDbLine
 10
-2750.474859110428
 20
2255.999435837181
 30
0.0
 11
-2675.474611670596
 21
2330.999683277014
 31
0.0
  0
LINE
  5
EA
330
1F
100
AcDbEntity
  8
0-C_ハッチ
  6
JWW_DASHED1
 62
   120
370
     5
100
AcDbLine
 10
-2708.0484522392
 20
2255.999435837208
 30
0.0
 11
-2633.048204799368
 21
2330.999683277039
 31
0.0
  0
LINE
  5
EB
330
1F
100
AcDbEntity
  8
0-C_ハッチ
  6
JWW_DASHED1
 62
   120
370
     5
100
AcDbLine
 10
-2665.622045368
 20
2255.999435837206
 30
0.0
 11
-2590.621797928175
 21
2330.999683277033
 31
0.0
  0
LINE
  5
EC
330
1F
100
AcDbEntity
  8
0-C_ハッチ
  6
JWW_DASHED1
 62
   120
370
     5
100
AcDbLine
 10
-2623.195638496807
 20
2255.999435837201
 30
0.0
 11
-2548.195391056975
 21
2330.99968327703
 31
0.0
  0
LINE
  5
ED
330
1F
100
AcDbEntity
  8
0-C_ハッチ
  6
JWW_DASHED1
 62
   120
370
     5
100
AcDbLine
 10
-2580.769231625607
 20
2255.999435837201
 30
0.0
 11
-2505.768984185775
 21
2330.999683277033
 31
0.0
  0
LINE
  5
EE
330
1F
100
AcDbEntity
  8
0-C_ハッチ
  6
JWW_DASHED1
 62
   120
370
     5
100
AcDbLine
 10
-2538.342824754414
 20
2255.999435837196
 30
0.0
 11
-2463.342577314582
 21
2330.999683277028
 31
0.0
  0
LINE
  5
EF
330
1F
100
AcDbEntity
  8
0-C_ハッチ
  6
JWW_DASHED1
 62
   120
370
     5
100
AcDbLine
 10
-2495.916417883214
 20
2255.999435837195
 30
0.0
 11
-2420.916170443382
 21
2330.999683277027
 31
0.0
  0
LINE
  5
F0
330
1F
100
AcDbEntity
  8
0-C_ハッチ
  6
JWW_DASHED1
 62
   120
370
     5
100
AcDbLine
 10
-2453.490011012021
 20
2255.999435837192
 30
0.0
 11
-2378.489763572182
 21
2330.999683277023
 31
0.0
  0
LINE
  5
F1
330
1F
100
AcDbEntity
  8
0-C_ハッチ
  6
JWW_DASHED1
 62
   120
370
     5
100
AcDbLine
 10
-2411.063604140862
 20
2255.999435837199
 30
0.0
 11
-2336.06335670103
 21
2330.999683277031
 31
0.0
  0
LINE
  5
F2
330
1F
100
AcDbEntity
  8
0-C_ハッチ
  6
JWW_DASHED1
 62
   120
370
     5
100
AcDbLine
 10
-2368.637197269662
 20
2255.999435837201
 30
0.0
 11
-2293.63694982983
 21
2330.999683277031
 31
0.0
  0
LINE
  5
F3
330
1F
100
AcDbEntity
  8
0-C_ハッチ
  6
JWW_DASHED1
 62
   120
370
     5
100
AcDbLine
 10
-2326.210790398468
 20
2255.999435837196
 30
0.0
 11
-2251.210542958636
 21
2330.999683277027
 31
0.0
  0
LINE
  5
F4
330
1F
100
AcDbEntity
  8
0-C_ハッチ
  6
JWW_DASHED1
 62
   120
370
     5
100
AcDbLine
 10
-2283.784383527268
 20
2255.999435837192
 30
0.0
 11
-2208.784136087443
 21
2330.999683277021
 31
0.0
  0
LINE
  5
F5
330
1F
100
AcDbEntity
  8
0-C_ハッチ
  6
JWW_DASHED1
 62
   120
370
     5
100
AcDbLine
 10
2213.41499225901
 20
2255.999683277031
 30
0.0
 11
2288.41499225902
 21
2330.999683277041
 31
0.0
  0
LINE
  5
F6
330
1F
100
AcDbEntity
  8
0-C_ハッチ
  6
JWW_DASHED1
 62
   120
370
     5
100
AcDbLine
 10
2255.841399130222
 20
2255.999683277045
 30
0.0
 11
2330.841399130215
 21
2330.999683277039
 31
0.0
  0
LINE
  5
F7
330
1F
100
AcDbEntity
  8
0-C_ハッチ
  6
JWW_DASHED1
 62
   120
370
     5
100
AcDbLine
 10
2298.26780600142
 20
2255.999683277041
 30
0.0
 11
2373.267806001417
 21
2330.999683277039
 31
0.0
  0
LINE
  5
F8
330
1F
100
AcDbEntity
  8
0-C_ハッチ
  6
JWW_DASHED1
 62
   120
370
     5
100
AcDbLine
 10
2340.694212872617
 20
2255.999683277039
 30
0.0
 11
2415.694212872613
 21
2330.999683277034
 31
0.0
  0
LINE
  5
F9
330
1F
100
AcDbEntity
  8
0-C_ハッチ
  6
JWW_DASHED1
 62
   120
370
     5
100
AcDbLine
 10
2383.120619743813
 20
2255.999683277034
 30
0.0
 11
2458.12061974381
 21
2330.999683277031
 31
0.0
  0
LINE
  5
FA
330
1F
100
AcDbEntity
  8
0-C_ハッチ
  6
JWW_DASHED1
 62
   120
370
     5
100
AcDbLine
 10
2425.547026614952
 20
2255.999683277028
 30
0.0
 11
2500.547026614947
 21
2330.999683277026
 31
0.0
  0
LINE
  5
FB
330
1F
100
AcDbEntity
  8
0-C_ハッチ
  6
JWW_DASHED1
 62
   120
370
     5
100
AcDbLine
 10
2467.973433486149
 20
2255.999683277026
 30
0.0
 11
2542.973433486161
 21
2330.999683277037
 31
0.0
  0
LINE
  5
FC
330
1F
100
AcDbEntity
  8
0-C_ハッチ
  6
JWW_DASHED1
 62
   120
370
     5
100
AcDbLine
 10
2510.399840357352
 20
2255.999683277028
 30
0.0
 11
2585.399840357363
 21
2330.999683277039
 31
0.0
  0
LINE
  5
FD
330
1F
100
AcDbEntity
  8
0-C_ハッチ
  6
JWW_DASHED1
 62
   120
370
     5
100
AcDbLine
 10
2552.826247228564
 20
2255.99968327704
 30
0.0
 11
2627.826247228557
 21
2330.999683277033
 31
0.0
  0
LINE
  5
FE
330
1F
100
AcDbEntity
  8
0-C_ハッチ
  6
JWW_DASHED1
 62
   120
370
     5
100
AcDbLine
 10
2595.252654099761
 20
2255.999683277038
 30
0.0
 11
2670.252654099754
 21
2330.99968327703
 31
0.0
  0
LINE
  5
FF
330
1F
100
AcDbEntity
  8
0-C_ハッチ
  6
JWW_DASHED1
 62
   120
370
     5
100
AcDbLine
 10
2637.679060970967
 20
2255.999683277045
 30
0.0
 11
2712.679060970964
 21
2330.99968327704
 31
0.0
  0
LINE
  5
100
330
1F
100
AcDbEntity
  8
0-C_ハッチ
  6
JWW_DASHED1
 62
   120
370
     5
100
AcDbLine
 10
2680.105467842164
 20
2255.99968327704
 30
0.0
 11
2755.105467842161
 21
2330.999683277037
 31
0.0
  0
LINE
  5
101
330
1F
100
AcDbEntity
  8
0-C_ハッチ
  6
JWW_DASHED1
 62
   120
370
     5
100
AcDbLine
 10
2722.531874713361
 20
2255.999683277038
 30
0.0
 11
2781.9173426219
 21
2315.385151185576
 31
0.0
  0
LINE
  5
102
330
1F
100
AcDbEntity
  8
0-C_ハッチ
  6
JWW_DASHED1
 62
   120
370
     5
100
AcDbLine
 10
2764.958281584499
 20
2255.999683277031
 30
0.0
 11
2781.917342621902
 21
2272.958744314434
 31
0.0
  0
LINE
  5
103
330
1F
100
AcDbEntity
  8
0-C_ハッチ
  6
Continuous
 62
   120
370
     5
100
AcDbLine
 10
-2029.651057535444
 20
2163.000480033254
 30
0.0
 11
-2012.082434682252
 21
2180.569102886441
 31
0.0
  0
LINE
  5
104
330
1F
100
AcDbEntity
  8
0-C_ハッチ
  6
Continuous
 62
   120
370
     5
100
AcDbLine
 10
-2089.0480271551
 20
2163.000480033242
 30
0.0
 11
-2012.082434682241
 21
2239.9660725061
 31
0.0
  0
LINE
  5
105
330
1F
100
AcDbEntity
  8
0-C_ハッチ
  6
Continuous
 62
   120
370
     5
100
AcDbLine
 10
-2148.444996774801
 20
2163.000480033241
 30
0.0
 11
-2012.082434682246
 21
2299.363042125797
 31
0.0
  0
LINE
  5
106
330
1F
100
AcDbEntity
  8
0-C_ハッチ
  6
Continuous
 62
   120
370
     5
100
AcDbLine
 10
-2192.082434682246
 20
2178.760011745448
 30
0.0
 11
-2012.082434682246
 21
2358.760011745443
 31
0.0
  0
LINE
  5
107
330
1F
100
AcDbEntity
  8
0-C_ハッチ
  6
Continuous
 62
   120
370
     5
100
AcDbLine
 10
-2192.082434682246
 20
2238.156981365145
 30
0.0
 11
-2012.082434682254
 21
2418.156981365138
 31
0.0
  0
LINE
  5
108
330
1F
100
AcDbEntity
  8
0-C_ハッチ
  6
Continuous
 62
   120
370
     5
100
AcDbLine
 10
-2192.082434682252
 20
2297.553950984791
 30
0.0
 11
-2012.082434682252
 21
2477.553950984789
 31
0.0
  0
LINE
  5
109
330
1F
100
AcDbEntity
  8
0-C_ハッチ
  6
Continuous
 62
   120
370
     5
100
AcDbLine
 10
-2192.082434682239
 20
2356.95092060445
 30
0.0
 11
-2012.082434682239
 21
2536.950920604446
 31
0.0
  0
LINE
  5
10A
330
1F
100
AcDbEntity
  8
0-C_ハッチ
  6
Continuous
 62
   120
370
     5
100
AcDbLine
 10
-2192.082434682246
 20
2416.347890224143
 30
0.0
 11
-2012.082434682252
 21
2596.347890224136
 31
0.0
  0
LINE
  5
10B
330
1F
100
AcDbEntity
  8
0-C_ハッチ
  6
Continuous
 62
   120
370
     5
100
AcDbLine
 10
-2192.082434682246
 20
2475.744859843793
 30
0.0
 11
-2012.082434682246
 21
2655.744859843792
 31
0.0
  0
LINE
  5
10C
330
1F
100
AcDbEntity
  8
0-C_ハッチ
  6
Continuous
 62
   120
370
     5
100
AcDbLine
 10
-2192.082434682247
 20
2594.538799083137
 30
0.0
 11
-2071.621604925129
 21
2714.999628840258
 31
0.0
  0
LINE
  5
10D
330
1F
100
AcDbEntity
  8
0-C_ハッチ
  6
Continuous
 62
   120
370
     5
100
AcDbLine
 10
-2192.082434682252
 20
2653.93576870278
 30
0.0
 11
-2131.018574544776
 21
2714.999628840258
 31
0.0
  0
LINE
  5
10E
330
1F
100
AcDbEntity
  8
0-C_ハッチ
  6
Continuous
 62
   120
370
     5
100
AcDbLine
 10
-2192.082434682252
 20
2713.332738322482
 30
0.0
 11
-2190.415544164471
 21
2714.999628840261
 31
0.0
  0
LINE
  5
10F
330
1F
100
AcDbEntity
  8
0-C_ハッチ
  6
Continuous
 62
   120
370
     5
100
AcDbLine
 10
-2192.082434682254
 20
2535.141829463484
 30
0.0
 11
-2021.153601802617
 21
2706.070662343121
 31
0.0
  0
LINE
  5
110
330
1F
100
AcDbEntity
  8
0-C_ハッチ
  6
JWW_DASHED1
 62
   120
370
     5
100
AcDbLine
 10
2030.51771020085
 20
2329.244921447524
 30
0.0
 11
2028.76294837135
 21
2330.999683277026
 31
0.0
  0
LINE
  5
111
330
1F
100
AcDbEntity
  8
0-C_ハッチ
  6
Continuous
 62
   120
370
     5
100
AcDbLine
 10
2049.486163426952
 20
2163.000480033254
 30
0.0
 11
2031.917540573761
 21
2180.569102886441
 31
0.0
  0
LINE
  5
112
330
1F
100
AcDbEntity
  8
0-C_ハッチ
  6
Continuous
 62
   120
370
     5
100
AcDbLine
 10
2108.883133046609
 20
2163.000480033242
 30
0.0
 11
2031.91754057375
 21
2239.9660725061
 31
0.0
  0
LINE
  5
113
330
1F
100
AcDbEntity
  8
0-C_ハッチ
  6
Continuous
 62
   120
370
     5
100
AcDbLine
 10
2168.280102666311
 20
2163.000480033241
 30
0.0
 11
2031.917540573755
 21
2299.363042125797
 31
0.0
  0
LINE
  5
114
330
1F
100
AcDbEntity
  8
0-C_ハッチ
  6
Continuous
 62
   120
370
     5
100
AcDbLine
 10
2211.917540573754
 20
2178.760011745448
 30
0.0
 11
2031.917540573755
 21
2358.760011745443
 31
0.0
  0
LINE
  5
115
330
1F
100
AcDbEntity
  8
0-C_ハッチ
  6
Continuous
 62
   120
370
     5
100
AcDbLine
 10
2211.917540573755
 20
2238.156981365145
 30
0.0
 11
2031.917540573763
 21
2418.156981365138
 31
0.0
  0
LINE
  5
116
330
1F
100
AcDbEntity
  8
0-C_ハッチ
  6
Continuous
 62
   120
370
     5
100
AcDbLine
 10
2211.917540573761
 20
2297.553950984791
 30
0.0
 11
2031.917540573761
 21
2477.553950984789
 31
0.0
  0
LINE
  5
117
330
1F
100
AcDbEntity
  8
0-C_ハッチ
  6
Continuous
 62
   120
370
     5
100
AcDbLine
 10
2211.917540573747
 20
2356.95092060445
 30
0.0
 11
2031.917540573748
 21
2536.950920604446
 31
0.0
  0
LINE
  5
118
330
1F
100
AcDbEntity
  8
0-C_ハッチ
  6
Continuous
 62
   120
370
     5
100
AcDbLine
 10
2211.917540573755
 20
2416.347890224143
 30
0.0
 11
2031.917540573761
 21
2596.347890224136
 31
0.0
  0
LINE
  5
119
330
1F
100
AcDbEntity
  8
0-C_ハッチ
  6
Continuous
 62
   120
370
     5
100
AcDbLine
 10
2211.917540573751
 20
2475.744859843793
 30
0.0
 11
2031.917540573754
 21
2655.744859843792
 31
0.0
  0
LINE
  5
11A
330
1F
100
AcDbEntity
  8
0-C_ハッチ
  6
Continuous
 62
   120
370
     5
100
AcDbLine
 10
2211.917540573756
 20
2594.538799083137
 30
0.0
 11
2091.456710816637
 21
2714.999628840258
 31
0.0
  0
LINE
  5
11B
330
1F
100
AcDbEntity
  8
0-C_ハッチ
  6
Continuous
 62
   120
370
     5
100
AcDbLine
 10
2211.917540573761
 20
2653.93576870278
 30
0.0
 11
2150.853680436284
 21
2714.999628840258
 31
0.0
  0
LINE
  5
11C
330
1F
100
AcDbEntity
  8
0-C_ハッチ
  6
Continuous
 62
   120
370
     5
100
AcDbLine
 10
2211.917540573761
 20
2713.332738322482
 30
0.0
 11
2210.25065005598
 21
2714.999628840261
 31
0.0
  0
LINE
  5
11D
330
1F
100
AcDbEntity
  8
0-C_ハッチ
  6
Continuous
 62
   120
370
     5
100
AcDbLine
 10
2211.917540573763
 20
2535.141829463484
 30
0.0
 11
2040.988707694126
 21
2706.070662343121
 31
0.0
  0
LINE
  5
11E
330
1F
100
AcDbEntity
  8
0-C_ハッチ
  6
JWW_DASHED1
 62
   120
370
     5
100
AcDbLine
 10
2211.917540573765
 20
2296.928638462988
 30
0.0
 11
2245.988585387825
 21
2330.999683277047
 31
0.0
  0
LINE
  5
11F
330
1F
100
AcDbEntity
  8
0-C_ハッチ
  6
JWW_DASHED1
 62
   120
370
     5
100
AcDbLine
 10
-2241.357976656062
 20
2255.999435837201
 30
0.0
 11
-2192.082434682259
 21
2305.274977811004
 31
0.0
  0
LINE
  5
120
330
1F
100
AcDbEntity
  8
0-C_ハッチ
  6
JWW_DASHED1
 62
   120
370
     5
100
AcDbLine
 10
-2198.931569784861
 20
2255.999435837199
 30
0.0
 11
-2192.082434682259
 21
2262.848570939804
 31
0.0
  0
ARC
  5
121
330
1F
100
AcDbEntity
  8
0-4_枠
  6
Continuous
 62
    92
370
    13
100
AcDbCircle
 10
-2030.082568299761
 20
2696.999866382496
 30
0.0
 40
17.99999878213213
100
AcDbArc
 50
0.0
 51
90.0
  0
LINE
  5
122
330
1F
100
AcDbEntity
  8
0-4_枠
  6
Continuous
 62
    92
370
    13
100
AcDbLine
 10
-2012.082434682259
 20
2181.000480033257
 30
0.0
 11
-2012.082434682259
 21
2696.999866382496
 31
0.0
  0
ARC
  5
123
330
1F
100
AcDbEntity
  8
0-4_枠
  6
Continuous
 62
    92
370
    13
100
AcDbCircle
 10
-2030.082434682256
 20
2181.000480033257
 30
0.0
 40
18.0
100
AcDbArc
 50
270.0
 51
0.0
  0
LINE
  5
124
330
1F
100
AcDbEntity
  8
0-4_枠
  6
Continuous
 62
    92
370
    13
100
AcDbLine
 10
-2030.082568299761
 20
2714.999628840265
 30
0.0
 11
-2192.082434682259
 21
2714.999628840265
 31
0.0
  0
LINE
  5
125
330
1F
100
AcDbEntity
  8
0-4_枠
  6
Continuous
 62
    92
370
    13
100
AcDbLine
 10
-2030.082434682256
 20
2163.000480033256
 30
0.0
 11
-2192.082434682259
 21
2163.000480033256
 31
0.0
  0
LINE
  5
126
330
1F
100
AcDbEntity
  8
0-4_枠
  6
Continuous
 62
    92
370
    13
100
AcDbLine
 10
-2192.082434682259
 20
2714.999628840265
 30
0.0
 11
-2192.082434682259
 21
2163.000480033256
 31
0.0
  0
ARC
  5
127
330
1F
100
AcDbEntity
  8
0-4_枠
  6
Continuous
 62
    92
370
    13
100
AcDbCircle
 10
2049.91767419127
 20
2696.999866382496
 30
0.0
 40
17.99999878213213
100
AcDbArc
 50
90.0
 51
180.0
  0
LINE
  5
128
330
1F
100
AcDbEntity
  8
0-4_枠
  6
Continuous
 62
    92
370
    13
100
AcDbLine
 10
2031.917540573765
 20
2181.000480033257
 30
0.0
 11
2031.917540573765
 21
2696.999866382496
 31
0.0
  0
ARC
  5
129
330
1F
100
AcDbEntity
  8
0-4_枠
  6
Continuous
 62
    92
370
    13
100
AcDbCircle
 10
2049.917540573766
 20
2181.000480033257
 30
0.0
 40
18.0
100
AcDbArc
 50
180.0
 51
270.0
  0
LINE
  5
12A
330
1F
100
AcDbEntity
  8
0-4_枠
  6
Continuous
 62
    92
370
    13
100
AcDbLine
 10
2049.91767419127
 20
2714.999628840265
 30
0.0
 11
2211.917540573765
 21
2714.999628840265
 31
0.0
  0
LINE
  5
12B
330
1F
100
AcDbEntity
  8
0-4_枠
  6
Continuous
 62
    92
370
    13
100
AcDbLine
 10
2049.917540573766
 20
2163.000480033256
 30
0.0
 11
2211.917540573765
 21
2163.000480033256
 31
0.0
  0
LINE
  5
12C
330
1F
100
AcDbEntity
  8
0-4_枠
  6
Continuous
 62
    92
370
    13
100
AcDbLine
 10
2211.917540573765
 20
2714.999628840265
 30
0.0
 11
2211.917540573765
 21
2163.000480033256
 31
0.0
  0
LINE
  5
12D
330
1F
100
AcDbEntity
  8
0-7_金物
  6
Continuous
 62
     7
370
     9
100
AcDbLine
 10
-2192.082434682259
 20
2492.999717609303
 30
0.0
 11
-2198.0825033468
 21
2492.999717609303
 31
0.0
  0
LINE
  5
12E
330
1F
100
AcDbEntity
  8
0-7_金物
  6
Continuous
 62
     7
370
     9
100
AcDbLine
 10
-2198.0825033468
 20
2384.999648944752
 30
0.0
 11
-2192.082434682259
 21
2384.999648944752
 31
0.0
  0
LINE
  5
12F
330
1F
100
AcDbEntity
  8
0-7_金物
  6
Continuous
 62
     7
370
     9
100
AcDbLine
 10
-2198.0825033468
 20
2378.999483005421
 30
0.0
 11
-2198.0825033468
 21
2498.999139682667
 31
0.0
  0
LINE
  5
130
330
1F
100
AcDbEntity
  8
0-7_金物
  6
Continuous
 62
     7
370
     9
100
AcDbLine
 10
-2210.082097081538
 20
2498.999139682667
 30
0.0
 11
-2198.0825033468
 21
2498.999139682667
 31
0.0
  0
LINE
  5
131
330
1F
100
AcDbEntity
  8
0-7_金物
  6
Continuous
 62
     7
370
     9
100
AcDbLine
 10
-2210.082097081538
 20
2378.999483005421
 30
0.0
 11
-2198.0825033468
 21
2378.999483005421
 31
0.0
  0
LINE
  5
132
330
1F
100
AcDbEntity
  8
0-7_金物
  6
Continuous
 62
     7
370
     9
100
AcDbLine
 10
-2222.082434682247
 20
2348.999380008595
 30
0.0
 11
-2222.082434682247
 21
2528.999242679492
 31
0.0
  0
LINE
  5
133
330
1F
100
AcDbEntity
  8
0-7_金物
  6
Continuous
 62
     7
370
     9
100
AcDbLine
 10
-2222.082434682247
 20
2348.999380008595
 30
0.0
 11
-2210.082097081538
 21
2348.999380008595
 31
0.0
  0
LINE
  5
134
330
1F
100
AcDbEntity
  8
0-7_金物
  6
Continuous
 62
     7
370
     9
100
AcDbLine
 10
-2222.082434682247
 20
2528.999242679492
 30
0.0
 11
-2210.082097081538
 21
2528.999242679492
 31
0.0
  0
LINE
  5
135
330
1F
100
AcDbEntity
  8
0-7_金物
  6
Continuous
 62
     7
370
     9
100
AcDbLine
 10
-2210.082097081538
 20
2348.999380008595
 30
0.0
 11
-2210.082097081538
 21
2528.999242679492
 31
0.0
  0
LINE
  5
136
330
1F
100
AcDbEntity
  8
0-7_金物
  6
Continuous
 62
     7
370
     9
100
AcDbLine
 10
2211.917540573765
 20
2492.999717609303
 30
0.0
 11
2217.917609238309
 21
2492.999717609303
 31
0.0
  0
LINE
  5
137
330
1F
100
AcDbEntity
  8
0-7_金物
  6
Continuous
 62
     7
370
     9
100
AcDbLine
 10
2217.917609238309
 20
2384.999648944752
 30
0.0
 11
2211.917540573765
 21
2384.999648944752
 31
0.0
  0
LINE
  5
138
330
1F
100
AcDbEntity
  8
0-7_金物
  6
Continuous
 62
     7
370
     9
100
AcDbLine
 10
2217.917609238309
 20
2378.999483005421
 30
0.0
 11
2217.917609238309
 21
2498.999139682667
 31
0.0
  0
LINE
  5
139
330
1F
100
AcDbEntity
  8
0-7_金物
  6
Continuous
 62
     7
370
     9
100
AcDbLine
 10
2229.917202973047
 20
2498.999139682667
 30
0.0
 11
2217.917609238309
 21
2498.999139682667
 31
0.0
  0
LINE
  5
13A
330
1F
100
AcDbEntity
  8
0-7_金物
  6
Continuous
 62
     7
370
     9
100
AcDbLine
 10
2229.917202973047
 20
2378.999483005421
 30
0.0
 11
2217.917609238309
 21
2378.999483005421
 31
0.0
  0
LINE
  5
13B
330
1F
100
AcDbEntity
  8
0-7_金物
  6
Continuous
 62
     7
370
     9
100
AcDbLine
 10
2241.917540573756
 20
2348.999380008595
 30
0.0
 11
2241.917540573756
 21
2528.999242679492
 31
0.0
  0
LINE
  5
13C
330
1F
100
AcDbEntity
  8
0-7_金物
  6
Continuous
 62
     7
370
     9
100
AcDbLine
 10
2241.917540573756
 20
2348.999380008595
 30
0.0
 11
2229.917202973047
 21
2348.999380008595
 31
0.0
  0
LINE
  5
13D
330
1F
100
AcDbEntity
  8
0-7_金物
  6
Continuous
 62
     7
370
     9
100
AcDbLine
 10
2241.917540573756
 20
2528.999242679492
 30
0.0
 11
2229.917202973047
 21
2528.999242679492
 31
0.0
  0
LINE
  5
13E
330
1F
100
AcDbEntity
  8
0-7_金物
  6
Continuous
 62
     7
370
     9
100
AcDbLine
 10
2229.917202973047
 20
2348.999380008595
 30
0.0
 11
2229.917202973047
 21
2528.999242679492
 31
0.0
  0
LWPOLYLINE
  5
13F
330
1F
100
AcDbEntity
  8
0-B_寸法
  6
Continuous
 62
     7
370
     9
100
AcDbPolyline
 90
        4
 70
     1
 43
3.0
 10
-2220.582434682247
 20
3218.999683277028
 42
0.4142135623731
 10
-2222.082434682247
 20
3220.499683277028
 42
0.4142135623731
 10
-2223.582434682247
 20
3218.999683277028
 42
0.4142135623731
 10
-2222.082434682247
 20
3217.499683277028
 42
0.4142135623731
  0
LINE
  5
140
330
1F
100
AcDbEntity
  8
0-B_寸法
  6
Continuous
 62
   120
370
     5
100
AcDbLine
 10
-2222.082434682247
 20
3218.999683277028
 30
0.0
 11
-2222.082434682247
 21
2858.999683277028
 31
0.0
  0
LWPOLYLINE
  5
141
330
1F
100
AcDbEntity
  8
0-B_寸法
  6
Continuous
 62
     7
370
     9
100
AcDbPolyline
 90
        4
 70
     1
 43
3.0
 10
2243.417540573756
 20
3218.999683277028
 42
0.4142135623731
 10
2241.917540573756
 20
3220.499683277028
 42
0.4142135623731
 10
2240.417540573756
 20
3218.999683277028
 42
0.4142135623731
 10
2241.917540573756
 20
3217.499683277028
 42
0.4142135623731
  0
LINE
  5
142
330
1F
100
AcDbEntity
  8
0-B_寸法
  6
Continuous
 62
   120
370
     5
100
AcDbLine
 10
2241.917540573756
 20
3218.999683277028
 30
0.0
 11
2241.917540573756
 21
2858.999683277028
 31
0.0
  0
LINE
  5
143
330
1F
100
AcDbEntity
  8
0-B_寸法
  6
Continuous
 62
   120
370
     5
100
AcDbLine
 10
-2222.082434682247
 20
3218.999683277028
 30
0.0
 11
2241.917540573756
 21
3218.999683277028
 31
0.0
  0
LINE
  5
144
330
1F
100
AcDbEntity
  8
0-0_補助線
  6
JWW_HOJO
 62
   120
370
     5
100
AcDbLine
 10
2781.917293133945
 20
1883.999683277027
 30
0.0
 11
-2762.082187242434
 21
1883.999683277027
 31
0.0
  0
LINE
  5
145
330
1F
100
AcDbEntity
  8
0-0_補助線
  6
JWW_HOJO
 62
   120
370
     5
100
AcDbLine
 10
2781.917293133945
 20
3038.999683277028
 30
0.0
 11
2781.917293133945
 21
1343.999683277027
 31
0.0
  0
LINE
  5
146
330
1F
100
AcDbEntity
  8
0-0_補助線
  6
JWW_HOJO
 62
   120
370
     5
100
AcDbLine
 10
-2762.082187242434
 20
3038.999683277028
 30
0.0
 11
-2762.082187242434
 21
1343.999683277027
 31
0.0
  0
LWPOLYLINE
  5
147
330
1F
100
AcDbEntity
  8
0-B_寸法
  6
Continuous
 62
     7
370
     9
100
AcDbPolyline
 90
        4
 70
     1
 43
3.0
 10
-1995.58238519429
 20
1703.999683277027
 42
0.4142135623731
 10
-1997.08238519429
 20
1705.499683277027
 42
0.4142135623731
 10
-1998.58238519429
 20
1703.999683277027
 42
0.4142135623731
 10
-1997.08238519429
 20
1702.499683277028
 42
0.4142135623731
  0
LINE
  5
148
330
1F
100
AcDbEntity
  8
0-B_寸法
  6
Continuous
 62
   120
370
     5
100
AcDbLine
 10
-1997.08238519429
 20
1883.999683277027
 30
0.0
 11
-1997.08238519429
 21
1703.999683277027
 31
0.0
  0
LINE
  5
149
330
1F
100
AcDbEntity
  8
0-B_寸法
  6
Continuous
 62
   120
370
     5
100
AcDbLine
 10
15.91817168358318
 20
1703.999683277027
 30
0.0
 11
15.91817168358318
 21
1883.999683277027
 31
0.0
  0
LINE
  5
14A
330
1F
100
AcDbEntity
  8
0-B_寸法
  6
Continuous
 62
   120
370
     5
100
AcDbLine
 10
3.918171683582159
 20
1703.999683277027
 30
0.0
 11
3.918171683582159
 21
1883.999683277027
 31
0.0
  0
LWPOLYLINE
  5
14B
330
1F
100
AcDbEntity
  8
0-B_寸法
  6
Continuous
 62
     7
370
     9
100
AcDbPolyline
 90
        4
 70
     1
 43
3.0
 10
17.41817168358318
 20
1703.999683277027
 42
0.4142135623731
 10
15.91817168358318
 20
1705.499683277027
 42
0.4142135623731
 10
14.41817168358318
 20
1703.999683277027
 42
0.4142135623731
 10
15.91817168358318
 20
1702.499683277028
 42
0.4142135623731
  0
LWPOLYLINE
  5
14C
330
1F
100
AcDbEntity
  8
0-B_寸法
  6
Continuous
 62
     7
370
     9
100
AcDbPolyline
 90
        4
 70
     1
 43
3.0
 10
5.418171683582159
 20
1703.999683277027
 42
0.4142135623731
 10
3.918171683582159
 20
1705.499683277027
 42
0.4142135623731
 10
2.418171683582159
 20
1703.999683277027
 42
0.4142135623731
 10
3.918171683582159
 20
1702.499683277028
 42
0.4142135623731
  0
LINE
  5
14D
330
1F
100
AcDbEntity
  8
0-B_寸法
  6
Continuous
 62
   120
370
     5
100
AcDbLine
 10
2016.917491085803
 20
1703.999683277027
 30
0.0
 11
2016.917491085803
 21
1883.999683277027
 31
0.0
  0
LINE
  5
14E
330
1F
100
AcDbEntity
  8
0-0_補助線
  6
JWW_HOJO
 62
   120
370
     5
100
AcDbLine
 10
2781.917293133945
 20
1343.999683277027
 30
0.0
 11
-2762.082187242434
 21
1343.999683277027
 31
0.0
  0
LINE
  5
14F
330
1F
100
AcDbEntity
  8
0-0_補助線
  6
JWW_HOJO
 62
   120
370
     5
100
AcDbLine
 10
2781.917293133945
 20
1523.999683277027
 30
0.0
 11
-2762.082187242434
 21
1523.999683277027
 31
0.0
  0
LWPOLYLINE
  5
150
330
1F
100
AcDbEntity
  8
0-B_寸法
  6
Continuous
 62
     7
370
     9
100
AcDbPolyline
 90
        4
 70
     1
 43
3.0
 10
2018.417491085803
 20
1703.999683277027
 42
0.4142135623731
 10
2016.917491085803
 20
1705.499683277027
 42
0.4142135623731
 10
2015.417491085803
 20
1703.999683277027
 42
0.4142135623731
 10
2016.917491085803
 20
1702.499683277028
 42
0.4142135623731
  0
LINE
  5
151
330
1F
100
AcDbEntity
  8
0-B_寸法
  6
Continuous
 62
   120
370
     5
100
AcDbLine
 10
2016.917763269606
 20
1703.999683277027
 30
0.0
 11
-1997.08238519429
 21
1703.999683277027
 31
0.0
  0
LINE
  5
152
330
1F
100
AcDbEntity
  8
0-0_補助線
  6
JWW_HOJO
 62
   120
370
     5
100
AcDbLine
 10
2781.917293133945
 20
1703.999683277027
 30
0.0
 11
-2762.082187242434
 21
1703.999683277027
 31
0.0
  0
LINE
  5
153
330
1F
100
AcDbEntity
  8
0-B_寸法
  6
Continuous
 62
   120
370
     5
100
AcDbLine
 10
-2192.082607890129
 20
1883.999683277027
 30
0.0
 11
-2192.082607890129
 21
1343.999683277027
 31
0.0
  0
LINE
  5
154
330
1F
100
AcDbEntity
  8
0-B_寸法
  6
Continuous
 62
   120
370
     5
100
AcDbLine
 10
-2012.08238519429
 20
1883.999683277027
 30
0.0
 11
-2012.08238519429
 21
1523.999683277027
 31
0.0
  0
LWPOLYLINE
  5
155
330
1F
100
AcDbEntity
  8
0-B_寸法
  6
Continuous
 62
     7
370
     9
100
AcDbPolyline
 90
        4
 70
     1
 43
3.0
 10
-2190.582607890129
 20
1523.999683277027
 42
0.4142135623731
 10
-2192.082607890129
 20
1525.499683277027
 42
0.4142135623731
 10
-2193.582607890129
 20
1523.999683277027
 42
0.4142135623731
 10
-2192.082607890129
 20
1522.499683277028
 42
0.4142135623731
  0
LWPOLYLINE
  5
156
330
1F
100
AcDbEntity
  8
0-B_寸法
  6
Continuous
 62
     7
370
     9
100
AcDbPolyline
 90
        4
 70
     1
 43
3.0
 10
-2010.58238519429
 20
1523.999683277027
 42
0.4142135623731
 10
-2012.08238519429
 20
1525.499683277027
 42
0.4142135623731
 10
-2013.58238519429
 20
1523.999683277027
 42
0.4142135623731
 10
-2012.08238519429
 20
1522.499683277028
 42
0.4142135623731
  0
LWPOLYLINE
  5
157
330
1F
100
AcDbEntity
  8
0-B_寸法
  6
Continuous
 62
     7
370
     9
100
AcDbPolyline
 90
        4
 70
     1
 43
3.0
 10
-2190.582607890129
 20
1343.999683277027
 42
0.4142135623731
 10
-2192.082607890129
 20
1345.499683277027
 42
0.4142135623731
 10
-2193.582607890129
 20
1343.999683277027
 42
0.4142135623731
 10
-2192.082607890129
 20
1342.499683277028
 42
0.4142135623731
  0
LINE
  5
158
330
1F
100
AcDbEntity
  8
0-B_寸法
  6
Continuous
 62
   120
370
     5
100
AcDbLine
 10
2211.916600302442
 20
1883.999683277027
 30
0.0
 11
2211.916600302442
 21
1343.999683277027
 31
0.0
  0
LINE
  5
159
330
1F
100
AcDbEntity
  8
0-B_寸法
  6
Continuous
 62
   120
370
     5
100
AcDbLine
 10
2031.917491085803
 20
1883.999683277027
 30
0.0
 11
2031.917491085803
 21
1523.999683277027
 31
0.0
  0
LWPOLYLINE
  5
15A
330
1F
100
AcDbEntity
  8
0-B_寸法
  6
Continuous
 62
     7
370
     9
100
AcDbPolyline
 90
        4
 70
     1
 43
3.0
 10
2213.416600302442
 20
1343.999683277027
 42
0.4142135623731
 10
2211.916600302442
 20
1345.499683277027
 42
0.4142135623731
 10
2210.416600302443
 20
1343.999683277027
 42
0.4142135623731
 10
2211.916600302442
 20
1342.499683277028
 42
0.4142135623731
  0
LWPOLYLINE
  5
15B
330
1F
100
AcDbEntity
  8
0-B_寸法
  6
Continuous
 62
     7
370
     9
100
AcDbPolyline
 90
        4
 70
     1
 43
3.0
 10
2213.416600302442
 20
1523.999683277027
 42
0.4142135623731
 10
2211.916600302442
 20
1525.499683277027
 42
0.4142135623731
 10
2210.416600302443
 20
1523.999683277027
 42
0.4142135623731
 10
2211.916600302442
 20
1522.499683277028
 42
0.4142135623731
  0
LWPOLYLINE
  5
15C
330
1F
100
AcDbEntity
  8
0-B_寸法
  6
Continuous
 62
     7
370
     9
100
AcDbPolyline
 90
        4
 70
     1
 43
3.0
 10
2033.417491085803
 20
1523.999683277027
 42
0.4142135623731
 10
2031.917491085803
 20
1525.499683277027
 42
0.4142135623731
 10
2030.417491085803
 20
1523.999683277027
 42
0.4142135623731
 10
2031.917491085803
 20
1522.499683277028
 42
0.4142135623731
  0
MTEXT
  5
15D
330
1F
100
AcDbEntity
  8
0-B_寸法
  6
Continuous
 62
     7
370
   211
100
AcDbMText
 10
-62.06734201840845
 20
1707.426744056071
 30
0.0
 40
91.44
 41
60.0
 46
0.0
 71
     7
 72
     1
  1
{\fＭＳ ゴシック|b0|i0|c128|p49;2}
 73
     1
 44
1.0
  0
LINE
  5
15E
330
1F
100
AcDbEntity
  8
0-B_寸法
  6
Continuous
 62
   120
370
     5
100
AcDbLine
 10
-2192.082607890129
 20
1523.999683277027
 30
0.0
 11
2211.916600302442
 21
1523.999683277027
 31
0.0
  0
LINE
  5
15F
330
1F
100
AcDbEntity
  8
0-B_寸法
  6
Continuous
 62
   120
370
     5
100
AcDbLine
 10
-2222.082434682247
 20
1343.999683277027
 30
0.0
 11
2211.916600302442
 21
1343.999683277027
 31
0.0
  0
MTEXT
  5
160
330
1F
100
AcDbEntity
  8
0-B_寸法
  6
Continuous
 62
     7
370
     0
100
AcDbMText
 10
-2162.082496542207
 20
1524.719732764991
 30
0.0
 40
91.44
 41
120.0
 46
0.0
 71
     7
 72
     1
  1
{\fＭＳ ゴシック|b0|i0|c128|p49;30}
 73
     1
 44
1.0
  0
MTEXT
  5
161
330
1F
100
AcDbEntity
  8
0-B_寸法
  6
Continuous
 62
     7
370
     0
100
AcDbMText
 10
-320.0823355680728
 20
1524.719732764991
 30
0.0
 40
91.44000000000058
 41
660.0000000000043
 46
0.0
 71
     7
 72
     1
  1
{\fＭＳ ゴシック|b0|i0|c128|p49;枠内＝1,585}
 73
     1
 44
1.0
  0
MTEXT
  5
162
330
1F
100
AcDbEntity
  8
0-B_寸法
  6
Continuous
 62
     7
370
     0
100
AcDbMText
 10
2061.917045694124
 20
1524.719732764991
 30
0.0
 40
91.44
 41
120.0
 46
0.0
 71
     7
 72
     1
  1
{\fＭＳ ゴシック|b0|i0|c128|p49;30}
 73
     1
 44
1.0
  0
MTEXT
  5
163
330
1F
100
AcDbEntity
  8
0-B_寸法
  6
Continuous
 62
     7
370
     0
100
AcDbMText
 10
-320.0828923076693
 20
1344.719732764991
 30
0.0
 40
91.43999999999997
 41
660.0
 46
0.0
 71
     7
 72
     1
  1
{\fＭＳ ゴシック|b0|i0|c128|p49;枠外＝1,645}
 73
     1
 44
1.0
  0
LWPOLYLINE
  5
164
330
1F
100
AcDbEntity
  8
0-B_寸法
  6
Continuous
 62
     7
370
     9
100
AcDbPolyline
 90
        4
 70
     1
 43
3.0
 10
-1995.58238519429
 20
1883.999683277027
 42
0.4142135623731
 10
-1997.08238519429
 20
1885.499683277027
 42
0.4142135623731
 10
-1998.58238519429
 20
1883.999683277027
 42
0.4142135623731
 10
-1997.08238519429
 20
1882.499683277028
 42
0.4142135623731
  0
LINE
  5
165
330
1F
100
AcDbEntity
  8
0-B_寸法
  6
Continuous
 62
   120
370
     5
100
AcDbLine
 10
-1997.08238519429
 20
1883.999683277027
 30
0.0
 11
-1004.081958291447
 21
1883.999683277027
 31
0.0
  0
LWPOLYLINE
  5
166
330
1F
100
AcDbEntity
  8
0-B_寸法
  6
Continuous
 62
     7
370
     9
100
AcDbPolyline
 90
        4
 70
     1
 43
3.0
 10
-1002.581958291448
 20
1883.999683277027
 42
0.4142135623731
 10
-1004.081958291447
 20
1885.499683277027
 42
0.4142135623731
 10
-1005.581958291447
 20
1883.999683277027
 42
0.4142135623731
 10
-1004.081958291447
 20
1882.499683277028
 42
0.4142135623731
  0
LWPOLYLINE
  5
167
330
1F
100
AcDbEntity
  8
0-B_寸法
  6
Continuous
 62
     7
370
     9
100
AcDbPolyline
 90
        4
 70
     1
 43
3.0
 10
-996.5820325233914
 20
1883.999683277027
 42
0.4142135623731
 10
-998.0820325233913
 20
1885.499683277027
 42
0.4142135623731
 10
-999.5820325233911
 20
1883.999683277027
 42
0.4142135623731
 10
-998.0820325233913
 20
1882.499683277028
 42
0.4142135623731
  0
MTEXT
  5
168
330
1F
100
AcDbEntity
  8
0-B_寸法
  6
Continuous
 62
     7
370
   211
100
AcDbMText
 10
-1770.582171742867
 20
1884.719683277027
 30
0.0
 40
91.43999999999998
 41
540.0
 46
0.0
 71
     7
 72
     1
  1
{\fＭＳ ゴシック|b0|i0|c128|p49;ＤＷ＝394}
 73
     1
 44
1.0
  0
LINE
  5
169
330
1F
100
AcDbEntity
  8
0-B_寸法
  6
Continuous
 62
   120
370
     5
100
AcDbLine
 10
-998.0820325233913
 20
1883.999683277027
 30
0.0
 11
3.918171683582159
 21
1883.999683277027
 31
0.0
  0
LWPOLYLINE
  5
16A
330
1F
100
AcDbEntity
  8
0-B_寸法
  6
Continuous
 62
     7
370
     9
100
AcDbPolyline
 90
        4
 70
     1
 43
3.0
 10
5.418171683582159
 20
1883.999683277027
 42
0.4142135623731
 10
3.918171683582159
 20
1885.499683277027
 42
0.4142135623731
 10
2.418171683582159
 20
1883.999683277027
 42
0.4142135623731
 10
3.918171683582159
 20
1882.499683277028
 42
0.4142135623731
  0
LWPOLYLINE
  5
16B
330
1F
100
AcDbEntity
  8
0-B_寸法
  6
Continuous
 62
     7
370
     9
100
AcDbPolyline
 90
        4
 70
     1
 43
3.0
 10
17.41817168358318
 20
1883.999683277027
 42
0.4142135623731
 10
15.91817168358318
 20
1885.499683277027
 42
0.4142135623731
 10
14.41817168358318
 20
1883.999683277027
 42
0.4142135623731
 10
15.91817168358318
 20
1882.499683277028
 42
0.4142135623731
  0
MTEXT
  5
16C
330
1F
100
AcDbEntity
  8
0-B_寸法
  6
Continuous
 62
     7
370
   211
100
AcDbMText
 10
-767.0819304199011
 20
1884.719683277027
 30
0.0
 40
91.43999999999956
 41
539.9999999999975
 46
0.0
 71
     7
 72
     1
  1
{\fＭＳ ゴシック|b0|i0|c128|p49;ＤＷ＝394}
 73
     1
 44
1.0
  0
LINE
  5
16D
330
1F
100
AcDbEntity
  8
0-B_寸法
  6
Continuous
 62
   120
370
     5
100
AcDbLine
 10
15.91817168358318
 20
1883.999683277027
 30
0.0
 11
1017.918338774581
 21
1883.999683277027
 31
0.0
  0
LWPOLYLINE
  5
16E
330
1F
100
AcDbEntity
  8
0-B_寸法
  6
Continuous
 62
     7
370
     9
100
AcDbPolyline
 90
        4
 70
     1
 43
3.0
 10
1019.418338774581
 20
1883.999683277027
 42
0.4142135623731
 10
1017.918338774581
 20
1885.499683277027
 42
0.4142135623731
 10
1016.418338774582
 20
1883.999683277027
 42
0.4142135623731
 10
1017.918338774581
 20
1882.499683277028
 42
0.4142135623731
  0
LWPOLYLINE
  5
16F
330
1F
100
AcDbEntity
  8
0-B_寸法
  6
Continuous
 62
     7
370
     9
100
AcDbPolyline
 90
        4
 70
     1
 43
3.0
 10
1025.418338774583
 20
1883.999683277027
 42
0.4142135623731
 10
1023.918338774583
 20
1885.499683277027
 42
0.4142135623731
 10
1022.418338774583
 20
1883.999683277027
 42
0.4142135623731
 10
1023.918338774583
 20
1882.499683277028
 42
0.4142135623731
  0
MTEXT
  5
170
330
1F
100
AcDbEntity
  8
0-B_寸法
  6
Continuous
 62
     7
370
   211
100
AcDbMText
 10
284.4182552290823
 20
1884.719683277027
 30
0.0
 40
91.43999999999998
 41
540.0
 46
0.0
 71
     7
 72
     1
  1
{\fＭＳ ゴシック|b0|i0|c128|p49;ＤＷ＝394}
 73
     1
 44
1.0
  0
LINE
  5
171
330
1F
100
AcDbEntity
  8
0-B_寸法
  6
Continuous
 62
   120
370
     5
100
AcDbLine
 10
1023.918338774583
 20
1883.999683277027
 30
0.0
 11
2016.917540573765
 21
1883.999683277027
 31
0.0
  0
LWPOLYLINE
  5
172
330
1F
100
AcDbEntity
  8
0-B_寸法
  6
Continuous
 62
     7
370
     9
100
AcDbPolyline
 90
        4
 70
     1
 43
3.0
 10
2018.417540573765
 20
1883.999683277027
 42
0.4142135623731
 10
2016.917540573765
 20
1885.499683277027
 42
0.4142135623731
 10
2015.417540573765
 20
1883.999683277027
 42
0.4142135623731
 10
2016.917540573765
 20
1882.499683277028
 42
0.4142135623731
  0
MTEXT
  5
173
330
1F
100
AcDbEntity
  8
0-B_寸法
  6
Continuous
 62
     7
370
   211
100
AcDbMText
 10
1250.417939674174
 20
1884.719683277027
 30
0.0
 40
91.43999999999998
 41
540.0
 46
0.0
 71
     7
 72
     1
  1
{\fＭＳ ゴシック|b0|i0|c128|p49;ＤＷ＝394}
 73
     1
 44
1.0
  0
LINE
  5
174
330
1F
100
AcDbEntity
  8
0-B_寸法
  6
Continuous
 62
   120
370
     5
100
AcDbLine
 10
-1997.08238519429
 20
1883.999683277027
 30
0.0
 11
-1997.08238519429
 21
2063.999683277028
 31
0.0
  0
LINE
  5
175
330
1F
100
AcDbEntity
  8
0-B_寸法
  6
Continuous
 62
   120
370
     5
100
AcDbLine
 10
-1004.081958291447
 20
1883.999683277027
 30
0.0
 11
-1004.081958291447
 21
2063.999683277028
 31
0.0
  0
LINE
  5
176
330
1F
100
AcDbEntity
  8
0-B_寸法
  6
Continuous
 62
   120
370
     5
100
AcDbLine
 10
-998.0820325233913
 20
1883.999683277027
 30
0.0
 11
-998.0820325233913
 21
2063.999683277028
 31
0.0
  0
LINE
  5
177
330
1F
100
AcDbEntity
  8
0-B_寸法
  6
Continuous
 62
   120
370
     5
100
AcDbLine
 10
3.918171683582159
 20
1883.999683277027
 30
0.0
 11
3.918171683582159
 21
2063.999683277028
 31
0.0
  0
LINE
  5
178
330
1F
100
AcDbEntity
  8
0-B_寸法
  6
Continuous
 62
   120
370
     5
100
AcDbLine
 10
15.91817168358318
 20
1883.999683277027
 30
0.0
 11
15.91817168358318
 21
2063.999683277028
 31
0.0
  0
LINE
  5
179
330
1F
100
AcDbEntity
  8
0-B_寸法
  6
Continuous
 62
   120
370
     5
100
AcDbLine
 10
1017.918338774581
 20
1883.999683277027
 30
0.0
 11
1017.918338774581
 21
2063.999683277028
 31
0.0
  0
LINE
  5
17A
330
1F
100
AcDbEntity
  8
0-B_寸法
  6
Continuous
 62
   120
370
     5
100
AcDbLine
 10
1023.918338774583
 20
1883.999683277027
 30
0.0
 11
1023.918338774583
 21
2063.999683277028
 31
0.0
  0
LINE
  5
17B
330
1F
100
AcDbEntity
  8
0-B_寸法
  6
Continuous
 62
   120
370
     5
100
AcDbLine
 10
2016.917540573765
 20
1883.999683277027
 30
0.0
 11
2016.917540573765
 21
2063.999683277028
 31
0.0
  0
LINE
  5
17C
330
1F
100
AcDbEntity
  8
0-0_補助線
  6
JWW_HOJO
 62
     7
370
     9
100
AcDbLine
 10
-1982.083078025797
 20
1163.999683277026
 30
0.0
 11
-1982.083078025797
 21
2950.813852848142
 31
0.0
  0
LINE
  5
17D
330
1F
100
AcDbEntity
  8
0-0_補助線
  6
JWW_HOJO
 62
     7
370
     9
100
AcDbLine
 10
2001.918406889654
 20
1163.999683277026
 30
0.0
 11
2001.918406889654
 21
2950.813852848142
 31
0.0
  0
LINE
  5
17E
330
1F
100
AcDbEntity
  8
0-0_補助線
  6
JWW_HOJO
 62
   120
370
     5
100
AcDbLine
 10
-1001.081995407422
 20
1163.999683277026
 30
0.0
 11
-1001.081995407422
 21
2950.813852848142
 31
0.0
  0
LINE
  5
17F
330
1F
100
AcDbEntity
  8
0-0_補助線
  6
JWW_HOJO
 62
   120
370
     5
100
AcDbLine
 10
9.918171683581818
 20
1163.999683277026
 30
0.0
 11
9.918171683581818
 21
2950.813852848142
 31
0.0
  0
LINE
  5
180
330
1F
100
AcDbEntity
  8
0-0_補助線
  6
JWW_HOJO
 62
   120
370
     5
100
AcDbLine
 10
1020.918338774582
 20
1163.999683277026
 30
0.0
 11
1020.918338774582
 21
2950.813852848142
 31
0.0
  0
MTEXT
  5
181
330
1F
100
AcDbEntity
  8
0-A_文字
  6
Continuous
 62
     7
370
     9
100
AcDbMText
 10
-608.0834986734777
 20
1083.793016610359
 30
0.0
 40
79.58666666666657
 41
2819.999999999996
 46
0.0
 71
     7
 72
     1
  1
{\fＭＳ ゴシック|b0|i0|c128|p49;※有効開口寸法は扉の厚さや調整によって若干異なります。}
 73
     1
 44
1.0
  0
MTEXT
  5
182
330
1F
100
AcDbEntity
  8
0-A_文字
  6
Continuous
 62
     7
370
     9
100
AcDbMText
 10
-83.0834986734776
 20
1188.744910549753
 30
0.0
 40
79.49045454545441
 41
2294.999999999996
 46
0.0
 71
     7
 72
     1
  1
{\fＭＳ ゴシック|b0|i0|c128|p49;※有効開口寸法にはハンドルの突出は含まない。}
 73
     1
 44
1.0
  0
LINE
  5
183
330
1F
100
AcDbEntity
  8
0-0_補助線
  6
JWW_HOJO
 62
   120
370
     5
100
AcDbLine
 10
2781.917293133945
 20
2063.999683277028
 30
0.0
 11
-2762.082187242434
 21
2063.999683277028
 31
0.0
  0
LWPOLYLINE
  5
184
330
1F
100
AcDbEntity
  8
0-B_寸法
  6
Continuous
 62
     7
370
     9
100
AcDbPolyline
 90
        4
 70
     1
 43
3.0
 10
1309.317994083388
 20
3038.999683277028
 42
0.4142135623731
 10
1307.817994083388
 20
3040.499683277027
 42
0.4142135623731
 10
1306.317994083388
 20
3038.999683277028
 42
0.4142135623731
 10
1307.817994083388
 20
3037.499683277028
 42
0.4142135623731
  0
LINE
  5
185
330
1F
100
AcDbEntity
  8
0-B_寸法
  6
Continuous
 62
   120
370
     5
100
AcDbLine
 10
1307.817994083388
 20
3038.999683277028
 30
0.0
 11
1307.817994083388
 21
2858.999683277028
 31
0.0
  0
LWPOLYLINE
  5
186
330
1F
100
AcDbEntity
  8
0-B_寸法
  6
Continuous
 62
     7
370
     9
100
AcDbPolyline
 90
        4
 70
     1
 43
3.0
 10
-1286.482838703918
 20
3038.999683277028
 42
0.4142135623731
 10
-1287.982838703918
 20
3040.499683277027
 42
0.4142135623731
 10
-1289.482838703918
 20
3038.999683277028
 42
0.4142135623731
 10
-1287.982838703918
 20
3037.499683277028
 42
0.4142135623731
  0
LINE
  5
187
330
1F
100
AcDbEntity
  8
0-B_寸法
  6
Continuous
 62
   120
370
     5
100
AcDbLine
 10
-1287.982838703918
 20
3038.999683277028
 30
0.0
 11
-1287.982838703918
 21
2858.999683277028
 31
0.0
  0
LINE
  5
188
330
1F
100
AcDbEntity
  8
0-B_寸法
  6
Continuous
 62
   120
370
     5
100
AcDbLine
 10
-1287.982838703918
 20
3038.999683277028
 30
0.0
 11
1307.817994083388
 21
3038.999683277028
 31
0.0
  0
LINE
  5
189
330
1F
100
AcDbEntity
  8
0-1_通り芯
  6
JWW_CENTER1
 62
   120
370
     5
100
AcDbLine
 10
1307.817994083388
 20
2858.999683277028
 30
0.0
 11
1307.817994083388
 21
2605.583651292282
 31
0.0
  0
LINE
  5
18A
330
1F
100
AcDbEntity
  8
0-1_通り芯
  6
JWW_CENTER1
 62
   120
370
     5
100
AcDbLine
 10
-1287.982838703918
 20
2858.999683277028
 30
0.0
 11
-1287.982838703918
 21
2605.583651292282
 31
0.0
  0
LINE
  5
18B
330
1F
100
AcDbEntity
  8
0-6_扉
  6
JWW_DASHED2
 62
    40
370
    15
100
AcDbLine
 10
1450.039900965455
 20
2631.71609658685
 30
0.0
 11
1324.402202881602
 21
2622.167860090495
 31
0.0
  0
ARC
  5
18C
330
1F
100
AcDbEntity
  8
0-6_扉
  6
JWW_DASHED2
 62
    40
370
    15
100
AcDbCircle
 10
1325.766236666797
 20
2604.219617507087
 30
0.0
 40
18.0
100
AcDbArc
 50
94.34602072163928
 51
184.346020721639
  0
LINE
  5
18D
330
1F
100
AcDbEntity
  8
0-6_扉
  6
JWW_DASHED2
 62
    40
370
    15
100
AcDbLine
 10
1307.817994083388
 20
2602.855583721893
 30
0.0
 11
1341.246181786605
 21
2163.000480033256
 31
0.0
  0
ARC
  5
18E
330
1F
100
AcDbEntity
  8
0-6_扉
  6
JWW_DASHED2
 62
    40
370
    15
100
AcDbCircle
 10
1451.403934750648
 20
2613.767854003441
 30
0.0
 40
18.0
100
AcDbArc
 50
4.346020721638924
 51
94.34602072163929
  0
LINE
  5
18F
330
1F
100
AcDbEntity
  8
0-6_扉
  6
JWW_DASHED2
 62
    40
370
    15
100
AcDbLine
 10
1469.352177334056
 20
2615.131887788635
 30
0.0
 11
1503.713341813495
 21
2163.000480033256
 31
0.0
  0
ARC
  5
190
330
1F
100
AcDbEntity
  8
0-6_扉
  6
JWW_DASHED2
 62
    40
370
    15
100
AcDbCircle
 10
1776.682876556442
 20
2615.131887788633
 30
0.0
 40
18.0
100
AcDbArc
 50
85.65397927835929
 51
175.6539792783603
  0
LINE
  5
191
330
1F
100
AcDbEntity
  8
0-6_扉
  6
JWW_DASHED2
 62
    40
370
    15
100
AcDbLine
 10
1758.734633973036
 20
2616.495921573826
 30
0.0
 11
1724.269805407341
 21
2163.000480033256
 31
0.0
  0
LINE
  5
192
330
1F
100
AcDbEntity
  8
0-6_扉
  6
JWW_DASHED2
 62
    40
370
    15
100
AcDbLine
 10
1903.684608425492
 20
2623.531893875684
 30
0.0
 11
1778.046910341638
 21
2633.08013037204
 31
0.0
  0
ARC
  5
193
330
1F
100
AcDbEntity
  8
0-6_扉
  6
JWW_DASHED2
 62
    40
370
    15
100
AcDbCircle
 10
1902.320574640298
 20
2605.583651292276
 30
0.0
 40
18.0
100
AcDbArc
 50
355.6539792783596
 51
85.65397927835917
  0
LINE
  5
194
330
1F
100
AcDbEntity
  8
0-6_扉
  6
JWW_DASHED2
 62
    40
370
    15
100
AcDbLine
 10
1920.268817223707
 20
2604.219617507082
 30
0.0
 11
1886.736965434231
 21
2163.000480033256
 31
0.0
  0
ARC
  5
195
330
1F
100
AcDbEntity
  8
0-6_扉
  6
JWW_DASHED2
 62
    40
370
    15
100
AcDbCircle
 10
-1431.568779371176
 20
2613.767854003441
 30
0.0
 40
18.0
100
AcDbArc
 50
85.6539792783607
 51
175.6539792783611
  0
LINE
  5
196
330
1F
100
AcDbEntity
  8
0-6_扉
  6
JWW_DASHED2
 62
    40
370
    15
100
AcDbLine
 10
-1449.517021954585
 20
2615.131887788635
 30
0.0
 11
-1483.878186434024
 21
2163.000480033256
 31
0.0
  0
LINE
  5
197
330
1F
100
AcDbEntity
  8
0-6_扉
  6
JWW_DASHED2
 62
    40
370
    15
100
AcDbLine
 10
-1430.204745585983
 20
2631.71609658685
 30
0.0
 11
-1304.567047502131
 21
2622.167860090495
 31
0.0
  0
ARC
  5
198
330
1F
100
AcDbEntity
  8
0-6_扉
  6
JWW_DASHED2
 62
    40
370
    15
100
AcDbCircle
 10
-1305.931081287327
 20
2604.219617507087
 30
0.0
 40
18.0
100
AcDbArc
 50
355.653979278361
 51
85.65397927836072
  0
LINE
  5
199
330
1F
100
AcDbEntity
  8
0-6_扉
  6
JWW_DASHED2
 62
    40
370
    15
100
AcDbLine
 10
-1287.982838703918
 20
2602.855583721893
 30
0.0
 11
-1321.411026407136
 21
2163.000480033256
 31
0.0
  0
LINE
  5
19A
330
1F
100
AcDbEntity
  8
0-6_扉
  6
JWW_DASHED2
 62
    40
370
    15
100
AcDbLine
 10
-1883.849453046018
 20
2623.531893875684
 30
0.0
 11
-1758.211754962168
 21
2633.08013037204
 31
0.0
  0
ARC
  5
19B
330
1F
100
AcDbEntity
  8
0-6_扉
  6
JWW_DASHED2
 62
    40
370
    15
100
AcDbCircle
 10
-1756.847721176971
 20
2615.131887788633
 30
0.0
 40
18.0
100
AcDbArc
 50
4.346020721639738
 51
94.3460207216407
  0
LINE
  5
19C
330
1F
100
AcDbEntity
  8
0-6_扉
  6
JWW_DASHED2
 62
    40
370
    15
100
AcDbLine
 10
-1738.899478593562
 20
2616.495921573826
 30
0.0
 11
-1704.434650027869
 21
2163.000480033256
 31
0.0
  0
ARC
  5
19D
330
1F
100
AcDbEntity
  8
0-6_扉
  6
JWW_DASHED2
 62
    40
370
    15
100
AcDbCircle
 10
-1882.485419260827
 20
2605.583651292276
 30
0.0
 40
18.0
100
AcDbArc
 50
94.34602072164084
 51
184.3460207216404
  0
LINE
  5
19E
330
1F
100
AcDbEntity
  8
0-6_扉
  6
JWW_DASHED2
 62
    40
370
    15
100
AcDbLine
 10
-1900.433661844236
 20
2604.219617507082
 30
0.0
 11
-1866.90181005476
 21
2163.000480033256
 31
0.0
  0
LWPOLYLINE
  5
19F
330
1F
100
AcDbEntity
  8
0-B_寸法
  6
Continuous
 62
     7
370
     9
100
AcDbPolyline
 90
        4
 70
     1
 43
3.0
 10
-2220.582434682247
 20
1343.999683277027
 42
0.4142135623731
 10
-2222.082434682247
 20
1345.499683277027
 42
0.4142135623731
 10
-2223.582434682247
 20
1343.999683277027
 42
0.4142135623731
 10
-2222.082434682247
 20
1342.499683277028
 42
0.4142135623731
  0
LWPOLYLINE
  5
1A0
330
1F
100
AcDbEntity
  8
0-B_寸法
  6
Continuous
 62
     7
370
     9
100
AcDbPolyline
 90
        4
 70
     1
 43
3.0
 10
-2190.582434682259
 20
1343.999683277027
 42
0.4142135623731
 10
-2192.082434682259
 20
1345.499683277027
 42
0.4142135623731
 10
-2193.582434682259
 20
1343.999683277027
 42
0.4142135623731
 10
-2192.082434682259
 20
1342.499683277028
 42
0.4142135623731
  0
LINE
  5
1A1
330
1F
100
AcDbEntity
  8
0-B_寸法
  6
Continuous
 62
   120
370
     5
100
AcDbLine
 10
-2222.082434682247
 20
1343.999683277027
 30
0.0
 11
-2222.082434682247
 21
1883.999683277027
 31
0.0
  0
LINE
  5
1A2
330
1F
100
AcDbEntity
  8
0-B_寸法
  6
Continuous
 62
   120
370
     5
100
AcDbLine
 10
-2192.082434682259
 20
1343.999683277027
 30
0.0
 11
-2192.082434682259
 21
1883.999683277027
 31
0.0
  0
LINE
  5
1A3
330
1F
100
AcDbEntity
  8
0-B_寸法
  6
Continuous
 62
   120
370
     5
100
AcDbLine
 10
2211.917540573765
 20
1343.999683277027
 30
0.0
 11
2241.917540573756
 21
1343.999683277027
 31
0.0
  0
LWPOLYLINE
  5
1A4
330
1F
100
AcDbEntity
  8
0-B_寸法
  6
Continuous
 62
     7
370
     9
100
AcDbPolyline
 90
        4
 70
     1
 43
3.0
 10
2213.417540573765
 20
1343.999683277027
 42
0.4142135623731
 10
2211.917540573765
 20
1345.499683277027
 42
0.4142135623731
 10
2210.417540573765
 20
1343.999683277027
 42
0.4142135623731
 10
2211.917540573765
 20
1342.499683277028
 42
0.4142135623731
  0
LWPOLYLINE
  5
1A5
330
1F
100
AcDbEntity
  8
0-B_寸法
  6
Continuous
 62
     7
370
     9
100
AcDbPolyline
 90
        4
 70
     1
 43
3.0
 10
2243.417540573756
 20
1343.999683277027
 42
0.4142135623731
 10
2241.917540573756
 20
1345.499683277027
 42
0.4142135623731
 10
2240.417540573756
 20
1343.999683277027
 42
0.4142135623731
 10
2241.917540573756
 20
1342.499683277028
 42
0.4142135623731
  0
LINE
  5
1A6
330
1F
100
AcDbEntity
  8
0-B_寸法
  6
Continuous
 62
   120
370
     5
100
AcDbLine
 10
2211.917540573765
 20
1343.999683277027
 30
0.0
 11
2211.917540573765
 21
1883.999683277027
 31
0.0
  0
LINE
  5
1A7
330
1F
100
AcDbEntity
  8
0-B_寸法
  6
Continuous
 62
   120
370
     5
100
AcDbLine
 10
2241.917540573756
 20
1343.999683277027
 30
0.0
 11
2241.917540573756
 21
1883.999683277027
 31
0.0
  0
MTEXT
  5
1A8
330
1F
100
AcDbEntity
  8
0-B_寸法
  6
Continuous
 62
     7
370
   211
100
AcDbMText
 10
2136.916600302447
 20
1344.719683277027
 30
0.0
 40
91.44
 41
60.0
 46
0.0
 71
     7
 72
     1
  1
{\fＭＳ ゴシック|b0|i0|c128|p49;5}
 73
     1
 44
1.0
  0
MTEXT
  5
1A9
330
1F
100
AcDbEntity
  8
0-B_寸法
  6
Continuous
 62
     7
370
   211
100
AcDbMText
 10
-2177.082434682266
 20
1344.719683277027
 30
0.0
 40
91.44
 41
60.0
 46
0.0
 71
     7
 72
     1
  1
{\fＭＳ ゴシック|b0|i0|c128|p49;5}
 73
     1
 44
1.0
  0
MTEXT
  5
1AA
330
1F
100
AcDbEntity
  8
0-B_寸法
  6
Continuous
 62
     7
370
   211
100
AcDbMText
 10
-560.0818283164182
 20
3039.719683277028
 30
0.0
 40
91.43999999999998
 41
1140.0
 46
0.0
 71
     7
 72
     1
  1
{\fＭＳ ゴシック|b0|i0|c128|p49;有効開口寸法＝1,327}
 73
     1
 44
1.0
  0
MTEXT
  5
1AB
330
1F
100
AcDbEntity
  8
0-B_寸法
  6
Continuous
 62
     7
370
   211
100
AcDbMText
 10
-1451.081995407422
 20
1704.719683277027
 30
0.0
 40
91.43999999999998
 41
900.0
 46
0.0
 71
     7
 72
     1
  1
{\fＭＳ ゴシック|b0|i0|c128|p49;折戸：ＤＷ＝789}
 73
     1
 44
1.0
  0
MTEXT
  5
1AC
330
1F
100
AcDbEntity
  8
0-B_寸法
  6
Continuous
 62
     7
370
   211
100
AcDbMText
 10
570.9183387745821
 20
1704.719683277027
 30
0.0
 40
91.43999999999998
 41
900.0
 46
0.0
 71
     7
 72
     1
  1
{\fＭＳ ゴシック|b0|i0|c128|p49;折戸：ＤＷ＝789}
 73
     1
 44
1.0
  0
LINE
  5
1AD
330
1F
100
AcDbEntity
  8
0-C_ハッチ
  6
Continuous
 62
   120
370
     5
100
AcDbLine
 10
-1880.082187242436
 20
-3137.120302898872
 30
0.0
 11
-1871.082187242435
 21
-3128.120302898871
 31
0.0
  0
LINE
  5
1AE
330
1F
100
AcDbEntity
  8
0-7_金物
  6
Continuous
 62
    92
370
    13
100
AcDbLine
 10
-1871.082187242435
 20
-3129.000591227562
 30
0.0
 11
-1751.082187242435
 21
-3129.000591227562
 31
0.0
  0
LINE
  5
1AF
330
1F
100
AcDbEntity
  8
0-7_金物
  6
Continuous
 62
    92
370
    13
100
AcDbLine
 10
-1871.082187242435
 20
-3117.000591227561
 30
0.0
 11
-1871.082187242435
 21
-3129.000591227562
 31
0.0
  0
LINE
  5
1B0
330
1F
100
AcDbEntity
  8
0-7_金物
  6
Continuous
 62
    92
370
    13
100
AcDbLine
 10
-1871.082187242435
 20
-3117.000591227561
 30
0.0
 11
-1880.082245562503
 21
-3117.000591227561
 31
0.0
  0
LINE
  5
1B1
330
1F
100
AcDbEntity
  8
0-7_金物
  6
Continuous
 62
    92
370
    13
100
AcDbLine
 10
-1751.082187242435
 20
-3117.000591227561
 30
0.0
 11
-1742.27127192279
 21
-3117.000591227561
 31
0.0
  0
LINE
  5
1B2
330
1F
100
AcDbEntity
  8
0-7_金物
  6
Continuous
 62
    92
370
    13
100
AcDbLine
 10
-1751.082187242435
 20
-3117.000591227561
 30
0.0
 11
-1751.082187242435
 21
-3129.000591227562
 31
0.0
  0
LINE
  5
1B3
330
1F
100
AcDbEntity
  8
0-7_金物
  6
Continuous
 62
    92
370
    13
100
AcDbLine
 10
-1742.271330242857
 20
-3117.000368897263
 30
0.0
 11
-1742.271330242857
 21
-3159.000591227562
 31
0.0
  0
LINE
  5
1B4
330
1F
100
AcDbEntity
  8
0-7_金物
  6
Continuous
 62
    92
370
    13
100
AcDbLine
 10
-1880.082187242436
 20
-3117.000368897263
 30
0.0
 11
-1880.082187242436
 21
-3159.000591227562
 31
0.0
  0
LINE
  5
1B5
330
1F
100
AcDbEntity
  8
0-7_金物
  6
Continuous
 62
    92
370
    13
100
AcDbLine
 10
-1880.082187242436
 20
-3159.000591227562
 30
0.0
 11
-1742.271330242857
 21
-3159.000591227562
 31
0.0
  0
LINE
  5
1B6
330
1F
100
AcDbEntity
  8
0-C_ハッチ
  6
Continuous
 62
   120
370
     5
100
AcDbLine
 10
-1749.227410834827
 20
-3159.000591227562
 30
0.0
 11
-1742.271330242857
 21
-3152.044510635591
 31
0.0
  0
LINE
  5
1B7
330
1F
100
AcDbEntity
  8
0-C_ハッチ
  6
Continuous
 62
   120
370
     5
100
AcDbLine
 10
-1876.506631448405
 20
-3159.000591227562
 30
0.0
 11
-1846.506631448405
 21
-3129.000591227562
 31
0.0
  0
LINE
  5
1B8
330
1F
100
AcDbEntity
  8
0-C_ハッチ
  6
Continuous
 62
   120
370
     5
100
AcDbLine
 10
-1800.139099080267
 20
-3159.000591227562
 30
0.0
 11
-1770.139099080267
 21
-3129.000591227562
 31
0.0
  0
LINE
  5
1B9
330
1F
100
AcDbEntity
  8
0-C_ハッチ
  6
Continuous
 62
   120
370
     5
100
AcDbLine
 10
-1825.594943202989
 20
-3159.000591227562
 30
0.0
 11
-1795.594943202985
 21
-3129.00059122756
 31
0.0
  0
LINE
  5
1BA
330
1F
100
AcDbEntity
  8
0-C_ハッチ
  6
Continuous
 62
   120
370
     5
100
AcDbLine
 10
-1851.050787325707
 20
-3159.000591227562
 30
0.0
 11
-1821.050787325704
 21
-3129.000591227558
 31
0.0
  0
LINE
  5
1BB
330
1F
100
AcDbEntity
  8
0-C_ハッチ
  6
Continuous
 62
   120
370
     5
100
AcDbLine
 10
-1774.683254957548
 20
-3159.000591227562
 30
0.0
 11
-1742.271330242857
 21
-3126.588666512871
 31
0.0
  0
LINE
  5
1BC
330
1F
100
AcDbEntity
  8
0-3_仕上げ
  6
Continuous
 62
    40
370
    15
100
AcDbLine
 10
-1886.082187242435
 20
-3159.000383378112
 30
0.0
 11
-1886.082187242435
 21
-3087.000591227561
 31
0.0
  0
LINE
  5
1BD
330
1F
100
AcDbEntity
  8
0-3_仕上げ
  6
Continuous
 62
    40
370
    15
100
AcDbLine
 10
-1736.082187242435
 20
-3159.000383378112
 30
0.0
 11
-1736.082187242435
 21
-3087.000591227561
 31
0.0
  0
LINE
  5
1BE
330
1F
100
AcDbEntity
  8
0-6_扉
  6
Continuous
 62
   200
370
    20
100
AcDbLine
 10
-1892.082736558841
 20
-3036.000220221438
 30
0.0
 11
-1730.082736558842
 21
-3036.000220221438
 31
0.0
  0
LINE
  5
1BF
330
1F
100
AcDbEntity
  8
0-7_金物
  6
Continuous
 62
     7
370
     9
100
AcDbLine
 10
-1769.081551631388
 20
-3090.367631861787
 30
0.0
 11
-1853.082422619563
 21
-3090.367631861787
 31
0.0
  0
LINE
  5
1C0
330
1F
100
AcDbEntity
  8
0-7_金物
  6
Continuous
 62
     7
370
     9
100
AcDbLine
 10
-1802.082105896592
 20
-3036.000591227561
 30
0.0
 11
-1802.082105896592
 21
-3090.367631861787
 31
0.0
  0
LINE
  5
1C1
330
1F
100
AcDbEntity
  8
0-7_金物
  6
Continuous
 62
     7
370
     9
100
AcDbLine
 10
-1820.081868354364
 20
-3036.000591227561
 30
0.0
 11
-1820.081868354364
 21
-3090.367631861787
 31
0.0
  0
LINE
  5
1C2
330
1F
100
AcDbEntity
  8
0-7_金物
  6
Continuous
 62
     7
370
     9
100
AcDbLine
 10
-1787.082798728095
 20
-3102.367631861787
 30
0.0
 11
-1835.082660161795
 21
-3102.367631861787
 31
0.0
  0
LINE
  5
1C3
330
1F
100
AcDbEntity
  8
0-7_金物
  6
Continuous
 62
     7
370
     9
100
AcDbLine
 10
-1802.082105896592
 20
-3107.065029454694
 30
0.0
 11
-1820.081868354364
 21
-3107.065029454694
 31
0.0
  0
LINE
  5
1C4
330
1F
100
AcDbEntity
  8
0-7_金物
  6
Continuous
 62
     7
370
     9
100
AcDbLine
 10
-1802.082105896592
 20
-3102.367631861787
 30
0.0
 11
-1802.082105896592
 21
-3107.065029454694
 31
0.0
  0
LINE
  5
1C5
330
1F
100
AcDbEntity
  8
0-7_金物
  6
Continuous
 62
     7
370
     9
100
AcDbLine
 10
-1820.081868354364
 20
-3102.367631861787
 30
0.0
 11
-1820.081868354364
 21
-3107.065029454694
 31
0.0
  0
LINE
  5
1C6
330
1F
100
AcDbEntity
  8
0-7_金物
  6
Continuous
 62
     7
370
     9
100
AcDbLine
 10
-1787.082798728095
 20
-3102.367631861787
 30
0.0
 11
-1787.082798728095
 21
-3114.367631861787
 31
0.0
  0
LINE
  5
1C7
330
1F
100
AcDbEntity
  8
0-7_金物
  6
Continuous
 62
     7
370
     9
100
AcDbLine
 10
-1769.081551631388
 20
-3090.367631861787
 30
0.0
 11
-1769.081551631388
 21
-3114.367631861787
 31
0.0
  0
LINE
  5
1C8
330
1F
100
AcDbEntity
  8
0-7_金物
  6
Continuous
 62
     7
370
     9
100
AcDbLine
 10
-1835.082660161795
 20
-3102.367631861787
 30
0.0
 11
-1835.082660161795
 21
-3114.367631861787
 31
0.0
  0
LINE
  5
1C9
330
1F
100
AcDbEntity
  8
0-7_金物
  6
Continuous
 62
     7
370
     9
100
AcDbLine
 10
-1853.082422619563
 20
-3090.367631861787
 30
0.0
 11
-1853.082422619563
 21
-3114.367631861787
 31
0.0
  0
LINE
  5
1CA
330
1F
100
AcDbEntity
  8
0-7_金物
  6
Continuous
 62
     7
370
     9
100
AcDbLine
 10
-1853.082422619563
 20
-3114.367631861787
 30
0.0
 11
-1769.081551631388
 21
-3114.367631861787
 31
0.0
  0
LINE
  5
1CB
330
1F
100
AcDbEntity
  8
0-7_金物
  6
Continuous
 62
     7
370
     9
100
AcDbLine
 10
-1862.082187242435
 20
-3121.800591227562
 30
0.0
 11
-1850.082187242436
 21
-3121.800591227562
 31
0.0
  0
LINE
  5
1CC
330
1F
100
AcDbEntity
  8
0-7_金物
  6
Continuous
 62
     7
370
     9
100
AcDbLine
 10
-1844.082187242436
 20
-3121.800591227562
 30
0.0
 11
-1812.882187242435
 21
-3121.800591227562
 31
0.0
  0
LINE
  5
1CD
330
1F
100
AcDbEntity
  8
0-7_金物
  6
Continuous
 62
     7
370
     9
100
AcDbLine
 10
-1812.882187242435
 20
-3121.800591227562
 30
0.0
 11
-1811.082187242435
 21
-3123.600591227562
 31
0.0
  0
LINE
  5
1CE
330
1F
100
AcDbEntity
  8
0-7_金物
  6
Continuous
 62
     7
370
     9
100
AcDbLine
 10
-1811.082187242435
 20
-3123.600591227562
 30
0.0
 11
-1809.282187242435
 21
-3121.800591227562
 31
0.0
  0
LINE
  5
1CF
330
1F
100
AcDbEntity
  8
0-7_金物
  6
Continuous
 62
     7
370
     9
100
AcDbLine
 10
-1809.282187242435
 20
-3121.800591227562
 30
0.0
 11
-1778.082187242435
 21
-3121.800591227562
 31
0.0
  0
LINE
  5
1D0
330
1F
100
AcDbEntity
  8
0-7_金物
  6
Continuous
 62
     7
370
     9
100
AcDbLine
 10
-1772.082187242435
 20
-3121.800591227562
 30
0.0
 11
-1760.082187242434
 21
-3121.800591227562
 31
0.0
  0
LINE
  5
1D1
330
1F
100
AcDbEntity
  8
0-7_金物
  6
Continuous
 62
     7
370
     9
100
AcDbLine
 10
-1716.882187242436
 20
-3087.000591227562
 30
0.0
 11
-1752.882187242435
 21
-3087.000591227562
 31
0.0
  0
LINE
  5
1D2
330
1F
100
AcDbEntity
  8
0-7_金物
  6
Continuous
 62
     7
370
     9
100
AcDbLine
 10
-1869.282187242435
 20
-3087.000591227562
 30
0.0
 11
-1905.282187242435
 21
-3087.000591227562
 31
0.0
  0
LINE
  5
1D3
330
1F
100
AcDbEntity
  8
0-7_金物
  6
Continuous
 62
     7
370
     9
100
AcDbLine
 10
-1869.282187242435
 20
-3079.800591227562
 30
0.0
 11
-1905.282187242435
 21
-3083.400591227562
 31
0.0
  0
ARC
  5
1D4
330
1F
100
AcDbEntity
  8
0-7_金物
  6
Continuous
 62
     7
370
     9
100
AcDbCircle
 10
-1905.282187242435
 20
-3085.200591227562
 30
0.0
 40
1.8
100
AcDbArc
 50
90.0
 51
270.0
  0
ARC
  5
1D5
330
1F
100
AcDbEntity
  8
0-7_金物
  6
Continuous
 62
     7
370
     9
100
AcDbCircle
 10
-1716.882187242436
 20
-3085.200591227562
 30
0.0
 40
1.8
100
AcDbArc
 50
270.0
 51
89.99999999999997
  0
LINE
  5
1D6
330
1F
100
AcDbEntity
  8
0-7_金物
  6
Continuous
 62
     7
370
     9
100
AcDbLine
 10
-1716.882187242436
 20
-3083.400591227562
 30
0.0
 11
-1752.882187242435
 21
-3079.800591227562
 31
0.0
  0
LINE
  5
1D7
330
1F
100
AcDbEntity
  8
0-7_金物
  6
Continuous
 62
     7
370
     9
100
AcDbLine
 10
-1847.682187242436
 20
-3079.800591227562
 30
0.0
 11
-1869.282187242435
 21
-3079.800591227562
 31
0.0
  0
ARC
  5
1D8
330
1F
100
AcDbEntity
  8
0-7_金物
  6
Continuous
 62
     7
370
     9
100
AcDbCircle
 10
-1847.682187242436
 20
-3083.400591227562
 30
0.0
 40
3.600000000000001
100
AcDbArc
 50
0.0
 51
90.0
  0
ARC
  5
1D9
330
1F
100
AcDbEntity
  8
0-7_金物
  6
Continuous
 62
     7
370
     9
100
AcDbCircle
 10
-1847.682187242436
 20
-3083.400591227562
 30
0.0
 40
3.600000000000001
100
AcDbArc
 50
270.0
 51
0.0
  0
ARC
  5
1DA
330
1F
100
AcDbEntity
  8
0-7_金物
  6
Continuous
 62
     7
370
     9
100
AcDbCircle
 10
-1774.482187242435
 20
-3083.400591227562
 30
0.0
 40
3.600000000000001
100
AcDbArc
 50
180.0
 51
270.0
  0
LINE
  5
1DB
330
1F
100
AcDbEntity
  8
0-7_金物
  6
Continuous
 62
     7
370
     9
100
AcDbLine
 10
-1774.482187242435
 20
-3079.800591227562
 30
0.0
 11
-1752.882187242435
 21
-3079.800591227562
 31
0.0
  0
ARC
  5
1DC
330
1F
100
AcDbEntity
  8
0-7_金物
  6
Continuous
 62
     7
370
     9
100
AcDbCircle
 10
-1774.482187242435
 20
-3083.400591227562
 30
0.0
 40
3.600000000000001
100
AcDbArc
 50
90.0
 51
180.0
  0
LINE
  5
1DD
330
1F
100
AcDbEntity
  8
0-7_金物
  6
Continuous
 62
     7
370
     9
100
AcDbLine
 10
-1752.882187242435
 20
-3120.000591227562
 30
0.0
 11
-1752.882187242435
 21
-3087.000591227562
 31
0.0
  0
ARC
  5
1DE
330
1F
100
AcDbEntity
  8
0-7_金物
  6
Continuous
 62
     7
370
     9
100
AcDbCircle
 10
-1761.882187242436
 20
-3120.000591227562
 30
0.0
 40
9.000000000000002
100
AcDbArc
 50
270.0
 51
0.0
  0
LINE
  5
1DF
330
1F
100
AcDbEntity
  8
0-7_金物
  6
Continuous
 62
     7
370
     9
100
AcDbLine
 10
-1869.282187242435
 20
-3120.000591227562
 30
0.0
 11
-1869.282187242435
 21
-3087.000591227562
 31
0.0
  0
LINE
  5
1E0
330
1F
100
AcDbEntity
  8
0-7_金物
  6
Continuous
 62
     7
370
     9
100
AcDbLine
 10
-1860.282187242435
 20
-3129.000591227562
 30
0.0
 11
-1761.882187242436
 21
-3129.000591227562
 31
0.0
  0
ARC
  5
1E1
330
1F
100
AcDbEntity
  8
0-7_金物
  6
Continuous
 62
     7
370
     9
100
AcDbCircle
 10
-1860.282187242435
 20
-3120.000591227562
 30
0.0
 40
9.000000000000002
100
AcDbArc
 50
180.0
 51
270.0
  0
LINE
  5
1E2
330
1F
100
AcDbEntity
  8
0-7_金物
  6
Continuous
 62
     7
370
     9
100
AcDbLine
 10
-1859.082187242436
 20
-3087.000591227562
 30
0.0
 11
-1847.682187242436
 21
-3087.000591227562
 31
0.0
  0
LINE
  5
1E3
330
1F
100
AcDbEntity
  8
0-7_金物
  6
Continuous
 62
     7
370
     9
100
AcDbLine
 10
-1862.082187242435
 20
-3090.000591227562
 30
0.0
 11
-1862.082187242435
 21
-3121.800591227562
 31
0.0
  0
ARC
  5
1E4
330
1F
100
AcDbEntity
  8
0-7_金物
  6
Continuous
 62
     7
370
     9
100
AcDbCircle
 10
-1859.082187242436
 20
-3090.000591227562
 30
0.0
 40
3.0
100
AcDbArc
 50
90.0
 51
180.0
  0
LINE
  5
1E5
330
1F
100
AcDbEntity
  8
0-7_金物
  6
Continuous
 62
     7
370
     9
100
AcDbLine
 10
-1763.082187242435
 20
-3087.000591227562
 30
0.0
 11
-1774.482187242435
 21
-3087.000591227562
 31
0.0
  0
LINE
  5
1E6
330
1F
100
AcDbEntity
  8
0-7_金物
  6
Continuous
 62
     7
370
     9
100
AcDbLine
 10
-1760.082187242434
 20
-3090.000591227562
 30
0.0
 11
-1760.082187242434
 21
-3121.800591227562
 31
0.0
  0
ARC
  5
1E7
330
1F
100
AcDbEntity
  8
0-7_金物
  6
Continuous
 62
     7
370
     9
100
AcDbCircle
 10
-1763.082187242435
 20
-3090.000591227562
 30
0.0
 40
3.0
100
AcDbArc
 50
0.0
 51
90.0
  0
LINE
  5
1E8
330
1F
100
AcDbEntity
  8
0-7_金物
  6
Continuous
 62
     7
370
     9
100
AcDbLine
 10
-1850.082187242436
 20
-3117.000591227562
 30
0.0
 11
-1850.082187242436
 21
-3121.800591227562
 31
0.0
  0
ARC
  5
1E9
330
1F
100
AcDbEntity
  8
0-7_金物
  6
Continuous
 62
     7
370
     9
100
AcDbCircle
 10
-1848.882187242435
 20
-3117.000591227562
 30
0.0
 40
1.2
100
AcDbArc
 50
90.0
 51
180.0
  0
LINE
  5
1EA
330
1F
100
AcDbEntity
  8
0-7_金物
  6
Continuous
 62
     7
370
     9
100
AcDbLine
 10
-1845.282187242435
 20
-3115.800591227562
 30
0.0
 11
-1848.882187242435
 21
-3115.800591227562
 31
0.0
  0
LINE
  5
1EB
330
1F
100
AcDbEntity
  8
0-7_金物
  6
Continuous
 62
     7
370
     9
100
AcDbLine
 10
-1844.082187242436
 20
-3117.000591227562
 30
0.0
 11
-1844.082187242436
 21
-3121.800591227562
 31
0.0
  0
ARC
  5
1EC
330
1F
100
AcDbEntity
  8
0-7_金物
  6
Continuous
 62
     7
370
     9
100
AcDbCircle
 10
-1845.282187242435
 20
-3117.000591227562
 30
0.0
 40
1.2
100
AcDbArc
 50
0.0
 51
90.0
  0
LINE
  5
1ED
330
1F
100
AcDbEntity
  8
0-7_金物
  6
Continuous
 62
     7
370
     9
100
AcDbLine
 10
-1778.082187242435
 20
-3117.000591227562
 30
0.0
 11
-1778.082187242435
 21
-3121.800591227562
 31
0.0
  0
ARC
  5
1EE
330
1F
100
AcDbEntity
  8
0-7_金物
  6
Continuous
 62
     7
370
     9
100
AcDbCircle
 10
-1776.882187242436
 20
-3117.000591227562
 30
0.0
 40
1.2
100
AcDbArc
 50
90.0
 51
180.0
  0
LINE
  5
1EF
330
1F
100
AcDbEntity
  8
0-7_金物
  6
Continuous
 62
     7
370
     9
100
AcDbLine
 10
-1773.282187242436
 20
-3115.800591227562
 30
0.0
 11
-1776.882187242436
 21
-3115.800591227562
 31
0.0
  0
LINE
  5
1F0
330
1F
100
AcDbEntity
  8
0-7_金物
  6
Continuous
 62
     7
370
     9
100
AcDbLine
 10
-1772.082187242435
 20
-3117.000591227562
 30
0.0
 11
-1772.082187242435
 21
-3121.800591227562
 31
0.0
  0
ARC
  5
1F1
330
1F
100
AcDbEntity
  8
0-7_金物
  6
Continuous
 62
     7
370
     9
100
AcDbCircle
 10
-1773.282187242436
 20
-3117.000591227562
 30
0.0
 40
1.2
100
AcDbArc
 50
0.0
 51
90.0
  0
ARC
  5
1F2
330
1F
100
AcDbEntity
  8
0-7_金物
  6
JWW_DASHED1
 62
     7
370
     9
100
AcDbCircle
 10
-1905.282187242435
 20
-3085.200591227562
 30
0.0
 40
1.8
100
AcDbArc
 50
270.0
 51
90.0
  0
ARC
  5
1F3
330
1F
100
AcDbEntity
  8
0-7_金物
  6
JWW_DASHED1
 62
     7
370
     9
100
AcDbCircle
 10
-1716.882187242436
 20
-3085.200591227562
 30
0.0
 40
1.8
100
AcDbArc
 50
90.0
 51
270.0
  0
LINE
  5
1F4
330
1F
100
AcDbEntity
  8
0-6_扉
  6
Continuous
 62
   200
370
    20
100
AcDbLine
 10
-1892.082736558841
 20
-3036.000220221438
 30
0.0
 11
-1892.082736558841
 21
-1743.000341107218
 31
0.0
  0
LINE
  5
1F5
330
1F
100
AcDbEntity
  8
0-6_扉
  6
Continuous
 62
   200
370
    20
100
AcDbLine
 10
-1730.082736558842
 20
-3036.000220221438
 30
0.0
 11
-1730.082736558842
 21
-1743.000341107218
 31
0.0
  0
LINE
  5
1F6
330
1F
100
AcDbEntity
  8
0-0_補助線
  6
JWW_HOJO
 62
   120
370
     5
100
AcDbLine
 10
-1419.310489290937
 20
-1743.000341107218
 30
0.0
 11
-2226.853473206632
 21
-1743.000341107218
 31
0.0
  0
LINE
  5
1F7
330
1F
100
AcDbEntity
  8
0-0_補助線
  6
JWW_HOJO
 62
   120
370
     5
100
AcDbLine
 10
-1419.310489290937
 20
-1623.000341107217
 30
0.0
 11
-2226.853473206632
 21
-1623.000341107217
 31
0.0
  0
LINE
  5
1F8
330
1F
100
AcDbEntity
  8
0-7_金物
  6
Continuous
 62
     7
370
     9
100
AcDbLine
 10
-1876.078197069093
 20
-381.0000911929959
 30
0.0
 11
-1913.082084245606
 21
-381.0000911929959
 31
0.0
  0
LINE
  5
1F9
330
1F
100
AcDbEntity
  8
0-7_金物
  6
Continuous
 62
     7
370
     9
100
AcDbLine
 10
-1799.081849641723
 20
-420.0000911929988
 30
0.0
 11
-1799.081849641723
 21
-374.9999996402647
 31
0.0
  0
LINE
  5
1FA
330
1F
100
AcDbEntity
  8
0-7_金物
  6
Continuous
 62
     7
370
     9
100
AcDbLine
 10
-1823.082530565189
 20
-374.9999996402647
 30
0.0
 11
-1823.082530565189
 21
-420.0000911929988
 31
0.0
  0
LINE
  5
1FB
330
1F
100
AcDbEntity
  8
0-7_金物
  6
Continuous
 62
     7
370
     9
100
AcDbLine
 10
-1823.082530565189
 20
-420.0000911929988
 30
0.0
 11
-1799.081849641723
 21
-420.0000911929988
 31
0.0
  0
LINE
  5
1FC
330
1F
100
AcDbEntity
  8
0-7_金物
  6
Continuous
 62
     7
370
     9
100
AcDbLine
 10
-1709.08378226273
 20
-374.9999996402647
 30
0.0
 11
-1709.08378226273
 21
-381.0000911929959
 31
0.0
  0
LINE
  5
1FD
330
1F
100
AcDbEntity
  8
0-7_金物
  6
Continuous
 62
     7
370
     9
100
AcDbLine
 10
-1746.86858422272
 20
-381.0000911929959
 30
0.0
 11
-1709.08378226273
 21
-381.0000911929959
 31
0.0
  0
LINE
  5
1FE
330
1F
100
AcDbEntity
  8
0-7_金物
  6
Continuous
 62
     7
370
     9
100
AcDbLine
 10
-1913.082084245606
 20
-374.9999996402647
 30
0.0
 11
-1913.082084245606
 21
-381.0000911929959
 31
0.0
  0
LINE
  5
1FF
330
1F
100
AcDbEntity
  8
0-7_金物
  6
Continuous
 62
     7
370
     9
100
AcDbLine
 10
-1746.86858422272
 20
-381.0000911929959
 30
0.0
 11
-1746.86858422272
 21
-374.9999996402647
 31
0.0
  0
LINE
  5
200
330
1F
100
AcDbEntity
  8
0-7_金物
  6
Continuous
 62
     7
370
     9
100
AcDbLine
 10
-1876.078197069093
 20
-381.0000911929959
 30
0.0
 11
-1876.078197069093
 21
-374.9999996402647
 31
0.0
  0
LINE
  5
201
330
1F
100
AcDbEntity
  8
0-6_扉
  6
Continuous
 62
   200
370
    20
100
AcDbLine
 10
-1892.082736558841
 20
-420.0000911929988
 30
0.0
 11
-1730.082736558842
 21
-420.0000911929988
 31
0.0
  0
LINE
  5
202
330
1F
100
AcDbEntity
  8
0-C_ハッチ
  6
Continuous
 62
   120
370
     5
100
AcDbLine
 10
-1568.956621779197
 20
-375.0389137057962
 30
0.0
 11
-1553.023574601983
 21
-359.1058665285826
 31
0.0
  0
LINE
  5
203
330
1F
100
AcDbEntity
  8
0-C_ハッチ
  6
Continuous
 62
   120
370
     5
100
AcDbLine
 10
-1628.460613160598
 20
-375.1459354674984
 30
0.0
 11
-1552.916565035427
 21
-299.6018873423276
 31
0.0
  0
LINE
  5
204
330
1F
100
AcDbEntity
  8
0-C_ハッチ
  6
Continuous
 62
   120
370
     5
100
AcDbLine
 10
-1687.857582780232
 20
-375.1459354674898
 30
0.0
 11
-1552.916577623296
 21
-240.2049303105468
 31
0.0
  0
LINE
  5
205
330
1F
100
AcDbEntity
  8
0-C_ハッチ
  6
Continuous
 62
   120
370
     5
100
AcDbLine
 10
-1726.91642206764
 20
-354.8078051352471
 30
0.0
 11
-1567.36628206972
 21
-195.2576651373238
 31
0.0
  0
LINE
  5
206
330
1F
100
AcDbEntity
  8
0-C_ハッチ
  6
Continuous
 62
   120
370
     5
100
AcDbLine
 10
-1726.91642206764
 20
-295.4108355155465
 30
0.0
 11
-1626.763251689408
 21
-195.2576651373118
 31
0.0
  0
LINE
  5
207
330
1F
100
AcDbEntity
  8
0-C_ハッチ
  6
Continuous
 62
   120
370
     5
100
AcDbLine
 10
-1746.048033875553
 20
-255.1454777038082
 30
0.0
 11
-1684.916587412438
 21
-194.0140312406925
 31
0.0
  0
LINE
  5
208
330
1F
100
AcDbEntity
  8
0-C_ハッチ
  6
Continuous
 62
   120
370
     5
100
AcDbLine
 10
-1925.44546125894
 20
-375.1459354674967
 30
0.0
 11
-1894.916674910537
 21
-344.6171491190916
 31
0.0
  0
LINE
  5
209
330
1F
100
AcDbEntity
  8
0-C_ハッチ
  6
Continuous
 62
   120
370
     5
100
AcDbLine
 10
-1805.445003495272
 20
-255.1454777038248
 30
0.0
 11
-1709.445644364386
 21
-159.1461185729395
 31
0.0
  0
LINE
  5
20A
330
1F
100
AcDbEntity
  8
0-C_ハッチ
  6
Continuous
 62
   120
370
     5
100
AcDbLine
 10
-1984.842430878574
 20
-375.1459354674788
 30
0.0
 11
-1894.916674910557
 21
-285.2201794994647
 31
0.0
  0
LINE
  5
20B
330
1F
100
AcDbEntity
  8
0-C_ハッチ
  6
Continuous
 62
   120
370
     5
100
AcDbLine
 10
-1864.841973114899
 20
-255.1454777038043
 30
0.0
 11
-1768.842613984041
 21
-159.146118572948
 31
0.0
  0
LINE
  5
20C
330
1F
100
AcDbEntity
  8
0-C_ハッチ
  6
Continuous
 62
   120
370
     5
100
AcDbLine
 10
-2044.239400498293
 20
-375.1459354674984
 30
0.0
 11
-1828.239583603742
 21
-159.146118572948
 31
0.0
  0
LINE
  5
20D
330
1F
100
AcDbEntity
  8
0-C_ハッチ
  6
Continuous
 62
   120
370
     5
100
AcDbLine
 10
-2068.916556383646
 20
-340.4261217332078
 30
0.0
 11
-1887.636553223386
 21
-159.146118572942
 31
0.0
  0
LINE
  5
20E
330
1F
100
AcDbEntity
  8
0-C_ハッチ
  6
Continuous
 62
   120
370
     5
100
AcDbLine
 10
-2068.916568971494
 20
-281.0291647014083
 30
0.0
 11
-1983.145069407404
 21
-195.2576651373127
 31
0.0
  0
LINE
  5
20F
330
1F
100
AcDbEntity
  8
0-C_ハッチ
  6
Continuous
 62
   120
370
     5
100
AcDbLine
 10
-2068.916581559369
 20
-221.6322076695772
 30
0.0
 11
-2042.542039027103
 21
-195.2576651373101
 31
0.0
  0
LINE
  5
210
330
1F
100
AcDbEntity
  8
0-4_枠
  6
Continuous
 62
    92
370
    13
100
AcDbLine
 10
-1936.916594801914
 20
-159.1460905984758
 30
0.0
 11
-1936.916587148869
 21
-195.2576651373059
 31
0.0
  0
LINE
  5
211
330
1F
100
AcDbEntity
  8
0-4_枠
  6
Continuous
 62
    92
370
    13
100
AcDbLine
 10
-1894.916674910554
 20
-255.145477703806
 30
0.0
 11
-1894.916674910554
 21
-375.1459354674779
 31
0.0
  0
LINE
  5
212
330
1F
100
AcDbEntity
  8
0-4_枠
  6
Continuous
 62
    92
370
    13
100
AcDbLine
 10
-1726.916422067651
 20
-255.145477703806
 30
0.0
 11
-1894.916674910554
 21
-255.145477703806
 31
0.0
  0
LINE
  5
213
330
1F
100
AcDbEntity
  8
0-4_枠
  6
Continuous
 62
    92
370
    13
100
AcDbLine
 10
-1726.916422067651
 20
-375.1459354674779
 30
0.0
 11
-1726.916422067651
 21
-255.145477703806
 31
0.0
  0
LINE
  5
214
330
1F
100
AcDbEntity
  8
0-4_枠
  6
Continuous
 62
    92
370
    13
100
AcDbLine
 10
-1570.916552840247
 20
-375.1459354674779
 30
0.0
 11
-1726.916422067651
 21
-375.1459354674779
 31
0.0
  0
ARC
  5
215
330
1F
100
AcDbEntity
  8
0-4_枠
  6
Continuous
 62
    92
370
    13
100
AcDbCircle
 10
-1570.916552840247
 20
-357.1459354674789
 30
0.0
 40
18.0
100
AcDbArc
 50
270.0
 51
0.0000121425689963
  0
LINE
  5
216
330
1F
100
AcDbEntity
  8
0-4_枠
  6
Continuous
 62
    92
370
    13
100
AcDbLine
 10
-2050.916552840246
 20
-375.1459354674779
 30
0.0
 11
-1894.916674910554
 21
-375.1459354674779
 31
0.0
  0
ARC
  5
217
330
1F
100
AcDbEntity
  8
0-4_枠
  6
Continuous
 62
    92
370
    13
100
AcDbCircle
 10
-2050.916552840246
 20
-357.1459354674789
 30
0.0
 40
18.0
100
AcDbArc
 50
180.000012142569
 51
270.0
  0
LINE
  5
218
330
1F
100
AcDbEntity
  8
0-4_枠
  6
Continuous
 62
    92
370
    13
100
AcDbLine
 10
-1684.916587148876
 20
-195.2576651373059
 30
0.0
 11
-1552.916594801913
 21
-195.2576651373059
 31
0.0
  0
LINE
  5
219
330
1F
100
AcDbEntity
  8
0-4_枠
  6
Continuous
 62
    92
370
    13
100
AcDbLine
 10
-1684.916594801916
 20
-159.146118572948
 30
0.0
 11
-1936.916594801909
 21
-159.146118572948
 31
0.0
  0
LINE
  5
21A
330
1F
100
AcDbEntity
  8
0-4_枠
  6
Continuous
 62
    92
370
    13
100
AcDbLine
 10
-1684.916594801916
 20
-159.146118572948
 30
0.0
 11
-1684.916587172515
 21
-195.1461185729477
 31
0.0
  0
LINE
  5
21B
330
1F
100
AcDbEntity
  8
0-4_枠
  6
Continuous
 62
    92
370
    13
100
AcDbLine
 10
-1552.916552840246
 20
-357.1459316527785
 30
0.0
 11
-1552.916587172512
 21
-195.1461185729477
 31
0.0
  0
LINE
  5
21C
330
1F
100
AcDbEntity
  8
0-4_枠
  6
Continuous
 62
    92
370
    13
100
AcDbLine
 10
-2068.916552840244
 20
-357.1459392821794
 30
0.0
 11
-2068.916587148871
 21
-195.2576651373059
 31
0.0
  0
LINE
  5
21D
330
1F
100
AcDbEntity
  8
0-4_枠
  6
Continuous
 62
    92
370
    13
100
AcDbLine
 10
-1936.916587148869
 20
-195.2576651373059
 30
0.0
 11
-2068.916587148871
 21
-195.2576651373059
 31
0.0
  0
LINE
  5
21E
330
1F
100
AcDbEntity
  8
0-7_金物
  6
Continuous
 62
     7
370
     9
100
AcDbLine
 10
-1875.912558852204
 20
-381.1460270202133
 30
0.0
 11
-1912.916446028719
 21
-381.1460270202133
 31
0.0
  0
LINE
  5
21F
330
1F
100
AcDbEntity
  8
0-7_金物
  6
Continuous
 62
     7
370
     9
100
AcDbLine
 10
-1840.918139754303
 20
-375.1459354674779
 30
0.0
 11
-1780.916451750763
 21
-375.1459354674779
 31
0.0
  0
LINE
  5
220
330
1F
100
AcDbEntity
  8
0-7_金物
  6
Continuous
 62
     7
370
     9
100
AcDbLine
 10
-1876.736533461579
 20
-361.9336857116195
 30
0.0
 11
-1840.918139754303
 21
-361.9336857116195
 31
0.0
  0
LINE
  5
221
330
1F
100
AcDbEntity
  8
0-7_金物
  6
Continuous
 62
     7
370
     9
100
AcDbLine
 10
-1780.916451750763
 20
-361.9336857116195
 30
0.0
 11
-1744.737285910614
 21
-361.9336857116195
 31
0.0
  0
LINE
  5
222
330
1F
100
AcDbEntity
  8
0-7_金物
  6
Continuous
 62
     7
370
     9
100
AcDbLine
 10
-1708.918144045838
 20
-375.1459354674779
 30
0.0
 11
-1708.918144045838
 21
-381.1460270202133
 31
0.0
  0
LINE
  5
223
330
1F
100
AcDbEntity
  8
0-7_金物
  6
Continuous
 62
     7
370
     9
100
AcDbLine
 10
-1746.702946005828
 20
-381.1460270202133
 30
0.0
 11
-1708.918144045838
 21
-381.1460270202133
 31
0.0
  0
LINE
  5
224
330
1F
100
AcDbEntity
  8
0-7_金物
  6
Continuous
 62
     7
370
     9
100
AcDbLine
 10
-1912.916446028719
 20
-375.1459354674779
 30
0.0
 11
-1912.916446028719
 21
-381.1460270202133
 31
0.0
  0
LINE
  5
225
330
1F
100
AcDbEntity
  8
0-7_金物
  6
Continuous
 62
     7
370
     9
100
AcDbLine
 10
-1746.702946005828
 20
-375.1459354674779
 30
0.0
 11
-1738.916015444764
 21
-375.1459354674779
 31
0.0
  0
LINE
  5
226
330
1F
100
AcDbEntity
  8
0-7_金物
  6
Continuous
 62
     7
370
     9
100
AcDbLine
 10
-1746.702946005828
 20
-381.1460270202133
 30
0.0
 11
-1746.702946005828
 21
-375.1459354674779
 31
0.0
  0
LINE
  5
227
330
1F
100
AcDbEntity
  8
0-7_金物
  6
Continuous
 62
     7
370
     9
100
AcDbLine
 10
-1726.916422067651
 20
-375.1459354674779
 30
0.0
 11
-1708.918144045838
 21
-375.1459354674779
 31
0.0
  0
LINE
  5
228
330
1F
100
AcDbEntity
  8
0-7_金物
  6
Continuous
 62
     7
370
     9
100
AcDbLine
 10
-1882.916343031892
 20
-375.1459354674779
 30
0.0
 11
-1875.912558852204
 21
-375.1459354674779
 31
0.0
  0
LINE
  5
229
330
1F
100
AcDbEntity
  8
0-7_金物
  6
Continuous
 62
     7
370
     9
100
AcDbLine
 10
-1875.912558852204
 20
-381.1460270202133
 30
0.0
 11
-1875.912558852204
 21
-375.1459354674779
 31
0.0
  0
LINE
  5
22A
330
1F
100
AcDbEntity
  8
0-7_金物
  6
Continuous
 62
     7
370
     9
100
AcDbLine
 10
-1894.916674910554
 20
-375.1459354674779
 30
0.0
 11
-1912.916446028719
 21
-375.1459354674779
 31
0.0
  0
LINE
  5
22B
330
1F
100
AcDbEntity
  8
0-7_金物
  6
Continuous
 62
     7
370
     9
100
AcDbLine
 10
-1840.918139754303
 20
-295.9336857116199
 30
0.0
 11
-1876.736533461579
 21
-295.9336857116199
 31
0.0
  0
LINE
  5
22C
330
1F
100
AcDbEntity
  8
0-7_金物
  6
Continuous
 62
     7
370
     9
100
AcDbLine
 10
-1876.736533461579
 20
-295.9336857116199
 30
0.0
 11
-1876.736533461579
 21
-361.9336857116195
 31
0.0
  0
LINE
  5
22D
330
1F
100
AcDbEntity
  8
0-7_金物
  6
Continuous
 62
     7
370
     9
100
AcDbLine
 10
-1840.918139754303
 20
-279.1454777038055
 30
0.0
 11
-1840.918139754303
 21
-375.1459354674779
 31
0.0
  0
LINE
  5
22E
330
1F
100
AcDbEntity
  8
0-7_金物
  6
Continuous
 62
     7
370
     9
100
AcDbLine
 10
-1780.916451750763
 20
-279.1454777038055
 30
0.0
 11
-1840.918139754303
 21
-279.1454777038055
 31
0.0
  0
LINE
  5
22F
330
1F
100
AcDbEntity
  8
0-7_金物
  6
Continuous
 62
     7
370
     9
100
AcDbLine
 10
-1780.916451750763
 20
-375.1459354674779
 30
0.0
 11
-1780.916451750763
 21
-279.1454777038055
 31
0.0
  0
LINE
  5
230
330
1F
100
AcDbEntity
  8
0-7_金物
  6
Continuous
 62
     7
370
     9
100
AcDbLine
 10
-1744.737285910614
 20
-295.9336857116199
 30
0.0
 11
-1780.916451750763
 21
-295.9336857116199
 31
0.0
  0
LINE
  5
231
330
1F
100
AcDbEntity
  8
0-7_金物
  6
Continuous
 62
     7
370
     9
100
AcDbLine
 10
-1744.737285910614
 20
-361.9336857116195
 30
0.0
 11
-1744.737285910614
 21
-295.9336857116199
 31
0.0
  0
LINE
  5
232
330
1F
100
AcDbEntity
  8
0-7_金物
  6
Continuous
 62
     7
370
     9
100
AcDbLine
 10
-1738.916015444764
 20
-375.1459354674779
 30
0.0
 11
-1738.916015444764
 21
-267.1458439147449
 31
0.0
  0
LINE
  5
233
330
1F
100
AcDbEntity
  8
0-7_金物
  6
Continuous
 62
     7
370
     9
100
AcDbLine
 10
-1738.916015444764
 20
-267.1458439147449
 30
0.0
 11
-1882.916343031892
 21
-267.1458439147449
 31
0.0
  0
LINE
  5
234
330
1F
100
AcDbEntity
  8
0-7_金物
  6
Continuous
 62
     7
370
     9
100
AcDbLine
 10
-1882.916343031892
 20
-267.1458439147449
 30
0.0
 11
-1882.916343031892
 21
-375.1459354674779
 31
0.0
  0
LINE
  5
235
330
1F
100
AcDbEntity
  8
0-4_枠
  6
Continuous
 62
   120
370
     5
100
AcDbLine
 10
-1552.916594801913
 20
-195.2576651373059
 30
0.0
 11
-1535.082187242431
 21
-195.2576651373059
 31
0.0
  0
LINE
  5
236
330
1F
100
AcDbEntity
  8
0-4_枠
  6
Continuous
 62
   120
370
     5
100
AcDbLine
 10
-2068.916587148871
 20
-195.2576651373059
 30
0.0
 11
-2087.082187242435
 21
-195.2576651373059
 31
0.0
  0
LINE
  5
237
330
1F
100
AcDbEntity
  8
0-7_金物
  6
Continuous
 62
     7
370
     9
100
AcDbLine
 10
-1757.08215291016
 20
-159.146118572948
 30
0.0
 11
-1757.08215291016
 21
-135.0001289275703
 31
0.0
  0
LINE
  5
238
330
1F
100
AcDbEntity
  8
0-7_金物
  6
Continuous
 62
     7
370
     9
100
AcDbLine
 10
-1865.082221574711
 20
-135.0001289275703
 30
0.0
 11
-1865.082221574711
 21
-159.146118572948
 31
0.0
  0
LINE
  5
239
330
1F
100
AcDbEntity
  8
0-7_金物
  6
Continuous
 62
     7
370
     9
100
AcDbLine
 10
-1871.082387514042
 20
-135.0001289275703
 30
0.0
 11
-1751.082730836796
 21
-135.0001289275703
 31
0.0
  0
LINE
  5
23A
330
1F
100
AcDbEntity
  8
0-7_金物
  6
Continuous
 62
     7
370
     9
100
AcDbLine
 10
-1751.082730836796
 20
-123.0005351928277
 30
0.0
 11
-1751.082730836796
 21
-135.0001289275703
 31
0.0
  0
LINE
  5
23B
330
1F
100
AcDbEntity
  8
0-7_金物
  6
Continuous
 62
     7
370
     9
100
AcDbLine
 10
-1871.082387514042
 20
-123.0005351928277
 30
0.0
 11
-1871.082387514042
 21
-135.0001289275703
 31
0.0
  0
LINE
  5
23C
330
1F
100
AcDbEntity
  8
0-7_金物
  6
Continuous
 62
     7
370
     9
100
AcDbLine
 10
-1901.082490510869
 20
-111.0001975921205
 30
0.0
 11
-1721.082627839972
 21
-111.0001975921205
 31
0.0
  0
LINE
  5
23D
330
1F
100
AcDbEntity
  8
0-7_金物
  6
Continuous
 62
     7
370
     9
100
AcDbLine
 10
-1901.082490510869
 20
-111.0001975921205
 30
0.0
 11
-1901.082490510869
 21
-123.0005351928277
 31
0.0
  0
LINE
  5
23E
330
1F
100
AcDbEntity
  8
0-7_金物
  6
Continuous
 62
     7
370
     9
100
AcDbLine
 10
-1721.082627839972
 20
-111.0001975921205
 30
0.0
 11
-1721.082627839972
 21
-123.0005351928277
 31
0.0
  0
LINE
  5
23F
330
1F
100
AcDbEntity
  8
0-7_金物
  6
Continuous
 62
     7
370
     9
100
AcDbLine
 10
-1901.082490510869
 20
-123.0005351928277
 30
0.0
 11
-1721.082627839972
 21
-123.0005351928277
 31
0.0
  0
LINE
  5
240
330
1F
100
AcDbEntity
  8
0-3_仕上げ
  6
Continuous
 62
   120
370
     5
100
AcDbLine
 10
-2021.082187242435
 20
-111.0001975921205
 30
0.0
 11
-1601.082187242435
 21
-111.0001975921205
 31
0.0
  0
LINE
  5
241
330
1F
100
AcDbEntity
  8
0-3_仕上げ
  6
Continuous
 62
   120
370
     5
100
AcDbLine
 10
-1601.082187242435
 20
-111.0001975921205
 30
0.0
 11
-1601.082187242435
 21
68.9998024078821
 31
0.0
  0
LINE
  5
242
330
1F
100
AcDbEntity
  8
0-3_仕上げ
  6
Continuous
 62
   120
370
     5
100
AcDbLine
 10
-1601.082187242435
 20
68.9998024078821
 30
0.0
 11
-2021.082187242435
 21
68.9998024078821
 31
0.0
  0
LINE
  5
243
330
1F
100
AcDbEntity
  8
0-3_仕上げ
  6
Continuous
 62
   120
370
     5
100
AcDbLine
 10
-2021.082187242435
 20
68.9998024078821
 30
0.0
 11
-2021.082187242435
 21
-111.0001975921205
 31
0.0
  0
LINE
  5
244
330
1F
100
AcDbEntity
  8
0-3_仕上げ
  6
Continuous
 62
   120
370
     5
100
AcDbLine
 10
-1601.082187242435
 20
68.9998024078821
 30
0.0
 11
-2021.082187242435
 21
-111.0001975921205
 31
0.0
  0
LINE
  5
245
330
1F
100
AcDbEntity
  8
0-6_扉
  6
Continuous
 62
   200
370
    20
100
AcDbLine
 10
-1892.082736558841
 20
-1623.000341107217
 30
0.0
 11
-1892.082736558841
 21
-420.0000911929988
 31
0.0
  0
LINE
  5
246
330
1F
100
AcDbEntity
  8
0-6_扉
  6
Continuous
 62
   200
370
    20
100
AcDbLine
 10
-1730.082736558842
 20
-1623.000341107217
 30
0.0
 11
-1730.082736558842
 21
-420.0000911929988
 31
0.0
  0
LWPOLYLINE
  5
247
330
1F
100
AcDbEntity
  8
0-B_寸法
  6
Continuous
 62
     7
370
     9
100
AcDbPolyline
 90
        4
 70
     1
 43
3.0
 10
-426.0967728499114
 20
-3159.000197951857
 42
0.4142135623731
 10
-427.5967728499114
 20
-3157.500197951857
 42
0.4142135623731
 10
-429.0967728499114
 20
-3159.000197951857
 42
0.4142135623731
 10
-427.5967728499114
 20
-3160.500197951857
 42
0.4142135623731
  0
LINE
  5
248
330
1F
100
AcDbEntity
  8
0-B_寸法
  6
Continuous
 62
   120
370
     5
100
AcDbLine
 10
-1057.596207583693
 20
-3159.000197951857
 30
0.0
 11
-427.5967728499114
 21
-3159.000197951857
 31
0.0
  0
LINE
  5
249
330
1F
100
AcDbEntity
  8
0-0_補助線
  6
JWW_HOJO
 62
   120
370
     5
100
AcDbLine
 10
-1057.596192324935
 20
-3159.000012345733
 30
0.0
 11
-382.9159748299986
 21
-3159.000012345733
 31
0.0
  0
LINE
  5
24A
330
1F
100
AcDbEntity
  8
0-3_仕上げ
  6
Continuous
 62
    40
370
    15
100
AcDbLine
 10
-1057.596207583693
 20
-3087.00022022144
 30
0.0
 11
-1736.082187242435
 21
-3087.00022022144
 31
0.0
  0
LINE
  5
24B
330
1F
100
AcDbEntity
  8
0-3_仕上げ
  6
Continuous
 62
     7
370
     9
100
AcDbLine
 10
-1736.082187242435
 20
-3147.000232593433
 30
0.0
 11
-1057.596207583693
 21
-3147.000232593433
 31
0.0
  0
LINE
  5
24C
330
1F
100
AcDbEntity
  8
0-3_仕上げ
  6
Continuous
 62
     7
370
     9
100
AcDbLine
 10
-1736.082187242435
 20
-3098.999999999995
 30
0.0
 11
-1057.596207583693
 21
-3098.999999999995
 31
0.0
  0
LINE
  5
24D
330
1F
100
AcDbEntity
  8
0-3_仕上げ
  6
Continuous
 62
     7
370
     9
100
AcDbLine
 10
-1736.082187242435
 20
-3111.00015093829
 30
0.0
 11
-1057.596207583693
 21
-3111.00015093829
 31
0.0
  0
LINE
  5
24E
330
1F
100
AcDbEntity
  8
0-3_仕上げ
  6
Continuous
 62
     7
370
     9
100
AcDbLine
 10
-1736.082187242435
 20
-3123.000116296712
 30
0.0
 11
-1057.596207583693
 21
-3123.000116296712
 31
0.0
  0
LINE
  5
24F
330
1F
100
AcDbEntity
  8
0-3_仕上げ
  6
Continuous
 62
     7
370
     9
100
AcDbLine
 10
-1736.082187242435
 20
-3135.000081655137
 30
0.0
 11
-1057.596207583693
 21
-3135.000081655137
 31
0.0
  0
LWPOLYLINE
  5
250
330
1F
100
AcDbEntity
  8
0-B_寸法
  6
Continuous
 62
     7
370
     9
100
AcDbPolyline
 90
        4
 70
     1
 43
3.0
 10
-426.0967728499114
 20
-159.0001975921203
 42
0.4142135623731
 10
-427.5967728499114
 20
-157.5001975921203
 42
0.4142135623731
 10
-429.0967728499114
 20
-159.0001975921203
 42
0.4142135623731
 10
-427.5967728499114
 20
-160.5001975921203
 42
0.4142135623731
  0
LINE
  5
251
330
1F
100
AcDbEntity
  8
0-B_寸法
  6
Continuous
 62
   120
370
     5
100
AcDbLine
 10
-1057.596828162969
 20
-159.0001975921203
 30
0.0
 11
-427.5967728499114
 21
-159.0001975921203
 31
0.0
  0
LINE
  5
252
330
1F
100
AcDbEntity
  8
0-B_寸法
  6
Continuous
 62
   120
370
     5
100
AcDbLine
 10
-427.5967728499114
 20
-111.0001975921205
 30
0.0
 11
-1057.596828162969
 21
-111.0001975921205
 31
0.0
  0
LWPOLYLINE
  5
253
330
1F
100
AcDbEntity
  8
0-B_寸法
  6
Continuous
 62
     7
370
     9
100
AcDbPolyline
 90
        4
 70
     1
 43
3.0
 10
-426.0967728499114
 20
-111.0001975921205
 42
0.4142135623731
 10
-427.5967728499114
 20
-109.5001975921205
 42
0.4142135623731
 10
-429.0967728499114
 20
-111.0001975921205
 42
0.4142135623731
 10
-427.5967728499114
 20
-112.5001975921205
 42
0.4142135623731
  0
LINE
  5
254
330
1F
100
AcDbEntity
  8
0-0_補助線
  6
JWW_HOJO
 62
   120
370
     5
100
AcDbLine
 10
-427.5960175250071
 20
-3159.000012345731
 30
0.0
 11
-427.5966702939462
 21
-111.0001975921
 31
0.0
  0
LINE
  5
255
330
1F
100
AcDbEntity
  8
0-B_寸法
  6
Continuous
 62
   120
370
     5
100
AcDbLine
 10
-427.5967728499114
 20
-111.0001975921205
 30
0.0
 11
-427.5967728499114
 21
-3159.000197951857
 31
0.0
  0
LWPOLYLINE
  5
256
330
1F
100
AcDbEntity
  8
0-B_寸法
  6
Continuous
 62
     7
370
     9
100
AcDbPolyline
 90
        4
 70
     1
 43
3.0
 10
-606.0962076982876
 20
-3086.999849061705
 42
0.4142135623731
 10
-607.5962076982876
 20
-3085.499849061705
 42
0.4142135623731
 10
-609.0962076982876
 20
-3086.999849061705
 42
0.4142135623731
 10
-607.5962076982876
 20
-3088.499849061705
 42
0.4142135623731
  0
LWPOLYLINE
  5
257
330
1F
100
AcDbEntity
  8
0-B_寸法
  6
Continuous
 62
     7
370
     9
100
AcDbPolyline
 90
        4
 70
     1
 43
3.0
 10
-606.0962076982876
 20
-3158.999826792122
 42
0.4142135623731
 10
-607.5962076982876
 20
-3157.499826792122
 42
0.4142135623731
 10
-609.0962076982876
 20
-3158.999826792122
 42
0.4142135623731
 10
-607.5962076982876
 20
-3160.499826792122
 42
0.4142135623731
  0
LINE
  5
258
330
1F
100
AcDbEntity
  8
0-B_寸法
  6
Continuous
 62
   120
370
     5
100
AcDbLine
 10
-1057.596207583774
 20
-3086.999849061705
 30
0.0
 11
-607.5962076982876
 21
-3086.999849061705
 31
0.0
  0
MTEXT
  5
259
330
1F
100
AcDbEntity
  8
0-A_文字
  6
Continuous
 62
     7
370
     9
100
AcDbMText
 10
-2762.082187242434
 20
189.2874880529888
 30
0.0
 40
91.44000000000001
 41
1800.0
 46
0.0
 71
     7
 72
     1
  1
{\fＭＳ ゴシック|b0|i0|c128|p49;　[３方枠＋レール(レール埋込)]}
 73
     1
 44
1.0
  0
LWPOLYLINE
  5
25A
330
1F
100
AcDbEntity
  8
0-B_寸法
  6
Continuous
 62
     7
370
     9
100
AcDbPolyline
 90
        4
 70
     1
 43
3.0
 10
-606.0962076982876
 20
-159.0001975921203
 42
0.4142135623731
 10
-607.5962076982876
 20
-157.5001975921203
 42
0.4142135623731
 10
-609.0962076982876
 20
-159.0001975921203
 42
0.4142135623731
 10
-607.5962076982876
 20
-160.5001975921203
 42
0.4142135623731
  0
LWPOLYLINE
  5
25B
330
1F
100
AcDbEntity
  8
0-B_寸法
  6
Continuous
 62
     7
370
     9
100
AcDbPolyline
 90
        4
 70
     1
 43
3.0
 10
-606.0962076982876
 20
-374.9992028840327
 42
0.4142135623731
 10
-607.5962076982876
 20
-373.4992028840327
 42
0.4142135623731
 10
-609.0962076982876
 20
-374.9992028840327
 42
0.4142135623731
 10
-607.5962076982876
 20
-376.4992028840327
 42
0.4142135623731
  0
MTEXT
  5
25C
330
1F
100
AcDbEntity
  8
0-A_文字
  6
Continuous
 62
     7
370
   211
100
AcDbMText
 10
-1871.08219435633
 20
-2762.781688472512
 30
0.0
 40
91.44
 41
120.0
 46
0.0
 71
     7
 72
     1
  1
{\fＭＳ ゴシック|b0|i0|c128|p49;32}
 73
     1
 44
1.0
  0
LINE
  5
25D
330
1F
100
AcDbEntity
  8
0-B_寸法
  6
Continuous
 62
   120
370
     5
100
AcDbLine
 10
-607.5962076982876
 20
-3158.999826792122
 30
0.0
 11
-607.5962076982876
 21
-159.0001975921203
 31
0.0
  0
LWPOLYLINE
  5
25E
330
1F
100
AcDbEntity
  8
0-B_寸法
  6
Continuous
 62
     7
370
     9
100
AcDbPolyline
 90
        4
 70
     1
 43
3.0
 10
-786.0962076982893
 20
-3086.999849061705
 42
0.4142135623731
 10
-787.5962076982893
 20
-3085.499849061705
 42
0.4142135623731
 10
-789.0962076982893
 20
-3086.999849061705
 42
0.4142135623731
 10
-787.5962076982893
 20
-3088.499849061705
 42
0.4142135623731
  0
LWPOLYLINE
  5
25F
330
1F
100
AcDbEntity
  8
0-B_寸法
  6
Continuous
 62
     7
370
     9
100
AcDbPolyline
 90
        4
 70
     1
 43
3.0
 10
-786.0962076982893
 20
-3035.9997179186
 42
0.4142135623731
 10
-787.5962076982893
 20
-3034.4997179186
 42
0.4142135623731
 10
-789.0962076982893
 20
-3035.9997179186
 42
0.4142135623731
 10
-787.5962076982893
 20
-3037.4997179186
 42
0.4142135623731
  0
LINE
  5
260
330
1F
100
AcDbEntity
  8
0-B_寸法
  6
Continuous
 62
   120
370
     5
100
AcDbLine
 10
-1057.596218392119
 20
-3035.9997179186
 30
0.0
 11
-787.5962076982893
 21
-3035.9997179186
 31
0.0
  0
LINE
  5
261
330
1F
100
AcDbEntity
  8
0-B_寸法
  6
Continuous
 62
   120
370
     5
100
AcDbLine
 10
-787.5962076982893
 20
-3158.999826792122
 30
0.0
 11
-607.5962076982876
 21
-3158.999826792122
 31
0.0
  0
LWPOLYLINE
  5
262
330
1F
100
AcDbEntity
  8
0-B_寸法
  6
Continuous
 62
     7
370
     9
100
AcDbPolyline
 90
        4
 70
     1
 43
3.0
 10
-786.0962076982893
 20
-419.9997225076635
 42
0.4142135623731
 10
-787.5962076982893
 20
-418.4997225076635
 42
0.4142135623731
 10
-789.0962076982893
 20
-419.9997225076635
 42
0.4142135623731
 10
-787.5962076982893
 20
-421.4997225076635
 42
0.4142135623731
  0
LWPOLYLINE
  5
263
330
1F
100
AcDbEntity
  8
0-B_寸法
  6
Continuous
 62
     7
370
     9
100
AcDbPolyline
 90
        4
 70
     1
 43
3.0
 10
-786.0962076982893
 20
-374.9995740437697
 42
0.4142135623731
 10
-787.5962076982893
 20
-373.4995740437697
 42
0.4142135623731
 10
-789.0962076982893
 20
-374.9995740437697
 42
0.4142135623731
 10
-787.5962076982893
 20
-376.4995740437697
 42
0.4142135623731
  0
LINE
  5
264
330
1F
100
AcDbEntity
  8
0-B_寸法
  6
Continuous
 62
   120
370
     5
100
AcDbLine
 10
-1057.596772849911
 20
-419.9997225076635
 30
0.0
 11
-787.5962076982893
 21
-419.9997225076635
 31
0.0
  0
LINE
  5
265
330
1F
100
AcDbEntity
  8
0-B_寸法
  6
Continuous
 62
   120
370
     5
100
AcDbLine
 10
-1057.596782386689
 20
-374.9995740437697
 30
0.0
 11
-787.5962076982893
 21
-374.9995740437697
 31
0.0
  0
LINE
  5
266
330
1F
100
AcDbEntity
  8
0-B_寸法
  6
Continuous
 62
   120
370
     5
100
AcDbLine
 10
-787.5962076982893
 20
-3086.999849061705
 30
0.0
 11
-787.5962076982893
 21
-374.9995740437697
 31
0.0
  0
LINE
  5
267
330
1F
100
AcDbEntity
  8
0-B_寸法
  6
Continuous
 62
   120
370
     5
100
AcDbLine
 10
-787.5962076982893
 20
-374.9992028840327
 30
0.0
 11
-607.5962076982876
 21
-374.9992028840327
 31
0.0
  0
LWPOLYLINE
  5
268
330
1F
100
AcDbEntity
  8
0-B_寸法
  6
Continuous
 62
     7
370
     9
100
AcDbPolyline
 90
        4
 70
     1
 43
3.0
 10
-2760.582187242434
 20
-3159.000197951857
 42
0.4142135623731
 10
-2762.082187242434
 20
-3157.500197951857
 42
0.4142135623731
 10
-2763.582187242434
 20
-3159.000197951857
 42
0.4142135623731
 10
-2762.082187242434
 20
-3160.500197951857
 42
0.4142135623731
  0
LWPOLYLINE
  5
269
330
1F
100
AcDbEntity
  8
0-B_寸法
  6
Continuous
 62
     7
370
     9
100
AcDbPolyline
 90
        4
 70
     1
 43
3.0
 10
-2760.582187242434
 20
-111.0001975921205
 42
0.4142135623731
 10
-2762.082187242434
 20
-109.5001975921205
 42
0.4142135623731
 10
-2763.582187242434
 20
-111.0001975921205
 42
0.4142135623731
 10
-2762.082187242434
 20
-112.5001975921205
 42
0.4142135623731
  0
LINE
  5
26A
330
1F
100
AcDbEntity
  8
0-B_寸法
  6
Continuous
 62
   120
370
     5
100
AcDbLine
 10
-2762.082187242434
 20
-111.0001975921205
 30
0.0
 11
-2762.082187242434
 21
-3159.000197951857
 31
0.0
  0
LINE
  5
26B
330
1F
100
AcDbEntity
  8
0-0_補助線
  6
JWW_HOJO
 62
   120
370
     5
100
AcDbLine
 10
-2762.082187242434
 20
-3159.000197745733
 30
0.0
 11
-427.5967728499012
 21
-3159.000197745733
 31
0.0
  0
LINE
  5
26C
330
1F
100
AcDbEntity
  8
0-3_仕上げ
  6
Continuous
 62
    40
370
    15
100
AcDbLine
 10
-2402.082187242434
 20
-3087.00022022144
 30
0.0
 11
-1886.082187242435
 21
-3087.00022022144
 31
0.0
  0
LINE
  5
26D
330
1F
100
AcDbEntity
  8
0-3_仕上げ
  6
Continuous
 62
     7
370
     9
100
AcDbLine
 10
-2402.082187242434
 20
-3147.000232593433
 30
0.0
 11
-1886.082187242435
 21
-3147.000232593433
 31
0.0
  0
LINE
  5
26E
330
1F
100
AcDbEntity
  8
0-3_仕上げ
  6
Continuous
 62
     7
370
     9
100
AcDbLine
 10
-2402.082187242434
 20
-3098.999999999995
 30
0.0
 11
-1886.082187242435
 21
-3098.999999999995
 31
0.0
  0
LINE
  5
26F
330
1F
100
AcDbEntity
  8
0-3_仕上げ
  6
Continuous
 62
     7
370
     9
100
AcDbLine
 10
-2402.082187242434
 20
-3111.00015093829
 30
0.0
 11
-1886.082187242435
 21
-3111.00015093829
 31
0.0
  0
LINE
  5
270
330
1F
100
AcDbEntity
  8
0-3_仕上げ
  6
Continuous
 62
     7
370
     9
100
AcDbLine
 10
-2402.082187242434
 20
-3123.000116296712
 30
0.0
 11
-1886.082187242435
 21
-3123.000116296712
 31
0.0
  0
LINE
  5
271
330
1F
100
AcDbEntity
  8
0-3_仕上げ
  6
Continuous
 62
     7
370
     9
100
AcDbLine
 10
-2402.082187242434
 20
-3135.000081655137
 30
0.0
 11
-1886.082187242435
 21
-3135.000081655137
 31
0.0
  0
LINE
  5
272
330
1F
100
AcDbEntity
  8
0-3_仕上げ
  6
Continuous
 62
    40
370
    15
100
AcDbLine
 10
-2402.082187242434
 20
-3159.000197951857
 30
0.0
 11
-1057.596207583693
 21
-3159.000197951857
 31
0.0
  0
LINE
  5
273
330
1F
100
AcDbEntity
  8
0-B_寸法
  6
Continuous
 62
   120
370
     5
100
AcDbLine
 10
-2762.082187242434
 20
-3159.000197951857
 30
0.0
 11
-2402.082927308577
 21
-3159.000197951857
 31
0.0
  0
LINE
  5
274
330
1F
100
AcDbEntity
  8
0-B_寸法
  6
Continuous
 62
   120
370
     5
100
AcDbLine
 10
-2762.082187242434
 20
-111.0001975921205
 30
0.0
 11
-2402.082927308577
 21
-111.0001975921205
 31
0.0
  0
MTEXT
  5
275
330
1F
100
AcDbEntity
  8
0-B_寸法
  6
Continuous
 62
     7
370
   211
100
AcDbMText
 10
-442.5967728499114
 20
-122.7581210126577
 30
0.0
 40
91.44
 41
60.0
 46
0.0
 71
     7
 72
     1
  1
{\fＭＳ ゴシック|b0|i0|c128|p49;8}
 11
6.123031769111886E-17
 21
1.0
 31
0.0
 73
     1
 44
1.0
  0
MTEXT
  5
276
330
1F
100
AcDbEntity
  8
0-B_寸法
  6
Continuous
 62
     7
370
     0
100
AcDbMText
 10
-622.5955148667811
 20
-337.5297002380773
 30
0.0
 40
91.44
 41
120.0
 46
0.0
 71
     7
 72
     1
  1
{\fＭＳ ゴシック|b0|i0|c128|p49;36}
 11
6.123031769111886E-17
 21
1.0
 31
0.0
 73
     1
 44
1.0
  0
MTEXT
  5
277
330
1F
100
AcDbEntity
  8
0-B_寸法
  6
Continuous
 62
     7
370
     0
100
AcDbMText
 10
-802.023990278588
 20
-627.440810357572
 30
0.0
 40
91.44
 41
180.0
 46
0.0
 71
     7
 72
     1
  1
{\fＭＳ ゴシック|b0|i0|c128|p49;7.5}
 11
6.123031769111886E-17
 21
1.0
 31
0.0
 73
     1
 44
1.0
  0
MTEXT
  5
278
330
1F
100
AcDbEntity
  8
0-B_寸法
  6
Continuous
 62
     7
370
     0
100
AcDbMText
 10
-1867.332187242435
 20
-669.7625220498701
 30
0.0
 40
91.44
 41
120.0
 46
0.0
 71
     7
 72
     1
  1
{\fＭＳ ゴシック|b0|i0|c128|p49;86}
 73
     1
 44
1.0
  0
LINE
  5
279
330
1F
100
AcDbEntity
  8
0-B_寸法
  6
Continuous
 62
   120
370
     5
100
AcDbLine
 10
-2069.082187242436
 20
-670.4825220498701
 30
0.0
 11
-1553.082187242435
 21
-670.4825220498701
 31
0.0
  0
MTEXT
  5
27A
330
1F
100
AcDbEntity
  8
0-B_寸法
  6
Continuous
 62
     7
370
     0
100
AcDbMText
 10
-1871.082187241924
 20
-1021.270032557812
 30
0.0
 40
91.43999999999791
 41
119.9999999999973
 46
0.0
 71
     7
 72
     1
  1
{\fＭＳ ゴシック|b0|i0|c128|p49;27}
 11
0.9999999999914964
 21
-4.124000483563069E-6
 31
0.0
 73
     1
 44
1.0
  0
LWPOLYLINE
  5
27B
330
1F
100
AcDbEntity
  8
0-B_寸法
  6
Continuous
 62
     7
370
     9
100
AcDbPolyline
 90
        4
 70
     1
 43
3.0
 10
-2067.582187242436
 20
-670.4825220498701
 42
0.4142135623731
 10
-2069.082187242436
 20
-668.9825220498701
 42
0.4142135623731
 10
-2070.582187242436
 20
-670.4825220498701
 42
0.4142135623731
 10
-2069.082187242436
 20
-671.9825220498701
 42
0.4142135623731
  0
LWPOLYLINE
  5
27C
330
1F
100
AcDbEntity
  8
0-B_寸法
  6
Continuous
 62
     7
370
     9
100
AcDbPolyline
 90
        4
 70
     1
 43
3.0
 10
-1551.582187242435
 20
-670.4825220498701
 42
0.4142135623731
 10
-1553.082187242435
 20
-668.9825220498701
 42
0.4142135623731
 10
-1554.582187242434
 20
-670.4825220498701
 42
0.4142135623731
 10
-1553.082187242435
 20
-671.9825220498701
 42
0.4142135623731
  0
LINE
  5
27D
330
1F
100
AcDbEntity
  8
0-B_寸法
  6
Continuous
 62
   120
370
     5
100
AcDbLine
 10
-2069.082187242436
 20
-670.4825220498701
 30
0.0
 11
-2069.082187242436
 21
-553.029042173161
 31
0.0
  0
LINE
  5
27E
330
1F
100
AcDbEntity
  8
0-B_寸法
  6
Continuous
 62
   120
370
     5
100
AcDbLine
 10
-1553.082187242435
 20
-670.4825220498701
 30
0.0
 11
-1553.082187242435
 21
-553.029042173161
 31
0.0
  0
LINE
  5
27F
330
1F
100
AcDbEntity
  8
0-B_寸法
  6
Continuous
 62
   120
370
     5
100
AcDbLine
 10
-1892.082736558841
 20
-937.7531998619662
 30
0.0
 11
-1892.082736558841
 21
-1021.990128440938
 31
0.0
  0
LWPOLYLINE
  5
280
330
1F
100
AcDbEntity
  8
0-B_寸法
  6
Continuous
 62
     7
370
     9
100
AcDbPolyline
 90
        4
 70
     1
 43
3.0
 10
-1890.582736558841
 20
-1021.990128440938
 42
0.4142135623731
 10
-1892.082736558841
 20
-1020.490128440938
 42
0.4142135623731
 10
-1893.582736558841
 20
-1021.990128440938
 42
0.4142135623731
 10
-1892.082736558841
 20
-1023.490128440938
 42
0.4142135623731
  0
LINE
  5
281
330
1F
100
AcDbEntity
  8
0-B_寸法
  6
Continuous
 62
   120
370
     5
100
AcDbLine
 10
-1730.082736558842
 20
-937.7531998619662
 30
0.0
 11
-1730.082736558842
 21
-1021.990128440938
 31
0.0
  0
LWPOLYLINE
  5
282
330
1F
100
AcDbEntity
  8
0-B_寸法
  6
Continuous
 62
     7
370
     9
100
AcDbPolyline
 90
        4
 70
     1
 43
3.0
 10
-1728.582736558842
 20
-1021.990128440938
 42
0.4142135623731
 10
-1730.082736558842
 20
-1020.490128440938
 42
0.4142135623731
 10
-1731.582736558841
 20
-1021.990128440938
 42
0.4142135623731
 10
-1730.082736558842
 20
-1023.490128440938
 42
0.4142135623731
  0
LINE
  5
283
330
1F
100
AcDbEntity
  8
0-B_寸法
  6
Continuous
 62
   120
370
     5
100
AcDbLine
 10
-1730.082736558842
 20
-1021.990128440938
 30
0.0
 11
-1892.082736558841
 21
-1021.990128440938
 31
0.0
  0
MTEXT
  5
284
330
1F
100
AcDbEntity
  8
0-B_寸法
  6
Continuous
 62
     7
370
     0
100
AcDbMText
 10
-1927.332172417634
 20
-1171.525966389671
 30
0.0
 40
91.44000000000051
 41
240.0000000000013
 46
0.0
 71
     7
 72
     1
  1
{\fＭＳ ゴシック|b0|i0|c128|p49;(24)}
 11
0.9999999999914964
 21
-4.124000474681284E-6
 31
0.0
 73
     1
 44
1.0
  0
LINE
  5
285
330
1F
100
AcDbEntity
  8
0-4_枠
  6
Continuous
 62
   120
370
     5
100
AcDbLine
 10
-2087.082187242435
 20
-1743.000341107218
 30
0.0
 11
-2087.082187242435
 21
-3087.00022022144
 31
0.0
  0
LINE
  5
286
330
1F
100
AcDbEntity
  8
0-4_枠
  6
Continuous
 62
   120
370
     5
100
AcDbLine
 10
-1535.082187242431
 20
-1743.000341107218
 30
0.0
 11
-1535.082187242431
 21
-3087.00022022144
 31
0.0
  0
LINE
  5
287
330
1F
100
AcDbEntity
  8
0-4_枠
  6
Continuous
 62
   120
370
     5
100
AcDbLine
 10
-2087.082187242435
 20
-195.2576651373059
 30
0.0
 11
-2087.082187242435
 21
-1623.000341107217
 31
0.0
  0
LINE
  5
288
330
1F
100
AcDbEntity
  8
0-4_枠
  6
Continuous
 62
   120
370
     5
100
AcDbLine
 10
-1535.082187242431
 20
-195.2576651373059
 30
0.0
 11
-1535.082187242431
 21
-1623.000341107217
 31
0.0
  0
LINE
  5
289
330
1F
100
AcDbEntity
  8
0-A_文字
  6
Continuous
 62
   120
370
     5
100
AcDbLine
 10
-1907.08174896465
 20
-2763.501688472511
 30
0.0
 11
-1715.08263974801
 21
-2763.501688472511
 31
0.0
  0
LWPOLYLINE
  5
28A
330
1F
100
AcDbEntity
  8
0-A_文字
  6
Continuous
 62
     7
370
     9
100
AcDbPolyline
 90
        4
 70
     1
 43
3.0
 10
-1905.58174896465
 20
-2763.501688472511
 42
0.4142135623731
 10
-1907.08174896465
 20
-2762.001688472511
 42
0.4142135623731
 10
-1908.58174896465
 20
-2763.501688472511
 42
0.4142135623731
 10
-1907.08174896465
 20
-2765.001688472511
 42
0.4142135623731
  0
LWPOLYLINE
  5
28B
330
1F
100
AcDbEntity
  8
0-A_文字
  6
Continuous
 62
     7
370
     9
100
AcDbPolyline
 90
        4
 70
     1
 43
3.0
 10
-1713.58263974801
 20
-2763.501688472511
 42
0.4142135623731
 10
-1715.08263974801
 20
-2762.001688472511
 42
0.4142135623731
 10
-1716.58263974801
 20
-2763.501688472511
 42
0.4142135623731
 10
-1715.08263974801
 20
-2765.001688472511
 42
0.4142135623731
  0
LINE
  5
28C
330
1F
100
AcDbEntity
  8
0-A_文字
  6
Continuous
 62
   120
370
     5
100
AcDbLine
 10
-1907.08174896465
 20
-2763.501688472511
 30
0.0
 11
-1907.08174896465
 21
-2872.209397845779
 31
0.0
  0
LINE
  5
28D
330
1F
100
AcDbEntity
  8
0-A_文字
  6
Continuous
 62
   120
370
     5
100
AcDbLine
 10
-1715.08263974801
 20
-2763.501688472511
 30
0.0
 11
-1715.08263974801
 21
-2872.209397845779
 31
0.0
  0
LINE
  5
28E
330
1F
100
AcDbEntity
  8
0-1_通り芯
  6
JWW_CENTER1
 62
   120
370
     5
100
AcDbLine
 10
-1811.082187242435
 20
141.000234155043
 30
0.0
 11
-1811.082187242435
 21
-3252.070702086856
 31
0.0
  0
LINE
  5
28F
330
1F
100
AcDbEntity
  8
0-0_補助線
  6
JWW_HOJO
 62
   120
370
     5
100
AcDbLine
 10
-1057.596192324935
 20
-3159.000012345731
 30
0.0
 11
-1057.596894341928
 21
141.000234155043
 31
0.0
  0
LINE
  5
290
330
1F
100
AcDbEntity
  8
0-0_補助線
  6
JWW_HOJO
 62
   120
370
     5
100
AcDbLine
 10
-607.5954523733833
 20
-3159.000012345731
 30
0.0
 11
-607.5961543903793
 21
141.000234155043
 31
0.0
  0
LINE
  5
291
330
1F
100
AcDbEntity
  8
0-0_補助線
  6
JWW_HOJO
 62
   120
370
     5
100
AcDbLine
 10
-787.5954523733918
 20
-3159.000012345731
 30
0.0
 11
-787.596154390381
 21
141.000234155043
 31
0.0
  0
LINE
  5
292
330
1F
100
AcDbEntity
  8
0-0_補助線
  6
JWW_HOJO
 62
   120
370
     5
100
AcDbLine
 10
-2762.081431917537
 20
-3159.000012345731
 30
0.0
 11
-2762.082133934526
 21
141.000234155043
 31
0.0
  0
LINE
  5
293
330
1F
100
AcDbEntity
  8
0-0_補助線
  6
JWW_HOJO
 62
   120
370
     5
100
AcDbLine
 10
-2762.082133934526
 20
141.000234155043
 30
0.0
 11
-427.5967195419963
 21
141.000234155043
 31
0.0
  0
LINE
  5
294
330
1F
100
AcDbEntity
  8
0-0_補助線
  6
JWW_HOJO
 62
   120
370
     5
100
AcDbLine
 10
-2402.082171983679
 20
-3159.000012345733
 30
0.0
 11
-2402.082874000669
 21
141.000234155043
 31
0.0
  0
LINE
  5
295
330
1F
100
AcDbEntity
  8
0-0_補助線
  6
JWW_HOJO
 62
   120
370
     5
100
AcDbLine
 10
-427.5954523733876
 20
-3158.999973912436
 30
0.0
 11
-427.5961543903836
 21
141.0002725883379
 31
0.0
  0
MTEXT
  5
296
330
1F
100
AcDbEntity
  8
0-B_寸法
  6
Continuous
 62
     7
370
     0
100
AcDbMText
 10
-802.0627029456961
 20
-3044.911986943454
 30
0.0
 40
91.44
 41
180.0
 46
0.0
 71
     7
 72
     1
  1
{\fＭＳ ゴシック|b0|i0|c128|p49;8.5}
 11
6.123031769111886E-17
 21
1.0
 31
0.0
 73
     1
 44
1.0
  0
MTEXT
  5
297
330
1F
100
AcDbEntity
  8
0-B_寸法
  6
Continuous
 62
     7
370
     0
100
AcDbMText
 10
-622.5955148667811
 20
-3095.927188985486
 30
0.0
 40
91.44
 41
120.0
 46
0.0
 71
     7
 72
     1
  1
{\fＭＳ ゴシック|b0|i0|c128|p49;12}
 11
6.123031769111886E-17
 21
1.0
 31
0.0
 73
     1
 44
1.0
  0
MTEXT
  5
298
330
1F
100
AcDbEntity
  8
0-A_文字
  6
Continuous
 62
     7
370
     9
100
AcDbMText
 10
-2762.082187242434
 20
337.8077532204329
 30
0.0
 40
91.44
 41
600.0
 46
0.0
 71
     7
 72
     1
  1
{\fＭＳ ゴシック|b0|i0|c128|p49;■縦断面図}
 73
     1
 44
1.0
  0
MTEXT
  5
299
330
1F
100
AcDbEntity
  8
0-B_寸法
  6
Continuous
 62
     7
370
   211
100
AcDbMText
 10
-2777.082187242434
 20
-2087.280341107218
 30
0.0
 40
91.43999999999997
 41
780.0
 46
0.0
 71
     7
 72
     1
  1
{\fＭＳ ゴシック|b0|i0|c128|p49;ＲＯＨ＝2,055}
 11
6.123031769111886E-17
 21
1.0
 31
0.0
 73
     1
 44
1.0
  0
MTEXT
  5
29A
330
1F
100
AcDbEntity
  8
0-B_寸法
  6
Continuous
 62
     7
370
     0
100
AcDbMText
 10
-802.5955148667828
 20
-2027.280341107218
 30
0.0
 40
91.43999999999997
 41
660.0
 46
0.0
 71
     7
 72
     1
  1
{\fＭＳ ゴシック|b0|i0|c128|p49;ＤＨ＝1,983}
 11
6.123031769111886E-17
 21
1.0
 31
0.0
 73
     1
 44
1.0
  0
MTEXT
  5
29B
330
1F
100
AcDbEntity
  8
0-B_寸法
  6
Continuous
 62
     7
370
     0
100
AcDbMText
 10
-622.5955148667811
 20
-2027.280341107218
 30
0.0
 40
91.43999999999997
 41
660.0
 46
0.0
 71
     7
 72
     1
  1
{\fＭＳ ゴシック|b0|i0|c128|p49;枠内＝1,999}
 11
6.123031769111886E-17
 21
1.0
 31
0.0
 73
     1
 44
1.0
  0
MTEXT
  5
29C
330
1F
100
AcDbEntity
  8
0-B_寸法
  6
Continuous
 62
     7
370
     0
100
AcDbMText
 10
-442.5975646573391
 20
-2027.280341107218
 30
0.0
 40
91.43999999999997
 41
660.0
 46
0.0
 71
     7
 72
     1
  1
{\fＭＳ ゴシック|b0|i0|c128|p49;枠外＝2,047}
 11
6.123031769111886E-17
 21
1.0
 31
0.0
 73
     1
 44
1.0
  0
MTEXT
  5
29D
330
1F
100
AcDbEntity
  8
0-A_文字
  6
Continuous
 62
     7
370
     0
100
AcDbMText
 10
-2762.082187242434
 20
-3402.551105360323
 30
0.0
 40
68.58000000000001
 41
1395.0
 46
0.0
 71
     7
 72
     1
  1
{\fＭＳ ゴシック|b0|i0|c128|p49;※ 扉厚（　）内はルーバーの場合}
 73
     1
 44
1.0
  0
LINE
  5
29E
330
1F
100
AcDbEntity
  8
0-0_補助線
  6
Continuous
 62
    92
370
    13
100
AcDbLine
 10
2205.587533354163
 20
141.0002725883379
 30
0.0
 11
4191.256895024741
 21
141.0002725883379
 31
0.0
  0
LINE
  5
29F
330
1F
100
AcDbEntity
  8
0-0_補助線
  6
Continuous
 62
    92
370
    13
100
AcDbLine
 10
2205.587533354163
 20
-38.99972741166465
 30
0.0
 11
4191.256895024741
 21
-38.99972741166465
 31
0.0
  0
MTEXT
  5
2A0
330
1F
100
AcDbEntity
  8
0-0_補助線
  6
Continuous
 62
     7
370
     0
100
AcDbMText
 10
492.7528525188728
 20
-23.27972741166165
 30
0.0
 40
91.44000000000004
 41
1440.000000000001
 46
0.0
 71
     7
 72
     1
  1
{\fＭＳ ゴシック|b0|i0|c128|p49;竪枠下端形状図（S＝1/3）}
 73
     1
 44
1.0
  0
MTEXT
  5
2A1
330
1F
100
AcDbEntity
  8
0-0_補助線
  6
Continuous
 62
     7
370
     9
100
AcDbMText
 10
2538.422214189452
 20
-23.27972741166416
 30
0.0
 40
91.44000000000013
 41
1320.000000000002
 46
0.0
 71
     7
 72
     1
  1
{\fＭＳ ゴシック|b0|i0|c128|p49;レール拡大図（S＝1/2）}
 73
     1
 44
1.0
  0
MTEXT
  5
2A2
330
1F
100
AcDbEntity
  8
0-0_補助線
  6
Continuous
 62
     7
370
   211
100
AcDbMText
 10
1091.299099724492
 20
-247.682682768714
 30
0.0
 40
74.29499999999919
 41
97.49999999999893
 46
0.0
 71
     7
 72
     1
  1
{\fＭＳ ゴシック|b0|i0|c128|p49;92}
 73
     1
 44
1.0
  0
MTEXT
  5
2A3
330
1F
100
AcDbEntity
  8
0-0_補助線
  6
Continuous
 62
     7
370
   211
100
AcDbMText
 10
1860.049627580353
 20
-1256.873308211633
 30
0.0
 40
68.57999999999934
 41
44.99999999999957
 46
0.0
 71
     7
 72
     1
  1
{\fＭＳ ゴシック|b0|i0|c128|p49;7}
 11
6.123031769111886E-17
 21
1.0
 31
0.0
 73
     1
 44
1.0
  0
MTEXT
  5
2A4
330
1F
100
AcDbEntity
  8
0-0_補助線
  6
Continuous
 62
     7
370
   211
100
AcDbMText
 10
751.2993141723337
 20
-1557.596611450791
 30
0.0
 40
77.15249999999966
 41
202.4999999999991
 46
0.0
 71
     7
 72
     1
  1
{\fＭＳ ゴシック|b0|i0|c128|p49;34.5}
 73
     1
 44
1.0
  0
MTEXT
  5
2A5
330
1F
100
AcDbEntity
  8
0-0_補助線
  6
Continuous
 62
     7
370
   211
100
AcDbMText
 10
1095.049842043954
 20
-1561.882861450791
 30
0.0
 40
68.58000000000081
 41
90.00000000000107
 46
0.0
 71
     7
 72
     1
  1
{\fＭＳ ゴシック|b0|i0|c128|p49;23}
 73
     1
 44
1.0
  0
MTEXT
  5
2A6
330
1F
100
AcDbEntity
  8
0-0_補助線
  6
Continuous
 62
     7
370
   211
100
AcDbMText
 10
1326.299627596112
 20
-1557.596611450791
 30
0.0
 40
77.15250000000047
 41
202.5000000000013
 46
0.0
 71
     7
 72
     1
  1
{\fＭＳ ゴシック|b0|i0|c128|p49;34.5}
 73
     1
 44
1.0
  0
MTEXT
  5
2A7
330
1F
100
AcDbEntity
  8
0-0_補助線
  6
Continuous
 62
     7
370
   211
100
AcDbMText
 10
3081.892548548179
 20
-1823.832857713503
 30
0.0
 40
68.57999999999967
 41
89.99999999999957
 46
0.0
 71
     7
 72
     1
  1
{\fＭＳ ゴシック|b0|i0|c128|p49;32}
 73
     1
 44
1.0
  0
MTEXT
  5
2A8
330
1F
100
AcDbEntity
  8
0-0_補助線
  6
Continuous
 62
     7
370
   211
100
AcDbMText
 10
3081.892548548179
 20
-1983.295145703974
 30
0.0
 40
68.57999999999967
 41
89.99999999999957
 46
0.0
 71
     7
 72
     1
  1
{\fＭＳ ゴシック|b0|i0|c128|p49;11}
 73
     1
 44
1.0
  0
MTEXT
  5
2A9
330
1F
100
AcDbEntity
  8
0-0_補助線
  6
Continuous
 62
     7
370
     9
100
AcDbMText
 10
342.7528525188735
 20
-2008.210184083621
 30
0.0
 40
91.44
 41
1740.0
 46
0.0
 71
     7
 72
     1
  1
{\fＭＳ ゴシック|b0|i0|c128|p49;レール埋込時 フロアー貼込位置}
 73
     1
 44
1.0
  0
MTEXT
  5
2AA
330
1F
100
AcDbEntity
  8
0-0_補助線
  6
Continuous
 62
     7
370
   211
100
AcDbMText
 10
2654.040822809253
 20
-2119.451952574402
 30
0.0
 40
68.58000000000044
 41
135.0000000000009
 46
0.0
 71
     7
 72
     1
  1
{\fＭＳ ゴシック|b0|i0|c128|p49;1.2}
 11
6.123031769111886E-17
 21
1.0
 31
0.0
 73
     1
 44
1.0
  0
LINE
  5
2AB
330
1F
100
AcDbEntity
  8
0-0_補助線
  6
Continuous
 62
    92
370
    13
100
AcDbLine
 10
219.9181716835818
 20
-38.99972741166209
 30
0.0
 11
2205.587533354163
 21
-38.99972741166209
 31
0.0
  0
LINE
  5
2AC
330
1F
100
AcDbEntity
  8
0-0_補助線
  6
Continuous
 62
    92
370
    13
100
AcDbLine
 10
219.9181716835818
 20
141.0002725883379
 30
0.0
 11
2205.587533354163
 21
141.0002725883379
 31
0.0
  0
MTEXT
  5
2AD
330
1F
100
AcDbEntity
  8
0-0_補助線
  6
Continuous
 62
     7
370
   211
100
AcDbMText
 10
2654.040822809253
 20
-2231.475261636722
 30
0.0
 40
68.5800000000013
 41
45.00000000000085
 46
0.0
 71
     7
 72
     1
  1
{\fＭＳ ゴシック|b0|i0|c128|p49;7}
 11
6.123031769111886E-17
 21
1.0
 31
0.0
 73
     1
 44
1.0
  0
MTEXT
  5
2AE
330
1F
100
AcDbEntity
  8
0-0_補助線
  6
Continuous
 62
     7
370
   211
100
AcDbMText
 10
2497.597852565259
 20
-2267.475261636722
 30
0.0
 40
68.57999999999892
 41
134.9999999999979
 46
0.0
 71
     7
 72
     1
  1
{\fＭＳ ゴシック|b0|i0|c128|p49;8.2}
 11
6.123031769111886E-17
 21
1.0
 31
0.0
 73
     1
 44
1.0
  0
MTEXT
  5
2AF
330
1F
100
AcDbEntity
  8
0-0_補助線
  6
Continuous
 62
     7
370
   211
100
AcDbMText
 10
3036.89254854818
 20
-2457.371610447175
 30
0.0
 40
68.57999999999967
 41
179.9999999999991
 46
0.0
 71
     7
 72
     1
  1
{\fＭＳ ゴシック|b0|i0|c128|p49;19.4}
 73
     1
 44
1.0
  0
LWPOLYLINE
  5
2B0
330
1F
100
AcDbEntity
  8
0-0_補助線
  6
Continuous
 62
     7
370
     9
100
AcDbPolyline
 90
        4
 70
     1
 43
3.0
 10
1026.549710076048
 20
-1566.172861450789
 42
0.4142135623731
 10
1025.049710076048
 20
-1564.672861450789
 42
0.4142135623731
 10
1023.549710076048
 20
-1566.172861450789
 42
0.4142135623731
 10
1025.049710076048
 20
-1567.672861450789
 42
0.4142135623731
  0
LINE
  5
2B1
330
1F
100
AcDbEntity
  8
0-0_補助線
  6
Continuous
 62
   120
370
     5
100
AcDbLine
 10
1025.049710076048
 20
-1566.172861450789
 30
0.0
 11
1025.049710076048
 21
-1386.172861450789
 31
0.0
  0
MTEXT
  5
2B2
330
1F
100
AcDbEntity
  8
0-0_補助線
  6
Continuous
 62
     7
370
   211
100
AcDbMText
 10
3081.656119797647
 20
-2667.041406584206
 30
0.0
 40
68.57999999999967
 41
89.99999999999957
 46
0.0
 71
     7
 72
     1
  1
{\fＭＳ ゴシック|b0|i0|c128|p49;23}
 73
     1
 44
1.0
  0
LINE
  5
2B3
330
1F
100
AcDbEntity
  8
0-0_補助線
  6
Continuous
 62
   120
370
     5
100
AcDbLine
 10
1025.049710076048
 20
-1566.172861450789
 30
0.0
 11
1255.04997401186
 21
-1566.172861450789
 31
0.0
  0
LWPOLYLINE
  5
2B4
330
1F
100
AcDbEntity
  8
0-0_補助線
  6
Continuous
 62
     7
370
     9
100
AcDbPolyline
 90
        4
 70
     1
 43
3.0
 10
1256.54997401186
 20
-1566.172861450789
 42
0.4142135623731
 10
1255.04997401186
 20
-1564.672861450789
 42
0.4142135623731
 10
1253.549974011861
 20
-1566.172861450789
 42
0.4142135623731
 10
1255.04997401186
 20
-1567.672861450789
 42
0.4142135623731
  0
LINE
  5
2B5
330
1F
100
AcDbEntity
  8
0-0_補助線
  6
Continuous
 62
   120
370
     5
100
AcDbLine
 10
1255.04997401186
 20
-1566.172861450789
 30
0.0
 11
1255.04997401186
 21
-1386.172861450789
 31
0.0
  0
MTEXT
  5
2B6
330
1F
100
AcDbEntity
  8
0-0_補助線
  6
Continuous
 62
     7
370
   211
100
AcDbMText
 10
2805.007884449709
 20
-2828.988642241976
 30
0.0
 40
68.57999999999956
 41
134.9999999999991
 46
0.0
 71
     7
 72
     1
  1
{\fＭＳ ゴシック|b0|i0|c128|p49;1.5}
 73
     1
 44
1.0
  0
MTEXT
  5
2B7
330
1F
100
AcDbEntity
  8
0-0_補助線
  6
Continuous
 62
     7
370
   211
100
AcDbMText
 10
3081.892548548179
 20
-2828.988642241976
 30
0.0
 40
68.57999999999967
 41
89.99999999999957
 46
0.0
 71
     7
 72
     1
  1
{\fＭＳ ゴシック|b0|i0|c128|p49;20}
 73
     1
 44
1.0
  0
LINE
  5
2B8
330
1F
100
AcDbEntity
  8
0-0_補助線
  6
Continuous
 62
    92
370
    13
100
AcDbLine
 10
219.9181716835818
 20
141.0002725883379
 30
0.0
 11
219.9181716835818
 21
-3463.930184083622
 31
0.0
  0
LINE
  5
2B9
330
1F
100
AcDbEntity
  8
0-0_補助線
  6
Continuous
 62
    92
370
    13
100
AcDbLine
 10
219.9181716835818
 20
-3463.930184083622
 30
0.0
 11
4191.256895024741
 21
-3463.930184083622
 31
0.0
  0
LINE
  5
2BA
330
1F
100
AcDbEntity
  8
0-0_補助線
  6
Continuous
 62
    92
370
    13
100
AcDbLine
 10
219.9181716835818
 20
-1843.930184083621
 30
0.0
 11
2205.587533354163
 21
-1843.930184083621
 31
0.0
  0
LINE
  5
2BB
330
1F
100
AcDbEntity
  8
0-0_補助線
  6
Continuous
 62
    92
370
    13
100
AcDbLine
 10
219.9181716835818
 20
-2023.930184083621
 30
0.0
 11
2205.587533354163
 21
-2023.930184083621
 31
0.0
  0
INSERT
  5
2BC
330
1F
100
AcDbEntity
  8
0-0_補助線
  6
Continuous
 62
     7
370
     9
100
AcDbBlockReference
  2
01@@SfigorgFlag@@4
 10
3126.892548548179
 20
-2188.03449240595
 30
0.0
 41
30.0
 42
30.0
  0
LWPOLYLINE
  5
2BD
330
1F
100
AcDbEntity
  8
0-0_補助線
  6
Continuous
 62
     7
370
     9
100
AcDbPolyline
 90
        4
 70
     1
 43
3.0
 10
2888.392548548181
 20
-2141.26526163672
 42
0.4142135623731
 10
2886.892548548181
 20
-2139.76526163672
 42
0.4142135623731
 10
2885.392548548181
 20
-2141.26526163672
 42
0.4142135623731
 10
2886.892548548181
 20
-2142.76526163672
 42
0.4142135623731
  0
LWPOLYLINE
  5
2BE
330
1F
100
AcDbEntity
  8
0-0_補助線
  6
Continuous
 62
     7
370
     9
100
AcDbPolyline
 90
        4
 70
     1
 43
3.0
 10
3368.392548548177
 20
-2141.26526163672
 42
0.4142135623731
 10
3366.892548548177
 20
-2139.76526163672
 42
0.4142135623731
 10
3365.392548548177
 20
-2141.26526163672
 42
0.4142135623731
 10
3366.892548548177
 20
-2142.76526163672
 42
0.4142135623731
  0
LWPOLYLINE
  5
2BF
330
1F
100
AcDbEntity
  8
0-0_補助線
  6
Continuous
 62
     7
370
     9
100
AcDbPolyline
 90
        4
 70
     1
 43
3.0
 10
3045.892548548174
 20
-2136.76526163672
 42
0.4142135623731
 10
3044.392548548174
 20
-2135.26526163672
 42
0.4142135623731
 10
3042.892548548174
 20
-2136.76526163672
 42
0.4142135623731
 10
3044.392548548174
 20
-2138.26526163672
 42
0.4142135623731
  0
LWPOLYLINE
  5
2C0
330
1F
100
AcDbEntity
  8
0-0_補助線
  6
Continuous
 62
     7
370
     9
100
AcDbPolyline
 90
        4
 70
     1
 43
3.0
 10
3210.892548548185
 20
-2136.76526163672
 42
0.4142135623731
 10
3209.392548548185
 20
-2135.26526163672
 42
0.4142135623731
 10
3207.892548548185
 20
-2136.76526163672
 42
0.4142135623731
 10
3209.392548548185
 20
-2138.26526163672
 42
0.4142135623731
  0
LINE
  5
2C1
330
1F
100
AcDbEntity
  8
0-0_補助線
  6
Continuous
 62
   120
370
     5
100
AcDbLine
 10
3044.392548548174
 20
-1987.585145703972
 30
0.0
 11
3209.392548548185
 21
-1987.585145703972
 31
0.0
  0
LWPOLYLINE
  5
2C2
330
1F
100
AcDbEntity
  8
0-0_補助線
  6
Continuous
 62
     7
370
     9
100
AcDbPolyline
 90
        4
 70
     1
 43
3.0
 10
3045.892548548174
 20
-1987.585145703972
 42
0.4142135623731
 10
3044.392548548174
 20
-1986.085145703972
 42
0.4142135623731
 10
3042.892548548174
 20
-1987.585145703972
 42
0.4142135623731
 10
3044.392548548174
 20
-1989.085145703972
 42
0.4142135623731
  0
LWPOLYLINE
  5
2C3
330
1F
100
AcDbEntity
  8
0-0_補助線
  6
Continuous
 62
     7
370
     9
100
AcDbPolyline
 90
        4
 70
     1
 43
3.0
 10
3210.892548548185
 20
-1987.585145703972
 42
0.4142135623731
 10
3209.392548548185
 20
-1986.085145703972
 42
0.4142135623731
 10
3207.892548548185
 20
-1987.585145703972
 42
0.4142135623731
 10
3209.392548548185
 20
-1989.085145703972
 42
0.4142135623731
  0
LINE
  5
2C4
330
1F
100
AcDbEntity
  8
0-0_補助線
  6
Continuous
 62
   120
370
     5
100
AcDbLine
 10
3044.392548548174
 20
-1987.585145703972
 30
0.0
 11
3044.392548548174
 21
-2073.449454621918
 31
0.0
  0
LINE
  5
2C5
330
1F
100
AcDbEntity
  8
0-0_補助線
  6
Continuous
 62
   120
370
     5
100
AcDbLine
 10
3209.392548548185
 20
-1987.585145703972
 30
0.0
 11
3209.392548548185
 21
-2073.449454621918
 31
0.0
  0
LINE
  5
2C6
330
1F
100
AcDbEntity
  8
0-0_補助線
  6
Continuous
 62
   120
370
     5
100
AcDbLine
 10
2886.892548548181
 20
-1828.1228577135
 30
0.0
 11
3366.892548548177
 21
-1828.1228577135
 31
0.0
  0
LWPOLYLINE
  5
2C7
330
1F
100
AcDbEntity
  8
0-0_補助線
  6
Continuous
 62
     7
370
     9
100
AcDbPolyline
 90
        4
 70
     1
 43
3.0
 10
2888.392548548181
 20
-1828.1228577135
 42
0.4142135623731
 10
2886.892548548181
 20
-1826.6228577135
 42
0.4142135623731
 10
2885.392548548181
 20
-1828.1228577135
 42
0.4142135623731
 10
2886.892548548181
 20
-1829.622857713499
 42
0.4142135623731
  0
LWPOLYLINE
  5
2C8
330
1F
100
AcDbEntity
  8
0-0_補助線
  6
Continuous
 62
     7
370
     9
100
AcDbPolyline
 90
        4
 70
     1
 43
3.0
 10
3368.392548548177
 20
-1828.1228577135
 42
0.4142135623731
 10
3366.892548548177
 20
-1826.6228577135
 42
0.4142135623731
 10
3365.392548548177
 20
-1828.1228577135
 42
0.4142135623731
 10
3366.892548548177
 20
-1829.622857713499
 42
0.4142135623731
  0
LINE
  5
2C9
330
1F
100
AcDbEntity
  8
0-0_補助線
  6
Continuous
 62
   120
370
     5
100
AcDbLine
 10
2886.892548548181
 20
-1828.1228577135
 30
0.0
 11
2886.892548548181
 21
-2073.449454621918
 31
0.0
  0
LINE
  5
2CA
330
1F
100
AcDbEntity
  8
0-0_補助線
  6
Continuous
 62
   120
370
     5
100
AcDbLine
 10
3366.892548548177
 20
-1828.1228577135
 30
0.0
 11
3366.892548548177
 21
-2073.449454621918
 31
0.0
  0
LWPOLYLINE
  5
2CB
330
1F
100
AcDbEntity
  8
0-0_補助線
  6
Continuous
 62
     7
370
     9
100
AcDbPolyline
 90
        4
 70
     1
 43
3.0
 10
2670.540822809253
 20
-2127.765261636721
 42
0.4142135623731
 10
2669.040822809253
 20
-2126.265261636721
 42
0.4142135623731
 10
2667.540822809253
 20
-2127.765261636721
 42
0.4142135623731
 10
2669.040822809253
 20
-2129.265261636721
 42
0.4142135623731
  0
LWPOLYLINE
  5
2CC
330
1F
100
AcDbEntity
  8
0-0_補助線
  6
Continuous
 62
     7
370
     9
100
AcDbPolyline
 90
        4
 70
     1
 43
3.0
 10
2670.540822809253
 20
-2145.765261636722
 42
0.4142135623731
 10
2669.040822809253
 20
-2144.265261636722
 42
0.4142135623731
 10
2667.540822809253
 20
-2145.765261636722
 42
0.4142135623731
 10
2669.040822809253
 20
-2147.265261636722
 42
0.4142135623731
  0
LINE
  5
2CD
330
1F
100
AcDbEntity
  8
0-0_補助線
  6
Continuous
 62
   120
370
     5
100
AcDbLine
 10
2669.040822809253
 20
-2127.765261636721
 30
0.0
 11
2799.881674493744
 21
-2127.765261636721
 31
0.0
  0
LINE
  5
2CE
330
1F
100
AcDbEntity
  8
0-0_補助線
  6
Continuous
 62
   120
370
     5
100
AcDbLine
 10
2669.040822809253
 20
-2145.765261636722
 30
0.0
 11
2799.881674493744
 21
-2145.765261636722
 31
0.0
  0
LINE
  5
2CF
330
1F
100
AcDbEntity
  8
0-0_補助線
  6
Continuous
 62
   120
370
     5
100
AcDbLine
 10
2669.040822809253
 20
-2145.765261636722
 30
0.0
 11
2669.040822809253
 21
-2250.765261636722
 31
0.0
  0
LWPOLYLINE
  5
2D0
330
1F
100
AcDbEntity
  8
0-0_補助線
  6
Continuous
 62
     7
370
     9
100
AcDbPolyline
 90
        4
 70
     1
 43
3.0
 10
2670.540822809253
 20
-2250.765261636722
 42
0.4142135623731
 10
2669.040822809253
 20
-2249.265261636722
 42
0.4142135623731
 10
2667.540822809253
 20
-2250.765261636722
 42
0.4142135623731
 10
2669.040822809253
 20
-2252.265261636722
 42
0.4142135623731
  0
LINE
  5
2D1
330
1F
100
AcDbEntity
  8
0-0_補助線
  6
Continuous
 62
   120
370
     5
100
AcDbLine
 10
2669.040822809253
 20
-2250.765261636722
 30
0.0
 11
2799.881674493744
 21
-2250.765261636722
 31
0.0
  0
LINE
  5
2D2
330
1F
100
AcDbEntity
  8
0-0_補助線
  6
Continuous
 62
   120
370
     5
100
AcDbLine
 10
2981.392548548181
 20
-2461.661610447173
 30
0.0
 11
3272.392548548176
 21
-2461.661610447173
 31
0.0
  0
LWPOLYLINE
  5
2D3
330
1F
100
AcDbEntity
  8
0-0_補助線
  6
Continuous
 62
     7
370
     9
100
AcDbPolyline
 90
        4
 70
     1
 43
3.0
 10
2982.89254854818
 20
-2461.661610447173
 42
0.4142135623731
 10
2981.392548548181
 20
-2460.161610447173
 42
0.4142135623731
 10
2979.892548548181
 20
-2461.661610447173
 42
0.4142135623731
 10
2981.392548548181
 20
-2463.161610447173
 42
0.4142135623731
  0
LWPOLYLINE
  5
2D4
330
1F
100
AcDbEntity
  8
0-0_補助線
  6
Continuous
 62
     7
370
     9
100
AcDbPolyline
 90
        4
 70
     1
 43
3.0
 10
3273.892548548175
 20
-2461.661610447173
 42
0.4142135623731
 10
3272.392548548176
 20
-2460.161610447173
 42
0.4142135623731
 10
3270.892548548176
 20
-2461.661610447173
 42
0.4142135623731
 10
3272.392548548176
 20
-2463.161610447173
 42
0.4142135623731
  0
LINE
  5
2D5
330
1F
100
AcDbEntity
  8
0-0_補助線
  6
Continuous
 62
   120
370
     5
100
AcDbLine
 10
2981.392548548181
 20
-2461.661610447173
 30
0.0
 11
2981.392548548181
 21
-2334.045528379022
 31
0.0
  0
LINE
  5
2D6
330
1F
100
AcDbEntity
  8
0-0_補助線
  6
Continuous
 62
   120
370
     5
100
AcDbLine
 10
3272.392548548176
 20
-2461.661610447173
 30
0.0
 11
3272.392548548176
 21
-2334.045528379022
 31
0.0
  0
LINE
  5
2D7
330
1F
100
AcDbEntity
  8
0-0_補助線
  6
Continuous
 62
   120
370
     5
100
AcDbLine
 10
2669.040822809253
 20
-1961.277417012414
 30
0.0
 11
2669.040822809253
 21
-2145.765261636722
 31
0.0
  0
LWPOLYLINE
  5
2D8
330
1F
100
AcDbEntity
  8
0-0_補助線
  6
Continuous
 62
     7
370
     9
100
AcDbPolyline
 90
        4
 70
     1
 43
3.0
 10
2955.892548548178
 20
-2833.278642241981
 42
0.4142135623731
 10
2954.392548548178
 20
-2831.778642241981
 42
0.4142135623731
 10
2952.892548548178
 20
-2833.278642241981
 42
0.4142135623731
 10
2954.392548548178
 20
-2834.778642241981
 42
0.4142135623731
  0
LWPOLYLINE
  5
2D9
330
1F
100
AcDbEntity
  8
0-0_補助線
  6
Continuous
 62
     7
370
     9
100
AcDbPolyline
 90
        4
 70
     1
 43
3.0
 10
2978.392548548178
 20
-2833.278642241981
 42
0.4142135623731
 10
2976.892548548178
 20
-2831.778642241981
 42
0.4142135623731
 10
2975.392548548178
 20
-2833.278642241981
 42
0.4142135623731
 10
2976.892548548178
 20
-2834.778642241981
 42
0.4142135623731
  0
LINE
  5
2DA
330
1F
100
AcDbEntity
  8
0-0_補助線
  6
Continuous
 62
   120
370
     5
100
AcDbLine
 10
2954.392548548178
 20
-2833.278642241981
 30
0.0
 11
2954.392548548178
 21
-2937.790993970882
 31
0.0
  0
LINE
  5
2DB
330
1F
100
AcDbEntity
  8
0-0_補助線
  6
Continuous
 62
   120
370
     5
100
AcDbLine
 10
2976.892548548178
 20
-2833.278642241981
 30
0.0
 11
2976.892548548178
 21
-2937.790993970882
 31
0.0
  0
LINE
  5
2DC
330
1F
100
AcDbEntity
  8
0-0_補助線
  6
Continuous
 62
   120
370
     5
100
AcDbLine
 10
2976.892548548178
 20
-2833.278642241981
 30
0.0
 11
3276.892548548179
 21
-2833.278642241981
 31
0.0
  0
LWPOLYLINE
  5
2DD
330
1F
100
AcDbEntity
  8
0-0_補助線
  6
Continuous
 62
     7
370
     9
100
AcDbPolyline
 90
        4
 70
     1
 43
3.0
 10
3278.392548548178
 20
-2833.278642241981
 42
0.4142135623731
 10
3276.892548548179
 20
-2831.778642241981
 42
0.4142135623731
 10
3275.392548548179
 20
-2833.278642241981
 42
0.4142135623731
 10
3276.892548548179
 20
-2834.778642241981
 42
0.4142135623731
  0
LINE
  5
2DE
330
1F
100
AcDbEntity
  8
0-0_補助線
  6
Continuous
 62
   120
370
     5
100
AcDbLine
 10
3276.892548548179
 20
-2833.278642241981
 30
0.0
 11
3276.892548548179
 21
-2937.790993970882
 31
0.0
  0
LWPOLYLINE
  5
2DF
330
1F
100
AcDbEntity
  8
0-0_補助線
  6
Continuous
 62
     7
370
     9
100
AcDbPolyline
 90
        4
 70
     1
 43
3.0
 10
3300.419691047115
 20
-2833.278642241981
 42
0.4142135623731
 10
3298.919691047116
 20
-2831.778642241981
 42
0.4142135623731
 10
3297.419691047116
 20
-2833.278642241981
 42
0.4142135623731
 10
3298.919691047116
 20
-2834.778642241981
 42
0.4142135623731
  0
LINE
  5
2E0
330
1F
100
AcDbEntity
  8
0-0_補助線
  6
Continuous
 62
   120
370
     5
100
AcDbLine
 10
3298.919691047116
 20
-2833.278642241981
 30
0.0
 11
3298.919691047116
 21
-2937.790993970882
 31
0.0
  0
LWPOLYLINE
  5
2E1
330
1F
100
AcDbEntity
  8
0-0_補助線
  6
Continuous
 62
     7
370
     9
100
AcDbPolyline
 90
        4
 70
     1
 43
3.0
 10
2670.540822809253
 20
-3009.972008168896
 42
0.4142135623731
 10
2669.040822809253
 20
-3008.472008168896
 42
0.4142135623731
 10
2667.540822809253
 20
-3009.972008168896
 42
0.4142135623731
 10
2669.040822809253
 20
-3011.472008168896
 42
0.4142135623731
  0
LWPOLYLINE
  5
2E2
330
1F
100
AcDbEntity
  8
0-0_補助線
  6
Continuous
 62
     7
370
     9
100
AcDbPolyline
 90
        4
 70
     1
 43
3.0
 10
2670.540822809253
 20
-3039.972563994639
 42
0.4142135623731
 10
2669.040822809253
 20
-3038.47256399464
 42
0.4142135623731
 10
2667.540822809253
 20
-3039.972563994639
 42
0.4142135623731
 10
2669.040822809253
 20
-3041.472563994639
 42
0.4142135623731
  0
LINE
  5
2E3
330
1F
100
AcDbEntity
  8
0-0_補助線
  6
Continuous
 62
   120
370
     5
100
AcDbLine
 10
2669.040822809253
 20
-3009.972008168896
 30
0.0
 11
2799.881674493744
 21
-3009.972008168896
 31
0.0
  0
LINE
  5
2E4
330
1F
100
AcDbEntity
  8
0-0_補助線
  6
Continuous
 62
   120
370
     5
100
AcDbLine
 10
2669.040822809253
 20
-3039.972563994639
 30
0.0
 11
2799.881674493744
 21
-3039.972563994639
 31
0.0
  0
LINE
  5
2E5
330
1F
100
AcDbEntity
  8
0-0_補助線
  6
Continuous
 62
   120
370
     5
100
AcDbLine
 10
2669.040822809253
 20
-3039.972563994639
 30
0.0
 11
2669.040822809253
 21
-3114.972563994645
 31
0.0
  0
LWPOLYLINE
  5
2E6
330
1F
100
AcDbEntity
  8
0-0_補助線
  6
Continuous
 62
     7
370
     9
100
AcDbPolyline
 90
        4
 70
     1
 43
3.0
 10
2670.540822809253
 20
-3114.972563994645
 42
0.4142135623731
 10
2669.040822809253
 20
-3113.472563994645
 42
0.4142135623731
 10
2667.540822809253
 20
-3114.972563994645
 42
0.4142135623731
 10
2669.040822809253
 20
-3116.472563994645
 42
0.4142135623731
  0
LINE
  5
2E7
330
1F
100
AcDbEntity
  8
0-0_補助線
  6
Continuous
 62
   120
370
     5
100
AcDbLine
 10
2669.040822809253
 20
-3114.972563994645
 30
0.0
 11
2799.881674493744
 21
-3114.972563994645
 31
0.0
  0
LINE
  5
2E8
330
1F
100
AcDbEntity
  8
0-0_補助線
  6
Continuous
 62
   120
370
     5
100
AcDbLine
 10
2512.597852565259
 20
-3114.972563994645
 30
0.0
 11
2512.597852565259
 21
-3009.972008168896
 31
0.0
  0
LWPOLYLINE
  5
2E9
330
1F
100
AcDbEntity
  8
0-0_補助線
  6
Continuous
 62
     7
370
     9
100
AcDbPolyline
 90
        4
 70
     1
 43
3.0
 10
2514.097852565259
 20
-3114.972563994645
 42
0.4142135623731
 10
2512.597852565259
 20
-3113.472563994645
 42
0.4142135623731
 10
2511.097852565259
 20
-3114.972563994645
 42
0.4142135623731
 10
2512.597852565259
 20
-3116.472563994645
 42
0.4142135623731
  0
LWPOLYLINE
  5
2EA
330
1F
100
AcDbEntity
  8
0-0_補助線
  6
Continuous
 62
     7
370
     9
100
AcDbPolyline
 90
        4
 70
     1
 43
3.0
 10
2514.097852565259
 20
-3009.972008168896
 42
0.4142135623731
 10
2512.597852565259
 20
-3008.472008168896
 42
0.4142135623731
 10
2511.097852565259
 20
-3009.972008168896
 42
0.4142135623731
 10
2512.597852565259
 20
-3011.472008168896
 42
0.4142135623731
  0
LINE
  5
2EB
330
1F
100
AcDbEntity
  8
0-0_補助線
  6
Continuous
 62
   120
370
     5
100
AcDbLine
 10
2512.597852565259
 20
-3114.972563994645
 30
0.0
 11
2669.040822809253
 21
-3114.972563994645
 31
0.0
  0
LINE
  5
2EC
330
1F
100
AcDbEntity
  8
0-0_補助線
  6
Continuous
 62
   120
370
     5
100
AcDbLine
 10
2512.597852565259
 20
-3009.972008168896
 30
0.0
 11
2669.040822809253
 21
-3009.972008168896
 31
0.0
  0
LWPOLYLINE
  5
2ED
330
1F
100
AcDbEntity
  8
0-0_補助線
  6
Continuous
 62
     7
370
     9
100
AcDbPolyline
 90
        4
 70
     1
 43
3.0
 10
2514.097852565259
 20
-2250.765261636722
 42
0.4142135623731
 10
2512.597852565259
 20
-2249.265261636722
 42
0.4142135623731
 10
2511.097852565259
 20
-2250.765261636722
 42
0.4142135623731
 10
2512.597852565259
 20
-2252.265261636722
 42
0.4142135623731
  0
LINE
  5
2EE
330
1F
100
AcDbEntity
  8
0-0_補助線
  6
Continuous
 62
   120
370
     5
100
AcDbLine
 10
2512.597852565259
 20
-2250.765261636722
 30
0.0
 11
2669.040822809253
 21
-2250.765261636722
 31
0.0
  0
LINE
  5
2EF
330
1F
100
AcDbEntity
  8
0-0_補助線
  6
Continuous
 62
   120
370
     5
100
AcDbLine
 10
2512.597852565259
 20
-2250.765261636722
 30
0.0
 11
2512.597852565259
 21
-2127.765261636721
 31
0.0
  0
LWPOLYLINE
  5
2F0
330
1F
100
AcDbEntity
  8
0-0_補助線
  6
Continuous
 62
     7
370
     9
100
AcDbPolyline
 90
        4
 70
     1
 43
3.0
 10
2514.097852565259
 20
-2127.765261636721
 42
0.4142135623731
 10
2512.597852565259
 20
-2126.265261636721
 42
0.4142135623731
 10
2511.097852565259
 20
-2127.765261636721
 42
0.4142135623731
 10
2512.597852565259
 20
-2129.265261636721
 42
0.4142135623731
  0
LINE
  5
2F1
330
1F
100
AcDbEntity
  8
0-0_補助線
  6
Continuous
 62
   120
370
     5
100
AcDbLine
 10
2512.597852565259
 20
-2127.765261636721
 30
0.0
 11
2669.040822809253
 21
-2127.765261636721
 31
0.0
  0
LINE
  5
2F2
330
1F
100
AcDbEntity
  8
0-0_補助線
  6
Continuous
 62
   120
370
     5
100
AcDbLine
 10
2669.040822809253
 20
-2943.450711759808
 30
0.0
 11
2669.040822809253
 21
-3039.972563994639
 31
0.0
  0
LINE
  5
2F3
330
1F
100
AcDbEntity
  8
0-0_補助線
  6
Continuous
 62
   120
370
     5
100
AcDbLine
 10
2954.392548548178
 20
-2671.331406584211
 30
0.0
 11
3298.919691047116
 21
-2671.331406584211
 31
0.0
  0
LWPOLYLINE
  5
2F4
330
1F
100
AcDbEntity
  8
0-0_補助線
  6
Continuous
 62
     7
370
     9
100
AcDbPolyline
 90
        4
 70
     1
 43
3.0
 10
2955.892548548178
 20
-2671.331406584211
 42
0.4142135623731
 10
2954.392548548178
 20
-2669.831406584211
 42
0.4142135623731
 10
2952.892548548178
 20
-2671.331406584211
 42
0.4142135623731
 10
2954.392548548178
 20
-2672.831406584211
 42
0.4142135623731
  0
LWPOLYLINE
  5
2F5
330
1F
100
AcDbEntity
  8
0-0_補助線
  6
Continuous
 62
     7
370
     9
100
AcDbPolyline
 90
        4
 70
     1
 43
3.0
 10
3300.419691047115
 20
-2671.331406584211
 42
0.4142135623731
 10
3298.919691047116
 20
-2669.831406584211
 42
0.4142135623731
 10
3297.419691047116
 20
-2671.331406584211
 42
0.4142135623731
 10
3298.919691047116
 20
-2672.831406584211
 42
0.4142135623731
  0
LINE
  5
2F6
330
1F
100
AcDbEntity
  8
0-0_補助線
  6
Continuous
 62
   120
370
     5
100
AcDbLine
 10
2954.392548548178
 20
-2671.331406584211
 30
0.0
 11
2954.392548548178
 21
-2833.278642241981
 31
0.0
  0
LINE
  5
2F7
330
1F
100
AcDbEntity
  8
0-0_補助線
  6
Continuous
 62
   120
370
     5
100
AcDbLine
 10
3298.919691047116
 20
-2671.331406584211
 30
0.0
 11
3298.919691047116
 21
-2833.278642241981
 31
0.0
  0
LINE
  5
2F8
330
1F
100
AcDbEntity
  8
0-0_補助線
  6
Continuous
 62
   120
370
     5
100
AcDbLine
 10
2789.990466770645
 20
-2833.278642241981
 30
0.0
 11
2976.892548548178
 21
-2833.278642241981
 31
0.0
  0
LINE
  5
2F9
330
1F
100
AcDbEntity
  8
0-0_補助線
  6
Continuous
 62
   120
370
     5
100
AcDbLine
 10
3276.892548548179
 20
-2833.278642241981
 30
0.0
 11
3470.201612503473
 21
-2833.278642241981
 31
0.0
  0
LINE
  5
2FA
330
1F
100
AcDbEntity
  8
0-0_補助線
  6
Continuous
 62
    92
370
    13
100
AcDbLine
 10
2205.587533354163
 20
141.0002725883379
 30
0.0
 11
2205.587533354163
 21
-3463.930184083622
 31
0.0
  0
LINE
  5
2FB
330
1F
100
AcDbEntity
  8
0-0_補助線
  6
Continuous
 62
    92
370
    13
100
AcDbLine
 10
4191.256895024741
 20
141.0002725883379
 30
0.0
 11
4191.256895024741
 21
-3463.930184083622
 31
0.0
  0
MTEXT
  5
2FC
330
1F
100
AcDbEntity
  8
0-0_補助線
  6
Continuous
 62
     7
370
   211
100
AcDbMText
 10
3325.75969601894
 20
-2828.988642241976
 30
0.0
 40
68.58000000000042
 41
135.0000000000009
 46
0.0
 71
     7
 72
     1
  1
{\fＭＳ ゴシック|b0|i0|c128|p49;1.5}
 73
     1
 44
1.0
  0
MTEXT
  5
2FD
330
1F
100
AcDbEntity
  8
0-0_補助線
  6
Continuous
 62
     7
370
   211
100
AcDbMText
 10
2654.040822809253
 20
-3009.103159335489
 30
0.0
 40
68.57999999999481
 41
44.99999999999659
 46
0.0
 71
     7
 72
     1
  1
{\fＭＳ ゴシック|b0|i0|c128|p49;2}
 11
6.123031769111886E-17
 21
1.0
 31
0.0
 73
     1
 44
1.0
  0
MTEXT
  5
2FE
330
1F
100
AcDbEntity
  8
0-0_補助線
  6
Continuous
 62
     7
370
   211
100
AcDbMText
 10
2497.597852565259
 20
-3095.682286081772
 30
0.0
 40
68.58000000000065
 41
45.00000000000043
 46
0.0
 71
     7
 72
     1
  1
{\fＭＳ ゴシック|b0|i0|c128|p49;7}
 11
6.123031769111886E-17
 21
1.0
 31
0.0
 73
     1
 44
1.0
  0
MTEXT
  5
2FF
330
1F
100
AcDbEntity
  8
0-0_補助線
  6
Continuous
 62
     7
370
   211
100
AcDbMText
 10
2654.040822809253
 20
-3110.682563994641
 30
0.0
 40
68.58000000000325
 41
45.00000000000213
 46
0.0
 71
     7
 72
     1
  1
{\fＭＳ ゴシック|b0|i0|c128|p49;5}
 11
6.123031769111886E-17
 21
1.0
 31
0.0
 73
     1
 44
1.0
  0
MTEXT
  5
300
330
1F
100
AcDbEntity
  8
0-A_文字
  6
Continuous
 62
     7
370
     9
100
AcDbMText
 10
392.1063682576211
 20
-2308.466461457163
 30
0.0
 40
91.4399999999999
 41
359.9999999999996
 46
0.0
 71
     7
 72
     1
  1
{\fＭＳ ゴシック|b0|i0|c128|p49;収納側}
 73
     1
 44
1.0
  0
MTEXT
  5
301
330
1F
100
AcDbEntity
  8
0-A_文字
  6
Continuous
 62
     7
370
   211
100
AcDbMText
 10
1484.400827499652
 20
-2780.297612136965
 30
0.0
 40
91.44
 41
600.0
 46
0.0
 71
     7
 72
     1
  1
{\fＭＳ ゴシック|b0|i0|c128|p49;壁仕上げ面}
 73
     1
 44
1.0
  0
MTEXT
  5
302
330
1F
100
AcDbEntity
  8
0-A_文字
  6
Continuous
 62
     7
370
   211
100
AcDbMText
 10
1488.008139634277
 20
-3212.684414770838
 30
0.0
 40
91.44000000000008
 41
480.0000000000005
 46
0.0
 71
     7
 72
     1
  1
{\fＭＳ ゴシック|b0|i0|c128|p49;チリ寸法}
 73
     1
 44
1.0
  0
MTEXT
  5
303
330
1F
100
AcDbEntity
  8
0-A_文字
  6
Continuous
 62
     7
370
     9
100
AcDbMText
 10
392.1063682576211
 20
-3351.008347429839
 30
0.0
 40
91.43999999999988
 41
359.9999999999996
 46
0.0
 71
     7
 72
     1
  1
{\fＭＳ ゴシック|b0|i0|c128|p49;室内側}
 73
     1
 44
1.0
  0
MTEXT
  5
304
330
1F
100
AcDbEntity
  8
0-A_文字
  6
Continuous
 62
     7
370
   211
100
AcDbMText
 10
1488.008139634277
 20
-3365.456768714379
 30
0.0
 40
91.44000000000031
 41
360.0000000000013
 46
0.0
 71
     7
 72
     1
  1
{\fＭＳ ゴシック|b0|i0|c128|p49;(任意)}
 73
     1
 44
1.0
  0
MTEXT
  5
305
330
1F
100
AcDbEntity
  8
0-B_寸法
  6
Continuous
 62
     7
370
   211
100
AcDbMText
 10
747.3662374868732
 20
-2709.493358136936
 30
0.0
 40
80.01000000000032
 41
210.0000000000009
 46
0.0
 71
     7
 72
     1
  1
{\fＭＳ ゴシック|b0|i0|c128|p49;33.5}
 11
6.123031769111886E-17
 21
1.0
 31
0.0
 73
     1
 44
1.0
  0
MTEXT
  5
306
330
1F
100
AcDbEntity
  8
0-B_寸法
  6
Continuous
 62
     7
370
   211
100
AcDbMText
 10
589.8443397421646
 20
-2841.777932540442
 30
0.0
 40
91.44000000000065
 41
120.0000000000009
 46
0.0
 71
     7
 72
     1
  1
{\fＭＳ ゴシック|b0|i0|c128|p49;25}
 11
6.123031769111886E-17
 21
1.0
 31
0.0
 73
     1
 44
1.0
  0
MTEXT
  5
307
330
1F
100
AcDbEntity
  8
0-B_寸法
  6
Continuous
 62
     7
370
   211
100
AcDbMText
 10
863.7634080244782
 20
-2845.528358136936
 30
0.0
 40
91.44000000000065
 41
120.0000000000009
 46
0.0
 71
     7
 72
     1
  1
{\fＭＳ ゴシック|b0|i0|c128|p49;92}
 11
6.123031769111886E-17
 21
1.0
 31
0.0
 73
     1
 44
1.0
  0
MTEXT
  5
308
330
1F
100
AcDbEntity
  8
0-B_寸法
  6
Continuous
 62
     7
370
   211
100
AcDbMText
 10
741.5463382890227
 20
-3060.492932540442
 30
0.0
 40
80.01000000000066
 41
210.0000000000017
 46
0.0
 71
     7
 72
     1
  1
{\fＭＳ ゴシック|b0|i0|c128|p49;33.5}
 11
6.123031769111886E-17
 21
1.0
 31
0.0
 73
     1
 44
1.0
  0
LINE
  5
309
330
1F
100
AcDbEntity
  8
0-0_補助線
  6
Continuous
 62
    92
370
    13
100
AcDbLine
 10
1255.04997401186
 20
-1238.662893749932
 30
0.0
 11
1255.04997401186
 21
-1188.66340924956
 31
0.0
  0
LINE
  5
30A
330
1F
100
AcDbEntity
  8
0-0_補助線
  6
Continuous
 62
    92
370
    13
100
AcDbLine
 10
1025.049710076048
 20
-1238.662893749932
 30
0.0
 11
1025.049710076048
 21
-1188.66340924956
 31
0.0
  0
LINE
  5
30B
330
1F
100
AcDbEntity
  8
0-0_補助線
  6
Continuous
 62
    92
370
    13
100
AcDbLine
 10
1040.049017244548
 20
-1258.663207173707
 30
0.0
 11
1240.049182204436
 21
-1258.663207173707
 31
0.0
  0
LINE
  5
30C
330
1F
100
AcDbEntity
  8
0-0_補助線
  6
Continuous
 62
    92
370
    13
100
AcDbLine
 10
1025.049710076048
 20
-1238.662893749932
 30
0.0
 11
1040.049017244548
 21
-1238.662893749932
 31
0.0
  0
LINE
  5
30D
330
1F
100
AcDbEntity
  8
0-0_補助線
  6
Continuous
 62
    92
370
    13
100
AcDbLine
 10
1040.049017244548
 20
-1258.663207173707
 30
0.0
 11
1040.049017244548
 21
-1238.662893749932
 31
0.0
  0
LINE
  5
30E
330
1F
100
AcDbEntity
  8
0-0_補助線
  6
Continuous
 62
    92
370
    13
100
AcDbLine
 10
1240.049182204436
 20
-1258.663207173707
 30
0.0
 11
1240.049182204436
 21
-1238.662893749932
 31
0.0
  0
LINE
  5
30F
330
1F
100
AcDbEntity
  8
0-0_補助線
  6
Continuous
 62
    92
370
    13
100
AcDbLine
 10
1255.04997401186
 20
-1238.662893749932
 30
0.0
 11
1240.049182204436
 21
-1238.662893749932
 31
0.0
  0
LINE
  5
310
330
1F
100
AcDbEntity
  8
0-A_文字
  6
Continuous
 62
     7
370
     9
100
AcDbLine
 10
1487.029899758782
 20
-3217.643333981227
 30
0.0
 11
1989.974445448776
 21
-3217.643333981227
 31
0.0
  0
LINE
  5
311
330
1F
100
AcDbEntity
  8
0-A_文字
  6
Continuous
 62
     7
370
     9
100
AcDbLine
 10
1297.271970752272
 20
-3001.457404443502
 30
0.0
 11
1487.029899758782
 21
-3217.643333981227
 31
0.0
  0
LINE
  5
312
330
1F
100
AcDbEntity
  8
0-A_文字
  6
Continuous
 62
     7
370
     9
100
AcDbLine
 10
1365.092893943741
 20
-2967.913076040181
 30
0.0
 11
1476.557638746914
 21
-2774.850474788388
 31
0.0
  0
LINE
  5
313
330
1F
100
AcDbEntity
  8
0-A_文字
  6
Continuous
 62
     7
370
     9
100
AcDbLine
 10
1476.557638746914
 20
-2774.850474788388
 30
0.0
 11
2080.940495279202
 21
-2774.850474788388
 31
0.0
  0
LINE
  5
314
330
1F
100
AcDbEntity
  8
0-A_文字
  6
Continuous
 62
     7
370
     9
100
AcDbLine
 10
365.4999467339712
 20
-2164.347671082973
 30
0.0
 11
778.7127897812697
 21
-2164.347671082973
 31
0.0
  0
LINE
  5
315
330
1F
100
AcDbEntity
  8
0-A_文字
  6
Continuous
 62
     7
370
     9
100
AcDbLine
 10
778.7127897812697
 20
-2164.347671082973
 30
0.0
 11
778.7127897812697
 21
-2304.025251831353
 31
0.0
  0
LINE
  5
316
330
1F
100
AcDbEntity
  8
0-A_文字
  6
Continuous
 62
     7
370
     9
100
AcDbLine
 10
778.7127897812697
 20
-2304.025251831353
 30
0.0
 11
365.4999467339712
 21
-2304.025251831353
 31
0.0
  0
LINE
  5
317
330
1F
100
AcDbEntity
  8
0-A_文字
  6
Continuous
 62
     7
370
     9
100
AcDbLine
 10
365.4999467339712
 20
-2304.025251831353
 30
0.0
 11
365.4999467339712
 21
-2164.347671082973
 31
0.0
  0
LINE
  5
318
330
1F
100
AcDbEntity
  8
0-A_文字
  6
Continuous
 62
     7
370
     9
100
AcDbLine
 10
365.4999467339712
 20
-3346.567137804034
 30
0.0
 11
778.7127897812697
 21
-3346.567137804034
 31
0.0
  0
LINE
  5
319
330
1F
100
AcDbEntity
  8
0-A_文字
  6
Continuous
 62
     7
370
     9
100
AcDbLine
 10
778.7127897812697
 20
-3346.567137804034
 30
0.0
 11
778.7127897812697
 21
-3206.889557055651
 31
0.0
  0
LINE
  5
31A
330
1F
100
AcDbEntity
  8
0-A_文字
  6
Continuous
 62
     7
370
     9
100
AcDbLine
 10
778.7127897812697
 20
-3206.889557055651
 30
0.0
 11
365.4999467339712
 21
-3206.889557055651
 31
0.0
  0
LINE
  5
31B
330
1F
100
AcDbEntity
  8
0-A_文字
  6
Continuous
 62
     7
370
     9
100
AcDbLine
 10
365.4999467339712
 20
-3206.889557055651
 30
0.0
 11
365.4999467339712
 21
-3346.567137804034
 31
0.0
  0
LINE
  5
31C
330
1F
100
AcDbEntity
  8
0-4_枠
  6
Continuous
 62
    92
370
    13
100
AcDbLine
 10
1026.599414212992
 20
-2495.248783733431
 30
0.0
 11
1188.598760971863
 21
-2495.248783733431
 31
0.0
  0
LINE
  5
31D
330
1F
100
AcDbEntity
  8
0-B_寸法
  6
Continuous
 62
   120
370
     5
100
AcDbLine
 10
1283.955802537376
 20
-2987.24793254044
 30
0.0
 11
1283.955802537376
 21
-3047.24793254044
 31
0.0
  0
LINE
  5
31E
330
1F
100
AcDbEntity
  8
0-B_寸法
  6
Continuous
 62
   120
370
     5
100
AcDbLine
 10
1283.955802537376
 20
-2987.24793254044
 30
0.0
 11
1206.76613650083
 21
-2987.24793254044
 31
0.0
  0
LINE
  5
31F
330
1F
100
AcDbEntity
  8
0-B_寸法
  6
Continuous
 62
   120
370
     5
100
AcDbLine
 10
1283.955802537376
 20
-3047.24793254044
 30
0.0
 11
1206.76613650083
 21
-3047.24793254044
 31
0.0
  0
LWPOLYLINE
  5
320
330
1F
100
AcDbEntity
  8
0-B_寸法
  6
Continuous
 62
     7
370
     9
100
AcDbPolyline
 90
        4
 70
     1
 43
3.0
 10
1285.455802537376
 20
-2987.24793254044
 42
0.4142135623731
 10
1283.955802537376
 20
-2985.74793254044
 42
0.4142135623731
 10
1282.455802537376
 20
-2987.24793254044
 42
0.4142135623731
 10
1283.955802537376
 20
-2988.74793254044
 42
0.4142135623731
  0
LWPOLYLINE
  5
321
330
1F
100
AcDbEntity
  8
0-B_寸法
  6
Continuous
 62
     7
370
     9
100
AcDbPolyline
 90
        4
 70
     1
 43
3.0
 10
1285.455802537376
 20
-3047.24793254044
 42
0.4142135623731
 10
1283.955802537376
 20
-3045.74793254044
 42
0.4142135623731
 10
1282.455802537376
 20
-3047.24793254044
 42
0.4142135623731
 10
1283.955802537376
 20
-3048.74793254044
 42
0.4142135623731
  0
LINE
  5
322
330
1F
100
AcDbEntity
  8
0-3_仕上げ
  6
Continuous
 62
    40
370
    15
100
AcDbLine
 10
1188.598760971863
 20
-2912.24793254044
 30
0.0
 11
1835.880293190596
 21
-2912.24793254044
 31
0.0
  0
LINE
  5
323
330
1F
100
AcDbEntity
  8
0-3_仕上げ
  6
Continuous
 62
    40
370
    15
100
AcDbLine
 10
1188.598760971863
 20
-2987.24793254044
 30
0.0
 11
1835.880293190596
 21
-2987.24793254044
 31
0.0
  0
LINE
  5
324
330
1F
100
AcDbEntity
  8
0-0_補助線
  6
JWW_HOJO
 62
   120
370
     5
100
AcDbLine
 10
1835.880293190596
 20
-2912.24793254044
 30
0.0
 11
1835.880293190596
 21
-2987.24793254044
 31
0.0
  0
LINE
  5
325
330
1F
100
AcDbEntity
  8
0-4_枠
  6
Continuous
 62
    92
370
    13
100
AcDbLine
 10
1188.598760971863
 20
-3047.24793254044
 30
0.0
 11
1188.598760971863
 21
-2495.248783733431
 31
0.0
  0
ARC
  5
326
330
1F
100
AcDbEntity
  8
0-4_枠
  6
Continuous
 62
    92
370
    13
100
AcDbCircle
 10
1026.599414212992
 20
-2513.248546191201
 30
0.0
 40
17.99999878213213
100
AcDbArc
 50
90.0
 51
180.0
  0
LINE
  5
327
330
1F
100
AcDbEntity
  8
0-4_枠
  6
Continuous
 62
    92
370
    13
100
AcDbLine
 10
1008.598909435755
 20
-3029.247932540441
 30
0.0
 11
1008.598909435755
 21
-2513.248546191201
 31
0.0
  0
LINE
  5
328
330
1F
100
AcDbEntity
  8
0-4_枠
  6
Continuous
 62
    92
370
    13
100
AcDbLine
 10
1026.598909435756
 20
-3047.24793254044
 30
0.0
 11
1188.598760971863
 21
-3047.24793254044
 31
0.0
  0
ARC
  5
329
330
1F
100
AcDbEntity
  8
0-4_枠
  6
Continuous
 62
    92
370
    13
100
AcDbCircle
 10
1026.598909435756
 20
-3029.247932540441
 30
0.0
 40
18.0
100
AcDbArc
 50
180.0
 51
270.0
  0
LINE
  5
32A
330
1F
100
AcDbEntity
  8
0-3_仕上げ
  6
Continuous
 62
    92
370
    13
100
AcDbLine
 10
1218.598859947791
 20
-2642.247912745256
 30
0.0
 11
1218.598859947791
 21
-2912.24793254044
 31
0.0
  0
LINE
  5
32B
330
1F
100
AcDbEntity
  8
0-C_ハッチ
  6
Continuous
 62
   120
370
     5
100
AcDbLine
 10
1110.805165374313
 20
-2495.248783733431
 30
0.0
 11
1008.598909435755
 21
-2597.454297352519
 31
0.0
  0
LINE
  5
32C
330
1F
100
AcDbEntity
  8
0-C_ハッチ
  6
Continuous
 62
   120
370
     5
100
AcDbLine
 10
1188.598760971863
 20
-2502.307499553744
 30
0.0
 11
1008.598909435755
 21
-2682.307351089849
 31
0.0
  0
LINE
  5
32D
330
1F
100
AcDbEntity
  8
0-C_ハッチ
  6
Continuous
 62
   120
370
     5
100
AcDbLine
 10
1188.598760971863
 20
-2587.160553291074
 30
0.0
 11
1008.598909435755
 21
-2767.161147146648
 31
0.0
  0
LINE
  5
32E
330
1F
100
AcDbEntity
  8
0-C_ハッチ
  6
Continuous
 62
   120
370
     5
100
AcDbLine
 10
1188.598760971863
 20
-2672.013607028406
 30
0.0
 11
1008.598909435755
 21
-2852.013458564513
 31
0.0
  0
LINE
  5
32F
330
1F
100
AcDbEntity
  8
0-C_ハッチ
  6
Continuous
 62
   120
370
     5
100
AcDbLine
 10
1188.598760971863
 20
-2756.865918446269
 30
0.0
 11
1008.598909435755
 21
-2936.866512301844
 31
0.0
  0
LINE
  5
330
330
1F
100
AcDbEntity
  8
0-C_ハッチ
  6
Continuous
 62
   120
370
     5
100
AcDbLine
 10
1188.598760971863
 20
-2841.718972183601
 30
0.0
 11
1008.598909435755
 21
-3021.718823719706
 31
0.0
  0
LINE
  5
331
330
1F
100
AcDbEntity
  8
0-C_ハッチ
  6
Continuous
 62
   120
370
     5
100
AcDbLine
 10
1188.598760971863
 20
-2926.572025920931
 30
0.0
 11
1067.92285435235
 21
-3047.24793254044
 31
0.0
  0
LINE
  5
332
330
1F
100
AcDbEntity
  8
0-C_ハッチ
  6
JWW_DASHED1
 62
   120
370
     5
100
AcDbLine
 10
1826.245991319654
 20
-2987.247932540442
 30
0.0
 11
1835.880293190596
 21
-2977.613630669496
 31
0.0
  0
LINE
  5
333
330
1F
100
AcDbEntity
  8
0-C_ハッチ
  6
JWW_DASHED1
 62
   120
370
     5
100
AcDbLine
 10
1783.819584448458
 20
-2987.247932540438
 30
0.0
 11
1835.880293190596
 21
-2935.187223798298
 31
0.0
  0
LINE
  5
334
330
1F
100
AcDbEntity
  8
0-C_ハッチ
  6
JWW_DASHED1
 62
   120
370
     5
100
AcDbLine
 10
1741.393177577258
 20
-2987.247932540435
 30
0.0
 11
1816.393177577254
 21
-2912.247932540438
 31
0.0
  0
LINE
  5
335
330
1F
100
AcDbEntity
  8
0-C_ハッチ
  6
JWW_DASHED1
 62
   120
370
     5
100
AcDbLine
 10
1698.966770706064
 20
-2987.247932540432
 30
0.0
 11
1773.966770706058
 21
-2912.247932540435
 31
0.0
  0
LINE
  5
336
330
1F
100
AcDbEntity
  8
0-C_ハッチ
  6
JWW_DASHED1
 62
   120
370
     5
100
AcDbLine
 10
1656.540363834864
 20
-2987.24793254043
 30
0.0
 11
1731.540363834864
 21
-2912.247932540433
 31
0.0
  0
LINE
  5
337
330
1F
100
AcDbEntity
  8
0-C_ハッチ
  6
JWW_DASHED1
 62
   120
370
     5
100
AcDbLine
 10
1614.113956963712
 20
-2987.247932540438
 30
0.0
 11
1689.113956963722
 21
-2912.247932540427
 31
0.0
  0
LINE
  5
338
330
1F
100
AcDbEntity
  8
0-C_ハッチ
  6
JWW_DASHED1
 62
   120
370
     5
100
AcDbLine
 10
1571.687550092505
 20
-2987.247932540445
 30
0.0
 11
1646.687550092515
 21
-2912.247932540433
 31
0.0
  0
LINE
  5
339
330
1F
100
AcDbEntity
  8
0-C_ハッチ
  6
JWW_DASHED1
 62
   120
370
     5
100
AcDbLine
 10
1529.261143221309
 20
-2987.24793254044
 30
0.0
 11
1604.261143221319
 21
-2912.24793254043
 31
0.0
  0
LINE
  5
33A
330
1F
100
AcDbEntity
  8
0-C_ハッチ
  6
JWW_DASHED1
 62
   120
370
     5
100
AcDbLine
 10
1486.834736350105
 20
-2987.247932540445
 30
0.0
 11
1561.834736350098
 21
-2912.247932540449
 31
0.0
  0
LINE
  5
33B
330
1F
100
AcDbEntity
  8
0-C_ハッチ
  6
JWW_DASHED1
 62
   120
370
     5
100
AcDbLine
 10
1444.408329478905
 20
-2987.247932540442
 30
0.0
 11
1519.408329478905
 21
-2912.247932540445
 31
0.0
  0
LINE
  5
33C
330
1F
100
AcDbEntity
  8
0-C_ハッチ
  6
JWW_DASHED1
 62
   120
370
     5
100
AcDbLine
 10
1401.981922607709
 20
-2987.247932540438
 30
0.0
 11
1476.981922607705
 21
-2912.247932540444
 31
0.0
  0
LINE
  5
33D
330
1F
100
AcDbEntity
  8
0-C_ハッチ
  6
JWW_DASHED1
 62
   120
370
     5
100
AcDbLine
 10
1359.555515736512
 20
-2987.247932540438
 30
0.0
 11
1434.555515736509
 21
-2912.24793254044
 31
0.0
  0
LINE
  5
33E
330
1F
100
AcDbEntity
  8
0-C_ハッチ
  6
JWW_DASHED1
 62
   120
370
     5
100
AcDbLine
 10
1317.129108865373
 20
-2987.24793254043
 30
0.0
 11
1392.129108865373
 21
-2912.247932540433
 31
0.0
  0
LINE
  5
33F
330
1F
100
AcDbEntity
  8
0-C_ハッチ
  6
JWW_DASHED1
 62
   120
370
     5
100
AcDbLine
 10
1274.702701994162
 20
-2987.247932540442
 30
0.0
 11
1349.702701994173
 21
-2912.24793254043
 31
0.0
  0
LINE
  5
340
330
1F
100
AcDbEntity
  8
0-C_ハッチ
  6
JWW_DASHED1
 62
   120
370
     5
100
AcDbLine
 10
1232.276295122965
 20
-2987.24793254044
 30
0.0
 11
1307.276295122973
 21
-2912.24793254043
 31
0.0
  0
LINE
  5
341
330
1F
100
AcDbEntity
  8
0-C_ハッチ
  6
JWW_DASHED1
 62
   120
370
     5
100
AcDbLine
 10
1189.849888251751
 20
-2987.247932540452
 30
0.0
 11
1264.849888251765
 21
-2912.24793254044
 31
0.0
  0
LINE
  5
342
330
1F
100
AcDbEntity
  8
0-C_ハッチ
  6
JWW_DASHED1
 62
   120
370
     5
100
AcDbLine
 10
1188.598760971873
 20
-2946.072652949133
 30
0.0
 11
1222.423481380551
 21
-2912.247932540452
 31
0.0
  0
LINE
  5
343
330
1F
100
AcDbEntity
  8
0-D_ハッチ2
  6
Continuous
 62
   120
370
     5
100
AcDbLine
 10
1026.599414212992
 20
-2495.248547409069
 30
0.0
 11
1026.599414212992
 21
-2356.094161994051
 31
0.0
  0
LINE
  5
344
330
1F
100
AcDbEntity
  8
0-D_ハッチ2
  6
Continuous
 62
   120
370
     5
100
AcDbLine
 10
906.5994142129923
 20
-2696.247932540441
 30
0.0
 11
906.5994142129923
 21
-2356.094161994051
 31
0.0
  0
LINE
  5
345
330
1F
100
AcDbEntity
  8
0-D_ハッチ2
  6
Continuous
 62
   120
370
     5
100
AcDbLine
 10
786.5994142129923
 20
-2696.247932540441
 30
0.0
 11
786.5994142129923
 21
-2356.094161994051
 31
0.0
  0
LINE
  5
346
330
1F
100
AcDbEntity
  8
0-D_ハッチ2
  6
Continuous
 62
   120
370
     5
100
AcDbLine
 10
426.599414212992
 20
-2696.247932540441
 30
0.0
 11
426.599414212992
 21
-2356.094161994051
 31
0.0
  0
LINE
  5
347
330
1F
100
AcDbEntity
  8
0-7_金物
  6
Continuous
 62
    92
370
    13
100
AcDbLine
 10
393.8060742099955
 20
-2696.247932540441
 30
0.0
 11
1008.598909435755
 21
-2696.247932540441
 31
0.0
  0
LINE
  5
348
330
1F
100
AcDbEntity
  8
0-7_金物
  6
Continuous
 62
    92
370
    13
100
AcDbLine
 10
393.8060742099955
 20
-2846.247932540441
 30
0.0
 11
1008.598909435755
 21
-2846.247932540441
 31
0.0
  0
LINE
  5
349
330
1F
100
AcDbEntity
  8
0-D_ハッチ2
  6
Continuous
 62
   120
370
     5
100
AcDbLine
 10
1026.599414212992
 20
-3047.247317671811
 30
0.0
 11
1026.599414212992
 21
-3186.40170308683
 31
0.0
  0
LINE
  5
34A
330
1F
100
AcDbEntity
  8
0-D_ハッチ2
  6
Continuous
 62
   120
370
     5
100
AcDbLine
 10
906.5994142129923
 20
-2846.247932540441
 30
0.0
 11
906.5994142129923
 21
-3186.40170308683
 31
0.0
  0
LINE
  5
34B
330
1F
100
AcDbEntity
  8
0-D_ハッチ2
  6
Continuous
 62
   120
370
     5
100
AcDbLine
 10
786.5994142129923
 20
-2846.247932540441
 30
0.0
 11
786.5994142129923
 21
-3186.40170308683
 31
0.0
  0
LINE
  5
34C
330
1F
100
AcDbEntity
  8
0-D_ハッチ2
  6
Continuous
 62
   120
370
     5
100
AcDbLine
 10
426.599414212992
 20
-2846.247932540441
 30
0.0
 11
426.599414212992
 21
-3186.40170308683
 31
0.0
  0
LINE
  5
34D
330
1F
100
AcDbEntity
  8
0-D_ハッチ2
  6
Continuous
 62
   120
370
     5
100
AcDbLine
 10
666.5994142129923
 20
-2846.247932540441
 30
0.0
 11
666.5994142129923
 21
-3186.40170308683
 31
0.0
  0
LINE
  5
34E
330
1F
100
AcDbEntity
  8
0-D_ハッチ2
  6
Continuous
 62
   120
370
     5
100
AcDbLine
 10
546.5994142129923
 20
-2846.247932540441
 30
0.0
 11
546.5994142129923
 21
-3186.40170308683
 31
0.0
  0
LINE
  5
34F
330
1F
100
AcDbEntity
  8
0-D_ハッチ2
  6
Continuous
 62
   120
370
     5
100
AcDbLine
 10
666.5994142129923
 20
-2696.247932540441
 30
0.0
 11
666.5994142129923
 21
-2356.094161994051
 31
0.0
  0
LINE
  5
350
330
1F
100
AcDbEntity
  8
0-D_ハッチ2
  6
Continuous
 62
   120
370
     5
100
AcDbLine
 10
546.5994142129923
 20
-2696.247932540441
 30
0.0
 11
546.5994142129923
 21
-2356.094161994051
 31
0.0
  0
LINE
  5
351
330
1F
100
AcDbEntity
  8
0-B_寸法
  6
Continuous
 62
   120
370
     5
100
AcDbLine
 10
604.8443397421638
 20
-2846.247932540441
 30
0.0
 11
719.4709938064377
 21
-2846.247932540441
 31
0.0
  0
LINE
  5
352
330
1F
100
AcDbEntity
  8
0-B_寸法
  6
Continuous
 62
   120
370
     5
100
AcDbLine
 10
604.8443397421638
 20
-2696.247932540441
 30
0.0
 11
719.4709938064377
 21
-2696.247932540441
 31
0.0
  0
LWPOLYLINE
  5
353
330
1F
100
AcDbEntity
  8
0-B_寸法
  6
Continuous
 62
     7
370
     9
100
AcDbPolyline
 90
        4
 70
     1
 43
3.0
 10
606.3443397421638
 20
-3047.24793254044
 42
0.4142135623731
 10
604.8443397421638
 20
-3045.74793254044
 42
0.4142135623731
 10
603.3443397421637
 20
-3047.24793254044
 42
0.4142135623731
 10
604.8443397421638
 20
-3048.74793254044
 42
0.4142135623731
  0
LWPOLYLINE
  5
354
330
1F
100
AcDbEntity
  8
0-B_寸法
  6
Continuous
 62
     7
370
     9
100
AcDbPolyline
 90
        4
 70
     1
 43
3.0
 10
606.3443397421638
 20
-2846.247932540441
 42
0.4142135623731
 10
604.8443397421638
 20
-2844.747932540441
 42
0.4142135623731
 10
603.3443397421637
 20
-2846.247932540441
 42
0.4142135623731
 10
604.8443397421638
 20
-2847.747932540441
 42
0.4142135623731
  0
LWPOLYLINE
  5
355
330
1F
100
AcDbEntity
  8
0-B_寸法
  6
Continuous
 62
     7
370
     9
100
AcDbPolyline
 90
        4
 70
     1
 43
3.0
 10
606.3443397421638
 20
-2696.247932540441
 42
0.4142135623731
 10
604.8443397421638
 20
-2694.747932540441
 42
0.4142135623731
 10
603.3443397421637
 20
-2696.247932540441
 42
0.4142135623731
 10
604.8443397421638
 20
-2697.747932540441
 42
0.4142135623731
  0
LWPOLYLINE
  5
356
330
1F
100
AcDbEntity
  8
0-B_寸法
  6
Continuous
 62
     7
370
     9
100
AcDbPolyline
 90
        4
 70
     1
 43
3.0
 10
606.3443397421638
 20
-2495.248783733431
 42
0.4142135623731
 10
604.8443397421638
 20
-2493.748783733431
 42
0.4142135623731
 10
603.3443397421637
 20
-2495.248783733431
 42
0.4142135623731
 10
604.8443397421638
 20
-2496.748783733431
 42
0.4142135623731
  0
LINE
  5
357
330
1F
100
AcDbEntity
  8
0-B_寸法
  6
Continuous
 62
   120
370
     5
100
AcDbLine
 10
719.4709938064377
 20
-3047.24793254044
 30
0.0
 11
604.8443397421638
 21
-3047.24793254044
 31
0.0
  0
LINE
  5
358
330
1F
100
AcDbEntity
  8
0-B_寸法
  6
Continuous
 62
   120
370
     5
100
AcDbLine
 10
719.4709938064377
 20
-2495.248783733431
 30
0.0
 11
604.8443397421638
 21
-2495.248783733431
 31
0.0
  0
LINE
  5
359
330
1F
100
AcDbEntity
  8
0-B_寸法
  6
Continuous
 62
   120
370
     5
100
AcDbLine
 10
604.8443397421638
 20
-3047.24793254044
 30
0.0
 11
604.8443397421638
 21
-2495.248783733431
 31
0.0
  0
LINE
  5
35A
330
1F
100
AcDbEntity
  8
0-D_ハッチ2
  6
Continuous
 62
   120
370
     5
100
AcDbLine
 10
1146.599414212994
 20
-3047.247317671811
 30
0.0
 11
1146.599414212994
 21
-3186.40170308683
 31
0.0
  0
LINE
  5
35B
330
1F
100
AcDbEntity
  8
0-D_ハッチ2
  6
Continuous
 62
   120
370
     5
100
AcDbLine
 10
1266.599414212994
 20
-2987.24793254044
 30
0.0
 11
1266.599414212994
 21
-3186.40170308683
 31
0.0
  0
LINE
  5
35C
330
1F
100
AcDbEntity
  8
0-D_ハッチ2
  6
Continuous
 62
   120
370
     5
100
AcDbLine
 10
1386.599414212992
 20
-2987.24793254044
 30
0.0
 11
1386.599414212992
 21
-3186.40170308683
 31
0.0
  0
LINE
  5
35D
330
1F
100
AcDbEntity
  8
0-D_ハッチ2
  6
Continuous
 62
   120
370
     5
100
AcDbLine
 10
1506.599414212992
 20
-2987.24793254044
 30
0.0
 11
1506.599414212992
 21
-3186.40170308683
 31
0.0
  0
LINE
  5
35E
330
1F
100
AcDbEntity
  8
0-D_ハッチ2
  6
Continuous
 62
   120
370
     5
100
AcDbLine
 10
1626.599414212992
 20
-2987.24793254044
 30
0.0
 11
1626.599414212992
 21
-3186.40170308683
 31
0.0
  0
LINE
  5
35F
330
1F
100
AcDbEntity
  8
0-D_ハッチ2
  6
Continuous
 62
   120
370
     5
100
AcDbLine
 10
1746.599414212992
 20
-2987.24793254044
 30
0.0
 11
1746.599414212992
 21
-3186.40170308683
 31
0.0
  0
LINE
  5
360
330
1F
100
AcDbEntity
  8
0-D_ハッチ2
  6
Continuous
 62
   120
370
     5
100
AcDbLine
 10
1866.599414212992
 20
-2987.24793254044
 30
0.0
 11
1866.599414212992
 21
-3186.40170308683
 31
0.0
  0
LINE
  5
361
330
1F
100
AcDbEntity
  8
0-B_寸法
  6
Continuous
 62
   120
370
     5
100
AcDbLine
 10
878.7634080244786
 20
-2495.248783733431
 30
0.0
 11
878.7634080244786
 21
-3047.24793254044
 31
0.0
  0
LWPOLYLINE
  5
362
330
1F
100
AcDbEntity
  8
0-B_寸法
  6
Continuous
 62
     7
370
     9
100
AcDbPolyline
 90
        4
 70
     1
 43
3.0
 10
880.2634080244786
 20
-2495.248783733431
 42
0.4142135623731
 10
878.7634080244786
 20
-2493.748783733431
 42
0.4142135623731
 10
877.2634080244785
 20
-2495.248783733431
 42
0.4142135623731
 10
878.7634080244786
 20
-2496.748783733431
 42
0.4142135623731
  0
LWPOLYLINE
  5
363
330
1F
100
AcDbEntity
  8
0-B_寸法
  6
Continuous
 62
     7
370
     9
100
AcDbPolyline
 90
        4
 70
     1
 43
3.0
 10
880.2634080244786
 20
-3047.24793254044
 42
0.4142135623731
 10
878.7634080244786
 20
-3045.74793254044
 42
0.4142135623731
 10
877.2634080244785
 20
-3047.24793254044
 42
0.4142135623731
 10
878.7634080244786
 20
-3048.74793254044
 42
0.4142135623731
  0
LINE
  5
364
330
1F
100
AcDbEntity
  8
0-B_寸法
  6
Continuous
 62
   120
370
     5
100
AcDbLine
 10
878.7634080244786
 20
-2495.248783733431
 30
0.0
 11
980.6116439868392
 21
-2495.248783733431
 31
0.0
  0
LINE
  5
365
330
1F
100
AcDbEntity
  8
0-B_寸法
  6
Continuous
 62
   120
370
     5
100
AcDbLine
 10
878.7634080244786
 20
-3047.24793254044
 30
0.0
 11
980.6116439868392
 21
-3047.24793254044
 31
0.0
  0
LINE
  5
366
330
1F
100
AcDbEntity
  8
0-7_金物
  6
Continuous
 62
     7
370
     9
100
AcDbLine
 10
1218.598859947791
 20
-2831.248556088794
 30
0.0
 11
1206.5992657491
 21
-2831.248556088794
 31
0.0
  0
LINE
  5
367
330
1F
100
AcDbEntity
  8
0-7_金物
  6
Continuous
 62
     7
370
     9
100
AcDbLine
 10
1206.5992657491
 20
-2831.248556088794
 30
0.0
 11
1206.5992657491
 21
-2711.248160185078
 31
0.0
  0
LINE
  5
368
330
1F
100
AcDbEntity
  8
0-7_金物
  6
Continuous
 62
     7
370
     9
100
AcDbLine
 10
1206.5992657491
 20
-2711.248160185078
 30
0.0
 11
1218.598859947791
 21
-2711.248160185078
 31
0.0
  0
LINE
  5
369
330
1F
100
AcDbEntity
  8
0-7_金物
  6
Continuous
 62
     7
370
     9
100
AcDbLine
 10
1206.5992657491
 20
-2801.248457112865
 30
0.0
 11
1188.598760971863
 21
-2801.248457112865
 31
0.0
  0
LINE
  5
36A
330
1F
100
AcDbEntity
  8
0-7_金物
  6
Continuous
 62
     7
370
     9
100
AcDbLine
 10
1188.598760971863
 20
-2741.248259161007
 30
0.0
 11
1206.5992657491
 21
-2741.248259161007
 31
0.0
  0
LINE
  5
36B
330
1F
100
AcDbEntity
  8
0-7_金物
  6
Continuous
 62
     7
370
     9
100
AcDbLine
 10
1194.598929230941
 20
-2801.248457112865
 30
0.0
 11
1194.598929230941
 21
-2741.248259161007
 31
0.0
  0
LINE
  5
36C
330
1F
100
AcDbEntity
  8
0-7_金物
  6
Continuous
 62
     7
370
     9
100
AcDbLine
 10
1200.599097490022
 20
-2801.248457112865
 30
0.0
 11
1200.599097490022
 21
-2741.248259161007
 31
0.0
  0
LINE
  5
36D
330
1F
100
AcDbEntity
  8
0-7_金物
  6
Continuous
 62
     7
370
     9
100
AcDbLine
 10
1188.598760971863
 20
-2801.248457112865
 30
0.0
 11
1188.598760971863
 21
-2741.248259161007
 31
0.0
  0
LWPOLYLINE
  5
36E
330
1F
100
AcDbEntity
  8
0-0_補助線
  6
Continuous
 62
     7
370
     9
100
AcDbPolyline
 90
        4
 70
     1
 43
3.0
 10
681.548918268619
 20
-1566.172861450789
 42
0.4142135623731
 10
680.048918268619
 20
-1564.672861450789
 42
0.4142135623731
 10
678.5489182686189
 20
-1566.172861450789
 42
0.4142135623731
 10
680.048918268619
 20
-1567.672861450789
 42
0.4142135623731
  0
LINE
  5
36F
330
1F
100
AcDbEntity
  8
0-0_補助線
  6
Continuous
 62
   120
370
     5
100
AcDbLine
 10
680.048918268619
 20
-1566.172861450789
 30
0.0
 11
680.048918268619
 21
-1386.172861450789
 31
0.0
  0
LWPOLYLINE
  5
370
330
1F
100
AcDbEntity
  8
0-0_補助線
  6
Continuous
 62
     7
370
     9
100
AcDbPolyline
 90
        4
 70
     1
 43
3.0
 10
681.5489182686183
 20
-254.8301827687145
 42
0.4142135623731
 10
680.0489182686183
 20
-253.3301827687145
 42
0.4142135623731
 10
678.5489182686183
 20
-254.8301827687145
 42
0.4142135623731
 10
680.0489182686183
 20
-256.3301827687145
 42
0.4142135623731
  0
LINE
  5
371
330
1F
100
AcDbEntity
  8
0-0_補助線
  6
Continuous
 62
   120
370
     5
100
AcDbLine
 10
680.0489182686183
 20
-254.8301827687145
 30
0.0
 11
680.0489182686183
 21
-398.3722325687153
 31
0.0
  0
LINE
  5
372
330
1F
100
AcDbEntity
  8
0-0_補助線
  6
Continuous
 62
   120
370
     5
100
AcDbLine
 10
1875.049627580353
 20
-1188.66340924956
 30
0.0
 11
1875.049627580353
 21
-1258.663207173707
 31
0.0
  0
LWPOLYLINE
  5
373
330
1F
100
AcDbEntity
  8
0-0_補助線
  6
Continuous
 62
     7
370
     9
100
AcDbPolyline
 90
        4
 70
     1
 43
3.0
 10
1876.549627580353
 20
-1188.66340924956
 42
0.4142135623731
 10
1875.049627580353
 20
-1187.16340924956
 42
0.4142135623731
 10
1873.549627580353
 20
-1188.66340924956
 42
0.4142135623731
 10
1875.049627580353
 20
-1190.163409249559
 42
0.4142135623731
  0
LWPOLYLINE
  5
374
330
1F
100
AcDbEntity
  8
0-0_補助線
  6
Continuous
 62
     7
370
     9
100
AcDbPolyline
 90
        4
 70
     1
 43
3.0
 10
1876.549627580353
 20
-1258.663207173707
 42
0.4142135623731
 10
1875.049627580353
 20
-1257.163207173707
 42
0.4142135623731
 10
1873.549627580353
 20
-1258.663207173707
 42
0.4142135623731
 10
1875.049627580353
 20
-1260.163207173706
 42
0.4142135623731
  0
LINE
  5
375
330
1F
100
AcDbEntity
  8
0-0_補助線
  6
Continuous
 62
   120
370
     5
100
AcDbLine
 10
1875.049627580353
 20
-1188.66340924956
 30
0.0
 11
1683.316319944082
 21
-1188.66340924956
 31
0.0
  0
LINE
  5
376
330
1F
100
AcDbEntity
  8
0-0_補助線
  6
Continuous
 62
   120
370
     5
100
AcDbLine
 10
1875.049627580353
 20
-1258.663207173707
 30
0.0
 11
1683.316319944082
 21
-1258.663207173707
 31
0.0
  0
LWPOLYLINE
  5
377
330
1F
100
AcDbEntity
  8
0-0_補助線
  6
Continuous
 62
     7
370
     9
100
AcDbPolyline
 90
        4
 70
     1
 43
3.0
 10
1601.549281180365
 20
-1566.172861450789
 42
0.4142135623731
 10
1600.049281180365
 20
-1564.672861450789
 42
0.4142135623731
 10
1598.549281180365
 20
-1566.172861450789
 42
0.4142135623731
 10
1600.049281180365
 20
-1567.672861450789
 42
0.4142135623731
  0
LINE
  5
378
330
1F
100
AcDbEntity
  8
0-0_補助線
  6
Continuous
 62
   120
370
     5
100
AcDbLine
 10
1600.049281180365
 20
-1566.172861450789
 30
0.0
 11
1600.049281180365
 21
-1386.172861450789
 31
0.0
  0
LWPOLYLINE
  5
379
330
1F
100
AcDbEntity
  8
0-0_補助線
  6
Continuous
 62
     7
370
     9
100
AcDbPolyline
 90
        4
 70
     1
 43
3.0
 10
1601.549281180365
 20
-254.8301827687145
 42
0.4142135623731
 10
1600.049281180365
 20
-253.3301827687145
 42
0.4142135623731
 10
1598.549281180365
 20
-254.8301827687145
 42
0.4142135623731
 10
1600.049281180365
 20
-256.3301827687145
 42
0.4142135623731
  0
LINE
  5
37A
330
1F
100
AcDbEntity
  8
0-0_補助線
  6
Continuous
 62
   120
370
     5
100
AcDbLine
 10
1600.049281180365
 20
-254.8301827687145
 30
0.0
 11
1600.049281180365
 21
-398.3722325687153
 31
0.0
  0
LINE
  5
37B
330
1F
100
AcDbEntity
  8
0-0_補助線
  6
Continuous
 62
   120
370
     5
100
AcDbLine
 10
680.0489182686183
 20
-254.8301827687145
 30
0.0
 11
1600.049281180365
 21
-254.8301827687145
 31
0.0
  0
LWPOLYLINE
  5
37C
330
1F
100
AcDbEntity
  8
0-0_補助線
  6
Continuous
 62
     7
370
     9
100
AcDbPolyline
 90
        4
 70
     1
 43
3.0
 10
681.5489182686183
 20
-254.8301827687145
 42
0.4142135623731
 10
680.0489182686183
 20
-253.3301827687145
 42
0.4142135623731
 10
678.5489182686183
 20
-254.8301827687145
 42
0.4142135623731
 10
680.0489182686183
 20
-256.3301827687145
 42
0.4142135623731
  0
LWPOLYLINE
  5
37D
330
1F
100
AcDbEntity
  8
0-0_補助線
  6
Continuous
 62
     7
370
     9
100
AcDbPolyline
 90
        4
 70
     1
 43
3.0
 10
1601.549281180365
 20
-254.8301827687145
 42
0.4142135623731
 10
1600.049281180365
 20
-253.3301827687145
 42
0.4142135623731
 10
1598.549281180365
 20
-254.8301827687145
 42
0.4142135623731
 10
1600.049281180365
 20
-256.3301827687145
 42
0.4142135623731
  0
LINE
  5
37E
330
1F
100
AcDbEntity
  8
0-0_補助線
  6
JWW_HOJO
 62
   120
370
     5
100
AcDbLine
 10
680.0485718528597
 20
-398.3722325687153
 30
0.0
 11
1600.049281180365
 21
-398.3722325687153
 31
0.0
  0
LINE
  5
37F
330
1F
100
AcDbEntity
  8
0-0_補助線
  6
JWW_HOJO
 62
   120
370
     5
100
AcDbLine
 10
680.0485718528597
 20
-448.3722325687143
 30
0.0
 11
1600.049281180365
 21
-448.3722325687143
 31
0.0
  0
LINE
  5
380
330
1F
100
AcDbEntity
  8
0-0_補助線
  6
Continuous
 62
   120
370
     5
100
AcDbLine
 10
680.048918268619
 20
-1566.172861450789
 30
0.0
 11
1025.049710076048
 21
-1566.172861450789
 31
0.0
  0
LWPOLYLINE
  5
381
330
1F
100
AcDbEntity
  8
0-0_補助線
  6
Continuous
 62
     7
370
     9
100
AcDbPolyline
 90
        4
 70
     1
 43
3.0
 10
681.548918268619
 20
-1566.172861450789
 42
0.4142135623731
 10
680.048918268619
 20
-1564.672861450789
 42
0.4142135623731
 10
678.5489182686189
 20
-1566.172861450789
 42
0.4142135623731
 10
680.048918268619
 20
-1567.672861450789
 42
0.4142135623731
  0
LWPOLYLINE
  5
382
330
1F
100
AcDbEntity
  8
0-0_補助線
  6
Continuous
 62
     7
370
     9
100
AcDbPolyline
 90
        4
 70
     1
 43
3.0
 10
1026.549710076048
 20
-1566.172861450789
 42
0.4142135623731
 10
1025.049710076048
 20
-1564.672861450789
 42
0.4142135623731
 10
1023.549710076048
 20
-1566.172861450789
 42
0.4142135623731
 10
1025.049710076048
 20
-1567.672861450789
 42
0.4142135623731
  0
LINE
  5
383
330
1F
100
AcDbEntity
  8
0-0_補助線
  6
Continuous
 62
   120
370
     5
100
AcDbLine
 10
1600.049281180365
 20
-1566.172861450789
 30
0.0
 11
1255.04997401186
 21
-1566.172861450789
 31
0.0
  0
LWPOLYLINE
  5
384
330
1F
100
AcDbEntity
  8
0-0_補助線
  6
Continuous
 62
     7
370
     9
100
AcDbPolyline
 90
        4
 70
     1
 43
3.0
 10
1601.549281180365
 20
-1566.172861450789
 42
0.4142135623731
 10
1600.049281180365
 20
-1564.672861450789
 42
0.4142135623731
 10
1598.549281180365
 20
-1566.172861450789
 42
0.4142135623731
 10
1600.049281180365
 20
-1567.672861450789
 42
0.4142135623731
  0
LWPOLYLINE
  5
385
330
1F
100
AcDbEntity
  8
0-0_補助線
  6
Continuous
 62
     7
370
     9
100
AcDbPolyline
 90
        4
 70
     1
 43
3.0
 10
1256.54997401186
 20
-1566.172861450789
 42
0.4142135623731
 10
1255.04997401186
 20
-1564.672861450789
 42
0.4142135623731
 10
1253.549974011861
 20
-1566.172861450789
 42
0.4142135623731
 10
1255.04997401186
 20
-1567.672861450789
 42
0.4142135623731
  0
LINE
  5
386
330
1F
100
AcDbEntity
  8
0-0_補助線
  6
Continuous
 62
    92
370
    13
100
AcDbLine
 10
680.0489182686183
 20
-448.3722325687143
 30
0.0
 11
680.0489182686183
 21
-1188.66340924956
 31
0.0
  0
LINE
  5
387
330
1F
100
AcDbEntity
  8
0-0_補助線
  6
Continuous
 62
    92
370
    13
100
AcDbLine
 10
680.0489182686183
 20
-1188.66340924956
 30
0.0
 11
1025.049710076048
 21
-1188.66340924956
 31
0.0
  0
LINE
  5
388
330
1F
100
AcDbEntity
  8
0-0_補助線
  6
Continuous
 62
    92
370
    13
100
AcDbLine
 10
1255.04997401186
 20
-1188.66340924956
 30
0.0
 11
1600.049281180365
 21
-1188.66340924956
 31
0.0
  0
LINE
  5
389
330
1F
100
AcDbEntity
  8
0-0_補助線
  6
Continuous
 62
    92
370
    13
100
AcDbLine
 10
1600.049281180365
 20
-448.3722325687143
 30
0.0
 11
1600.049281180365
 21
-1188.66340924956
 31
0.0
  0
LINE
  5
38A
330
1F
100
AcDbEntity
  8
1-A_文字
  6
Continuous
 62
     7
370
     9
100
AcDbLine
 10
3227.498339138407
 20
-1110.008966346757
 30
0.0
 11
3354.17290389085
 21
-1252.694526829235
 31
0.0
  0
LINE
  5
38B
330
1F
100
AcDbEntity
  8
1-3_仕上げ
  6
Continuous
 62
    40
370
    15
100
AcDbLine
 10
2586.892548548175
 20
-1141.477026017822
 30
0.0
 11
3666.892548548173
 21
-1141.477026017822
 31
0.0
  0
LINE
  5
38C
330
1F
100
AcDbEntity
  8
1-0_補助線
  6
JWW_HOJO
 62
   120
370
     5
100
AcDbLine
 10
2586.892548548175
 20
-1320.965050416058
 30
0.0
 11
3666.892548548173
 21
-1320.965050416058
 31
0.0
  0
LINE
  5
38D
330
1F
100
AcDbEntity
  8
1-B_寸法
  6
Continuous
 62
   120
370
     5
100
AcDbLine
 10
3696.892548548173
 20
-1141.477026017822
 30
0.0
 11
3966.892548548172
 21
-1141.477026017822
 31
0.0
  0
LWPOLYLINE
  5
38E
330
1F
100
AcDbEntity
  8
1-B_寸法
  6
Continuous
 62
     7
370
     9
100
AcDbPolyline
 90
        4
 70
     1
 43
3.0
 10
3968.392548548173
 20
-1141.477026017822
 42
0.4142135623731
 10
3966.892548548172
 20
-1139.977026017822
 42
0.4142135623731
 10
3965.392548548172
 20
-1141.477026017822
 42
0.4142135623731
 10
3966.892548548172
 20
-1142.977026017822
 42
0.4142135623731
  0
LINE
  5
38F
330
1F
100
AcDbEntity
  8
1-B_寸法
  6
Continuous
 62
   120
370
     5
100
AcDbLine
 10
2939.392548548175
 20
-1200.965050415885
 30
0.0
 11
2939.392548548175
 21
-1320.965050415885
 31
0.0
  0
LWPOLYLINE
  5
390
330
1F
100
AcDbEntity
  8
1-B_寸法
  6
Continuous
 62
     7
370
     9
100
AcDbPolyline
 90
        4
 70
     1
 43
3.0
 10
2940.892548548175
 20
-1320.965050415885
 42
0.4142135623731
 10
2939.392548548175
 20
-1319.465050415885
 42
0.4142135623731
 10
2937.892548548175
 20
-1320.965050415885
 42
0.4142135623731
 10
2939.392548548175
 20
-1322.465050415885
 42
0.4142135623731
  0
MTEXT
  5
391
330
1F
100
AcDbEntity
  8
1-B_寸法
  6
Continuous
 62
     7
370
     0
100
AcDbMText
 10
2929.886868154645
 20
-1445.672335659114
 30
0.0
 40
91.44
 41
60.0
 46
0.0
 71
     7
 72
     1
  1
{\fＭＳ ゴシック|b0|i0|c128|p49;1}
 73
     1
 44
1.0
  0
LINE
  5
392
330
1F
100
AcDbEntity
  8
1-B_寸法
  6
Continuous
 62
   120
370
     5
100
AcDbLine
 10
3314.392548548175
 20
-1200.965050415885
 30
0.0
 11
3314.392548548175
 21
-1320.965050415885
 31
0.0
  0
LWPOLYLINE
  5
393
330
1F
100
AcDbEntity
  8
1-B_寸法
  6
Continuous
 62
     7
370
     9
100
AcDbPolyline
 90
        4
 70
     1
 43
3.0
 10
3315.892548548175
 20
-1320.965050415885
 42
0.4142135623731
 10
3314.392548548175
 20
-1319.465050415885
 42
0.4142135623731
 10
3312.892548548175
 20
-1320.965050415885
 42
0.4142135623731
 10
3314.392548548175
 20
-1322.465050415885
 42
0.4142135623731
  0
MTEXT
  5
394
330
1F
100
AcDbEntity
  8
1-B_寸法
  6
Continuous
 62
     7
370
     0
100
AcDbMText
 10
3280.352318957011
 20
-1445.672335659114
 30
0.0
 40
91.44
 41
60.0
 46
0.0
 71
     7
 72
     1
  1
{\fＭＳ ゴシック|b0|i0|c128|p49;1}
 73
     1
 44
1.0
  0
LINE
  5
395
330
1F
100
AcDbEntity
  8
1-B_寸法
  6
Continuous
 62
   120
370
     5
100
AcDbLine
 10
2939.392548548175
 20
-1320.965050415885
 30
0.0
 11
3314.392548548175
 21
-1320.965050415885
 31
0.0
  0
LINE
  5
396
330
1F
100
AcDbEntity
  8
1-B_寸法
  6
Continuous
 62
   120
370
     5
100
AcDbLine
 10
3299.392548548175
 20
-1200.965050415885
 30
0.0
 11
3299.392548548175
 21
-1320.965050415885
 31
0.0
  0
LWPOLYLINE
  5
397
330
1F
100
AcDbEntity
  8
1-B_寸法
  6
Continuous
 62
     7
370
     9
100
AcDbPolyline
 90
        4
 70
     1
 43
3.0
 10
3300.892548548175
 20
-1320.965050415885
 42
0.4142135623731
 10
3299.392548548175
 20
-1319.465050415885
 42
0.4142135623731
 10
3297.892548548175
 20
-1320.965050415885
 42
0.4142135623731
 10
3299.392548548175
 20
-1322.465050415885
 42
0.4142135623731
  0
LINE
  5
398
330
1F
100
AcDbEntity
  8
1-B_寸法
  6
Continuous
 62
   120
370
     5
100
AcDbLine
 10
2954.392694348342
 20
-1200.965050415885
 30
0.0
 11
2954.392694348342
 21
-1320.965050415885
 31
0.0
  0
LWPOLYLINE
  5
399
330
1F
100
AcDbEntity
  8
1-B_寸法
  6
Continuous
 62
     7
370
     9
100
AcDbPolyline
 90
        4
 70
     1
 43
3.0
 10
2955.892694348341
 20
-1320.965050415885
 42
0.4142135623731
 10
2954.392694348342
 20
-1319.465050415885
 42
0.4142135623731
 10
2952.892694348342
 20
-1320.965050415885
 42
0.4142135623731
 10
2954.392694348342
 20
-1322.465050415885
 42
0.4142135623731
  0
MTEXT
  5
39A
330
1F
100
AcDbEntity
  8
1-B_寸法
  6
Continuous
 62
     7
370
     0
100
AcDbMText
 10
3066.892621448256
 20
-1325.851917025
 30
0.0
 40
91.44
 41
120.0
 46
0.0
 71
     7
 72
     1
  1
{\fＭＳ ゴシック|b0|i0|c128|p49;23}
 73
     1
 44
1.0
  0
LINE
  5
39B
330
1F
100
AcDbEntity
  8
1-B_寸法
  6
Continuous
 62
   120
370
     5
100
AcDbLine
 10
3696.892548548173
 20
-1066.477026017822
 30
0.0
 11
3966.892548548172
 21
-1066.477026017822
 31
0.0
  0
LWPOLYLINE
  5
39C
330
1F
100
AcDbEntity
  8
1-B_寸法
  6
Continuous
 62
     7
370
     9
100
AcDbPolyline
 90
        4
 70
     1
 43
3.0
 10
3968.392548548173
 20
-1066.477026017822
 42
0.4142135623731
 10
3966.892548548172
 20
-1064.977026017822
 42
0.4142135623731
 10
3965.392548548172
 20
-1066.477026017822
 42
0.4142135623731
 10
3966.892548548172
 20
-1067.977026017822
 42
0.4142135623731
  0
LINE
  5
39D
330
1F
100
AcDbEntity
  8
1-B_寸法
  6
Continuous
 62
   120
370
     5
100
AcDbLine
 10
2886.892548548175
 20
-879.6370890654882
 30
0.0
 11
2886.892548548175
 21
-519.6370890654882
 31
0.0
  0
LWPOLYLINE
  5
39E
330
1F
100
AcDbEntity
  8
1-B_寸法
  6
Continuous
 62
     7
370
     9
100
AcDbPolyline
 90
        4
 70
     1
 43
3.0
 10
2888.392548548175
 20
-759.6370890654882
 42
0.4142135623731
 10
2886.892548548175
 20
-758.1370890654881
 42
0.4142135623731
 10
2885.392548548175
 20
-759.6370890654882
 42
0.4142135623731
 10
2886.892548548175
 20
-761.1370890654882
 42
0.4142135623731
  0
LWPOLYLINE
  5
39F
330
1F
100
AcDbEntity
  8
1-B_寸法
  6
Continuous
 62
     7
370
     9
100
AcDbPolyline
 90
        4
 70
     1
 43
3.0
 10
2888.392548548175
 20
-639.6370890654882
 42
0.4142135623731
 10
2886.892548548175
 20
-638.1370890654881
 42
0.4142135623731
 10
2885.392548548175
 20
-639.6370890654882
 42
0.4142135623731
 10
2886.892548548175
 20
-641.1370890654882
 42
0.4142135623731
  0
LWPOLYLINE
  5
3A0
330
1F
100
AcDbEntity
  8
1-B_寸法
  6
Continuous
 62
     7
370
     9
100
AcDbPolyline
 90
        4
 70
     1
 43
3.0
 10
2888.392548548175
 20
-519.6370890654882
 42
0.4142135623731
 10
2886.892548548175
 20
-518.1370890654881
 42
0.4142135623731
 10
2885.392548548175
 20
-519.6370890654882
 42
0.4142135623731
 10
2886.892548548175
 20
-521.1370890654882
 42
0.4142135623731
  0
MTEXT
  5
3A1
330
1F
100
AcDbEntity
  8
1-B_寸法
  6
Continuous
 62
     7
370
   211
100
AcDbMText
 10
2651.211433020477
 20
-653.6581444743138
 30
0.0
 40
91.44
 41
240.0
 46
0.0
 71
     7
 72
     1
  1
{\fＭＳ ゴシック|b0|i0|c128|p49;10.5}
 73
     1
 44
1.0
  0
LINE
  5
3A2
330
1F
100
AcDbEntity
  8
1-0_補助線
  6
JWW_HOJO
 62
   120
370
     5
100
AcDbLine
 10
2586.892548548175
 20
-519.6370890654882
 30
0.0
 11
2586.892548548175
 21
-1320.965050416058
 31
0.0
  0
LINE
  5
3A3
330
1F
100
AcDbEntity
  8
1-0_補助線
  6
JWW_HOJO
 62
   120
370
     5
100
AcDbLine
 10
2886.892548548175
 20
-759.6370890654882
 30
0.0
 11
3366.892548548175
 21
-759.6370890654882
 31
0.0
  0
LINE
  5
3A4
330
1F
100
AcDbEntity
  8
1-0_補助線
  6
JWW_HOJO
 62
   120
370
     5
100
AcDbLine
 10
2886.892548548175
 20
-639.6370890654882
 30
0.0
 11
3366.892548548175
 21
-639.6370890654882
 31
0.0
  0
LINE
  5
3A5
330
1F
100
AcDbEntity
  8
1-B_寸法
  6
Continuous
 62
   120
370
     5
100
AcDbLine
 10
2886.892548548175
 20
-639.6370890654882
 30
0.0
 11
3366.892548548175
 21
-639.6370890654882
 31
0.0
  0
LINE
  5
3A6
330
1F
100
AcDbEntity
  8
1-B_寸法
  6
Continuous
 62
   120
370
     5
100
AcDbLine
 10
2886.892548548175
 20
-519.6370890654882
 30
0.0
 11
3366.892548548175
 21
-519.6370890654882
 31
0.0
  0
LWPOLYLINE
  5
3A7
330
1F
100
AcDbEntity
  8
1-B_寸法
  6
Continuous
 62
     7
370
     9
100
AcDbPolyline
 90
        4
 70
     1
 43
3.0
 10
3368.392548548175
 20
-759.6370890654882
 42
0.4142135623731
 10
3366.892548548175
 20
-758.1370890654881
 42
0.4142135623731
 10
3365.392548548175
 20
-759.6370890654882
 42
0.4142135623731
 10
3366.892548548175
 20
-761.1370890654882
 42
0.4142135623731
  0
LWPOLYLINE
  5
3A8
330
1F
100
AcDbEntity
  8
1-B_寸法
  6
Continuous
 62
     7
370
     9
100
AcDbPolyline
 90
        4
 70
     1
 43
3.0
 10
3368.392548548175
 20
-639.6370890654882
 42
0.4142135623731
 10
3366.892548548175
 20
-638.1370890654881
 42
0.4142135623731
 10
3365.392548548175
 20
-639.6370890654882
 42
0.4142135623731
 10
3366.892548548175
 20
-641.1370890654882
 42
0.4142135623731
  0
LWPOLYLINE
  5
3A9
330
1F
100
AcDbEntity
  8
1-B_寸法
  6
Continuous
 62
     7
370
     9
100
AcDbPolyline
 90
        4
 70
     1
 43
3.0
 10
3368.392548548175
 20
-519.6370890654882
 42
0.4142135623731
 10
3366.892548548175
 20
-518.1370890654881
 42
0.4142135623731
 10
3365.392548548175
 20
-519.6370890654882
 42
0.4142135623731
 10
3366.892548548175
 20
-521.1370890654882
 42
0.4142135623731
  0
LINE
  5
3AA
330
1F
100
AcDbEntity
  8
1-B_寸法
  6
Continuous
 62
   120
370
     5
100
AcDbLine
 10
3366.892548548175
 20
-879.6370890654882
 30
0.0
 11
3366.892548548175
 21
-519.6370890654882
 31
0.0
  0
MTEXT
  5
3AB
330
1F
100
AcDbEntity
  8
1-B_寸法
  6
Continuous
 62
     7
370
   211
100
AcDbMText
 10
3368.144639033153
 20
-653.6581444743138
 30
0.0
 40
91.44
 41
240.0
 46
0.0
 71
     7
 72
     1
  1
{\fＭＳ ゴシック|b0|i0|c128|p49;10.5}
 73
     1
 44
1.0
  0
LINE
  5
3AC
330
1F
100
AcDbEntity
  8
1-0_補助線
  6
JWW_HOJO
 62
   120
370
     5
100
AcDbLine
 10
2586.892548548175
 20
-519.6370890654882
 30
0.0
 11
3666.892548548173
 21
-519.6370890654882
 31
0.0
  0
LINE
  5
3AD
330
1F
100
AcDbEntity
  8
1-0_補助線
  6
JWW_HOJO
 62
   120
370
     5
100
AcDbLine
 10
3666.892548548173
 20
-519.6370890654882
 30
0.0
 11
3666.892548548173
 21
-1320.965050416058
 31
0.0
  0
LINE
  5
3AE
330
1F
100
AcDbEntity
  8
1-B_寸法
  6
Continuous
 62
   120
370
     5
100
AcDbLine
 10
3696.892548548173
 20
-961.4770260178221
 30
0.0
 11
3966.892548548172
 21
-961.4770260178221
 31
0.0
  0
LWPOLYLINE
  5
3AF
330
1F
100
AcDbEntity
  8
1-B_寸法
  6
Continuous
 62
     7
370
     9
100
AcDbPolyline
 90
        4
 70
     1
 43
3.0
 10
3968.392548548173
 20
-961.4770260178221
 42
0.4142135623731
 10
3966.892548548172
 20
-959.9770260178221
 42
0.4142135623731
 10
3965.392548548172
 20
-961.4770260178221
 42
0.4142135623731
 10
3966.892548548172
 20
-962.977026017822
 42
0.4142135623731
  0
LWPOLYLINE
  5
3B0
330
1F
100
AcDbEntity
  8
1-B_寸法
  6
Continuous
 62
     7
370
     9
100
AcDbPolyline
 90
        4
 70
     1
 43
3.0
 10
3045.892548548175
 20
-639.6370890654882
 42
0.4142135623731
 10
3044.392548548175
 20
-638.1370890654881
 42
0.4142135623731
 10
3042.892548548175
 20
-639.6370890654882
 42
0.4142135623731
 10
3044.392548548175
 20
-641.1370890654882
 42
0.4142135623731
  0
LINE
  5
3B1
330
1F
100
AcDbEntity
  8
1-B_寸法
  6
Continuous
 62
   120
370
     5
100
AcDbLine
 10
3044.392548548175
 20
-639.6370890654882
 30
0.0
 11
3044.392548548175
 21
-879.6370890654882
 31
0.0
  0
LWPOLYLINE
  5
3B2
330
1F
100
AcDbEntity
  8
1-B_寸法
  6
Continuous
 62
     7
370
     9
100
AcDbPolyline
 90
        4
 70
     1
 43
3.0
 10
3210.892548548175
 20
-639.6370890654882
 42
0.4142135623731
 10
3209.392548548175
 20
-638.1370890654881
 42
0.4142135623731
 10
3207.892548548175
 20
-639.6370890654882
 42
0.4142135623731
 10
3209.392548548175
 20
-641.1370890654882
 42
0.4142135623731
  0
LINE
  5
3B3
330
1F
100
AcDbEntity
  8
1-B_寸法
  6
Continuous
 62
   120
370
     5
100
AcDbLine
 10
3209.392548548175
 20
-639.6370890654882
 30
0.0
 11
3209.392548548175
 21
-879.6370890654882
 31
0.0
  0
MTEXT
  5
3B4
330
1F
100
AcDbEntity
  8
1-B_寸法
  6
Continuous
 62
     7
370
   211
100
AcDbMText
 10
3066.892548548175
 20
-653.6581444743138
 30
0.0
 40
91.44
 41
120.0
 46
0.0
 71
     7
 72
     1
  1
{\fＭＳ ゴシック|b0|i0|c128|p49;11}
 73
     1
 44
1.0
  0
LINE
  5
3B5
330
1F
100
AcDbEntity
  8
1-3_仕上げ
  6
Continuous
 62
    40
370
    15
100
AcDbLine
 10
2939.60805307524
 20
-961.4770260178221
 30
0.0
 11
2586.892548548175
 21
-961.4770260178221
 31
0.0
  0
LINE
  5
3B6
330
1F
100
AcDbEntity
  8
1-3_仕上げ
  6
Continuous
 62
    40
370
    15
100
AcDbLine
 10
3314.17704402111
 20
-961.4770260178221
 30
0.0
 11
3666.892548548173
 21
-961.4770260178221
 31
0.0
  0
MTEXT
  5
3B7
330
1F
100
AcDbEntity
  8
1-B_寸法
  6
Continuous
 62
     7
370
     0
100
AcDbMText
 10
3959.545319898649
 20
-1148.257026017822
 30
0.0
 40
91.44
 41
60.0
 46
0.0
 71
     7
 72
     1
  1
{\fＭＳ ゴシック|b0|i0|c128|p49;5}
 11
6.123031769111886E-17
 21
1.0
 31
0.0
 73
     1
 44
1.0
  0
MTEXT
  5
3B8
330
1F
100
AcDbEntity
  8
1-B_寸法
  6
Continuous
 62
     7
370
     0
100
AcDbMText
 10
3958.284830073361
 20
-1058.257026017822
 30
0.0
 40
91.44
 41
60.0
 46
0.0
 71
     7
 72
     1
  1
{\fＭＳ ゴシック|b0|i0|c128|p49;7}
 11
6.123031769111886E-17
 21
1.0
 31
0.0
 73
     1
 44
1.0
  0
MTEXT
  5
3B9
330
1F
100
AcDbEntity
  8
1-B_寸法
  6
Continuous
 62
     7
370
     0
100
AcDbMText
 10
3066.892548548175
 20
-533.6580544062161
 30
0.0
 40
91.44
 41
120.0
 46
0.0
 71
     7
 72
     1
  1
{\fＭＳ ゴシック|b0|i0|c128|p49;32}
 73
     1
 44
1.0
  0
LINE
  5
3BA
330
1F
100
AcDbEntity
  8
1-3_仕上げ
  6
Continuous
 62
     7
370
     9
100
AcDbLine
 10
2939.392548548175
 20
-997.4770260178218
 30
0.0
 11
2586.892548548175
 21
-997.4770260178218
 31
0.0
  0
LINE
  5
3BB
330
1F
100
AcDbEntity
  8
1-3_仕上げ
  6
Continuous
 62
     7
370
     9
100
AcDbLine
 10
2939.392548548175
 20
-1033.477026017822
 30
0.0
 11
2586.892548548175
 21
-1033.477026017822
 31
0.0
  0
LINE
  5
3BC
330
1F
100
AcDbEntity
  8
1-3_仕上げ
  6
Continuous
 62
     7
370
     9
100
AcDbLine
 10
2939.392548548175
 20
-1069.477026017821
 30
0.0
 11
2586.892548548175
 21
-1069.477026017821
 31
0.0
  0
LINE
  5
3BD
330
1F
100
AcDbEntity
  8
1-3_仕上げ
  6
Continuous
 62
     7
370
     9
100
AcDbLine
 10
2939.392548548175
 20
-1105.477026017822
 30
0.0
 11
2586.892548548175
 21
-1105.477026017822
 31
0.0
  0
LINE
  5
3BE
330
1F
100
AcDbEntity
  8
1-3_仕上げ
  6
Continuous
 62
     7
370
     9
100
AcDbLine
 10
3666.892548548173
 20
-997.9049962557726
 30
0.0
 11
3314.392548548175
 21
-997.9049962557726
 31
0.0
  0
LINE
  5
3BF
330
1F
100
AcDbEntity
  8
1-3_仕上げ
  6
Continuous
 62
     7
370
     9
100
AcDbLine
 10
3666.892548548173
 20
-1033.904996255773
 30
0.0
 11
3314.392548548175
 21
-1033.904996255773
 31
0.0
  0
LINE
  5
3C0
330
1F
100
AcDbEntity
  8
1-3_仕上げ
  6
Continuous
 62
     7
370
     9
100
AcDbLine
 10
3666.892548548173
 20
-1069.904996255773
 30
0.0
 11
3314.392548548175
 21
-1069.904996255773
 31
0.0
  0
LINE
  5
3C1
330
1F
100
AcDbEntity
  8
1-3_仕上げ
  6
Continuous
 62
     7
370
     9
100
AcDbLine
 10
3666.892548548173
 20
-1105.904996255772
 30
0.0
 11
3314.392548548175
 21
-1105.904996255772
 31
0.0
  0
LINE
  5
3C2
330
1F
100
AcDbEntity
  8
1-B_寸法
  6
Continuous
 62
   120
370
     5
100
AcDbLine
 10
3966.892548548172
 20
-1141.477026017822
 30
0.0
 11
3966.892548548172
 21
-943.4770260178215
 31
0.0
  0
LINE
  5
3C3
330
1F
100
AcDbEntity
  8
1-B_寸法
  6
Continuous
 62
   120
370
     5
100
AcDbLine
 10
3696.892548548173
 20
-943.4770260178215
 30
0.0
 11
3966.892548548172
 21
-943.4770260178215
 31
0.0
  0
LWPOLYLINE
  5
3C4
330
1F
100
AcDbEntity
  8
1-B_寸法
  6
Continuous
 62
     7
370
     9
100
AcDbPolyline
 90
        4
 70
     1
 43
3.0
 10
3968.392548548173
 20
-943.4770260178215
 42
0.4142135623731
 10
3966.892548548172
 20
-941.9770260178215
 42
0.4142135623731
 10
3965.392548548172
 20
-943.4770260178215
 42
0.4142135623731
 10
3966.892548548172
 20
-944.9770260178215
 42
0.4142135623731
  0
LINE
  5
3C5
330
1F
100
AcDbEntity
  8
1-B_寸法
  6
Continuous
 62
   120
370
     5
100
AcDbLine
 10
3272.392548548172
 20
-759.6370890654882
 30
0.0
 11
3366.892548548175
 21
-759.6370890654882
 31
0.0
  0
LWPOLYLINE
  5
3C6
330
1F
100
AcDbEntity
  8
1-B_寸法
  6
Continuous
 62
     7
370
     9
100
AcDbPolyline
 90
        4
 70
     1
 43
3.0
 10
3273.892548548172
 20
-759.6370890654882
 42
0.4142135623731
 10
3272.392548548172
 20
-758.1370890654881
 42
0.4142135623731
 10
3270.892548548172
 20
-759.6370890654882
 42
0.4142135623731
 10
3272.392548548172
 20
-761.1370890654882
 42
0.4142135623731
  0
LINE
  5
3C7
330
1F
100
AcDbEntity
  8
1-B_寸法
  6
Continuous
 62
   120
370
     5
100
AcDbLine
 10
3272.392548548172
 20
-759.6370890654882
 30
0.0
 11
3272.392548548172
 21
-879.6370890654882
 31
0.0
  0
LINE
  5
3C8
330
1F
100
AcDbEntity
  8
1-B_寸法
  6
Continuous
 62
   120
370
     5
100
AcDbLine
 10
2886.892548548175
 20
-759.6370890654882
 30
0.0
 11
2981.392548548174
 21
-759.6370890654882
 31
0.0
  0
LINE
  5
3C9
330
1F
100
AcDbEntity
  8
1-B_寸法
  6
Continuous
 62
   120
370
     5
100
AcDbLine
 10
2981.392548548174
 20
-759.6370890654882
 30
0.0
 11
2981.392548548174
 21
-879.6370890654882
 31
0.0
  0
LWPOLYLINE
  5
3CA
330
1F
100
AcDbEntity
  8
1-B_寸法
  6
Continuous
 62
     7
370
     9
100
AcDbPolyline
 90
        4
 70
     1
 43
3.0
 10
2982.892548548174
 20
-759.6370890654882
 42
0.4142135623731
 10
2981.392548548174
 20
-758.1370890654881
 42
0.4142135623731
 10
2979.892548548174
 20
-759.6370890654882
 42
0.4142135623731
 10
2981.392548548174
 20
-761.1370890654882
 42
0.4142135623731
  0
MTEXT
  5
3CB
330
1F
100
AcDbEntity
  8
1-B_寸法
  6
Continuous
 62
     7
370
   211
100
AcDbMText
 10
3282.293043922698
 20
-773.6581444743138
 30
0.0
 40
91.44
 41
180.0
 46
0.0
 71
     7
 72
     1
  1
{\fＭＳ ゴシック|b0|i0|c128|p49;6.3}
 73
     1
 44
1.0
  0
MTEXT
  5
3CC
330
1F
100
AcDbEntity
  8
1-B_寸法
  6
Continuous
 62
     7
370
   211
100
AcDbMText
 10
2788.738289625126
 20
-776.3657209193536
 30
0.0
 40
91.44
 41
180.0
 46
0.0
 71
     7
 72
     1
  1
{\fＭＳ ゴシック|b0|i0|c128|p49;6.3}
 73
     1
 44
1.0
  0
MTEXT
  5
3CD
330
1F
100
AcDbEntity
  8
1-B_寸法
  6
Continuous
 62
     7
370
     0
100
AcDbMText
 10
3960.805809723937
 20
-958.2420930692678
 30
0.0
 40
91.44
 41
180.0
 46
0.0
 71
     7
 72
     1
  1
{\fＭＳ ゴシック|b0|i0|c128|p49;1.2}
 11
6.123031769111886E-17
 21
1.0
 31
0.0
 73
     1
 44
1.0
  0
LINE
  5
3CE
330
1F
100
AcDbEntity
  8
1-C_ハッチ
  6
Continuous
 62
   120
370
     5
100
AcDbLine
 10
2954.392548548175
 20
-1086.776305196095
 30
0.0
 11
2976.892548548175
 21
-1064.276305196094
 31
0.0
  0
LINE
  5
3CF
330
1F
100
AcDbEntity
  8
1-7_金物
  6
Continuous
 62
    92
370
    13
100
AcDbLine
 10
2976.892548548175
 20
-1066.477026017822
 30
0.0
 11
3276.892548548175
 21
-1066.477026017822
 31
0.0
  0
LINE
  5
3D0
330
1F
100
AcDbEntity
  8
1-7_金物
  6
Continuous
 62
    92
370
    13
100
AcDbLine
 10
2976.892548548175
 20
-1036.477026017821
 30
0.0
 11
2976.892548548175
 21
-1066.477026017822
 31
0.0
  0
LINE
  5
3D1
330
1F
100
AcDbEntity
  8
1-7_金物
  6
Continuous
 62
    92
370
    13
100
AcDbLine
 10
2976.892548548175
 20
-1036.477026017821
 30
0.0
 11
2954.392402748008
 21
-1036.477026017821
 31
0.0
  0
LINE
  5
3D2
330
1F
100
AcDbEntity
  8
1-7_金物
  6
Continuous
 62
    92
370
    13
100
AcDbLine
 10
3276.892548548175
 20
-1036.477026017821
 30
0.0
 11
3298.919836847288
 21
-1036.477026017821
 31
0.0
  0
LINE
  5
3D3
330
1F
100
AcDbEntity
  8
1-7_金物
  6
Continuous
 62
    92
370
    13
100
AcDbLine
 10
3276.892548548175
 20
-1036.477026017821
 30
0.0
 11
3276.892548548175
 21
-1066.477026017822
 31
0.0
  0
LINE
  5
3D4
330
1F
100
AcDbEntity
  8
1-7_金物
  6
Continuous
 62
    92
370
    13
100
AcDbLine
 10
3298.919691047118
 20
-1036.476470192074
 30
0.0
 11
3298.919691047118
 21
-1141.477026017822
 31
0.0
  0
LINE
  5
3D5
330
1F
100
AcDbEntity
  8
1-7_金物
  6
Continuous
 62
    92
370
    13
100
AcDbLine
 10
2954.392548548175
 20
-1036.476470192074
 30
0.0
 11
2954.392548548175
 21
-1141.477026017822
 31
0.0
  0
LINE
  5
3D6
330
1F
100
AcDbEntity
  8
1-7_金物
  6
Continuous
 62
    92
370
    13
100
AcDbLine
 10
2954.392548548175
 20
-1141.477026017822
 30
0.0
 11
3298.919691047118
 21
-1141.477026017822
 31
0.0
  0
LINE
  5
3D7
330
1F
100
AcDbEntity
  8
1-C_ハッチ
  6
Continuous
 62
   120
370
     5
100
AcDbLine
 10
3281.529489567193
 20
-1141.477026017822
 30
0.0
 11
3298.919691047118
 21
-1124.086824537895
 31
0.0
  0
LINE
  5
3D8
330
1F
100
AcDbEntity
  8
1-C_ハッチ
  6
Continuous
 62
   120
370
     5
100
AcDbLine
 10
2963.331438033248
 20
-1141.477026017822
 30
0.0
 11
3038.331438033248
 21
-1066.477026017822
 31
0.0
  0
LINE
  5
3D9
330
1F
100
AcDbEntity
  8
1-C_ハッチ
  6
Continuous
 62
   120
370
     5
100
AcDbLine
 10
3154.250268953593
 20
-1141.477026017822
 30
0.0
 11
3229.250268953593
 21
-1066.477026017822
 31
0.0
  0
LINE
  5
3DA
330
1F
100
AcDbEntity
  8
1-C_ハッチ
  6
Continuous
 62
   120
370
     5
100
AcDbLine
 10
3090.610658646793
 20
-1141.477026017822
 30
0.0
 11
3165.6106586468
 21
-1066.477026017816
 31
0.0
  0
LINE
  5
3DB
330
1F
100
AcDbEntity
  8
1-C_ハッチ
  6
Continuous
 62
   120
370
     5
100
AcDbLine
 10
3026.971048339993
 20
-1141.477026017822
 30
0.0
 11
3101.971048340004
 21
-1066.477026017812
 31
0.0
  0
LINE
  5
3DC
330
1F
100
AcDbEntity
  8
1-C_ハッチ
  6
Continuous
 62
   120
370
     5
100
AcDbLine
 10
3217.889879260393
 20
-1141.477026017822
 30
0.0
 11
3298.919691047118
 21
-1060.447214231096
 31
0.0
  0
LINE
  5
3DD
330
1F
100
AcDbEntity
  8
1-0_補助線
  6
JWW_HOJO
 62
   120
370
     5
100
AcDbLine
 10
3126.892548548175
 20
-946.9880184304952
 30
0.0
 11
3126.892548548175
 21
-1101.195801614135
 31
0.0
  0
LINE
  5
3DE
330
1F
100
AcDbEntity
  8
1-7_金物
  6
Continuous
 62
     7
370
     9
100
AcDbLine
 10
2999.392548548175
 20
-1048.477026017822
 30
0.0
 11
3029.392548548175
 21
-1048.477026017822
 31
0.0
  0
LINE
  5
3DF
330
1F
100
AcDbEntity
  8
1-7_金物
  6
Continuous
 62
     7
370
     9
100
AcDbLine
 10
3044.392548548175
 20
-1048.477026017822
 30
0.0
 11
3122.392548548175
 21
-1048.477026017822
 31
0.0
  0
LINE
  5
3E0
330
1F
100
AcDbEntity
  8
1-7_金物
  6
Continuous
 62
     7
370
     9
100
AcDbLine
 10
3122.392548548175
 20
-1048.477026017822
 30
0.0
 11
3126.892548548175
 21
-1052.977026017822
 31
0.0
  0
LINE
  5
3E1
330
1F
100
AcDbEntity
  8
1-7_金物
  6
Continuous
 62
     7
370
     9
100
AcDbLine
 10
3126.892548548175
 20
-1052.977026017822
 30
0.0
 11
3131.392548548177
 21
-1048.477026017822
 31
0.0
  0
LINE
  5
3E2
330
1F
100
AcDbEntity
  8
1-7_金物
  6
Continuous
 62
     7
370
     9
100
AcDbLine
 10
3131.392548548177
 20
-1048.477026017822
 30
0.0
 11
3209.392548548175
 21
-1048.477026017822
 31
0.0
  0
LINE
  5
3E3
330
1F
100
AcDbEntity
  8
1-7_金物
  6
Continuous
 62
     7
370
     9
100
AcDbLine
 10
3224.392548548175
 20
-1048.477026017822
 30
0.0
 11
3254.392548548175
 21
-1048.477026017822
 31
0.0
  0
LINE
  5
3E4
330
1F
100
AcDbEntity
  8
1-7_金物
  6
Continuous
 62
     7
370
     9
100
AcDbLine
 10
3362.392548548176
 20
-961.4770260178221
 30
0.0
 11
3272.392548548175
 21
-961.4770260178221
 31
0.0
  0
LINE
  5
3E5
330
1F
100
AcDbEntity
  8
1-7_金物
  6
Continuous
 62
     7
370
     9
100
AcDbLine
 10
2981.392548548177
 20
-961.4770260178221
 30
0.0
 11
2891.392548548177
 21
-961.4770260178221
 31
0.0
  0
LINE
  5
3E6
330
1F
100
AcDbEntity
  8
1-7_金物
  6
Continuous
 62
     7
370
     9
100
AcDbLine
 10
2981.392548548177
 20
-943.4770260178215
 30
0.0
 11
2891.392548548177
 21
-952.4770260178218
 31
0.0
  0
ARC
  5
3E7
330
1F
100
AcDbEntity
  8
1-7_金物
  6
Continuous
 62
     7
370
     9
100
AcDbCircle
 10
2891.392548548177
 20
-956.977026017822
 30
0.0
 40
4.500000000000001
100
AcDbArc
 50
90.0
 51
270.0
  0
ARC
  5
3E8
330
1F
100
AcDbEntity
  8
1-7_金物
  6
Continuous
 62
     7
370
     9
100
AcDbCircle
 10
3362.392548548176
 20
-956.977026017822
 30
0.0
 40
4.500000000000001
100
AcDbArc
 50
270.0
 51
89.99999999999997
  0
LINE
  5
3E9
330
1F
100
AcDbEntity
  8
1-7_金物
  6
Continuous
 62
     7
370
     9
100
AcDbLine
 10
3362.392548548176
 20
-952.4770260178218
 30
0.0
 11
3272.392548548175
 21
-943.4770260178215
 31
0.0
  0
LINE
  5
3EA
330
1F
100
AcDbEntity
  8
1-7_金物
  6
Continuous
 62
     7
370
     9
100
AcDbLine
 10
3035.392548548176
 20
-943.4770260178215
 30
0.0
 11
2981.392548548177
 21
-943.4770260178215
 31
0.0
  0
ARC
  5
3EB
330
1F
100
AcDbEntity
  8
1-7_金物
  6
Continuous
 62
     7
370
     9
100
AcDbCircle
 10
3035.392548548176
 20
-952.4770260178218
 30
0.0
 40
9.000000000000002
100
AcDbArc
 50
0.0
 51
90.0
  0
ARC
  5
3EC
330
1F
100
AcDbEntity
  8
1-7_金物
  6
Continuous
 62
     7
370
     9
100
AcDbCircle
 10
3035.392548548176
 20
-952.4770260178218
 30
0.0
 40
9.000000000000002
100
AcDbArc
 50
270.0
 51
0.0
  0
ARC
  5
3ED
330
1F
100
AcDbEntity
  8
1-7_金物
  6
Continuous
 62
     7
370
     9
100
AcDbCircle
 10
3218.392548548173
 20
-952.4770260178218
 30
0.0
 40
9.000000000000002
100
AcDbArc
 50
180.0
 51
270.0
  0
LINE
  5
3EE
330
1F
100
AcDbEntity
  8
1-7_金物
  6
Continuous
 62
     7
370
     9
100
AcDbLine
 10
3218.392548548173
 20
-943.4770260178215
 30
0.0
 11
3272.392548548175
 21
-943.4770260178215
 31
0.0
  0
ARC
  5
3EF
330
1F
100
AcDbEntity
  8
1-7_金物
  6
Continuous
 62
     7
370
     9
100
AcDbCircle
 10
3218.392548548173
 20
-952.4770260178218
 30
0.0
 40
9.000000000000002
100
AcDbArc
 50
90.0
 51
180.0
  0
LINE
  5
3F0
330
1F
100
AcDbEntity
  8
1-7_金物
  6
Continuous
 62
     7
370
     9
100
AcDbLine
 10
3272.392548548175
 20
-1043.977026017822
 30
0.0
 11
3272.392548548175
 21
-961.4770260178221
 31
0.0
  0
ARC
  5
3F1
330
1F
100
AcDbEntity
  8
1-7_金物
  6
Continuous
 62
     7
370
     9
100
AcDbCircle
 10
3249.892548548175
 20
-1043.977026017822
 30
0.0
 40
22.5
100
AcDbArc
 50
270.0
 51
0.0
  0
LINE
  5
3F2
330
1F
100
AcDbEntity
  8
1-7_金物
  6
Continuous
 62
     7
370
     9
100
AcDbLine
 10
2981.392548548177
 20
-1043.977026017822
 30
0.0
 11
2981.392548548177
 21
-961.4770260178221
 31
0.0
  0
LINE
  5
3F3
330
1F
100
AcDbEntity
  8
1-7_金物
  6
Continuous
 62
     7
370
     9
100
AcDbLine
 10
3003.892548548177
 20
-1066.477026017822
 30
0.0
 11
3249.892548548175
 21
-1066.477026017822
 31
0.0
  0
ARC
  5
3F4
330
1F
100
AcDbEntity
  8
1-7_金物
  6
Continuous
 62
     7
370
     9
100
AcDbCircle
 10
3003.892548548177
 20
-1043.977026017822
 30
0.0
 40
22.5
100
AcDbArc
 50
180.0
 51
270.0
  0
LINE
  5
3F5
330
1F
100
AcDbEntity
  8
1-7_金物
  6
Continuous
 62
     7
370
     9
100
AcDbLine
 10
3006.892548548175
 20
-961.4770260178221
 30
0.0
 11
3035.392548548176
 21
-961.4770260178221
 31
0.0
  0
LINE
  5
3F6
330
1F
100
AcDbEntity
  8
1-7_金物
  6
Continuous
 62
     7
370
     9
100
AcDbLine
 10
2999.392548548175
 20
-968.9770260178221
 30
0.0
 11
2999.392548548175
 21
-1048.477026017822
 31
0.0
  0
ARC
  5
3F7
330
1F
100
AcDbEntity
  8
1-7_金物
  6
Continuous
 62
     7
370
     9
100
AcDbCircle
 10
3006.892548548175
 20
-968.9770260178221
 30
0.0
 40
7.5
100
AcDbArc
 50
90.0
 51
180.0
  0
LINE
  5
3F8
330
1F
100
AcDbEntity
  8
1-7_金物
  6
Continuous
 62
     7
370
     9
100
AcDbLine
 10
3246.892548548175
 20
-961.4770260178221
 30
0.0
 11
3218.392548548173
 21
-961.4770260178221
 31
0.0
  0
LINE
  5
3F9
330
1F
100
AcDbEntity
  8
1-7_金物
  6
Continuous
 62
     7
370
     9
100
AcDbLine
 10
3254.392548548175
 20
-968.9770260178221
 30
0.0
 11
3254.392548548175
 21
-1048.477026017822
 31
0.0
  0
ARC
  5
3FA
330
1F
100
AcDbEntity
  8
1-7_金物
  6
Continuous
 62
     7
370
     9
100
AcDbCircle
 10
3246.892548548175
 20
-968.9770260178221
 30
0.0
 40
7.5
100
AcDbArc
 50
0.0
 51
90.0
  0
LINE
  5
3FB
330
1F
100
AcDbEntity
  8
1-7_金物
  6
Continuous
 62
     7
370
     9
100
AcDbLine
 10
3029.392548548175
 20
-1036.477026017822
 30
0.0
 11
3029.392548548175
 21
-1048.477026017822
 31
0.0
  0
ARC
  5
3FC
330
1F
100
AcDbEntity
  8
1-7_金物
  6
Continuous
 62
     7
370
     9
100
AcDbCircle
 10
3032.392548548175
 20
-1036.477026017822
 30
0.0
 40
3.0
100
AcDbArc
 50
90.0
 51
180.0
  0
LINE
  5
3FD
330
1F
100
AcDbEntity
  8
1-7_金物
  6
Continuous
 62
     7
370
     9
100
AcDbLine
 10
3041.392548548177
 20
-1033.477026017822
 30
0.0
 11
3032.392548548175
 21
-1033.477026017822
 31
0.0
  0
LINE
  5
3FE
330
1F
100
AcDbEntity
  8
1-7_金物
  6
Continuous
 62
     7
370
     9
100
AcDbLine
 10
3044.392548548175
 20
-1036.477026017822
 30
0.0
 11
3044.392548548175
 21
-1048.477026017822
 31
0.0
  0
ARC
  5
3FF
330
1F
100
AcDbEntity
  8
1-7_金物
  6
Continuous
 62
     7
370
     9
100
AcDbCircle
 10
3041.392548548177
 20
-1036.477026017822
 30
0.0
 40
3.0
100
AcDbArc
 50
0.0
 51
90.0
  0
LINE
  5
400
330
1F
100
AcDbEntity
  8
1-7_金物
  6
Continuous
 62
     7
370
     9
100
AcDbLine
 10
3209.392548548175
 20
-1036.477026017822
 30
0.0
 11
3209.392548548175
 21
-1048.477026017822
 31
0.0
  0
ARC
  5
401
330
1F
100
AcDbEntity
  8
1-7_金物
  6
Continuous
 62
     7
370
     9
100
AcDbCircle
 10
3212.392548548175
 20
-1036.477026017822
 30
0.0
 40
3.0
100
AcDbArc
 50
90.0
 51
180.0
  0
LINE
  5
402
330
1F
100
AcDbEntity
  8
1-7_金物
  6
Continuous
 62
     7
370
     9
100
AcDbLine
 10
3221.392548548177
 20
-1033.477026017822
 30
0.0
 11
3212.392548548175
 21
-1033.477026017822
 31
0.0
  0
LINE
  5
403
330
1F
100
AcDbEntity
  8
1-7_金物
  6
Continuous
 62
     7
370
     9
100
AcDbLine
 10
3224.392548548175
 20
-1036.477026017822
 30
0.0
 11
3224.392548548175
 21
-1048.477026017822
 31
0.0
  0
ARC
  5
404
330
1F
100
AcDbEntity
  8
1-7_金物
  6
Continuous
 62
     7
370
     9
100
AcDbCircle
 10
3221.392548548177
 20
-1036.477026017822
 30
0.0
 40
3.0
100
AcDbArc
 50
0.0
 51
90.0
  0
ARC
  5
405
330
1F
100
AcDbEntity
  8
1-7_金物
  6
JWW_DASHED1
 62
     7
370
     9
100
AcDbCircle
 10
2891.392548548177
 20
-956.977026017822
 30
0.0
 40
4.500000000000001
100
AcDbArc
 50
270.0
 51
90.0
  0
ARC
  5
406
330
1F
100
AcDbEntity
  8
1-7_金物
  6
JWW_DASHED1
 62
     7
370
     9
100
AcDbCircle
 10
3362.392548548176
 20
-956.977026017822
 30
0.0
 40
4.500000000000001
100
AcDbArc
 50
90.0
 51
270.0
  0
LINE
  5
407
330
1F
100
AcDbEntity
  8
1-3_仕上げ
  6
Continuous
 62
    40
370
    15
100
AcDbLine
 10
3314.392548548175
 20
-961.4770260178221
 30
0.0
 11
3314.392548548175
 21
-1141.477026017822
 31
0.0
  0
LINE
  5
408
330
1F
100
AcDbEntity
  8
1-3_仕上げ
  6
Continuous
 62
    40
370
    15
100
AcDbLine
 10
2939.392548548175
 20
-961.4770260178221
 30
0.0
 11
2939.392548548175
 21
-1141.477026017822
 31
0.0
  0
LINE
  5
409
330
1F
100
AcDbEntity
  8
1-A_文字
  6
Continuous
 62
     7
370
     9
100
AcDbLine
 10
3354.17290389085
 20
-1252.694526829235
 30
0.0
 11
3420.725528367811
 21
-1252.694526829235
 31
0.0
  0
MTEXT
  5
40A
330
1F
100
AcDbEntity
  8
1-A_文字
  6
Continuous
 62
     7
370
     0
100
AcDbMText
 10
3407.7841343948
 20
-1327.315545612038
 30
0.0
 40
91.43999999999994
 41
599.9999999999995
 46
0.0
 71
     7
 72
     1
  1
{\fＭＳ ゴシック|b0|i0|c128|p49;下地ベース}
 73
     1
 44
1.0
  0
LINE
  5
40B
330
1F
100
AcDbEntity
  8
1-C_ハッチ
  6
Continuous
 62
   120
370
     5
100
AcDbLine
 10
2954.392548548175
 20
-3060.271843172912
 30
0.0
 11
2976.892548548175
 21
-3037.771843172911
 31
0.0
  0
LINE
  5
40C
330
1F
100
AcDbEntity
  8
1-7_金物
  6
Continuous
 62
    92
370
    13
100
AcDbLine
 10
2976.892548548175
 20
-3039.972563994639
 30
0.0
 11
3276.892548548175
 21
-3039.972563994639
 31
0.0
  0
LINE
  5
40D
330
1F
100
AcDbEntity
  8
1-7_金物
  6
Continuous
 62
    92
370
    13
100
AcDbLine
 10
2976.892548548175
 20
-3009.972563994638
 30
0.0
 11
2976.892548548175
 21
-3039.972563994639
 31
0.0
  0
LINE
  5
40E
330
1F
100
AcDbEntity
  8
1-7_金物
  6
Continuous
 62
    92
370
    13
100
AcDbLine
 10
2976.892548548175
 20
-3009.972563994638
 30
0.0
 11
2954.392402748008
 21
-3009.972563994638
 31
0.0
  0
LINE
  5
40F
330
1F
100
AcDbEntity
  8
1-7_金物
  6
Continuous
 62
    92
370
    13
100
AcDbLine
 10
3276.892548548175
 20
-3009.972563994638
 30
0.0
 11
3298.919836847288
 21
-3009.972563994638
 31
0.0
  0
LINE
  5
410
330
1F
100
AcDbEntity
  8
1-7_金物
  6
Continuous
 62
    92
370
    13
100
AcDbLine
 10
3276.892548548175
 20
-3009.972563994638
 30
0.0
 11
3276.892548548175
 21
-3039.972563994639
 31
0.0
  0
LINE
  5
411
330
1F
100
AcDbEntity
  8
1-7_金物
  6
Continuous
 62
    92
370
    13
100
AcDbLine
 10
3298.919691047118
 20
-3009.97200816889
 30
0.0
 11
3298.919691047118
 21
-3114.972563994639
 31
0.0
  0
LINE
  5
412
330
1F
100
AcDbEntity
  8
1-7_金物
  6
Continuous
 62
    92
370
    13
100
AcDbLine
 10
2954.392548548175
 20
-3009.97200816889
 30
0.0
 11
2954.392548548175
 21
-3114.972563994639
 31
0.0
  0
LINE
  5
413
330
1F
100
AcDbEntity
  8
1-7_金物
  6
Continuous
 62
    92
370
    13
100
AcDbLine
 10
2954.392548548175
 20
-3114.972563994639
 30
0.0
 11
3298.919691047118
 21
-3114.972563994639
 31
0.0
  0
LINE
  5
414
330
1F
100
AcDbEntity
  8
1-C_ハッチ
  6
Continuous
 62
   120
370
     5
100
AcDbLine
 10
3281.529489567193
 20
-3114.972563994639
 30
0.0
 11
3298.919691047118
 21
-3097.582362514712
 31
0.0
  0
LINE
  5
415
330
1F
100
AcDbEntity
  8
1-C_ハッチ
  6
Continuous
 62
   120
370
     5
100
AcDbLine
 10
2963.331438033248
 20
-3114.972563994639
 30
0.0
 11
3038.331438033248
 21
-3039.972563994639
 31
0.0
  0
LINE
  5
416
330
1F
100
AcDbEntity
  8
1-C_ハッチ
  6
Continuous
 62
   120
370
     5
100
AcDbLine
 10
3154.250268953593
 20
-3114.972563994639
 30
0.0
 11
3229.250268953593
 21
-3039.972563994639
 31
0.0
  0
LINE
  5
417
330
1F
100
AcDbEntity
  8
1-C_ハッチ
  6
Continuous
 62
   120
370
     5
100
AcDbLine
 10
3090.610658646793
 20
-3114.972563994639
 30
0.0
 11
3165.6106586468
 21
-3039.972563994633
 31
0.0
  0
LINE
  5
418
330
1F
100
AcDbEntity
  8
1-C_ハッチ
  6
Continuous
 62
   120
370
     5
100
AcDbLine
 10
3026.971048339993
 20
-3114.972563994639
 30
0.0
 11
3101.971048340004
 21
-3039.972563994628
 31
0.0
  0
LINE
  5
419
330
1F
100
AcDbEntity
  8
1-C_ハッチ
  6
Continuous
 62
   120
370
     5
100
AcDbLine
 10
3217.889879260393
 20
-3114.972563994639
 30
0.0
 11
3298.919691047118
 21
-3033.942752207913
 31
0.0
  0
LINE
  5
41A
330
1F
100
AcDbEntity
  8
0-A_文字
  6
Continuous
 62
    92
370
    13
100
AcDbLine
 10
-5659.999495325861
 20
3730.000181455872
 30
0.0
 11
-5659.999495325861
 21
4000.000181455872
 31
0.0
  0
LINE
  5
41B
330
1F
100
AcDbEntity
  8
0-A_文字
  6
Continuous
 62
    92
370
    13
100
AcDbLine
 10
-5659.999495325861
 20
3730.000181455872
 30
0.0
 11
-2214.285714285711
 21
3730.000181455872
 31
0.0
  0
LINE
  5
41C
330
1F
100
AcDbEntity
  8
0-A_文字
  6
Continuous
 62
    92
370
    13
100
AcDbLine
 10
-5659.999495325861
 20
4000.000181455872
 30
0.0
 11
-2214.285714285711
 21
4000.000181455872
 31
0.0
  0
LINE
  5
41D
330
1F
100
AcDbEntity
  8
0-A_文字
  6
Continuous
 62
    92
370
    13
100
AcDbLine
 10
-2214.285714285711
 20
3730.000181455872
 30
0.0
 11
-2214.285714285711
 21
4000.000181455872
 31
0.0
  0
MTEXT
  5
41E
330
1F
100
AcDbEntity
  8
0-A_文字
  6
Continuous
 62
    92
370
    13
100
AcDbMText
 10
-5592.499495325861
 20
3758.959004985284
 30
0.0
 40
147.9176470588235
 41
3300.0
 46
0.0
 71
     7
 72
     1
  1
{\fＭＳ ゴシック|b0|i0|c128|p49;クローゼットドア　固定枠　間口６尺}
 73
     1
 44
1.0
  0
MTEXT
  5
41F
330
1F
100
AcDbEntity
  8
F-A_文字
  6
Continuous
 62
     7
370
     0
100
AcDbMText
 10
4439.917891251784
 20
-3887.143854850754
 30
0.0
 40
45.72
 41
240.0
 46
0.0
 71
     7
 72
     1
  1
{\fＭＳ ゴシック|b0|i0|c128|p49;ＤＡＴＥ}
 73
     1
 44
1.0
  0
MTEXT
  5
420
330
1F
100
AcDbEntity
  8
F-A_文字
  6
Continuous
 62
     7
370
     0
100
AcDbMText
 10
4439.917891251784
 20
-4087.143857410839
 30
0.0
 40
45.72
 41
180.0
 46
0.0
 71
     7
 72
     1
  1
{\fＭＳ ゴシック|b0|i0|c128|p49;ＮＯ．}
 73
     1
 44
1.0
  0
MTEXT
  5
421
330
1F
100
AcDbEntity
  8
F-A_文字
  6
Continuous
 62
     7
370
     0
100
AcDbMText
 10
2939.917396372138
 20
-3887.142460617774
 30
0.0
 40
45.72
 41
300.0
 46
0.0
 71
     7
 72
     1
  1
{\fＭＳ ゴシック|b0|i0|c128|p49;ＳＣＡＬＥ}
 73
     1
 44
1.0
  0
MTEXT
  5
422
330
1F
100
AcDbEntity
  8
F-A_文字
  6
Continuous
 62
     7
370
     0
100
AcDbMText
 10
2939.917396372138
 20
-4087.14246317786
 30
0.0
 40
45.72
 41
240.0
 46
0.0
 71
     7
 72
     1
  1
{\fＭＳ ゴシック|b0|i0|c128|p49;ＦＩＬＥ}
 73
     1
 44
1.0
  0
MTEXT
  5
423
330
1F
100
AcDbEntity
  8
F-A_文字
  6
Continuous
 62
     7
370
     0
100
AcDbMText
 10
1604.917396372138
 20
-4164.281754523929
 30
0.0
 40
101.44125
 41
1065.0
 46
0.0
 71
     7
 72
     1
  1
{\fＭＳ ゴシック|b0|i0|c128|p49;ウッドワン・・・}
 73
     1
 44
1.0
  0
MTEXT
  5
424
330
1F
100
AcDbEntity
  8
F-A_文字
  6
Continuous
 62
     7
370
     0
100
AcDbMText
 10
1394.917396372138
 20
-4096.140669266149
 30
0.0
 40
45.72
 41
120.0
 46
0.0
 71
     7
 72
     1
  1
{\fＭＳ ゴシック|b0|i0|c128|p49;株式}
 73
     1
 44
1.0
  0
MTEXT
  5
425
330
1F
100
AcDbEntity
  8
F-A_文字
  6
Continuous
 62
     7
370
     0
100
AcDbMText
 10
1394.917396372138
 20
-4168.140669266187
 30
0.0
 40
45.72
 41
120.0
 46
0.0
 71
     7
 72
     1
  1
{\fＭＳ ゴシック|b0|i0|c128|p49;会社}
 73
     1
 44
1.0
  0
MTEXT
  5
426
330
1F
100
AcDbEntity
  8
F-A_文字
  6
Continuous
 62
     7
370
     0
100
AcDbMText
 10
99.91854284331623
 20
-3887.139820871936
 30
0.0
 40
45.72
 41
180.0
 46
0.0
 71
     7
 72
     1
  1
{\fＭＳ ゴシック|b0|i0|c128|p49;図面名}
 73
     1
 44
1.0
  0
LINE
  5
427
330
1F
100
AcDbEntity
  8
F-0_補助線
  6
JWW_HOJO
 62
     7
370
     9
100
AcDbLine
 10
509.9185840832865
 20
-3795.000003092998
 30
0.0
 11
509.9185840832865
 21
-4195.000008247994
 31
0.0
  0
LINE
  5
428
330
1F
100
AcDbEntity
  8
F-1_枠
  6
Continuous
 62
   200
370
    20
100
AcDbLine
 10
4349.917891251784
 20
-3795.000003092998
 30
0.0
 11
4349.917891251784
 21
-4195.000008247994
 31
0.0
  0
LINE
  5
429
330
1F
100
AcDbEntity
  8
F-1_枠
  6
Continuous
 62
   200
370
    20
100
AcDbLine
 10
2849.917396372138
 20
-3795.000003092998
 30
0.0
 11
2849.917396372138
 21
-4195.000008247994
 31
0.0
  0
LINE
  5
42A
330
1F
100
AcDbEntity
  8
F-1_枠
  6
Continuous
 62
   200
370
    20
100
AcDbLine
 10
9.918542843316231
 20
-3795.000003092998
 30
0.0
 11
9.918542843316231
 21
-4195.000008247994
 31
0.0
  0
LINE
  5
42B
330
1F
100
AcDbEntity
  8
F-0_補助線
  6
JWW_HOJO
 62
     7
370
     9
100
AcDbLine
 10
2939.917396372138
 20
-3795.000003092998
 30
0.0
 11
2939.917396372138
 21
-4195.000008247994
 31
0.0
  0
LINE
  5
42C
330
1F
100
AcDbEntity
  8
F-0_補助線
  6
JWW_HOJO
 62
     7
370
     9
100
AcDbLine
 10
99.91854284331623
 20
-3795.000003092998
 30
0.0
 11
99.91854284331623
 21
-4195.000008247994
 31
0.0
  0
LINE
  5
42D
330
1F
100
AcDbEntity
  8
F-0_補助線
  6
JWW_HOJO
 62
     7
370
     9
100
AcDbLine
 10
4439.917891251784
 20
-3795.000003092998
 30
0.0
 11
4439.917891251784
 21
-4195.000008247994
 31
0.0
  0
LINE
  5
42E
330
1F
100
AcDbEntity
  8
F-0_補助線
  6
JWW_HOJO
 62
     7
370
     9
100
AcDbLine
 10
-5087.628710189611
 20
-3795.000003092999
 30
0.0
 11
-5087.628710189611
 21
-4205.000164959882
 31
0.0
  0
LINE
  5
42F
330
1F
100
AcDbEntity
  8
F-0_補助線
  6
JWW_HOJO
 62
     7
370
     9
100
AcDbLine
 10
-50.08145715668377
 20
-3795.000003092998
 30
0.0
 11
-50.08145715668377
 21
-4195.000008247994
 31
0.0
  0
LINE
  5
430
330
1F
100
AcDbEntity
  8
F-0_補助線
  6
JWW_HOJO
 62
     7
370
     9
100
AcDbLine
 10
3764.917643811962
 20
-3795.000003092998
 30
0.0
 11
3764.917643811962
 21
-4195.000008247994
 31
0.0
  0
MTEXT
  5
431
330
1F
100
AcDbEntity
  8
F-A_文字
  6
Continuous
 62
     7
370
     0
100
AcDbMText
 10
3689.917643811962
 20
-3946.903115907308
 30
0.0
 40
76.19999999999999
 41
150.0
 46
0.0
 71
     7
 72
     1
  1
{\fＭＳ ゴシック|b0|i0|c128|p49;1/5}
 73
     1
 44
1.0
  0
LINE
  5
432
330
1F
100
AcDbEntity
  8
F-0_補助線
  6
JWW_HOJO
 62
     7
370
     9
100
AcDbLine
 10
1349.918584083287
 20
-3795.000003092998
 30
0.0
 11
1349.918584083287
 21
-4195.000008247994
 31
0.0
  0
LINE
  5
433
330
1F
100
AcDbEntity
  8
F-0_補助線
  6
JWW_HOJO
 62
     7
370
     9
100
AcDbLine
 10
4889.917891251784
 20
-3795.000003092998
 30
0.0
 11
4889.917891251784
 21
-4195.000008247994
 31
0.0
  0
MTEXT
  5
434
330
1F
100
AcDbEntity
  8
F-A_文字
  6
Continuous
 62
     7
370
     0
100
AcDbMText
 10
4889.917891251784
 20
-3945.570773120548
 30
0.0
 40
78.86699999999999
 41
517.5
 46
0.0
 71
     7
 72
     1
  1
{\fＭＳ ゴシック|b0|i0|c128|p49;2021.04.01}
 73
     1
 44
1.0
  0
MTEXT
  5
435
330
1F
100
AcDbEntity
  8
F-A_文字
  6
Continuous
 62
     7
370
     0
100
AcDbMText
 10
509.9185840832865
 20
-3956.425201962234
 30
0.0
 40
57.15
 41
675.0
 46
0.0
 71
     7
 72
     1
  1
{\fＭＳ ゴシック|b0|i0|c128|p49;ＰＩＮＯＥＡＲＴＨ}
 73
     1
 44
1.0
  0
MTEXT
  5
436
330
1F
100
AcDbEntity
  8
F-A_文字
  6
Continuous
 62
     7
370
     0
100
AcDbMText
 10
1349.918584083287
 20
-3945.948482732445
 30
0.0
 40
78.105
 41
615.0
 46
0.0
 71
     7
 72
     1
  1
{\fＭＳ ゴシック|b0|i0|c128|p49;建具納まり図}
 73
     1
 44
1.0
  0
MTEXT
  5
437
330
1F
100
AcDbEntity
  8
F-A_文字
  6
Continuous
 62
     7
370
     0
100
AcDbMText
 10
-5080.081323642279
 20
-4045.062971792676
 30
0.0
 40
79.87392857142851
 41
4402.5
 46
0.0
 71
     7
 72
     1
  1
{\fＭＳ ゴシック|b0|i0|c128|p49;ピノアース　クローゼットドア  固定枠　３方枠＋埋め込みレール　枠外H2,047　枠外W1,645}
 73
     1
 44
1.0
  0
MTEXT
  5
438
330
1F
100
AcDbEntity
  8
F-A_文字
  6
Continuous
 62
     7
370
     9
100
AcDbMText
 10
5096.167700144057
 20
-4147.857012699985
 30
0.0
 40
74.295
 41
97.5
 46
0.0
 71
     7
 72
     1
  1
{\fＭＳ ゴシック|b0|i0|c128|p49;03}
 73
     1
 44
1.0
  0
ENDSEC
  0
SECTION
  2
OBJECTS
  0
DICTIONARY
  5
C
330
0
100
AcDbDictionary
281
     1
  3
ACAD_GROUP
350
D
  3
ACAD_LAYOUT
350
1A
  3
ACAD_MATERIAL
350
3B
  3
ACAD_MLEADERSTYLE
350
461
  3
ACAD_MLINESTYLE
350
17
  3
ACAD_PLOTSETTINGS
350
19
  3
ACAD_PLOTSTYLENAME
350
E
  3
ACAD_TABLESTYLE
350
460
  3
ACAD_VISUALSTYLE
350
2A
  0
DICTIONARY
  5
D
102
{ACAD_REACTORS
330
C
102
}
330
C
100
AcDbDictionary
281
     1
  0
DICTIONARY
  5
1A
102
{ACAD_REACTORS
330
C
102
}
330
C
100
AcDbDictionary
281
     1
  3
Layout1
350
1E
  3
Layout2
350
26
  3
Model
350
22
  0
DICTIONARY
  5
3B
102
{ACAD_REACTORS
330
C
102
}
330
C
100
AcDbDictionary
281
     1
  3
ByBlock
350
3D
  3
ByLayer
350
3C
  3
Global
350
3E
  0
DICTIONARY
  5
461
102
{ACAD_REACTORS
330
C
102
}
330
C
100
AcDbDictionary
281
     1
  0
DICTIONARY
  5
17
102
{ACAD_REACTORS
330
C
102
}
330
C
100
AcDbDictionary
281
     1
  3
Standard
350
18
  0
DICTIONARY
  5
19
102
{ACAD_REACTORS
330
C
102
}
330
C
100
AcDbDictionary
281
     1
  0
ACDBDICTIONARYWDFLT
  5
E
102
{ACAD_REACTORS
330
C
102
}
330
C
100
AcDbDictionary
281
     1
  3
Normal
350
F
100
AcDbDictionaryWithDefault
340
F
  0
DICTIONARY
  5
460
102
{ACAD_REACTORS
330
C
102
}
330
C
100
AcDbDictionary
281
     1
  0
DICTIONARY
  5
2A
102
{ACAD_REACTORS
330
C
102
}
330
C
100
AcDbDictionary
281
     1
  3
2dWireframe
350
2F
  3
3D Hidden
350
31
  3
3dWireframe
350
30
  3
Basic
350
32
  3
Brighten
350
36
  3
ColorChange
350
3A
  3
Conceptual
350
34
  3
Dim
350
35
  3
Facepattern
350
39
  3
Flat
350
2B
  3
FlatWithEdges
350
2C
  3
Gouraud
350
2D
  3
GouraudWithEdges
350
2E
  3
Linepattern
350
38
  3
Realistic
350
33
  3
Thicken
350
37
  0
LAYOUT
  5
1E
102
{ACAD_REACTORS
330
1A
102
}
330
1A
100
AcDbPlotSettings
  1

  2
none_device
  4

  6

 40
0.0
 41
0.0
 42
0.0
 43
0.0
 44
0.0
 45
0.0
 46
0.0
 47
0.0
 48
0.0
 49
0.0
140
0.0
141
0.0
142
1.0
143
1.0
 70
   688
 72
     0
 73
     0
 74
     5
  7

 75
    16
 76
     0
 77
     5
 78
   300
147
1.0
148
0.0
149
0.0
100
AcDbLayout
  1
Layout1
 70
     1
 71
     1
 10
0.0
 20
0.0
 11
420.0
 21
297.0
 12
0.0
 22
0.0
 32
0.0
 14
1.000000000000000E+20
 24
1.000000000000000E+20
 34
1.000000000000000E+20
 15
-1.000000000000000E+20
 25
-1.000000000000000E+20
 35
-1.000000000000000E+20
146
0.0
 13
0.0
 23
0.0
 33
0.0
 16
1.0
 26
0.0
 36
0.0
 17
0.0
 27
1.0
 37
0.0
 76
     0
330
1B
  0
LAYOUT
  5
26
102
{ACAD_REACTORS
330
1A
102
}
330
1A
100
AcDbPlotSettings
  1

  2
none_device
  4

  6

 40
0.0
 41
0.0
 42
0.0
 43
0.0
 44
0.0
 45
0.0
 46
0.0
 47
0.0
 48
0.0
 49
0.0
140
0.0
141
0.0
142
1.0
143
1.0
 70
   688
 72
     0
 73
     0
 74
     5
  7

 75
    16
 76
     0
 77
     5
 78
   300
147
1.0
148
0.0
149
0.0
100
AcDbLayout
  1
Layout2
 70
     1
 71
     2
 10
0.0
 20
0.0
 11
0.0
 21
0.0
 12
0.0
 22
0.0
 32
0.0
 14
0.0
 24
0.0
 34
0.0
 15
0.0
 25
0.0
 35
0.0
146
0.0
 13
0.0
 23
0.0
 33
0.0
 16
1.0
 26
0.0
 36
0.0
 17
0.0
 27
1.0
 37
0.0
 76
     0
330
23
  0
LAYOUT
  5
22
102
{ACAD_REACTORS
330
1A
102
}
330
1A
100
AcDbPlotSettings
  1

  2
none_device
  4

  6

 40
0.0
 41
0.0
 42
0.0
 43
0.0
 44
0.0
 45
0.0
 46
0.0
 47
0.0
 48
0.0
 49
0.0
140
0.0
141
0.0
142
1.0
143
1.0
 70
  1712
 72
     0
 73
     0
 74
     0
  7

 75
     0
 76
     0
 77
     5
 78
   300
147
1.0
148
0.0
149
0.0
100
AcDbLayout
  1
Model
 70
     1
 71
     0
 10
-6300.0
 20
-4455.0
 11
6300.0
 21
4455.0
 12
0.0
 22
0.0
 32
0.0
 14
-6300.0
 24
-4455.0
 34
0.0
 15
6300.0
 25
4455.0
 35
0.0
146
0.0
 13
0.0
 23
0.0
 33
0.0
 16
1.0
 26
0.0
 36
0.0
 17
0.0
 27
1.0
 37
0.0
 76
     0
330
1F
331
29
  0
MATERIAL
  5
3D
102
{ACAD_REACTORS
330
3B
102
}
330
3B
100
AcDbMaterial
  1
ByBlock
 72
     1
 94
      127
  0
MATERIAL
  5
3C
102
{ACAD_REACTORS
330
3B
102
}
330
3B
100
AcDbMaterial
  1
ByLayer
 72
     1
 94
      127
  0
MATERIAL
  5
3E
102
{ACAD_REACTORS
330
3B
102
}
330
3B
100
AcDbMaterial
  1
Global
 72
     1
 94
      127
  0
MLINESTYLE
  5
18
102
{ACAD_REACTORS
330
17
102
}
330
17
100
AcDbMlineStyle
  2
Standard
 70
     0
  3

 62
   256
 51
90.0
 52
90.0
 71
     2
 49
0.5
 62
   256
  6
BYLAYER
 49
-0.5
 62
   256
  6
BYLAYER
  0
ACDBPLACEHOLDER
  5
F
102
{ACAD_REACTORS
330
E
102
}
330
E
  0
VISUALSTYLE
  5
2F
102
{ACAD_REACTORS
330
2A
102
}
330
2A
100
AcDbVisualStyle
  2
2dWireframe
 70
     4
177
     2
291
     0
 71
     0
176
     1
 72
     2
176
     1
 73
     0
176
     1
 90
        0
176
     1
 40
-0.6
176
     1
 41
-30.0
176
     1
 62
     5
 63
     7
421
 16777215
176
     1
 74
     1
176
     1
 91
        4
176
     1
 64
     7
176
     1
 65
   257
176
     1
 75
     1
176
     1
175
     1
176
     1
 42
1.0
176
     1
 92
        0
176
     1
 66
   257
176
     1
 43
1.0
176
     1
 76
     1
176
     1
 77
     6
176
     1
 78
     2
176
     1
 67
     7
176
     1
 79
     5
176
     1
170
     0
176
     1
171
     0
176
     1
290
     0
176
     1
 93
        1
176
     1
 44
0.0
176
     1
173
     0
176
     1
  0
VISUALSTYLE
  5
31
102
{ACAD_REACTORS
330
2A
102
}
330
2A
100
AcDbVisualStyle
  2
3D Hidden
 70
     6
177
     2
291
     0
 71
     1
176
     1
 72
     2
176
     1
 73
     2
176
     1
 90
        0
176
     1
 40
-0.6
176
     1
 41
-30.0
176
     1
 62
     5
 63
     7
421
 16777215
176
     1
 74
     2
176
     1
 91
        2
176
     1
 64
     7
176
     1
 65
   257
176
     1
 75
     2
176
     1
175
     1
176
     1
 42
40.0
176
     1
 92
        0
176
     1
 66
   257
176
     1
 43
1.0
176
     1
 76
     1
176
     1
 77
     6
176
     1
 78
     2
176
     1
 67
     7
176
     1
 79
     3
176
     1
170
     0
176
     1
171
     0
176
     1
290
     0
176
     1
 93
        1
176
     1
 44
0.0
176
     1
173
     0
176
     1
  0
VISUALSTYLE
  5
30
102
{ACAD_REACTORS
330
2A
102
}
330
2A
100
AcDbVisualStyle
  2
3dWireframe
 70
     5
177
     2
291
     0
 71
     0
176
     1
 72
     2
176
     1
 73
     0
176
     1
 90
        0
176
     1
 40
-0.6
176
     1
 41
-30.0
176
     1
 62
     5
 63
     7
421
 16777215
176
     1
 74
     1
176
     1
 91
        4
176
     1
 64
     7
176
     1
 65
   257
176
     1
 75
     1
176
     1
175
     1
176
     1
 42
1.0
176
     1
 92
        0
176
     1
 66
   257
176
     1
 43
1.0
176
     1
 76
     1
176
     1
 77
     6
176
     1
 78
     2
176
     1
 67
     7
176
     1
 79
     5
176
     1
170
     0
176
     1
171
     0
176
     1
290
     0
176
     1
 93
        1
176
     1
 44
0.0
176
     1
173
     0
176
     1
  0
VISUALSTYLE
  5
32
102
{ACAD_REACTORS
330
2A
102
}
330
2A
100
AcDbVisualStyle
  2
Basic
 70
     7
177
     2
291
     1
 71
     1
176
     1
 72
     0
176
     1
 73
     1
176
     1
 90
        0
176
     1
 40
-0.6
176
     1
 41
-30.0
176
     1
 62
     5
 63
     7
421
 16777215
176
     1
 74
     0
176
     1
 91
        4
176
     1
 64
     7
176
     1
 65
   257
176
     1
 75
     1
176
     1
175
     1
176
     1
 42
1.0
176
     1
 92
        8
176
     1
 66
     7
176
     1
 43
1.0
176
     1
 76
     1
176
     1
 77
     6
176
     1
 78
     2
176
     1
 67
     7
176
     1
 79
     5
176
     1
170
     0
176
     1
171
     0
176
     1
290
     0
176
     1
 93
        1
176
     1
 44
0.0
176
     1
173
     0
176
     1
  0
VISUALSTYLE
  5
36
102
{ACAD_REACTORS
330
2A
102
}
330
2A
100
AcDbVisualStyle
  2
Brighten
 70
    12
177
     2
291
     1
 71
     2
176
     1
 72
     2
176
     1
 73
     0
176
     1
 90
        0
176
     1
 40
-0.6
176
     1
 41
-30.0
176
     1
 62
     5
 63
     7
421
 16777215
176
     1
 74
     1
176
     1
 91
        4
176
     1
 64
     7
176
     1
 65
   257
176
     1
 75
     1
176
     1
175
     1
176
     1
 42
1.0
176
     1
 92
        8
176
     1
 66
     7
176
     1
 43
1.0
176
     1
 76
     1
176
     1
 77
     6
176
     1
 78
     2
176
     1
 67
     7
176
     1
 79
     5
176
     1
170
     0
176
     1
171
     0
176
     1
290
     0
176
     1
 93
        1
176
     1
 44
50.0
176
     1
173
     0
176
     1
  0
VISUALSTYLE
  5
3A
102
{ACAD_REACTORS
330
2A
102
}
330
2A
100
AcDbVisualStyle
  2
ColorChange
 70
    16
177
     2
291
     1
 71
     2
176
     1
 72
     2
176
     1
 73
     3
176
     1
 90
        0
176
     1
 40
-0.6
176
     1
 41
-30.0
176
     1
 62
     5
 63
     8
421
  8421504
176
     1
 74
     1
176
     1
 91
        4
176
     1
 64
     7
176
     1
 65
   257
176
     1
 75
     1
176
     1
175
     1
176
     1
 42
1.0
176
     1
 92
        8
176
     1
 66
     8
424
  8421504
176
     1
 43
1.0
176
     1
 76
     1
176
     1
 77
     6
176
     1
 78
     2
176
     1
 67
     7
176
     1
 79
     5
176
     1
170
     0
176
     1
171
     0
176
     1
290
     0
176
     1
 93
        1
176
     1
 44
0.0
176
     1
173
     0
176
     1
  0
VISUALSTYLE
  5
34
102
{ACAD_REACTORS
330
2A
102
}
330
2A
100
AcDbVisualStyle
  2
Conceptual
 70
     9
177
     2
291
     0
 71
     3
176
     1
 72
     2
176
     1
 73
     0
176
     1
 90
        0
176
     1
 40
-0.6
176
     1
 41
-30.0
176
     1
 62
     5
 63
     7
421
 16777215
176
     1
 74
     2
176
     1
 91
        2
176
     1
 64
     7
176
     1
 65
   257
176
     1
 75
     1
176
     1
175
     1
176
     1
 42
40.0
176
     1
 92
        8
176
     1
 66
     7
176
     1
 43
1.0
176
     1
 76
     1
176
     1
 77
     6
176
     1
 78
     2
176
     1
 67
     7
176
     1
 79
     3
176
     1
170
     0
176
     1
171
     0
176
     1
290
     0
176
     1
 93
        1
176
     1
 44
0.0
176
     1
173
     0
176
     1
  0
VISUALSTYLE
  5
35
102
{ACAD_REACTORS
330
2A
102
}
330
2A
100
AcDbVisualStyle
  2
Dim
 70
    11
177
     2
291
     1
 71
     2
176
     1
 72
     2
176
     1
 73
     0
176
     1
 90
        0
176
     1
 40
-0.6
176
     1
 41
-30.0
176
     1
 62
     5
 63
     7
421
 16777215
176
     1
 74
     1
176
     1
 91
        4
176
     1
 64
     7
176
     1
 65
   257
176
     1
 75
     1
176
     1
175
     1
176
     1
 42
1.0
176
     1
 92
        8
176
     1
 66
     7
176
     1
 43
1.0
176
     1
 76
     1
176
     1
 77
     6
176
     1
 78
     2
176
     1
 67
     7
176
     1
 79
     5
176
     1
170
     0
176
     1
171
     0
176
     1
290
     0
176
     1
 93
        1
176
     1
 44
-50.0
176
     1
173
     0
176
     1
  0
VISUALSTYLE
  5
39
102
{ACAD_REACTORS
330
2A
102
}
330
2A
100
AcDbVisualStyle
  2
Facepattern
 70
    15
177
     2
291
     1
 71
     2
176
     1
 72
     2
176
     1
 73
     0
176
     1
 90
        0
176
     1
 40
-0.6
176
     1
 41
-30.0
176
     1
 62
     5
 63
     7
421
 16777215
176
     1
 74
     1
176
     1
 91
        4
176
     1
 64
     7
176
     1
 65
   257
176
     1
 75
     1
176
     1
175
     1
176
     1
 42
1.0
176
     1
 92
        8
176
     1
 66
     7
176
     1
 43
1.0
176
     1
 76
     1
176
     1
 77
     6
176
     1
 78
     2
176
     1
 67
     7
176
     1
 79
     5
176
     1
170
     0
176
     1
171
     0
176
     1
290
     0
176
     1
 93
        1
176
     1
 44
0.0
176
     1
173
     0
176
     1
  0
VISUALSTYLE
  5
2B
102
{ACAD_REACTORS
330
2A
102
}
330
2A
100
AcDbVisualStyle
  2
Flat
 70
     0
177
     2
291
     1
 71
     2
176
     1
 72
     1
176
     1
 73
     1
176
     1
 90
        2
176
     1
 40
-0.6
176
     1
 41
30.0
176
     1
 62
     5
 63
     7
421
 16777215
176
     1
 74
     0
176
     1
 91
        4
176
     1
 64
     7
176
     1
 65
   257
176
     1
 75
     1
176
     1
175
     1
176
     1
 42
1.0
176
     1
 92
        8
176
     1
 66
     7
176
     1
 43
1.0
176
     1
 76
     1
176
     1
 77
     6
176
     1
 78
     2
176
     1
 67
     7
176
     1
 79
     5
176
     1
170
     0
176
     1
171
     0
176
     1
290
     0
176
     1
 93
       13
176
     1
 44
0.0
176
     1
173
     0
176
     1
  0
VISUALSTYLE
  5
2C
102
{ACAD_REACTORS
330
2A
102
}
330
2A
100
AcDbVisualStyle
  2
FlatWithEdges
 70
     1
177
     2
291
     1
 71
     2
176
     1
 72
     1
176
     1
 73
     1
176
     1
 90
        2
176
     1
 40
-0.6
176
     1
 41
30.0
176
     1
 62
     5
 63
     7
421
 16777215
176
     1
 74
     1
176
     1
 91
        4
176
     1
 64
     7
176
     1
 65
   257
176
     1
 75
     1
176
     1
175
     1
176
     1
 42
1.0
176
     1
 92
        0
176
     1
 66
   257
176
     1
 43
1.0
176
     1
 76
     1
176
     1
 77
     6
176
     1
 78
     2
176
     1
 67
     7
176
     1
 79
     5
176
     1
170
     0
176
     1
171
     0
176
     1
290
     0
176
     1
 93
       13
176
     1
 44
0.0
176
     1
173
     0
176
     1
  0
VISUALSTYLE
  5
2D
102
{ACAD_REACTORS
330
2A
102
}
330
2A
100
AcDbVisualStyle
  2
Gouraud
 70
     2
177
     2
291
     1
 71
     2
176
     1
 72
     2
176
     1
 73
     1
176
     1
 90
        2
176
     1
 40
-0.6
176
     1
 41
30.0
176
     1
 62
     5
 63
     7
421
 16777215
176
     1
 74
     0
176
     1
 91
        4
176
     1
 64
     7
176
     1
 65
   257
176
     1
 75
     1
176
     1
175
     1
176
     1
 42
1.0
176
     1
 92
        0
176
     1
 66
     7
176
     1
 43
1.0
176
     1
 76
     1
176
     1
 77
     6
176
     1
 78
     2
176
     1
 67
     7
176
     1
 79
     5
176
     1
170
     0
176
     1
171
     0
176
     1
290
     0
176
     1
 93
       13
176
     1
 44
0.0
176
     1
173
     0
176
     1
  0
VISUALSTYLE
  5
2E
102
{ACAD_REACTORS
330
2A
102
}
330
2A
100
AcDbVisualStyle
  2
GouraudWithEdges
 70
     3
177
     2
291
     1
 71
     2
176
     1
 72
     2
176
     1
 73
     1
176
     1
 90
        2
176
     1
 40
-0.6
176
     1
 41
30.0
176
     1
 62
     5
 63
     7
421
 16777215
176
     1
 74
     1
176
     1
 91
        4
176
     1
 64
     7
176
     1
 65
   257
176
     1
 75
     1
176
     1
175
     1
176
     1
 42
1.0
176
     1
 92
        0
176
     1
 66
   257
176
     1
 43
1.0
176
     1
 76
     1
176
     1
 77
     6
176
     1
 78
     2
176
     1
 67
     7
176
     1
 79
     5
176
     1
170
     0
176
     1
171
     0
176
     1
290
     0
176
     1
 93
       13
176
     1
 44
0.0
176
     1
173
     0
176
     1
  0
VISUALSTYLE
  5
38
102
{ACAD_REACTORS
330
2A
102
}
330
2A
100
AcDbVisualStyle
  2
Linepattern
 70
    14
177
     2
291
     1
 71
     2
176
     1
 72
     2
176
     1
 73
     0
176
     1
 90
        0
176
     1
 40
-0.6
176
     1
 41
-30.0
176
     1
 62
     5
 63
     7
421
 16777215
176
     1
 74
     1
176
     1
 91
        4
176
     1
 64
     7
176
     1
 65
   257
176
     1
 75
     7
176
     1
175
     7
176
     1
 42
1.0
176
     1
 92
        8
176
     1
 66
     7
176
     1
 43
1.0
176
     1
 76
     1
176
     1
 77
     6
176
     1
 78
     2
176
     1
 67
     7
176
     1
 79
     5
176
     1
170
     0
176
     1
171
     0
176
     1
290
     0
176
     1
 93
        1
176
     1
 44
0.0
176
     1
173
     0
176
     1
  0
VISUALSTYLE
  5
33
102
{ACAD_REACTORS
330
2A
102
}
330
2A
100
AcDbVisualStyle
  2
Realistic
 70
     8
177
     2
291
     0
 71
     2
176
     1
 72
     2
176
     1
 73
     0
176
     1
 90
        0
176
     1
 40
-0.6
176
     1
 41
-30.0
176
     1
 62
     5
 63
     7
421
 16777215
176
     1
 74
     1
176
     1
 91
        0
176
     1
 64
     7
176
     1
 65
   257
176
     1
 75
     1
176
     1
175
     1
176
     1
 42
1.0
176
     1
 92
        8
176
     1
 66
     8
424
  7895160
176
     1
 43
1.0
176
     1
 76
     1
176
     1
 77
     6
176
     1
 78
     2
176
     1
 67
     7
176
     1
 79
     5
176
     1
170
     0
176
     1
171
     0
176
     1
290
     0
176
     1
 93
       13
176
     1
 44
0.0
176
     1
173
     0
176
     1
  0
VISUALSTYLE
  5
37
102
{ACAD_REACTORS
330
2A
102
}
330
2A
100
AcDbVisualStyle
  2
Thicken
 70
    13
177
     2
291
     1
 71
     2
176
     1
 72
     2
176
     1
 73
     0
176
     1
 90
        0
176
     1
 40
-0.6
176
     1
 41
-30.0
176
     1
 62
     5
 63
     7
421
 16777215
176
     1
 74
     1
176
     1
 91
        4
176
     1
 64
     7
176
     1
 65
   257
176
     1
 75
     1
176
     1
175
     1
176
     1
 42
1.0
176
     1
 92
       12
176
     1
 66
     7
176
     1
 43
1.0
176
     1
 76
     1
176
     1
 77
     6
176
     1
 78
     2
176
     1
 67
     7
176
     1
 79
     5
176
     1
170
     0
176
     1
171
     0
176
     1
290
     0
176
     1
 93
        1
176
     1
 44
0.0
176
     1
173
     0
176
     1
  0
ENDSEC
  0
EOF
