  0
SECTION
  2
HEADER
  9
$ACADVER
  1
AC1024
  9
$ACADMAINTVER
 70
     6
  9
$DWGCODEPAGE
  3
ANSI_932
  9
$INSBASE
 10
0.0
 20
0.0
 30
0.0
  9
$EXTMIN
 10
-6300.0
 20
-4455.0
 30
0.0
  9
$EXTMAX
 10
6300.0
 20
4455.0
 30
0.0
  9
$LIMMIN
 10
-6300.0
 20
-4455.0
  9
$LIMMAX
 10
6300.0
 20
4455.0
  9
$ORTHOMODE
 70
     0
  9
$REGENMODE
 70
     1
  9
$FILLMODE
 70
     1
  9
$QTEXTMODE
 70
     0
  9
$MIRRTEXT
 70
     1
  9
$LTSCALE
 40
30.0
  9
$ATTMODE
 70
     1
  9
$TEXTSIZE
 40
2.5
  9
$TRACEWID
 40
1.0
  9
$TEXTSTYLE
  7
Standard
  9
$CLAYER
  8
0
  9
$CELTYPE
  6
ByLayer
  9
$CECOLOR
 62
   256
  9
$CELTSCALE
 40
1.0
  9
$DISPSILH
 70
     0
  9
$DIMSCALE
 40
1.0
  9
$DIMASZ
 40
2.5
  9
$DIMEXO
 40
0.625
  9
$DIMDLI
 40
3.75
  9
$DIMRND
 40
0.0
  9
$DIMDLE
 40
0.0
  9
$DIMEXE
 40
1.25
  9
$DIMTP
 40
0.0
  9
$DIMTM
 40
0.0
  9
$DIMTXT
 40
2.5
  9
$DIMCEN
 40
2.5
  9
$DIMTSZ
 40
0.0
  9
$DIMTOL
 70
     0
  9
$DIMLIM
 70
     0
  9
$DIMTIH
 70
     0
  9
$DIMTOH
 70
     0
  9
$DIMSE1
 70
     0
  9
$DIMSE2
 70
     0
  9
$DIMTAD
 70
     1
  9
$DIMZIN
 70
     8
  9
$DIMBLK
  1

  9
$DIMASO
 70
     1
  9
$DIMSHO
 70
     1
  9
$DIMPOST
  1

  9
$DIMAPOST
  1

  9
$DIMALT
 70
     0
  9
$DIMALTD
 70
     3
  9
$DIMALTF
 40
0.03937007874016
  9
$DIMLFAC
 40
1.0
  9
$DIMTOFL
 70
     1
  9
$DIMTVP
 40
0.0
  9
$DIMTIX
 70
     0
  9
$DIMSOXD
 70
     0
  9
$DIMSAH
 70
     0
  9
$DIMBLK1
  1

  9
$DIMBLK2
  1

  9
$DIMSTYLE
  2
ISO-25
  9
$DIMCLRD
 70
     0
  9
$DIMCLRE
 70
     0
  9
$DIMCLRT
 70
     0
  9
$DIMTFAC
 40
1.0
  9
$DIMGAP
 40
0.625
  9
$DIMJUST
 70
     0
  9
$DIMSD1
 70
     0
  9
$DIMSD2
 70
     0
  9
$DIMTOLJ
 70
     0
  9
$DIMTZIN
 70
     8
  9
$DIMALTZ
 70
     0
  9
$DIMALTTZ
 70
     0
  9
$DIMUPT
 70
     0
  9
$DIMDEC
 70
     2
  9
$DIMTDEC
 70
     2
  9
$DIMALTU
 70
     2
  9
$DIMALTTD
 70
     3
  9
$DIMTXSTY
  7
Standard
  9
$DIMAUNIT
 70
     0
  9
$DIMADEC
 70
     0
  9
$DIMALTRND
 40
0.0
  9
$DIMAZIN
 70
     0
  9
$DIMDSEP
 70
    44
  9
$DIMATFIT
 70
     3
  9
$DIMFRAC
 70
     0
  9
$DIMLDRBLK
  1

  9
$DIMLUNIT
 70
     2
  9
$DIMLWD
 70
    -2
  9
$DIMLWE
 70
    -2
  9
$DIMTMOVE
 70
     0
  9
$DIMFXL
 40
1.0
  9
$DIMFXLON
 70
     0
  9
$DIMJOGANG
 40
0.7853981633974483
  9
$DIMTFILL
 70
     0
  9
$DIMTFILLCLR
 70
     0
  9
$DIMARCSYM
 70
     0
  9
$DIMLTYPE
  6

  9
$DIMLTEX1
  6

  9
$DIMLTEX2
  6

  9
$DIMTXTDIRECTION
 70
     0
  9
$LUNITS
 70
     2
  9
$LUPREC
 70
     4
  9
$SKETCHINC
 40
1.0
  9
$FILLETRAD
 40
10.0
  9
$AUNITS
 70
     0
  9
$AUPREC
 70
     0
  9
$MENU
  1
.
  9
$ELEVATION
 40
0.0
  9
$PELEVATION
 40
0.0
  9
$THICKNESS
 40
0.0
  9
$LIMCHECK
 70
     0
  9
$CHAMFERA
 40
10.0
  9
$CHAMFERB
 40
10.0
  9
$CHAMFERC
 40
20.0
  9
$CHAMFERD
 40
0.0
  9
$SKPOLY
 70
     0
  9
$TDCREATE
 40
2459380.617921111
  9
$TDUCREATE
 40
2459380.242921111
  9
$TDUPDATE
 40
2459380.617921123
  9
$TDUUPDATE
 40
2459380.242921123
  9
$TDINDWG
 40
0.0000000116
  9
$TDUSRTIMER
 40
0.0000000116
  9
$USRTIMER
 70
     1
  9
$ANGBASE
 50
0.0
  9
$ANGDIR
 70
     0
  9
$PDMODE
 70
     0
  9
$PDSIZE
 40
0.0
  9
$PLINEWID
 40
0.0
  9
$SPLFRAME
 70
     0
  9
$SPLINETYPE
 70
     6
  9
$SPLINESEGS
 70
     8
  9
$HANDSEED
  5
49E
  9
$SURFTAB1
 70
     6
  9
$SURFTAB2
 70
     6
  9
$SURFTYPE
 70
     6
  9
$SURFU
 70
     6
  9
$SURFV
 70
     6
  9
$UCSBASE
  2

  9
$UCSNAME
  2

  9
$UCSORG
 10
0.0
 20
0.0
 30
0.0
  9
$UCSXDIR
 10
1.0
 20
0.0
 30
0.0
  9
$UCSYDIR
 10
0.0
 20
1.0
 30
0.0
  9
$UCSORTHOREF
  2

  9
$UCSORTHOVIEW
 70
     0
  9
$UCSORGTOP
 10
0.0
 20
0.0
 30
0.0
  9
$UCSORGBOTTOM
 10
0.0
 20
0.0
 30
0.0
  9
$UCSORGLEFT
 10
0.0
 20
0.0
 30
0.0
  9
$UCSORGRIGHT
 10
0.0
 20
0.0
 30
0.0
  9
$UCSORGFRONT
 10
0.0
 20
0.0
 30
0.0
  9
$UCSORGBACK
 10
0.0
 20
0.0
 30
0.0
  9
$PUCSBASE
  2

  9
$PUCSNAME
  2

  9
$PUCSORG
 10
0.0
 20
0.0
 30
0.0
  9
$PUCSXDIR
 10
1.0
 20
0.0
 30
0.0
  9
$PUCSYDIR
 10
0.0
 20
1.0
 30
0.0
  9
$PUCSORTHOREF
  2

  9
$PUCSORTHOVIEW
 70
     0
  9
$PUCSORGTOP
 10
0.0
 20
0.0
 30
0.0
  9
$PUCSORGBOTTOM
 10
0.0
 20
0.0
 30
0.0
  9
$PUCSORGLEFT
 10
0.0
 20
0.0
 30
0.0
  9
$PUCSORGRIGHT
 10
0.0
 20
0.0
 30
0.0
  9
$PUCSORGFRONT
 10
0.0
 20
0.0
 30
0.0
  9
$PUCSORGBACK
 10
0.0
 20
0.0
 30
0.0
  9
$USERI1
 70
     0
  9
$USERI2
 70
     0
  9
$USERI3
 70
     0
  9
$USERI4
 70
     0
  9
$USERI5
 70
     0
  9
$USERR1
 40
0.0
  9
$USERR2
 40
0.0
  9
$USERR3
 40
0.0
  9
$USERR4
 40
0.0
  9
$USERR5
 40
0.0
  9
$WORLDVIEW
 70
     1
  9
$SHADEDGE
 70
     3
  9
$SHADEDIF
 70
    70
  9
$TILEMODE
 70
     1
  9
$MAXACTVP
 70
    64
  9
$PINSBASE
 10
0.0
 20
0.0
 30
0.0
  9
$PLIMCHECK
 70
     0
  9
$PEXTMIN
 10
1.000000000000000E+20
 20
1.000000000000000E+20
 30
1.000000000000000E+20
  9
$PEXTMAX
 10
-1.000000000000000E+20
 20
-1.000000000000000E+20
 30
-1.000000000000000E+20
  9
$PLIMMIN
 10
0.0
 20
0.0
  9
$PLIMMAX
 10
420.0
 20
297.0
  9
$UNITMODE
 70
     0
  9
$VISRETAIN
 70
     1
  9
$PLINEGEN
 70
     0
  9
$PSLTSCALE
 70
     1
  9
$TREEDEPTH
 70
  3020
  9
$CMLSTYLE
  2
Standard
  9
$CMLJUST
 70
     0
  9
$CMLSCALE
 40
20.0
  9
$PROXYGRAPHICS
 70
     1
  9
$MEASUREMENT
 70
     1
  9
$CELWEIGHT
370
    -1
  9
$ENDCAPS
280
     0
  9
$JOINSTYLE
280
     0
  9
$LWDISPLAY
290
     0
  9
$INSUNITS
 70
     4
  9
$HYPERLINKBASE
  1

  9
$STYLESHEET
  1

  9
$XEDIT
290
     1
  9
$CEPSNTYPE
380
     0
  9
$PSTYLEMODE
290
     1
  9
$FINGERPRINTGUID
  2
{F25F8173-BBB8-47D0-BADE-D90642BB88E4}
  9
$VERSIONGUID
  2
{FAEB1C32-E019-11D5-929B-00C0DF256EC4}
  9
$EXTNAMES
290
     1
  9
$PSVPSCALE
 40
0.0
  9
$OLESTARTUP
290
     0
  9
$SORTENTS
280
   127
  9
$INDEXCTL
280
     0
  9
$HIDETEXT
280
     1
  9
$XCLIPFRAME
280
     2
  9
$HALOGAP
280
     0
  9
$OBSCOLOR
 70
   257
  9
$OBSLTYPE
280
     0
  9
$INTERSECTIONDISPLAY
280
     0
  9
$INTERSECTIONCOLOR
 70
   257
  9
$DIMASSOC
280
     2
  9
$PROJECTNAME
  1

  9
$CAMERADISPLAY
290
     0
  9
$LENSLENGTH
 40
50.0
  9
$CAMERAHEIGHT
 40
0.0
  9
$STEPSPERSEC
 40
2.0
  9
$STEPSIZE
 40
6.0
  9
$3DDWFPREC
 40
2.0
  9
$PSOLWIDTH
 40
5.0
  9
$PSOLHEIGHT
 40
80.0
  9
$LOFTANG1
 40
1.570796326794897
  9
$LOFTANG2
 40
1.570796326794897
  9
$LOFTMAG1
 40
0.0
  9
$LOFTMAG2
 40
0.0
  9
$LOFTPARAM
 70
     7
  9
$LOFTNORMALS
280
     1
  9
$LATITUDE
 40
37.795
  9
$LONGITUDE
 40
-122.394
  9
$NORTHDIRECTION
 40
0.0
  9
$TIMEZONE
 70
 -8000
  9
$LIGHTGLYPHDISPLAY
280
     1
  9
$TILEMODELIGHTSYNCH
280
     1
  9
$SOLIDHIST
280
     1
  9
$SHOWHIST
280
     1
  9
$DWFFRAME
280
     2
  9
$DGNFRAME
280
     2
  9
$REALWORLDSCALE
290
     1
  9
$INTERFERECOLOR
 62
   256
  9
$CSHADOW
280
     0
  9
$SHADOWPLANELOCATION
 40
0.0
  0
ENDSEC
  0
SECTION
  2
CLASSES
  0
CLASS
  1
ACDBDICTIONARYWDFLT
  2
AcDbDictionaryWithDefault
  3
ObjectDBX Classes
 90
        0
 91
        4
280
     0
281
     0
  0
CLASS
  1
VISUALSTYLE
  2
AcDbVisualStyle
  3
ObjectDBX Classes
 90
     4095
 91
        4
280
     0
281
     0
  0
CLASS
  1
MATERIAL
  2
AcDbMaterial
  3
ObjectDBX Classes
 90
     1153
 91
        4
280
     0
281
     0
  0
ENDSEC
  0
SECTION
  2
TABLES
  0
TABLE
  2
VPORT
  5
8
330
0
100
AcDbSymbolTable
 70
     1
  0
VPORT
  5
29
330
8
100
AcDbSymbolTableRecord
100
AcDbViewportTableRecord
  2
*Active
 70
     0
 10
0.0
 20
0.0
 11
1.0
 21
1.0
 12
0.0
 22
0.0
 13
0.0
 23
0.0
 14
10.0
 24
10.0
 15
10.0
 25
10.0
 16
0.0
 26
0.0
 36
1.0
 17
0.0
 27
0.0
 37
0.0
 40
9801.0
 41
1.414141414141414
 42
50.0
 43
0.0
 44
0.0
 50
0.0
 51
0.0
 71
     0
 72
 10000
 73
     1
 74
     3
 75
     0
 76
     0
 77
     0
 78
     0
281
     0
 65
     1
110
0.0
120
0.0
130
0.0
111
1.0
121
0.0
131
0.0
112
0.0
122
1.0
132
0.0
 79
     0
146
0.0
 60
     3
 61
     5
292
     1
282
     1
141
0.0
142
0.0
 63
   250
  0
ENDTAB
  0
TABLE
  2
LTYPE
  5
5
330
0
100
AcDbSymbolTable
 70
     5
  0
LTYPE
  5
14
330
5
100
AcDbSymbolTableRecord
100
AcDbLinetypeTableRecord
  2
ByBlock
 70
     0
  3

 72
    65
 73
     0
 40
0.0
  0
LTYPE
  5
15
330
5
100
AcDbSymbolTableRecord
100
AcDbLinetypeTableRecord
  2
ByLayer
 70
     0
  3

 72
    65
 73
     0
 40
0.0
  0
LTYPE
  5
16
330
5
100
AcDbSymbolTableRecord
100
AcDbLinetypeTableRecord
  2
Continuous
 70
     0
  3
Solid line
 72
    65
 73
     0
 40
0.0
  0
LTYPE
  5
3F
330
5
100
AcDbSymbolTableRecord
100
AcDbLinetypeTableRecord
  2
JWW_HOJO
 70
     0
  3
  -   -   -   -   -   -   -   - 
 72
    65
 73
     2
 40
1.693333333333333
 49
-1.27
 74
     0
 49
0.4233333333333333
 74
     0
  0
LTYPE
  5
40
330
5
100
AcDbSymbolTableRecord
100
AcDbLinetypeTableRecord
  2
JWW_CENTER1
 70
     0
  3
-----  --  ----------  --  -----
 72
    65
 73
     4
 40
6.773333333333333
 49
4.233333333333333
 74
     0
 49
-0.8466666666666667
 74
     0
 49
0.8466666666666667
 74
     0
 49
-0.8466666666666667
 74
     0
  0
LTYPE
  5
41
330
5
100
AcDbSymbolTableRecord
100
AcDbLinetypeTableRecord
  2
JWW_DASHED2
 70
     0
  3
--    ----    ----    ----    --
 72
    65
 73
     2
 40
3.386666666666667
 49
1.693333333333333
 74
     0
 49
-1.693333333333333
 74
     0
  0
LTYPE
  5
42
330
5
100
AcDbSymbolTableRecord
100
AcDbLinetypeTableRecord
  2
JWW_DASHED1
 70
     0
  3
-  --  --  --  --  --  --  --  -
 72
    65
 73
     2
 40
1.693333333333333
 49
0.8466666666666667
 74
     0
 49
-0.8466666666666667
 74
     0
  0
ENDTAB
  0
TABLE
  2
LAYER
  5
2
330
0
100
AcDbSymbolTable
 70
    14
  0
LAYER
  5
10
330
2
100
AcDbSymbolTableRecord
100
AcDbLayerTableRecord
  2
0
 70
     0
 62
     7
  6
Continuous
370
    -3
390
F
347
3E
  0
LAYER
  5
43
330
2
100
AcDbSymbolTableRecord
100
AcDbLayerTableRecord
  2
F-1_枠
 70
     0
 62
     7
  6
Continuous
370
    -3
390
F
347
3E
  0
LAYER
  5
44
330
2
100
AcDbSymbolTableRecord
100
AcDbLayerTableRecord
  2
F-A_文字
 70
     0
 62
     7
  6
Continuous
370
    -3
390
F
347
3E
  0
LAYER
  5
45
330
2
100
AcDbSymbolTableRecord
100
AcDbLayerTableRecord
  2
F-0_補助線
 70
     0
 62
     7
  6
Continuous
370
    -3
390
F
347
3E
  0
LAYER
  5
46
330
2
100
AcDbSymbolTableRecord
100
AcDbLayerTableRecord
  2
0-7_金物
 70
     0
 62
     7
  6
Continuous
370
    -3
390
F
347
3E
  0
LAYER
  5
47
330
2
100
AcDbSymbolTableRecord
100
AcDbLayerTableRecord
  2
0-6_扉
 70
     0
 62
     7
  6
Continuous
370
    -3
390
F
347
3E
  0
LAYER
  5
48
330
2
100
AcDbSymbolTableRecord
100
AcDbLayerTableRecord
  2
0-B_寸法
 70
     0
 62
     7
  6
Continuous
370
    -3
390
F
347
3E
  0
LAYER
  5
49
330
2
100
AcDbSymbolTableRecord
100
AcDbLayerTableRecord
  2
0-4_枠
 70
     0
 62
     7
  6
Continuous
370
    -3
390
F
347
3E
  0
LAYER
  5
4A
330
2
100
AcDbSymbolTableRecord
100
AcDbLayerTableRecord
  2
0-C_ハッチ
 70
     0
 62
     7
  6
Continuous
370
    -3
390
F
347
3E
  0
LAYER
  5
4B
330
2
100
AcDbSymbolTableRecord
100
AcDbLayerTableRecord
  2
0-3_仕上げ
 70
     0
 62
     7
  6
Continuous
370
    -3
390
F
347
3E
  0
LAYER
  5
4C
330
2
100
AcDbSymbolTableRecord
100
AcDbLayerTableRecord
  2
0-0_補助線
 70
     0
 62
     7
  6
Continuous
370
    -3
390
F
347
3E
  0
LAYER
  5
4D
330
2
100
AcDbSymbolTableRecord
100
AcDbLayerTableRecord
  2
0-A_文字
 70
     0
 62
     7
  6
Continuous
370
    -3
390
F
347
3E
  0
LAYER
  5
4E
330
2
100
AcDbSymbolTableRecord
100
AcDbLayerTableRecord
  2
0-1_通り芯
 70
     0
 62
     7
  6
Continuous
370
    -3
390
F
347
3E
  0
LAYER
  5
4F
330
2
100
AcDbSymbolTableRecord
100
AcDbLayerTableRecord
  2
戸当り
 70
     0
 62
     7
  6
Continuous
370
    -3
390
F
347
3E
  0
ENDTAB
  0
TABLE
  2
STYLE
  5
3
330
0
100
AcDbSymbolTable
 70
     1
  0
STYLE
  5
11
330
3
100
AcDbSymbolTableRecord
100
AcDbTextStyleTableRecord
  2
Standard
 70
     0
 40
0.0
 41
1.0
 50
0.0
 71
     0
 42
2.5
  3
txt
  4

  0
ENDTAB
  0
TABLE
  2
VIEW
  5
6
330
0
100
AcDbSymbolTable
 70
     0
  0
ENDTAB
  0
TABLE
  2
UCS
  5
7
330
0
100
AcDbSymbolTable
 70
     0
  0
ENDTAB
  0
TABLE
  2
APPID
  5
9
330
0
100
AcDbSymbolTable
 70
     1
  0
APPID
  5
12
330
9
100
AcDbSymbolTableRecord
100
AcDbRegAppTableRecord
  2
ACAD
 70
     0
  0
ENDTAB
  0
TABLE
  2
DIMSTYLE
  5
A
330
0
100
AcDbSymbolTable
 70
     1
100
AcDbDimStyleTable
  0
DIMSTYLE
105
27
330
A
100
AcDbSymbolTableRecord
100
AcDbDimStyleTableRecord
  2
ISO-25
 70
     0
 41
2.5
 42
0.625
 43
3.75
 44
1.25
 73
     0
 74
     0
 77
     1
 78
     8
140
2.5
141
2.5
143
0.03937007874016
147
0.625
171
     3
172
     1
178
     0
271
     2
272
     2
274
     3
278
    44
283
     0
284
     8
340
11
  0
ENDTAB
  0
TABLE
  2
BLOCK_RECORD
  5
1
330
0
100
AcDbSymbolTable
 70
     1
  0
BLOCK_RECORD
  5
1F
330
1
100
AcDbSymbolTableRecord
100
AcDbBlockTableRecord
  2
*Model_Space
340
22
 70
     0
280
     1
281
     0
  0
BLOCK_RECORD
  5
1B
330
1
100
AcDbSymbolTableRecord
100
AcDbBlockTableRecord
  2
*Paper_Space
340
1E
 70
     0
280
     1
281
     0
  0
BLOCK_RECORD
  5
23
330
1
100
AcDbSymbolTableRecord
100
AcDbBlockTableRecord
  2
*Paper_Space0
340
26
 70
     0
280
     1
281
     0
  0
ENDTAB
  0
ENDSEC
  0
SECTION
  2
BLOCKS
  0
BLOCK
  5
20
330
1F
100
AcDbEntity
  8
0
100
AcDbBlockBegin
  2
*Model_Space
 70
     0
 10
0.0
 20
0.0
 30
0.0
  3
*Model_Space
  1

  0
ENDBLK
  5
21
330
1F
100
AcDbEntity
  8
0
100
AcDbBlockEnd
  0
BLOCK
  5
1C
330
1B
100
AcDbEntity
 67
     1
  8
0
100
AcDbBlockBegin
  2
*Paper_Space
 70
     0
 10
0.0
 20
0.0
 30
0.0
  3
*Paper_Space
  1

  0
ENDBLK
  5
1D
330
1B
100
AcDbEntity
 67
     1
  8
0
100
AcDbBlockEnd
  0
BLOCK
  5
24
330
23
100
AcDbEntity
  8
0
100
AcDbBlockBegin
  2
*Paper_Space0
 70
     0
 10
0.0
 20
0.0
 30
0.0
  3
*Paper_Space0
  1

  0
ENDBLK
  5
25
330
23
100
AcDbEntity
  8
0
100
AcDbBlockEnd
  0
ENDSEC
  0
SECTION
  2
ENTITIES
  0
LINE
  5
50
330
1F
100
AcDbEntity
  8
F-1_枠
  6
Continuous
 62
   200
370
     5
100
AcDbLine
 10
5859.917429364114
 20
-3790.000017526987
 30
0.0
 11
-5840.081085996952
 21
-3790.000017526987
 31
0.0
  0
MTEXT
  5
51
330
1F
100
AcDbEntity
  8
F-A_文字
  6
Continuous
 62
     7
370
     0
100
AcDbMText
 10
5768.321977672939
 20
-4314.841419020919
 30
0.0
 40
68.58
 41
90.0
 46
0.0
 71
     7
 72
     1
  1
{\fＭＳ ゴシック|b0|i0|c128|p49;）}
 73
     1
 44
1.0
  0
MTEXT
  5
52
330
1F
100
AcDbEntity
  8
F-A_文字
  6
Continuous
 62
     7
370
     0
100
AcDbMText
 10
5548.066114483239
 20
-4314.771967288282
 30
0.0
 40
74.295
 41
195.0
 46
0.0
 71
     7
 72
     1
  1
{\fＭＳ ゴシック|b0|i0|c128|p49;印刷}
 73
     1
 44
1.0
  0
MTEXT
  5
53
330
1F
100
AcDbEntity
  8
F-A_文字
  6
Continuous
 62
     7
370
     0
100
AcDbMText
 10
5393.32938200033
 20
-4314.771967288282
 30
0.0
 40
74.295
 41
97.5
 46
0.0
 71
     7
 72
     1
  1
{\fＭＳ ゴシック|b0|i0|c128|p49;$d}
 73
     1
 44
1.0
  0
MTEXT
  5
54
330
1F
100
AcDbEntity
  8
F-A_文字
  6
Continuous
 62
     7
370
     0
100
AcDbMText
 10
5350.114617405298
 20
-4316.235443869856
 30
0.0
 40
68.58
 41
45.0
 46
0.0
 71
     7
 72
     1
  1
{\fＭＳ ゴシック|b0|i0|c128|p49;,}
 73
     1
 44
1.0
  0
MTEXT
  5
55
330
1F
100
AcDbEntity
  8
F-A_文字
  6
Continuous
 62
     7
370
     0
100
AcDbMText
 10
5238.592649517422
 20
-4314.771967288282
 30
0.0
 40
74.295
 41
97.5
 46
0.0
 71
     7
 72
     1
  1
{\fＭＳ ゴシック|b0|i0|c128|p49;$m}
 73
     1
 44
1.0
  0
MTEXT
  5
56
330
1F
100
AcDbEntity
  8
F-A_文字
  6
Continuous
 62
     7
370
     0
100
AcDbMText
 10
5191.195810375571
 20
-4319.023493567732
 30
0.0
 40
68.58
 41
45.0
 46
0.0
 71
     7
 72
     1
  1
{\fＭＳ ゴシック|b0|i0|c128|p49;,}
 73
     1
 44
1.0
  0
MTEXT
  5
57
330
1F
100
AcDbEntity
  8
F-A_文字
  6
Continuous
 62
     7
370
     0
100
AcDbMText
 10
5083.855928478601
 20
-4314.771967288282
 30
0.0
 40
74.295
 41
97.5
 46
0.0
 71
     7
 72
     1
  1
{\fＭＳ ゴシック|b0|i0|c128|p49;$y}
 73
     1
 44
1.0
  0
MTEXT
  5
58
330
1F
100
AcDbEntity
  8
F-A_文字
  6
Continuous
 62
     7
370
     0
100
AcDbMText
 10
4943.952040816226
 20
-4319.023493567732
 30
0.0
 40
68.58
 41
90.0
 46
0.0
 71
     7
 72
     1
  1
{\fＭＳ ゴシック|b0|i0|c128|p49;（}
 73
     1
 44
1.0
  0
LINE
  5
59
330
1F
100
AcDbEntity
  8
F-0_補助線
  6
JWW_HOJO
 62
   120
370
     5
100
AcDbLine
 10
-6140.081333436773
 20
-4455.0
 30
0.0
 11
-6140.081333436773
 21
4424.999604096284
 31
0.0
  0
LINE
  5
5A
330
1F
100
AcDbEntity
  8
F-0_補助線
  6
JWW_HOJO
 62
   120
370
     5
100
AcDbLine
 10
-6140.081333436773
 20
4424.999604096284
 30
0.0
 11
6159.917676803936
 21
4424.999604096284
 31
0.0
  0
LINE
  5
5B
330
1F
100
AcDbEntity
  8
F-0_補助線
  6
JWW_HOJO
 62
   120
370
     5
100
AcDbLine
 10
6159.917676803936
 20
4424.999604096284
 30
0.0
 11
6159.917676803936
 21
-4455.0
 31
0.0
  0
LINE
  5
5C
330
1F
100
AcDbEntity
  8
F-0_補助線
  6
JWW_HOJO
 62
   120
370
     5
100
AcDbLine
 10
6159.917676803936
 20
-4455.0
 30
0.0
 11
-6140.081333436773
 21
-4455.0
 31
0.0
  0
LINE
  5
5D
330
1F
100
AcDbEntity
  8
F-1_枠
  6
Continuous
 62
   200
370
     5
100
AcDbLine
 10
5859.917429364114
 20
4174.999769056166
 30
0.0
 11
5859.917429364114
 21
-4205.000164959882
 31
0.0
  0
LINE
  5
5E
330
1F
100
AcDbEntity
  8
F-1_枠
  6
Continuous
 62
   200
370
     5
100
AcDbLine
 10
-5840.081317971782
 20
4174.999769056166
 30
0.0
 11
-5840.081317971782
 21
-4205.000164959882
 31
0.0
  0
LINE
  5
5F
330
1F
100
AcDbEntity
  8
F-1_枠
  6
Continuous
 62
   200
370
     5
100
AcDbLine
 10
5859.917429364114
 20
-4205.000002577498
 30
0.0
 11
-5840.081085996952
 21
-4205.000002577498
 31
0.0
  0
LINE
  5
60
330
1F
100
AcDbEntity
  8
F-1_枠
  6
Continuous
 62
   200
370
     5
100
AcDbLine
 10
-5830.081323642279
 20
4174.999769056166
 30
0.0
 11
-5830.081323642279
 21
-4205.000164959882
 31
0.0
  0
LINE
  5
61
330
1F
100
AcDbEntity
  8
F-1_枠
  6
Continuous
 62
   200
370
     5
100
AcDbLine
 10
-5835.081309208291
 20
4174.999769056166
 30
0.0
 11
-5835.081309208291
 21
-4205.000164959882
 31
0.0
  0
LINE
  5
62
330
1F
100
AcDbEntity
  8
F-1_枠
  6
Continuous
 62
   200
370
     5
100
AcDbLine
 10
5854.917165428304
 20
4174.999769056166
 30
0.0
 11
5854.917165428304
 21
-4205.000164959882
 31
0.0
  0
LINE
  5
63
330
1F
100
AcDbEntity
  8
F-1_枠
  6
Continuous
 62
   200
370
     5
100
AcDbLine
 10
5849.917643811961
 20
4174.999769056166
 30
0.0
 11
5849.917643811961
 21
-4205.000164959882
 31
0.0
  0
LINE
  5
64
330
1F
100
AcDbEntity
  8
F-1_枠
  6
Continuous
 62
   200
370
     5
100
AcDbLine
 10
5859.917429364114
 20
-4199.999993814004
 30
0.0
 11
-5840.081085996952
 21
-4199.999993814004
 31
0.0
  0
LINE
  5
65
330
1F
100
AcDbEntity
  8
F-1_枠
  6
Continuous
 62
   200
370
     5
100
AcDbLine
 10
5859.917429364114
 20
-4195.000008247994
 30
0.0
 11
-5840.081085996952
 21
-4195.000008247994
 31
0.0
  0
LINE
  5
66
330
1F
100
AcDbEntity
  8
F-1_枠
  6
Continuous
 62
   200
370
     5
100
AcDbLine
 10
9.918542843316231
 20
-3994.999936078046
 30
0.0
 11
5849.917643811961
 21
-3995.005364289155
 31
0.0
  0
LINE
  5
67
330
1F
100
AcDbEntity
  8
F-1_枠
  6
Continuous
 62
   200
370
     5
100
AcDbLine
 10
-5840.081085996952
 20
4174.999769056166
 30
0.0
 11
5859.917429364114
 21
4174.999769056166
 31
0.0
  0
LINE
  5
68
330
1F
100
AcDbEntity
  8
F-1_枠
  6
Continuous
 62
   200
370
     5
100
AcDbLine
 10
-5840.081085996952
 20
4164.999983504013
 30
0.0
 11
5859.917429364114
 21
4164.999983504013
 31
0.0
  0
LINE
  5
69
330
1F
100
AcDbEntity
  8
F-1_枠
  6
Continuous
 62
   200
370
     5
100
AcDbLine
 10
-5840.081085996952
 20
4169.999505120355
 30
0.0
 11
5859.917429364114
 21
4169.999505120355
 31
0.0
  0
LINE
  5
6A
330
1F
100
AcDbEntity
  8
F-0_補助線
  6
JWW_HOJO
 62
     7
370
     5
100
AcDbLine
 10
-5830.081323642279
 20
-3994.99993607839
 30
0.0
 11
9.918542843316231
 21
-3994.99993607839
 31
0.0
  0
LINE
  5
6B
330
1F
100
AcDbEntity
  8
F-0_補助線
  6
JWW_HOJO
 62
     7
370
     5
100
AcDbLine
 10
-5830.081323642279
 20
-3904.99993607839
 30
0.0
 11
9.918542843316231
 21
-3904.99993607839
 31
0.0
  0
LINE
  5
6C
330
1F
100
AcDbEntity
  8
F-0_補助線
  6
JWW_HOJO
 62
     7
370
     5
100
AcDbLine
 10
-5830.081323642279
 20
-4084.99993607839
 30
0.0
 11
9.918542843316231
 21
-4084.99993607839
 31
0.0
  0
LINE
  5
6D
330
1F
100
AcDbEntity
  8
F-0_補助線
  6
JWW_HOJO
 62
     7
370
     5
100
AcDbLine
 10
9.918408067688347
 20
-4139.999739777983
 30
0.0
 11
5849.917509036332
 21
-4140.005167989091
 31
0.0
  0
LINE
  5
6E
330
1F
100
AcDbEntity
  8
F-0_補助線
  6
JWW_HOJO
 62
     7
370
     5
100
AcDbLine
 10
9.918491721639953
 20
-4049.999739778022
 30
0.0
 11
5849.917592690284
 21
-4050.005167989131
 31
0.0
  0
LINE
  5
6F
330
1F
100
AcDbEntity
  8
F-0_補助線
  6
JWW_HOJO
 62
     7
370
     5
100
AcDbLine
 10
9.918593965360003
 20
-3939.99973721807
 30
0.0
 11
5849.917694934004
 21
-3940.005165429179
 31
0.0
  0
LINE
  5
70
330
1F
100
AcDbEntity
  8
F-0_補助線
  6
JWW_HOJO
 62
     7
370
     5
100
AcDbLine
 10
9.918677619311609
 20
-3849.999737218109
 30
0.0
 11
5849.917778587956
 21
-3850.005165429218
 31
0.0
  0
LINE
  5
71
330
1F
100
AcDbEntity
  8
F-1_枠
  6
Continuous
 62
   200
370
     5
100
AcDbLine
 10
5859.917429364114
 20
-3795.000003092998
 30
0.0
 11
-5840.081085996952
 21
-3795.000003092998
 31
0.0
  0
LINE
  5
72
330
1F
100
AcDbEntity
  8
0-7_金物
  6
Continuous
 62
     7
370
     5
100
AcDbLine
 10
-2780.128706512744
 20
-3228.999589455406
 30
0.0
 11
-2780.128706512744
 21
-3285.999668636148
 31
0.0
  0
LINE
  5
73
330
1F
100
AcDbEntity
  8
0-7_金物
  6
Continuous
 62
     7
370
     5
100
AcDbLine
 10
-2780.128706512744
 20
-3285.999668636148
 30
0.0
 11
-2798.128468970513
 21
-3285.999668636148
 31
0.0
  0
LINE
  5
74
330
1F
100
AcDbEntity
  8
0-7_金物
  6
Continuous
 62
     7
370
     5
100
AcDbLine
 10
-2798.128468970513
 20
-3228.999589455406
 30
0.0
 11
-2798.128468970513
 21
-3285.999668636148
 31
0.0
  0
LINE
  5
75
330
1F
100
AcDbEntity
  8
0-6_扉
  6
Continuous
 62
   200
370
     5
100
AcDbLine
 10
-2870.128387624671
 20
-3228.999589455406
 30
0.0
 11
-2708.12838762467
 21
-3228.999589455406
 31
0.0
  0
MTEXT
  5
76
330
1F
100
AcDbEntity
  8
0-B_寸法
  6
Continuous
 62
     7
370
     0
100
AcDbMText
 10
-1975.428870198623
 20
-3252.912229639994
 30
0.0
 40
91.44
 41
240.0
 46
0.0
 71
     7
 72
     1
  1
{\fＭＳ ゴシック|b0|i0|c128|p49;11.5}
 11
6.123031769111886E-17
 21
1.0
 31
0.0
 73
     1
 44
1.0
  0
LWPOLYLINE
  5
77
330
1F
100
AcDbEntity
  8
0-B_寸法
  6
Continuous
 62
     7
370
     5
100
AcDbPolyline
 90
        4
 70
     1
 43
3.0
 10
-1959.462374951212
 20
-3228.999960615139
 42
0.4142135623731
 10
-1960.962374951211
 20
-3227.499960615139
 42
0.4142135623731
 10
-1962.462374951211
 20
-3228.999960615139
 42
0.4142135623731
 10
-1960.962374951211
 20
-3230.499960615139
 42
0.4142135623731
  0
LINE
  5
78
330
1F
100
AcDbEntity
  8
0-B_寸法
  6
Continuous
 62
   120
370
     5
100
AcDbLine
 10
-2170.962374951212
 20
-3228.999960615139
 30
0.0
 11
-1960.962374951211
 21
-3228.999960615139
 31
0.0
  0
LWPOLYLINE
  5
79
330
1F
100
AcDbEntity
  8
0-B_寸法
  6
Continuous
 62
     7
370
     5
100
AcDbPolyline
 90
        4
 70
     1
 43
3.0
 10
-1959.462374951212
 20
-3297.999668636149
 42
0.4142135623731
 10
-1960.962374951211
 20
-3296.49966863615
 42
0.4142135623731
 10
-1962.462374951211
 20
-3297.999668636149
 42
0.4142135623731
 10
-1960.962374951211
 20
-3299.499668636149
 42
0.4142135623731
  0
LINE
  5
7A
330
1F
100
AcDbEntity
  8
0-B_寸法
  6
Continuous
 62
   120
370
     5
100
AcDbLine
 10
-1960.962374951211
 20
-3369.999646366566
 30
0.0
 11
-1750.962374951211
 21
-3369.999646366566
 31
0.0
  0
LWPOLYLINE
  5
7B
330
1F
100
AcDbEntity
  8
0-B_寸法
  6
Continuous
 62
     7
370
     5
100
AcDbPolyline
 90
        4
 70
     1
 43
3.0
 10
-1749.462374951212
 20
-3297.999668636149
 42
0.4142135623731
 10
-1750.962374951211
 20
-3296.49966863615
 42
0.4142135623731
 10
-1752.462374951211
 20
-3297.999668636149
 42
0.4142135623731
 10
-1750.962374951211
 20
-3299.499668636149
 42
0.4142135623731
  0
LWPOLYLINE
  5
7C
330
1F
100
AcDbEntity
  8
0-B_寸法
  6
Continuous
 62
     7
370
     5
100
AcDbPolyline
 90
        4
 70
     1
 43
3.0
 10
-1539.462374951212
 20
-3297.999668636149
 42
0.4142135623731
 10
-1540.962374951211
 20
-3296.49966863615
 42
0.4142135623731
 10
-1542.462374951211
 20
-3297.999668636149
 42
0.4142135623731
 10
-1540.962374951211
 20
-3299.499668636149
 42
0.4142135623731
  0
LINE
  5
7D
330
1F
100
AcDbEntity
  8
0-B_寸法
  6
Continuous
 62
   120
370
     5
100
AcDbLine
 10
-2170.962374951212
 20
-3297.999668636149
 30
0.0
 11
-1540.962374951211
 21
-3297.999668636149
 31
0.0
  0
LINE
  5
7E
330
1F
100
AcDbEntity
  8
0-B_寸法
  6
Continuous
 62
   120
370
     5
100
AcDbLine
 10
-2170.962374951212
 20
-3370.000017526299
 30
0.0
 11
-1540.962374951211
 21
-3370.000017526299
 31
0.0
  0
LWPOLYLINE
  5
7F
330
1F
100
AcDbEntity
  8
0-B_寸法
  6
Continuous
 62
     7
370
     5
100
AcDbPolyline
 90
        4
 70
     1
 43
3.0
 10
-1539.462374951212
 20
-3370.000017526299
 42
0.4142135623731
 10
-1540.962374951211
 20
-3368.500017526299
 42
0.4142135623731
 10
-1542.462374951211
 20
-3370.000017526299
 42
0.4142135623731
 10
-1540.962374951211
 20
-3371.500017526299
 42
0.4142135623731
  0
MTEXT
  5
80
330
1F
100
AcDbEntity
  8
0-B_寸法
  6
Continuous
 62
     7
370
     0
100
AcDbMText
 10
-1555.963166758643
 20
-3309.917886310034
 30
0.0
 40
91.44
 41
120.0
 46
0.0
 71
     7
 72
     1
  1
{\fＭＳ ゴシック|b0|i0|c128|p49;12}
 11
6.123031769111886E-17
 21
1.0
 31
0.0
 73
     1
 44
1.0
  0
LINE
  5
81
330
1F
100
AcDbEntity
  8
0-4_枠
  6
Continuous
 62
   120
370
     5
100
AcDbLine
 10
-3065.127838308264
 20
-1953.999418721926
 30
0.0
 11
-3065.127838308264
 21
-3298.000039795882
 31
0.0
  0
LINE
  5
82
330
1F
100
AcDbEntity
  8
0-6_扉
  6
Continuous
 62
   200
370
     5
100
AcDbLine
 10
-2870.128387624671
 20
-3228.999960615139
 30
0.0
 11
-2870.128387624671
 21
-1953.999418721926
 31
0.0
  0
LINE
  5
83
330
1F
100
AcDbEntity
  8
0-6_扉
  6
Continuous
 62
   200
370
     5
100
AcDbLine
 10
-2708.12838762467
 20
-3228.999960615139
 30
0.0
 11
-2708.12838762467
 21
-1953.999418721926
 31
0.0
  0
LINE
  5
84
330
1F
100
AcDbEntity
  8
0-4_枠
  6
Continuous
 62
   120
370
     5
100
AcDbLine
 10
-2513.127838308264
 20
-1953.999418721926
 30
0.0
 11
-2513.127838308264
 21
-3298.000039795882
 31
0.0
  0
MTEXT
  5
85
330
1F
100
AcDbEntity
  8
0-B_寸法
  6
Continuous
 62
     7
370
     0
100
AcDbMText
 10
-1975.390157531515
 20
-859.2006590250304
 30
0.0
 40
91.44
 41
180.0
 46
0.0
 71
     7
 72
     1
  1
{\fＭＳ ゴシック|b0|i0|c128|p49;7.5}
 11
6.123031769111886E-17
 21
1.0
 31
0.0
 73
     1
 44
1.0
  0
LINE
  5
86
330
1F
100
AcDbEntity
  8
0-B_寸法
  6
Continuous
 62
   120
370
     5
100
AcDbLine
 10
-2708.12838762467
 20
-1230.979721440278
 30
0.0
 11
-2870.128387624671
 21
-1230.979721440278
 31
0.0
  0
LWPOLYLINE
  5
87
330
1F
100
AcDbEntity
  8
0-B_寸法
  6
Continuous
 62
     7
370
     5
100
AcDbPolyline
 90
        4
 70
     1
 43
3.0
 10
-2706.62838762467
 20
-1230.979721440278
 42
0.4142135623731
 10
-2708.12838762467
 20
-1229.479721440278
 42
0.4142135623731
 10
-2709.62838762467
 20
-1230.979721440278
 42
0.4142135623731
 10
-2708.12838762467
 20
-1232.479721440278
 42
0.4142135623731
  0
LINE
  5
88
330
1F
100
AcDbEntity
  8
0-B_寸法
  6
Continuous
 62
   120
370
     5
100
AcDbLine
 10
-2708.12838762467
 20
-1146.742792861306
 30
0.0
 11
-2708.12838762467
 21
-1230.979721440278
 31
0.0
  0
LWPOLYLINE
  5
89
330
1F
100
AcDbEntity
  8
0-B_寸法
  6
Continuous
 62
     7
370
     5
100
AcDbPolyline
 90
        4
 70
     1
 43
3.0
 10
-2868.628387624671
 20
-1230.979721440278
 42
0.4142135623731
 10
-2870.128387624671
 20
-1229.479721440278
 42
0.4142135623731
 10
-2871.628387624671
 20
-1230.979721440278
 42
0.4142135623731
 10
-2870.128387624671
 20
-1232.479721440278
 42
0.4142135623731
  0
LINE
  5
8A
330
1F
100
AcDbEntity
  8
0-B_寸法
  6
Continuous
 62
   120
370
     5
100
AcDbLine
 10
-2870.128387624671
 20
-1146.742792861306
 30
0.0
 11
-2870.128387624671
 21
-1230.979721440278
 31
0.0
  0
MTEXT
  5
8B
330
1F
100
AcDbEntity
  8
0-B_寸法
  6
Continuous
 62
     7
370
     0
100
AcDbMText
 10
-2845.377833049658
 20
-1230.25961009215
 30
0.0
 40
91.43999999999791
 41
119.9999999999973
 46
0.0
 71
     7
 72
     1
  1
{\fＭＳ ゴシック|b0|i0|c128|p49;27}
 11
0.9999999999914964
 21
-4.124000483563069E-6
 31
0.0
 73
     1
 44
1.0
  0
MTEXT
  5
8C
330
1F
100
AcDbEntity
  8
0-B_寸法
  6
Continuous
 62
     7
370
     0
100
AcDbMText
 10
-2905.37783304915
 20
-1380.369295222925
 30
0.0
 40
91.44000000000051
 41
240.0000000000013
 46
0.0
 71
     7
 72
     1
  1
{\fＭＳ ゴシック|b0|i0|c128|p49;(24)}
 11
0.9999999999914964
 21
-4.124000448035932E-6
 31
0.0
 73
     1
 44
1.0
  0
LWPOLYLINE
  5
8D
330
1F
100
AcDbEntity
  8
0-B_寸法
  6
Continuous
 62
     7
370
     5
100
AcDbPolyline
 90
        4
 70
     1
 43
3.0
 10
-2529.627838308266
 20
-881.481599664577
 42
0.4142135623731
 10
-2531.127838308266
 20
-879.981599664577
 42
0.4142135623731
 10
-2532.627838308266
 20
-881.481599664577
 42
0.4142135623731
 10
-2531.127838308266
 20
-882.981599664577
 42
0.4142135623731
  0
LWPOLYLINE
  5
8E
330
1F
100
AcDbEntity
  8
0-B_寸法
  6
Continuous
 62
     7
370
     5
100
AcDbPolyline
 90
        4
 70
     1
 43
3.0
 10
-3045.627838308266
 20
-881.481599664577
 42
0.4142135623731
 10
-3047.127838308266
 20
-879.981599664577
 42
0.4142135623731
 10
-3048.627838308266
 20
-881.481599664577
 42
0.4142135623731
 10
-3047.127838308266
 20
-882.981599664577
 42
0.4142135623731
  0
MTEXT
  5
8F
330
1F
100
AcDbEntity
  8
0-B_寸法
  6
Continuous
 62
     7
370
     0
100
AcDbMText
 10
-2849.127838308264
 20
-880.7615996645766
 30
0.0
 40
91.44
 41
120.0
 46
0.0
 71
     7
 72
     1
  1
{\fＭＳ ゴシック|b0|i0|c128|p49;86}
 73
     1
 44
1.0
  0
LINE
  5
90
330
1F
100
AcDbEntity
  8
0-B_寸法
  6
Continuous
 62
   120
370
     5
100
AcDbLine
 10
-2531.127838308266
 20
-881.481599664577
 30
0.0
 11
-2531.127838308266
 21
-727.7706522426819
 31
0.0
  0
LINE
  5
91
330
1F
100
AcDbEntity
  8
0-B_寸法
  6
Continuous
 62
   120
370
     5
100
AcDbLine
 10
-3047.127838308266
 20
-881.481599664577
 30
0.0
 11
-3047.127838308266
 21
-727.7706522426819
 31
0.0
  0
LINE
  5
92
330
1F
100
AcDbEntity
  8
0-B_寸法
  6
Continuous
 62
   120
370
     5
100
AcDbLine
 10
-3047.127838308266
 20
-881.481599664577
 30
0.0
 11
-2531.127838308266
 21
-881.481599664577
 31
0.0
  0
LINE
  5
93
330
1F
100
AcDbEntity
  8
0-6_扉
  6
Continuous
 62
   200
370
     5
100
AcDbLine
 10
-2870.128387624671
 20
-630.9991688077057
 30
0.0
 11
-2708.12838762467
 21
-630.9991688077057
 31
0.0
  0
LINE
  5
94
330
1F
100
AcDbEntity
  8
0-7_金物
  6
Continuous
 62
     7
370
     5
100
AcDbLine
 10
-2854.123848134924
 20
-591.9991688077062
 30
0.0
 11
-2854.123848134924
 21
-585.9990772549725
 31
0.0
  0
LINE
  5
95
330
1F
100
AcDbEntity
  8
0-7_金物
  6
Continuous
 62
     7
370
     5
100
AcDbLine
 10
-2724.914235288551
 20
-591.9991688077062
 30
0.0
 11
-2724.914235288551
 21
-585.9990772549725
 31
0.0
  0
LINE
  5
96
330
1F
100
AcDbEntity
  8
0-7_金物
  6
Continuous
 62
     7
370
     5
100
AcDbLine
 10
-2891.127735311438
 20
-585.9990772549725
 30
0.0
 11
-2891.127735311438
 21
-591.9991688077062
 31
0.0
  0
LINE
  5
97
330
1F
100
AcDbEntity
  8
0-7_金物
  6
Continuous
 62
     7
370
     5
100
AcDbLine
 10
-2724.914235288551
 20
-591.9991688077062
 30
0.0
 11
-2687.12943332856
 21
-591.9991688077062
 31
0.0
  0
LINE
  5
98
330
1F
100
AcDbEntity
  8
0-7_金物
  6
Continuous
 62
     7
370
     5
100
AcDbLine
 10
-2687.12943332856
 20
-585.9990772549725
 30
0.0
 11
-2687.12943332856
 21
-591.9991688077062
 31
0.0
  0
LINE
  5
99
330
1F
100
AcDbEntity
  8
0-7_金物
  6
Continuous
 62
     7
370
     5
100
AcDbLine
 10
-2801.128181631019
 20
-630.9991688077057
 30
0.0
 11
-2777.127500707556
 21
-630.9991688077057
 31
0.0
  0
LINE
  5
9A
330
1F
100
AcDbEntity
  8
0-7_金物
  6
Continuous
 62
     7
370
     5
100
AcDbLine
 10
-2801.128181631019
 20
-585.9990772549725
 30
0.0
 11
-2801.128181631019
 21
-630.9991688077057
 31
0.0
  0
LINE
  5
9B
330
1F
100
AcDbEntity
  8
0-7_金物
  6
Continuous
 62
     7
370
     5
100
AcDbLine
 10
-2777.127500707556
 20
-630.9991688077057
 30
0.0
 11
-2777.127500707556
 21
-585.9990772549725
 31
0.0
  0
LINE
  5
9C
330
1F
100
AcDbEntity
  8
0-7_金物
  6
Continuous
 62
     7
370
     5
100
AcDbLine
 10
-2854.123848134924
 20
-591.9991688077062
 30
0.0
 11
-2891.127735311438
 21
-591.9991688077062
 31
0.0
  0
LINE
  5
9D
330
1F
100
AcDbEntity
  8
0-4_枠
  6
Continuous
 62
    92
370
     5
100
AcDbLine
 10
-2662.962238214705
 20
-406.2567427520149
 30
0.0
 11
-2530.962245867745
 21
-406.2567427520149
 31
0.0
  0
LINE
  5
9E
330
1F
100
AcDbEntity
  8
0-4_枠
  6
Continuous
 62
    92
370
     5
100
AcDbLine
 10
-2914.962238214699
 20
-406.2567427520149
 30
0.0
 11
-3046.962238214702
 21
-406.2567427520149
 31
0.0
  0
LINE
  5
9F
330
1F
100
AcDbEntity
  8
0-4_枠
  6
Continuous
 62
    92
370
     5
100
AcDbLine
 10
-2914.962245867746
 20
-370.1451682131848
 30
0.0
 11
-2914.962238214699
 21
-406.2567427520149
 31
0.0
  0
LINE
  5
A0
330
1F
100
AcDbEntity
  8
0-4_枠
  6
Continuous
 62
    92
370
     5
100
AcDbLine
 10
-3046.962203906074
 20
-568.1450168968876
 30
0.0
 11
-3046.962238214702
 21
-406.2567427520149
 31
0.0
  0
LINE
  5
A1
330
1F
100
AcDbEntity
  8
0-4_枠
  6
Continuous
 62
    92
370
     5
100
AcDbLine
 10
-2530.962203906076
 20
-568.1450092674867
 30
0.0
 11
-2530.962238238344
 21
-406.1451961876546
 31
0.0
  0
LINE
  5
A2
330
1F
100
AcDbEntity
  8
0-4_枠
  6
Continuous
 62
    92
370
     5
100
AcDbLine
 10
-2662.962245867747
 20
-370.1451961876558
 30
0.0
 11
-2914.962245867739
 21
-370.1451961876558
 31
0.0
  0
ARC
  5
A3
330
1F
100
AcDbEntity
  8
0-4_枠
  6
Continuous
 62
    92
370
     5
100
AcDbCircle
 10
-3028.962203906077
 20
-568.1450130821871
 30
0.0
 40
18.0
100
AcDbArc
 50
180.000012142569
 51
270.0
  0
LINE
  5
A4
330
1F
100
AcDbEntity
  8
0-4_枠
  6
Continuous
 62
    92
370
     5
100
AcDbLine
 10
-3028.962203906077
 20
-586.1450130821869
 30
0.0
 11
-2872.962325976384
 21
-586.1450130821869
 31
0.0
  0
ARC
  5
A5
330
1F
100
AcDbEntity
  8
0-4_枠
  6
Continuous
 62
    92
370
     5
100
AcDbCircle
 10
-2548.962203906078
 20
-568.1450130821871
 30
0.0
 40
18.0
100
AcDbArc
 50
270.0
 51
0.0000121425689963
  0
LINE
  5
A6
330
1F
100
AcDbEntity
  8
0-4_枠
  6
Continuous
 62
    92
370
     5
100
AcDbLine
 10
-2548.962203906078
 20
-586.1450130821869
 30
0.0
 11
-2704.962073133481
 21
-586.1450130821869
 31
0.0
  0
LINE
  5
A7
330
1F
100
AcDbEntity
  8
0-4_枠
  6
Continuous
 62
    92
370
     5
100
AcDbLine
 10
-2704.962073133481
 20
-586.1450130821869
 30
0.0
 11
-2704.962073133481
 21
-466.144555318515
 31
0.0
  0
LINE
  5
A8
330
1F
100
AcDbEntity
  8
0-4_枠
  6
Continuous
 62
    92
370
     5
100
AcDbLine
 10
-2704.962073133481
 20
-466.144555318515
 30
0.0
 11
-2872.962325976384
 21
-466.144555318515
 31
0.0
  0
LINE
  5
A9
330
1F
100
AcDbEntity
  8
0-4_枠
  6
Continuous
 62
    92
370
     5
100
AcDbLine
 10
-2872.962325976384
 20
-466.144555318515
 30
0.0
 11
-2872.962325976384
 21
-586.1450130821869
 31
0.0
  0
LINE
  5
AA
330
1F
100
AcDbEntity
  8
0-4_枠
  6
Continuous
 62
    92
370
     5
100
AcDbLine
 10
-2662.962238214705
 20
-406.2567427520149
 30
0.0
 11
-2662.962245867741
 21
-370.1452241621254
 31
0.0
  0
LINE
  5
AB
330
1F
100
AcDbEntity
  8
0-7_金物
  6
Continuous
 62
     7
370
     5
100
AcDbLine
 10
-2860.961994097722
 20
-478.1449215294526
 30
0.0
 11
-2860.961994097722
 21
-586.1450130821869
 31
0.0
  0
LINE
  5
AC
330
1F
100
AcDbEntity
  8
0-7_金物
  6
Continuous
 62
     7
370
     5
100
AcDbLine
 10
-2716.961666510595
 20
-478.1449215294526
 30
0.0
 11
-2860.961994097722
 21
-478.1449215294526
 31
0.0
  0
LINE
  5
AD
330
1F
100
AcDbEntity
  8
0-7_金物
  6
Continuous
 62
     7
370
     5
100
AcDbLine
 10
-2716.961666510595
 20
-586.1450130821869
 30
0.0
 11
-2716.961666510595
 21
-478.1449215294526
 31
0.0
  0
LINE
  5
AE
330
1F
100
AcDbEntity
  8
0-7_金物
  6
Continuous
 62
     7
370
     5
100
AcDbLine
 10
-2722.782936976447
 20
-572.9327633263265
 30
0.0
 11
-2722.782936976447
 21
-506.9327633263276
 31
0.0
  0
LINE
  5
AF
330
1F
100
AcDbEntity
  8
0-7_金物
  6
Continuous
 62
     7
370
     5
100
AcDbLine
 10
-2722.782936976447
 20
-506.9327633263276
 30
0.0
 11
-2758.962102816596
 21
-506.9327633263276
 31
0.0
  0
LINE
  5
B0
330
1F
100
AcDbEntity
  8
0-7_金物
  6
Continuous
 62
     7
370
     5
100
AcDbLine
 10
-2758.962102816596
 20
-586.1450130821869
 30
0.0
 11
-2758.962102816596
 21
-490.1445553185158
 31
0.0
  0
LINE
  5
B1
330
1F
100
AcDbEntity
  8
0-7_金物
  6
Continuous
 62
     7
370
     5
100
AcDbLine
 10
-2758.962102816596
 20
-490.1445553185158
 30
0.0
 11
-2818.963790820136
 21
-490.1445553185158
 31
0.0
  0
LINE
  5
B2
330
1F
100
AcDbEntity
  8
0-7_金物
  6
Continuous
 62
     7
370
     5
100
AcDbLine
 10
-2818.963790820136
 20
-490.1445553185158
 30
0.0
 11
-2818.963790820136
 21
-586.1450130821869
 31
0.0
  0
LINE
  5
B3
330
1F
100
AcDbEntity
  8
0-7_金物
  6
Continuous
 62
     7
370
     5
100
AcDbLine
 10
-2854.78218452741
 20
-506.9327633263276
 30
0.0
 11
-2854.78218452741
 21
-572.9327633263265
 31
0.0
  0
LINE
  5
B4
330
1F
100
AcDbEntity
  8
0-7_金物
  6
Continuous
 62
     7
370
     5
100
AcDbLine
 10
-2818.963790820136
 20
-506.9327633263276
 30
0.0
 11
-2854.78218452741
 21
-506.9327633263276
 31
0.0
  0
LINE
  5
B5
330
1F
100
AcDbEntity
  8
0-7_金物
  6
Continuous
 62
     7
370
     5
100
AcDbLine
 10
-2872.962325976384
 20
-586.1450130821869
 30
0.0
 11
-2890.962097094549
 21
-586.1450130821869
 31
0.0
  0
LINE
  5
B6
330
1F
100
AcDbEntity
  8
0-7_金物
  6
Continuous
 62
     7
370
     5
100
AcDbLine
 10
-2853.958209918035
 20
-592.1451046349202
 30
0.0
 11
-2853.958209918035
 21
-586.1450130821869
 31
0.0
  0
LINE
  5
B7
330
1F
100
AcDbEntity
  8
0-7_金物
  6
Continuous
 62
     7
370
     5
100
AcDbLine
 10
-2860.961994097722
 20
-586.1450130821869
 30
0.0
 11
-2853.958209918035
 21
-586.1450130821869
 31
0.0
  0
LINE
  5
B8
330
1F
100
AcDbEntity
  8
0-7_金物
  6
Continuous
 62
     7
370
     5
100
AcDbLine
 10
-2704.962073133481
 20
-586.1450130821869
 30
0.0
 11
-2686.96379511167
 21
-586.1450130821869
 31
0.0
  0
LINE
  5
B9
330
1F
100
AcDbEntity
  8
0-7_金物
  6
Continuous
 62
     7
370
     5
100
AcDbLine
 10
-2724.748597071662
 20
-592.1451046349202
 30
0.0
 11
-2724.748597071662
 21
-586.1450130821869
 31
0.0
  0
LINE
  5
BA
330
1F
100
AcDbEntity
  8
0-7_金物
  6
Continuous
 62
     7
370
     5
100
AcDbLine
 10
-2724.748597071662
 20
-586.1450130821869
 30
0.0
 11
-2716.961666510595
 21
-586.1450130821869
 31
0.0
  0
LINE
  5
BB
330
1F
100
AcDbEntity
  8
0-7_金物
  6
Continuous
 62
     7
370
     5
100
AcDbLine
 10
-2890.962097094549
 20
-586.1450130821869
 30
0.0
 11
-2890.962097094549
 21
-592.1451046349202
 31
0.0
  0
LINE
  5
BC
330
1F
100
AcDbEntity
  8
0-7_金物
  6
Continuous
 62
     7
370
     5
100
AcDbLine
 10
-2724.748597071662
 20
-592.1451046349202
 30
0.0
 11
-2686.96379511167
 21
-592.1451046349202
 31
0.0
  0
LINE
  5
BD
330
1F
100
AcDbEntity
  8
0-7_金物
  6
Continuous
 62
     7
370
     5
100
AcDbLine
 10
-2686.96379511167
 20
-586.1450130821869
 30
0.0
 11
-2686.96379511167
 21
-592.1451046349202
 31
0.0
  0
LINE
  5
BE
330
1F
100
AcDbEntity
  8
0-7_金物
  6
Continuous
 62
     7
370
     5
100
AcDbLine
 10
-2758.962102816596
 20
-572.9327633263265
 30
0.0
 11
-2722.782936976447
 21
-572.9327633263265
 31
0.0
  0
LINE
  5
BF
330
1F
100
AcDbEntity
  8
0-7_金物
  6
Continuous
 62
     7
370
     5
100
AcDbLine
 10
-2854.78218452741
 20
-572.9327633263265
 30
0.0
 11
-2818.963790820136
 21
-572.9327633263265
 31
0.0
  0
LINE
  5
C0
330
1F
100
AcDbEntity
  8
0-7_金物
  6
Continuous
 62
     7
370
     5
100
AcDbLine
 10
-2818.963790820136
 20
-586.1450130821869
 30
0.0
 11
-2758.962102816596
 21
-586.1450130821869
 31
0.0
  0
LINE
  5
C1
330
1F
100
AcDbEntity
  8
0-7_金物
  6
Continuous
 62
     7
370
     5
100
AcDbLine
 10
-2853.958209918035
 20
-592.1451046349202
 30
0.0
 11
-2890.962097094549
 21
-592.1451046349202
 31
0.0
  0
LINE
  5
C2
330
1F
100
AcDbEntity
  8
0-C_ハッチ
  6
Continuous
 62
   120
370
     5
100
AcDbLine
 10
-2592.60352144539
 20
-586.1450130821822
 30
0.0
 11
-2530.962213154889
 21
-524.5037047916808
 31
0.0
  0
LINE
  5
C3
330
1F
100
AcDbEntity
  8
0-C_ハッチ
  6
Continuous
 62
   120
370
     5
100
AcDbLine
 10
-2652.000491065048
 20
-586.1450130821934
 30
0.0
 11
-2530.962225742751
 21
-465.1067477598949
 31
0.0
  0
LINE
  5
C4
330
1F
100
AcDbEntity
  8
0-C_ハッチ
  6
Continuous
 62
   120
370
     5
100
AcDbLine
 10
-2704.962073133493
 20
-579.7096255309363
 30
0.0
 11
-2531.509190354571
 21
-406.256742752014
 31
0.0
  0
LINE
  5
C5
330
1F
100
AcDbEntity
  8
0-C_ハッチ
  6
Continuous
 62
   120
370
     5
100
AcDbLine
 10
-2704.962073133481
 20
-520.3126559112784
 30
0.0
 11
-2590.906159974215
 21
-406.2567427520102
 31
0.0
  0
LINE
  5
C6
330
1F
100
AcDbEntity
  8
0-C_ハッチ
  6
Continuous
 62
   120
370
     5
100
AcDbLine
 10
-2710.190942160436
 20
-466.1445553185308
 30
0.0
 11
-2650.30312959392
 21
-406.2567427520136
 31
0.0
  0
LINE
  5
C7
330
1F
100
AcDbEntity
  8
0-C_ハッチ
  6
Continuous
 62
   120
370
     5
100
AcDbLine
 10
-2889.588369543737
 20
-586.1450130821831
 30
0.0
 11
-2872.96232597639
 21
-569.5189695148362
 31
0.0
  0
LINE
  5
C8
330
1F
100
AcDbEntity
  8
0-C_ハッチ
  6
Continuous
 62
   120
370
     5
100
AcDbLine
 10
-2769.587911780063
 20
-466.1445553185104
 30
0.0
 11
-2673.588552649223
 21
-370.1451961876694
 31
0.0
  0
LINE
  5
C9
330
1F
100
AcDbEntity
  8
0-C_ハッチ
  6
Continuous
 62
   120
370
     5
100
AcDbLine
 10
-2948.985339163396
 20
-586.1450130821959
 30
0.0
 11
-2872.962325976378
 21
-510.1219998951782
 31
0.0
  0
LINE
  5
CA
330
1F
100
AcDbEntity
  8
0-C_ハッチ
  6
Continuous
 62
   120
370
     5
100
AcDbLine
 10
-2828.984881399721
 20
-466.1445553185214
 30
0.0
 11
-2732.985522268849
 21
-370.1451961876498
 31
0.0
  0
LINE
  5
CB
330
1F
100
AcDbEntity
  8
0-C_ハッチ
  6
Continuous
 62
   120
370
     5
100
AcDbLine
 10
-3008.382308783083
 20
-586.145013082181
 30
0.0
 11
-2792.38249188856
 21
-370.1451961876566
 31
0.0
  0
LINE
  5
CC
330
1F
100
AcDbEntity
  8
0-C_ハッチ
  6
Continuous
 62
   120
370
     5
100
AcDbLine
 10
-3046.962204503086
 20
-565.3279391825366
 30
0.0
 11
-2851.779461508193
 21
-370.1451961876443
 31
0.0
  0
LINE
  5
CD
330
1F
100
AcDbEntity
  8
0-C_ハッチ
  6
Continuous
 62
   120
370
     5
100
AcDbLine
 10
-3046.962217090948
 20
-505.9309821506974
 30
0.0
 11
-2947.287977692281
 21
-406.2567427520298
 31
0.0
  0
LINE
  5
CE
330
1F
100
AcDbEntity
  8
0-C_ハッチ
  6
Continuous
 62
   120
370
     5
100
AcDbLine
 10
-2914.962245065431
 20
-373.931010125178
 30
0.0
 11
-2911.176431127895
 21
-370.1451961876434
 31
0.0
  0
LINE
  5
CF
330
1F
100
AcDbEntity
  8
0-C_ハッチ
  6
Continuous
 62
   120
370
     5
100
AcDbLine
 10
-3046.96222967883
 20
-446.5340251189295
 30
0.0
 11
-3006.684947311911
 21
-406.2567427520102
 31
0.0
  0
LINE
  5
D0
330
1F
100
AcDbEntity
  8
0-4_枠
  6
Continuous
 62
   120
370
     5
100
AcDbLine
 10
-3046.962238214702
 20
-406.2567427520149
 30
0.0
 11
-3065.127838308264
 21
-406.2567427520149
 31
0.0
  0
LINE
  5
D1
330
1F
100
AcDbEntity
  8
0-B_寸法
  6
Continuous
 62
   120
370
     5
100
AcDbLine
 10
-1960.962374951211
 20
-3297.999668636149
 30
0.0
 11
-1960.962374951211
 21
-585.9986516584762
 31
0.0
  0
LWPOLYLINE
  5
D2
330
1F
100
AcDbEntity
  8
0-B_寸法
  6
Continuous
 62
     7
370
     5
100
AcDbPolyline
 90
        4
 70
     1
 43
3.0
 10
-1959.462374951212
 20
-585.9986516584762
 42
0.4142135623731
 10
-1960.962374951211
 20
-584.4986516584762
 42
0.4142135623731
 10
-1962.462374951211
 20
-585.9986516584762
 42
0.4142135623731
 10
-1960.962374951211
 20
-587.4986516584762
 42
0.4142135623731
  0
LWPOLYLINE
  5
D3
330
1F
100
AcDbEntity
  8
0-B_寸法
  6
Continuous
 62
     7
370
     5
100
AcDbPolyline
 90
        4
 70
     1
 43
3.0
 10
-1959.462374951212
 20
-630.99880012237
 42
0.4142135623731
 10
-1960.962374951211
 20
-629.49880012237
 42
0.4142135623731
 10
-1962.462374951211
 20
-630.99880012237
 42
0.4142135623731
 10
-1960.962374951211
 20
-632.49880012237
 42
0.4142135623731
  0
LINE
  5
D4
330
1F
100
AcDbEntity
  8
0-B_寸法
  6
Continuous
 62
   120
370
     5
100
AcDbLine
 10
-2170.962374951212
 20
-585.9986516584762
 30
0.0
 11
-1960.962374951211
 21
-585.9986516584762
 31
0.0
  0
LINE
  5
D5
330
1F
100
AcDbEntity
  8
0-B_寸法
  6
Continuous
 62
   120
370
     5
100
AcDbLine
 10
-2170.962374951212
 20
-630.99880012237
 30
0.0
 11
-1960.962374951211
 21
-630.99880012237
 31
0.0
  0
LINE
  5
D6
330
1F
100
AcDbEntity
  8
0-B_寸法
  6
Continuous
 62
   120
370
     5
100
AcDbLine
 10
-1750.962374951211
 20
-3297.999668636149
 30
0.0
 11
-1750.962374951211
 21
-369.9992752068293
 31
0.0
  0
MTEXT
  5
D7
330
1F
100
AcDbEntity
  8
0-B_寸法
  6
Continuous
 62
     7
370
     0
100
AcDbMText
 10
-1765.961682119709
 20
-552.2787778527868
 30
0.0
 40
91.44
 41
120.0
 46
0.0
 71
     7
 72
     1
  1
{\fＭＳ ゴシック|b0|i0|c128|p49;36}
 11
6.123031769111886E-17
 21
1.0
 31
0.0
 73
     1
 44
1.0
  0
LINE
  5
D8
330
1F
100
AcDbEntity
  8
0-B_寸法
  6
Continuous
 62
   120
370
     5
100
AcDbLine
 10
-1960.962374951211
 20
-585.998280498743
 30
0.0
 11
-1750.962374951211
 21
-585.998280498743
 31
0.0
  0
LWPOLYLINE
  5
D9
330
1F
100
AcDbEntity
  8
0-B_寸法
  6
Continuous
 62
     7
370
     5
100
AcDbPolyline
 90
        4
 70
     1
 43
3.0
 10
-1749.462374951212
 20
-585.998280498743
 42
0.4142135623731
 10
-1750.962374951211
 20
-584.498280498743
 42
0.4142135623731
 10
-1752.462374951211
 20
-585.998280498743
 42
0.4142135623731
 10
-1750.962374951211
 20
-587.498280498743
 42
0.4142135623731
  0
LWPOLYLINE
  5
DA
330
1F
100
AcDbEntity
  8
0-B_寸法
  6
Continuous
 62
     7
370
     5
100
AcDbPolyline
 90
        4
 70
     1
 43
3.0
 10
-1749.462374951212
 20
-369.9992752068293
 42
0.4142135623731
 10
-1750.962374951211
 20
-368.4992752068293
 42
0.4142135623731
 10
-1752.462374951211
 20
-369.9992752068293
 42
0.4142135623731
 10
-1750.962374951211
 20
-371.4992752068293
 42
0.4142135623731
  0
LINE
  5
DB
330
1F
100
AcDbEntity
  8
0-B_寸法
  6
Continuous
 62
   120
370
     5
100
AcDbLine
 10
-2170.962374951212
 20
-369.9992752068293
 30
0.0
 11
-1540.962374951211
 21
-369.9992752068293
 31
0.0
  0
LWPOLYLINE
  5
DC
330
1F
100
AcDbEntity
  8
0-B_寸法
  6
Continuous
 62
     7
370
     5
100
AcDbPolyline
 90
        4
 70
     1
 43
3.0
 10
-1539.462374951212
 20
-369.9992752068293
 42
0.4142135623731
 10
-1540.962374951211
 20
-368.4992752068293
 42
0.4142135623731
 10
-1542.462374951211
 20
-369.9992752068293
 42
0.4142135623731
 10
-1540.962374951211
 20
-371.4992752068293
 42
0.4142135623731
  0
LINE
  5
DD
330
1F
100
AcDbEntity
  8
0-4_枠
  6
Continuous
 62
   120
370
     5
100
AcDbLine
 10
-2530.962245867745
 20
-406.2567427520149
 30
0.0
 11
-2513.127838308264
 21
-406.2567427520149
 31
0.0
  0
LINE
  5
DE
330
1F
100
AcDbEntity
  8
0-4_枠
  6
Continuous
 62
   120
370
     5
100
AcDbLine
 10
-3065.127838308264
 20
-406.2567427520149
 30
0.0
 11
-3065.127838308264
 21
-1833.999418721925
 31
0.0
  0
LINE
  5
DF
330
1F
100
AcDbEntity
  8
0-6_扉
  6
Continuous
 62
   200
370
     5
100
AcDbLine
 10
-2870.128387624671
 20
-1833.999418721925
 30
0.0
 11
-2870.128387624671
 21
-630.9991688077057
 31
0.0
  0
LINE
  5
E0
330
1F
100
AcDbEntity
  8
0-6_扉
  6
Continuous
 62
   200
370
     5
100
AcDbLine
 10
-2708.12838762467
 20
-1833.999418721925
 30
0.0
 11
-2708.12838762467
 21
-630.9991688077057
 31
0.0
  0
LINE
  5
E1
330
1F
100
AcDbEntity
  8
0-4_枠
  6
Continuous
 62
   120
370
     5
100
AcDbLine
 10
-2513.127838308264
 20
-406.2567427520149
 30
0.0
 11
-2513.127838308264
 21
-1833.999418721925
 31
0.0
  0
LINE
  5
E2
330
1F
100
AcDbEntity
  8
0-7_金物
  6
Continuous
 62
     7
370
     5
100
AcDbLine
 10
-2735.12780397599
 20
-370.1451961876558
 30
0.0
 11
-2735.12780397599
 21
-363.9992065422791
 31
0.0
  0
LINE
  5
E3
330
1F
100
AcDbEntity
  8
0-7_金物
  6
Continuous
 62
     7
370
     5
100
AcDbLine
 10
-2843.127872640541
 20
-363.9992065422791
 30
0.0
 11
-2843.127872640541
 21
-370.1451961876558
 31
0.0
  0
LINE
  5
E4
330
1F
100
AcDbEntity
  8
0-7_金物
  6
Continuous
 62
     7
370
     5
100
AcDbLine
 10
-2849.128038579872
 20
-363.9992065422791
 30
0.0
 11
-2729.128381902626
 21
-363.9992065422791
 31
0.0
  0
LINE
  5
E5
330
1F
100
AcDbEntity
  8
0-7_金物
  6
Continuous
 62
     7
370
     5
100
AcDbLine
 10
-2729.128381902626
 20
-351.9996128075378
 30
0.0
 11
-2729.128381902626
 21
-363.9992065422791
 31
0.0
  0
LINE
  5
E6
330
1F
100
AcDbEntity
  8
0-7_金物
  6
Continuous
 62
     7
370
     5
100
AcDbLine
 10
-2849.128038579872
 20
-351.9996128075378
 30
0.0
 11
-2849.128038579872
 21
-363.9992065422791
 31
0.0
  0
LINE
  5
E7
330
1F
100
AcDbEntity
  8
0-7_金物
  6
Continuous
 62
     7
370
     5
100
AcDbLine
 10
-2879.128141576699
 20
-339.9992752068293
 30
0.0
 11
-2699.128278905801
 21
-339.9992752068293
 31
0.0
  0
LINE
  5
E8
330
1F
100
AcDbEntity
  8
0-7_金物
  6
Continuous
 62
     7
370
     5
100
AcDbLine
 10
-2879.128141576699
 20
-339.9992752068293
 30
0.0
 11
-2879.128141576699
 21
-351.9996128075378
 31
0.0
  0
LINE
  5
E9
330
1F
100
AcDbEntity
  8
0-7_金物
  6
Continuous
 62
     7
370
     5
100
AcDbLine
 10
-2699.128278905801
 20
-339.9992752068293
 30
0.0
 11
-2699.128278905801
 21
-351.9996128075378
 31
0.0
  0
LINE
  5
EA
330
1F
100
AcDbEntity
  8
0-7_金物
  6
Continuous
 62
     7
370
     5
100
AcDbLine
 10
-2879.128141576699
 20
-351.9996128075378
 30
0.0
 11
-2699.128278905801
 21
-351.9996128075378
 31
0.0
  0
LINE
  5
EB
330
1F
100
AcDbEntity
  8
0-3_仕上げ
  6
Continuous
 62
   120
370
     5
100
AcDbLine
 10
-2999.127838308266
 20
-339.9992752068293
 30
0.0
 11
-2579.127838308266
 21
-339.9992752068293
 31
0.0
  0
LINE
  5
EC
330
1F
100
AcDbEntity
  8
0-3_仕上げ
  6
Continuous
 62
   120
370
     5
100
AcDbLine
 10
-2579.127838308266
 20
-339.9992752068293
 30
0.0
 11
-2579.127838308266
 21
-159.9992752068293
 31
0.0
  0
LINE
  5
ED
330
1F
100
AcDbEntity
  8
0-3_仕上げ
  6
Continuous
 62
   120
370
     5
100
AcDbLine
 10
-2579.127838308266
 20
-159.9992752068293
 30
0.0
 11
-2999.127838308266
 21
-159.9992752068293
 31
0.0
  0
LINE
  5
EE
330
1F
100
AcDbEntity
  8
0-3_仕上げ
  6
Continuous
 62
   120
370
     5
100
AcDbLine
 10
-2999.127838308266
 20
-159.9992752068293
 30
0.0
 11
-2999.127838308266
 21
-339.9992752068293
 31
0.0
  0
LINE
  5
EF
330
1F
100
AcDbEntity
  8
0-3_仕上げ
  6
Continuous
 62
   120
370
     5
100
AcDbLine
 10
-2579.127838308266
 20
-159.9992752068293
 30
0.0
 11
-2999.127838308266
 21
-339.9992752068293
 31
0.0
  0
LINE
  5
F0
330
1F
100
AcDbEntity
  8
0-B_寸法
  6
Continuous
 62
   120
370
     5
100
AcDbLine
 10
-1540.962374951211
 20
-3370.000017526299
 30
0.0
 11
-1540.962374951211
 21
-223.6370986660916
 31
0.0
  0
LWPOLYLINE
  5
F1
330
1F
100
AcDbEntity
  8
0-B_寸法
  6
Continuous
 62
     7
370
     5
100
AcDbPolyline
 90
        4
 70
     1
 43
3.0
 10
-1539.462374951212
 20
-339.9992752068293
 42
0.4142135623731
 10
-1540.962374951211
 20
-338.4992752068293
 42
0.4142135623731
 10
-1542.462374951211
 20
-339.9992752068293
 42
0.4142135623731
 10
-1540.962374951211
 20
-341.4992752068293
 42
0.4142135623731
  0
LINE
  5
F2
330
1F
100
AcDbEntity
  8
0-B_寸法
  6
Continuous
 62
   120
370
     5
100
AcDbLine
 10
-1540.962374951211
 20
-339.9992752068293
 30
0.0
 11
-2170.962374951212
 21
-339.9992752068293
 31
0.0
  0
MTEXT
  5
F3
330
1F
100
AcDbEntity
  8
0-B_寸法
  6
Continuous
 62
     7
370
   211
100
AcDbMText
 10
-1561.862928690614
 20
-345.838311508802
 30
0.0
 40
91.44
 41
60.0
 46
0.0
 71
     7
 72
     1
  1
{\fＭＳ ゴシック|b0|i0|c128|p49;5}
 11
6.123031769111886E-17
 21
1.0
 31
0.0
 73
     1
 44
1.0
  0
LINE
  5
F4
330
1F
100
AcDbEntity
  8
0-0_補助線
  6
JWW_HOJO
 62
   120
370
     5
100
AcDbLine
 10
-1540.961610115226
 20
-3370.000017425096
 30
0.0
 11
-3740.127500193595
 21
-3370.000017425096
 31
0.0
  0
LWPOLYLINE
  5
F5
330
1F
100
AcDbEntity
  8
0-B_寸法
  6
Continuous
 62
     7
370
     5
100
AcDbPolyline
 90
        4
 70
     1
 43
3.0
 10
-3738.627500193595
 20
-3370.000017526299
 42
0.4142135623731
 10
-3740.127500193595
 20
-3368.500017526299
 42
0.4142135623731
 10
-3741.627500193595
 20
-3370.000017526299
 42
0.4142135623731
 10
-3740.127500193595
 20
-3371.500017526299
 42
0.4142135623731
  0
LWPOLYLINE
  5
F6
330
1F
100
AcDbEntity
  8
0-B_寸法
  6
Continuous
 62
     7
370
     5
100
AcDbPolyline
 90
        4
 70
     1
 43
3.0
 10
-3738.627500193595
 20
-339.9992752068293
 42
0.4142135623731
 10
-3740.127500193595
 20
-338.4992752068293
 42
0.4142135623731
 10
-3741.627500193595
 20
-339.9992752068293
 42
0.4142135623731
 10
-3740.127500193595
 20
-341.4992752068293
 42
0.4142135623731
  0
LINE
  5
F7
330
1F
100
AcDbEntity
  8
0-B_寸法
  6
Continuous
 62
   120
370
     5
100
AcDbLine
 10
-3740.127500193595
 20
-3370.000017526299
 30
0.0
 11
-3740.127500193595
 21
-339.9992752068293
 31
0.0
  0
LINE
  5
F8
330
1F
100
AcDbEntity
  8
0-3_仕上げ
  6
Continuous
 62
     7
370
     5
100
AcDbLine
 10
-3380.127516319959
 20
-3345.999901229582
 30
0.0
 11
-2170.961625374031
 21
-3345.999901229582
 31
0.0
  0
LINE
  5
F9
330
1F
100
AcDbEntity
  8
0-3_仕上げ
  6
Continuous
 62
     7
370
     5
100
AcDbLine
 10
-3380.127516319959
 20
-3333.999935871157
 30
0.0
 11
-2170.961625374031
 21
-3333.999935871157
 31
0.0
  0
LINE
  5
FA
330
1F
100
AcDbEntity
  8
0-3_仕上げ
  6
Continuous
 62
     7
370
     5
100
AcDbLine
 10
-3380.127516319959
 20
-3321.999970512732
 30
0.0
 11
-2170.961625374031
 21
-3321.999970512732
 31
0.0
  0
LINE
  5
FB
330
1F
100
AcDbEntity
  8
0-3_仕上げ
  6
Continuous
 62
     7
370
     5
100
AcDbLine
 10
-3380.127516319959
 20
-3309.999819574439
 30
0.0
 11
-2170.961625374031
 21
-3309.999819574439
 31
0.0
  0
LINE
  5
FC
330
1F
100
AcDbEntity
  8
0-3_仕上げ
  6
Continuous
 62
     7
370
     5
100
AcDbLine
 10
-3380.127516319959
 20
-3358.000052167873
 30
0.0
 11
-2170.961625374031
 21
-3358.000052167873
 31
0.0
  0
LINE
  5
FD
330
1F
100
AcDbEntity
  8
0-3_仕上げ
  6
Continuous
 62
    40
370
     5
100
AcDbLine
 10
-3380.127516319959
 20
-3298.000039795882
 30
0.0
 11
-2170.961625374031
 21
-3298.000039795882
 31
0.0
  0
LINE
  5
FE
330
1F
100
AcDbEntity
  8
0-3_仕上げ
  6
Continuous
 62
    40
370
     5
100
AcDbLine
 10
-3380.127516319959
 20
-3370.000017526299
 30
0.0
 11
-2170.961625374031
 21
-3370.000017526299
 31
0.0
  0
LINE
  5
FF
330
1F
100
AcDbEntity
  8
0-0_補助線
  6
JWW_HOJO
 62
   120
370
     5
100
AcDbLine
 10
-2159.864206719358
 20
-1953.999418721926
 30
0.0
 11
-3403.557704165843
 21
-1953.999418721926
 31
0.0
  0
LINE
  5
100
330
1F
100
AcDbEntity
  8
0-0_補助線
  6
JWW_HOJO
 62
   120
370
     5
100
AcDbLine
 10
-2159.864206719358
 20
-1833.999418721925
 30
0.0
 11
-3403.557704165843
 21
-1833.999418721925
 31
0.0
  0
LINE
  5
101
330
1F
100
AcDbEntity
  8
0-B_寸法
  6
Continuous
 62
   120
370
     5
100
AcDbLine
 10
-3740.127500193595
 20
-3370.000017526299
 30
0.0
 11
-3380.128265897144
 21
-3370.000017526299
 31
0.0
  0
LINE
  5
102
330
1F
100
AcDbEntity
  8
0-B_寸法
  6
Continuous
 62
   120
370
     5
100
AcDbLine
 10
-3740.127500193595
 20
-339.9992752068293
 30
0.0
 11
-3380.128265897144
 21
-339.9992752068293
 31
0.0
  0
MTEXT
  5
103
330
1F
100
AcDbEntity
  8
0-A_文字
  6
Continuous
 62
     7
370
     5
100
AcDbMText
 10
-3729.65362284108
 20
-21.71196069506296
 30
0.0
 40
91.44000000000001
 41
600.0
 46
0.0
 71
     7
 72
     1
  1
{\fＭＳ ゴシック|b0|i0|c128|p49;　[３方枠]}
 73
     1
 44
1.0
  0
LINE
  5
104
330
1F
100
AcDbEntity
  8
0-0_補助線
  6
JWW_HOJO
 62
   120
370
     5
100
AcDbLine
 10
-2170.961610115233
 20
-3370.000017425096
 30
0.0
 11
-2170.962310920222
 21
-69.99926054017465
 31
0.0
  0
LINE
  5
105
330
1F
100
AcDbEntity
  8
0-0_補助線
  6
JWW_HOJO
 62
   120
370
     5
100
AcDbLine
 10
-1960.961610115233
 20
-3370.000017425094
 30
0.0
 11
-1960.962310920222
 21
-69.99926054017465
 31
0.0
  0
LINE
  5
106
330
1F
100
AcDbEntity
  8
0-0_補助線
  6
JWW_HOJO
 62
   120
370
     5
100
AcDbLine
 10
-1750.961610115229
 20
-3370.000017425096
 30
0.0
 11
-1750.962310920216
 21
-69.99926054017465
 31
0.0
  0
LINE
  5
107
330
1F
100
AcDbEntity
  8
0-0_補助線
  6
JWW_HOJO
 62
   120
370
     5
100
AcDbLine
 10
-1540.961610115226
 20
-3370.000017425096
 30
0.0
 11
-1540.962310920213
 21
-69.99926054017465
 31
0.0
  0
LINE
  5
108
330
1F
100
AcDbEntity
  8
0-1_通り芯
  6
JWW_CENTER1
 62
   120
370
     5
100
AcDbLine
 10
-2789.127838308266
 20
-69.99926054017465
 30
0.0
 11
-2789.127838308266
 21
-3453.829988407819
 31
0.0
  0
LINE
  5
109
330
1F
100
AcDbEntity
  8
0-0_補助線
  6
JWW_HOJO
 62
   120
370
     5
100
AcDbLine
 10
-3740.127500193595
 20
-3370.000017425095
 30
0.0
 11
-3740.128200998589
 21
-69.99926054017465
 31
0.0
  0
LINE
  5
10A
330
1F
100
AcDbEntity
  8
0-0_補助線
  6
JWW_HOJO
 62
   120
370
     5
100
AcDbLine
 10
-1540.962310920213
 20
-69.99926054017465
 30
0.0
 11
-3740.128200998589
 21
-69.99926054017465
 31
0.0
  0
LINE
  5
10B
330
1F
100
AcDbEntity
  8
0-0_補助線
  6
JWW_HOJO
 62
   120
370
     5
100
AcDbLine
 10
-3380.127501061164
 20
-3370.000017425096
 30
0.0
 11
-3380.128201866154
 21
-69.99926054017465
 31
0.0
  0
MTEXT
  5
10C
330
1F
100
AcDbEntity
  8
0-A_文字
  6
Continuous
 62
     7
370
     5
100
AcDbMText
 10
-3729.65362284108
 20
126.8083044723812
 30
0.0
 40
91.44
 41
600.0
 46
0.0
 71
     7
 72
     1
  1
{\fＭＳ ゴシック|b0|i0|c128|p49;■縦断面図}
 73
     1
 44
1.0
  0
ELLIPSE
  5
10D
330
1F
100
AcDbEntity
  8
戸当り
  6
Continuous
 62
    92
370
     5
100
AcDbEllipse
 10
4855.430917458078
 20
2876.053590301511
 30
0.0
 11
11.36181697857171
 21
42.40287823032828
 31
0.0
210
0.0
220
0.0
230
0.9999999999999999
 40
0.6
 41
1.570796326794897
 42
4.71238898038469
  0
LINE
  5
10E
330
1F
100
AcDbEntity
  8
戸当り
  6
Continuous
 62
    92
370
     5
100
AcDbLine
 10
4880.872644396272
 20
2869.236500114367
 30
0.0
 11
4829.989190519878
 21
2882.870680488653
 31
0.0
  0
LINE
  5
10F
330
1F
100
AcDbEntity
  8
戸当り
  6
Continuous
 62
    92
370
     5
100
AcDbLine
 10
4884.133764364564
 20
2881.407165525609
 30
0.0
 11
4833.25031048817
 21
2895.041345899896
 31
0.0
  0
ELLIPSE
  5
110
330
1F
100
AcDbEntity
  8
戸当り
  6
Continuous
 62
    92
370
     5
100
AcDbEllipse
 10
4879.604310755758
 20
2966.269922279796
 30
0.0
 11
21.86569797210526
 21
81.6038957748525
 31
0.0
210
0.0
220
0.0
230
1.0
 40
0.5
 41
4.340591432030095
 42
8.225779182329084
  0
ELLIPSE
  5
111
330
1F
100
AcDbEntity
  8
戸当り
  6
Continuous
 62
    92
370
     5
100
AcDbEllipse
 10
4878.978687882654
 20
2963.935065931004
 30
0.0
 11
26.49533313827761
 21
98.88192943551533
 31
0.0
210
0.0
220
0.0
230
0.9999999999999999
 40
0.4
 41
3.840308517104466
 42
4.432552034522944
  0
ELLIPSE
  5
112
330
1F
100
AcDbEntity
  8
戸当り
  6
Continuous
 62
    92
370
     5
100
AcDbEllipse
 10
4878.978687882654
 20
2963.935065931004
 30
0.0
 11
26.49533313827761
 21
98.88192943551533
 31
0.0
210
0.0
220
0.0
230
0.9999999999999999
 40
0.4
 41
1.850633272656679
 42
2.442876790075129
  0
ELLIPSE
  5
113
330
1F
100
AcDbEntity
  8
戸当り
  6
Continuous
 62
    92
370
     5
100
AcDbEllipse
 10
4740.316707711373
 20
2838.28484693721
 30
0.0
 11
-7.622927487939132
 21
43.23177007461331
 31
0.0
210
0.0
220
0.0
230
1.0
 40
0.6000000000000001
 41
1.570796326794897
 42
4.71238898038469
  0
LINE
  5
114
330
1F
100
AcDbEntity
  8
戸当り
  6
Continuous
 62
    92
370
     5
100
AcDbLine
 10
4766.255769756144
 20
2842.858603429973
 30
0.0
 11
4714.377645666606
 21
2833.711090444447
 31
0.0
  0
LINE
  5
115
330
1F
100
AcDbEntity
  8
戸当り
  6
Continuous
 62
    92
370
     5
100
AcDbLine
 10
4764.067802717541
 20
2855.267181117928
 30
0.0
 11
4712.189678628002
 21
2846.1196681324
 31
0.0
  0
ELLIPSE
  5
116
330
1F
100
AcDbEntity
  8
戸当り
  6
Continuous
 62
    92
370
     5
100
AcDbEllipse
 10
4724.098172894875
 20
2930.264728582853
 30
0.0
 11
-14.67024424252691
 21
83.19908946199426
 31
0.0
210
0.0
220
0.0
230
1.0
 40
0.5
 41
4.340591432030095
 42
8.225779182329084
  0
ELLIPSE
  5
117
330
1F
100
AcDbEntity
  8
戸当り
  6
Continuous
 62
    92
370
     5
100
AcDbEllipse
 10
4724.517918944779
 20
2927.884230441196
 30
0.0
 11
-17.7763823922528
 21
100.8148742797557
 31
0.0
210
0.0
220
0.0
230
1.0
 40
0.4000000000000001
 41
3.840308517104466
 42
4.432552034522944
  0
ELLIPSE
  5
118
330
1F
100
AcDbEntity
  8
戸当り
  6
Continuous
 62
    92
370
     5
100
AcDbEllipse
 10
4724.517918944779
 20
2927.884230441196
 30
0.0
 11
-17.7763823922528
 21
100.8148742797557
 31
0.0
210
0.0
220
0.0
230
1.0
 40
0.4000000000000001
 41
1.850633272656679
 42
2.442876790075129
  0
LINE
  5
119
330
1F
100
AcDbEntity
  8
0-A_文字
  6
Continuous
 62
    92
370
     5
100
AcDbLine
 10
5369.917643811961
 20
3684.999983504013
 30
0.0
 11
5369.917643811961
 21
2718.999983504013
 31
0.0
  0
LINE
  5
11A
330
1F
100
AcDbEntity
  8
0-A_文字
  6
Continuous
 62
    92
370
     5
100
AcDbLine
 10
5369.917643811961
 20
2718.999983504013
 30
0.0
 11
4229.917643811961
 21
2718.999983504013
 31
0.0
  0
LINE
  5
11B
330
1F
100
AcDbEntity
  8
0-A_文字
  6
Continuous
 62
    92
370
     5
100
AcDbLine
 10
4229.917643811961
 20
3684.999983504013
 30
0.0
 11
4229.917643811961
 21
2718.999983504013
 31
0.0
  0
LINE
  5
11C
330
1F
100
AcDbEntity
  8
0-0_補助線
  6
JWW_HOJO
 62
   120
370
     5
100
AcDbLine
 10
5339.917643811961
 20
3684.999983504013
 30
0.0
 11
5339.917643811961
 21
2718.999983504013
 31
0.0
  0
LINE
  5
11D
330
1F
100
AcDbEntity
  8
0-0_補助線
  6
JWW_HOJO
 62
   120
370
     5
100
AcDbLine
 10
4259.917643811961
 20
3684.999983504013
 30
0.0
 11
4259.917643811961
 21
2718.999983504013
 31
0.0
  0
LINE
  5
11E
330
1F
100
AcDbEntity
  8
0-0_補助線
  6
JWW_HOJO
 62
   120
370
     5
100
AcDbLine
 10
4799.917643811961
 20
3684.999983504013
 30
0.0
 11
4799.917643811961
 21
2718.999983504013
 31
0.0
  0
CIRCLE
  5
11F
330
1F
100
AcDbEntity
  8
0-0_補助線
  6
JWW_HOJO
 62
   120
370
     5
100
AcDbCircle
 10
5159.917643811961
 20
3385.504011182749
 30
0.0
 40
240.0
  0
CIRCLE
  5
120
330
1F
100
AcDbEntity
  8
0-0_補助線
  6
JWW_HOJO
 62
   120
370
     5
100
AcDbCircle
 10
4799.917643811961
 20
3385.504011182749
 30
0.0
 40
240.0
  0
CIRCLE
  5
121
330
1F
100
AcDbEntity
  8
0-0_補助線
  6
JWW_HOJO
 62
   120
370
     5
100
AcDbCircle
 10
4444.047372024825
 20
3385.504011182749
 30
0.0
 40
240.0
  0
LINE
  5
122
330
1F
100
AcDbEntity
  8
戸当り
  6
Continuous
 62
    40
370
     5
100
AcDbLine
 10
4502.034214636565
 20
3153.681812873372
 30
0.0
 11
4564.150785461171
 21
3385.504011182749
 31
0.0
  0
LINE
  5
123
330
1F
100
AcDbEntity
  8
戸当り
  6
Continuous
 62
    40
370
     5
100
AcDbLine
 10
4502.034214636565
 20
3153.681812873372
 30
0.0
 11
4439.917643811961
 21
3385.504011182749
 31
0.0
  0
LINE
  5
124
330
1F
100
AcDbEntity
  8
戸当り
  6
Continuous
 62
    40
370
     5
100
AcDbLine
 10
5035.684502162751
 20
3385.504011182749
 30
0.0
 11
5097.801072987355
 21
3153.681812873372
 31
0.0
  0
LINE
  5
125
330
1F
100
AcDbEntity
  8
戸当り
  6
Continuous
 62
    40
370
     5
100
AcDbLine
 10
5159.917643811961
 20
3385.504011182749
 30
0.0
 11
5097.801072987355
 21
3153.681812873372
 31
0.0
  0
LINE
  5
126
330
1F
100
AcDbEntity
  8
戸当り
  6
JWW_DASHED2
 62
     7
370
     5
100
AcDbLine
 10
5159.917643811961
 20
3385.504011182749
 30
0.0
 11
4439.917643811961
 21
3385.504011182749
 31
0.0
  0
LINE
  5
127
330
1F
100
AcDbEntity
  8
戸当り
  6
Continuous
 62
    40
370
     5
100
AcDbLine
 10
5159.917643811961
 20
3439.504011182748
 30
0.0
 11
5159.917643811961
 21
3385.504011182749
 31
0.0
  0
LINE
  5
128
330
1F
100
AcDbEntity
  8
戸当り
  6
Continuous
 62
    40
370
     5
100
AcDbLine
 10
5159.917643811961
 20
3439.504011182748
 30
0.0
 11
5339.917643811961
 21
3439.504011182748
 31
0.0
  0
LINE
  5
129
330
1F
100
AcDbEntity
  8
戸当り
  6
Continuous
 62
    40
370
     5
100
AcDbLine
 10
5159.917643811961
 20
3385.504011182749
 30
0.0
 11
5339.917643811961
 21
3385.504011182749
 31
0.0
  0
LINE
  5
12A
330
1F
100
AcDbEntity
  8
戸当り
  6
Continuous
 62
    40
370
     5
100
AcDbLine
 10
4439.917643811961
 20
3439.504011182748
 30
0.0
 11
4439.917643811961
 21
3385.504011182749
 31
0.0
  0
LINE
  5
12B
330
1F
100
AcDbEntity
  8
戸当り
  6
Continuous
 62
    40
370
     5
100
AcDbLine
 10
4439.917643811961
 20
3439.504011182748
 30
0.0
 11
4259.917643811961
 21
3439.504011182748
 31
0.0
  0
LINE
  5
12C
330
1F
100
AcDbEntity
  8
戸当り
  6
Continuous
 62
    40
370
     5
100
AcDbLine
 10
4439.917643811961
 20
3385.504011182749
 30
0.0
 11
4259.917643811961
 21
3385.504011182749
 31
0.0
  0
LINE
  5
12D
330
1F
100
AcDbEntity
  8
0-A_文字
  6
Continuous
 62
    92
370
     5
100
AcDbLine
 10
5369.917643811961
 20
3540.999983504012
 30
0.0
 11
4229.917643811961
 21
3540.999983504012
 31
0.0
  0
LINE
  5
12E
330
1F
100
AcDbEntity
  8
0-A_文字
  6
Continuous
 62
    92
370
     5
100
AcDbLine
 10
5369.917643811961
 20
3684.999983504013
 30
0.0
 11
4229.917643811961
 21
3684.999983504013
 31
0.0
  0
MTEXT
  5
12F
330
1F
100
AcDbEntity
  8
0-A_文字
  6
Continuous
 62
     7
370
     5
100
AcDbMText
 10
4278.667643811961
 20
3554.775383504013
 30
0.0
 40
63.55080000000001
 41
1042.5
 46
0.0
 71
     7
 72
     1
  1
{\fＭＳ ゴシック|b0|i0|c128|p49;上吊軸固定/フリーオープン}
 73
     1
 44
1.0
  0
MTEXT
  5
130
330
1F
100
AcDbEntity
  8
0-A_文字
  6
Continuous
 62
     7
370
     0
100
AcDbMText
 10
-3740.127500193594
 20
-3613.550924934765
 30
0.0
 40
68.58000000000001
 41
1395.0
 46
0.0
 71
     7
 72
     1
  1
{\fＭＳ ゴシック|b0|i0|c128|p49;※ 扉厚（　）内はルーバーの場合}
 73
     1
 44
1.0
  0
MTEXT
  5
131
330
1F
100
AcDbEntity
  8
0-B_寸法
  6
Continuous
 62
     7
370
     0
100
AcDbMText
 10
-1975.961682119709
 20
-2196.809544000017
 30
0.0
 40
91.43999999999997
 41
660.0
 46
0.0
 71
     7
 72
     1
  1
{\fＭＳ ゴシック|b0|i0|c128|p49;ＤＨ＝2,284}
 11
6.123031769111886E-17
 21
1.0
 31
0.0
 73
     1
 44
1.0
  0
MTEXT
  5
132
330
1F
100
AcDbEntity
  8
0-B_寸法
  6
Continuous
 62
     7
370
     0
100
AcDbMText
 10
-1765.961682119709
 20
-2196.809544000017
 30
0.0
 40
91.43999999999997
 41
660.0
 46
0.0
 71
     7
 72
     1
  1
{\fＭＳ ゴシック|b0|i0|c128|p49;枠内＝2,303}
 11
6.123031769111886E-17
 21
1.0
 31
0.0
 73
     1
 44
1.0
  0
MTEXT
  5
133
330
1F
100
AcDbEntity
  8
0-B_寸法
  6
Continuous
 62
     7
370
     0
100
AcDbMText
 10
-1555.963166758643
 20
-2196.809544000017
 30
0.0
 40
91.43999999999997
 41
660.0
 46
0.0
 71
     7
 72
     1
  1
{\fＭＳ ゴシック|b0|i0|c128|p49;枠外＝2,339}
 11
6.123031769111886E-17
 21
1.0
 31
0.0
 73
     1
 44
1.0
  0
MTEXT
  5
134
330
1F
100
AcDbEntity
  8
0-B_寸法
  6
Continuous
 62
     7
370
   211
100
AcDbMText
 10
-3755.127500193595
 20
-2238.279464498294
 30
0.0
 40
91.43999999999997
 41
780.0
 46
0.0
 71
     7
 72
     1
  1
{\fＭＳ ゴシック|b0|i0|c128|p49;ＲＯＨ＝2,356}
 11
6.123031769111886E-17
 21
1.0
 31
0.0
 73
     1
 44
1.0
  0
MTEXT
  5
135
330
1F
100
AcDbEntity
  8
0-A_文字
  6
Continuous
 62
     7
370
     5
100
AcDbMText
 10
-87.58176028417722
 20
931.6912250622069
 30
0.0
 40
79.49045454545431
 41
2294.999999999993
 46
0.0
 71
     7
 72
     1
  1
{\fＭＳ ゴシック|b0|i0|c128|p49;※有効開口寸法にはハンドルの突出は含まない。}
 73
     1
 44
1.0
  0
MTEXT
  5
136
330
1F
100
AcDbEntity
  8
0-A_文字
  6
Continuous
 62
     7
370
     5
100
AcDbMText
 10
-612.5817602841767
 20
826.739331122813
 30
0.0
 40
79.58666666666649
 41
2819.999999999993
 46
0.0
 71
     7
 72
     1
  1
{\fＭＳ ゴシック|b0|i0|c128|p49;※有効開口寸法は扉の厚さや調整によって若干異なります。}
 73
     1
 44
1.0
  0
LINE
  5
137
330
1F
100
AcDbEntity
  8
0-B_寸法
  6
Continuous
 62
   120
370
     5
100
AcDbLine
 10
2241.918456245372
 20
1086.94599778948
 30
0.0
 11
2241.918456245372
 21
1626.945997789481
 31
0.0
  0
LWPOLYLINE
  5
138
330
1F
100
AcDbEntity
  8
0-B_寸法
  6
Continuous
 62
     7
370
     5
100
AcDbPolyline
 90
        4
 70
     1
 43
3.0
 10
2243.418456245372
 20
1086.94599778948
 42
0.4142135623731
 10
2241.918456245372
 20
1088.44599778948
 42
0.4142135623731
 10
2240.418456245372
 20
1086.94599778948
 42
0.4142135623731
 10
2241.918456245372
 20
1085.44599778948
 42
0.4142135623731
  0
LINE
  5
139
330
1F
100
AcDbEntity
  8
0-B_寸法
  6
Continuous
 62
   120
370
     5
100
AcDbLine
 10
2211.918456245382
 20
1086.94599778948
 30
0.0
 11
2241.918456245372
 21
1086.94599778948
 31
0.0
  0
LINE
  5
13A
330
1F
100
AcDbEntity
  8
0-B_寸法
  6
Continuous
 62
   120
370
     5
100
AcDbLine
 10
2211.918456245382
 20
1086.94599778948
 30
0.0
 11
2211.918456245382
 21
1626.945997789481
 31
0.0
  0
LWPOLYLINE
  5
13B
330
1F
100
AcDbEntity
  8
0-B_寸法
  6
Continuous
 62
     7
370
     5
100
AcDbPolyline
 90
        4
 70
     1
 43
3.0
 10
2213.418456245382
 20
1086.94599778948
 42
0.4142135623731
 10
2211.918456245382
 20
1088.44599778948
 42
0.4142135623731
 10
2210.418456245382
 20
1086.94599778948
 42
0.4142135623731
 10
2211.918456245382
 20
1085.44599778948
 42
0.4142135623731
  0
LINE
  5
13C
330
1F
100
AcDbEntity
  8
0-B_寸法
  6
Continuous
 62
   120
370
     5
100
AcDbLine
 10
-2192.08151901064
 20
1086.94599778948
 30
0.0
 11
2211.918456245382
 21
1086.94599778948
 31
0.0
  0
LINE
  5
13D
330
1F
100
AcDbEntity
  8
0-B_寸法
  6
Continuous
 62
   120
370
     5
100
AcDbLine
 10
-2192.08151901064
 20
1086.94599778948
 30
0.0
 11
-2192.08151901064
 21
1626.945997789481
 31
0.0
  0
LINE
  5
13E
330
1F
100
AcDbEntity
  8
0-B_寸法
  6
Continuous
 62
   120
370
     5
100
AcDbLine
 10
-2222.081519010633
 20
1086.94599778948
 30
0.0
 11
-2222.081519010633
 21
1626.945997789481
 31
0.0
  0
LWPOLYLINE
  5
13F
330
1F
100
AcDbEntity
  8
0-B_寸法
  6
Continuous
 62
     7
370
     5
100
AcDbPolyline
 90
        4
 70
     1
 43
3.0
 10
-2190.58151901064
 20
1086.94599778948
 42
0.4142135623731
 10
-2192.08151901064
 20
1088.44599778948
 42
0.4142135623731
 10
-2193.58151901064
 20
1086.94599778948
 42
0.4142135623731
 10
-2192.08151901064
 20
1085.44599778948
 42
0.4142135623731
  0
LWPOLYLINE
  5
140
330
1F
100
AcDbEntity
  8
0-B_寸法
  6
Continuous
 62
     7
370
     5
100
AcDbPolyline
 90
        4
 70
     1
 43
3.0
 10
-2220.581519010633
 20
1086.94599778948
 42
0.4142135623731
 10
-2222.081519010633
 20
1088.44599778948
 42
0.4142135623731
 10
-2223.581519010633
 20
1086.94599778948
 42
0.4142135623731
 10
-2222.081519010633
 20
1085.44599778948
 42
0.4142135623731
  0
LINE
  5
141
330
1F
100
AcDbEntity
  8
0-B_寸法
  6
Continuous
 62
   120
370
     5
100
AcDbLine
 10
-2222.081519010633
 20
1086.94599778948
 30
0.0
 11
-2192.08151901064
 21
1086.94599778948
 31
0.0
  0
LWPOLYLINE
  5
142
330
1F
100
AcDbEntity
  8
0-B_寸法
  6
Continuous
 62
     7
370
     5
100
AcDbPolyline
 90
        4
 70
     1
 43
3.0
 10
2213.418456245371
 20
1266.94599778948
 42
0.4142135623731
 10
2211.918456245371
 20
1268.44599778948
 42
0.4142135623731
 10
2210.418456245371
 20
1266.94599778948
 42
0.4142135623731
 10
2211.918456245371
 20
1265.44599778948
 42
0.4142135623731
  0
LINE
  5
143
330
1F
100
AcDbEntity
  8
0-B_寸法
  6
Continuous
 62
   120
370
     5
100
AcDbLine
 10
2031.918456245365
 20
1266.94599778948
 30
0.0
 11
2211.918456245371
 21
1266.94599778948
 31
0.0
  0
LINE
  5
144
330
1F
100
AcDbEntity
  8
0-B_寸法
  6
Continuous
 62
   120
370
     5
100
AcDbLine
 10
2031.918456245365
 20
1266.94599778948
 30
0.0
 11
2031.918456245365
 21
1626.945997789481
 31
0.0
  0
LWPOLYLINE
  5
145
330
1F
100
AcDbEntity
  8
0-B_寸法
  6
Continuous
 62
     7
370
     5
100
AcDbPolyline
 90
        4
 70
     1
 43
3.0
 10
2033.418456245365
 20
1266.94599778948
 42
0.4142135623731
 10
2031.918456245365
 20
1268.44599778948
 42
0.4142135623731
 10
2030.418456245365
 20
1266.94599778948
 42
0.4142135623731
 10
2031.918456245365
 20
1265.44599778948
 42
0.4142135623731
  0
LINE
  5
146
330
1F
100
AcDbEntity
  8
0-B_寸法
  6
Continuous
 62
   120
370
     5
100
AcDbLine
 10
-2012.08151901064
 20
1266.94599778948
 30
0.0
 11
2031.918456245365
 21
1266.94599778948
 31
0.0
  0
LINE
  5
147
330
1F
100
AcDbEntity
  8
0-B_寸法
  6
Continuous
 62
   120
370
     5
100
AcDbLine
 10
-2012.08151901064
 20
1266.94599778948
 30
0.0
 11
-2012.08151901064
 21
1626.945997789481
 31
0.0
  0
LWPOLYLINE
  5
148
330
1F
100
AcDbEntity
  8
0-B_寸法
  6
Continuous
 62
     7
370
     5
100
AcDbPolyline
 90
        4
 70
     1
 43
3.0
 10
-2010.58151901064
 20
1266.94599778948
 42
0.4142135623731
 10
-2012.08151901064
 20
1268.44599778948
 42
0.4142135623731
 10
-2013.58151901064
 20
1266.94599778948
 42
0.4142135623731
 10
-2012.08151901064
 20
1265.44599778948
 42
0.4142135623731
  0
LWPOLYLINE
  5
149
330
1F
100
AcDbEntity
  8
0-B_寸法
  6
Continuous
 62
     7
370
     5
100
AcDbPolyline
 90
        4
 70
     1
 43
3.0
 10
-2190.581519010626
 20
1266.94599778948
 42
0.4142135623731
 10
-2192.081519010626
 20
1268.44599778948
 42
0.4142135623731
 10
-2193.581519010626
 20
1266.94599778948
 42
0.4142135623731
 10
-2192.081519010626
 20
1265.44599778948
 42
0.4142135623731
  0
LINE
  5
14A
330
1F
100
AcDbEntity
  8
0-B_寸法
  6
Continuous
 62
   120
370
     5
100
AcDbLine
 10
-2192.081519010626
 20
1266.94599778948
 30
0.0
 11
-2012.08151901064
 21
1266.94599778948
 31
0.0
  0
LINE
  5
14B
330
1F
100
AcDbEntity
  8
0-B_寸法
  6
Continuous
 62
   120
370
     5
100
AcDbLine
 10
2016.918505733344
 20
1446.94599778948
 30
0.0
 11
2016.918505733344
 21
1806.945997789481
 31
0.0
  0
LWPOLYLINE
  5
14C
330
1F
100
AcDbEntity
  8
0-B_寸法
  6
Continuous
 62
     7
370
     5
100
AcDbPolyline
 90
        4
 70
     1
 43
3.0
 10
2018.418505733344
 20
1446.94599778948
 42
0.4142135623731
 10
2016.918505733344
 20
1448.44599778948
 42
0.4142135623731
 10
2015.418505733344
 20
1446.94599778948
 42
0.4142135623731
 10
2016.918505733344
 20
1445.44599778948
 42
0.4142135623731
  0
LINE
  5
14D
330
1F
100
AcDbEntity
  8
0-B_寸法
  6
Continuous
 62
   120
370
     5
100
AcDbLine
 10
15.91854284331589
 20
1446.94599778948
 30
0.0
 11
2016.918505733344
 21
1446.94599778948
 31
0.0
  0
LINE
  5
14E
330
1F
100
AcDbEntity
  8
0-B_寸法
  6
Continuous
 62
   120
370
     5
100
AcDbLine
 10
15.91854284331589
 20
1446.94599778948
 30
0.0
 11
15.91854284331589
 21
1806.945997789481
 31
0.0
  0
LWPOLYLINE
  5
14F
330
1F
100
AcDbEntity
  8
0-B_寸法
  6
Continuous
 62
     7
370
     5
100
AcDbPolyline
 90
        4
 70
     1
 43
3.0
 10
17.41854284331589
 20
1446.94599778948
 42
0.4142135623731
 10
15.91854284331589
 20
1448.44599778948
 42
0.4142135623731
 10
14.41854284331589
 20
1446.94599778948
 42
0.4142135623731
 10
15.91854284331589
 20
1445.44599778948
 42
0.4142135623731
  0
LINE
  5
150
330
1F
100
AcDbEntity
  8
0-B_寸法
  6
Continuous
 62
   120
370
     5
100
AcDbLine
 10
3.91854284331572
 20
1446.94599778948
 30
0.0
 11
15.91854284331589
 21
1446.94599778948
 31
0.0
  0
LINE
  5
151
330
1F
100
AcDbEntity
  8
0-B_寸法
  6
Continuous
 62
   120
370
     5
100
AcDbLine
 10
3.91854284331572
 20
1446.94599778948
 30
0.0
 11
3.91854284331572
 21
1806.945997789481
 31
0.0
  0
LINE
  5
152
330
1F
100
AcDbEntity
  8
0-B_寸法
  6
Continuous
 62
   120
370
     5
100
AcDbLine
 10
-1997.081370558748
 20
1446.94599778948
 30
0.0
 11
-1997.081370558748
 21
1806.945997789481
 31
0.0
  0
LWPOLYLINE
  5
153
330
1F
100
AcDbEntity
  8
0-B_寸法
  6
Continuous
 62
     7
370
     5
100
AcDbPolyline
 90
        4
 70
     1
 43
3.0
 10
5.41854284331572
 20
1446.94599778948
 42
0.4142135623731
 10
3.91854284331572
 20
1448.44599778948
 42
0.4142135623731
 10
2.41854284331572
 20
1446.94599778948
 42
0.4142135623731
 10
3.91854284331572
 20
1445.44599778948
 42
0.4142135623731
  0
LWPOLYLINE
  5
154
330
1F
100
AcDbEntity
  8
0-B_寸法
  6
Continuous
 62
     7
370
     5
100
AcDbPolyline
 90
        4
 70
     1
 43
3.0
 10
-1995.581370558748
 20
1446.94599778948
 42
0.4142135623731
 10
-1997.081370558748
 20
1448.44599778948
 42
0.4142135623731
 10
-1998.581370558748
 20
1446.94599778948
 42
0.4142135623731
 10
-1997.081370558748
 20
1445.44599778948
 42
0.4142135623731
  0
LINE
  5
155
330
1F
100
AcDbEntity
  8
0-B_寸法
  6
Continuous
 62
   120
370
     5
100
AcDbLine
 10
-1997.081370558748
 20
1446.94599778948
 30
0.0
 11
3.91854284331572
 21
1446.94599778948
 31
0.0
  0
LINE
  5
156
330
1F
100
AcDbEntity
  8
0-B_寸法
  6
Continuous
 62
   120
370
     5
100
AcDbLine
 10
1008.918808844128
 20
1626.945997789481
 30
0.0
 11
1008.918808844128
 21
1806.945997789481
 31
0.0
  0
LWPOLYLINE
  5
157
330
1F
100
AcDbEntity
  8
0-B_寸法
  6
Continuous
 62
     7
370
     5
100
AcDbPolyline
 90
        4
 70
     1
 43
3.0
 10
2018.418505733344
 20
1626.945997789481
 42
0.4142135623731
 10
2016.918505733344
 20
1628.445997789481
 42
0.4142135623731
 10
2015.418505733344
 20
1626.945997789481
 42
0.4142135623731
 10
2016.918505733344
 20
1625.445997789481
 42
0.4142135623731
  0
LWPOLYLINE
  5
158
330
1F
100
AcDbEntity
  8
0-B_寸法
  6
Continuous
 62
     7
370
     5
100
AcDbPolyline
 90
        4
 70
     1
 43
3.0
 10
1010.418808844128
 20
1626.945997789481
 42
0.4142135623731
 10
1008.918808844128
 20
1628.445997789481
 42
0.4142135623731
 10
1007.418808844128
 20
1626.945997789481
 42
0.4142135623731
 10
1008.918808844128
 20
1625.445997789481
 42
0.4142135623731
  0
LINE
  5
159
330
1F
100
AcDbEntity
  8
0-B_寸法
  6
Continuous
 62
   120
370
     5
100
AcDbLine
 10
1008.918808844128
 20
1626.945997789481
 30
0.0
 11
2016.918505733344
 21
1626.945997789481
 31
0.0
  0
LINE
  5
15A
330
1F
100
AcDbEntity
  8
0-B_寸法
  6
Continuous
 62
   120
370
     5
100
AcDbLine
 10
1002.918883076073
 20
1626.945997789481
 30
0.0
 11
1002.918883076073
 21
1806.945997789481
 31
0.0
  0
LWPOLYLINE
  5
15B
330
1F
100
AcDbEntity
  8
0-B_寸法
  6
Continuous
 62
     7
370
     5
100
AcDbPolyline
 90
        4
 70
     1
 43
3.0
 10
1004.418883076073
 20
1626.945997789481
 42
0.4142135623731
 10
1002.918883076073
 20
1628.445997789481
 42
0.4142135623731
 10
1001.418883076073
 20
1626.945997789481
 42
0.4142135623731
 10
1002.918883076073
 20
1625.445997789481
 42
0.4142135623731
  0
LWPOLYLINE
  5
15C
330
1F
100
AcDbEntity
  8
0-B_寸法
  6
Continuous
 62
     7
370
     5
100
AcDbPolyline
 90
        4
 70
     1
 43
3.0
 10
17.41854284331589
 20
1626.945997789481
 42
0.4142135623731
 10
15.91854284331589
 20
1628.445997789481
 42
0.4142135623731
 10
14.41854284331589
 20
1626.945997789481
 42
0.4142135623731
 10
15.91854284331589
 20
1625.445997789481
 42
0.4142135623731
  0
LINE
  5
15D
330
1F
100
AcDbEntity
  8
0-B_寸法
  6
Continuous
 62
   120
370
     5
100
AcDbLine
 10
15.91854284331589
 20
1626.945997789481
 30
0.0
 11
1002.918883076073
 21
1626.945997789481
 31
0.0
  0
LINE
  5
15E
330
1F
100
AcDbEntity
  8
0-B_寸法
  6
Continuous
 62
   120
370
     5
100
AcDbLine
 10
-983.0817973894403
 20
1626.945997789481
 30
0.0
 11
-983.0817973894403
 21
1806.945997789481
 31
0.0
  0
LWPOLYLINE
  5
15F
330
1F
100
AcDbEntity
  8
0-B_寸法
  6
Continuous
 62
     7
370
     5
100
AcDbPolyline
 90
        4
 70
     1
 43
3.0
 10
5.41854284331572
 20
1626.945997789481
 42
0.4142135623731
 10
3.91854284331572
 20
1628.445997789481
 42
0.4142135623731
 10
2.41854284331572
 20
1626.945997789481
 42
0.4142135623731
 10
3.91854284331572
 20
1625.445997789481
 42
0.4142135623731
  0
LWPOLYLINE
  5
160
330
1F
100
AcDbEntity
  8
0-B_寸法
  6
Continuous
 62
     7
370
     5
100
AcDbPolyline
 90
        4
 70
     1
 43
3.0
 10
-981.5817973894405
 20
1626.945997789481
 42
0.4142135623731
 10
-983.0817973894403
 20
1628.445997789481
 42
0.4142135623731
 10
-984.5817973894402
 20
1626.945997789481
 42
0.4142135623731
 10
-983.0817973894403
 20
1625.445997789481
 42
0.4142135623731
  0
LINE
  5
161
330
1F
100
AcDbEntity
  8
0-B_寸法
  6
Continuous
 62
   120
370
     5
100
AcDbLine
 10
-983.0817973894403
 20
1626.945997789481
 30
0.0
 11
3.91854284331572
 21
1626.945997789481
 31
0.0
  0
LINE
  5
162
330
1F
100
AcDbEntity
  8
0-B_寸法
  6
Continuous
 62
   120
370
     5
100
AcDbLine
 10
-989.0817231574948
 20
1626.945997789481
 30
0.0
 11
-989.0817231574948
 21
1806.945997789481
 31
0.0
  0
LWPOLYLINE
  5
163
330
1F
100
AcDbEntity
  8
0-B_寸法
  6
Continuous
 62
     7
370
     5
100
AcDbPolyline
 90
        4
 70
     1
 43
3.0
 10
-987.5817231574949
 20
1626.945997789481
 42
0.4142135623731
 10
-989.0817231574948
 20
1628.445997789481
 42
0.4142135623731
 10
-990.5817231574947
 20
1626.945997789481
 42
0.4142135623731
 10
-989.0817231574948
 20
1625.445997789481
 42
0.4142135623731
  0
LWPOLYLINE
  5
164
330
1F
100
AcDbEntity
  8
0-B_寸法
  6
Continuous
 62
     7
370
     5
100
AcDbPolyline
 90
        4
 70
     1
 43
3.0
 10
-1995.581370558748
 20
1626.945997789481
 42
0.4142135623731
 10
-1997.081370558748
 20
1628.445997789481
 42
0.4142135623731
 10
-1998.581370558748
 20
1626.945997789481
 42
0.4142135623731
 10
-1997.081370558748
 20
1625.445997789481
 42
0.4142135623731
  0
LINE
  5
165
330
1F
100
AcDbEntity
  8
0-B_寸法
  6
Continuous
 62
   120
370
     5
100
AcDbLine
 10
-1997.081370558748
 20
1626.945997789481
 30
0.0
 11
-989.0817231574948
 21
1626.945997789481
 31
0.0
  0
LINE
  5
166
330
1F
100
AcDbEntity
  8
0-6_扉
  6
Continuous
 62
   200
370
     5
100
AcDbLine
 10
3.91854284331572
 20
2100.945997789479
 30
0.0
 11
3.91854284331572
 21
2262.94729437415
 31
0.0
  0
LINE
  5
167
330
1F
100
AcDbEntity
  8
0-6_扉
  6
Continuous
 62
   200
370
     5
100
AcDbLine
 10
15.91854284331589
 20
2262.94729437415
 30
0.0
 11
477.9186944017081
 21
2262.94729437415
 31
0.0
  0
LINE
  5
168
330
1F
100
AcDbEntity
  8
0-6_扉
  6
Continuous
 62
   200
370
     5
100
AcDbLine
 10
15.91854284331589
 20
2100.945997789479
 30
0.0
 11
15.91854284331589
 21
2262.94729437415
 31
0.0
  0
LINE
  5
169
330
1F
100
AcDbEntity
  8
0-6_扉
  6
Continuous
 62
   200
370
     5
100
AcDbLine
 10
15.91854284331589
 20
2100.945997789479
 30
0.0
 11
477.9186944017081
 21
2100.945997789479
 31
0.0
  0
LINE
  5
16A
330
1F
100
AcDbEntity
  8
0-6_扉
  6
Continuous
 62
   200
370
     5
100
AcDbLine
 10
537.9186944017081
 20
2100.945997789479
 30
0.0
 11
1002.918883076073
 21
2100.945997789479
 31
0.0
  0
LINE
  5
16B
330
1F
100
AcDbEntity
  8
0-0_補助線
  6
JWW_HOJO
 62
     7
370
     5
100
AcDbLine
 10
537.9186944017081
 20
2262.94729437415
 30
0.0
 11
537.9186944017081
 21
2100.945997789479
 31
0.0
  0
LINE
  5
16C
330
1F
100
AcDbEntity
  8
0-6_扉
  6
Continuous
 62
   200
370
     5
100
AcDbLine
 10
537.9186944017081
 20
2262.94729437415
 30
0.0
 11
1002.918883076073
 21
2262.94729437415
 31
0.0
  0
LINE
  5
16D
330
1F
100
AcDbEntity
  8
0-0_補助線
  6
JWW_HOJO
 62
     7
370
     5
100
AcDbLine
 10
477.9186944017081
 20
2262.94729437415
 30
0.0
 11
477.9186944017081
 21
2100.945997789479
 31
0.0
  0
LINE
  5
16E
330
1F
100
AcDbEntity
  8
0-6_扉
  6
Continuous
 62
   200
370
     5
100
AcDbLine
 10
1002.918883076073
 20
2262.94729437415
 30
0.0
 11
1002.918883076073
 21
2100.945997789479
 31
0.0
  0
LINE
  5
16F
330
1F
100
AcDbEntity
  8
0-6_扉
  6
Continuous
 62
   200
370
     5
100
AcDbLine
 10
1008.918808844128
 20
2262.94729437415
 30
0.0
 11
1008.918808844128
 21
2100.945997789479
 31
0.0
  0
LINE
  5
170
330
1F
100
AcDbEntity
  8
0-6_扉
  6
Continuous
 62
   200
370
     5
100
AcDbLine
 10
1008.918808844128
 20
2100.945997789479
 30
0.0
 11
1473.918997518493
 21
2100.945997789479
 31
0.0
  0
LINE
  5
171
330
1F
100
AcDbEntity
  8
0-6_扉
  6
Continuous
 62
   200
370
     5
100
AcDbLine
 10
1008.918808844128
 20
2262.94729437415
 30
0.0
 11
1473.918997518493
 21
2262.94729437415
 31
0.0
  0
CIRCLE
  5
172
330
1F
100
AcDbEntity
  8
0-A_文字
  6
Continuous
 62
     7
370
     5
100
AcDbCircle
 10
1005.918845960101
 20
2292.945997789481
 30
0.0
 40
30.0
  0
CIRCLE
  5
173
330
1F
100
AcDbEntity
  8
0-A_文字
  6
Continuous
 62
     7
370
     5
100
AcDbCircle
 10
1005.918845960101
 20
2292.945997789481
 30
0.0
 40
21.00000000000001
  0
LINE
  5
174
330
1F
100
AcDbEntity
  8
0-0_補助線
  6
JWW_HOJO
 62
     7
370
     5
100
AcDbLine
 10
-518.0816087150756
 20
2262.94729437415
 30
0.0
 11
-518.0816087150756
 21
2100.945997789479
 31
0.0
  0
LINE
  5
175
330
1F
100
AcDbEntity
  8
0-0_補助線
  6
JWW_HOJO
 62
     7
370
     5
100
AcDbLine
 10
-458.0816087150757
 20
2262.94729437415
 30
0.0
 11
-458.0816087150757
 21
2100.945997789479
 31
0.0
  0
LINE
  5
176
330
1F
100
AcDbEntity
  8
0-0_補助線
  6
JWW_HOJO
 62
     7
370
     5
100
AcDbLine
 10
1473.918997518493
 20
2262.94729437415
 30
0.0
 11
1473.918997518493
 21
2100.945997789479
 31
0.0
  0
LINE
  5
177
330
1F
100
AcDbEntity
  8
0-0_補助線
  6
JWW_HOJO
 62
     7
370
     5
100
AcDbLine
 10
1533.918997518493
 20
2262.94729437415
 30
0.0
 11
1533.918997518493
 21
2100.945997789479
 31
0.0
  0
LINE
  5
178
330
1F
100
AcDbEntity
  8
0-6_扉
  6
Continuous
 62
   200
370
     5
100
AcDbLine
 10
1533.918997518493
 20
2100.945997789479
 30
0.0
 11
2016.918505733344
 21
2100.945997789479
 31
0.0
  0
LINE
  5
179
330
1F
100
AcDbEntity
  8
0-6_扉
  6
Continuous
 62
   200
370
     5
100
AcDbLine
 10
1533.918997518493
 20
2262.94729437415
 30
0.0
 11
2016.918505733344
 21
2262.94729437415
 31
0.0
  0
LINE
  5
17A
330
1F
100
AcDbEntity
  8
0-6_扉
  6
Continuous
 62
   200
370
     5
100
AcDbLine
 10
-989.0817231574948
 20
2262.94729437415
 30
0.0
 11
-989.0817231574948
 21
2100.945997789479
 31
0.0
  0
LINE
  5
17B
330
1F
100
AcDbEntity
  8
0-6_扉
  6
Continuous
 62
   200
370
     5
100
AcDbLine
 10
-983.0817973894403
 20
2262.94729437415
 30
0.0
 11
-983.0817973894403
 21
2100.945997789479
 31
0.0
  0
CIRCLE
  5
17C
330
1F
100
AcDbEntity
  8
0-A_文字
  6
Continuous
 62
     7
370
     5
100
AcDbCircle
 10
-986.0817602734693
 20
2292.945997789481
 30
0.0
 40
30.0
  0
CIRCLE
  5
17D
330
1F
100
AcDbEntity
  8
0-A_文字
  6
Continuous
 62
     7
370
     5
100
AcDbCircle
 10
-986.0817602734693
 20
2292.945997789481
 30
0.0
 40
21.00000000000001
  0
LINE
  5
17E
330
1F
100
AcDbEntity
  8
0-6_扉
  6
Continuous
 62
   200
370
     5
100
AcDbLine
 10
-1997.081370558748
 20
2100.945997789479
 30
0.0
 11
-1514.08191183186
 21
2100.945997789479
 31
0.0
  0
LINE
  5
17F
330
1F
100
AcDbEntity
  8
0-6_扉
  6
Continuous
 62
   200
370
     5
100
AcDbLine
 10
-1997.081370558748
 20
2262.94729437415
 30
0.0
 11
-1514.08191183186
 21
2262.94729437415
 31
0.0
  0
LINE
  5
180
330
1F
100
AcDbEntity
  8
0-0_補助線
  6
JWW_HOJO
 62
     7
370
     5
100
AcDbLine
 10
-1514.08191183186
 20
2262.94729437415
 30
0.0
 11
-1514.08191183186
 21
2100.945997789479
 31
0.0
  0
LINE
  5
181
330
1F
100
AcDbEntity
  8
0-0_補助線
  6
JWW_HOJO
 62
     7
370
     5
100
AcDbLine
 10
-1454.08191183186
 20
2262.94729437415
 30
0.0
 11
-1454.08191183186
 21
2100.945997789479
 31
0.0
  0
LWPOLYLINE
  5
182
330
1F
100
AcDbEntity
  8
0-B_寸法
  6
Continuous
 62
     7
370
     5
100
AcDbPolyline
 90
        4
 70
     1
 43
3.0
 10
-1316.205459767227
 20
2100.945997789479
 42
0.4142135623731
 10
-1317.705459767226
 20
2102.445997789479
 42
0.4142135623731
 10
-1319.205459767226
 20
2100.945997789479
 42
0.4142135623731
 10
-1317.705459767226
 20
2099.445997789479
 42
0.4142135623731
  0
LWPOLYLINE
  5
183
330
1F
100
AcDbEntity
  8
0-B_寸法
  6
Continuous
 62
     7
370
     5
100
AcDbPolyline
 90
        4
 70
     1
 43
3.0
 10
-1316.205459767227
 20
2262.945997789481
 42
0.4142135623731
 10
-1317.705459767226
 20
2264.445997789481
 42
0.4142135623731
 10
-1319.205459767226
 20
2262.945997789481
 42
0.4142135623731
 10
-1317.705459767226
 20
2261.445997789481
 42
0.4142135623731
  0
LINE
  5
184
330
1F
100
AcDbEntity
  8
0-B_寸法
  6
Continuous
 62
   120
370
     5
100
AcDbLine
 10
-1317.705459767226
 20
2100.945354445942
 30
0.0
 11
-1317.705459767226
 21
2262.945997789481
 31
0.0
  0
LINE
  5
185
330
1F
100
AcDbEntity
  8
0-0_補助線
  6
JWW_HOJO
 62
     7
370
     5
100
AcDbLine
 10
1005.9188459601
 20
906.9459977894797
 30
0.0
 11
1005.9188459601
 21
2961.94599778948
 31
0.0
  0
LINE
  5
186
330
1F
100
AcDbEntity
  8
0-0_補助線
  6
JWW_HOJO
 62
     7
370
     5
100
AcDbLine
 10
-986.0817602734693
 20
906.9459977894797
 30
0.0
 11
-986.0817602734693
 21
2961.94599778948
 31
0.0
  0
LWPOLYLINE
  5
187
330
1F
100
AcDbEntity
  8
0-B_寸法
  6
Continuous
 62
     7
370
     5
100
AcDbPolyline
 90
        4
 70
     1
 43
3.0
 10
1300.32028300658
 20
2781.94599778948
 42
0.4142135623731
 10
1298.82028300658
 20
2783.44599778948
 42
0.4142135623731
 10
1297.32028300658
 20
2781.94599778948
 42
0.4142135623731
 10
1298.82028300658
 20
2780.44599778948
 42
0.4142135623731
  0
LINE
  5
188
330
1F
100
AcDbEntity
  8
0-B_寸法
  6
Continuous
 62
   120
370
     5
100
AcDbLine
 10
1298.82028300658
 20
2781.94599778948
 30
0.0
 11
1298.82028300658
 21
2601.94599778948
 31
0.0
  0
LINE
  5
189
330
1F
100
AcDbEntity
  8
0-B_寸法
  6
Continuous
 62
   120
370
     5
100
AcDbLine
 10
-1287.981873544336
 20
2781.94599778948
 30
0.0
 11
1298.82028300658
 21
2781.94599778948
 31
0.0
  0
LINE
  5
18A
330
1F
100
AcDbEntity
  8
0-1_通り芯
  6
JWW_CENTER1
 62
   120
370
     5
100
AcDbLine
 10
1298.82028300658
 20
2601.94599778948
 30
0.0
 11
1298.82028300658
 21
2348.529965804734
 31
0.0
  0
ARC
  5
18B
330
1F
100
AcDbEntity
  8
0-6_扉
  6
JWW_DASHED2
 62
    40
370
     5
100
AcDbCircle
 10
1316.768525589989
 20
2347.165932019539
 30
0.0
 40
18.0
100
AcDbArc
 50
94.34602072163928
 51
184.346020721639
  0
LINE
  5
18C
330
1F
100
AcDbEntity
  8
0-6_扉
  6
JWW_DASHED2
 62
    40
370
     5
100
AcDbLine
 10
1441.042189888649
 20
2374.662411099301
 30
0.0
 11
1315.404491804795
 21
2365.114174602947
 31
0.0
  0
ARC
  5
18D
330
1F
100
AcDbEntity
  8
0-6_扉
  6
JWW_DASHED2
 62
    40
370
     5
100
AcDbCircle
 10
1442.406223673841
 20
2356.714168515893
 30
0.0
 40
18.0
100
AcDbArc
 50
4.346020721638936
 51
94.34602072163932
  0
ARC
  5
18E
330
1F
100
AcDbEntity
  8
0-6_扉
  6
JWW_DASHED2
 62
    40
370
     5
100
AcDbCircle
 10
1767.685165479635
 20
2358.078202301085
 30
0.0
 40
18.0
100
AcDbArc
 50
85.65397927835929
 51
175.6539792783603
  0
LINE
  5
18F
330
1F
100
AcDbEntity
  8
0-6_扉
  6
JWW_DASHED2
 62
    40
370
     5
100
AcDbLine
 10
1894.686897348686
 20
2366.478208388135
 30
0.0
 11
1769.04919926483
 21
2376.026444884493
 31
0.0
  0
ARC
  5
190
330
1F
100
AcDbEntity
  8
0-6_扉
  6
JWW_DASHED2
 62
    40
370
     5
100
AcDbCircle
 10
1893.322863563492
 20
2348.529965804728
 30
0.0
 40
18.0
100
AcDbArc
 50
355.6539792783596
 51
85.65397927835919
  0
LINE
  5
191
330
1F
100
AcDbEntity
  8
0-6_扉
  6
JWW_DASHED2
 62
    40
370
     5
100
AcDbLine
 10
1298.82028300658
 20
2345.801898234346
 30
0.0
 11
1332.248470709799
 21
1905.94679454571
 31
0.0
  0
LINE
  5
192
330
1F
100
AcDbEntity
  8
0-6_扉
  6
JWW_DASHED2
 62
    40
370
     5
100
AcDbLine
 10
1911.271106146899
 20
2347.165932019535
 30
0.0
 11
1877.739254357427
 21
1905.94679454571
 31
0.0
  0
LINE
  5
193
330
1F
100
AcDbEntity
  8
0-6_扉
  6
JWW_DASHED2
 62
    40
370
     5
100
AcDbLine
 10
1460.354466257248
 20
2358.078202301087
 30
0.0
 11
1494.715630736688
 21
1905.94679454571
 31
0.0
  0
LINE
  5
194
330
1F
100
AcDbEntity
  8
0-6_扉
  6
JWW_DASHED2
 62
    40
370
     5
100
AcDbLine
 10
1749.736922896229
 20
2359.442236086279
 30
0.0
 11
1715.272094330535
 21
1905.94679454571
 31
0.0
  0
LINE
  5
195
330
1F
100
AcDbEntity
  8
0-0_補助線
  6
JWW_HOJO
 62
   120
370
     5
100
AcDbLine
 10
-2762.081172606889
 20
1806.945997789481
 30
0.0
 11
2781.918258293522
 21
1806.945997789481
 31
0.0
  0
LINE
  5
196
330
1F
100
AcDbEntity
  8
0-6_扉
  6
Continuous
 62
   200
370
     5
100
AcDbLine
 10
-1997.081370558748
 20
2262.94729437415
 30
0.0
 11
-1997.081370558748
 21
2100.945997789479
 31
0.0
  0
LINE
  5
197
330
1F
100
AcDbEntity
  8
0-0_補助線
  6
JWW_HOJO
 62
   120
370
     5
100
AcDbLine
 10
-2762.081172606889
 20
2781.94599778948
 30
0.0
 11
2781.918258293522
 21
2781.94599778948
 31
0.0
  0
LINE
  5
198
330
1F
100
AcDbEntity
  8
0-0_補助線
  6
JWW_HOJO
 62
   120
370
     5
100
AcDbLine
 10
-2762.081172606889
 20
2601.94599778948
 30
0.0
 11
2781.918258293522
 21
2601.94599778948
 31
0.0
  0
LINE
  5
199
330
1F
100
AcDbEntity
  8
0-1_通り芯
  6
JWW_CENTER1
 62
   120
370
     5
100
AcDbLine
 10
-2762.081172606889
 20
2181.94599778948
 30
0.0
 11
2781.918258293522
 21
2181.94599778948
 31
0.0
  0
LINE
  5
19A
330
1F
100
AcDbEntity
  8
0-6_扉
  6
Continuous
 62
   200
370
     5
100
AcDbLine
 10
2016.918456245382
 20
2262.94729437415
 30
0.0
 11
2016.918456245382
 21
2100.945997789479
 31
0.0
  0
LINE
  5
19B
330
1F
100
AcDbEntity
  8
0-6_扉
  6
Continuous
 62
   200
370
     5
100
AcDbLine
 10
2016.918505733344
 20
2262.94729437415
 30
0.0
 11
2016.918505733344
 21
2100.945997789479
 31
0.0
  0
LINE
  5
19C
330
1F
100
AcDbEntity
  8
0-C_ハッチ
  6
JWW_DASHED1
 62
   120
370
     5
100
AcDbLine
 10
-2762.081271570805
 20
2029.764829088783
 30
0.0
 11
-2717.900102870115
 21
2073.945997789473
 31
0.0
  0
LINE
  5
19D
330
1F
100
AcDbEntity
  8
0-C_ハッチ
  6
JWW_DASHED1
 62
   120
370
     5
100
AcDbLine
 10
-2750.473943438808
 20
1998.945750349634
 30
0.0
 11
-2675.473695998976
 21
2073.945997789466
 31
0.0
  0
LINE
  5
19E
330
1F
100
AcDbEntity
  8
0-C_ハッチ
  6
JWW_DASHED1
 62
   120
370
     5
100
AcDbLine
 10
-2708.047536567581
 20
1998.945750349661
 30
0.0
 11
-2633.047289127749
 21
2073.94599778949
 31
0.0
  0
LINE
  5
19F
330
1F
100
AcDbEntity
  8
0-C_ハッチ
  6
JWW_DASHED1
 62
   120
370
     5
100
AcDbLine
 10
-2665.621129696385
 20
1998.945750349658
 30
0.0
 11
-2590.620882256556
 21
2073.945997789487
 31
0.0
  0
LINE
  5
1A0
330
1F
100
AcDbEntity
  8
0-C_ハッチ
  6
JWW_DASHED1
 62
   120
370
     5
100
AcDbLine
 10
-2623.194722825188
 20
1998.945750349651
 30
0.0
 11
-2548.19447538536
 21
2073.945997789483
 31
0.0
  0
LINE
  5
1A1
330
1F
100
AcDbEntity
  8
0-C_ハッチ
  6
JWW_DASHED1
 62
   120
370
     5
100
AcDbLine
 10
-2580.768315953988
 20
1998.945750349651
 30
0.0
 11
-2505.768068514156
 21
2073.945997789487
 31
0.0
  0
LINE
  5
1A2
330
1F
100
AcDbEntity
  8
0-C_ハッチ
  6
JWW_DASHED1
 62
   120
370
     5
100
AcDbLine
 10
-2538.341909082795
 20
1998.945750349648
 30
0.0
 11
-2463.341661642963
 21
2073.94599778948
 31
0.0
  0
LINE
  5
1A3
330
1F
100
AcDbEntity
  8
0-C_ハッチ
  6
JWW_DASHED1
 62
   120
370
     5
100
AcDbLine
 10
-2495.915502211595
 20
1998.945750349648
 30
0.0
 11
-2420.915254771763
 21
2073.94599778948
 31
0.0
  0
LINE
  5
1A4
330
1F
100
AcDbEntity
  8
0-C_ハッチ
  6
JWW_DASHED1
 62
   120
370
     5
100
AcDbLine
 10
-2453.489095340401
 20
1998.945750349644
 30
0.0
 11
-2378.488847900566
 21
2073.945997789477
 31
0.0
  0
LINE
  5
1A5
330
1F
100
AcDbEntity
  8
0-C_ハッチ
  6
JWW_DASHED1
 62
   120
370
     5
100
AcDbLine
 10
-2411.062688469246
 20
1998.945750349651
 30
0.0
 11
-2336.062441029414
 21
2073.945997789483
 31
0.0
  0
LINE
  5
1A6
330
1F
100
AcDbEntity
  8
0-C_ハッチ
  6
JWW_DASHED1
 62
   120
370
     5
100
AcDbLine
 10
-2368.636281598042
 20
1998.945750349655
 30
0.0
 11
-2293.636034158214
 21
2073.945997789483
 31
0.0
  0
LINE
  5
1A7
330
1F
100
AcDbEntity
  8
0-C_ハッチ
  6
JWW_DASHED1
 62
   120
370
     5
100
AcDbLine
 10
-2326.209874726849
 20
1998.945750349648
 30
0.0
 11
-2251.209627287017
 21
2073.94599778948
 31
0.0
  0
LINE
  5
1A8
330
1F
100
AcDbEntity
  8
0-C_ハッチ
  6
JWW_DASHED1
 62
   120
370
     5
100
AcDbLine
 10
-2283.783467855653
 20
1998.945750349644
 30
0.0
 11
-2208.783220415824
 21
2073.945997789473
 31
0.0
  0
LINE
  5
1A9
330
1F
100
AcDbEntity
  8
0-C_ハッチ
  6
JWW_DASHED1
 62
   120
370
     5
100
AcDbLine
 10
2213.415907930627
 20
1998.945997789483
 30
0.0
 11
2288.415907930636
 21
2073.945997789494
 31
0.0
  0
LINE
  5
1AA
330
1F
100
AcDbEntity
  8
0-C_ハッチ
  6
JWW_DASHED1
 62
   120
370
     5
100
AcDbLine
 10
2255.842314801837
 20
1998.945997789497
 30
0.0
 11
2330.842314801831
 21
2073.94599778949
 31
0.0
  0
LINE
  5
1AB
330
1F
100
AcDbEntity
  8
0-C_ハッチ
  6
JWW_DASHED1
 62
   120
370
     5
100
AcDbLine
 10
2298.268721673036
 20
1998.945997789494
 30
0.0
 11
2373.268721673034
 21
2073.94599778949
 31
0.0
  0
LINE
  5
1AC
330
1F
100
AcDbEntity
  8
0-C_ハッチ
  6
JWW_DASHED1
 62
   120
370
     5
100
AcDbLine
 10
2340.695128544234
 20
1998.94599778949
 30
0.0
 11
2415.695128544229
 21
2073.945997789487
 31
0.0
  0
LINE
  5
1AD
330
1F
100
AcDbEntity
  8
0-C_ハッチ
  6
JWW_DASHED1
 62
   120
370
     5
100
AcDbLine
 10
2383.121535415429
 20
1998.945997789487
 30
0.0
 11
2458.121535415427
 21
2073.945997789483
 31
0.0
  0
LINE
  5
1AE
330
1F
100
AcDbEntity
  8
0-C_ハッチ
  6
JWW_DASHED1
 62
   120
370
     5
100
AcDbLine
 10
2425.547942286567
 20
1998.94599778948
 30
0.0
 11
2500.547942286563
 21
2073.945997789477
 31
0.0
  0
LINE
  5
1AF
330
1F
100
AcDbEntity
  8
0-C_ハッチ
  6
JWW_DASHED1
 62
   120
370
     5
100
AcDbLine
 10
2467.974349157766
 20
1998.945997789476
 30
0.0
 11
2542.974349157777
 21
2073.94599778949
 31
0.0
  0
LINE
  5
1B0
330
1F
100
AcDbEntity
  8
0-C_ハッチ
  6
JWW_DASHED1
 62
   120
370
     5
100
AcDbLine
 10
2510.400756028967
 20
1998.94599778948
 30
0.0
 11
2585.40075602898
 21
2073.94599778949
 31
0.0
  0
LINE
  5
1B1
330
1F
100
AcDbEntity
  8
0-C_ハッチ
  6
JWW_DASHED1
 62
   120
370
     5
100
AcDbLine
 10
2552.827162900181
 20
1998.945997789494
 30
0.0
 11
2627.827162900174
 21
2073.945997789487
 31
0.0
  0
LINE
  5
1B2
330
1F
100
AcDbEntity
  8
0-C_ハッチ
  6
JWW_DASHED1
 62
   120
370
     5
100
AcDbLine
 10
2595.253569771377
 20
1998.94599778949
 30
0.0
 11
2670.253569771369
 21
2073.945997789483
 31
0.0
  0
LINE
  5
1B3
330
1F
100
AcDbEntity
  8
0-C_ハッチ
  6
JWW_DASHED1
 62
   120
370
     5
100
AcDbLine
 10
2637.679976642583
 20
1998.945997789497
 30
0.0
 11
2712.679976642581
 21
2073.945997789494
 31
0.0
  0
LINE
  5
1B4
330
1F
100
AcDbEntity
  8
0-C_ハッチ
  6
JWW_DASHED1
 62
   120
370
     5
100
AcDbLine
 10
2680.106383513781
 20
1998.945997789494
 30
0.0
 11
2755.106383513777
 21
2073.94599778949
 31
0.0
  0
LINE
  5
1B5
330
1F
100
AcDbEntity
  8
0-C_ハッチ
  6
JWW_DASHED1
 62
   120
370
     5
100
AcDbLine
 10
2722.532790384977
 20
1998.94599778949
 30
0.0
 11
2781.918258293516
 21
2058.331465698028
 31
0.0
  0
LINE
  5
1B6
330
1F
100
AcDbEntity
  8
0-C_ハッチ
  6
JWW_DASHED1
 62
   120
370
     5
100
AcDbLine
 10
2764.959197256115
 20
1998.945997789483
 30
0.0
 11
2781.918258293519
 21
2015.905058826886
 31
0.0
  0
LWPOLYLINE
  5
1B7
330
1F
100
AcDbEntity
  8
0-B_寸法
  6
Continuous
 62
     7
370
     5
100
AcDbPolyline
 90
        4
 70
     1
 43
3.0
 10
-1995.581469522675
 20
2144.36004749702
 42
0.4142135623731
 10
-1997.081469522675
 20
2145.86004749702
 42
0.4142135623731
 10
-1998.581469522674
 20
2144.36004749702
 42
0.4142135623731
 10
-1997.081469522675
 20
2142.86004749702
 42
0.4142135623731
  0
LWPOLYLINE
  5
1B8
330
1F
100
AcDbEntity
  8
0-B_寸法
  6
Continuous
 62
     7
370
     5
100
AcDbPolyline
 90
        4
 70
     1
 43
3.0
 10
-2010.58151901064
 20
2144.36004749702
 42
0.4142135623731
 10
-2012.08151901064
 20
2145.86004749702
 42
0.4142135623731
 10
-2013.58151901064
 20
2144.36004749702
 42
0.4142135623731
 10
-2012.08151901064
 20
2142.86004749702
 42
0.4142135623731
  0
LINE
  5
1B9
330
1F
100
AcDbEntity
  8
0-B_寸法
  6
Continuous
 62
   120
370
     5
100
AcDbLine
 10
-2012.08151901064
 20
2225.689310720204
 30
0.0
 11
-2012.08151901064
 21
2144.36004749702
 31
0.0
  0
LINE
  5
1BA
330
1F
100
AcDbEntity
  8
0-B_寸法
  6
Continuous
 62
   120
370
     5
100
AcDbLine
 10
-1997.081469522675
 20
2225.689310720204
 30
0.0
 11
-1997.081469522675
 21
2144.36004749702
 31
0.0
  0
LINE
  5
1BB
330
1F
100
AcDbEntity
  8
0-B_寸法
  6
Continuous
 62
   120
370
     5
100
AcDbLine
 10
-2012.08151901064
 20
2144.36004749702
 30
0.0
 11
-1997.081469522675
 21
2144.36004749702
 31
0.0
  0
LINE
  5
1BC
330
1F
100
AcDbEntity
  8
0-C_ハッチ
  6
Continuous
 62
   120
370
     5
100
AcDbLine
 10
-2029.650141863825
 20
1905.946794545705
 30
0.0
 11
-2012.081519010637
 21
1923.515417398893
 31
0.0
  0
LINE
  5
1BD
330
1F
100
AcDbEntity
  8
0-C_ハッチ
  6
Continuous
 62
   120
370
     5
100
AcDbLine
 10
-2089.047111483485
 20
1905.946794545695
 30
0.0
 11
-2012.081519010626
 21
1982.912387018551
 31
0.0
  0
LINE
  5
1BE
330
1F
100
AcDbEntity
  8
0-C_ハッチ
  6
Continuous
 62
   120
370
     5
100
AcDbLine
 10
-2148.444081103187
 20
1905.946794545692
 30
0.0
 11
-2012.08151901063
 21
2042.309356638249
 31
0.0
  0
LINE
  5
1BF
330
1F
100
AcDbEntity
  8
0-C_ハッチ
  6
Continuous
 62
   120
370
     5
100
AcDbLine
 10
-2192.081519010626
 20
1921.7063262579
 30
0.0
 11
-2012.08151901063
 21
2101.706326257896
 31
0.0
  0
LINE
  5
1C0
330
1F
100
AcDbEntity
  8
0-C_ハッチ
  6
Continuous
 62
   120
370
     5
100
AcDbLine
 10
-2192.08151901063
 20
1981.103295877598
 30
0.0
 11
-2012.08151901064
 21
2161.103295877592
 31
0.0
  0
LINE
  5
1C1
330
1F
100
AcDbEntity
  8
0-C_ハッチ
  6
Continuous
 62
   120
370
     5
100
AcDbLine
 10
-2192.081519010633
 20
2040.500265497242
 30
0.0
 11
-2012.081519010633
 21
2220.500265497241
 31
0.0
  0
LINE
  5
1C2
330
1F
100
AcDbEntity
  8
0-C_ハッチ
  6
Continuous
 62
   120
370
     5
100
AcDbLine
 10
-2192.08151901062
 20
2099.8972351169
 30
0.0
 11
-2012.081519010623
 21
2279.8972351169
 31
0.0
  0
LINE
  5
1C3
330
1F
100
AcDbEntity
  8
0-C_ハッチ
  6
Continuous
 62
   120
370
     5
100
AcDbLine
 10
-2192.08151901063
 20
2159.294204736595
 30
0.0
 11
-2012.081519010637
 21
2339.294204736589
 31
0.0
  0
LINE
  5
1C4
330
1F
100
AcDbEntity
  8
0-C_ハッチ
  6
Continuous
 62
   120
370
     5
100
AcDbLine
 10
-2192.081519010626
 20
2218.691174356245
 30
0.0
 11
-2012.081519010626
 21
2398.691174356243
 31
0.0
  0
LINE
  5
1C5
330
1F
100
AcDbEntity
  8
0-C_ハッチ
  6
Continuous
 62
   120
370
     5
100
AcDbLine
 10
-2192.081519010633
 20
2337.485113595591
 30
0.0
 11
-2071.62068925351
 21
2457.94594335271
 31
0.0
  0
LINE
  5
1C6
330
1F
100
AcDbEntity
  8
0-C_ハッチ
  6
Continuous
 62
   120
370
     5
100
AcDbLine
 10
-2192.081519010637
 20
2396.882083215232
 30
0.0
 11
-2131.017658873157
 21
2457.945943352709
 31
0.0
  0
LINE
  5
1C7
330
1F
100
AcDbEntity
  8
0-C_ハッチ
  6
Continuous
 62
   120
370
     5
100
AcDbLine
 10
-2192.081519010637
 20
2456.279052834934
 30
0.0
 11
-2190.414628492856
 21
2457.945943352715
 31
0.0
  0
LINE
  5
1C8
330
1F
100
AcDbEntity
  8
0-C_ハッチ
  6
Continuous
 62
   120
370
     5
100
AcDbLine
 10
-2192.08151901064
 20
2278.088143975938
 30
0.0
 11
-2021.152686131001
 21
2449.016976855573
 31
0.0
  0
LINE
  5
1C9
330
1F
100
AcDbEntity
  8
0-C_ハッチ
  6
Continuous
 62
   120
370
     5
100
AcDbLine
 10
2049.487079098569
 20
1905.946794545705
 30
0.0
 11
2031.918456245378
 21
1923.515417398893
 31
0.0
  0
LINE
  5
1CA
330
1F
100
AcDbEntity
  8
0-C_ハッチ
  6
Continuous
 62
   120
370
     5
100
AcDbLine
 10
2108.884048718224
 20
1905.946794545695
 30
0.0
 11
2031.918456245365
 21
1982.912387018551
 31
0.0
  0
LINE
  5
1CB
330
1F
100
AcDbEntity
  8
0-C_ハッチ
  6
Continuous
 62
   120
370
     5
100
AcDbLine
 10
2168.281018337926
 20
1905.946794545692
 30
0.0
 11
2031.918456245371
 21
2042.309356638249
 31
0.0
  0
LINE
  5
1CC
330
1F
100
AcDbEntity
  8
0-C_ハッチ
  6
Continuous
 62
   120
370
     5
100
AcDbLine
 10
2211.918456245371
 20
1921.7063262579
 30
0.0
 11
2031.918456245371
 21
2101.706326257896
 31
0.0
  0
LINE
  5
1CD
330
1F
100
AcDbEntity
  8
0-C_ハッチ
  6
Continuous
 62
   120
370
     5
100
AcDbLine
 10
2211.918456245372
 20
1981.103295877598
 30
0.0
 11
2031.918456245379
 21
2161.103295877592
 31
0.0
  0
LINE
  5
1CE
330
1F
100
AcDbEntity
  8
0-C_ハッチ
  6
Continuous
 62
   120
370
     5
100
AcDbLine
 10
2211.918456245377
 20
2040.500265497242
 30
0.0
 11
2031.918456245377
 21
2220.500265497241
 31
0.0
  0
LINE
  5
1CF
330
1F
100
AcDbEntity
  8
0-C_ハッチ
  6
Continuous
 62
   120
370
     5
100
AcDbLine
 10
2211.918456245364
 20
2099.8972351169
 30
0.0
 11
2031.918456245364
 21
2279.8972351169
 31
0.0
  0
LINE
  5
1D0
330
1F
100
AcDbEntity
  8
0-C_ハッチ
  6
Continuous
 62
   120
370
     5
100
AcDbLine
 10
2211.918456245372
 20
2159.294204736595
 30
0.0
 11
2031.918456245378
 21
2339.294204736589
 31
0.0
  0
LINE
  5
1D1
330
1F
100
AcDbEntity
  8
0-C_ハッチ
  6
Continuous
 62
   120
370
     5
100
AcDbLine
 10
2211.918456245368
 20
2218.691174356245
 30
0.0
 11
2031.918456245371
 21
2398.691174356243
 31
0.0
  0
LINE
  5
1D2
330
1F
100
AcDbEntity
  8
0-C_ハッチ
  6
Continuous
 62
   120
370
     5
100
AcDbLine
 10
2211.918456245372
 20
2337.485113595591
 30
0.0
 11
2091.457626488254
 21
2457.94594335271
 31
0.0
  0
LINE
  5
1D3
330
1F
100
AcDbEntity
  8
0-C_ハッチ
  6
Continuous
 62
   120
370
     5
100
AcDbLine
 10
2211.918456245378
 20
2396.882083215232
 30
0.0
 11
2150.854596107901
 21
2457.945943352709
 31
0.0
  0
LINE
  5
1D4
330
1F
100
AcDbEntity
  8
0-C_ハッチ
  6
Continuous
 62
   120
370
     5
100
AcDbLine
 10
2211.918456245378
 20
2456.279052834934
 30
0.0
 11
2210.251565727597
 21
2457.945943352715
 31
0.0
  0
LINE
  5
1D5
330
1F
100
AcDbEntity
  8
0-C_ハッチ
  6
Continuous
 62
   120
370
     5
100
AcDbLine
 10
2211.918456245379
 20
2278.088143975938
 30
0.0
 11
2040.989623365743
 21
2449.016976855573
 31
0.0
  0
LINE
  5
1D6
330
1F
100
AcDbEntity
  8
0-3_仕上げ
  6
Continuous
 62
    40
370
     5
100
AcDbLine
 10
2211.918456245382
 20
2073.94599778948
 30
0.0
 11
2782.782747092168
 21
2073.94599778948
 31
0.0
  0
LINE
  5
1D7
330
1F
100
AcDbEntity
  8
0-3_仕上げ
  6
Continuous
 62
    40
370
     5
100
AcDbLine
 10
2211.918456245382
 20
1998.94599778948
 30
0.0
 11
2782.782747092168
 21
1998.94599778948
 31
0.0
  0
LINE
  5
1D8
330
1F
100
AcDbEntity
  8
0-C_ハッチ
  6
JWW_DASHED1
 62
   120
370
     5
100
AcDbLine
 10
2211.918456245382
 20
2039.87495297544
 30
0.0
 11
2245.989501059442
 21
2073.9459977895
 31
0.0
  0
LINE
  5
1D9
330
1F
100
AcDbEntity
  8
0-3_仕上げ
  6
Continuous
 62
    40
370
     5
100
AcDbLine
 10
-2192.08151901064
 20
2073.94599778948
 30
0.0
 11
-2763.481101943726
 21
2073.94599778948
 31
0.0
  0
LINE
  5
1DA
330
1F
100
AcDbEntity
  8
0-C_ハッチ
  6
JWW_DASHED1
 62
   120
370
     5
100
AcDbLine
 10
-2241.357060984442
 20
1998.945750349655
 30
0.0
 11
-2192.08151901064
 21
2048.221292323457
 31
0.0
  0
LINE
  5
1DB
330
1F
100
AcDbEntity
  8
0-C_ハッチ
  6
JWW_DASHED1
 62
   120
370
     5
100
AcDbLine
 10
-2198.930654113246
 20
1998.945750349651
 30
0.0
 11
-2192.08151901064
 21
2005.794885452257
 31
0.0
  0
LINE
  5
1DC
330
1F
100
AcDbEntity
  8
0-3_仕上げ
  6
Continuous
 62
    40
370
     5
100
AcDbLine
 10
-2192.08151901064
 20
1998.94599778948
 30
0.0
 11
-2763.481101943726
 21
1998.94599778948
 31
0.0
  0
LINE
  5
1DD
330
1F
100
AcDbEntity
  8
0-0_補助線
  6
JWW_HOJO
 62
   120
370
     5
100
AcDbLine
 10
-2762.081172606889
 20
2961.94599778948
 30
0.0
 11
2781.918258293522
 21
2961.94599778948
 31
0.0
  0
LWPOLYLINE
  5
1DE
330
1F
100
AcDbEntity
  8
0-B_寸法
  6
Continuous
 62
     7
370
     5
100
AcDbPolyline
 90
        4
 70
     1
 43
3.0
 10
-2220.581519010633
 20
2961.945997789481
 42
0.4142135623731
 10
-2222.081519010633
 20
2963.44599778948
 42
0.4142135623731
 10
-2223.581519010633
 20
2961.945997789481
 42
0.4142135623731
 10
-2222.081519010633
 20
2960.445997789481
 42
0.4142135623731
  0
LINE
  5
1DF
330
1F
100
AcDbEntity
  8
0-B_寸法
  6
Continuous
 62
   120
370
     5
100
AcDbLine
 10
-2222.081519010633
 20
2961.945997789481
 30
0.0
 11
-2222.081519010633
 21
2601.94599778948
 31
0.0
  0
LWPOLYLINE
  5
1E0
330
1F
100
AcDbEntity
  8
0-B_寸法
  6
Continuous
 62
     7
370
     5
100
AcDbPolyline
 90
        4
 70
     1
 43
3.0
 10
2243.418456245372
 20
2961.945997789481
 42
0.4142135623731
 10
2241.918456245372
 20
2963.44599778948
 42
0.4142135623731
 10
2240.418456245372
 20
2961.945997789481
 42
0.4142135623731
 10
2241.918456245372
 20
2960.445997789481
 42
0.4142135623731
  0
LINE
  5
1E1
330
1F
100
AcDbEntity
  8
0-B_寸法
  6
Continuous
 62
   120
370
     5
100
AcDbLine
 10
2241.918456245372
 20
2961.945997789481
 30
0.0
 11
2241.918456245372
 21
2601.94599778948
 31
0.0
  0
LINE
  5
1E2
330
1F
100
AcDbEntity
  8
0-B_寸法
  6
Continuous
 62
   120
370
     5
100
AcDbLine
 10
-2222.081519010633
 20
2961.945997789481
 30
0.0
 11
2241.918456245372
 21
2961.945997789481
 31
0.0
  0
LWPOLYLINE
  5
1E3
330
1F
100
AcDbEntity
  8
0-B_寸法
  6
Continuous
 62
     7
370
     5
100
AcDbPolyline
 90
        4
 70
     1
 43
3.0
 10
-1555.879467847125
 20
1905.946794545709
 42
0.4142135623731
 10
-1557.379467847125
 20
1907.446794545709
 42
0.4142135623731
 10
-1558.879467847125
 20
1905.946794545709
 42
0.4142135623731
 10
-1557.379467847125
 20
1904.446794545709
 42
0.4142135623731
  0
LINE
  5
1E4
330
1F
100
AcDbEntity
  8
0-B_寸法
  6
Continuous
 62
   120
370
     5
100
AcDbLine
 10
-1676.155036628797
 20
1905.946794545709
 30
0.0
 11
-1557.379467847125
 21
1905.946794545709
 31
0.0
  0
LWPOLYLINE
  5
1E5
330
1F
100
AcDbEntity
  8
0-B_寸法
  6
Continuous
 62
     7
370
     5
100
AcDbPolyline
 90
        4
 70
     1
 43
3.0
 10
-1555.879467847125
 20
2457.945943352718
 42
0.4142135623731
 10
-1557.379467847125
 20
2459.445943352718
 42
0.4142135623731
 10
-1558.879467847125
 20
2457.945943352718
 42
0.4142135623731
 10
-1557.379467847125
 20
2456.445943352718
 42
0.4142135623731
  0
LINE
  5
1E6
330
1F
100
AcDbEntity
  8
0-B_寸法
  6
Continuous
 62
   120
370
     5
100
AcDbLine
 10
-1676.155036628797
 20
2457.945943352718
 30
0.0
 11
-1557.379467847125
 21
2457.945943352718
 31
0.0
  0
LINE
  5
1E7
330
1F
100
AcDbEntity
  8
0-B_寸法
  6
Continuous
 62
   120
370
     5
100
AcDbLine
 10
-1557.379467847125
 20
1905.946794545709
 30
0.0
 11
-1557.379467847125
 21
2457.945943352718
 31
0.0
  0
ARC
  5
1E8
330
1F
100
AcDbEntity
  8
0-4_枠
  6
Continuous
 62
    92
370
     5
100
AcDbCircle
 10
-2030.081652628146
 20
2439.946180894949
 30
0.0
 40
17.99999878213213
100
AcDbArc
 50
0.0
 51
90.0
  0
LINE
  5
1E9
330
1F
100
AcDbEntity
  8
0-4_枠
  6
Continuous
 62
    92
370
     5
100
AcDbLine
 10
-2012.08151901064
 20
1923.946794545709
 30
0.0
 11
-2012.08151901064
 21
2439.946180894949
 31
0.0
  0
ARC
  5
1EA
330
1F
100
AcDbEntity
  8
0-4_枠
  6
Continuous
 62
    92
370
     5
100
AcDbCircle
 10
-2030.081519010641
 20
1923.946794545709
 30
0.0
 40
18.0
100
AcDbArc
 50
270.0
 51
0.0
  0
LINE
  5
1EB
330
1F
100
AcDbEntity
  8
0-4_枠
  6
Continuous
 62
    92
370
     5
100
AcDbLine
 10
-2030.081652628146
 20
2457.945943352718
 30
0.0
 11
-2192.08151901064
 21
2457.945943352718
 31
0.0
  0
LINE
  5
1EC
330
1F
100
AcDbEntity
  8
0-4_枠
  6
Continuous
 62
    92
370
     5
100
AcDbLine
 10
-2030.081519010641
 20
1905.946794545709
 30
0.0
 11
-2192.08151901064
 21
1905.946794545709
 31
0.0
  0
LINE
  5
1ED
330
1F
100
AcDbEntity
  8
0-4_枠
  6
Continuous
 62
    92
370
     5
100
AcDbLine
 10
-2192.08151901064
 20
2457.945943352718
 30
0.0
 11
-2192.08151901064
 21
1905.946794545709
 31
0.0
  0
ARC
  5
1EE
330
1F
100
AcDbEntity
  8
0-4_枠
  6
Continuous
 62
    92
370
     5
100
AcDbCircle
 10
2049.918589862886
 20
2439.946180894949
 30
0.0
 40
17.99999878213213
100
AcDbArc
 50
90.0
 51
180.0
  0
LINE
  5
1EF
330
1F
100
AcDbEntity
  8
0-4_枠
  6
Continuous
 62
    92
370
     5
100
AcDbLine
 10
2031.918456245382
 20
1923.946794545709
 30
0.0
 11
2031.918456245382
 21
2439.946180894949
 31
0.0
  0
ARC
  5
1F0
330
1F
100
AcDbEntity
  8
0-4_枠
  6
Continuous
 62
    92
370
     5
100
AcDbCircle
 10
2049.918456245382
 20
1923.946794545709
 30
0.0
 40
18.0
100
AcDbArc
 50
180.0
 51
270.0
  0
LINE
  5
1F1
330
1F
100
AcDbEntity
  8
0-4_枠
  6
Continuous
 62
    92
370
     5
100
AcDbLine
 10
2049.918589862886
 20
2457.945943352718
 30
0.0
 11
2211.918456245382
 21
2457.945943352718
 31
0.0
  0
LINE
  5
1F2
330
1F
100
AcDbEntity
  8
0-4_枠
  6
Continuous
 62
    92
370
     5
100
AcDbLine
 10
2049.918456245382
 20
1905.946794545709
 30
0.0
 11
2211.918456245382
 21
1905.946794545709
 31
0.0
  0
LINE
  5
1F3
330
1F
100
AcDbEntity
  8
0-4_枠
  6
Continuous
 62
    92
370
     5
100
AcDbLine
 10
2211.918456245382
 20
2457.945943352718
 30
0.0
 11
2211.918456245382
 21
1905.946794545709
 31
0.0
  0
LINE
  5
1F4
330
1F
100
AcDbEntity
  8
0-7_金物
  6
Continuous
 62
     7
370
     5
100
AcDbLine
 10
-2192.08151901064
 20
2235.946032121755
 30
0.0
 11
-2198.081587675181
 21
2235.946032121755
 31
0.0
  0
LINE
  5
1F5
330
1F
100
AcDbEntity
  8
0-7_金物
  6
Continuous
 62
     7
370
     5
100
AcDbLine
 10
-2198.081587675181
 20
2127.945963457205
 30
0.0
 11
-2192.08151901064
 21
2127.945963457205
 31
0.0
  0
LINE
  5
1F6
330
1F
100
AcDbEntity
  8
0-7_金物
  6
Continuous
 62
     7
370
     5
100
AcDbLine
 10
-2198.081587675181
 20
2121.945797517874
 30
0.0
 11
-2198.081587675181
 21
2241.94545419512
 31
0.0
  0
LINE
  5
1F7
330
1F
100
AcDbEntity
  8
0-7_金物
  6
Continuous
 62
     7
370
     5
100
AcDbLine
 10
-2210.081181409924
 20
2241.94545419512
 30
0.0
 11
-2198.081587675181
 21
2241.94545419512
 31
0.0
  0
LINE
  5
1F8
330
1F
100
AcDbEntity
  8
0-7_金物
  6
Continuous
 62
     7
370
     5
100
AcDbLine
 10
-2210.081181409924
 20
2121.945797517874
 30
0.0
 11
-2198.081587675181
 21
2121.945797517874
 31
0.0
  0
LINE
  5
1F9
330
1F
100
AcDbEntity
  8
0-7_金物
  6
Continuous
 62
     7
370
     5
100
AcDbLine
 10
-2222.081519010633
 20
2091.945694521047
 30
0.0
 11
-2222.081519010633
 21
2271.945557191944
 31
0.0
  0
LINE
  5
1FA
330
1F
100
AcDbEntity
  8
0-7_金物
  6
Continuous
 62
     7
370
     5
100
AcDbLine
 10
-2222.081519010633
 20
2091.945694521047
 30
0.0
 11
-2210.081181409924
 21
2091.945694521047
 31
0.0
  0
LINE
  5
1FB
330
1F
100
AcDbEntity
  8
0-7_金物
  6
Continuous
 62
     7
370
     5
100
AcDbLine
 10
-2222.081519010633
 20
2271.945557191944
 30
0.0
 11
-2210.081181409924
 21
2271.945557191944
 31
0.0
  0
LINE
  5
1FC
330
1F
100
AcDbEntity
  8
0-7_金物
  6
Continuous
 62
     7
370
     5
100
AcDbLine
 10
-2210.081181409924
 20
2091.945694521047
 30
0.0
 11
-2210.081181409924
 21
2271.945557191944
 31
0.0
  0
LINE
  5
1FD
330
1F
100
AcDbEntity
  8
0-7_金物
  6
Continuous
 62
     7
370
     5
100
AcDbLine
 10
2211.918456245382
 20
2235.946032121755
 30
0.0
 11
2217.918524909923
 21
2235.946032121755
 31
0.0
  0
LINE
  5
1FE
330
1F
100
AcDbEntity
  8
0-7_金物
  6
Continuous
 62
     7
370
     5
100
AcDbLine
 10
2217.918524909923
 20
2127.945963457205
 30
0.0
 11
2211.918456245382
 21
2127.945963457205
 31
0.0
  0
LINE
  5
1FF
330
1F
100
AcDbEntity
  8
0-7_金物
  6
Continuous
 62
     7
370
     5
100
AcDbLine
 10
2217.918524909923
 20
2121.945797517874
 30
0.0
 11
2217.918524909923
 21
2241.94545419512
 31
0.0
  0
LINE
  5
200
330
1F
100
AcDbEntity
  8
0-7_金物
  6
Continuous
 62
     7
370
     5
100
AcDbLine
 10
2229.918118644664
 20
2241.94545419512
 30
0.0
 11
2217.918524909923
 21
2241.94545419512
 31
0.0
  0
LINE
  5
201
330
1F
100
AcDbEntity
  8
0-7_金物
  6
Continuous
 62
     7
370
     5
100
AcDbLine
 10
2229.918118644664
 20
2121.945797517874
 30
0.0
 11
2217.918524909923
 21
2121.945797517874
 31
0.0
  0
LINE
  5
202
330
1F
100
AcDbEntity
  8
0-7_金物
  6
Continuous
 62
     7
370
     5
100
AcDbLine
 10
2241.918456245372
 20
2091.945694521047
 30
0.0
 11
2241.918456245372
 21
2271.945557191944
 31
0.0
  0
LINE
  5
203
330
1F
100
AcDbEntity
  8
0-7_金物
  6
Continuous
 62
     7
370
     5
100
AcDbLine
 10
2241.918456245372
 20
2091.945694521047
 30
0.0
 11
2229.918118644664
 21
2091.945694521047
 31
0.0
  0
LINE
  5
204
330
1F
100
AcDbEntity
  8
0-7_金物
  6
Continuous
 62
     7
370
     5
100
AcDbLine
 10
2241.918456245372
 20
2271.945557191944
 30
0.0
 11
2229.918118644664
 21
2271.945557191944
 31
0.0
  0
LINE
  5
205
330
1F
100
AcDbEntity
  8
0-7_金物
  6
Continuous
 62
     7
370
     5
100
AcDbLine
 10
2229.918118644664
 20
2091.945694521047
 30
0.0
 11
2229.918118644664
 21
2271.945557191944
 31
0.0
  0
LINE
  5
206
330
1F
100
AcDbEntity
  8
0-0_補助線
  6
JWW_HOJO
 62
   120
370
     5
100
AcDbLine
 10
-2762.081172606889
 20
2781.94599778948
 30
0.0
 11
-2762.081172606889
 21
1086.94599778948
 31
0.0
  0
LINE
  5
207
330
1F
100
AcDbEntity
  8
0-0_補助線
  6
JWW_HOJO
 62
   120
370
     5
100
AcDbLine
 10
2781.918258293522
 20
2781.94599778948
 30
0.0
 11
2781.918258293522
 21
1086.94599778948
 31
0.0
  0
LINE
  5
208
330
1F
100
AcDbEntity
  8
0-0_補助線
  6
JWW_HOJO
 62
   120
370
     5
100
AcDbLine
 10
-2762.081172606889
 20
1626.945997789481
 30
0.0
 11
2781.918258293522
 21
1626.945997789481
 31
0.0
  0
LINE
  5
209
330
1F
100
AcDbEntity
  8
0-0_補助線
  6
JWW_HOJO
 62
   120
370
     5
100
AcDbLine
 10
-2762.081172606889
 20
1086.94599778948
 30
0.0
 11
2781.918258293522
 21
1086.94599778948
 31
0.0
  0
LINE
  5
20A
330
1F
100
AcDbEntity
  8
0-0_補助線
  6
JWW_HOJO
 62
   120
370
     5
100
AcDbLine
 10
-2762.081172606889
 20
1266.94599778948
 30
0.0
 11
2781.918258293522
 21
1266.94599778948
 31
0.0
  0
LINE
  5
20B
330
1F
100
AcDbEntity
  8
0-0_補助線
  6
JWW_HOJO
 62
   120
370
     5
100
AcDbLine
 10
-2762.081172606889
 20
1446.94599778948
 30
0.0
 11
2781.918258293522
 21
1446.94599778948
 31
0.0
  0
MTEXT
  5
20C
330
1F
100
AcDbEntity
  8
0-B_寸法
  6
Continuous
 62
     7
370
   211
100
AcDbMText
 10
-380.0815066386468
 20
2962.665997789481
 30
0.0
 40
91.43999999999997
 41
780.0
 46
0.0
 71
     7
 72
     1
  1
{\fＭＳ ゴシック|b0|i0|c128|p49;ＲＯＷ＝1,209}
 73
     1
 44
1.0
  0
MTEXT
  5
20D
330
1F
100
AcDbEntity
  8
0-B_寸法
  6
Continuous
 62
     7
370
   211
100
AcDbMText
 10
-504.5807952688764
 20
2782.66599778948
 30
0.0
 40
91.43999999999998
 41
1020.0
 46
0.0
 71
     7
 72
     1
  1
{\fＭＳ ゴシック|b0|i0|c128|p49;有効開口寸法＝881}
 73
     1
 44
1.0
  0
LINE
  5
20E
330
1F
100
AcDbEntity
  8
0-0_補助線
  6
JWW_HOJO
 62
     7
370
     5
100
AcDbLine
 10
-1982.082063390251
 20
906.9459977894797
 30
0.0
 11
-1982.082063390251
 21
2961.94599778948
 31
0.0
  0
LINE
  5
20F
330
1F
100
AcDbEntity
  8
0-0_補助線
  6
JWW_HOJO
 62
     7
370
     5
100
AcDbLine
 10
2001.919149076885
 20
906.9459977894797
 30
0.0
 11
2001.919149076885
 21
2961.94599778948
 31
0.0
  0
ARC
  5
210
330
1F
100
AcDbEntity
  8
0-6_扉
  6
JWW_DASHED2
 62
    40
370
     5
100
AcDbCircle
 10
-1305.930116127745
 20
2347.165932019539
 30
0.0
 40
18.0
100
AcDbArc
 50
355.653979278361
 51
85.65397927836072
  0
LINE
  5
211
330
1F
100
AcDbEntity
  8
0-6_扉
  6
JWW_DASHED2
 62
    40
370
     5
100
AcDbLine
 10
-1430.203780426405
 20
2374.662411099301
 30
0.0
 11
-1304.566082342553
 21
2365.114174602947
 31
0.0
  0
ARC
  5
212
330
1F
100
AcDbEntity
  8
0-6_扉
  6
JWW_DASHED2
 62
    40
370
     5
100
AcDbCircle
 10
-1431.567814211598
 20
2356.714168515893
 30
0.0
 40
18.0
100
AcDbArc
 50
85.6539792783607
 51
175.6539792783611
  0
ARC
  5
213
330
1F
100
AcDbEntity
  8
0-6_扉
  6
JWW_DASHED2
 62
    40
370
     5
100
AcDbCircle
 10
-1756.84675601739
 20
2358.078202301085
 30
0.0
 40
18.0
100
AcDbArc
 50
4.346020721639738
 51
94.3460207216407
  0
LINE
  5
214
330
1F
100
AcDbEntity
  8
0-6_扉
  6
JWW_DASHED2
 62
    40
370
     5
100
AcDbLine
 10
-1883.848487886442
 20
2366.478208388135
 30
0.0
 11
-1758.210789802586
 21
2376.026444884493
 31
0.0
  0
ARC
  5
215
330
1F
100
AcDbEntity
  8
0-6_扉
  6
JWW_DASHED2
 62
    40
370
     5
100
AcDbCircle
 10
-1882.484454101249
 20
2348.529965804728
 30
0.0
 40
18.0
100
AcDbArc
 50
94.34602072164084
 51
184.3460207216404
  0
LINE
  5
216
330
1F
100
AcDbEntity
  8
0-6_扉
  6
JWW_DASHED2
 62
    40
370
     5
100
AcDbLine
 10
-1287.981873544336
 20
2345.801898234346
 30
0.0
 11
-1321.410061247554
 21
1905.94679454571
 31
0.0
  0
LINE
  5
217
330
1F
100
AcDbEntity
  8
0-6_扉
  6
JWW_DASHED2
 62
    40
370
     5
100
AcDbLine
 10
-1900.432696684655
 20
2347.165932019535
 30
0.0
 11
-1866.900844895184
 21
1905.94679454571
 31
0.0
  0
LINE
  5
218
330
1F
100
AcDbEntity
  8
0-6_扉
  6
JWW_DASHED2
 62
    40
370
     5
100
AcDbLine
 10
-1449.516056795003
 20
2358.078202301087
 30
0.0
 11
-1483.877221274443
 21
1905.94679454571
 31
0.0
  0
LINE
  5
219
330
1F
100
AcDbEntity
  8
0-6_扉
  6
JWW_DASHED2
 62
    40
370
     5
100
AcDbLine
 10
-1738.898513433985
 20
2359.442236086279
 30
0.0
 11
-1704.433684868291
 21
1905.94679454571
 31
0.0
  0
LWPOLYLINE
  5
21A
330
1F
100
AcDbEntity
  8
0-B_寸法
  6
Continuous
 62
     7
370
     5
100
AcDbPolyline
 90
        4
 70
     1
 43
3.0
 10
-1286.481873544337
 20
2781.94599778948
 42
0.4142135623731
 10
-1287.981873544336
 20
2783.44599778948
 42
0.4142135623731
 10
-1289.481873544336
 20
2781.94599778948
 42
0.4142135623731
 10
-1287.981873544336
 20
2780.44599778948
 42
0.4142135623731
  0
LINE
  5
21B
330
1F
100
AcDbEntity
  8
0-B_寸法
  6
Continuous
 62
   120
370
     5
100
AcDbLine
 10
-1287.981873544336
 20
2781.94599778948
 30
0.0
 11
-1287.981873544336
 21
2601.94599778948
 31
0.0
  0
LINE
  5
21C
330
1F
100
AcDbEntity
  8
0-1_通り芯
  6
JWW_CENTER1
 62
   120
370
     5
100
AcDbLine
 10
-1287.981873544336
 20
2601.94599778948
 30
0.0
 11
-1287.981873544336
 21
2348.529965804734
 31
0.0
  0
LINE
  5
21D
330
1F
100
AcDbEntity
  8
0-0_補助線
  6
JWW_HOJO
 62
     7
370
     5
100
AcDbLine
 10
9.918542843316231
 20
906.9459977894797
 30
0.0
 11
9.918542843316231
 21
2961.94599778948
 31
0.0
  0
LINE
  5
21E
330
1F
100
AcDbEntity
  8
0-6_扉
  6
Continuous
 62
   200
370
     5
100
AcDbLine
 10
-983.0817973894403
 20
2262.94729437415
 30
0.0
 11
-518.0816087150756
 21
2262.94729437415
 31
0.0
  0
LINE
  5
21F
330
1F
100
AcDbEntity
  8
0-6_扉
  6
Continuous
 62
   200
370
     5
100
AcDbLine
 10
-983.0817973894403
 20
2100.945997789479
 30
0.0
 11
-518.0816087150756
 21
2100.945997789479
 31
0.0
  0
LINE
  5
220
330
1F
100
AcDbEntity
  8
0-6_扉
  6
Continuous
 62
   200
370
     5
100
AcDbLine
 10
-1454.08191183186
 20
2262.94729437415
 30
0.0
 11
-989.0817231574948
 21
2262.94729437415
 31
0.0
  0
LINE
  5
221
330
1F
100
AcDbEntity
  8
0-6_扉
  6
Continuous
 62
   200
370
     5
100
AcDbLine
 10
-1454.08191183186
 20
2100.945997789479
 30
0.0
 11
-989.0817231574948
 21
2100.945997789479
 31
0.0
  0
LINE
  5
222
330
1F
100
AcDbEntity
  8
0-6_扉
  6
Continuous
 62
   200
370
     5
100
AcDbLine
 10
-458.0816087150757
 20
2262.94729437415
 30
0.0
 11
3.91854284331572
 21
2262.94729437415
 31
0.0
  0
LINE
  5
223
330
1F
100
AcDbEntity
  8
0-6_扉
  6
Continuous
 62
   200
370
     5
100
AcDbLine
 10
-458.0816087150757
 20
2100.945997789479
 30
0.0
 11
3.91854284331572
 21
2100.945997789479
 31
0.0
  0
MTEXT
  5
224
330
1F
100
AcDbEntity
  8
0-B_寸法
  6
Continuous
 62
     7
370
     5
100
AcDbMText
 10
-1987.002000788938
 20
2131.829482386355
 30
0.0
 40
91.43999999999988
 41
179.9999999999998
 46
0.0
 71
     7
 72
     1
  1
{\fＭＳ ゴシック|b0|i0|c128|p49;2.5}
 73
     1
 44
1.0
  0
MTEXT
  5
225
330
1F
100
AcDbEntity
  8
0-B_寸法
  6
Continuous
 62
     7
370
     5
100
AcDbMText
 10
-1572.380630814291
 20
2107.875614365155
 30
0.0
 40
91.44
 41
120.0
 46
0.0
 71
     7
 72
     1
  1
{\fＭＳ ゴシック|b0|i0|c128|p49;92}
 11
6.123031769111886E-17
 21
1.0
 31
0.0
 73
     1
 44
1.0
  0
MTEXT
  5
226
330
1F
100
AcDbEntity
  8
0-B_寸法
  6
Continuous
 62
     7
370
     0
100
AcDbMText
 10
-1332.705509255192
 20
2105.415225777233
 30
0.0
 40
91.44
 41
120.0
 46
0.0
 71
     7
 72
     1
  1
{\fＭＳ ゴシック|b0|i0|c128|p49;27}
 11
6.123031769111886E-17
 21
1.0
 31
0.0
 73
     1
 44
1.0
  0
MTEXT
  5
227
330
1F
100
AcDbEntity
  8
0-B_寸法
  6
Continuous
 62
     7
370
     0
100
AcDbMText
 10
-1170.413564253688
 20
2045.415225777233
 30
0.0
 40
91.44
 41
240.0
 46
0.0
 71
     7
 72
     1
  1
{\fＭＳ ゴシック|b0|i0|c128|p49;(24)}
 11
6.123031769111886E-17
 21
1.0
 31
0.0
 73
     1
 44
1.0
  0
MTEXT
  5
228
330
1F
100
AcDbEntity
  8
0-B_寸法
  6
Continuous
 62
     7
370
   211
100
AcDbMText
 10
-1823.081546858122
 20
1627.665997789481
 30
0.0
 40
91.43999999999997
 41
660.0
 46
0.0
 71
     7
 72
     1
  1
{\fＭＳ ゴシック|b0|i0|c128|p49;ＤＷ＝282.5}
 73
     1
 44
1.0
  0
MTEXT
  5
229
330
1F
100
AcDbEntity
  8
0-B_寸法
  6
Continuous
 62
     7
370
   211
100
AcDbMText
 10
-819.5816272730627
 20
1627.665997789481
 30
0.0
 40
91.43999999999997
 41
660.0
 46
0.0
 71
     7
 72
     1
  1
{\fＭＳ ゴシック|b0|i0|c128|p49;ＤＷ＝282.5}
 73
     1
 44
1.0
  0
MTEXT
  5
22A
330
1F
100
AcDbEntity
  8
0-B_寸法
  6
Continuous
 62
     7
370
   211
100
AcDbMText
 10
179.4187129596943
 20
1627.665997789481
 30
0.0
 40
91.43999999999997
 41
660.0
 46
0.0
 71
     7
 72
     1
  1
{\fＭＳ ゴシック|b0|i0|c128|p49;ＤＷ＝282.5}
 73
     1
 44
1.0
  0
MTEXT
  5
22B
330
1F
100
AcDbEntity
  8
0-B_寸法
  6
Continuous
 62
     7
370
   211
100
AcDbMText
 10
1182.918657288737
 20
1627.665997789481
 30
0.0
 40
91.43999999999997
 41
660.0
 46
0.0
 71
     7
 72
     1
  1
{\fＭＳ ゴシック|b0|i0|c128|p49;ＤＷ＝282.5}
 73
     1
 44
1.0
  0
MTEXT
  5
22C
330
1F
100
AcDbEntity
  8
0-B_寸法
  6
Continuous
 62
     7
370
   211
100
AcDbMText
 10
-1446.581413857717
 20
1447.66599778948
 30
0.0
 40
91.43999999999998
 41
900.0
 46
0.0
 71
     7
 72
     1
  1
{\fＭＳ ゴシック|b0|i0|c128|p49;折戸：ＤＷ＝566}
 73
     1
 44
1.0
  0
MTEXT
  5
22D
330
1F
100
AcDbEntity
  8
0-B_寸法
  6
Continuous
 62
     7
370
   211
100
AcDbMText
 10
-71.01600352549042
 20
1447.66599778948
 30
0.0
 40
91.44
 41
60.0
 46
0.0
 71
     7
 72
     1
  1
{\fＭＳ ゴシック|b0|i0|c128|p49;2}
 73
     1
 44
1.0
  0
MTEXT
  5
22E
330
1F
100
AcDbEntity
  8
0-B_寸法
  6
Continuous
 62
     7
370
   211
100
AcDbMText
 10
566.4185242883303
 20
1447.66599778948
 30
0.0
 40
91.43999999999998
 41
900.0
 46
0.0
 71
     7
 72
     1
  1
{\fＭＳ ゴシック|b0|i0|c128|p49;折戸：ＤＷ＝566}
 73
     1
 44
1.0
  0
MTEXT
  5
22F
330
1F
100
AcDbEntity
  8
0-B_寸法
  6
Continuous
 62
     7
370
   211
100
AcDbMText
 10
-2162.081519010633
 20
1267.66599778948
 30
0.0
 40
91.44
 41
120.0
 46
0.0
 71
     7
 72
     1
  1
{\fＭＳ ゴシック|b0|i0|c128|p49;30}
 73
     1
 44
1.0
  0
MTEXT
  5
230
330
1F
100
AcDbEntity
  8
0-B_寸法
  6
Continuous
 62
     7
370
   211
100
AcDbMText
 10
-320.081457156688
 20
1267.66599778948
 30
0.0
 40
91.44000000000011
 41
660.0000000000009
 46
0.0
 71
     7
 72
     1
  1
{\fＭＳ ゴシック|b0|i0|c128|p49;枠内＝1,139}
 73
     1
 44
1.0
  0
MTEXT
  5
231
330
1F
100
AcDbEntity
  8
0-B_寸法
  6
Continuous
 62
     7
370
   211
100
AcDbMText
 10
2061.918456245367
 20
1267.66599778948
 30
0.0
 40
91.44
 41
120.0
 46
0.0
 71
     7
 72
     1
  1
{\fＭＳ ゴシック|b0|i0|c128|p49;30}
 73
     1
 44
1.0
  0
MTEXT
  5
232
330
1F
100
AcDbEntity
  8
0-B_寸法
  6
Continuous
 62
     7
370
   211
100
AcDbMText
 10
-2172.901138441
 20
1087.66599778948
 30
0.0
 40
91.44
 41
60.0
 46
0.0
 71
     7
 72
     1
  1
{\fＭＳ ゴシック|b0|i0|c128|p49;5}
 73
     1
 44
1.0
  0
MTEXT
  5
233
330
1F
100
AcDbEntity
  8
0-B_寸法
  6
Continuous
 62
     7
370
   211
100
AcDbMText
 10
-320.0814571566804
 20
1087.66599778948
 30
0.0
 40
91.43999999999997
 41
660.0
 46
0.0
 71
     7
 72
     1
  1
{\fＭＳ ゴシック|b0|i0|c128|p49;枠外＝1,199}
 73
     1
 44
1.0
  0
MTEXT
  5
234
330
1F
100
AcDbEntity
  8
0-B_寸法
  6
Continuous
 62
     7
370
   211
100
AcDbMText
 10
2137.88903552209
 20
1087.66599778948
 30
0.0
 40
91.44
 41
60.0
 46
0.0
 71
     7
 72
     1
  1
{\fＭＳ ゴシック|b0|i0|c128|p49;5}
 73
     1
 44
1.0
  0
MTEXT
  5
235
330
1F
100
AcDbEntity
  8
0-A_文字
  6
Continuous
 62
     7
370
     5
100
AcDbMText
 10
-2762.080430287422
 20
3142.213602323596
 30
0.0
 40
100.584
 41
660.0
 46
0.0
 71
     7
 72
     1
  1
{\fＭＳ ゴシック|b0|i0|c128|p49;■横断面図}
 73
     1
 44
1.0
  0
MTEXT
  5
236
330
1F
100
AcDbEntity
  8
0-0_補助線
  6
Continuous
 62
     7
370
     0
100
AcDbMText
 10
-930.5051265244962
 20
-456.9441956596513
 30
0.0
 40
91.44000000000004
 41
1440.000000000001
 46
0.0
 71
     7
 72
     1
  1
{\fＭＳ ゴシック|b0|i0|c128|p49;竪枠下端形状図（S＝1/3）}
 73
     1
 44
1.0
  0
LINE
  5
237
330
1F
100
AcDbEntity
  8
0-C_ハッチ
  6
JWW_HOJO
 62
   120
370
     5
100
AcDbLine
 10
3213.32564676453
 20
-691.0652998520915
 30
0.0
 11
5307.33940572453
 21
-691.0652998520915
 31
0.0
  0
LINE
  5
238
330
1F
100
AcDbEntity
  8
0-C_ハッチ
  6
JWW_HOJO
 62
   120
370
     5
100
AcDbLine
 10
3213.32564676453
 20
-568.6652998520937
 30
0.0
 11
5307.33940572453
 21
-568.6652998520937
 31
0.0
  0
LINE
  5
239
330
1F
100
AcDbEntity
  8
0-C_ハッチ
  6
Continuous
 62
    92
370
     5
100
AcDbLine
 10
5519.929554310806
 20
-486.9025726973952
 30
0.0
 11
782.3295543107939
 21
-486.9025726973952
 31
0.0
  0
LINE
  5
23A
330
1F
100
AcDbEntity
  8
0-C_ハッチ
  6
JWW_HOJO
 62
   120
370
     5
100
AcDbLine
 10
3213.32564676453
 20
-935.8652998520906
 30
0.0
 11
5307.33940572453
 21
-935.8652998520906
 31
0.0
  0
LINE
  5
23B
330
1F
100
AcDbEntity
  8
0-C_ハッチ
  6
JWW_HOJO
 62
   120
370
     5
100
AcDbLine
 10
3213.32564676453
 20
-813.4652998520905
 30
0.0
 11
5307.33940572453
 21
-813.4652998520905
 31
0.0
  0
LINE
  5
23C
330
1F
100
AcDbEntity
  8
0-C_ハッチ
  6
JWW_HOJO
 62
   120
370
     5
100
AcDbLine
 10
5307.33940572453
 20
-568.6652998520937
 30
0.0
 11
5307.33940572453
 21
-935.8652998520906
 31
0.0
  0
LINE
  5
23D
330
1F
100
AcDbEntity
  8
0-C_ハッチ
  6
Continuous
 62
   120
370
     5
100
AcDbLine
 10
4366.90118070237
 20
-1849.716329938754
 30
0.0
 11
4732.838711630005
 21
-1849.716329938754
 31
0.0
  0
LINE
  5
23E
330
1F
100
AcDbEntity
  8
0-C_ハッチ
  6
Continuous
 62
   120
370
     5
100
AcDbLine
 10
4571.19203086077
 20
-2069.193711636176
 30
0.0
 11
4630.066776183746
 21
-2069.193711636176
 31
0.0
  0
LINE
  5
23F
330
1F
100
AcDbEntity
  8
0-C_ハッチ
  6
Continuous
 62
   120
370
     5
100
AcDbLine
 10
4447.360491704193
 20
-1945.362172479602
 30
0.0
 11
4571.19203086077
 21
-2069.193711636176
 31
0.0
  0
MTEXT
  5
240
330
1F
100
AcDbEntity
  8
0-0_補助線
  6
Continuous
 62
     7
370
   211
100
AcDbMText
 10
-235.3876712507454
 20
-1241.600772007514
 30
0.0
 40
91.4399999999992
 41
119.9999999999989
 46
0.0
 71
     7
 72
     1
  1
{\fＭＳ ゴシック|b0|i0|c128|p49;92}
 73
     1
 44
1.0
  0
LINE
  5
241
330
1F
100
AcDbEntity
  8
0-C_ハッチ
  6
Continuous
 62
   120
370
     5
100
AcDbLine
 10
3867.961892968578
 20
-1983.927362252222
 30
0.0
 11
3986.539311227707
 21
-2095.529638260816
 31
0.0
  0
MTEXT
  5
242
330
1F
100
AcDbEntity
  8
0-C_ハッチ
  6
Continuous
 62
     7
370
     5
100
AcDbMText
 10
787.6483642469743
 20
-232.1497088238155
 30
0.0
 40
91.43999999999996
 41
2519.999999999999
 46
0.0
 71
     7
 72
     1
  1
{\fＭＳ ゴシック|b0|i0|c128|p49;■ガイドランナーの取り付け(ＭＵＫＵ固定枠)}
 73
     1
 44
1.0
  0
MTEXT
  5
243
330
1F
100
AcDbEntity
  8
0-C_ハッチ
  6
Continuous
 62
     7
370
     5
100
AcDbMText
 10
1486.729554310799
 20
-453.1825726973952
 30
0.0
 40
91.43999999999998
 41
960.0
 46
0.0
 71
     7
 72
     1
  1
{\fＭＳ ゴシック|b0|i0|c128|p49;下固定ストッパー}
 73
     1
 44
1.0
  0
LINE
  5
244
330
1F
100
AcDbEntity
  8
0-C_ハッチ
  6
Continuous
 62
    92
370
     5
100
AcDbLine
 10
3151.129554310799
 20
-3370.000017526299
 30
0.0
 11
3151.129554310799
 21
-270.9025726973951
 31
0.0
  0
LINE
  5
245
330
1F
100
AcDbEntity
  8
0-C_ハッチ
  6
Continuous
 62
    92
370
     5
100
AcDbLine
 10
782.3295543107939
 20
-270.9025726973951
 30
0.0
 11
5519.929554310806
 21
-270.9025726973951
 31
0.0
  0
LINE
  5
246
330
1F
100
AcDbEntity
  8
0-C_ハッチ
  6
Continuous
 62
    92
370
     5
100
AcDbLine
 10
5519.929554310806
 20
-3370.000017526299
 30
0.0
 11
5519.929554310806
 21
-270.9025726973951
 31
0.0
  0
LINE
  5
247
330
1F
100
AcDbEntity
  8
0-C_ハッチ
  6
Continuous
 62
    92
370
     5
100
AcDbLine
 10
782.3295543107939
 20
-3370.000017526299
 30
0.0
 11
782.3295543107939
 21
-270.9025726973951
 31
0.0
  0
MTEXT
  5
248
330
1F
100
AcDbEntity
  8
0-C_ハッチ
  6
Continuous
 62
     7
370
     5
100
AcDbMText
 10
3255.529554310806
 20
-453.1825726973973
 30
0.0
 40
91.43999999999991
 41
2159.999999999998
 46
0.0
 71
     7
 72
     1
  1
{\fＭＳ ゴシック|b0|i0|c128|p49;ストライク(可動側受け金具)の取り付け}
 73
     1
 44
1.0
  0
LINE
  5
249
330
1F
100
AcDbEntity
  8
0-C_ハッチ
  6
JWW_CENTER1
 62
   120
370
     5
100
AcDbLine
 10
3432.929020486216
 20
-2058.993538780592
 30
0.0
 11
5284.595192469618
 21
-1700.834228598043
 31
0.0
  0
LINE
  5
24A
330
1F
100
AcDbEntity
  8
0-C_ハッチ
  6
Continuous
 62
    40
370
     5
100
AcDbLine
 10
3529.863938628409
 20
-1867.521826513515
 30
0.0
 11
3529.863938628409
 21
-1283.019975899299
 31
0.0
  0
LINE
  5
24B
330
1F
100
AcDbEntity
  8
0-C_ハッチ
  6
Continuous
 62
    40
370
     5
100
AcDbLine
 10
3772.557133750498
 20
-1910.196203247951
 30
0.0
 11
3772.557133750498
 21
-1304.362413525612
 31
0.0
  0
LINE
  5
24C
330
1F
100
AcDbEntity
  8
0-C_ハッチ
  6
Continuous
 62
    40
370
     5
100
AcDbLine
 10
3772.557133750498
 20
-1910.196203247951
 30
0.0
 11
3529.863938628409
 21
-1867.521826513515
 31
0.0
  0
LINE
  5
24D
330
1F
100
AcDbEntity
  8
0-C_ハッチ
  6
Continuous
 62
    40
370
     5
100
AcDbLine
 10
4111.523840368879
 20
-1850.778789705781
 30
0.0
 11
3772.557133750498
 21
-1910.196203247951
 31
0.0
  0
MTEXT
  5
24E
330
1F
100
AcDbEntity
  8
0-C_ハッチ
  6
Continuous
 62
     7
370
     5
100
AcDbMText
 10
895.7829407327536
 20
-687.8612998520922
 30
0.0
 40
64.00799999999994
 41
1973.999999999998
 46
0.0
 71
     7
 72
     1
  1
{\fＭＳ ゴシック|b0|i0|c128|p49;竪枠の後ろ面から6.5㎜内側に取り付けてください。}
 73
     1
 44
1.0
  0
MTEXT
  5
24F
330
1F
100
AcDbEntity
  8
0-C_ハッチ
  6
Continuous
 62
     7
370
     5
100
AcDbMText
 10
3213.325646764529
 20
-687.8612998520922
 30
0.0
 40
64.008
 41
2100.0
 46
0.0
 71
     7
 72
     1
  1
{\fＭＳ ゴシック|b0|i0|c128|p49;扉を吊った後ストライクを取り付ける際は、下図のよう}
 73
     1
 44
1.0
  0
MTEXT
  5
250
330
1F
100
AcDbEntity
  8
0-C_ハッチ
  6
Continuous
 62
     7
370
     5
100
AcDbMText
 10
895.7829407327519
 20
-810.261299852093
 30
0.0
 40
64.00800000000004
 41
1806.000000000001
 46
0.0
 71
     7
 72
     1
  1
{\fＭＳ ゴシック|b0|i0|c128|p49;ストッパー側面は竪枠から6.5㎜離して下さい。}
 73
     1
 44
1.0
  0
MTEXT
  5
251
330
1F
100
AcDbEntity
  8
0-C_ハッチ
  6
Continuous
 62
     7
370
     5
100
AcDbMText
 10
3213.325646764529
 20
-810.2612998520897
 30
0.0
 40
64.00799999999997
 41
2100.0
 46
0.0
 71
     7
 72
     1
  1
{\fＭＳ ゴシック|b0|i0|c128|p49;に下用ガイド軸とストライクの位置決め溝をそろえて、}
 73
     1
 44
1.0
  0
ARC
  5
252
330
1F
100
AcDbEntity
  8
0-C_ハッチ
  6
Continuous
 62
     7
370
     5
100
AcDbCircle
 10
4514.817493999387
 20
-1720.113960054648
 30
0.0
 40
30.0
100
AcDbArc
 50
247.1651394203828
 51
5.793612550752308
  0
LINE
  5
253
330
1F
100
AcDbEntity
  8
0-C_ハッチ
  6
Continuous
 62
     7
370
     5
100
AcDbLine
 10
4544.664253057587
 20
-1717.085598497329
 30
0.0
 11
4537.631397510979
 21
-1647.771568115644
 31
0.0
  0
ARC
  5
254
330
1F
100
AcDbEntity
  8
0-C_ハッチ
  6
Continuous
 62
     7
370
     5
100
AcDbCircle
 10
4507.596430729188
 20
-1416.037467868452
 30
0.0
 40
180.0
100
AcDbArc
 50
0.0
 51
48.66116247688833
  0
LINE
  5
255
330
1F
100
AcDbEntity
  8
0-C_ハッチ
  6
Continuous
 62
     7
370
     5
100
AcDbLine
 10
4687.596430729188
 20
-1727.435898911108
 30
0.0
 11
4687.596430729188
 21
-1416.037467868452
 31
0.0
  0
LINE
  5
256
330
1F
100
AcDbEntity
  8
0-C_ハッチ
  6
Continuous
 62
     7
370
     5
100
AcDbLine
 10
4422.449792293442
 20
-1836.834657848201
 30
0.0
 11
4417.01339711225
 21
-1875.457337794305
 31
0.0
  0
LINE
  5
257
330
1F
100
AcDbEntity
  8
0-C_ハッチ
  6
Continuous
 62
     7
370
     5
100
AcDbLine
 10
4374.932449118443
 20
-1898.547572391404
 30
0.0
 11
4372.680254503964
 21
-1898.944416378946
 31
0.0
  0
LINE
  5
258
330
1F
100
AcDbEntity
  8
0-C_ハッチ
  6
Continuous
 62
     7
370
     5
100
AcDbLine
 10
4372.680254503964
 20
-1898.944416378946
 30
0.0
 11
4370.563490774115
 21
-1899.317638700564
 31
0.0
  0
LINE
  5
259
330
1F
100
AcDbEntity
  8
0-C_ハッチ
  6
Continuous
 62
     7
370
     5
100
AcDbLine
 10
4370.563490774115
 20
-1899.317638700564
 30
0.0
 11
4368.58242039186
 21
-1899.666714430346
 31
0.0
  0
LINE
  5
25A
330
1F
100
AcDbEntity
  8
0-C_ハッチ
  6
Continuous
 62
     7
370
     5
100
AcDbLine
 10
4368.58242039186
 20
-1899.666714430346
 30
0.0
 11
4366.736780894243
 21
-1899.992168494203
 31
0.0
  0
LINE
  5
25B
330
1F
100
AcDbEntity
  8
0-C_ハッチ
  6
Continuous
 62
     7
370
     5
100
AcDbLine
 10
4366.736780894243
 20
-1899.992168494203
 30
0.0
 11
4365.026834744219
 21
-1900.293475966226
 31
0.0
  0
LINE
  5
25C
330
1F
100
AcDbEntity
  8
0-C_ハッチ
  6
Continuous
 62
     7
370
     5
100
AcDbLine
 10
4365.026834744219
 20
-1900.293475966226
 30
0.0
 11
4363.467804793157
 21
-1900.491897959997
 31
0.0
  0
LINE
  5
25D
330
1F
100
AcDbEntity
  8
0-C_ハッチ
  6
Continuous
 62
     7
370
     5
100
AcDbLine
 10
4363.467804793157
 20
-1900.491897959997
 30
0.0
 11
4361.587782648473
 21
-1900.708692360599
 31
0.0
  0
LINE
  5
25E
330
1F
100
AcDbEntity
  8
0-C_ハッチ
  6
Continuous
 62
     7
370
     5
100
AcDbLine
 10
4361.587782648473
 20
-1900.708692360599
 30
0.0
 11
4359.386768310161
 21
-1900.94438409394
 31
0.0
  0
LINE
  5
25F
330
1F
100
AcDbEntity
  8
0-C_ハッチ
  6
Continuous
 62
     7
370
     5
100
AcDbLine
 10
4359.386768310161
 20
-1900.94438409394
 30
0.0
 11
4356.864761778221
 21
-1901.198973160023
 31
0.0
  0
LINE
  5
260
330
1F
100
AcDbEntity
  8
0-C_ハッチ
  6
Continuous
 62
     7
370
     5
100
AcDbLine
 10
4356.864761778221
 20
-1901.198973160023
 30
0.0
 11
4354.022025515607
 21
-1901.472984484755
 31
0.0
  0
LINE
  5
261
330
1F
100
AcDbEntity
  8
0-C_ハッチ
  6
Continuous
 62
     7
370
     5
100
AcDbLine
 10
4354.022025515607
 20
-1901.472984484755
 30
0.0
 11
4350.858034596412
 21
-1901.765368216317
 31
0.0
  0
LINE
  5
262
330
1F
100
AcDbEntity
  8
0-C_ハッチ
  6
Continuous
 62
     7
370
     5
100
AcDbLine
 10
4350.858034596412
 20
-1901.765368216317
 30
0.0
 11
4347.373313946548
 21
-1902.076649280618
 31
0.0
  0
LINE
  5
263
330
1F
100
AcDbEntity
  8
0-C_ハッチ
  6
Continuous
 62
     7
370
     5
100
AcDbLine
 10
4347.373313946548
 20
-1902.076649280618
 30
0.0
 11
4343.567601103052
 21
-1902.406827677661
 31
0.0
  0
LINE
  5
264
330
1F
100
AcDbEntity
  8
0-C_ハッチ
  6
Continuous
 62
     7
370
     5
100
AcDbLine
 10
4343.567601103052
 20
-1902.406827677661
 30
0.0
 11
4339.537482433271
 21
-1902.731756815609
 31
0.0
  0
LINE
  5
265
330
1F
100
AcDbEntity
  8
0-C_ハッチ
  6
Continuous
 62
     7
370
     5
100
AcDbLine
 10
4339.537482433271
 20
-1902.731756815609
 30
0.0
 11
4335.379281841582
 21
-1903.026240250809
 31
0.0
  0
LINE
  5
266
330
1F
100
AcDbEntity
  8
0-C_ハッチ
  6
Continuous
 62
     7
370
     5
100
AcDbLine
 10
4335.379281841582
 20
-1903.026240250809
 30
0.0
 11
4331.093524253899
 21
-1903.29080290917
 31
0.0
  0
LINE
  5
267
330
1F
100
AcDbEntity
  8
0-C_ハッチ
  6
Continuous
 62
     7
370
     5
100
AcDbLine
 10
4331.093524253899
 20
-1903.29080290917
 30
0.0
 11
4326.679947207269
 21
-1903.524919864784
 31
0.0
  0
LINE
  5
268
330
1F
100
AcDbEntity
  8
0-C_ハッチ
  6
Continuous
 62
     7
370
     5
100
AcDbLine
 10
4326.679947207269
 20
-1903.524919864784
 30
0.0
 11
4322.138550701686
 21
-1903.729116043559
 31
0.0
  0
LINE
  5
269
330
1F
100
AcDbEntity
  8
0-C_ハッチ
  6
Continuous
 62
     7
370
     5
100
AcDbLine
 10
4322.138550701686
 20
-1903.729116043559
 30
0.0
 11
4317.469334737149
 21
-1903.903391445496
 31
0.0
  0
LINE
  5
26A
330
1F
100
AcDbEntity
  8
0-C_ハッチ
  6
Continuous
 62
     7
370
     5
100
AcDbLine
 10
4317.469334737149
 20
-1903.903391445496
 30
0.0
 11
4312.672299313664
 21
-1904.047221144685
 31
0.0
  0
LINE
  5
26B
330
1F
100
AcDbEntity
  8
0-C_ハッチ
  6
Continuous
 62
     7
370
     5
100
AcDbLine
 10
4312.672299313664
 20
-1904.047221144685
 30
0.0
 11
4307.747444431227
 21
-1904.161654992944
 31
0.0
  0
LINE
  5
26C
330
1F
100
AcDbEntity
  8
0-C_ハッチ
  6
Continuous
 62
     7
370
     5
100
AcDbLine
 10
4307.747444431227
 20
-1904.161654992944
 30
0.0
 11
4302.800280197641
 21
-1904.208898324794
 31
0.0
  0
LINE
  5
26D
330
1F
100
AcDbEntity
  8
0-C_ハッチ
  6
Continuous
 62
     7
370
     5
100
AcDbLine
 10
4302.800280197641
 20
-1904.208898324794
 30
0.0
 11
4297.93684164661
 21
-1904.152731252483
 31
0.0
  0
LINE
  5
26E
330
1F
100
AcDbEntity
  8
0-C_ハッチ
  6
Continuous
 62
     7
370
     5
100
AcDbLine
 10
4297.93684164661
 20
-1904.152731252483
 30
0.0
 11
4293.157128778138
 21
-1903.99420362783
 31
0.0
  0
LINE
  5
26F
330
1F
100
AcDbEntity
  8
0-C_ハッチ
  6
Continuous
 62
     7
370
     5
100
AcDbLine
 10
4293.157128778138
 20
-1903.99420362783
 30
0.0
 11
4288.460616666311
 21
-1903.731740673106
 31
0.0
  0
LINE
  5
270
330
1F
100
AcDbEntity
  8
0-C_ハッチ
  6
Continuous
 62
     7
370
     5
100
AcDbLine
 10
4288.460616666311
 20
-1903.731740673106
 30
0.0
 11
4283.847830237043
 21
-1903.366392240131
 31
0.0
  0
LINE
  5
271
330
1F
100
AcDbEntity
  8
0-C_ハッチ
  6
Continuous
 62
     7
370
     5
100
AcDbLine
 10
4283.847830237043
 20
-1903.366392240131
 30
0.0
 11
4279.318769490327
 21
-1902.898158328904
 31
0.0
  0
LINE
  5
272
330
1F
100
AcDbEntity
  8
0-C_ハッチ
  6
Continuous
 62
     7
370
     5
100
AcDbLine
 10
4279.318769490327
 20
-1902.898158328904
 30
0.0
 11
4274.872909500263
 21
-1902.326514013516
 31
0.0
  0
LINE
  5
273
330
1F
100
AcDbEntity
  8
0-C_ハッチ
  6
Continuous
 62
     7
370
     5
100
AcDbLine
 10
4274.872909500263
 20
-1902.326514013516
 30
0.0
 11
4270.510775192758
 21
-1901.651984219876
 31
0.0
  0
LINE
  5
274
330
1F
100
AcDbEntity
  8
0-C_ハッチ
  6
Continuous
 62
     7
370
     5
100
AcDbLine
 10
4270.510775192758
 20
-1901.651984219876
 30
0.0
 11
4266.427639006123
 21
-1900.91656302074
 31
0.0
  0
LINE
  5
275
330
1F
100
AcDbEntity
  8
0-C_ハッチ
  6
Continuous
 62
     7
370
     5
100
AcDbLine
 10
4266.427639006123
 20
-1900.91656302074
 30
0.0
 11
4262.818773378671
 21
-1900.162769414774
 31
0.0
  0
LINE
  5
276
330
1F
100
AcDbEntity
  8
0-C_ハッチ
  6
Continuous
 62
     7
370
     5
100
AcDbLine
 10
4262.818773378671
 20
-1900.162769414774
 30
0.0
 11
4259.683915847453
 21
-1899.391128327886
 31
0.0
  0
LINE
  5
277
330
1F
100
AcDbEntity
  8
0-C_ハッチ
  6
Continuous
 62
     7
370
     5
100
AcDbLine
 10
4259.683915847453
 20
-1899.391128327886
 30
0.0
 11
4257.023591338372
 21
-1898.601639760077
 31
0.0
  0
LINE
  5
278
330
1F
100
AcDbEntity
  8
0-C_ハッチ
  6
Continuous
 62
     7
370
     5
100
AcDbLine
 10
4257.023591338372
 20
-1898.601639760077
 30
0.0
 11
4254.837537388479
 21
-1897.793253859528
 31
0.0
  0
LINE
  5
279
330
1F
100
AcDbEntity
  8
0-C_ハッチ
  6
Continuous
 62
     7
370
     5
100
AcDbLine
 10
4254.837537388479
 20
-1897.793253859528
 30
0.0
 11
4253.125491534815
 21
-1896.967545403967
 31
0.0
  0
LINE
  5
27A
330
1F
100
AcDbEntity
  8
0-C_ハッチ
  6
Continuous
 62
     7
370
     5
100
AcDbLine
 10
4253.125491534815
 20
-1896.967545403967
 30
0.0
 11
4251.887978703293
 21
-1896.122939615666
 31
0.0
  0
LINE
  5
27B
330
1F
100
AcDbEntity
  8
0-C_ハッチ
  6
Continuous
 62
     7
370
     5
100
AcDbLine
 10
4251.887978703293
 20
-1896.122939615666
 30
0.0
 11
4251.124473968
 21
-1895.260486346444
 31
0.0
  0
LINE
  5
27C
330
1F
100
AcDbEntity
  8
0-C_ハッチ
  6
Continuous
 62
     7
370
     5
100
AcDbLine
 10
4251.124473968
 20
-1895.260486346444
 30
0.0
 11
4250.735503869102
 21
-1894.402757410407
 31
0.0
  0
LINE
  5
27D
330
1F
100
AcDbEntity
  8
0-C_ハッチ
  6
Continuous
 62
     7
370
     5
100
AcDbLine
 10
4250.735503869102
 20
-1894.402757410407
 30
0.0
 11
4250.62107002084
 21
-1893.571799695753
 31
0.0
  0
LINE
  5
27E
330
1F
100
AcDbEntity
  8
0-C_ハッチ
  6
Continuous
 62
     7
370
     5
100
AcDbLine
 10
4250.62107002084
 20
-1893.571799695753
 30
0.0
 11
4250.780909960266
 21
-1892.768138128388
 31
0.0
  0
LINE
  5
27F
330
1F
100
AcDbEntity
  8
0-C_ハッチ
  6
Continuous
 62
     7
370
     5
100
AcDbLine
 10
4250.780909960266
 20
-1892.768138128388
 30
0.0
 11
4251.215286150335
 21
-1891.990722856496
 31
0.0
  0
LINE
  5
280
330
1F
100
AcDbEntity
  8
0-C_ハッチ
  6
Continuous
 62
     7
370
     5
100
AcDbLine
 10
4251.215286150335
 20
-1891.990722856496
 30
0.0
 11
4251.92393612809
 21
-1891.241128657806
 31
0.0
  0
LINE
  5
281
330
1F
100
AcDbEntity
  8
0-C_ハッチ
  6
Continuous
 62
     7
370
     5
100
AcDbLine
 10
4251.92393612809
 20
-1891.241128657806
 30
0.0
 11
4252.90738481944
 21
-1890.518305680497
 31
0.0
  0
LINE
  5
282
330
1F
100
AcDbEntity
  8
0-C_ハッチ
  6
Continuous
 62
     7
370
     5
100
AcDbLine
 10
4252.90738481944
 20
-1890.518305680497
 30
0.0
 11
4254.164844835522
 21
-1889.822253924569
 31
0.0
  0
LINE
  5
283
330
1F
100
AcDbEntity
  8
0-C_ハッチ
  6
Continuous
 62
     7
370
     5
100
AcDbLine
 10
4254.164844835522
 20
-1889.822253924569
 30
0.0
 11
4255.6971035652
 21
-1889.153498315933
 31
0.0
  0
LINE
  5
284
330
1F
100
AcDbEntity
  8
0-C_ハッチ
  6
Continuous
 62
     7
370
     5
100
AcDbLine
 10
4255.6971035652
 20
-1889.153498315933
 30
0.0
 11
4257.334609939716
 21
-1888.523587224597
 31
0.0
  0
LINE
  5
285
330
1F
100
AcDbEntity
  8
0-C_ハッチ
  6
Continuous
 62
     7
370
     5
100
AcDbLine
 10
4257.334609939716
 20
-1888.523587224597
 30
0.0
 11
4258.908600279197
 21
-1887.944593946476
 31
0.0
  0
LINE
  5
286
330
1F
100
AcDbEntity
  8
0-C_ハッチ
  6
Continuous
 62
     7
370
     5
100
AcDbLine
 10
4258.908600279197
 20
-1887.944593946476
 30
0.0
 11
4260.418812120678
 21
-1887.416518481572
 31
0.0
  0
LINE
  5
287
330
1F
100
AcDbEntity
  8
0-C_ハッチ
  6
Continuous
 62
     7
370
     5
100
AcDbLine
 10
4260.418812120678
 20
-1887.416518481572
 30
0.0
 11
4261.865507927115
 21
-1886.939360829884
 31
0.0
  0
LINE
  5
288
330
1F
100
AcDbEntity
  8
0-C_ハッチ
  6
Continuous
 62
     7
370
     5
100
AcDbLine
 10
4261.865507927115
 20
-1886.939360829884
 30
0.0
 11
4263.248687698505
 21
-1886.513120991413
 31
0.0
  0
LINE
  5
289
330
1F
100
AcDbEntity
  8
0-C_ハッチ
  6
Continuous
 62
     7
370
     5
100
AcDbLine
 10
4263.248687698505
 20
-1886.513120991413
 30
0.0
 11
4264.568351434861
 21
-1886.137798966158
 31
0.0
  0
LINE
  5
28A
330
1F
100
AcDbEntity
  8
0-C_ハッチ
  6
Continuous
 62
     7
370
     5
100
AcDbLine
 10
4264.568351434861
 20
-1886.137798966158
 30
0.0
 11
4265.82423667321
 21
-1885.81286982821
 31
0.0
  0
LINE
  5
28B
330
1F
100
AcDbEntity
  8
0-C_ハッチ
  6
Continuous
 62
     7
370
     5
100
AcDbLine
 10
4265.82423667321
 20
-1885.81286982821
 30
0.0
 11
4267.016605876522
 21
-1885.539383429388
 31
0.0
  0
LINE
  5
28C
330
1F
100
AcDbEntity
  8
0-C_ハッチ
  6
Continuous
 62
     7
370
     5
100
AcDbLine
 10
4267.016605876522
 20
-1885.539383429388
 30
0.0
 11
4268.135222989553
 21
-1885.301067066499
 31
0.0
  0
LINE
  5
28D
330
1F
100
AcDbEntity
  8
0-C_ハッチ
  6
Continuous
 62
     7
370
     5
100
AcDbLine
 10
4268.135222989553
 20
-1885.301067066499
 30
0.0
 11
4269.169589494117
 21
-1885.082697888169
 31
0.0
  0
LINE
  5
28E
330
1F
100
AcDbEntity
  8
0-C_ハッチ
  6
Continuous
 62
     7
370
     5
100
AcDbLine
 10
4269.169589494117
 20
-1885.082697888169
 30
0.0
 11
4270.120230316128
 21
-1884.884275894398
 31
0.0
  0
LINE
  5
28F
330
1F
100
AcDbEntity
  8
0-C_ハッチ
  6
Continuous
 62
     7
370
     5
100
AcDbLine
 10
4270.120230316128
 20
-1884.884275894398
 30
0.0
 11
4270.986358066718
 21
-1884.705801085186
 31
0.0
  0
LINE
  5
290
330
1F
100
AcDbEntity
  8
0-C_ハッチ
  6
Continuous
 62
     7
370
     5
100
AcDbLine
 10
4270.986358066718
 20
-1884.705801085186
 30
0.0
 11
4271.768760134748
 21
-1884.547273460532
 31
0.0
  0
LINE
  5
291
330
1F
100
AcDbEntity
  8
0-C_ハッチ
  6
Continuous
 62
     7
370
     5
100
AcDbLine
 10
4271.768760134748
 20
-1884.547273460532
 30
0.0
 11
4272.466911594313
 21
-1884.408693020438
 31
0.0
  0
LINE
  5
292
330
1F
100
AcDbEntity
  8
0-C_ハッチ
  6
Continuous
 62
     7
370
     5
100
AcDbLine
 10
4272.466911594313
 20
-1884.408693020438
 30
0.0
 11
4273.081074908366
 21
-1884.290059764903
 31
0.0
  0
LINE
  5
293
330
1F
100
AcDbEntity
  8
0-C_ハッチ
  6
Continuous
 62
     7
370
     5
100
AcDbLine
 10
4273.081074908366
 20
-1884.290059764903
 30
0.0
 11
4273.610987613954
 21
-1884.191373693927
 31
0.0
  0
LINE
  5
294
330
1F
100
AcDbEntity
  8
0-C_ハッチ
  6
Continuous
 62
     7
370
     5
100
AcDbLine
 10
4273.610987613954
 20
-1884.191373693927
 30
0.0
 11
4276.826421272273
 21
-1883.624453711724
 31
0.0
  0
LINE
  5
295
330
1F
100
AcDbEntity
  8
0-C_ハッチ
  6
Continuous
 62
     7
370
     5
100
AcDbLine
 10
4276.826421272273
 20
-1883.624453711724
 30
0.0
 11
4280.343949791481
 21
-1883.003991286757
 31
0.0
  0
LINE
  5
296
330
1F
100
AcDbEntity
  8
0-C_ハッチ
  6
Continuous
 62
     7
370
     5
100
AcDbLine
 10
4280.343949791481
 20
-1883.003991286757
 30
0.0
 11
4284.164360560439
 21
-1882.331036270846
 31
0.0
  0
LINE
  5
297
330
1F
100
AcDbEntity
  8
0-C_ハッチ
  6
Continuous
 62
     7
370
     5
100
AcDbLine
 10
4284.164360560439
 20
-1882.331036270846
 30
0.0
 11
4288.286866190285
 21
-1881.604013886261
 31
0.0
  0
LINE
  5
298
330
1F
100
AcDbEntity
  8
0-C_ハッチ
  6
Continuous
 62
     7
370
     5
100
AcDbLine
 10
4288.286866190285
 20
-1881.604013886261
 30
0.0
 11
4292.712254069881
 21
-1880.823973984822
 31
0.0
  0
LINE
  5
299
330
1F
100
AcDbEntity
  8
0-C_ハッチ
  6
Continuous
 62
     7
370
     5
100
AcDbLine
 10
4174.093351425388
 20
-1876.650967936159
 30
0.0
 11
4180.432746155387
 21
-1875.42476783712
 31
0.0
  0
LINE
  5
29A
330
1F
100
AcDbEntity
  8
0-C_ハッチ
  6
Continuous
 62
     7
370
     5
100
AcDbLine
 10
4386.556915318332
 20
-1913.838061524435
 30
0.0
 11
4393.316449091172
 21
-1912.68539756317
 31
0.0
  0
LINE
  5
29B
330
1F
100
AcDbEntity
  8
0-C_ハッチ
  6
Continuous
 62
     7
370
     5
100
AcDbLine
 10
4386.556915318332
 20
-1913.838061524435
 30
0.0
 11
4439.145804266206
 21
-1923.042594759101
 31
0.0
  0
LINE
  5
29C
330
1F
100
AcDbEntity
  8
0-C_ハッチ
  6
Continuous
 62
     7
370
     5
100
AcDbLine
 10
4393.316449091172
 20
-1912.68539756317
 30
0.0
 11
4445.905338039049
 21
-1921.889930797837
 31
0.0
  0
LINE
  5
29D
330
1F
100
AcDbEntity
  8
0-C_ハッチ
  6
Continuous
 62
     7
370
     5
100
AcDbLine
 10
4386.063460866986
 20
-1835.75285317415
 30
0.0
 11
4386.063460866986
 21
-1860.80884036347
 31
0.0
  0
ELLIPSE
  5
29E
330
1F
100
AcDbEntity
  8
0-C_ハッチ
  6
Continuous
 62
     7
370
     5
100
AcDbEllipse
 10
4349.165700438731
 20
-1860.80884036347
 30
0.0
 11
36.89776042825395
 21
0.0
 31
0.0
210
0.0
220
0.0
230
1.0
 40
0.5
 41
3.141592653589793
 42
6.283185307179586
  0
LINE
  5
29F
330
1F
100
AcDbEntity
  8
0-C_ハッチ
  6
Continuous
 62
     7
370
     5
100
AcDbLine
 10
4312.267940010478
 20
-1835.75285317415
 30
0.0
 11
4312.267940010478
 21
-1860.80884036347
 31
0.0
  0
LINE
  5
2A0
330
1F
100
AcDbEntity
  8
0-C_ハッチ
  6
Continuous
 62
     7
370
     5
100
AcDbLine
 10
4329.628456040631
 20
-1792.2275039142
 30
0.0
 11
4175.374253216334
 21
-1820.794496832237
 31
0.0
  0
LINE
  5
2A1
330
1F
100
AcDbEntity
  8
0-C_ハッチ
  6
Continuous
 62
     7
370
     5
100
AcDbLine
 10
4329.628456040631
 20
-1792.2275039142
 30
0.0
 11
4348.149154440709
 21
-1805.456686684093
 31
0.0
  0
LINE
  5
2A2
330
1F
100
AcDbEntity
  8
0-C_ハッチ
  6
Continuous
 62
     7
370
     5
100
AcDbLine
 10
4328.305380285871
 20
-1669.196419109739
 30
0.0
 11
4329.628456040631
 21
-1792.2275039142
 31
0.0
  0
LINE
  5
2A3
330
1F
100
AcDbEntity
  8
0-C_ハッチ
  6
Continuous
 62
     7
370
     5
100
AcDbLine
 10
4348.149154440709
 20
-1682.467071026479
 30
0.0
 11
4537.631397510979
 21
-1647.771568115644
 31
0.0
  0
LINE
  5
2A4
330
1F
100
AcDbEntity
  8
0-C_ハッチ
  6
Continuous
 62
     7
370
     5
100
AcDbLine
 10
4363.807169393616
 20
-1661.765567935602
 30
0.0
 11
4328.305380285871
 21
-1669.196419109739
 31
0.0
  0
LINE
  5
2A5
330
1F
100
AcDbEntity
  8
0-C_ハッチ
  6
Continuous
 62
     7
370
     5
100
AcDbLine
 10
4363.807169393616
 20
-1661.765567935602
 30
0.0
 11
4388.942721641594
 21
-1666.550792526124
 31
0.0
  0
LINE
  5
2A6
330
1F
100
AcDbEntity
  8
0-C_ハッチ
  6
Continuous
 62
     7
370
     5
100
AcDbLine
 10
4493.541033135813
 20
-1646.707018371284
 30
0.0
 11
4509.416104952274
 21
-1638.769088768621
 31
0.0
  0
LINE
  5
2A7
330
1F
100
AcDbEntity
  8
0-C_ハッチ
  6
Continuous
 62
     7
370
     5
100
AcDbLine
 10
4509.416104952274
 20
-1638.769088768621
 30
0.0
 11
4549.227535776583
 21
-1634.800648893199
 31
0.0
  0
LINE
  5
2A8
330
1F
100
AcDbEntity
  8
0-C_ハッチ
  6
Continuous
 62
     7
370
     5
100
AcDbLine
 10
4549.227535776583
 20
-1634.800648893199
 30
0.0
 11
4549.227535776583
 21
-1753.516504060125
 31
0.0
  0
LINE
  5
2A9
330
1F
100
AcDbEntity
  8
0-C_ハッチ
  6
Continuous
 62
     7
370
     5
100
AcDbLine
 10
4388.46293936036
 20
-1278.206405309666
 30
0.0
 11
4388.942721641594
 21
-1666.550792526124
 31
0.0
  0
LINE
  5
2AA
330
1F
100
AcDbEntity
  8
0-C_ハッチ
  6
Continuous
 62
     7
370
     5
100
AcDbLine
 10
4363.807169393616
 20
-1661.765567935602
 30
0.0
 11
4363.807169393616
 21
-1282.384260479341
 31
0.0
  0
LINE
  5
2AB
330
1F
100
AcDbEntity
  8
0-C_ハッチ
  6
Continuous
 62
     7
370
     5
100
AcDbLine
 10
4493.541033135813
 20
-1260.990053596965
 30
0.0
 11
4493.541033135813
 21
-1646.707018371284
 31
0.0
  0
LINE
  5
2AC
330
1F
100
AcDbEntity
  8
0-C_ハッチ
  6
Continuous
 62
     7
370
     5
100
AcDbLine
 10
4509.416104952274
 20
-1638.769088768621
 30
0.0
 11
4509.416104952274
 21
-1258.372120538339
 31
0.0
  0
ELLIPSE
  5
2AD
330
1F
100
AcDbEntity
  8
0-C_ハッチ
  6
Continuous
 62
     7
370
     5
100
AcDbEllipse
 10
4644.101464734598
 20
-1628.353622129414
 30
0.0
 11
2.171034762115338E-15
 21
35.45685934649716
 31
0.0
210
0.0
220
0.0
230
1.0
 40
0.8
 41
0.0
 42
6.283185307179586
  0
ELLIPSE
  5
2AE
330
1F
100
AcDbEntity
  8
0-C_ハッチ
  6
Continuous
 62
     7
370
     5
100
AcDbEllipse
 10
4644.101464734598
 20
-1628.353622129414
 30
0.0
 11
1.068889043675199E-15
 21
17.45685934649716
 31
0.0
210
0.0
220
0.0
230
1.0
 40
0.5937773382631759
 41
0.0
 42
6.283185307179586
  0
LINE
  5
2AF
330
1F
100
AcDbEntity
  8
0-C_ハッチ
  6
Continuous
 62
     7
370
     5
100
AcDbLine
 10
4616.780173662768
 20
-1657.091815567745
 30
0.0
 11
4636.199529938566
 21
-1662.406896253808
 31
0.0
  0
ELLIPSE
  5
2B0
330
1F
100
AcDbEntity
  8
0-C_ハッチ
  6
Continuous
 62
     7
370
     5
100
AcDbEllipse
 10
4621.261932172499
 20
-1622.080328156479
 30
0.0
 11
2.171034762115338E-15
 21
35.45685934649716
 31
0.0
210
0.0
220
0.0
230
1.0
 40
0.8
 41
5.997256757456505
 42
9.266112668701924
  0
ELLIPSE
  5
2B1
330
1F
100
AcDbEntity
  8
0-C_ハッチ
  6
Continuous
 62
     7
370
     5
100
AcDbEllipse
 10
4254.553926570159
 20
-1693.993458000024
 30
0.0
 11
2.171034762115338E-15
 21
35.45685934649716
 31
0.0
210
0.0
220
0.0
230
1.0
 40
0.8
 41
0.0
 42
6.283185307179586
  0
ELLIPSE
  5
2B2
330
1F
100
AcDbEntity
  8
0-C_ハッチ
  6
Continuous
 62
     7
370
     5
100
AcDbEllipse
 10
4254.553926570159
 20
-1693.993458000024
 30
0.0
 11
1.068889043675199E-15
 21
17.45685934649716
 31
0.0
210
0.0
220
0.0
230
1.0
 40
0.5937773382631759
 41
0.0
 42
6.283185307179586
  0
LINE
  5
2B3
330
1F
100
AcDbEntity
  8
0-C_ハッチ
  6
Continuous
 62
     7
370
     5
100
AcDbLine
 10
4227.232635498332
 20
-1722.731651438354
 30
0.0
 11
4246.651991774127
 21
-1728.046732124418
 31
0.0
  0
ELLIPSE
  5
2B4
330
1F
100
AcDbEntity
  8
0-C_ハッチ
  6
Continuous
 62
     7
370
     5
100
AcDbEllipse
 10
4231.714394008056
 20
-1687.720164027087
 30
0.0
 11
2.171034762115338E-15
 21
35.45685934649716
 31
0.0
210
0.0
220
0.0
230
1.0
 40
0.8
 41
5.997256757456505
 42
9.266112668701924
  0
LINE
  5
2B5
330
1F
100
AcDbEntity
  8
0-C_ハッチ
  6
Continuous
 62
     7
370
     5
100
AcDbLine
 10
4239.714835033418
 20
-1653.702847131433
 30
0.0
 11
4259.134191309214
 21
-1659.017927817497
 31
0.0
  0
LINE
  5
2B6
330
1F
100
AcDbEntity
  8
0-C_ハッチ
  6
Continuous
 62
     7
370
     5
100
AcDbLine
 10
4629.26237319786
 20
-1588.063011260824
 30
0.0
 11
4648.681729473653
 21
-1593.378091946887
 31
0.0
  0
LINE
  5
2B7
330
1F
100
AcDbEntity
  8
0-C_ハッチ
  6
Continuous
 62
     7
370
     5
100
AcDbLine
 10
4138.656814436324
 20
-1868.112805945354
 30
0.0
 11
4180.432746155387
 21
-1875.42476783712
 31
0.0
  0
LINE
  5
2B8
330
1F
100
AcDbEntity
  8
0-C_ハッチ
  6
Continuous
 62
     7
370
     5
100
AcDbLine
 10
4131.857829749514
 20
-1869.258564888162
 30
0.0
 11
4174.093351425388
 21
-1876.650967936159
 31
0.0
  0
LINE
  5
2B9
330
1F
100
AcDbEntity
  8
0-C_ハッチ
  6
Continuous
 62
     7
370
     5
100
AcDbLine
 10
4422.449792293442
 20
-1820.288261948837
 30
0.0
 11
4381.795068921644
 21
-1827.139360313715
 31
0.0
  0
LINE
  5
2BA
330
1F
100
AcDbEntity
  8
0-C_ハッチ
  6
Continuous
 62
     7
370
     5
100
AcDbLine
 10
4422.449792293442
 20
-1820.288261948837
 30
0.0
 11
4417.01339711225
 21
-1858.910941894941
 31
0.0
  0
LINE
  5
2BB
330
1F
100
AcDbEntity
  8
0-C_ハッチ
  6
Continuous
 62
     7
370
     5
100
AcDbLine
 10
4385.316831995612
 20
-1864.501414390418
 30
0.0
 11
4417.01339711225
 21
-1858.910941894941
 31
0.0
  0
LINE
  5
2BC
330
1F
100
AcDbEntity
  8
0-C_ハッチ
  6
Continuous
 62
     7
370
     5
100
AcDbLine
 10
4292.714058005244
 20
-1880.834201842088
 30
0.0
 11
4325.649337183189
 21
-1875.025251512687
 31
0.0
  0
LINE
  5
2BD
330
1F
100
AcDbEntity
  8
0-C_ハッチ
  6
Continuous
 62
     7
370
     5
100
AcDbLine
 10
4269.514134800626
 20
-1901.472477478297
 30
0.0
 11
4417.013397112011
 21
-1875.457337792951
 31
0.0
  0
LINE
  5
2BE
330
1F
100
AcDbEntity
  8
0-C_ハッチ
  6
Continuous
 62
     7
370
     5
100
AcDbLine
 10
4417.01339711225
 20
-1858.910941894941
 30
0.0
 11
4417.013397112011
 21
-1875.457337792951
 31
0.0
  0
LINE
  5
2BF
330
1F
100
AcDbEntity
  8
0-C_ハッチ
  6
Continuous
 62
     7
370
     5
100
AcDbLine
 10
4422.449792293442
 20
-1836.834657847221
 30
0.0
 11
4422.449792293442
 21
-1820.288261948837
 31
0.0
  0
LINE
  5
2C0
330
1F
100
AcDbEntity
  8
0-C_ハッチ
  6
Continuous
 62
     7
370
     5
100
AcDbLine
 10
4513.074576078168
 20
-1874.196784378049
 30
0.0
 11
4374.93370024676
 21
-1898.554667915973
 31
0.0
  0
ELLIPSE
  5
2C1
330
1F
100
AcDbEntity
  8
0-C_ハッチ
  6
Continuous
 62
     7
370
     5
100
AcDbEllipse
 10
4349.165700438731
 20
-1835.75285317415
 30
0.0
 11
18.52285489353675
 21
0.0
 31
0.0
210
0.0
220
0.0
230
1.0
 40
0.5
 41
3.141592653589793
 42
6.283185307179586
  0
ARC
  5
2C2
330
1F
100
AcDbEntity
  8
0-C_ハッチ
  6
Continuous
 62
     7
370
     5
100
AcDbCircle
 10
4249.877851018688
 20
-1772.719046218337
 30
0.0
 40
180.0
100
AcDbArc
 50
260.070167268476
 51
279.6772325660855
  0
LINE
  5
2C3
330
1F
100
AcDbEntity
  8
0-C_ハッチ
  6
Continuous
 62
     7
370
     5
100
AcDbLine
 10
4281.712567294948
 20
-1985.55825885949
 30
0.0
 11
4749.134300598877
 21
-1904.645316769366
 31
0.0
  0
LINE
  5
2C4
330
1F
100
AcDbEntity
  8
0-C_ハッチ
  6
Continuous
 62
     7
370
     5
100
AcDbLine
 10
4219.756739916107
 20
-1985.461940955411
 30
0.0
 11
3926.975638384456
 21
-1933.842015764918
 31
0.0
  0
ARC
  5
2C5
330
1F
100
AcDbEntity
  8
0-C_ハッチ
  6
Continuous
 62
     7
370
     5
100
AcDbCircle
 10
4251.010310042276
 20
-1808.195998500667
 30
0.0
 40
180.0
100
AcDbArc
 50
260.0010025806856
 51
279.8208509823177
  0
ELLIPSE
  5
2C6
330
1F
100
AcDbEntity
  8
0-C_ハッチ
  6
Continuous
 62
     7
370
     5
100
AcDbEllipse
 10
4514.05375795922
 20
-1892.756180531476
 30
0.0
 11
19.86135961083638
 21
0.0
 31
0.0
210
0.0
220
0.0
230
1.0
 40
0.5
 41
0.0
 42
6.283185307179586
  0
ELLIPSE
  5
2C7
330
1F
100
AcDbEntity
  8
0-C_ハッチ
  6
Continuous
 62
     7
370
     5
100
AcDbEllipse
 10
4514.813669954852
 20
-1898.328868499446
 30
0.0
 11
13.10465733292201
 21
0.0
 31
0.0
210
0.0
220
0.0
230
1.0
 40
0.4
 41
0.0
 42
6.283185307179586
  0
ELLIPSE
  5
2C8
330
1F
100
AcDbEntity
  8
0-C_ハッチ
  6
Continuous
 62
     7
370
     5
100
AcDbEllipse
 10
4191.447368563456
 20
-1908.5322701908
 30
0.0
 11
19.86135961083638
 21
0.0
 31
0.0
210
0.0
220
0.0
230
1.0
 40
0.5
 41
0.0
 42
6.283185307179586
  0
ELLIPSE
  5
2C9
330
1F
100
AcDbEntity
  8
0-C_ハッチ
  6
Continuous
 62
     7
370
     5
100
AcDbEllipse
 10
4192.207280559084
 20
-1914.10495815877
 30
0.0
 11
13.10465733292201
 21
0.0
 31
0.0
210
0.0
220
0.0
230
1.0
 40
0.4
 41
0.0
 42
6.283185307179586
  0
LINE
  5
2CA
330
1F
100
AcDbEntity
  8
0-C_ハッチ
  6
Continuous
 62
     7
370
     5
100
AcDbLine
 10
3944.553244299945
 20
-1902.005005434414
 30
0.0
 11
4218.838290465432
 21
-1950.022587301591
 31
0.0
  0
LINE
  5
2CB
330
1F
100
AcDbEntity
  8
0-C_ハッチ
  6
Continuous
 62
     7
370
     5
100
AcDbLine
 10
3944.557003871195
 20
-1900.822335970304
 30
0.0
 11
4312.267940010478
 21
-1838.856011164877
 31
0.0
  0
LINE
  5
2CC
330
1F
100
AcDbEntity
  8
0-C_ハッチ
  6
Continuous
 62
     7
370
     5
100
AcDbLine
 10
4330.642845545193
 20
-1835.75285317415
 30
0.0
 11
4330.642845545193
 21
-1826.242825109097
 31
0.0
  0
LINE
  5
2CD
330
1F
100
AcDbEntity
  8
0-C_ハッチ
  6
Continuous
 62
     7
370
     5
100
AcDbLine
 10
4367.688555332267
 20
-1835.75285317415
 30
0.0
 11
4367.688555332267
 21
-1819.710665880136
 31
0.0
  0
ELLIPSE
  5
2CE
330
1F
100
AcDbEntity
  8
0-C_ハッチ
  6
Continuous
 62
     7
370
     5
100
AcDbEllipse
 10
4349.165700438731
 20
-1835.75285317415
 30
0.0
 11
36.89776042825395
 21
0.0
 31
0.0
210
0.0
220
0.0
230
1.0
 40
0.5
 41
2.768968464067914
 42
7.32806629937406
  0
LINE
  5
2CF
330
1F
100
AcDbEntity
  8
0-C_ハッチ
  6
Continuous
 62
     7
370
     5
100
AcDbLine
 10
4445.905338039049
 20
-1921.889930797837
 30
0.0
 11
4445.905338039049
 21
-1957.135703372118
 31
0.0
  0
LINE
  5
2D0
330
1F
100
AcDbEntity
  8
0-C_ハッチ
  6
Continuous
 62
     7
370
     5
100
AcDbLine
 10
4439.145804266206
 20
-1923.042594759101
 30
0.0
 11
4439.145804266206
 21
-1958.305811062345
 31
0.0
  0
LINE
  5
2D1
330
1F
100
AcDbEntity
  8
0-C_ハッチ
  6
Continuous
 62
     7
370
     5
100
AcDbLine
 10
4111.523840368879
 20
-1850.778789705781
 30
0.0
 11
4157.566318636661
 21
-1856.761534955664
 31
0.0
  0
LINE
  5
2D2
330
1F
100
AcDbEntity
  8
0-C_ハッチ
  6
Continuous
 62
     7
370
     5
100
AcDbLine
 10
4175.374253216334
 20
-1466.206032772033
 30
0.0
 11
4175.374253216334
 21
-1838.788432082185
 31
0.0
  0
ARC
  5
2D3
330
1F
100
AcDbEntity
  8
0-C_ハッチ
  6
Continuous
 62
     7
370
     5
100
AcDbCircle
 10
4355.374253216334
 20
-1466.206032772033
 30
0.0
 40
180.0
100
AcDbArc
 50
99.36427710995552
 51
180.0
  0
LINE
  5
2D4
330
1F
100
AcDbEntity
  8
0-C_ハッチ
  6
Continuous
 62
     7
370
     5
100
AcDbLine
 10
4157.566404201281
 20
-1454.291966873423
 30
0.0
 11
4157.566404201281
 21
-1856.761370295754
 31
0.0
  0
ARC
  5
2D5
330
1F
100
AcDbEntity
  8
0-C_ハッチ
  6
Continuous
 62
     7
370
     5
100
AcDbCircle
 10
4337.566404201281
 20
-1454.291966873423
 30
0.0
 40
180.0
100
AcDbArc
 50
100.4830549659711
 51
180.0
  0
LINE
  5
2D6
330
1F
100
AcDbEntity
  8
0-C_ハッチ
  6
Continuous
 62
     7
370
     5
100
AcDbLine
 10
4110.954295757126
 20
-1429.692504206079
 30
0.0
 11
4110.954295757126
 21
-1850.704775152549
 31
0.0
  0
ARC
  5
2D7
330
1F
100
AcDbEntity
  8
0-C_ハッチ
  6
Continuous
 62
     7
370
     5
100
AcDbCircle
 10
4290.954295757126
 20
-1429.692504206079
 30
0.0
 40
180.0
100
AcDbArc
 50
99.74095296447314
 51
180.0
  0
LINE
  5
2D8
330
1F
100
AcDbEntity
  8
0-C_ハッチ
  6
Continuous
 62
     7
370
     5
100
AcDbLine
 10
4516.390854268304
 20
-1238.148092547352
 30
0.0
 11
4304.816354026047
 21
-1277.296390054342
 31
0.0
  0
LINE
  5
2D9
330
1F
100
AcDbEntity
  8
0-C_ハッチ
  6
Continuous
 62
     7
370
     5
100
AcDbLine
 10
4729.140904443538
 20
-1415.143669366434
 30
0.0
 11
4729.140904443538
 21
-1755.976854012383
 31
0.0
  0
LINE
  5
2DA
330
1F
100
AcDbEntity
  8
0-C_ハッチ
  6
Continuous
 62
     7
370
     5
100
AcDbLine
 10
4498.583005253251
 20
-1256.687139903943
 30
0.0
 11
4326.086305409623
 21
-1288.604748673998
 31
0.0
  0
LINE
  5
2DB
330
1F
100
AcDbEntity
  8
0-C_ハッチ
  6
Continuous
 62
     7
370
     5
100
AcDbLine
 10
4711.333055428492
 20
-1433.682716723024
 30
0.0
 11
4711.333055428492
 21
-1740.778465677442
 31
0.0
  0
ARC
  5
2DC
330
1F
100
AcDbEntity
  8
0-C_ハッチ
  6
Continuous
 62
     7
370
     5
100
AcDbCircle
 10
4531.333055428492
 20
-1433.682716723024
 30
0.0
 40
180.0
100
AcDbArc
 50
0.0
 51
100.4830549659711
  0
LINE
  5
2DD
330
1F
100
AcDbEntity
  8
0-C_ハッチ
  6
Continuous
 62
     7
370
     5
100
AcDbLine
 10
4260.499397017405
 20
-1252.287602518574
 30
0.0
 11
4417.623474046424
 21
-1225.314290000297
 31
0.0
  0
ARC
  5
2DE
330
1F
100
AcDbEntity
  8
0-C_ハッチ
  6
Continuous
 62
     7
370
     5
100
AcDbCircle
 10
4450.373524221665
 20
-1402.309866819379
 30
0.0
 40
180.0
100
AcDbArc
 50
82.78560205276084
 51
100.4830549659711
  0
LINE
  5
2DF
330
1F
100
AcDbEntity
  8
0-C_ハッチ
  6
Continuous
 62
     7
370
     5
100
AcDbLine
 10
4472.978381364077
 20
-1223.734895354812
 30
0.0
 11
4572.924103858497
 21
-1236.721811328838
 31
0.0
  0
ARC
  5
2E0
330
1F
100
AcDbEntity
  8
0-C_ハッチ
  6
Continuous
 62
     7
370
     5
100
AcDbCircle
 10
4549.140904443538
 20
-1415.143669366434
 30
0.0
 40
180.0
100
AcDbArc
 50
0.0
 51
82.48094193237357
  0
ARC
  5
2E1
330
1F
100
AcDbEntity
  8
0-C_ハッチ
  6
Continuous
 62
     7
370
     5
100
AcDbCircle
 10
4549.140904443538
 20
-1415.143669366434
 30
0.0
 40
180.0
100
AcDbArc
 50
82.48094193237357
 51
100.4830549659711
  0
ARC
  5
2E2
330
1F
100
AcDbEntity
  8
0-C_ハッチ
  6
Continuous
 62
     7
370
     5
100
AcDbCircle
 10
4329.958703190595
 20
-1374.03304805899
 30
0.0
 40
12.0
100
AcDbArc
 50
0.0
 51
139.3154869822215
  0
LINE
  5
2E3
330
1F
100
AcDbEntity
  8
0-C_ハッチ
  6
Continuous
 62
     7
370
     5
100
AcDbLine
 10
4341.958703190598
 20
-1565.263563663494
 30
0.0
 11
4341.958703190598
 21
-1374.03304805899
 31
0.0
  0
ARC
  5
2E4
330
1F
100
AcDbEntity
  8
0-C_ハッチ
  6
Continuous
 62
     7
370
     5
100
AcDbCircle
 10
4329.958703190595
 20
-1565.263563663494
 30
0.0
 40
12.0
100
AcDbArc
 50
226.7801567871272
 51
0.0
  0
LINE
  5
2E5
330
1F
100
AcDbEntity
  8
0-C_ハッチ
  6
Continuous
 62
     7
370
     5
100
AcDbLine
 10
4297.280947673597
 20
-1393.637305885872
 30
0.0
 11
4320.858976351357
 21
-1366.210326572752
 31
0.0
  0
LINE
  5
2E6
330
1F
100
AcDbEntity
  8
0-C_ハッチ
  6
Continuous
 62
     7
370
     5
100
AcDbLine
 10
4306.102272689608
 20
-1559.312301338742
 30
0.0
 11
4321.741108852961
 21
-1574.008341722544
 31
0.0
  0
ARC
  5
2E7
330
1F
100
AcDbEntity
  8
0-C_ハッチ
  6
Continuous
 62
     7
370
     5
100
AcDbCircle
 10
4388.278216065984
 20
-1471.864520748248
 30
0.0
 40
120.0
100
AcDbArc
 50
139.3154869822216
 51
226.7801567871272
  0
ARC
  5
2E8
330
1F
100
AcDbEntity
  8
0-C_ハッチ
  6
Continuous
 62
     7
370
     5
100
AcDbCircle
 10
4307.470057450348
 20
-1545.379386102705
 30
0.0
 40
12.0
100
AcDbArc
 50
249.9839863783417
 51
0.0
  0
LINE
  5
2E9
330
1F
100
AcDbEntity
  8
0-C_ハッチ
  6
Continuous
 62
     7
370
     5
100
AcDbLine
 10
4319.470057450347
 20
-1545.379386102705
 30
0.0
 11
4319.470057450347
 21
-1367.825976909184
 31
0.0
  0
ARC
  5
2EA
330
1F
100
AcDbEntity
  8
0-C_ハッチ
  6
Continuous
 62
     7
370
     5
100
AcDbCircle
 10
4450.941646947774
 20
-1437.17207631792
 30
0.0
 40
120.0
100
AcDbArc
 50
313.2198432128728
 51
40.68451301777836
  0
ARC
  5
2EB
330
1F
100
AcDbEntity
  8
0-C_ハッチ
  6
Continuous
 62
     7
370
     5
100
AcDbCircle
 10
4535.241479798585
 20
-1340.390480675016
 30
0.0
 40
12.0
100
AcDbArc
 50
40.68451301777846
 51
180.0
  0
LINE
  5
2EC
330
1F
100
AcDbEntity
  8
0-C_ハッチ
  6
Continuous
 62
     7
370
     5
100
AcDbLine
 10
4523.241479798586
 20
-1531.620996279519
 30
0.0
 11
4523.241479798586
 21
-1340.390480675016
 31
0.0
  0
ARC
  5
2ED
330
1F
100
AcDbEntity
  8
0-C_ハッチ
  6
Continuous
 62
     7
370
     5
100
AcDbCircle
 10
4535.241479798585
 20
-1531.620996279519
 30
0.0
 40
12.0
100
AcDbArc
 50
180.0
 51
313.2198432128728
  0
LINE
  5
2EE
330
1F
100
AcDbEntity
  8
0-C_ハッチ
  6
Continuous
 62
     7
370
     5
100
AcDbLine
 10
4567.919235315582
 20
-1359.994738501897
 30
0.0
 11
4544.341206637822
 21
-1332.567759188777
 31
0.0
  0
LINE
  5
2EF
330
1F
100
AcDbEntity
  8
0-C_ハッチ
  6
Continuous
 62
     7
370
     5
100
AcDbLine
 10
4559.097910299572
 20
-1525.669733954767
 30
0.0
 11
4543.459074136225
 21
-1540.365774338569
 31
0.0
  0
ARC
  5
2F0
330
1F
100
AcDbEntity
  8
0-C_ハッチ
  6
Continuous
 62
     7
370
     5
100
AcDbCircle
 10
4476.921966923199
 20
-1438.221953364273
 30
0.0
 40
120.0
100
AcDbArc
 50
313.2198432128728
 51
40.68451301777836
  0
LINE
  5
2F1
330
1F
100
AcDbEntity
  8
0-C_ハッチ
  6
Continuous
 62
     7
370
     5
100
AcDbLine
 10
4541.938915340157
 20
-1358.944861455544
 30
0.0
 11
4523.574590840489
 21
-1337.582687584454
 31
0.0
  0
LINE
  5
2F2
330
1F
100
AcDbEntity
  8
0-C_ハッチ
  6
Continuous
 62
     7
370
     5
100
AcDbLine
 10
4533.117590324146
 20
-1524.619856908414
 30
0.0
 11
4523.427507667235
 21
-1533.725767639937
 31
0.0
  0
LINE
  5
2F3
330
1F
100
AcDbEntity
  8
0-C_ハッチ
  6
Continuous
 62
     7
370
     5
100
AcDbLine
 10
4175.374253216334
 20
-1838.788432082185
 30
0.0
 11
4392.229133497332
 21
-1798.937399261503
 31
0.0
  0
LINE
  5
2F4
330
1F
100
AcDbEntity
  8
0-C_ハッチ
  6
Continuous
 62
     7
370
     5
100
AcDbLine
 10
4157.566404201281
 20
-1856.760876460749
 30
0.0
 11
4419.758390107106
 21
-1810.529347618727
 31
0.0
  0
LINE
  5
2F5
330
1F
100
AcDbEntity
  8
0-C_ハッチ
  6
Continuous
 62
     7
370
     5
100
AcDbLine
 10
4348.149154440709
 20
-1682.467071026479
 30
0.0
 11
4348.149154440709
 21
-1805.456686684093
 31
0.0
  0
LINE
  5
2F6
330
1F
100
AcDbEntity
  8
0-C_ハッチ
  6
Continuous
 62
     7
370
     5
100
AcDbLine
 10
4503.17520183039
 20
-1747.76277617852
 30
0.0
 11
4348.14281058272
 21
-1682.482136802232
 31
0.0
  0
LINE
  5
2F7
330
1F
100
AcDbEntity
  8
0-C_ハッチ
  6
Continuous
 62
     7
370
     5
100
AcDbLine
 10
4503.17520183039
 20
-1845.654283512465
 30
0.0
 11
4348.149154440709
 21
-1780.376315391534
 31
0.0
  0
LINE
  5
2F8
330
1F
100
AcDbEntity
  8
0-C_ハッチ
  6
Continuous
 62
     7
370
     5
100
AcDbLine
 10
4544.817493999387
 20
-1720.113960054648
 30
0.0
 11
4544.817493999387
 21
-1818.005467388593
 31
0.0
  0
ARC
  5
2F9
330
1F
100
AcDbEntity
  8
0-C_ハッチ
  6
Continuous
 62
     7
370
     5
100
AcDbCircle
 10
4514.817493999387
 20
-1818.005467388593
 30
0.0
 40
30.0
100
AcDbArc
 50
247.1651394203828
 51
0.0
  0
LINE
  5
2FA
330
1F
100
AcDbEntity
  8
0-C_ハッチ
  6
Continuous
 62
     7
370
     5
100
AcDbLine
 10
4544.817493999387
 20
-1754.347655214713
 30
0.0
 11
4687.596430729188
 21
-1727.435898911108
 31
0.0
  0
LINE
  5
2FB
330
1F
100
AcDbEntity
  8
0-C_ハッチ
  6
Continuous
 62
     7
370
     5
100
AcDbLine
 10
4711.333055428492
 20
-1740.778465677442
 30
0.0
 11
4544.817493999387
 21
-1772.67664324095
 31
0.0
  0
LINE
  5
2FC
330
1F
100
AcDbEntity
  8
0-C_ハッチ
  6
Continuous
 62
     7
370
     5
100
AcDbLine
 10
4544.817493999387
 20
-1788.478049793666
 30
0.0
 11
4729.140904443538
 21
-1755.976854012383
 31
0.0
  0
LINE
  5
2FD
330
1F
100
AcDbEntity
  8
0-C_ハッチ
  6
Continuous
 62
     7
370
     5
100
AcDbLine
 10
4417.912393153214
 20
-1655.407309763519
 30
0.0
 11
4396.280488565102
 21
-1659.935066468517
 31
0.0
  0
LINE
  5
2FE
330
1F
100
AcDbEntity
  8
0-C_ハッチ
  6
Continuous
 62
     7
370
     5
100
AcDbLine
 10
4489.675994556282
 20
-1640.386527561749
 30
0.0
 11
4468.04408996817
 21
-1644.914284266746
 31
0.0
  0
LINE
  5
2FF
330
1F
100
AcDbEntity
  8
0-C_ハッチ
  6
Continuous
 62
     7
370
     5
100
AcDbLine
 10
4417.912393153214
 20
-1628.237024652918
 30
0.0
 11
4417.912393153214
 21
-1655.407309763519
 31
0.0
  0
ARC
  5
300
330
1F
100
AcDbEntity
  8
0-C_ハッチ
  6
Continuous
 62
     7
370
     5
100
AcDbCircle
 10
4441.912393153213
 20
-1628.237024652918
 30
0.0
 40
24.0
100
AcDbArc
 50
101.82186584
 51
180.0
  0
LINE
  5
301
330
1F
100
AcDbEntity
  8
0-C_ハッチ
  6
Continuous
 62
     7
370
     5
100
AcDbLine
 10
4439.127219496521
 20
-1604.299898280657
 30
0.0
 11
4436.995522681563
 21
-1604.746082041668
 31
0.0
  0
LINE
  5
302
330
1F
100
AcDbEntity
  8
0-C_ハッチ
  6
Continuous
 62
     7
370
     5
100
AcDbLine
 10
4468.04408996817
 20
-1627.790840891907
 30
0.0
 11
4468.04408996817
 21
-1644.914284266746
 31
0.0
  0
ARC
  5
303
330
1F
100
AcDbEntity
  8
0-C_ハッチ
  6
Continuous
 62
     7
370
     5
100
AcDbCircle
 10
4444.044089968172
 20
-1627.790840891907
 30
0.0
 40
24.0
100
AcDbArc
 50
0.0
 51
101.82186584
  0
LINE
  5
304
330
1F
100
AcDbEntity
  8
0-C_ハッチ
  6
Continuous
 62
     7
370
     5
100
AcDbLine
 10
4428.574879555824
 20
-1643.117190431179
 30
0.0
 11
4428.574879555824
 21
-1662.136390008599
 31
0.0
  0
ARC
  5
305
330
1F
100
AcDbEntity
  8
0-C_ハッチ
  6
Continuous
 62
     7
370
     5
100
AcDbCircle
 10
4445.374879555822
 20
-1643.117190431179
 30
0.0
 40
16.8
100
AcDbArc
 50
101.82186584
 51
180.0
  0
LINE
  5
306
330
1F
100
AcDbEntity
  8
0-C_ハッチ
  6
Continuous
 62
     7
370
     5
100
AcDbLine
 10
4443.425257996139
 20
-1626.361201970596
 30
0.0
 11
4441.933070225668
 21
-1626.673530603304
 31
0.0
  0
LINE
  5
307
330
1F
100
AcDbEntity
  8
0-C_ハッチ
  6
Continuous
 62
     7
370
     5
100
AcDbLine
 10
4463.667067326295
 20
-1642.804861798471
 30
0.0
 11
4463.667067326295
 21
-1654.791272160859
 31
0.0
  0
ARC
  5
308
330
1F
100
AcDbEntity
  8
0-C_ハッチ
  6
Continuous
 62
     7
370
     5
100
AcDbCircle
 10
4446.867067326294
 20
-1642.804861798471
 30
0.0
 40
16.8
100
AcDbArc
 50
0.0
 51
101.82186584
  0
LINE
  5
309
330
1F
100
AcDbEntity
  8
0-C_ハッチ
  6
Continuous
 62
     7
370
     5
100
AcDbLine
 10
4478.809400537973
 20
-1651.62184246736
 30
0.0
 11
4463.667067326295
 21
-1654.791272160859
 31
0.0
  0
LINE
  5
30A
330
1F
100
AcDbEntity
  8
0-C_ハッチ
  6
Continuous
 62
     7
370
     5
100
AcDbLine
 10
4428.574879555824
 20
-1662.136390008599
 30
0.0
 11
4413.432546344146
 21
-1665.305819702098
 31
0.0
  0
LINE
  5
30B
330
1F
100
AcDbEntity
  8
0-C_ハッチ
  6
Continuous
 62
     7
370
     5
100
AcDbLine
 10
3926.975638384456
 20
-1933.842015764918
 30
0.0
 11
3944.14569177773
 21
-1901.099572121201
 31
0.0
  0
ARC
  5
30C
330
1F
100
AcDbEntity
  8
0-C_ハッチ
  6
Continuous
 62
     7
370
     5
100
AcDbCircle
 10
3944.656709501788
 20
-1901.413993630804
 30
0.0
 40
0.6000000000000001
100
AcDbArc
 50
99.56556047057619
 51
260.070167268476
  0
LINE
  5
30D
330
1F
100
AcDbEntity
  8
0-C_ハッチ
  6
Continuous
 62
     7
370
     5
100
AcDbLine
 10
4722.440292691842
 20
-1873.525047891547
 30
0.0
 11
4513.074576078168
 21
-1874.196784378049
 31
0.0
  0
LINE
  5
30E
330
1F
100
AcDbEntity
  8
0-C_ハッチ
  6
Continuous
 62
     7
370
     5
100
AcDbLine
 10
4722.54307635182
 20
-1874.716507009352
 30
0.0
 11
4280.135433518424
 21
-1950.157708018046
 31
0.0
  0
ARC
  5
30F
330
1F
100
AcDbEntity
  8
0-C_ハッチ
  6
Continuous
 62
     7
370
     5
100
AcDbCircle
 10
4722.442217743489
 20
-1874.125044803353
 30
0.0
 40
0.6000000000000001
100
AcDbArc
 50
279.6772325660855
 51
90.18382920651953
  0
LINE
  5
310
330
1F
100
AcDbEntity
  8
0-C_ハッチ
  6
Continuous
 62
     7
370
     5
100
AcDbLine
 10
4749.134300598877
 20
-1904.645316769366
 30
0.0
 11
4722.862856026926
 21
-1873.694852531752
 31
0.0
  0
LINE
  5
311
330
1F
100
AcDbEntity
  8
0-C_ハッチ
  6
Continuous
 62
     7
370
     5
100
AcDbLine
 10
4711.333055428492
 20
-1740.778465677442
 30
0.0
 11
4687.596430729188
 21
-1727.435898911108
 31
0.0
  0
LINE
  5
312
330
1F
100
AcDbEntity
  8
0-C_ハッチ
  6
Continuous
 62
    40
370
     5
100
AcDbLine
 10
4729.140904443538
 20
-1738.414179179453
 30
0.0
 11
5084.710755114781
 21
-1675.502354059931
 31
0.0
  0
MTEXT
  5
313
330
1F
100
AcDbEntity
  8
0-C_ハッチ
  6
Continuous
 62
     7
370
     5
100
AcDbMText
 10
3213.32564676453
 20
-932.6612998520922
 30
0.0
 40
64.00800000000005
 41
1512.000000000001
 46
0.0
 71
     7
 72
     1
  1
{\fＭＳ ゴシック|b0|i0|c128|p49;床に付属のビスで取り付けてください。}
 73
     1
 44
1.0
  0
MTEXT
  5
314
330
1F
100
AcDbEntity
  8
0-C_ハッチ
  6
Continuous
 62
     7
370
     5
100
AcDbMText
 10
1769.681345976655
 20
-1220.039952374126
 30
0.0
 40
45.71999999999974
 41
299.9999999999983
 46
0.0
 71
     7
 72
     1
  1
{\fＭＳ ゴシック|b0|i0|c128|p49;枠センター}
 73
     1
 44
1.0
  0
MTEXT
  5
315
330
1F
100
AcDbEntity
  8
0-C_ハッチ
  6
Continuous
 62
     7
370
     5
100
AcDbMText
 10
2440.969219287281
 20
-1406.693818246275
 30
0.0
 40
45.72
 41
600.0
 46
0.0
 71
     7
 72
     1
  1
{\fＭＳ ゴシック|b0|i0|c128|p49;取り付けビス(同梱品)}
 73
     1
 44
1.0
  0
LINE
  5
316
330
1F
100
AcDbEntity
  8
0-C_ハッチ
  6
Continuous
 62
     7
370
     5
100
AcDbLine
 10
3500.520238168267
 20
-3169.416420470182
 30
0.0
 11
3500.520238168267
 21
-2289.48088501735
 31
0.0
  0
LINE
  5
317
330
1F
100
AcDbEntity
  8
0-C_ハッチ
  6
Continuous
 62
     7
370
     5
100
AcDbLine
 10
5170.538870453337
 20
-3169.416420470182
 30
0.0
 11
5170.538870453337
 21
-2289.48088501735
 31
0.0
  0
LINE
  5
318
330
1F
100
AcDbEntity
  8
0-C_ハッチ
  6
Continuous
 62
     7
370
     5
100
AcDbLine
 10
3500.520238168267
 20
-3169.416420470182
 30
0.0
 11
5170.538870453337
 21
-3169.416420470182
 31
0.0
  0
LINE
  5
319
330
1F
100
AcDbEntity
  8
0-C_ハッチ
  6
Continuous
 62
     7
370
     5
100
AcDbLine
 10
5170.538870453337
 20
-2289.48088501735
 30
0.0
 11
3500.520238168267
 21
-2289.48088501735
 31
0.0
  0
LINE
  5
31A
330
1F
100
AcDbEntity
  8
0-C_ハッチ
  6
JWW_HOJO
 62
   120
370
     5
100
AcDbLine
 10
3492.446749897101
 20
-2916.32857452564
 30
0.0
 11
5162.465382182171
 21
-2916.32857452564
 31
0.0
  0
MTEXT
  5
31B
330
1F
100
AcDbEntity
  8
0-C_ハッチ
  6
Continuous
 62
     7
370
   211
100
AcDbMText
 10
1907.023026220587
 20
-1834.91291669731
 30
0.0
 40
68.57999999999947
 41
224.9999999999983
 46
0.0
 71
     7
 72
     1
  1
{\fＭＳ ゴシック|b0|i0|c128|p49;6.5㎜}
 73
     1
 44
1.0
  0
LINE
  5
31C
330
1F
100
AcDbEntity
  8
0-6_扉
  6
Continuous
 62
   200
370
     5
100
AcDbLine
 10
4573.122672719986
 20
-2717.497454775501
 30
0.0
 11
4573.122672719986
 21
-2879.497454775499
 31
0.0
  0
LINE
  5
31D
330
1F
100
AcDbEntity
  8
0-C_ハッチ
  6
JWW_CENTER1
 62
   120
370
     5
100
AcDbLine
 10
4363.122672719986
 20
-2735.496158190829
 30
0.0
 11
4363.122672719986
 21
-2861.496811431962
 31
0.0
  0
ARC
  5
31E
330
1F
100
AcDbEntity
  8
0-C_ハッチ
  6
Continuous
 62
     7
370
     5
100
AcDbCircle
 10
4372.122672719985
 20
-2798.497454775501
 30
0.0
 40
27.00000000000017
100
AcDbArc
 50
270.0
 51
90.0
  0
ARC
  5
31F
330
1F
100
AcDbEntity
  8
0-C_ハッチ
  6
Continuous
 62
     7
370
     5
100
AcDbCircle
 10
4228.122672719982
 20
-2910.997454775501
 30
0.0
 40
6.0
100
AcDbArc
 50
135.0000000000086
 51
270.0
  0
ARC
  5
320
330
1F
100
AcDbEntity
  8
0-C_ハッチ
  6
Continuous
 62
     7
370
     5
100
AcDbCircle
 10
4228.122672719982
 20
-2685.997454775501
 30
0.0
 40
6.0
100
AcDbArc
 50
90.0
 51
224.9999999999913
  0
CIRCLE
  5
321
330
1F
100
AcDbEntity
  8
0-C_ハッチ
  6
Continuous
 62
     7
370
     5
100
AcDbCircle
 10
4321.122672719983
 20
-2873.497454775501
 30
0.0
 40
11.7
  0
CIRCLE
  5
322
330
1F
100
AcDbEntity
  8
0-C_ハッチ
  6
Continuous
 62
     7
370
     5
100
AcDbCircle
 10
4321.122672719983
 20
-2723.497454775501
 30
0.0
 40
11.7
  0
CIRCLE
  5
323
330
1F
100
AcDbEntity
  8
0-C_ハッチ
  6
Continuous
 62
     7
370
     5
100
AcDbCircle
 10
4321.122672719983
 20
-2723.497454775501
 30
0.0
 40
22.5
  0
CIRCLE
  5
324
330
1F
100
AcDbEntity
  8
0-C_ハッチ
  6
Continuous
 62
     7
370
     5
100
AcDbCircle
 10
4321.122672719983
 20
-2873.497454775501
 30
0.0
 40
22.5
  0
CIRCLE
  5
325
330
1F
100
AcDbEntity
  8
0-C_ハッチ
  6
Continuous
 62
     7
370
     5
100
AcDbCircle
 10
4450.122672719985
 20
-2798.497454775501
 30
0.0
 40
11.7
  0
CIRCLE
  5
326
330
1F
100
AcDbEntity
  8
0-C_ハッチ
  6
Continuous
 62
     7
370
     5
100
AcDbCircle
 10
4450.122672719985
 20
-2798.497454775501
 30
0.0
 40
22.5
  0
LINE
  5
327
330
1F
100
AcDbEntity
  8
0-C_ハッチ
  6
Continuous
 62
     7
370
     5
100
AcDbLine
 10
4422.696265848792
 20
-2916.997454775501
 30
0.0
 11
4228.122672719982
 21
-2916.997454775501
 31
0.0
  0
ARC
  5
328
330
1F
100
AcDbEntity
  8
0-C_ハッチ
  6
Continuous
 62
     7
370
     5
100
AcDbCircle
 10
4422.696265848792
 20
-2886.997454775501
 30
0.0
 40
30.0
100
AcDbArc
 50
270.0
 51
315.0
  0
LINE
  5
329
330
1F
100
AcDbEntity
  8
0-C_ハッチ
  6
Continuous
 62
     7
370
     5
100
AcDbLine
 10
4486.33587615558
 20
-2865.784251339904
 30
0.0
 11
4443.909469284386
 21
-2908.210658211097
 31
0.0
  0
ARC
  5
32A
330
1F
100
AcDbEntity
  8
0-C_ハッチ
  6
Continuous
 62
     7
370
     5
100
AcDbCircle
 10
4465.122672719985
 20
-2844.571047904308
 30
0.0
 40
30.0
100
AcDbArc
 50
314.9999999999999
 51
359.9999999999999
  0
LINE
  5
32B
330
1F
100
AcDbEntity
  8
0-C_ハッチ
  6
Continuous
 62
     7
370
     5
100
AcDbLine
 10
4495.122672719985
 20
-2752.423861646693
 30
0.0
 11
4495.122672719985
 21
-2844.571047904308
 31
0.0
  0
ARC
  5
32C
330
1F
100
AcDbEntity
  8
0-C_ハッチ
  6
Continuous
 62
     7
370
     5
100
AcDbCircle
 10
4465.122672719985
 20
-2752.423861646693
 30
0.0
 40
30.0
100
AcDbArc
 50
0.0000000000000127
 51
45.00000000000001
  0
LINE
  5
32D
330
1F
100
AcDbEntity
  8
0-C_ハッチ
  6
Continuous
 62
     7
370
     5
100
AcDbLine
 10
4443.909469284386
 20
-2688.784251339904
 30
0.0
 11
4486.33587615558
 21
-2731.210658211097
 31
0.0
  0
LINE
  5
32E
330
1F
100
AcDbEntity
  8
0-C_ハッチ
  6
Continuous
 62
     7
370
     5
100
AcDbLine
 10
4422.696265848792
 20
-2679.9974547755
 30
0.0
 11
4228.122672719982
 21
-2679.9974547755
 31
0.0
  0
ARC
  5
32F
330
1F
100
AcDbEntity
  8
0-C_ハッチ
  6
Continuous
 62
     7
370
     5
100
AcDbCircle
 10
4422.696265848792
 20
-2709.9974547755
 30
0.0
 40
30.0
100
AcDbArc
 50
45.00000000000006
 51
90.00000000000006
  0
LINE
  5
330
330
1F
100
AcDbEntity
  8
0-C_ハッチ
  6
Continuous
 62
     7
370
     5
100
AcDbLine
 10
4296.350594781342
 20
-2762.710658211097
 30
0.0
 11
4223.880032032864
 21
-2690.24009546262
 31
0.0
  0
LINE
  5
331
330
1F
100
AcDbEntity
  8
0-C_ハッチ
  6
Continuous
 62
     7
370
     5
100
AcDbLine
 10
4317.563798216937
 20
-2771.4974547755
 30
0.0
 11
4372.122672719985
 21
-2771.4974547755
 31
0.0
  0
ARC
  5
332
330
1F
100
AcDbEntity
  8
0-C_ハッチ
  6
Continuous
 62
     7
370
     5
100
AcDbCircle
 10
4317.563798216937
 20
-2741.4974547755
 30
0.0
 40
30.0
100
AcDbArc
 50
225.0000000000006
 51
270.0
  0
LINE
  5
333
330
1F
100
AcDbEntity
  8
0-C_ハッチ
  6
Continuous
 62
     7
370
     5
100
AcDbLine
 10
4317.563798216937
 20
-2825.4974547755
 30
0.0
 11
4372.122672719985
 21
-2825.4974547755
 31
0.0
  0
LINE
  5
334
330
1F
100
AcDbEntity
  8
0-C_ハッチ
  6
Continuous
 62
     7
370
     5
100
AcDbLine
 10
4296.350594781342
 20
-2834.284251339904
 30
0.0
 11
4223.880032032864
 21
-2906.754814088381
 31
0.0
  0
ARC
  5
335
330
1F
100
AcDbEntity
  8
0-C_ハッチ
  6
Continuous
 62
     7
370
     5
100
AcDbCircle
 10
4317.563798216937
 20
-2855.4974547755
 30
0.0
 40
30.0
100
AcDbArc
 50
90.0
 51
134.9999999999995
  0
LINE
  5
336
330
1F
100
AcDbEntity
  8
0-C_ハッチ
  6
JWW_CENTER1
 62
   120
370
     5
100
AcDbLine
 10
4321.122672719983
 20
-2690.552023262744
 30
0.0
 11
4321.122672719983
 21
-2756.488119729301
 31
0.0
  0
LINE
  5
337
330
1F
100
AcDbEntity
  8
0-C_ハッチ
  6
JWW_CENTER1
 62
   120
370
     5
100
AcDbLine
 10
4321.122672719983
 20
-2838.191543611774
 30
0.0
 11
4321.122672719983
 21
-2903.410943377608
 31
0.0
  0
LINE
  5
338
330
1F
100
AcDbEntity
  8
0-C_ハッチ
  6
JWW_CENTER1
 62
   120
370
     5
100
AcDbLine
 10
4450.122672719985
 20
-2765.088480137982
 30
0.0
 11
4450.122672719985
 21
-2831.741273305263
 31
0.0
  0
LINE
  5
339
330
1F
100
AcDbEntity
  8
0-C_ハッチ
  6
JWW_CENTER1
 62
   120
370
     5
100
AcDbLine
 10
4289.165770704542
 20
-2873.497454775501
 30
0.0
 11
4355.818563871825
 21
-2873.497454775501
 31
0.0
  0
LINE
  5
33A
330
1F
100
AcDbEntity
  8
0-C_ハッチ
  6
JWW_CENTER1
 62
   120
370
     5
100
AcDbLine
 10
4289.165770704542
 20
-2723.497454775501
 30
0.0
 11
4355.818563871825
 21
-2723.497454775501
 31
0.0
  0
LWPOLYLINE
  5
33B
330
1F
100
AcDbEntity
  8
0-C_ハッチ
  6
Continuous
 62
     7
370
     5
100
AcDbPolyline
 90
        4
 70
     1
 43
3.0
 10
4223.622672719983
 20
-2685.997454775501
 42
0.4142135623731
 10
4222.122672719983
 20
-2684.497454775501
 42
0.4142135623731
 10
4220.622672719982
 20
-2685.997454775501
 42
0.4142135623731
 10
4222.122672719983
 20
-2687.497454775501
 42
0.4142135623731
  0
LWPOLYLINE
  5
33C
330
1F
100
AcDbEntity
  8
0-C_ハッチ
  6
Continuous
 62
     7
370
     5
100
AcDbPolyline
 90
        4
 70
     1
 43
3.0
 10
4223.622672719983
 20
-2910.997454775501
 42
0.4142135623731
 10
4222.122672719983
 20
-2909.497454775501
 42
0.4142135623731
 10
4220.622672719982
 20
-2910.997454775501
 42
0.4142135623731
 10
4222.122672719983
 20
-2912.497454775501
 42
0.4142135623731
  0
LWPOLYLINE
  5
33D
330
1F
100
AcDbEntity
  8
0-C_ハッチ
  6
Continuous
 62
     7
370
     5
100
AcDbPolyline
 90
        4
 70
     1
 43
3.0
 10
3983.01417062214
 20
-2798.497454775501
 42
0.4142135623731
 10
3981.51417062214
 20
-2796.997454775501
 42
0.4142135623731
 10
3980.014170622139
 20
-2798.497454775501
 42
0.4142135623731
 10
3981.51417062214
 20
-2799.997454775501
 42
0.4142135623731
  0
MTEXT
  5
33E
330
1F
100
AcDbEntity
  8
0-C_ハッチ
  6
Continuous
 62
     7
370
     5
100
AcDbMText
 10
4761.638711630012
 20
-1886.856329938753
 30
0.0
 40
45.72000000000131
 41
180.0000000000051
 46
0.0
 71
     7
 72
     1
  1
{\fＭＳ ゴシック|b0|i0|c128|p49;ガイド}
 73
     1
 44
1.0
  0
LINE
  5
33F
330
1F
100
AcDbEntity
  8
0-C_ハッチ
  6
Continuous
 62
   120
370
     5
100
AcDbLine
 10
3981.51417062214
 20
-2798.497454775501
 30
0.0
 11
3999.455777269919
 21
-2798.497454775501
 31
0.0
  0
LWPOLYLINE
  5
340
330
1F
100
AcDbEntity
  8
0-C_ハッチ
  6
Continuous
 62
     7
370
     5
100
AcDbPolyline
 90
        4
 70
     1
 43
3.0
 10
4081.844099614786
 20
-2679.996380886679
 42
0.4142135623731
 10
4080.344099614785
 20
-2678.496380886679
 42
0.4142135623731
 10
4078.844099614785
 20
-2679.996380886679
 42
0.4142135623731
 10
4080.344099614785
 20
-2681.496380886679
 42
0.4142135623731
  0
LINE
  5
341
330
1F
100
AcDbEntity
  8
0-C_ハッチ
  6
Continuous
 62
   120
370
     5
100
AcDbLine
 10
4080.344099614785
 20
-2679.996380886679
 30
0.0
 11
4179.17402860743
 21
-2679.996380886679
 31
0.0
  0
LWPOLYLINE
  5
342
330
1F
100
AcDbEntity
  8
0-C_ハッチ
  6
Continuous
 62
     7
370
     5
100
AcDbPolyline
 90
        4
 70
     1
 43
3.0
 10
4081.844099614786
 20
-2916.996380886671
 42
0.4142135623731
 10
4080.344099614785
 20
-2915.496380886671
 42
0.4142135623731
 10
4078.844099614785
 20
-2916.996380886671
 42
0.4142135623731
 10
4080.344099614785
 20
-2918.496380886671
 42
0.4142135623731
  0
LINE
  5
343
330
1F
100
AcDbEntity
  8
0-C_ハッチ
  6
Continuous
 62
   120
370
     5
100
AcDbLine
 10
4080.344099614785
 20
-2916.996380886671
 30
0.0
 11
4179.17402860743
 21
-2916.996380886671
 31
0.0
  0
LINE
  5
344
330
1F
100
AcDbEntity
  8
0-C_ハッチ
  6
Continuous
 62
   120
370
     5
100
AcDbLine
 10
4080.344099614785
 20
-2679.996380886679
 30
0.0
 11
4080.344099614785
 21
-2916.996380886671
 31
0.0
  0
LWPOLYLINE
  5
345
330
1F
100
AcDbEntity
  8
0-C_ハッチ
  6
Continuous
 62
     7
370
     5
100
AcDbPolyline
 90
        4
 70
     1
 43
3.0
 10
4496.622672719986
 20
-2400.645831825494
 42
0.4142135623731
 10
4495.122672719985
 20
-2399.145831825494
 42
0.4142135623731
 10
4493.622672719985
 20
-2400.645831825494
 42
0.4142135623731
 10
4495.122672719985
 20
-2402.145831825494
 42
0.4142135623731
  0
LINE
  5
346
330
1F
100
AcDbEntity
  8
0-C_ハッチ
  6
Continuous
 62
   120
370
     5
100
AcDbLine
 10
4495.122672719985
 20
-2400.645831825494
 30
0.0
 11
4495.122672719985
 21
-2468.145831825494
 31
0.0
  0
LWPOLYLINE
  5
347
330
1F
100
AcDbEntity
  8
0-C_ハッチ
  6
Continuous
 62
     7
370
     5
100
AcDbPolyline
 90
        4
 70
     1
 43
3.0
 10
4081.844099614786
 20
-2522.497509212263
 42
0.4142135623731
 10
4080.344099614785
 20
-2520.997509212264
 42
0.4142135623731
 10
4078.844099614785
 20
-2522.497509212263
 42
0.4142135623731
 10
4080.344099614785
 20
-2523.997509212263
 42
0.4142135623731
  0
LINE
  5
348
330
1F
100
AcDbEntity
  8
0-C_ハッチ
  6
Continuous
 62
   120
370
     5
100
AcDbLine
 10
3978.966382576386
 20
-2522.497509212263
 30
0.0
 11
4538.356097212843
 21
-2522.497509212263
 31
0.0
  0
LWPOLYLINE
  5
349
330
1F
100
AcDbEntity
  8
0-C_ハッチ
  6
Continuous
 62
     7
370
     5
100
AcDbPolyline
 90
        4
 70
     1
 43
3.0
 10
3983.01417062214
 20
-2522.497509212263
 42
0.4142135623731
 10
3981.51417062214
 20
-2520.997509212264
 42
0.4142135623731
 10
3980.014170622139
 20
-2522.497509212263
 42
0.4142135623731
 10
3981.51417062214
 20
-2523.997509212263
 42
0.4142135623731
  0
LINE
  5
34A
330
1F
100
AcDbEntity
  8
0-C_ハッチ
  6
Continuous
 62
   120
370
     5
100
AcDbLine
 10
3981.51417062214
 20
-2522.497509212263
 30
0.0
 11
3981.51417062214
 21
-2798.497454775501
 31
0.0
  0
LINE
  5
34B
330
1F
100
AcDbEntity
  8
0-C_ハッチ
  6
Continuous
 62
   120
370
     5
100
AcDbLine
 10
3882.684241629494
 20
-2522.497509212263
 30
0.0
 11
3978.966382576386
 21
-2522.497509212263
 31
0.0
  0
LWPOLYLINE
  5
34C
330
1F
100
AcDbEntity
  8
0-C_ハッチ
  6
Continuous
 62
     7
370
     5
100
AcDbPolyline
 90
        4
 70
     1
 43
3.0
 10
3884.184241629495
 20
-2522.497509212263
 42
0.4142135623731
 10
3882.684241629494
 20
-2520.997509212264
 42
0.4142135623731
 10
3881.184241629494
 20
-2522.497509212263
 42
0.4142135623731
 10
3882.684241629494
 20
-2523.997509212263
 42
0.4142135623731
  0
LINE
  5
34D
330
1F
100
AcDbEntity
  8
0-C_ハッチ
  6
Continuous
 62
   120
370
     5
100
AcDbLine
 10
4080.344099614785
 20
-2522.497509212263
 30
0.0
 11
4080.344099614785
 21
-2679.996380886679
 31
0.0
  0
LWPOLYLINE
  5
34E
330
1F
100
AcDbEntity
  8
0-C_ハッチ
  6
Continuous
 62
     7
370
     5
100
AcDbPolyline
 90
        4
 70
     1
 43
3.0
 10
4081.844099614786
 20
-3074.496658019271
 42
0.4142135623731
 10
4080.344099614785
 20
-3072.996658019271
 42
0.4142135623731
 10
4078.844099614785
 20
-3074.496658019271
 42
0.4142135623731
 10
4080.344099614785
 20
-3075.996658019271
 42
0.4142135623731
  0
LINE
  5
34F
330
1F
100
AcDbEntity
  8
0-C_ハッチ
  6
Continuous
 62
   120
370
     5
100
AcDbLine
 10
3978.966382576386
 20
-3074.496658019271
 30
0.0
 11
4538.356097212843
 21
-3074.496658019271
 31
0.0
  0
LWPOLYLINE
  5
350
330
1F
100
AcDbEntity
  8
0-C_ハッチ
  6
Continuous
 62
     7
370
     5
100
AcDbPolyline
 90
        4
 70
     1
 43
3.0
 10
3983.01417062214
 20
-3074.496658019271
 42
0.4142135623731
 10
3981.51417062214
 20
-3072.996658019271
 42
0.4142135623731
 10
3980.014170622139
 20
-3074.496658019271
 42
0.4142135623731
 10
3981.51417062214
 20
-3075.996658019271
 42
0.4142135623731
  0
LINE
  5
351
330
1F
100
AcDbEntity
  8
0-C_ハッチ
  6
Continuous
 62
   120
370
     5
100
AcDbLine
 10
3981.51417062214
 20
-2798.497454775501
 30
0.0
 11
3981.51417062214
 21
-3074.496658019271
 31
0.0
  0
LINE
  5
352
330
1F
100
AcDbEntity
  8
0-C_ハッチ
  6
Continuous
 62
   120
370
     5
100
AcDbLine
 10
3882.684241629494
 20
-3074.496658019271
 30
0.0
 11
3978.966382576386
 21
-3074.496658019271
 31
0.0
  0
LWPOLYLINE
  5
353
330
1F
100
AcDbEntity
  8
0-C_ハッチ
  6
Continuous
 62
     7
370
     5
100
AcDbPolyline
 90
        4
 70
     1
 43
3.0
 10
3884.184241629495
 20
-3074.496658019271
 42
0.4142135623731
 10
3882.684241629494
 20
-3072.996658019271
 42
0.4142135623731
 10
3881.184241629494
 20
-3074.496658019271
 42
0.4142135623731
 10
3882.684241629494
 20
-3075.996658019271
 42
0.4142135623731
  0
LINE
  5
354
330
1F
100
AcDbEntity
  8
0-C_ハッチ
  6
Continuous
 62
   120
370
     5
100
AcDbLine
 10
4080.344099614785
 20
-2916.996380886671
 30
0.0
 11
4080.344099614785
 21
-3074.496658019271
 31
0.0
  0
LINE
  5
355
330
1F
100
AcDbEntity
  8
0-C_ハッチ
  6
Continuous
 62
   120
370
     5
100
AcDbLine
 10
3882.684241629494
 20
-2522.497509212263
 30
0.0
 11
3882.684241629494
 21
-3074.496658019271
 31
0.0
  0
MTEXT
  5
356
330
1F
100
AcDbEntity
  8
0-C_ハッチ
  6
Continuous
 62
     7
370
     5
100
AcDbMText
 10
4630.066776183746
 20
-2106.333711636176
 30
0.0
 40
45.72000000000001
 41
600.0
 46
0.0
 71
     7
 72
     1
  1
{\fＭＳ ゴシック|b0|i0|c128|p49;ストライクとガイドの}
 73
     1
 44
1.0
  0
MTEXT
  5
357
330
1F
100
AcDbEntity
  8
0-C_ハッチ
  6
Continuous
 62
     7
370
     5
100
AcDbMText
 10
4000.137587265701
 20
-2135.621352689762
 30
0.0
 40
45.72000000000021
 41
360.0000000000017
 46
0.0
 71
     7
 72
     1
  1
{\fＭＳ ゴシック|b0|i0|c128|p49;枠の前面より}
 73
     1
 44
1.0
  0
LWPOLYLINE
  5
358
330
1F
100
AcDbEntity
  8
0-C_ハッチ
  6
Continuous
 62
     7
370
     5
100
AcDbPolyline
 90
        4
 70
     1
 43
3.0
 10
4589.622672719986
 20
-2400.645831825494
 42
0.4142135623731
 10
4588.122672719986
 20
-2399.145831825494
 42
0.4142135623731
 10
4586.622672719986
 20
-2400.645831825494
 42
0.4142135623731
 10
4588.122672719986
 20
-2402.145831825494
 42
0.4142135623731
  0
LINE
  5
359
330
1F
100
AcDbEntity
  8
0-C_ハッチ
  6
Continuous
 62
   120
370
     5
100
AcDbLine
 10
4588.122672719986
 20
-2400.645831825494
 30
0.0
 11
4588.122672719986
 21
-2468.145831825494
 31
0.0
  0
MTEXT
  5
35A
330
1F
100
AcDbEntity
  8
0-C_ハッチ
  6
Continuous
 62
     7
370
     5
100
AcDbMText
 10
4630.066776183746
 20
-2174.362237252364
 30
0.0
 40
45.72
 41
300.0
 46
0.0
 71
     7
 72
     1
  1
{\fＭＳ ゴシック|b0|i0|c128|p49;位置決め溝}
 73
     1
 44
1.0
  0
LINE
  5
35B
330
1F
100
AcDbEntity
  8
0-C_ハッチ
  6
Continuous
 62
   120
370
     5
100
AcDbLine
 10
4588.122672719986
 20
-2400.645831825494
 30
0.0
 11
4495.122672719985
 21
-2400.645831825494
 31
0.0
  0
MTEXT
  5
35C
330
1F
100
AcDbEntity
  8
0-C_ハッチ
  6
Continuous
 62
     7
370
     5
100
AcDbMText
 10
4000.137587265704
 20
-2210.137757401186
 30
0.0
 40
45.71999999999935
 41
239.9999999999966
 46
0.0
 71
     7
 72
     1
  1
{\fＭＳ ゴシック|b0|i0|c128|p49;46㎜後ろ}
 73
     1
 44
1.0
  0
MTEXT
  5
35D
330
1F
100
AcDbEntity
  8
0-C_ハッチ
  6
Continuous
 62
     7
370
   211
100
AcDbMText
 10
4466.622672719986
 20
-2403.570831825494
 30
0.0
 40
57.15
 41
150.0
 46
0.0
 71
     7
 72
     1
  1
{\fＭＳ ゴシック|b0|i0|c128|p49;15.5}
 73
     1
 44
1.0
  0
MTEXT
  5
35E
330
1F
100
AcDbEntity
  8
0-C_ハッチ
  6
Continuous
 62
     7
370
     5
100
AcDbMText
 10
3591.611683922395
 20
-2412.81491734107
 30
0.0
 40
57.15
 41
225.0
 46
0.0
 71
     7
 72
     1
  1
{\fＭＳ ゴシック|b0|i0|c128|p49;平面図}
 73
     1
 44
1.0
  0
LINE
  5
35F
330
1F
100
AcDbEntity
  8
0-C_ハッチ
  6
JWW_CENTER1
 62
   120
370
     5
100
AcDbLine
 10
4139.3551002637
 20
-2798.497454775501
 30
0.0
 11
4782.259425219241
 21
-2798.497454775501
 31
0.0
  0
LINE
  5
360
330
1F
100
AcDbEntity
  8
0-6_扉
  6
Continuous
 62
   200
370
     5
100
AcDbLine
 10
4139.3551002637
 20
-2717.497454775501
 30
0.0
 11
4573.122672719986
 21
-2717.497454775501
 31
0.0
  0
LINE
  5
361
330
1F
100
AcDbEntity
  8
0-6_扉
  6
Continuous
 62
   200
370
     5
100
AcDbLine
 10
4139.3551002637
 20
-2879.497454775499
 30
0.0
 11
4573.122672719986
 21
-2879.497454775499
 31
0.0
  0
LINE
  5
362
330
1F
100
AcDbEntity
  8
0-7_金物
  6
Continuous
 62
     7
370
     5
100
AcDbLine
 10
4786.122335119269
 20
-2888.497758043931
 30
0.0
 11
4786.122335119269
 21
-2708.497895373035
 31
0.0
  0
LINE
  5
363
330
1F
100
AcDbEntity
  8
0-7_金物
  6
Continuous
 62
     7
370
     5
100
AcDbLine
 10
4798.122672719977
 20
-2708.497895373035
 30
0.0
 11
4786.122335119269
 21
-2708.497895373035
 31
0.0
  0
LINE
  5
364
330
1F
100
AcDbEntity
  8
0-7_金物
  6
Continuous
 62
     7
370
     5
100
AcDbLine
 10
4798.122672719977
 20
-2888.497758043931
 30
0.0
 11
4786.122335119269
 21
-2888.497758043931
 31
0.0
  0
LINE
  5
365
330
1F
100
AcDbEntity
  8
0-7_金物
  6
Continuous
 62
     7
370
     5
100
AcDbLine
 10
4798.122672719977
 20
-2888.497758043931
 30
0.0
 11
4798.122672719977
 21
-2708.497895373035
 31
0.0
  0
LINE
  5
366
330
1F
100
AcDbEntity
  8
0-7_金物
  6
Continuous
 62
     7
370
     5
100
AcDbLine
 10
4786.122335119269
 20
-2858.497655047107
 30
0.0
 11
4774.12274138453
 21
-2858.497655047107
 31
0.0
  0
LINE
  5
367
330
1F
100
AcDbEntity
  8
0-7_金物
  6
Continuous
 62
     7
370
     5
100
AcDbLine
 10
4786.122335119269
 20
-2738.497998369861
 30
0.0
 11
4774.12274138453
 21
-2738.497998369861
 31
0.0
  0
LINE
  5
368
330
1F
100
AcDbEntity
  8
0-7_金物
  6
Continuous
 62
     7
370
     5
100
AcDbLine
 10
4774.12274138453
 20
-2858.497655047107
 30
0.0
 11
4774.12274138453
 21
-2738.497998369861
 31
0.0
  0
LINE
  5
369
330
1F
100
AcDbEntity
  8
0-7_金物
  6
Continuous
 62
     7
370
     5
100
AcDbLine
 10
4774.12274138453
 20
-2852.497489107776
 30
0.0
 11
4768.122672719986
 21
-2852.497489107776
 31
0.0
  0
LINE
  5
36A
330
1F
100
AcDbEntity
  8
0-7_金物
  6
Continuous
 62
     7
370
     5
100
AcDbLine
 10
4768.122672719986
 20
-2744.497420443226
 30
0.0
 11
4774.12274138453
 21
-2744.497420443226
 31
0.0
  0
LINE
  5
36B
330
1F
100
AcDbEntity
  8
0-4_枠
  6
Continuous
 62
    92
370
     5
100
AcDbLine
 10
4768.122672719986
 20
-2522.497509212261
 30
0.0
 11
4768.122672719986
 21
-3074.496658019269
 31
0.0
  0
LINE
  5
36C
330
1F
100
AcDbEntity
  8
0-4_枠
  6
Continuous
 62
    92
370
     5
100
AcDbLine
 10
4606.122672719986
 20
-3074.496658019269
 30
0.0
 11
4768.122672719986
 21
-3074.496658019269
 31
0.0
  0
LINE
  5
36D
330
1F
100
AcDbEntity
  8
0-4_枠
  6
Continuous
 62
    92
370
     5
100
AcDbLine
 10
4606.12280633749
 20
-2522.497509212261
 30
0.0
 11
4768.122672719986
 21
-2522.497509212261
 31
0.0
  0
ARC
  5
36E
330
1F
100
AcDbEntity
  8
0-4_枠
  6
Continuous
 62
    92
370
     5
100
AcDbCircle
 10
4606.122672719986
 20
-3056.496658019272
 30
0.0
 40
18.0
100
AcDbArc
 50
180.0
 51
270.0
  0
LINE
  5
36F
330
1F
100
AcDbEntity
  8
0-4_枠
  6
Continuous
 62
    92
370
     5
100
AcDbLine
 10
4588.122672719986
 20
-3056.496658019272
 30
0.0
 11
4588.122672719986
 21
-2540.497271670032
 31
0.0
  0
ARC
  5
370
330
1F
100
AcDbEntity
  8
0-4_枠
  6
Continuous
 62
    92
370
     5
100
AcDbCircle
 10
4606.12280633749
 20
-2540.497271670032
 30
0.0
 40
17.99999878213213
100
AcDbArc
 50
90.0
 51
180.0
  0
LINE
  5
371
330
1F
100
AcDbEntity
  8
0-C_ハッチ
  6
JWW_DASHED1
 62
   120
370
     5
100
AcDbLine
 10
4768.122672719986
 20
-2940.568499589541
 30
0.0
 11
4802.193717534045
 21
-2906.497454775481
 31
0.0
  0
LINE
  5
372
330
1F
100
AcDbEntity
  8
0-C_ハッチ
  6
Continuous
 62
   120
370
     5
100
AcDbLine
 10
4768.122672719984
 20
-2702.355308589044
 30
0.0
 11
4597.193839840346
 21
-2531.426475709406
 31
0.0
  0
LINE
  5
373
330
1F
100
AcDbEntity
  8
0-C_ハッチ
  6
Continuous
 62
   120
370
     5
100
AcDbLine
 10
4768.122672719982
 20
-2524.164399730045
 30
0.0
 11
4766.455782202201
 21
-2522.497509212264
 31
0.0
  0
LINE
  5
374
330
1F
100
AcDbEntity
  8
0-C_ハッチ
  6
Continuous
 62
   120
370
     5
100
AcDbLine
 10
4768.122672719982
 20
-2583.561369349747
 30
0.0
 11
4707.058812582506
 21
-2522.49750921227
 31
0.0
  0
LINE
  5
375
330
1F
100
AcDbEntity
  8
0-C_ハッチ
  6
Continuous
 62
   120
370
     5
100
AcDbLine
 10
4768.122672719977
 20
-2642.95833896939
 30
0.0
 11
4647.661842962859
 21
-2522.49750921227
 31
0.0
  0
LINE
  5
376
330
1F
100
AcDbEntity
  8
0-C_ハッチ
  6
Continuous
 62
   120
370
     5
100
AcDbLine
 10
4768.122672719972
 20
-2761.752278208734
 30
0.0
 11
4588.122672719976
 21
-2581.752278208736
 31
0.0
  0
LINE
  5
377
330
1F
100
AcDbEntity
  8
0-C_ハッチ
  6
Continuous
 62
   120
370
     5
100
AcDbLine
 10
4768.122672719976
 20
-2821.149247828384
 30
0.0
 11
4588.122672719982
 21
-2641.149247828391
 31
0.0
  0
LINE
  5
378
330
1F
100
AcDbEntity
  8
0-C_ハッチ
  6
Continuous
 62
   120
370
     5
100
AcDbLine
 10
4768.122672719968
 20
-2880.546217448078
 30
0.0
 11
4588.122672719968
 21
-2700.546217448079
 31
0.0
  0
LINE
  5
379
330
1F
100
AcDbEntity
  8
0-C_ハッチ
  6
Continuous
 62
   120
370
     5
100
AcDbLine
 10
4768.122672719982
 20
-2939.943187067738
 30
0.0
 11
4588.122672719982
 21
-2759.943187067739
 31
0.0
  0
LINE
  5
37A
330
1F
100
AcDbEntity
  8
0-C_ハッチ
  6
Continuous
 62
   120
370
     5
100
AcDbLine
 10
4768.122672719976
 20
-2999.34015668738
 30
0.0
 11
4588.122672719984
 21
-2819.34015668739
 31
0.0
  0
LINE
  5
37B
330
1F
100
AcDbEntity
  8
0-C_ハッチ
  6
Continuous
 62
   120
370
     5
100
AcDbLine
 10
4768.122672719976
 20
-3058.737126307082
 30
0.0
 11
4588.122672719976
 21
-2878.737126307082
 31
0.0
  0
LINE
  5
37C
330
1F
100
AcDbEntity
  8
0-C_ハッチ
  6
Continuous
 62
   120
370
     5
100
AcDbLine
 10
4724.485234812531
 20
-3074.496658019286
 30
0.0
 11
4588.122672719976
 21
-2938.134095926729
 31
0.0
  0
LINE
  5
37D
330
1F
100
AcDbEntity
  8
0-C_ハッチ
  6
Continuous
 62
   120
370
     5
100
AcDbLine
 10
4665.08826519283
 20
-3074.496658019286
 30
0.0
 11
4588.12267271997
 21
-2997.531065546427
 31
0.0
  0
LINE
  5
37E
330
1F
100
AcDbEntity
  8
0-C_ハッチ
  6
Continuous
 62
   120
370
     5
100
AcDbLine
 10
4605.691295573173
 20
-3074.496658019274
 30
0.0
 11
4588.122672719982
 21
-3056.928035166085
 31
0.0
  0
LINE
  5
37F
330
1F
100
AcDbEntity
  8
0-C_ハッチ
  6
JWW_DASHED1
 62
   120
370
     5
100
AcDbLine
 10
4854.472938147641
 20
-2981.497454775485
 30
0.0
 11
4929.472938147639
 21
-2906.497454775489
 31
0.0
  0
LINE
  5
380
330
1F
100
AcDbEntity
  8
0-C_ハッチ
  6
JWW_DASHED1
 62
   120
370
     5
100
AcDbLine
 10
4812.046531276445
 20
-2981.497454775485
 30
0.0
 11
4887.046531276435
 21
-2906.497454775489
 31
0.0
  0
LINE
  5
381
330
1F
100
AcDbEntity
  8
0-C_ハッチ
  6
JWW_DASHED1
 62
   120
370
     5
100
AcDbLine
 10
4769.620124405232
 20
-2981.497454775496
 30
0.0
 11
4844.620124405241
 21
-2906.497454775485
 31
0.0
  0
LINE
  5
382
330
1F
100
AcDbEntity
  8
0-3_仕上げ
  6
Continuous
 62
    40
370
     5
100
AcDbLine
 10
4768.122672719986
 20
-2906.497454775499
 30
0.0
 11
4957.395313946785
 21
-2906.497454775499
 31
0.0
  0
LINE
  5
383
330
1F
100
AcDbEntity
  8
0-3_仕上げ
  6
Continuous
 62
    40
370
     5
100
AcDbLine
 10
4768.122672719986
 20
-2981.497454775498
 30
0.0
 11
4957.395313946785
 21
-2981.497454775498
 31
0.0
  0
LINE
  5
384
330
1F
100
AcDbEntity
  8
0-C_ハッチ
  6
JWW_DASHED1
 62
   120
370
     5
100
AcDbLine
 10
4939.325751890034
 20
-2981.497454775491
 30
0.0
 11
4957.395313946785
 21
-2963.427892718741
 31
0.0
  0
LINE
  5
385
330
1F
100
AcDbEntity
  8
0-C_ハッチ
  6
JWW_DASHED1
 62
   120
370
     5
100
AcDbLine
 10
4896.899345018839
 20
-2981.49745477549
 30
0.0
 11
4957.395313946785
 21
-2921.001485847541
 31
0.0
  0
LINE
  5
386
330
1F
100
AcDbEntity
  8
0-C_ハッチ
  6
JWW_HOJO
 62
   120
370
     5
100
AcDbLine
 10
895.7829407327528
 20
-568.6652998520937
 30
0.0
 11
2964.393918172746
 21
-568.6652998520937
 31
0.0
  0
LINE
  5
387
330
1F
100
AcDbEntity
  8
0-C_ハッチ
  6
JWW_HOJO
 62
   120
370
     5
100
AcDbLine
 10
895.7829407327528
 20
-691.0652998520924
 30
0.0
 11
2964.393918172746
 21
-691.0652998520924
 31
0.0
  0
LINE
  5
388
330
1F
100
AcDbEntity
  8
0-C_ハッチ
  6
JWW_HOJO
 62
   120
370
     5
100
AcDbLine
 10
2964.393918172746
 20
-568.6652998520937
 30
0.0
 11
2964.393918172746
 21
-813.4652998520927
 31
0.0
  0
LINE
  5
389
330
1F
100
AcDbEntity
  8
0-C_ハッチ
  6
JWW_HOJO
 62
   120
370
     5
100
AcDbLine
 10
895.7829407327528
 20
-568.6652998520937
 30
0.0
 11
895.7829407327528
 21
-813.4652998520927
 31
0.0
  0
LINE
  5
38A
330
1F
100
AcDbEntity
  8
0-C_ハッチ
  6
JWW_HOJO
 62
   120
370
     5
100
AcDbLine
 10
2964.393918172746
 20
-813.4652998520927
 30
0.0
 11
895.7829407327528
 21
-813.4652998520927
 31
0.0
  0
LWPOLYLINE
  5
38B
330
1F
100
AcDbEntity
  8
0-C_ハッチ
  6
Continuous
 62
   120
370
     5
100
AcDbPolyline
 90
        4
 70
     1
 43
3.0
 10
2976.0614109867
 20
-2379.12446636078
 42
0.4142135623731
 10
2974.5614109867
 20
-2377.62446636078
 42
0.4142135623731
 10
2973.0614109867
 20
-2379.12446636078
 42
0.4142135623731
 10
2974.5614109867
 20
-2380.62446636078
 42
0.4142135623731
  0
LINE
  5
38C
330
1F
100
AcDbEntity
  8
0-C_ハッチ
  6
JWW_CENTER1
 62
   120
370
     5
100
AcDbLine
 10
1882.20995538225
 20
-1252.573822281254
 30
0.0
 11
1882.20995538225
 21
-1965.078503695096
 31
0.0
  0
LINE
  5
38D
330
1F
100
AcDbEntity
  8
0-C_ハッチ
  6
JWW_CENTER1
 62
   120
370
     5
100
AcDbLine
 10
1882.20995538225
 20
-1965.078503695096
 30
0.0
 11
2512.336060221079
 21
-2509.012792199502
 31
0.0
  0
MTEXT
  5
38E
330
1F
100
AcDbEntity
  8
0-C_ハッチ
  6
Continuous
 62
     7
370
   211
100
AcDbMText
 10
2824.685270620369
 20
-2517.588817529963
 30
0.0
 40
68.58
 41
225.0
 46
0.0
 71
     7
 72
     1
  1
{\fＭＳ ゴシック|b0|i0|c128|p49;6.5㎜}
 73
     1
 44
1.0
  0
LINE
  5
38F
330
1F
100
AcDbEntity
  8
0-C_ハッチ
  6
Continuous
 62
    40
370
     5
100
AcDbLine
 10
1394.050422537156
 20
-1179.08123250688
 30
0.0
 11
1394.050422537156
 21
-2216.361239909749
 31
0.0
  0
LINE
  5
390
330
1F
100
AcDbEntity
  8
0-C_ハッチ
  6
Continuous
 62
    40
370
     5
100
AcDbLine
 10
1303.224802099474
 20
-1161.618797863395
 30
0.0
 11
1303.224802099474
 21
-2198.898588734327
 31
0.0
  0
LINE
  5
391
330
1F
100
AcDbEntity
  8
0-C_ハッチ
  6
Continuous
 62
    40
370
     5
100
AcDbLine
 10
1104.161795054037
 20
-1049.86883016313
 30
0.0
 11
1104.161795054037
 21
-1995.706377589809
 31
0.0
  0
LINE
  5
392
330
1F
100
AcDbEntity
  8
0-C_ハッチ
  6
Continuous
 62
    40
370
     5
100
AcDbLine
 10
1394.050422537156
 20
-2216.361239909749
 30
0.0
 11
1303.224802099474
 21
-2198.898588734327
 31
0.0
  0
LINE
  5
393
330
1F
100
AcDbEntity
  8
0-C_ハッチ
  6
Continuous
 62
    40
370
     5
100
AcDbLine
 10
1303.224802099474
 20
-2198.89858869827
 30
0.0
 11
1104.161795054037
 21
-1995.706377589809
 31
0.0
  0
MTEXT
  5
394
330
1F
100
AcDbEntity
  8
0-C_ハッチ
  6
Continuous
 62
     7
370
   211
100
AcDbMText
 10
4074.635942617647
 20
-2647.671945049471
 30
0.0
 40
57.15
 41
75.0
 46
0.0
 71
     7
 72
     1
  1
{\fＭＳ ゴシック|b0|i0|c128|p49;26}
 11
6.123031769111886E-17
 21
1.0
 31
0.0
 73
     1
 44
1.0
  0
LINE
  5
395
330
1F
100
AcDbEntity
  8
0-C_ハッチ
  6
JWW_DASHED1
 62
     7
370
     5
100
AcDbLine
 10
2348.140386621818
 20
-1725.2387060457
 30
0.0
 11
2912.846237763832
 21
-2212.701252028891
 31
0.0
  0
LINE
  5
396
330
1F
100
AcDbEntity
  8
0-C_ハッチ
  6
Continuous
 62
   120
370
     5
100
AcDbLine
 10
2974.5614109867
 20
-2379.12446636078
 30
0.0
 11
3054.599793934055
 21
-2335.290461529971
 31
0.0
  0
LINE
  5
397
330
1F
100
AcDbEntity
  8
0-C_ハッチ
  6
Continuous
 62
   120
370
     5
100
AcDbLine
 10
3054.599793934055
 20
-2335.290461529971
 30
0.0
 11
2913.080548739861
 21
-2213.129090454801
 31
0.0
  0
LWPOLYLINE
  5
398
330
1F
100
AcDbEntity
  8
0-C_ハッチ
  6
Continuous
 62
   120
370
     5
100
AcDbPolyline
 90
        4
 70
     1
 43
3.0
 10
3056.099793934055
 20
-2335.290461529971
 42
0.4142135623731
 10
3054.599793934055
 20
-2333.790461529971
 42
0.4142135623731
 10
3053.099793934055
 20
-2335.290461529971
 42
0.4142135623731
 10
3054.599793934055
 20
-2336.790461529971
 42
0.4142135623731
  0
LINE
  5
399
330
1F
100
AcDbEntity
  8
0-C_ハッチ
  6
Continuous
 62
   120
370
     5
100
AcDbLine
 10
2974.5614109867
 20
-2379.12446636078
 30
0.0
 11
2833.042165792507
 21
-2256.96309528561
 31
0.0
  0
LINE
  5
39A
330
1F
100
AcDbEntity
  8
0-C_ハッチ
  6
Continuous
 62
    40
370
     5
100
AcDbLine
 10
2348.140386621818
 20
-1725.238706045699
 30
0.0
 11
2348.140386621818
 21
-1040.438115401158
 31
0.0
  0
LINE
  5
39B
330
1F
100
AcDbEntity
  8
0-C_ハッチ
  6
Continuous
 62
    40
370
     5
100
AcDbLine
 10
1394.053579501612
 20
-2216.367372759128
 30
0.0
 11
2348.140386621818
 21
-1725.238706045699
 31
0.0
  0
MTEXT
  5
39C
330
1F
100
AcDbEntity
  8
0-C_ハッチ
  6
Continuous
 62
     7
370
   211
100
AcDbMText
 10
3975.51417062214
 20
-2706.922481993882
 30
0.0
 40
57.15
 41
75.0
 46
0.0
 71
     7
 72
     1
  1
{\fＭＳ ゴシック|b0|i0|c128|p49;46}
 11
6.123031769111886E-17
 21
1.0
 31
0.0
 73
     1
 44
1.0
  0
ELLIPSE
  5
39D
330
1F
100
AcDbEntity
  8
0-C_ハッチ
  6
Continuous
 62
     7
370
     5
100
AcDbEllipse
 10
2171.228063696567
 20
-2210.668167513742
 30
0.0
 11
79.69551291525261
 21
0.0
 31
0.0
210
0.0
220
0.0
230
1.0
 40
0.7
 41
0.0
 42
6.283185307179586
  0
LINE
  5
39E
330
1F
100
AcDbEntity
  8
0-C_ハッチ
  6
Continuous
 62
     7
370
     5
100
AcDbLine
 10
2107.693936404342
 20
-1942.95959692975
 30
0.0
 11
2105.523892694688
 21
-1966.523783467799
 31
0.0
  0
LINE
  5
39F
330
1F
100
AcDbEntity
  8
0-C_ハッチ
  6
Continuous
 62
     7
370
     5
100
AcDbLine
 10
2307.599370795557
 20
-1840.510069645858
 30
0.0
 11
2312.518976418899
 21
-1837.988850502784
 31
0.0
  0
LINE
  5
3A0
330
1F
100
AcDbEntity
  8
0-C_ハッチ
  6
Continuous
 62
     7
370
     5
100
AcDbLine
 10
2312.518976418899
 20
-1837.988850502784
 30
0.0
 11
2335.788679521745
 21
-1834.919608710245
 31
0.0
  0
LINE
  5
3A1
330
1F
100
AcDbEntity
  8
0-C_ハッチ
  6
Continuous
 62
     7
370
     5
100
AcDbLine
 10
2335.788679521745
 20
-1834.919608710245
 30
0.0
 11
2452.85135673579
 21
-1925.068940852488
 31
0.0
  0
LINE
  5
3A2
330
1F
100
AcDbEntity
  8
0-C_ハッチ
  6
Continuous
 62
     7
370
     5
100
AcDbLine
 10
2452.85135673579
 20
-1925.068940852488
 30
0.0
 11
2471.454993429561
 21
-1929.59603312704
 31
0.0
  0
LINE
  5
3A3
330
1F
100
AcDbEntity
  8
0-C_ハッチ
  6
Continuous
 62
     7
370
     5
100
AcDbLine
 10
2471.454993429561
 20
-1929.59603312704
 30
0.0
 11
2481.997342931946
 21
-1939.827757722509
 31
0.0
  0
LINE
  5
3A4
330
1F
100
AcDbEntity
  8
0-C_ハッチ
  6
Continuous
 62
     7
370
     5
100
AcDbLine
 10
2481.997342931946
 20
-1939.827757722509
 30
0.0
 11
2495.081383687877
 21
-1942.494250111024
 31
0.0
  0
LINE
  5
3A5
330
1F
100
AcDbEntity
  8
0-C_ハッチ
  6
Continuous
 62
     7
370
     5
100
AcDbLine
 10
2495.081383687877
 20
-1942.494250111024
 30
0.0
 11
2588.858610021788
 21
-2023.450620416856
 31
0.0
  0
LINE
  5
3A6
330
1F
100
AcDbEntity
  8
0-C_ハッチ
  6
Continuous
 62
     7
370
     5
100
AcDbLine
 10
2588.858610021788
 20
-2023.450620416856
 30
0.0
 11
2595.706530973486
 21
-2045.136687666637
 31
0.0
  0
LINE
  5
3A7
330
1F
100
AcDbEntity
  8
0-C_ハッチ
  6
Continuous
 62
     7
370
     5
100
AcDbLine
 10
2595.706530973486
 20
-2045.136687666637
 30
0.0
 11
2627.057993378186
 21
-2068.300683814473
 31
0.0
  0
LINE
  5
3A8
330
1F
100
AcDbEntity
  8
0-C_ハッチ
  6
Continuous
 62
     7
370
     5
100
AcDbLine
 10
2627.057993378186
 20
-2068.300683814473
 30
0.0
 11
2640.979815885595
 21
-2092.640251536513
 31
0.0
  0
LINE
  5
3A9
330
1F
100
AcDbEntity
  8
0-C_ハッチ
  6
Continuous
 62
     7
370
     5
100
AcDbLine
 10
2640.979815885595
 20
-2092.640251536513
 30
0.0
 11
2783.048388647986
 21
-2211.733801478472
 31
0.0
  0
LINE
  5
3AA
330
1F
100
AcDbEntity
  8
0-C_ハッチ
  6
Continuous
 62
     7
370
     5
100
AcDbLine
 10
2783.048388647986
 20
-2211.733801478472
 30
0.0
 11
2779.886234969473
 21
-2236.259586666887
 31
0.0
  0
LINE
  5
3AB
330
1F
100
AcDbEntity
  8
0-C_ハッチ
  6
Continuous
 62
     7
370
     5
100
AcDbLine
 10
2779.886234969473
 20
-2236.259586666887
 30
0.0
 11
2560.534657799826
 21
-2370.546001590243
 31
0.0
  0
LINE
  5
3AC
330
1F
100
AcDbEntity
  8
0-C_ハッチ
  6
Continuous
 62
     7
370
     5
100
AcDbLine
 10
2560.534657799826
 20
-2370.546001590243
 30
0.0
 11
2531.218595609009
 21
-2366.205126782069
 31
0.0
  0
LINE
  5
3AD
330
1F
100
AcDbEntity
  8
0-C_ハッチ
  6
Continuous
 62
     7
370
     5
100
AcDbLine
 10
2531.218595609009
 20
-2366.205126782069
 30
0.0
 11
2518.925093272707
 21
-2359.69401141702
 31
0.0
  0
LINE
  5
3AE
330
1F
100
AcDbEntity
  8
0-C_ハッチ
  6
Continuous
 62
     7
370
     5
100
AcDbLine
 10
2307.599370795557
 20
-1840.510069645858
 30
0.0
 11
2107.693936404342
 21
-1942.95959692975
 31
0.0
  0
LINE
  5
3AF
330
1F
100
AcDbEntity
  8
0-C_ハッチ
  6
Continuous
 62
     7
370
     5
100
AcDbLine
 10
2466.013348989274
 20
-1928.681087266871
 30
0.0
 11
2182.5265866663
 21
-2075.959221601835
 31
0.0
  0
LINE
  5
3B0
330
1F
100
AcDbEntity
  8
0-C_ハッチ
  6
Continuous
 62
     7
370
     5
100
AcDbLine
 10
2581.231174094563
 20
-2058.425252680039
 30
0.0
 11
2327.35495739761
 21
-2201.61053969904
 31
0.0
  0
LINE
  5
3B1
330
1F
100
AcDbEntity
  8
0-C_ハッチ
  6
Continuous
 62
     7
370
     5
100
AcDbLine
 10
2627.802075854828
 20
-2076.749760021462
 30
0.0
 11
2365.647252639978
 21
-2223.79522094706
 31
0.0
  0
LINE
  5
3B2
330
1F
100
AcDbEntity
  8
0-C_ハッチ
  6
Continuous
 62
     7
370
     5
100
AcDbLine
 10
2640.979815885595
 20
-2104.903045707115
 30
0.0
 11
2403.629316669864
 21
-2241.297891161503
 31
0.0
  0
LINE
  5
3B3
330
1F
100
AcDbEntity
  8
0-C_ハッチ
  6
Continuous
 62
     7
370
     5
100
AcDbLine
 10
2327.35495739761
 20
-2201.61053969904
 30
0.0
 11
2430.37219205257
 21
-2265.482540124518
 31
0.0
  0
LINE
  5
3B4
330
1F
100
AcDbEntity
  8
0-C_ハッチ
  6
Continuous
 62
     7
370
     5
100
AcDbLine
 10
2430.37219205257
 20
-2265.482540124518
 30
0.0
 11
2452.91356045606
 21
-2290.674849986457
 31
0.0
  0
LINE
  5
3B5
330
1F
100
AcDbEntity
  8
0-C_ハッチ
  6
Continuous
 62
     7
370
     5
100
AcDbLine
 10
2113.35290017114
 20
-1971.143787628321
 30
0.0
 11
2138.963510367169
 21
-1994.429238508453
 31
0.0
  0
LINE
  5
3B6
330
1F
100
AcDbEntity
  8
0-C_ハッチ
  6
Continuous
 62
     7
370
     5
100
AcDbLine
 10
2138.963510367169
 20
-1994.429238508453
 30
0.0
 11
2190.619369412249
 21
-2094.717777054631
 31
0.0
  0
LINE
  5
3B7
330
1F
100
AcDbEntity
  8
0-C_ハッチ
  6
Continuous
 62
     7
370
     5
100
AcDbLine
 10
2190.619369412249
 20
-2094.717777054631
 30
0.0
 11
2325.370737459898
 21
-2215.76464192138
 31
0.0
  0
LINE
  5
3B8
330
1F
100
AcDbEntity
  8
0-C_ハッチ
  6
Continuous
 62
     7
370
     5
100
AcDbLine
 10
2325.370737459898
 20
-2215.76464192138
 30
0.0
 11
2470.680202787216
 21
-2310.332603522136
 31
0.0
  0
LINE
  5
3B9
330
1F
100
AcDbEntity
  8
0-C_ハッチ
  6
Continuous
 62
     7
370
     5
100
AcDbLine
 10
2470.680202787216
 20
-2310.332603522136
 30
0.0
 11
2518.925093272707
 21
-2359.69401141702
 31
0.0
  0
LINE
  5
3BA
330
1F
100
AcDbEntity
  8
0-C_ハッチ
  6
Continuous
 62
     7
370
     5
100
AcDbLine
 10
2451.254532119252
 20
-2308.596214229425
 30
0.0
 11
2315.418142216777
 21
-2224.35328280454
 31
0.0
  0
LINE
  5
3BB
330
1F
100
AcDbEntity
  8
0-C_ハッチ
  6
Continuous
 62
     7
370
     5
100
AcDbLine
 10
2315.418142216777
 20
-2224.35328280454
 30
0.0
 11
2184.929697479748
 21
-2103.228860134672
 31
0.0
  0
LINE
  5
3BC
330
1F
100
AcDbEntity
  8
0-C_ハッチ
  6
Continuous
 62
     7
370
     5
100
AcDbLine
 10
2184.929697479748
 20
-2103.228860134672
 30
0.0
 11
2135.350970258355
 21
-2002.025572575544
 31
0.0
  0
LINE
  5
3BD
330
1F
100
AcDbEntity
  8
0-C_ハッチ
  6
Continuous
 62
     7
370
     5
100
AcDbLine
 10
2126.220408989426
 20
-2007.7772513811
 30
0.0
 11
1927.488184005825
 21
-2121.119122517503
 31
0.0
  0
LINE
  5
3BE
330
1F
100
AcDbEntity
  8
0-C_ハッチ
  6
Continuous
 62
     7
370
     5
100
AcDbLine
 10
2177.875480645641
 20
-2108.050238997204
 30
0.0
 11
2034.799050137112
 21
-2185.006870720264
 31
0.0
  0
LINE
  5
3BF
330
1F
100
AcDbEntity
  8
0-C_ハッチ
  6
Continuous
 62
     7
370
     5
100
AcDbLine
 10
2307.248195362135
 20
-2232.383861830223
 30
0.0
 11
2164.170977464744
 21
-2309.355847636131
 31
0.0
  0
LINE
  5
3C0
330
1F
100
AcDbEntity
  8
0-C_ハッチ
  6
Continuous
 62
     7
370
     5
100
AcDbLine
 10
2426.707659878848
 20
-2317.697246528855
 30
0.0
 11
2226.579099675997
 21
-2425.361435990088
 31
0.0
  0
LINE
  5
3C1
330
1F
100
AcDbEntity
  8
0-C_ハッチ
  6
Continuous
 62
     7
370
     5
100
AcDbLine
 10
2210.633219561752
 20
-2444.153868473982
 30
0.0
 11
2144.06421542927
 21
-2308.208622061034
 31
0.0
  0
LINE
  5
3C2
330
1F
100
AcDbEntity
  8
0-C_ハッチ
  6
Continuous
 62
     7
370
     5
100
AcDbLine
 10
1906.884579597062
 20
-2129.831777146773
 30
0.0
 11
2009.62229120524
 21
-2178.681579127162
 31
0.0
  0
LINE
  5
3C3
330
1F
100
AcDbEntity
  8
0-C_ハッチ
  6
Continuous
 62
     7
370
     5
100
AcDbLine
 10
2009.62229120524
 20
-2178.681579127162
 30
0.0
 11
2144.06421542927
 21
-2308.208622061034
 31
0.0
  0
LINE
  5
3C4
330
1F
100
AcDbEntity
  8
0-C_ハッチ
  6
Continuous
 62
     7
370
     5
100
AcDbLine
 10
2173.286578345253
 20
-2418.775537992885
 30
0.0
 11
2136.002140849022
 21
-2351.632330531206
 31
0.0
  0
LINE
  5
3C5
330
1F
100
AcDbEntity
  8
0-C_ハッチ
  6
Continuous
 62
     7
370
     5
100
AcDbLine
 10
2136.002140849022
 20
-2351.632330531206
 30
0.0
 11
1995.917788024343
 21
-2204.401045833662
 31
0.0
  0
LINE
  5
3C6
330
1F
100
AcDbEntity
  8
0-C_ハッチ
  6
Continuous
 62
     7
370
     5
100
AcDbLine
 10
1995.917788024343
 20
-2204.401045833662
 30
0.0
 11
1961.37740071975
 21
-2187.905839670927
 31
0.0
  0
LINE
  5
3C7
330
1F
100
AcDbEntity
  8
0-C_ハッチ
  6
Continuous
 62
     7
370
     5
100
AcDbLine
 10
2493.260221527642
 20
-1944.216845371821
 30
0.0
 11
2199.748224250198
 21
-2096.703328372752
 31
0.0
  0
LINE
  5
3C8
330
1F
100
AcDbEntity
  8
0-C_ハッチ
  6
Continuous
 62
     7
370
     5
100
AcDbLine
 10
2479.922107762985
 20
-1940.905891887291
 30
0.0
 11
2191.344261795574
 21
-2090.828965600556
 31
0.0
  0
LINE
  5
3C9
330
1F
100
AcDbEntity
  8
0-C_ハッチ
  6
Continuous
 62
     7
370
     5
100
AcDbLine
 10
2307.26160656187
 20
-2182.270332984806
 30
0.0
 11
2584.957485244451
 21
-2025.650840972202
 31
0.0
  0
LINE
  5
3CA
330
1F
100
AcDbEntity
  8
0-C_ハッチ
  6
Continuous
 62
     7
370
     5
100
AcDbLine
 10
2450.504792924452
 20
-1926.28803671723
 30
0.0
 11
2182.938922863577
 21
-2065.294887800386
 31
0.0
  0
LINE
  5
3CB
330
1F
100
AcDbEntity
  8
0-C_ハッチ
  6
Continuous
 62
     7
370
     5
100
AcDbLine
 10
2518.925093272707
 20
-2359.69401141702
 30
0.0
 11
2518.925093272707
 21
-2365.694011417021
 31
0.0
  0
LINE
  5
3CC
330
1F
100
AcDbEntity
  8
0-C_ハッチ
  6
Continuous
 62
     7
370
     5
100
AcDbLine
 10
2560.534657799826
 20
-2370.546001590243
 30
0.0
 11
2560.534657799826
 21
-2376.546001590245
 31
0.0
  0
LINE
  5
3CD
330
1F
100
AcDbEntity
  8
0-C_ハッチ
  6
Continuous
 62
     7
370
     5
100
AcDbLine
 10
2560.534657799826
 20
-2376.546001590245
 30
0.0
 11
2531.218595609009
 21
-2372.205072898172
 31
0.0
  0
LINE
  5
3CE
330
1F
100
AcDbEntity
  8
0-C_ハッチ
  6
Continuous
 62
     7
370
     5
100
AcDbLine
 10
2531.218595609009
 20
-2366.205126782069
 30
0.0
 11
2531.218595609009
 21
-2372.205072898172
 31
0.0
  0
LINE
  5
3CF
330
1F
100
AcDbEntity
  8
0-C_ハッチ
  6
Continuous
 62
     7
370
     5
100
AcDbLine
 10
2531.218595609009
 20
-2372.205072898172
 30
0.0
 11
2518.92503174683
 21
-2365.693911406701
 31
0.0
  0
LINE
  5
3D0
330
1F
100
AcDbEntity
  8
0-C_ハッチ
  6
Continuous
 62
     7
370
     5
100
AcDbLine
 10
2560.534657799826
 20
-2376.546001590245
 30
0.0
 11
2779.886234969473
 21
-2242.259586666888
 31
0.0
  0
LINE
  5
3D1
330
1F
100
AcDbEntity
  8
0-C_ハッチ
  6
Continuous
 62
     7
370
     5
100
AcDbLine
 10
2779.886234969473
 20
-2242.259586666888
 30
0.0
 11
2779.886234969473
 21
-2236.259586666887
 31
0.0
  0
LINE
  5
3D2
330
1F
100
AcDbEntity
  8
0-C_ハッチ
  6
Continuous
 62
     7
370
     5
100
AcDbLine
 10
2783.048388647986
 20
-2211.733801478472
 30
0.0
 11
2783.048388647986
 21
-2217.73380147847
 31
0.0
  0
LINE
  5
3D3
330
1F
100
AcDbEntity
  8
0-C_ハッチ
  6
Continuous
 62
     7
370
     5
100
AcDbLine
 10
2783.048388647986
 20
-2217.73380147847
 30
0.0
 11
2779.886234969473
 21
-2242.259586666888
 31
0.0
  0
ELLIPSE
  5
3D4
330
1F
100
AcDbEntity
  8
0-C_ハッチ
  6
Continuous
 62
     7
370
     5
100
AcDbEllipse
 10
2475.786543196066
 20
-2018.956619365635
 30
0.0
 11
45.7135540476191
 21
0.0
 31
0.0
210
0.0
220
0.0
230
1.0
 40
0.7
 41
0.0
 42
6.283185307179586
  0
ARC
  5
3D5
330
1F
100
AcDbEntity
  8
0-C_ハッチ
  6
Continuous
 62
     7
370
     5
100
AcDbCircle
 10
2249.661259375339
 20
-1951.576514706913
 30
0.0
 40
12.0
100
AcDbArc
 50
117.3949267100002
 51
230.1598717470478
  0
LINE
  5
3D6
330
1F
100
AcDbEntity
  8
0-C_ハッチ
  6
Continuous
 62
     7
370
     5
100
AcDbLine
 10
2252.856382623578
 20
-1969.870741628649
 30
0.0
 11
2241.97348787192
 21
-1960.790534964716
 31
0.0
  0
ARC
  5
3D7
330
1F
100
AcDbEntity
  8
0-C_ハッチ
  6
Continuous
 62
     7
370
     5
100
AcDbCircle
 10
2260.544154126997
 20
-1960.656721370844
 30
0.0
 40
12.0
100
AcDbArc
 50
230.159871747048
 51
297.3949267103217
  0
LINE
  5
3D8
330
1F
100
AcDbEntity
  8
0-C_ハッチ
  6
Continuous
 62
     7
370
     5
100
AcDbLine
 10
2357.309413899263
 20
-1924.024947921507
 30
0.0
 11
2266.065608176912
 21
-1971.310994934756
 31
0.0
  0
ARC
  5
3D9
330
1F
100
AcDbEntity
  8
0-C_ハッチ
  6
Continuous
 62
     7
370
     5
100
AcDbCircle
 10
2351.787959849351
 20
-1913.370674357594
 30
0.0
 40
12.0
100
AcDbArc
 50
297.3949267103216
 51
50.15987174704777
  0
LINE
  5
3DA
330
1F
100
AcDbEntity
  8
0-C_ハッチ
  6
Continuous
 62
     7
370
     5
100
AcDbLine
 10
2348.592836601591
 20
-1895.076447436261
 30
0.0
 11
2359.47573135277
 21
-1904.156654099793
 31
0.0
  0
LINE
  5
3DB
330
1F
100
AcDbEntity
  8
0-C_ハッチ
  6
Continuous
 62
     7
370
     5
100
AcDbLine
 10
2335.38361104832
 20
-1893.63619413012
 30
0.0
 11
2244.139805325485
 21
-1940.922241142969
 31
0.0
  0
ARC
  5
3DC
330
1F
100
AcDbEntity
  8
0-C_ハッチ
  6
Continuous
 62
     7
370
     5
100
AcDbCircle
 10
2340.905065098174
 20
-1904.290467694065
 30
0.0
 40
12.0
100
AcDbArc
 50
50.15987174704691
 51
117.3949267100002
  0
ARC
  5
3DD
330
1F
100
AcDbEntity
  8
0-C_ハッチ
  6
Continuous
 62
     7
370
     5
100
AcDbCircle
 10
2553.934771876477
 20
-2217.842553801503
 30
0.0
 40
12.0
100
AcDbArc
 50
117.3949267100002
 51
230.1598717470478
  0
LINE
  5
3DE
330
1F
100
AcDbEntity
  8
0-C_ハッチ
  6
Continuous
 62
     7
370
     5
100
AcDbLine
 10
2557.129895124714
 20
-2236.136780723239
 30
0.0
 11
2546.247000373056
 21
-2227.056574059308
 31
0.0
  0
ARC
  5
3DF
330
1F
100
AcDbEntity
  8
0-C_ハッチ
  6
Continuous
 62
     7
370
     5
100
AcDbCircle
 10
2564.817666628135
 20
-2226.922760465434
 30
0.0
 40
12.0
100
AcDbArc
 50
230.159871747048
 51
297.3949267103217
  0
LINE
  5
3E0
330
1F
100
AcDbEntity
  8
0-C_ハッチ
  6
Continuous
 62
     7
370
     5
100
AcDbLine
 10
2661.582926400401
 20
-2190.290987016099
 30
0.0
 11
2570.339120678049
 21
-2237.577034029347
 31
0.0
  0
ARC
  5
3E1
330
1F
100
AcDbEntity
  8
0-C_ハッチ
  6
Continuous
 62
     7
370
     5
100
AcDbCircle
 10
2656.061472350488
 20
-2179.636713452186
 30
0.0
 40
12.0
100
AcDbArc
 50
297.3949267103216
 51
50.15987174704777
  0
LINE
  5
3E2
330
1F
100
AcDbEntity
  8
0-C_ハッチ
  6
Continuous
 62
     7
370
     5
100
AcDbLine
 10
2652.86634910273
 20
-2161.34248653085
 30
0.0
 11
2663.749243853908
 21
-2170.422693194382
 31
0.0
  0
LINE
  5
3E3
330
1F
100
AcDbEntity
  8
0-C_ハッチ
  6
Continuous
 62
     7
370
     5
100
AcDbLine
 10
2639.657123549456
 20
-2159.902233224711
 30
0.0
 11
2548.413317826623
 21
-2207.18828023756
 31
0.0
  0
ARC
  5
3E4
330
1F
100
AcDbEntity
  8
0-C_ハッチ
  6
Continuous
 62
     7
370
     5
100
AcDbCircle
 10
2645.178577599309
 20
-2170.556506788655
 30
0.0
 40
12.0
100
AcDbArc
 50
50.15987174704691
 51
117.3949267100002
  0
ELLIPSE
  5
3E5
330
1F
100
AcDbEntity
  8
0-C_ハッチ
  6
Continuous
 62
     7
370
     5
100
AcDbEllipse
 10
2171.536040904647
 20
-2232.993290992223
 30
0.0
 11
79.69551291525261
 21
0.0
 31
0.0
210
0.0
220
0.0
230
1.0
 40
0.7
 41
0.2111186597640594
 42
2.949786527099673
  0
LINE
  5
3E6
330
1F
100
AcDbEntity
  8
0-C_ハッチ
  6
Continuous
 62
     7
370
     5
100
AcDbLine
 10
2340.905065098174
 20
-1892.290467694066
 30
0.0
 11
2340.905065098174
 21
-1898.290467694068
 31
0.0
  0
ARC
  5
3E7
330
1F
100
AcDbEntity
  8
0-C_ハッチ
  6
Continuous
 62
     7
370
     5
100
AcDbCircle
 10
2340.905065098174
 20
-1910.290467694067
 30
0.0
 40
12.0
100
AcDbArc
 50
50.15987174704691
 51
117.3949267100002
  0
LINE
  5
3E8
330
1F
100
AcDbEntity
  8
0-C_ハッチ
  6
Continuous
 62
     7
370
     5
100
AcDbLine
 10
2348.592836601591
 20
-1901.076447436262
 30
0.0
 11
2359.47573135277
 21
-1910.156654099794
 31
0.0
  0
LINE
  5
3E9
330
1F
100
AcDbEntity
  8
0-C_ハッチ
  6
Continuous
 62
     7
370
     5
100
AcDbLine
 10
2335.38361104832
 20
-1899.636194130121
 30
0.0
 11
2244.139805325485
 21
-1946.92224114297
 31
0.0
  0
ARC
  5
3EA
330
1F
100
AcDbEntity
  8
0-C_ハッチ
  6
Continuous
 62
     7
370
     5
100
AcDbCircle
 10
2351.787959849351
 20
-1919.370674357595
 30
0.0
 40
12.0
100
AcDbArc
 50
20.75540117989427
 51
50.15987174704777
  0
LINE
  5
3EB
330
1F
100
AcDbEntity
  8
0-C_ハッチ
  6
Continuous
 62
     7
370
     5
100
AcDbLine
 10
2335.383611048318
 20
-1893.636194130121
 30
0.0
 11
2335.383611048318
 21
-1899.636194130121
 31
0.0
  0
LINE
  5
3EC
330
1F
100
AcDbEntity
  8
0-C_ハッチ
  6
Continuous
 62
     7
370
     5
100
AcDbLine
 10
2337.853027971566
 20
-1892.6850780247
 30
0.0
 11
2337.853027971566
 21
-1898.685078024701
 31
0.0
  0
LINE
  5
3ED
330
1F
100
AcDbEntity
  8
0-C_ハッチ
  6
Continuous
 62
     7
370
     5
100
AcDbLine
 10
2339.304053345943
 20
-1892.397748855666
 30
0.0
 11
2339.304053345943
 21
-1898.397748855667
 31
0.0
  0
LINE
  5
3EE
330
1F
100
AcDbEntity
  8
0-C_ハッチ
  6
Continuous
 62
     7
370
     5
100
AcDbLine
 10
2342.656422314328
 20
-1892.41895776898
 30
0.0
 11
2342.656422314328
 21
-1898.418957768981
 31
0.0
  0
LINE
  5
3EF
330
1F
100
AcDbEntity
  8
0-C_ハッチ
  6
Continuous
 62
     7
370
     5
100
AcDbLine
 10
2344.282571440784
 20
-1892.775588150379
 30
0.0
 11
2344.282571440784
 21
-1898.775588150381
 31
0.0
  0
LINE
  5
3F0
330
1F
100
AcDbEntity
  8
0-C_ハッチ
  6
Continuous
 62
     7
370
     5
100
AcDbLine
 10
2348.592836601591
 20
-1895.076447436261
 30
0.0
 11
2348.592836601591
 21
-1901.076447436264
 31
0.0
  0
LINE
  5
3F1
330
1F
100
AcDbEntity
  8
0-C_ハッチ
  6
Continuous
 62
     7
370
     5
100
AcDbLine
 10
2244.139805325485
 20
-1940.922241142969
 30
0.0
 11
2244.139805325485
 21
-1946.92224114297
 31
0.0
  0
LINE
  5
3F2
330
1F
100
AcDbEntity
  8
0-C_ハッチ
  6
Continuous
 62
     7
370
     5
100
AcDbLine
 10
2239.892104173502
 20
-1944.60775537383
 30
0.0
 11
2239.892104173502
 21
-1950.607755373832
 31
0.0
  0
LINE
  5
3F3
330
1F
100
AcDbEntity
  8
0-C_ハッチ
  6
Continuous
 62
     7
370
     5
100
AcDbLine
 10
2238.691255587811
 20
-1946.712461160577
 30
0.0
 11
2238.691255587811
 21
-1952.712461160578
 31
0.0
  0
ARC
  5
3F4
330
1F
100
AcDbEntity
  8
0-C_ハッチ
  6
Continuous
 62
     7
370
     5
100
AcDbCircle
 10
2249.661259375339
 20
-1957.576514706914
 30
0.0
 40
12.0
100
AcDbArc
 50
117.3949267100002
 51
165.5224878140668
  0
LINE
  5
3F5
330
1F
100
AcDbEntity
  8
0-C_ハッチ
  6
Continuous
 62
     7
370
     5
100
AcDbLine
 10
2645.178577599312
 20
-2158.556506788656
 30
0.0
 11
2645.178577599312
 21
-2164.556506788657
 31
0.0
  0
ARC
  5
3F6
330
1F
100
AcDbEntity
  8
0-C_ハッチ
  6
Continuous
 62
     7
370
     5
100
AcDbCircle
 10
2645.178577599312
 20
-2176.556506788656
 30
0.0
 40
12.0
100
AcDbArc
 50
50.15987174704691
 51
117.3949267100002
  0
LINE
  5
3F7
330
1F
100
AcDbEntity
  8
0-C_ハッチ
  6
Continuous
 62
     7
370
     5
100
AcDbLine
 10
2652.86634910273
 20
-2167.342486530852
 30
0.0
 11
2663.749243853908
 21
-2176.422693194384
 31
0.0
  0
LINE
  5
3F8
330
1F
100
AcDbEntity
  8
0-C_ハッチ
  6
Continuous
 62
     7
370
     5
100
AcDbLine
 10
2639.657123549458
 20
-2165.90223322471
 30
0.0
 11
2548.413317826623
 21
-2213.18828023756
 31
0.0
  0
ARC
  5
3F9
330
1F
100
AcDbEntity
  8
0-C_ハッチ
  6
Continuous
 62
     7
370
     5
100
AcDbCircle
 10
2656.061472350488
 20
-2185.636713452185
 30
0.0
 40
12.0
100
AcDbArc
 50
20.75540117989427
 51
50.15987174704777
  0
LINE
  5
3FA
330
1F
100
AcDbEntity
  8
0-C_ハッチ
  6
Continuous
 62
     7
370
     5
100
AcDbLine
 10
2639.657123549456
 20
-2159.902233224711
 30
0.0
 11
2639.657123549456
 21
-2165.90223322471
 31
0.0
  0
LINE
  5
3FB
330
1F
100
AcDbEntity
  8
0-C_ハッチ
  6
Continuous
 62
     7
370
     5
100
AcDbLine
 10
2642.126540472705
 20
-2158.95111711929
 30
0.0
 11
2642.126540472705
 21
-2164.951117119291
 31
0.0
  0
LINE
  5
3FC
330
1F
100
AcDbEntity
  8
0-C_ハッチ
  6
Continuous
 62
     7
370
     5
100
AcDbLine
 10
2643.577565847081
 20
-2158.663787950255
 30
0.0
 11
2643.577565847081
 21
-2164.663787950257
 31
0.0
  0
LINE
  5
3FD
330
1F
100
AcDbEntity
  8
0-C_ハッチ
  6
Continuous
 62
     7
370
     5
100
AcDbLine
 10
2646.929934815466
 20
-2158.684996863569
 30
0.0
 11
2646.929934815466
 21
-2164.684996863571
 31
0.0
  0
LINE
  5
3FE
330
1F
100
AcDbEntity
  8
0-C_ハッチ
  6
Continuous
 62
     7
370
     5
100
AcDbLine
 10
2648.556083941922
 20
-2159.041627244969
 30
0.0
 11
2648.556083941922
 21
-2165.04162724497
 31
0.0
  0
LINE
  5
3FF
330
1F
100
AcDbEntity
  8
0-C_ハッチ
  6
Continuous
 62
     7
370
     5
100
AcDbLine
 10
2652.86634910273
 20
-2161.34248653085
 30
0.0
 11
2652.86634910273
 21
-2167.342486530853
 31
0.0
  0
LINE
  5
400
330
1F
100
AcDbEntity
  8
0-C_ハッチ
  6
Continuous
 62
     7
370
     5
100
AcDbLine
 10
2548.413317826623
 20
-2207.188280237559
 30
0.0
 11
2548.413317826623
 21
-2213.18828023756
 31
0.0
  0
LINE
  5
401
330
1F
100
AcDbEntity
  8
0-C_ハッチ
  6
Continuous
 62
     7
370
     5
100
AcDbLine
 10
2544.16561667464
 20
-2210.87379446842
 30
0.0
 11
2544.16561667464
 21
-2216.873794468422
 31
0.0
  0
LINE
  5
402
330
1F
100
AcDbEntity
  8
0-C_ハッチ
  6
Continuous
 62
     7
370
     5
100
AcDbLine
 10
2542.964768088949
 20
-2212.978500255167
 30
0.0
 11
2542.964768088949
 21
-2218.978500255168
 31
0.0
  0
ARC
  5
403
330
1F
100
AcDbEntity
  8
0-C_ハッチ
  6
Continuous
 62
     7
370
     5
100
AcDbCircle
 10
2553.934771876477
 20
-2223.842553801504
 30
0.0
 40
12.0
100
AcDbArc
 50
117.3949267100002
 51
165.5224878140668
  0
LINE
  5
404
330
1F
100
AcDbEntity
  8
0-C_ハッチ
  6
Continuous
 62
     7
370
     5
100
AcDbLine
 10
2449.703198016545
 20
-2029.687100584648
 30
0.0
 11
2459.094683522045
 21
-2035.724484123899
 31
0.0
  0
LINE
  5
405
330
1F
100
AcDbEntity
  8
0-C_ハッチ
  6
Continuous
 62
     7
370
     5
100
AcDbLine
 10
2501.869888375587
 20
-2029.687100584648
 30
0.0
 11
2492.478402870091
 21
-2035.724484123899
 31
0.0
  0
LINE
  5
406
330
1F
100
AcDbEntity
  8
0-C_ハッチ
  6
Continuous
 62
     7
370
     5
100
AcDbLine
 10
2492.478402870091
 20
-2002.18875460737
 30
0.0
 11
2501.869888375587
 21
-2008.226138146621
 31
0.0
  0
LINE
  5
407
330
1F
100
AcDbEntity
  8
0-C_ハッチ
  6
Continuous
 62
     7
370
     5
100
AcDbLine
 10
2459.094683522045
 20
-2002.18875460737
 30
0.0
 11
2449.703198016545
 21
-2008.226138146621
 31
0.0
  0
LINE
  5
408
330
1F
100
AcDbEntity
  8
0-C_ハッチ
  6
Continuous
 62
     7
370
     5
100
AcDbLine
 10
2492.478402870091
 20
-2002.18875460737
 30
0.0
 11
2475.786543196067
 21
-2012.919235826386
 31
0.0
  0
LINE
  5
409
330
1F
100
AcDbEntity
  8
0-C_ハッチ
  6
Continuous
 62
     7
370
     5
100
AcDbLine
 10
2466.395057690567
 20
-2018.956619365635
 30
0.0
 11
2449.703198016545
 21
-2029.687100584648
 31
0.0
  0
LINE
  5
40A
330
1F
100
AcDbEntity
  8
0-C_ハッチ
  6
Continuous
 62
     7
370
     5
100
AcDbLine
 10
2459.094683522045
 20
-2002.18875460737
 30
0.0
 11
2475.786543196067
 21
-2012.919235826386
 31
0.0
  0
LINE
  5
40B
330
1F
100
AcDbEntity
  8
0-C_ハッチ
  6
Continuous
 62
     7
370
     5
100
AcDbLine
 10
2485.178028701568
 20
-2018.956619365635
 30
0.0
 11
2501.869888375587
 21
-2029.687100584648
 31
0.0
  0
LINE
  5
40C
330
1F
100
AcDbEntity
  8
0-C_ハッチ
  6
Continuous
 62
     7
370
     5
100
AcDbLine
 10
2501.869888375587
 20
-2008.226138146621
 30
0.0
 11
2485.178028701568
 21
-2018.956619365635
 31
0.0
  0
LINE
  5
40D
330
1F
100
AcDbEntity
  8
0-C_ハッチ
  6
Continuous
 62
     7
370
     5
100
AcDbLine
 10
2475.786543196067
 20
-2024.994002904883
 30
0.0
 11
2459.094683522045
 21
-2035.724484123899
 31
0.0
  0
LINE
  5
40E
330
1F
100
AcDbEntity
  8
0-C_ハッチ
  6
Continuous
 62
     7
370
     5
100
AcDbLine
 10
2449.703198016545
 20
-2008.226138146621
 30
0.0
 11
2466.395057690567
 21
-2018.956619365635
 31
0.0
  0
LINE
  5
40F
330
1F
100
AcDbEntity
  8
0-C_ハッチ
  6
Continuous
 62
     7
370
     5
100
AcDbLine
 10
2475.786543196067
 20
-2024.994002904883
 30
0.0
 11
2492.478402870091
 21
-2035.724484123899
 31
0.0
  0
LINE
  5
410
330
1F
100
AcDbEntity
  8
0-C_ハッチ
  6
Continuous
 62
     7
370
     5
100
AcDbLine
 10
2621.681034411122
 20
-2190.841831908541
 30
0.0
 11
2621.681034411122
 21
-1970.117081239694
 31
0.0
  0
LINE
  5
411
330
1F
100
AcDbEntity
  8
0-C_ハッチ
  6
Continuous
 62
     7
370
     5
100
AcDbLine
 10
2317.407521909984
 20
-1924.575792813951
 30
0.0
 11
2317.407521909984
 21
-1703.851042145104
 31
0.0
  0
ELLIPSE
  5
412
330
1F
100
AcDbEntity
  8
0-C_ハッチ
  6
Continuous
 62
     7
370
     5
100
AcDbEllipse
 10
2621.681034410909
 20
-1793.902992507455
 30
0.0
 11
26.15375705822504
 21
0.0
 31
0.0
210
0.0
220
0.0
230
1.0
 40
0.6
 41
0.0
 42
6.283185307179586
  0
LINE
  5
413
330
1F
100
AcDbEntity
  8
0-C_ハッチ
  6
Continuous
 62
     7
370
     5
100
AcDbLine
 10
2608.639361821147
 20
-1799.268233116962
 30
0.0
 11
2613.335104573897
 21
-1802.286924886586
 31
0.0
  0
LINE
  5
414
330
1F
100
AcDbEntity
  8
0-C_ハッチ
  6
Continuous
 62
     7
370
     5
100
AcDbLine
 10
2634.722707000668
 20
-1799.268233116962
 30
0.0
 11
2630.02696424792
 21
-1802.286924886586
 31
0.0
  0
LINE
  5
415
330
1F
100
AcDbEntity
  8
0-C_ハッチ
  6
Continuous
 62
     7
370
     5
100
AcDbLine
 10
2630.02696424792
 20
-1785.519060128324
 30
0.0
 11
2634.722707000668
 21
-1788.537751897948
 31
0.0
  0
LINE
  5
416
330
1F
100
AcDbEntity
  8
0-C_ハッチ
  6
Continuous
 62
     7
370
     5
100
AcDbLine
 10
2613.335104573897
 20
-1785.519060128324
 30
0.0
 11
2608.639361821147
 21
-1788.537751897948
 31
0.0
  0
LINE
  5
417
330
1F
100
AcDbEntity
  8
0-C_ハッチ
  6
Continuous
 62
     7
370
     5
100
AcDbLine
 10
2630.02696424792
 20
-1785.519060128324
 30
0.0
 11
2621.681034410909
 21
-1790.88430073783
 31
0.0
  0
LINE
  5
418
330
1F
100
AcDbEntity
  8
0-C_ハッチ
  6
Continuous
 62
     7
370
     5
100
AcDbLine
 10
2616.985291658158
 20
-1793.902992507455
 30
0.0
 11
2608.639361821147
 21
-1799.268233116962
 31
0.0
  0
LINE
  5
419
330
1F
100
AcDbEntity
  8
0-C_ハッチ
  6
Continuous
 62
     7
370
     5
100
AcDbLine
 10
2613.335104573897
 20
-1785.519060128324
 30
0.0
 11
2621.681034410909
 21
-1790.88430073783
 31
0.0
  0
LINE
  5
41A
330
1F
100
AcDbEntity
  8
0-C_ハッチ
  6
Continuous
 62
     7
370
     5
100
AcDbLine
 10
2626.376777163659
 20
-1793.902992507455
 30
0.0
 11
2634.722707000668
 21
-1799.268233116962
 31
0.0
  0
LINE
  5
41B
330
1F
100
AcDbEntity
  8
0-C_ハッチ
  6
Continuous
 62
     7
370
     5
100
AcDbLine
 10
2634.722707000668
 20
-1788.537751897948
 30
0.0
 11
2626.376777163659
 21
-1793.902992507455
 31
0.0
  0
LINE
  5
41C
330
1F
100
AcDbEntity
  8
0-C_ハッチ
  6
Continuous
 62
     7
370
     5
100
AcDbLine
 10
2621.681034410909
 20
-1796.921684277079
 30
0.0
 11
2613.335104573897
 21
-1802.286924886586
 31
0.0
  0
LINE
  5
41D
330
1F
100
AcDbEntity
  8
0-C_ハッチ
  6
Continuous
 62
     7
370
     5
100
AcDbLine
 10
2608.639361821147
 20
-1788.537751897948
 30
0.0
 11
2616.985291658158
 21
-1793.902992507455
 31
0.0
  0
LINE
  5
41E
330
1F
100
AcDbEntity
  8
0-C_ハッチ
  6
Continuous
 62
     7
370
     5
100
AcDbLine
 10
2621.681034410909
 20
-1796.921684277079
 30
0.0
 11
2630.02696424792
 21
-1802.286924886586
 31
0.0
  0
LINE
  5
41F
330
1F
100
AcDbEntity
  8
0-C_ハッチ
  6
Continuous
 62
     7
370
     5
100
AcDbLine
 10
2608.669965894041
 20
-1942.932252838522
 30
0.0
 11
2621.681034411122
 21
-1965.468084570869
 31
0.0
  0
LINE
  5
420
330
1F
100
AcDbEntity
  8
0-C_ハッチ
  6
Continuous
 62
     7
370
     5
100
AcDbLine
 10
2634.692102928205
 20
-1942.932252838522
 30
0.0
 11
2621.681034411122
 21
-1965.468084570869
 31
0.0
  0
LINE
  5
421
330
1F
100
AcDbEntity
  8
0-C_ハッチ
  6
Continuous
 62
     7
370
     5
100
AcDbLine
 10
2634.692102928205
 20
-1853.825601736565
 30
0.0
 11
2608.669965894041
 21
-1866.295950523069
 31
0.0
  0
LINE
  5
422
330
1F
100
AcDbEntity
  8
0-C_ハッチ
  6
Continuous
 62
     7
370
     5
100
AcDbLine
 10
2634.692102928205
 20
-1926.80729059678
 30
0.0
 11
2608.669965894041
 21
-1939.277639383282
 31
0.0
  0
LINE
  5
423
330
1F
100
AcDbEntity
  8
0-C_ハッチ
  6
Continuous
 62
     7
370
     5
100
AcDbLine
 10
2634.692102928205
 20
-1914.643675786744
 30
0.0
 11
2608.669965894041
 21
-1927.114024573247
 31
0.0
  0
LINE
  5
424
330
1F
100
AcDbEntity
  8
0-C_ハッチ
  6
Continuous
 62
     7
370
     5
100
AcDbLine
 10
2634.692102928205
 20
-1890.316446166672
 30
0.0
 11
2608.669965894041
 21
-1902.786794953176
 31
0.0
  0
LINE
  5
425
330
1F
100
AcDbEntity
  8
0-C_ハッチ
  6
Continuous
 62
     7
370
     5
100
AcDbLine
 10
2634.692102928205
 20
-1902.480060976709
 30
0.0
 11
2608.669965894041
 21
-1914.950409763209
 31
0.0
  0
LINE
  5
426
330
1F
100
AcDbEntity
  8
0-C_ハッチ
  6
Continuous
 62
     7
370
     5
100
AcDbLine
 10
2634.692102928205
 20
-1878.152831356637
 30
0.0
 11
2608.669965894041
 21
-1890.623180143139
 31
0.0
  0
LINE
  5
427
330
1F
100
AcDbEntity
  8
0-C_ハッチ
  6
Continuous
 62
     7
370
     5
100
AcDbLine
 10
2634.692102928205
 20
-1865.9892165466
 30
0.0
 11
2608.669965894041
 21
-1878.459565333104
 31
0.0
  0
LINE
  5
428
330
1F
100
AcDbEntity
  8
0-C_ハッチ
  6
Continuous
 62
     7
370
     5
100
AcDbLine
 10
2634.692102928205
 20
-1817.334757311757
 30
0.0
 11
2608.669965894041
 21
-1829.80510609826
 31
0.0
  0
LINE
  5
429
330
1F
100
AcDbEntity
  8
0-C_ハッチ
  6
Continuous
 62
     7
370
     5
100
AcDbLine
 10
2634.692102928205
 20
-1829.498372120027
 30
0.0
 11
2608.669965894041
 21
-1841.968720906531
 31
0.0
  0
LINE
  5
42A
330
1F
100
AcDbEntity
  8
0-C_ハッチ
  6
Continuous
 62
     7
370
     5
100
AcDbLine
 10
2634.692102928205
 20
-1841.661986928295
 30
0.0
 11
2608.669965894041
 21
-1854.132335714799
 31
0.0
  0
ELLIPSE
  5
42B
330
1F
100
AcDbEntity
  8
0-C_ハッチ
  6
Continuous
 62
     7
370
     5
100
AcDbEllipse
 10
2622.008886661955
 20
-1795.346497056484
 30
0.0
 11
26.15375705822504
 21
0.0
 31
0.0
210
0.0
220
0.0
230
1.0
 40
0.6
 41
3.230595867857267
 42
6.465060446500363
  0
LINE
  5
42C
330
1F
100
AcDbEntity
  8
0-C_ハッチ
  6
Continuous
 62
     7
370
     5
100
AcDbLine
 10
2608.669965894041
 20
-1808.844392905944
 30
0.0
 11
2608.669965894041
 21
-1942.932252838522
 31
0.0
  0
LINE
  5
42D
330
1F
100
AcDbEntity
  8
0-C_ハッチ
  6
Continuous
 62
     7
370
     5
100
AcDbLine
 10
2634.692102928205
 20
-1809.070046598259
 30
0.0
 11
2634.692102928205
 21
-1942.932252838522
 31
0.0
  0
ELLIPSE
  5
42E
330
1F
100
AcDbEntity
  8
0-C_ハッチ
  6
Continuous
 62
     7
370
     5
100
AcDbEllipse
 10
2317.407521909771
 20
-1527.636953412864
 30
0.0
 11
26.15375705822504
 21
0.0
 31
0.0
210
0.0
220
0.0
230
1.0
 40
0.6
 41
0.0
 42
6.283185307179586
  0
LINE
  5
42F
330
1F
100
AcDbEntity
  8
0-C_ハッチ
  6
Continuous
 62
     7
370
     5
100
AcDbLine
 10
2304.365849320009
 20
-1533.002194022371
 30
0.0
 11
2309.061592072759
 21
-1536.020885791996
 31
0.0
  0
LINE
  5
430
330
1F
100
AcDbEntity
  8
0-C_ハッチ
  6
Continuous
 62
     7
370
     5
100
AcDbLine
 10
2330.44919449953
 20
-1533.002194022371
 30
0.0
 11
2325.753451746782
 21
-1536.020885791996
 31
0.0
  0
LINE
  5
431
330
1F
100
AcDbEntity
  8
0-C_ハッチ
  6
Continuous
 62
     7
370
     5
100
AcDbLine
 10
2325.753451746782
 20
-1519.253021033733
 30
0.0
 11
2330.44919449953
 21
-1522.271712803358
 31
0.0
  0
LINE
  5
432
330
1F
100
AcDbEntity
  8
0-C_ハッチ
  6
Continuous
 62
     7
370
     5
100
AcDbLine
 10
2309.061592072759
 20
-1519.253021033733
 30
0.0
 11
2304.365849320009
 21
-1522.271712803358
 31
0.0
  0
LINE
  5
433
330
1F
100
AcDbEntity
  8
0-C_ハッチ
  6
Continuous
 62
     7
370
     5
100
AcDbLine
 10
2325.753451746782
 20
-1519.253021033733
 30
0.0
 11
2317.407521909771
 21
-1524.61826164324
 31
0.0
  0
LINE
  5
434
330
1F
100
AcDbEntity
  8
0-C_ハッチ
  6
Continuous
 62
     7
370
     5
100
AcDbLine
 10
2312.71177915702
 20
-1527.636953412864
 30
0.0
 11
2304.365849320009
 21
-1533.002194022371
 31
0.0
  0
LINE
  5
435
330
1F
100
AcDbEntity
  8
0-C_ハッチ
  6
Continuous
 62
     7
370
     5
100
AcDbLine
 10
2309.061592072759
 20
-1519.253021033733
 30
0.0
 11
2317.407521909771
 21
-1524.61826164324
 31
0.0
  0
LINE
  5
436
330
1F
100
AcDbEntity
  8
0-C_ハッチ
  6
Continuous
 62
     7
370
     5
100
AcDbLine
 10
2322.10326466252
 20
-1527.636953412864
 30
0.0
 11
2330.44919449953
 21
-1533.002194022371
 31
0.0
  0
LINE
  5
437
330
1F
100
AcDbEntity
  8
0-C_ハッチ
  6
Continuous
 62
     7
370
     5
100
AcDbLine
 10
2330.44919449953
 20
-1522.271712803358
 30
0.0
 11
2322.10326466252
 21
-1527.636953412864
 31
0.0
  0
LINE
  5
438
330
1F
100
AcDbEntity
  8
0-C_ハッチ
  6
Continuous
 62
     7
370
     5
100
AcDbLine
 10
2317.407521909771
 20
-1530.655645182489
 30
0.0
 11
2309.061592072759
 21
-1536.020885791996
 31
0.0
  0
LINE
  5
439
330
1F
100
AcDbEntity
  8
0-C_ハッチ
  6
Continuous
 62
     7
370
     5
100
AcDbLine
 10
2304.365849320009
 20
-1522.271712803358
 30
0.0
 11
2312.71177915702
 21
-1527.636953412864
 31
0.0
  0
LINE
  5
43A
330
1F
100
AcDbEntity
  8
0-C_ハッチ
  6
Continuous
 62
     7
370
     5
100
AcDbLine
 10
2317.407521909771
 20
-1530.655645182489
 30
0.0
 11
2325.753451746782
 21
-1536.020885791996
 31
0.0
  0
LINE
  5
43B
330
1F
100
AcDbEntity
  8
0-C_ハッチ
  6
Continuous
 62
     7
370
     5
100
AcDbLine
 10
2304.396453392902
 20
-1676.666213743932
 30
0.0
 11
2317.407521909984
 21
-1699.202045476279
 31
0.0
  0
LINE
  5
43C
330
1F
100
AcDbEntity
  8
0-C_ハッチ
  6
Continuous
 62
     7
370
     5
100
AcDbLine
 10
2330.418590427067
 20
-1676.666213743932
 30
0.0
 11
2317.407521909984
 21
-1699.202045476279
 31
0.0
  0
LINE
  5
43D
330
1F
100
AcDbEntity
  8
0-C_ハッチ
  6
Continuous
 62
     7
370
     5
100
AcDbLine
 10
2330.418590427067
 20
-1587.559562641973
 30
0.0
 11
2304.396453392902
 21
-1600.029911428478
 31
0.0
  0
LINE
  5
43E
330
1F
100
AcDbEntity
  8
0-C_ハッチ
  6
Continuous
 62
     7
370
     5
100
AcDbLine
 10
2330.418590427067
 20
-1660.54125150219
 30
0.0
 11
2304.396453392902
 21
-1673.011600288692
 31
0.0
  0
LINE
  5
43F
330
1F
100
AcDbEntity
  8
0-C_ハッチ
  6
Continuous
 62
     7
370
     5
100
AcDbLine
 10
2330.418590427067
 20
-1648.377636692153
 30
0.0
 11
2304.396453392902
 21
-1660.847985478657
 31
0.0
  0
LINE
  5
440
330
1F
100
AcDbEntity
  8
0-C_ハッチ
  6
Continuous
 62
     7
370
     5
100
AcDbLine
 10
2330.418590427067
 20
-1624.050407072081
 30
0.0
 11
2304.396453392902
 21
-1636.520755858585
 31
0.0
  0
LINE
  5
441
330
1F
100
AcDbEntity
  8
0-C_ハッチ
  6
Continuous
 62
     7
370
     5
100
AcDbLine
 10
2330.418590427067
 20
-1636.214021882118
 30
0.0
 11
2304.396453392902
 21
-1648.684370668619
 31
0.0
  0
LINE
  5
442
330
1F
100
AcDbEntity
  8
0-C_ハッチ
  6
Continuous
 62
     7
370
     5
100
AcDbLine
 10
2330.418590427067
 20
-1611.886792262047
 30
0.0
 11
2304.396453392902
 21
-1624.357141048549
 31
0.0
  0
LINE
  5
443
330
1F
100
AcDbEntity
  8
0-C_ハッチ
  6
Continuous
 62
     7
370
     5
100
AcDbLine
 10
2330.418590427067
 20
-1599.72317745201
 30
0.0
 11
2304.396453392902
 21
-1612.193526238513
 31
0.0
  0
LINE
  5
444
330
1F
100
AcDbEntity
  8
0-C_ハッチ
  6
Continuous
 62
     7
370
     5
100
AcDbLine
 10
2330.418590427067
 20
-1551.068718217166
 30
0.0
 11
2304.396453392902
 21
-1563.539067003668
 31
0.0
  0
LINE
  5
445
330
1F
100
AcDbEntity
  8
0-C_ハッチ
  6
Continuous
 62
     7
370
     5
100
AcDbLine
 10
2330.418590427067
 20
-1563.232333025436
 30
0.0
 11
2304.396453392902
 21
-1575.702681811938
 31
0.0
  0
LINE
  5
446
330
1F
100
AcDbEntity
  8
0-C_ハッチ
  6
Continuous
 62
     7
370
     5
100
AcDbLine
 10
2330.418590427067
 20
-1575.395947833703
 30
0.0
 11
2304.396453392902
 21
-1587.866296620208
 31
0.0
  0
ELLIPSE
  5
447
330
1F
100
AcDbEntity
  8
0-C_ハッチ
  6
Continuous
 62
     7
370
     5
100
AcDbEllipse
 10
2317.735374160817
 20
-1529.080457961893
 30
0.0
 11
26.15375705822504
 21
0.0
 31
0.0
210
0.0
220
0.0
230
1.0
 40
0.6
 41
3.230595867857267
 42
6.465060446500363
  0
LINE
  5
448
330
1F
100
AcDbEntity
  8
0-C_ハッチ
  6
Continuous
 62
     7
370
     5
100
AcDbLine
 10
2304.396453392902
 20
-1542.578353811354
 30
0.0
 11
2304.396453392902
 21
-1676.666213743932
 31
0.0
  0
LINE
  5
449
330
1F
100
AcDbEntity
  8
0-C_ハッチ
  6
Continuous
 62
     7
370
     5
100
AcDbLine
 10
2330.418590427067
 20
-1542.804007503668
 30
0.0
 11
2330.418590427067
 21
-1676.666213743932
 31
0.0
  0
LINE
  5
44A
330
1F
100
AcDbEntity
  8
0-C_ハッチ
  6
Continuous
 62
     7
370
     5
100
AcDbLine
 10
1865.961586277336
 20
-2111.295334607612
 30
0.0
 11
1956.418093236837
 21
-2203.180496252223
 31
0.0
  0
ARC
  5
44B
330
1F
100
AcDbEntity
  8
0-C_ハッチ
  6
Continuous
 62
     7
370
     5
100
AcDbCircle
 10
2172.790180794483
 20
-2417.509257500605
 30
0.0
 40
18.0
100
AcDbArc
 50
224.5510943265456
 51
302.2629554764285
  0
LINE
  5
44C
330
1F
100
AcDbEntity
  8
0-C_ハッチ
  6
Continuous
 62
     7
370
     5
100
AcDbLine
 10
2182.398684017784
 20
-2432.730186046782
 30
0.0
 11
2264.560306631479
 21
-2516.189455353116
 31
0.0
  0
ARC
  5
44D
330
1F
100
AcDbEntity
  8
0-C_ハッチ
  6
Continuous
 62
     7
370
     5
100
AcDbCircle
 10
2172.790180794482
 20
-2423.509257500604
 30
0.0
 40
18.0
100
AcDbArc
 50
224.5510943265451
 51
302.2629554764407
  0
LINE
  5
44E
330
1F
100
AcDbEntity
  8
0-C_ハッチ
  6
Continuous
 62
     7
370
     5
100
AcDbLine
 10
2182.398684017784
 20
-2438.730186046779
 30
0.0
 11
2264.55204796582
 21
-2522.181066251491
 31
0.0
  0
LINE
  5
44F
330
1F
100
AcDbEntity
  8
0-C_ハッチ
  6
Continuous
 62
     7
370
     5
100
AcDbLine
 10
2182.398684017784
 20
-2432.730186046782
 30
0.0
 11
2182.398684017784
 21
-2438.731068987111
 31
0.0
  0
LINE
  5
450
330
1F
100
AcDbEntity
  8
0-C_ハッチ
  6
Continuous
 62
     7
370
     5
100
AcDbLine
 10
1949.322163624028
 20
-2222.169478708165
 30
0.0
 11
2159.962928637638
 21
-2436.137068162185
 31
0.0
  0
LINE
  5
451
330
1F
100
AcDbEntity
  8
0-C_ハッチ
  6
Continuous
 62
     7
370
     5
100
AcDbLine
 10
1949.322163624028
 20
-2216.169478708167
 30
0.0
 11
2159.962928637639
 21
-2430.137068162185
 31
0.0
  0
LINE
  5
452
330
1F
100
AcDbEntity
  8
0-C_ハッチ
  6
Continuous
 62
     7
370
     5
100
AcDbLine
 10
1950.453865071115
 20
-2206.849929221679
 30
0.0
 11
1956.418093236837
 21
-2203.180496252223
 31
0.0
  0
ARC
  5
453
330
1F
100
AcDbEntity
  8
0-C_ハッチ
  6
Continuous
 62
     7
370
     5
100
AcDbCircle
 10
1953.597914342976
 20
-2211.960208487641
 30
0.0
 40
6.0
100
AcDbArc
 50
121.6015005399993
 51
224.5510943265456
  0
LINE
  5
454
330
1F
100
AcDbEntity
  8
0-C_ハッチ
  6
Continuous
 62
     7
370
     5
100
AcDbLine
 10
1865.961586277336
 20
-2117.29533460761
 30
0.0
 11
1952.739445296116
 21
-2205.44374837163
 31
0.0
  0
LINE
  5
455
330
1F
100
AcDbEntity
  8
0-C_ハッチ
  6
Continuous
 62
     7
370
     5
100
AcDbLine
 10
1947.597914342975
 20
-2211.960208487641
 30
0.0
 11
1947.597914342975
 21
-2217.960208487638
 31
0.0
  0
ARC
  5
456
330
1F
100
AcDbEntity
  8
0-C_ハッチ
  6
Continuous
 62
     7
370
     5
100
AcDbCircle
 10
1953.597914342976
 20
-2217.960208487638
 30
0.0
 40
6.0
100
AcDbArc
 50
180.0
 51
224.5510943265451
  0
LINE
  5
457
330
1F
100
AcDbEntity
  8
0-C_ハッチ
  6
Continuous
 62
     7
370
     5
100
AcDbLine
 10
2177.985267605775
 20
-2434.74326669821
 30
0.0
 11
2177.985267605774
 21
-2440.743266698209
 31
0.0
  0
LINE
  5
458
330
1F
100
AcDbEntity
  8
0-C_ハッチ
  6
Continuous
 62
     7
370
     5
100
AcDbLine
 10
2174.185707627615
 20
-2435.455078876569
 30
0.0
 11
2174.185707627612
 21
-2441.455078876568
 31
0.0
  0
LINE
  5
459
330
1F
100
AcDbEntity
  8
0-C_ハッチ
  6
Continuous
 62
     7
370
     5
100
AcDbLine
 10
2170.016218917237
 20
-2435.294226870935
 30
0.0
 11
2170.016218917235
 21
-2441.294226870934
 31
0.0
  0
LINE
  5
45A
330
1F
100
AcDbEntity
  8
0-C_ハッチ
  6
Continuous
 62
     7
370
     5
100
AcDbLine
 10
2166.333283672747
 20
-2434.311295459119
 30
0.0
 11
2166.333283672745
 21
-2440.311295459117
 31
0.0
  0
LINE
  5
45B
330
1F
100
AcDbEntity
  8
0-C_ハッチ
  6
Continuous
 62
     7
370
     5
100
AcDbLine
 10
2163.166983690945
 20
-2432.720900327941
 30
0.0
 11
2163.166983690944
 21
-2438.72090032794
 31
0.0
  0
LINE
  5
45C
330
1F
100
AcDbEntity
  8
0-C_ハッチ
  6
Continuous
 62
     7
370
     5
100
AcDbLine
 10
2159.962928637639
 20
-2430.137068162185
 30
0.0
 11
2159.962928637638
 21
-2436.137068162185
 31
0.0
  0
LINE
  5
45D
330
1F
100
AcDbEntity
  8
0-C_ハッチ
  6
Continuous
 62
     7
370
     5
100
AcDbLine
 10
1950.775099022813
 20
-2217.64536152169
 30
0.0
 11
1950.775099022812
 21
-2223.645361521686
 31
0.0
  0
LINE
  5
45E
330
1F
100
AcDbEntity
  8
0-C_ハッチ
  6
Continuous
 62
     7
370
     5
100
AcDbLine
 10
1948.298348814826
 20
-2214.773499303191
 30
0.0
 11
1948.298348814826
 21
-2220.773499303186
 31
0.0
  0
LINE
  5
45F
330
1F
100
AcDbEntity
  8
0-C_ハッチ
  6
Continuous
 62
     7
370
     5
100
AcDbLine
 10
1949.255275031549
 20
-2216.100435994779
 30
0.0
 11
1949.255275031546
 21
-2222.100435994773
 31
0.0
  0
LINE
  5
460
330
1F
100
AcDbEntity
  8
0-C_ハッチ
  6
Continuous
 62
     7
370
     5
100
AcDbLine
 10
2518.925093272707
 20
-2359.69401141702
 30
0.0
 11
2264.560306631479
 21
-2516.189455353116
 31
0.0
  0
LINE
  5
461
330
1F
100
AcDbEntity
  8
0-C_ハッチ
  6
Continuous
 62
     7
370
     5
100
AcDbLine
 10
2264.560306631479
 20
-2516.189455353116
 30
0.0
 11
2264.554666598847
 21
-2522.180287359773
 31
0.0
  0
LINE
  5
462
330
1F
100
AcDbEntity
  8
0-C_ハッチ
  6
Continuous
 62
     7
370
     5
100
AcDbLine
 10
2518.925093272707
 20
-2365.694011417021
 30
0.0
 11
2264.554666598847
 21
-2522.180287359773
 31
0.0
  0
LINE
  5
463
330
1F
100
AcDbEntity
  8
0-C_ハッチ
  6
Continuous
 62
     7
370
     5
100
AcDbLine
 10
2105.523892694688
 20
-1966.523783467799
 30
0.0
 11
1865.961586277336
 21
-2111.295334607612
 31
0.0
  0
LINE
  5
464
330
1F
100
AcDbEntity
  8
0-C_ハッチ
  6
Continuous
 62
     7
370
     5
100
AcDbLine
 10
1865.961586277336
 20
-2117.29533460761
 30
0.0
 11
1865.961586277336
 21
-2111.295334607612
 31
0.0
  0
MTEXT
  5
465
330
1F
100
AcDbEntity
  8
0-C_ハッチ
  6
Continuous
 62
     7
370
   211
100
AcDbMText
 10
3876.976084632357
 20
-2844.921380886675
 30
0.0
 40
57.15
 41
75.0
 46
0.0
 71
     7
 72
     1
  1
{\fＭＳ ゴシック|b0|i0|c128|p49;92}
 11
6.123031769111886E-17
 21
1.0
 31
0.0
 73
     1
 44
1.0
  0
LWPOLYLINE
  5
466
330
1F
100
AcDbEntity
  8
0-C_ハッチ
  6
Continuous
 62
   120
370
     5
100
AcDbPolyline
 90
        4
 70
     1
 43
3.0
 10
2220.022493932467
 20
-1886.161074353862
 42
0.4142135623731
 10
2218.522493932468
 20
-1884.661074353862
 42
0.4142135623731
 10
2217.022493932468
 20
-1886.161074353862
 42
0.4142135623731
 10
2218.522493932468
 20
-1887.661074353862
 42
0.4142135623731
  0
LWPOLYLINE
  5
467
330
1F
100
AcDbEntity
  8
0-C_ハッチ
  6
Continuous
 62
   120
370
     5
100
AcDbPolyline
 90
        4
 70
     1
 43
3.0
 10
2151.661563391103
 20
-1827.150895550007
 42
0.4142135623731
 10
2150.161563391103
 20
-1825.650895550007
 42
0.4142135623731
 10
2148.661563391103
 20
-1827.150895550007
 42
0.4142135623731
 10
2150.161563391103
 20
-1828.650895550007
 42
0.4142135623731
  0
LINE
  5
468
330
1F
100
AcDbEntity
  8
0-C_ハッチ
  6
Continuous
 62
   120
370
     5
100
AcDbLine
 10
2150.161563391103
 20
-1827.150895550007
 30
0.0
 11
2218.522493932468
 21
-1886.161074353862
 31
0.0
  0
MTEXT
  5
469
330
1F
100
AcDbEntity
  8
0-C_ハッチ
  6
Continuous
 62
     7
370
   211
100
AcDbMText
 10
4074.344099614786
 20
-2850.922454775501
 30
0.0
 40
57.15
 41
75.0
 46
0.0
 71
     7
 72
     1
  1
{\fＭＳ ゴシック|b0|i0|c128|p49;40}
 11
6.123031769111886E-17
 21
1.0
 31
0.0
 73
     1
 44
1.0
  0
LINE
  5
46A
330
1F
100
AcDbEntity
  8
0-C_ハッチ
  6
Continuous
 62
   120
370
     5
100
AcDbLine
 10
2626.892798602632
 20
-1829.198353791087
 30
0.0
 11
2646.205594213758
 21
-1415.90452771298
 31
0.0
  0
LINE
  5
46B
330
1F
100
AcDbEntity
  8
0-C_ハッチ
  6
Continuous
 62
   120
370
     5
100
AcDbLine
 10
2330.418590427067
 20
-1582.907270100172
 30
0.0
 11
2646.205594213758
 21
-1415.90452771298
 31
0.0
  0
MTEXT
  5
46C
330
1F
100
AcDbEntity
  8
0-C_ハッチ
  6
Continuous
 62
     7
370
   211
100
AcDbMText
 10
3975.51417062214
 20
-2982.922056397385
 30
0.0
 40
57.15
 41
75.0
 46
0.0
 71
     7
 72
     1
  1
{\fＭＳ ゴシック|b0|i0|c128|p49;46}
 11
6.123031769111886E-17
 21
1.0
 31
0.0
 73
     1
 44
1.0
  0
LWPOLYLINE
  5
46D
330
1F
100
AcDbEntity
  8
0-0_補助線
  6
Continuous
 62
     7
370
     5
100
AcDbPolyline
 90
        4
 70
     1
 43
3.0
 10
-618.1896821550458
 20
-1242.320772007514
 42
0.4142135623731
 10
-619.6896821550458
 20
-1240.820772007514
 42
0.4142135623731
 10
-621.189682155046
 20
-1242.320772007514
 42
0.4142135623731
 10
-619.6896821550458
 20
-1243.820772007514
 42
0.4142135623731
  0
LINE
  5
46E
330
1F
100
AcDbEntity
  8
0-0_補助線
  6
Continuous
 62
   120
370
     5
100
AcDbLine
 10
-619.6896821550458
 20
-1242.320772007514
 30
0.0
 11
-619.6896821550458
 21
-1385.862821807515
 31
0.0
  0
LINE
  5
46F
330
1F
100
AcDbEntity
  8
0-0_補助線
  6
Continuous
 62
    92
370
     5
100
AcDbLine
 10
-619.6896821550458
 20
-1435.862821807514
 30
0.0
 11
-619.6896821550458
 21
-2311.154027356341
 31
0.0
  0
MTEXT
  5
470
330
1F
100
AcDbEntity
  8
0-C_ハッチ
  6
Continuous
 62
     7
370
   211
100
AcDbMText
 10
4074.635942617647
 20
-3031.113270274096
 30
0.0
 40
57.15
 41
75.0
 46
0.0
 71
     7
 72
     1
  1
{\fＭＳ ゴシック|b0|i0|c128|p49;26}
 11
6.123031769111886E-17
 21
1.0
 31
0.0
 73
     1
 44
1.0
  0
LINE
  5
471
330
1F
100
AcDbEntity
  8
0-0_補助線
  6
Continuous
 62
    92
370
     5
100
AcDbLine
 10
-1203.339807359786
 20
-486.9025726973956
 30
0.0
 11
782.3295543107939
 21
-486.9025726973956
 31
0.0
  0
LINE
  5
472
330
1F
100
AcDbEntity
  8
0-0_補助線
  6
Continuous
 62
    92
370
     5
100
AcDbLine
 10
-1203.339807359786
 20
-270.9025726973951
 30
0.0
 11
782.3295543107939
 21
-270.9025726973951
 31
0.0
  0
LINE
  5
473
330
1F
100
AcDbEntity
  8
0-0_補助線
  6
Continuous
 62
    92
370
     5
100
AcDbLine
 10
-1203.339807359786
 20
-270.9025726973951
 30
0.0
 11
-1203.339807359786
 21
-3370.000017526299
 31
0.0
  0
LINE
  5
474
330
1F
100
AcDbEntity
  8
0-C_ハッチ
  6
Continuous
 62
    92
370
     5
100
AcDbLine
 10
-1203.339807359786
 20
-3370.000017526299
 30
0.0
 11
5519.929554310806
 21
-3370.000017526299
 31
0.0
  0
LWPOLYLINE
  5
475
330
1F
100
AcDbEntity
  8
0-0_補助線
  6
Continuous
 62
     7
370
     5
100
AcDbPolyline
 90
        4
 70
     1
 43
3.0
 10
301.8106807567004
 20
-1242.320772007514
 42
0.4142135623731
 10
300.3106807567003
 20
-1240.820772007514
 42
0.4142135623731
 10
298.8106807567003
 20
-1242.320772007514
 42
0.4142135623731
 10
300.3106807567003
 20
-1243.820772007514
 42
0.4142135623731
  0
LINE
  5
476
330
1F
100
AcDbEntity
  8
0-0_補助線
  6
JWW_HOJO
 62
   120
370
     5
100
AcDbLine
 10
-654.6900285708048
 20
-1385.862821807515
 30
0.0
 11
300.3106807567003
 21
-1385.862821807515
 31
0.0
  0
LINE
  5
477
330
1F
100
AcDbEntity
  8
0-0_補助線
  6
JWW_HOJO
 62
   120
370
     5
100
AcDbLine
 10
-654.6900285708048
 20
-1435.862821807514
 30
0.0
 11
300.3106807567003
 21
-1435.862821807514
 31
0.0
  0
LINE
  5
478
330
1F
100
AcDbEntity
  8
0-0_補助線
  6
Continuous
 62
    92
370
     5
100
AcDbLine
 10
300.3106807567003
 20
-1435.862821807514
 30
0.0
 11
300.3106807567003
 21
-2311.154027356341
 31
0.0
  0
LINE
  5
479
330
1F
100
AcDbEntity
  8
0-0_補助線
  6
Continuous
 62
    92
370
     5
100
AcDbLine
 10
-619.6896821550458
 20
-2311.154027356341
 30
0.0
 11
300.3106807567003
 21
-2311.154027356341
 31
0.0
  0
LINE
  5
47A
330
1F
100
AcDbEntity
  8
0-0_補助線
  6
Continuous
 62
   120
370
     5
100
AcDbLine
 10
-619.6896821550458
 20
-1242.320772007514
 30
0.0
 11
300.3106807567003
 21
-1242.320772007514
 31
0.0
  0
LINE
  5
47B
330
1F
100
AcDbEntity
  8
0-0_補助線
  6
Continuous
 62
   120
370
     5
100
AcDbLine
 10
300.3106807567003
 20
-1242.320772007514
 30
0.0
 11
300.3106807567003
 21
-1385.862821807515
 31
0.0
  0
MTEXT
  5
47C
330
1F
100
AcDbEntity
  8
0-C_ハッチ
  6
Continuous
 62
     7
370
     5
100
AcDbMText
 10
1708.333519450135
 20
-3310.357728572103
 30
0.0
 40
57.14999999999979
 41
1424.999999999996
 46
0.0
 71
     7
 72
     1
  1
{\fＭＳ ゴシック|b0|i0|c128|p49;※現場にて左右どちらでも施工可能です。}
 73
     1
 44
1.0
  0
LINE
  5
47D
330
1F
100
AcDbEntity
  8
0-A_文字
  6
Continuous
 62
    92
370
     5
100
AcDbLine
 10
-5659.999495325868
 20
3730.000181455871
 30
0.0
 11
-5659.999495325868
 21
4000.000181455871
 31
0.0
  0
MTEXT
  5
47E
330
1F
100
AcDbEntity
  8
0-A_文字
  6
Continuous
 62
    92
370
     5
100
AcDbMText
 10
-5592.499495325868
 20
3758.994391982187
 30
0.0
 40
147.9884210526316
 41
3690.0
 46
0.0
 71
     7
 72
     1
  1
{\fＭＳ ゴシック|b0|i0|c128|p49;クローゼットドア　固定枠　間口４．５尺}
 73
     1
 44
1.0
  0
LINE
  5
47F
330
1F
100
AcDbEntity
  8
0-A_文字
  6
Continuous
 62
    92
370
     5
100
AcDbLine
 10
-5659.999495325868
 20
3730.000181455871
 30
0.0
 11
-1857.142857142857
 21
3730.000181455871
 31
0.0
  0
LINE
  5
480
330
1F
100
AcDbEntity
  8
0-A_文字
  6
Continuous
 62
    92
370
     5
100
AcDbLine
 10
-5659.999495325868
 20
4000.000181455871
 30
0.0
 11
-1857.142857142857
 21
4000.000181455871
 31
0.0
  0
LINE
  5
481
330
1F
100
AcDbEntity
  8
0-A_文字
  6
Continuous
 62
    92
370
     5
100
AcDbLine
 10
-1857.142857142857
 20
3730.000181455871
 30
0.0
 11
-1857.142857142857
 21
4000.000181455871
 31
0.0
  0
MTEXT
  5
482
330
1F
100
AcDbEntity
  8
F-A_文字
  6
Continuous
 62
     7
370
     0
100
AcDbMText
 10
4439.917891251784
 20
-3887.143854850754
 30
0.0
 40
45.72
 41
240.0
 46
0.0
 71
     7
 72
     1
  1
{\fＭＳ ゴシック|b0|i0|c128|p49;ＤＡＴＥ}
 73
     1
 44
1.0
  0
MTEXT
  5
483
330
1F
100
AcDbEntity
  8
F-A_文字
  6
Continuous
 62
     7
370
     0
100
AcDbMText
 10
4439.917891251784
 20
-4087.143857410839
 30
0.0
 40
45.72
 41
180.0
 46
0.0
 71
     7
 72
     1
  1
{\fＭＳ ゴシック|b0|i0|c128|p49;ＮＯ．}
 73
     1
 44
1.0
  0
MTEXT
  5
484
330
1F
100
AcDbEntity
  8
F-A_文字
  6
Continuous
 62
     7
370
     0
100
AcDbMText
 10
2939.917396372138
 20
-3887.142460617774
 30
0.0
 40
45.72
 41
300.0
 46
0.0
 71
     7
 72
     1
  1
{\fＭＳ ゴシック|b0|i0|c128|p49;ＳＣＡＬＥ}
 73
     1
 44
1.0
  0
MTEXT
  5
485
330
1F
100
AcDbEntity
  8
F-A_文字
  6
Continuous
 62
     7
370
     0
100
AcDbMText
 10
2939.917396372138
 20
-4087.14246317786
 30
0.0
 40
45.72
 41
240.0
 46
0.0
 71
     7
 72
     1
  1
{\fＭＳ ゴシック|b0|i0|c128|p49;ＦＩＬＥ}
 73
     1
 44
1.0
  0
MTEXT
  5
486
330
1F
100
AcDbEntity
  8
F-A_文字
  6
Continuous
 62
     7
370
     0
100
AcDbMText
 10
1604.917396372138
 20
-4164.281754523929
 30
0.0
 40
101.44125
 41
1065.0
 46
0.0
 71
     7
 72
     1
  1
{\fＭＳ ゴシック|b0|i0|c128|p49;ウッドワン・・・}
 73
     1
 44
1.0
  0
MTEXT
  5
487
330
1F
100
AcDbEntity
  8
F-A_文字
  6
Continuous
 62
     7
370
     0
100
AcDbMText
 10
1394.917396372138
 20
-4096.140669266149
 30
0.0
 40
45.72
 41
120.0
 46
0.0
 71
     7
 72
     1
  1
{\fＭＳ ゴシック|b0|i0|c128|p49;株式}
 73
     1
 44
1.0
  0
MTEXT
  5
488
330
1F
100
AcDbEntity
  8
F-A_文字
  6
Continuous
 62
     7
370
     0
100
AcDbMText
 10
1394.917396372138
 20
-4168.140669266187
 30
0.0
 40
45.72
 41
120.0
 46
0.0
 71
     7
 72
     1
  1
{\fＭＳ ゴシック|b0|i0|c128|p49;会社}
 73
     1
 44
1.0
  0
MTEXT
  5
489
330
1F
100
AcDbEntity
  8
F-A_文字
  6
Continuous
 62
     7
370
     0
100
AcDbMText
 10
99.91854284331623
 20
-3887.139820871936
 30
0.0
 40
45.72
 41
180.0
 46
0.0
 71
     7
 72
     1
  1
{\fＭＳ ゴシック|b0|i0|c128|p49;図面名}
 73
     1
 44
1.0
  0
LINE
  5
48A
330
1F
100
AcDbEntity
  8
F-0_補助線
  6
JWW_HOJO
 62
     7
370
     5
100
AcDbLine
 10
509.9185840832865
 20
-3795.000003092998
 30
0.0
 11
509.9185840832865
 21
-4195.000008247994
 31
0.0
  0
LINE
  5
48B
330
1F
100
AcDbEntity
  8
F-1_枠
  6
Continuous
 62
   200
370
     5
100
AcDbLine
 10
4349.917891251784
 20
-3795.000003092998
 30
0.0
 11
4349.917891251784
 21
-4195.000008247994
 31
0.0
  0
LINE
  5
48C
330
1F
100
AcDbEntity
  8
F-1_枠
  6
Continuous
 62
   200
370
     5
100
AcDbLine
 10
2849.917396372138
 20
-3795.000003092998
 30
0.0
 11
2849.917396372138
 21
-4195.000008247994
 31
0.0
  0
LINE
  5
48D
330
1F
100
AcDbEntity
  8
F-1_枠
  6
Continuous
 62
   200
370
     5
100
AcDbLine
 10
9.918542843316231
 20
-3795.000003092998
 30
0.0
 11
9.918542843316231
 21
-4195.000008247994
 31
0.0
  0
LINE
  5
48E
330
1F
100
AcDbEntity
  8
F-0_補助線
  6
JWW_HOJO
 62
     7
370
     5
100
AcDbLine
 10
2939.917396372138
 20
-3795.000003092998
 30
0.0
 11
2939.917396372138
 21
-4195.000008247994
 31
0.0
  0
LINE
  5
48F
330
1F
100
AcDbEntity
  8
F-0_補助線
  6
JWW_HOJO
 62
     7
370
     5
100
AcDbLine
 10
99.91854284331623
 20
-3795.000003092998
 30
0.0
 11
99.91854284331623
 21
-4195.000008247994
 31
0.0
  0
LINE
  5
490
330
1F
100
AcDbEntity
  8
F-0_補助線
  6
JWW_HOJO
 62
     7
370
     5
100
AcDbLine
 10
4439.917891251784
 20
-3795.000003092998
 30
0.0
 11
4439.917891251784
 21
-4195.000008247994
 31
0.0
  0
LINE
  5
491
330
1F
100
AcDbEntity
  8
F-0_補助線
  6
JWW_HOJO
 62
     7
370
     5
100
AcDbLine
 10
-5087.628710189611
 20
-3795.000003092999
 30
0.0
 11
-5087.628710189611
 21
-4205.000164959882
 31
0.0
  0
LINE
  5
492
330
1F
100
AcDbEntity
  8
F-0_補助線
  6
JWW_HOJO
 62
     7
370
     5
100
AcDbLine
 10
-50.08145715668377
 20
-3795.000003092998
 30
0.0
 11
-50.08145715668377
 21
-4195.000008247994
 31
0.0
  0
LINE
  5
493
330
1F
100
AcDbEntity
  8
F-0_補助線
  6
JWW_HOJO
 62
     7
370
     5
100
AcDbLine
 10
3764.917643811962
 20
-3795.000003092998
 30
0.0
 11
3764.917643811962
 21
-4195.000008247994
 31
0.0
  0
MTEXT
  5
494
330
1F
100
AcDbEntity
  8
F-A_文字
  6
Continuous
 62
     7
370
     0
100
AcDbMText
 10
3689.917643811962
 20
-3946.903115907308
 30
0.0
 40
76.19999999999999
 41
150.0
 46
0.0
 71
     7
 72
     1
  1
{\fＭＳ ゴシック|b0|i0|c128|p49;1/5}
 73
     1
 44
1.0
  0
LINE
  5
495
330
1F
100
AcDbEntity
  8
F-0_補助線
  6
JWW_HOJO
 62
     7
370
     5
100
AcDbLine
 10
1349.918584083287
 20
-3795.000003092998
 30
0.0
 11
1349.918584083287
 21
-4195.000008247994
 31
0.0
  0
LINE
  5
496
330
1F
100
AcDbEntity
  8
F-0_補助線
  6
JWW_HOJO
 62
     7
370
     5
100
AcDbLine
 10
4889.917891251784
 20
-3795.000003092998
 30
0.0
 11
4889.917891251784
 21
-4195.000008247994
 31
0.0
  0
MTEXT
  5
497
330
1F
100
AcDbEntity
  8
F-A_文字
  6
Continuous
 62
     7
370
     0
100
AcDbMText
 10
4889.917891251784
 20
-3945.570773120548
 30
0.0
 40
78.86699999999999
 41
517.5
 46
0.0
 71
     7
 72
     1
  1
{\fＭＳ ゴシック|b0|i0|c128|p49;2021.04.01}
 73
     1
 44
1.0
  0
MTEXT
  5
498
330
1F
100
AcDbEntity
  8
F-A_文字
  6
Continuous
 62
     7
370
     0
100
AcDbMText
 10
509.9185840832865
 20
-3956.425201962234
 30
0.0
 40
57.15
 41
675.0
 46
0.0
 71
     7
 72
     1
  1
{\fＭＳ ゴシック|b0|i0|c128|p49;ＰＩＮＯＥＡＲＴＨ}
 73
     1
 44
1.0
  0
MTEXT
  5
499
330
1F
100
AcDbEntity
  8
F-A_文字
  6
Continuous
 62
     7
370
     0
100
AcDbMText
 10
1349.918584083287
 20
-3945.948482732445
 30
0.0
 40
78.105
 41
615.0
 46
0.0
 71
     7
 72
     1
  1
{\fＭＳ ゴシック|b0|i0|c128|p49;建具納まり図}
 73
     1
 44
1.0
  0
MTEXT
  5
49A
330
1F
100
AcDbEntity
  8
F-A_文字
  6
Continuous
 62
     7
370
     0
100
AcDbMText
 10
-5080.081323642279
 20
-4045.06637357839
 30
0.0
 40
79.86712499999994
 41
4192.5
 46
0.0
 71
     7
 72
     1
  1
{\fＭＳ ゴシック|b0|i0|c128|p49;ピノアース　クローゼットドア　固定枠　３方枠下レール無し　枠外H2,339　枠外W1,199}
 73
     1
 44
1.0
  0
MTEXT
  5
49B
330
1F
100
AcDbEntity
  8
F-A_文字
  6
Continuous
 62
     7
370
     5
100
AcDbMText
 10
5096.167700144057
 20
-4147.857012699985
 30
0.0
 40
74.295
 41
97.5
 46
0.0
 71
     7
 72
     1
  1
{\fＭＳ ゴシック|b0|i0|c128|p49;02}
 73
     1
 44
1.0
  0
ENDSEC
  0
SECTION
  2
OBJECTS
  0
DICTIONARY
  5
C
330
0
100
AcDbDictionary
281
     1
  3
ACAD_GROUP
350
D
  3
ACAD_LAYOUT
350
1A
  3
ACAD_MATERIAL
350
3B
  3
ACAD_MLEADERSTYLE
350
49D
  3
ACAD_MLINESTYLE
350
17
  3
ACAD_PLOTSETTINGS
350
19
  3
ACAD_PLOTSTYLENAME
350
E
  3
ACAD_TABLESTYLE
350
49C
  3
ACAD_VISUALSTYLE
350
2A
  0
DICTIONARY
  5
D
102
{ACAD_REACTORS
330
C
102
}
330
C
100
AcDbDictionary
281
     1
  0
DICTIONARY
  5
1A
102
{ACAD_REACTORS
330
C
102
}
330
C
100
AcDbDictionary
281
     1
  3
Layout1
350
1E
  3
Layout2
350
26
  3
Model
350
22
  0
DICTIONARY
  5
3B
102
{ACAD_REACTORS
330
C
102
}
330
C
100
AcDbDictionary
281
     1
  3
ByBlock
350
3D
  3
ByLayer
350
3C
  3
Global
350
3E
  0
DICTIONARY
  5
49D
102
{ACAD_REACTORS
330
C
102
}
330
C
100
AcDbDictionary
281
     1
  0
DICTIONARY
  5
17
102
{ACAD_REACTORS
330
C
102
}
330
C
100
AcDbDictionary
281
     1
  3
Standard
350
18
  0
DICTIONARY
  5
19
102
{ACAD_REACTORS
330
C
102
}
330
C
100
AcDbDictionary
281
     1
  0
ACDBDICTIONARYWDFLT
  5
E
102
{ACAD_REACTORS
330
C
102
}
330
C
100
AcDbDictionary
281
     1
  3
Normal
350
F
100
AcDbDictionaryWithDefault
340
F
  0
DICTIONARY
  5
49C
102
{ACAD_REACTORS
330
C
102
}
330
C
100
AcDbDictionary
281
     1
  0
DICTIONARY
  5
2A
102
{ACAD_REACTORS
330
C
102
}
330
C
100
AcDbDictionary
281
     1
  3
2dWireframe
350
2F
  3
3D Hidden
350
31
  3
3dWireframe
350
30
  3
Basic
350
32
  3
Brighten
350
36
  3
ColorChange
350
3A
  3
Conceptual
350
34
  3
Dim
350
35
  3
Facepattern
350
39
  3
Flat
350
2B
  3
FlatWithEdges
350
2C
  3
Gouraud
350
2D
  3
GouraudWithEdges
350
2E
  3
Linepattern
350
38
  3
Realistic
350
33
  3
Thicken
350
37
  0
LAYOUT
  5
1E
102
{ACAD_REACTORS
330
1A
102
}
330
1A
100
AcDbPlotSettings
  1

  2
none_device
  4

  6

 40
0.0
 41
0.0
 42
0.0
 43
0.0
 44
0.0
 45
0.0
 46
0.0
 47
0.0
 48
0.0
 49
0.0
140
0.0
141
0.0
142
1.0
143
1.0
 70
   688
 72
     0
 73
     0
 74
     5
  7

 75
    16
 76
     0
 77
     5
 78
   300
147
1.0
148
0.0
149
0.0
100
AcDbLayout
  1
Layout1
 70
     1
 71
     1
 10
0.0
 20
0.0
 11
420.0
 21
297.0
 12
0.0
 22
0.0
 32
0.0
 14
1.000000000000000E+20
 24
1.000000000000000E+20
 34
1.000000000000000E+20
 15
-1.000000000000000E+20
 25
-1.000000000000000E+20
 35
-1.000000000000000E+20
146
0.0
 13
0.0
 23
0.0
 33
0.0
 16
1.0
 26
0.0
 36
0.0
 17
0.0
 27
1.0
 37
0.0
 76
     0
330
1B
  0
LAYOUT
  5
26
102
{ACAD_REACTORS
330
1A
102
}
330
1A
100
AcDbPlotSettings
  1

  2
none_device
  4

  6

 40
0.0
 41
0.0
 42
0.0
 43
0.0
 44
0.0
 45
0.0
 46
0.0
 47
0.0
 48
0.0
 49
0.0
140
0.0
141
0.0
142
1.0
143
1.0
 70
   688
 72
     0
 73
     0
 74
     5
  7

 75
    16
 76
     0
 77
     5
 78
   300
147
1.0
148
0.0
149
0.0
100
AcDbLayout
  1
Layout2
 70
     1
 71
     2
 10
0.0
 20
0.0
 11
0.0
 21
0.0
 12
0.0
 22
0.0
 32
0.0
 14
0.0
 24
0.0
 34
0.0
 15
0.0
 25
0.0
 35
0.0
146
0.0
 13
0.0
 23
0.0
 33
0.0
 16
1.0
 26
0.0
 36
0.0
 17
0.0
 27
1.0
 37
0.0
 76
     0
330
23
  0
LAYOUT
  5
22
102
{ACAD_REACTORS
330
1A
102
}
330
1A
100
AcDbPlotSettings
  1

  2
none_device
  4

  6

 40
0.0
 41
0.0
 42
0.0
 43
0.0
 44
0.0
 45
0.0
 46
0.0
 47
0.0
 48
0.0
 49
0.0
140
0.0
141
0.0
142
1.0
143
1.0
 70
  1712
 72
     0
 73
     0
 74
     0
  7

 75
     0
 76
     0
 77
     5
 78
   300
147
1.0
148
0.0
149
0.0
100
AcDbLayout
  1
Model
 70
     1
 71
     0
 10
-6300.0
 20
-4455.0
 11
6300.0
 21
4455.0
 12
0.0
 22
0.0
 32
0.0
 14
-6300.0
 24
-4455.0
 34
0.0
 15
6300.0
 25
4455.0
 35
0.0
146
0.0
 13
0.0
 23
0.0
 33
0.0
 16
1.0
 26
0.0
 36
0.0
 17
0.0
 27
1.0
 37
0.0
 76
     0
330
1F
331
29
  0
MATERIAL
  5
3D
102
{ACAD_REACTORS
330
3B
102
}
330
3B
100
AcDbMaterial
  1
ByBlock
 72
     1
 94
      127
  0
MATERIAL
  5
3C
102
{ACAD_REACTORS
330
3B
102
}
330
3B
100
AcDbMaterial
  1
ByLayer
 72
     1
 94
      127
  0
MATERIAL
  5
3E
102
{ACAD_REACTORS
330
3B
102
}
330
3B
100
AcDbMaterial
  1
Global
 72
     1
 94
      127
  0
MLINESTYLE
  5
18
102
{ACAD_REACTORS
330
17
102
}
330
17
100
AcDbMlineStyle
  2
Standard
 70
     0
  3

 62
   256
 51
90.0
 52
90.0
 71
     2
 49
0.5
 62
   256
  6
BYLAYER
 49
-0.5
 62
   256
  6
BYLAYER
  0
ACDBPLACEHOLDER
  5
F
102
{ACAD_REACTORS
330
E
102
}
330
E
  0
VISUALSTYLE
  5
2F
102
{ACAD_REACTORS
330
2A
102
}
330
2A
100
AcDbVisualStyle
  2
2dWireframe
 70
     4
177
     2
291
     0
 71
     0
176
     1
 72
     2
176
     1
 73
     0
176
     1
 90
        0
176
     1
 40
-0.6
176
     1
 41
-30.0
176
     1
 62
     5
 63
     7
421
 16777215
176
     1
 74
     1
176
     1
 91
        4
176
     1
 64
     7
176
     1
 65
   257
176
     1
 75
     1
176
     1
175
     1
176
     1
 42
1.0
176
     1
 92
        0
176
     1
 66
   257
176
     1
 43
1.0
176
     1
 76
     1
176
     1
 77
     6
176
     1
 78
     2
176
     1
 67
     7
176
     1
 79
     5
176
     1
170
     0
176
     1
171
     0
176
     1
290
     0
176
     1
 93
        1
176
     1
 44
0.0
176
     1
173
     0
176
     1
  0
VISUALSTYLE
  5
31
102
{ACAD_REACTORS
330
2A
102
}
330
2A
100
AcDbVisualStyle
  2
3D Hidden
 70
     6
177
     2
291
     0
 71
     1
176
     1
 72
     2
176
     1
 73
     2
176
     1
 90
        0
176
     1
 40
-0.6
176
     1
 41
-30.0
176
     1
 62
     5
 63
     7
421
 16777215
176
     1
 74
     2
176
     1
 91
        2
176
     1
 64
     7
176
     1
 65
   257
176
     1
 75
     2
176
     1
175
     1
176
     1
 42
40.0
176
     1
 92
        0
176
     1
 66
   257
176
     1
 43
1.0
176
     1
 76
     1
176
     1
 77
     6
176
     1
 78
     2
176
     1
 67
     7
176
     1
 79
     3
176
     1
170
     0
176
     1
171
     0
176
     1
290
     0
176
     1
 93
        1
176
     1
 44
0.0
176
     1
173
     0
176
     1
  0
VISUALSTYLE
  5
30
102
{ACAD_REACTORS
330
2A
102
}
330
2A
100
AcDbVisualStyle
  2
3dWireframe
 70
     5
177
     2
291
     0
 71
     0
176
     1
 72
     2
176
     1
 73
     0
176
     1
 90
        0
176
     1
 40
-0.6
176
     1
 41
-30.0
176
     1
 62
     5
 63
     7
421
 16777215
176
     1
 74
     1
176
     1
 91
        4
176
     1
 64
     7
176
     1
 65
   257
176
     1
 75
     1
176
     1
175
     1
176
     1
 42
1.0
176
     1
 92
        0
176
     1
 66
   257
176
     1
 43
1.0
176
     1
 76
     1
176
     1
 77
     6
176
     1
 78
     2
176
     1
 67
     7
176
     1
 79
     5
176
     1
170
     0
176
     1
171
     0
176
     1
290
     0
176
     1
 93
        1
176
     1
 44
0.0
176
     1
173
     0
176
     1
  0
VISUALSTYLE
  5
32
102
{ACAD_REACTORS
330
2A
102
}
330
2A
100
AcDbVisualStyle
  2
Basic
 70
     7
177
     2
291
     1
 71
     1
176
     1
 72
     0
176
     1
 73
     1
176
     1
 90
        0
176
     1
 40
-0.6
176
     1
 41
-30.0
176
     1
 62
     5
 63
     7
421
 16777215
176
     1
 74
     0
176
     1
 91
        4
176
     1
 64
     7
176
     1
 65
   257
176
     1
 75
     1
176
     1
175
     1
176
     1
 42
1.0
176
     1
 92
        8
176
     1
 66
     7
176
     1
 43
1.0
176
     1
 76
     1
176
     1
 77
     6
176
     1
 78
     2
176
     1
 67
     7
176
     1
 79
     5
176
     1
170
     0
176
     1
171
     0
176
     1
290
     0
176
     1
 93
        1
176
     1
 44
0.0
176
     1
173
     0
176
     1
  0
VISUALSTYLE
  5
36
102
{ACAD_REACTORS
330
2A
102
}
330
2A
100
AcDbVisualStyle
  2
Brighten
 70
    12
177
     2
291
     1
 71
     2
176
     1
 72
     2
176
     1
 73
     0
176
     1
 90
        0
176
     1
 40
-0.6
176
     1
 41
-30.0
176
     1
 62
     5
 63
     7
421
 16777215
176
     1
 74
     1
176
     1
 91
        4
176
     1
 64
     7
176
     1
 65
   257
176
     1
 75
     1
176
     1
175
     1
176
     1
 42
1.0
176
     1
 92
        8
176
     1
 66
     7
176
     1
 43
1.0
176
     1
 76
     1
176
     1
 77
     6
176
     1
 78
     2
176
     1
 67
     7
176
     1
 79
     5
176
     1
170
     0
176
     1
171
     0
176
     1
290
     0
176
     1
 93
        1
176
     1
 44
50.0
176
     1
173
     0
176
     1
  0
VISUALSTYLE
  5
3A
102
{ACAD_REACTORS
330
2A
102
}
330
2A
100
AcDbVisualStyle
  2
ColorChange
 70
    16
177
     2
291
     1
 71
     2
176
     1
 72
     2
176
     1
 73
     3
176
     1
 90
        0
176
     1
 40
-0.6
176
     1
 41
-30.0
176
     1
 62
     5
 63
     8
421
  8421504
176
     1
 74
     1
176
     1
 91
        4
176
     1
 64
     7
176
     1
 65
   257
176
     1
 75
     1
176
     1
175
     1
176
     1
 42
1.0
176
     1
 92
        8
176
     1
 66
     8
424
  8421504
176
     1
 43
1.0
176
     1
 76
     1
176
     1
 77
     6
176
     1
 78
     2
176
     1
 67
     7
176
     1
 79
     5
176
     1
170
     0
176
     1
171
     0
176
     1
290
     0
176
     1
 93
        1
176
     1
 44
0.0
176
     1
173
     0
176
     1
  0
VISUALSTYLE
  5
34
102
{ACAD_REACTORS
330
2A
102
}
330
2A
100
AcDbVisualStyle
  2
Conceptual
 70
     9
177
     2
291
     0
 71
     3
176
     1
 72
     2
176
     1
 73
     0
176
     1
 90
        0
176
     1
 40
-0.6
176
     1
 41
-30.0
176
     1
 62
     5
 63
     7
421
 16777215
176
     1
 74
     2
176
     1
 91
        2
176
     1
 64
     7
176
     1
 65
   257
176
     1
 75
     1
176
     1
175
     1
176
     1
 42
40.0
176
     1
 92
        8
176
     1
 66
     7
176
     1
 43
1.0
176
     1
 76
     1
176
     1
 77
     6
176
     1
 78
     2
176
     1
 67
     7
176
     1
 79
     3
176
     1
170
     0
176
     1
171
     0
176
     1
290
     0
176
     1
 93
        1
176
     1
 44
0.0
176
     1
173
     0
176
     1
  0
VISUALSTYLE
  5
35
102
{ACAD_REACTORS
330
2A
102
}
330
2A
100
AcDbVisualStyle
  2
Dim
 70
    11
177
     2
291
     1
 71
     2
176
     1
 72
     2
176
     1
 73
     0
176
     1
 90
        0
176
     1
 40
-0.6
176
     1
 41
-30.0
176
     1
 62
     5
 63
     7
421
 16777215
176
     1
 74
     1
176
     1
 91
        4
176
     1
 64
     7
176
     1
 65
   257
176
     1
 75
     1
176
     1
175
     1
176
     1
 42
1.0
176
     1
 92
        8
176
     1
 66
     7
176
     1
 43
1.0
176
     1
 76
     1
176
     1
 77
     6
176
     1
 78
     2
176
     1
 67
     7
176
     1
 79
     5
176
     1
170
     0
176
     1
171
     0
176
     1
290
     0
176
     1
 93
        1
176
     1
 44
-50.0
176
     1
173
     0
176
     1
  0
VISUALSTYLE
  5
39
102
{ACAD_REACTORS
330
2A
102
}
330
2A
100
AcDbVisualStyle
  2
Facepattern
 70
    15
177
     2
291
     1
 71
     2
176
     1
 72
     2
176
     1
 73
     0
176
     1
 90
        0
176
     1
 40
-0.6
176
     1
 41
-30.0
176
     1
 62
     5
 63
     7
421
 16777215
176
     1
 74
     1
176
     1
 91
        4
176
     1
 64
     7
176
     1
 65
   257
176
     1
 75
     1
176
     1
175
     1
176
     1
 42
1.0
176
     1
 92
        8
176
     1
 66
     7
176
     1
 43
1.0
176
     1
 76
     1
176
     1
 77
     6
176
     1
 78
     2
176
     1
 67
     7
176
     1
 79
     5
176
     1
170
     0
176
     1
171
     0
176
     1
290
     0
176
     1
 93
        1
176
     1
 44
0.0
176
     1
173
     0
176
     1
  0
VISUALSTYLE
  5
2B
102
{ACAD_REACTORS
330
2A
102
}
330
2A
100
AcDbVisualStyle
  2
Flat
 70
     0
177
     2
291
     1
 71
     2
176
     1
 72
     1
176
     1
 73
     1
176
     1
 90
        2
176
     1
 40
-0.6
176
     1
 41
30.0
176
     1
 62
     5
 63
     7
421
 16777215
176
     1
 74
     0
176
     1
 91
        4
176
     1
 64
     7
176
     1
 65
   257
176
     1
 75
     1
176
     1
175
     1
176
     1
 42
1.0
176
     1
 92
        8
176
     1
 66
     7
176
     1
 43
1.0
176
     1
 76
     1
176
     1
 77
     6
176
     1
 78
     2
176
     1
 67
     7
176
     1
 79
     5
176
     1
170
     0
176
     1
171
     0
176
     1
290
     0
176
     1
 93
       13
176
     1
 44
0.0
176
     1
173
     0
176
     1
  0
VISUALSTYLE
  5
2C
102
{ACAD_REACTORS
330
2A
102
}
330
2A
100
AcDbVisualStyle
  2
FlatWithEdges
 70
     1
177
     2
291
     1
 71
     2
176
     1
 72
     1
176
     1
 73
     1
176
     1
 90
        2
176
     1
 40
-0.6
176
     1
 41
30.0
176
     1
 62
     5
 63
     7
421
 16777215
176
     1
 74
     1
176
     1
 91
        4
176
     1
 64
     7
176
     1
 65
   257
176
     1
 75
     1
176
     1
175
     1
176
     1
 42
1.0
176
     1
 92
        0
176
     1
 66
   257
176
     1
 43
1.0
176
     1
 76
     1
176
     1
 77
     6
176
     1
 78
     2
176
     1
 67
     7
176
     1
 79
     5
176
     1
170
     0
176
     1
171
     0
176
     1
290
     0
176
     1
 93
       13
176
     1
 44
0.0
176
     1
173
     0
176
     1
  0
VISUALSTYLE
  5
2D
102
{ACAD_REACTORS
330
2A
102
}
330
2A
100
AcDbVisualStyle
  2
Gouraud
 70
     2
177
     2
291
     1
 71
     2
176
     1
 72
     2
176
     1
 73
     1
176
     1
 90
        2
176
     1
 40
-0.6
176
     1
 41
30.0
176
     1
 62
     5
 63
     7
421
 16777215
176
     1
 74
     0
176
     1
 91
        4
176
     1
 64
     7
176
     1
 65
   257
176
     1
 75
     1
176
     1
175
     1
176
     1
 42
1.0
176
     1
 92
        0
176
     1
 66
     7
176
     1
 43
1.0
176
     1
 76
     1
176
     1
 77
     6
176
     1
 78
     2
176
     1
 67
     7
176
     1
 79
     5
176
     1
170
     0
176
     1
171
     0
176
     1
290
     0
176
     1
 93
       13
176
     1
 44
0.0
176
     1
173
     0
176
     1
  0
VISUALSTYLE
  5
2E
102
{ACAD_REACTORS
330
2A
102
}
330
2A
100
AcDbVisualStyle
  2
GouraudWithEdges
 70
     3
177
     2
291
     1
 71
     2
176
     1
 72
     2
176
     1
 73
     1
176
     1
 90
        2
176
     1
 40
-0.6
176
     1
 41
30.0
176
     1
 62
     5
 63
     7
421
 16777215
176
     1
 74
     1
176
     1
 91
        4
176
     1
 64
     7
176
     1
 65
   257
176
     1
 75
     1
176
     1
175
     1
176
     1
 42
1.0
176
     1
 92
        0
176
     1
 66
   257
176
     1
 43
1.0
176
     1
 76
     1
176
     1
 77
     6
176
     1
 78
     2
176
     1
 67
     7
176
     1
 79
     5
176
     1
170
     0
176
     1
171
     0
176
     1
290
     0
176
     1
 93
       13
176
     1
 44
0.0
176
     1
173
     0
176
     1
  0
VISUALSTYLE
  5
38
102
{ACAD_REACTORS
330
2A
102
}
330
2A
100
AcDbVisualStyle
  2
Linepattern
 70
    14
177
     2
291
     1
 71
     2
176
     1
 72
     2
176
     1
 73
     0
176
     1
 90
        0
176
     1
 40
-0.6
176
     1
 41
-30.0
176
     1
 62
     5
 63
     7
421
 16777215
176
     1
 74
     1
176
     1
 91
        4
176
     1
 64
     7
176
     1
 65
   257
176
     1
 75
     7
176
     1
175
     7
176
     1
 42
1.0
176
     1
 92
        8
176
     1
 66
     7
176
     1
 43
1.0
176
     1
 76
     1
176
     1
 77
     6
176
     1
 78
     2
176
     1
 67
     7
176
     1
 79
     5
176
     1
170
     0
176
     1
171
     0
176
     1
290
     0
176
     1
 93
        1
176
     1
 44
0.0
176
     1
173
     0
176
     1
  0
VISUALSTYLE
  5
33
102
{ACAD_REACTORS
330
2A
102
}
330
2A
100
AcDbVisualStyle
  2
Realistic
 70
     8
177
     2
291
     0
 71
     2
176
     1
 72
     2
176
     1
 73
     0
176
     1
 90
        0
176
     1
 40
-0.6
176
     1
 41
-30.0
176
     1
 62
     5
 63
     7
421
 16777215
176
     1
 74
     1
176
     1
 91
        0
176
     1
 64
     7
176
     1
 65
   257
176
     1
 75
     1
176
     1
175
     1
176
     1
 42
1.0
176
     1
 92
        8
176
     1
 66
     8
424
  7895160
176
     1
 43
1.0
176
     1
 76
     1
176
     1
 77
     6
176
     1
 78
     2
176
     1
 67
     7
176
     1
 79
     5
176
     1
170
     0
176
     1
171
     0
176
     1
290
     0
176
     1
 93
       13
176
     1
 44
0.0
176
     1
173
     0
176
     1
  0
VISUALSTYLE
  5
37
102
{ACAD_REACTORS
330
2A
102
}
330
2A
100
AcDbVisualStyle
  2
Thicken
 70
    13
177
     2
291
     1
 71
     2
176
     1
 72
     2
176
     1
 73
     0
176
     1
 90
        0
176
     1
 40
-0.6
176
     1
 41
-30.0
176
     1
 62
     5
 63
     7
421
 16777215
176
     1
 74
     1
176
     1
 91
        4
176
     1
 64
     7
176
     1
 65
   257
176
     1
 75
     1
176
     1
175
     1
176
     1
 42
1.0
176
     1
 92
       12
176
     1
 66
     7
176
     1
 43
1.0
176
     1
 76
     1
176
     1
 77
     6
176
     1
 78
     2
176
     1
 67
     7
176
     1
 79
     5
176
     1
170
     0
176
     1
171
     0
176
     1
290
     0
176
     1
 93
        1
176
     1
 44
0.0
176
     1
173
     0
176
     1
  0
ENDSEC
  0
EOF
