  0
SECTION
  2
HEADER
  9
$ACADVER
  1
AC1024
  9
$ACADMAINTVER
 70
     6
  9
$DWGCODEPAGE
  3
ANSI_932
  9
$INSBASE
 10
0.0
 20
0.0
 30
0.0
  9
$EXTMIN
 10
-6300.0
 20
-4455.0
 30
0.0
  9
$EXTMAX
 10
6300.0
 20
4455.0
 30
0.0
  9
$LIMMIN
 10
-6300.0
 20
-4455.0
  9
$LIMMAX
 10
6300.0
 20
4455.0
  9
$ORTHOMODE
 70
     0
  9
$REGENMODE
 70
     1
  9
$FILLMODE
 70
     1
  9
$QTEXTMODE
 70
     0
  9
$MIRRTEXT
 70
     1
  9
$LTSCALE
 40
30.0
  9
$ATTMODE
 70
     1
  9
$TEXTSIZE
 40
2.5
  9
$TRACEWID
 40
1.0
  9
$TEXTSTYLE
  7
Standard
  9
$CLAYER
  8
0
  9
$CELTYPE
  6
ByLayer
  9
$CECOLOR
 62
   256
  9
$CELTSCALE
 40
1.0
  9
$DISPSILH
 70
     0
  9
$DIMSCALE
 40
1.0
  9
$DIMASZ
 40
2.5
  9
$DIMEXO
 40
0.625
  9
$DIMDLI
 40
3.75
  9
$DIMRND
 40
0.0
  9
$DIMDLE
 40
0.0
  9
$DIMEXE
 40
1.25
  9
$DIMTP
 40
0.0
  9
$DIMTM
 40
0.0
  9
$DIMTXT
 40
2.5
  9
$DIMCEN
 40
2.5
  9
$DIMTSZ
 40
0.0
  9
$DIMTOL
 70
     0
  9
$DIMLIM
 70
     0
  9
$DIMTIH
 70
     0
  9
$DIMTOH
 70
     0
  9
$DIMSE1
 70
     0
  9
$DIMSE2
 70
     0
  9
$DIMTAD
 70
     1
  9
$DIMZIN
 70
     8
  9
$DIMBLK
  1

  9
$DIMASO
 70
     1
  9
$DIMSHO
 70
     1
  9
$DIMPOST
  1

  9
$DIMAPOST
  1

  9
$DIMALT
 70
     0
  9
$DIMALTD
 70
     3
  9
$DIMALTF
 40
0.03937007874016
  9
$DIMLFAC
 40
1.0
  9
$DIMTOFL
 70
     1
  9
$DIMTVP
 40
0.0
  9
$DIMTIX
 70
     0
  9
$DIMSOXD
 70
     0
  9
$DIMSAH
 70
     0
  9
$DIMBLK1
  1

  9
$DIMBLK2
  1

  9
$DIMSTYLE
  2
ISO-25
  9
$DIMCLRD
 70
     0
  9
$DIMCLRE
 70
     0
  9
$DIMCLRT
 70
     0
  9
$DIMTFAC
 40
1.0
  9
$DIMGAP
 40
0.625
  9
$DIMJUST
 70
     0
  9
$DIMSD1
 70
     0
  9
$DIMSD2
 70
     0
  9
$DIMTOLJ
 70
     0
  9
$DIMTZIN
 70
     8
  9
$DIMALTZ
 70
     0
  9
$DIMALTTZ
 70
     0
  9
$DIMUPT
 70
     0
  9
$DIMDEC
 70
     2
  9
$DIMTDEC
 70
     2
  9
$DIMALTU
 70
     2
  9
$DIMALTTD
 70
     3
  9
$DIMTXSTY
  7
Standard
  9
$DIMAUNIT
 70
     0
  9
$DIMADEC
 70
     0
  9
$DIMALTRND
 40
0.0
  9
$DIMAZIN
 70
     0
  9
$DIMDSEP
 70
    44
  9
$DIMATFIT
 70
     3
  9
$DIMFRAC
 70
     0
  9
$DIMLDRBLK
  1

  9
$DIMLUNIT
 70
     2
  9
$DIMLWD
 70
    -2
  9
$DIMLWE
 70
    -2
  9
$DIMTMOVE
 70
     0
  9
$DIMFXL
 40
1.0
  9
$DIMFXLON
 70
     0
  9
$DIMJOGANG
 40
0.7853981633974483
  9
$DIMTFILL
 70
     0
  9
$DIMTFILLCLR
 70
     0
  9
$DIMARCSYM
 70
     0
  9
$DIMLTYPE
  6

  9
$DIMLTEX1
  6

  9
$DIMLTEX2
  6

  9
$DIMTXTDIRECTION
 70
     0
  9
$LUNITS
 70
     2
  9
$LUPREC
 70
     4
  9
$SKETCHINC
 40
1.0
  9
$FILLETRAD
 40
10.0
  9
$AUNITS
 70
     0
  9
$AUPREC
 70
     0
  9
$MENU
  1
.
  9
$ELEVATION
 40
0.0
  9
$PELEVATION
 40
0.0
  9
$THICKNESS
 40
0.0
  9
$LIMCHECK
 70
     0
  9
$CHAMFERA
 40
10.0
  9
$CHAMFERB
 40
10.0
  9
$CHAMFERC
 40
20.0
  9
$CHAMFERD
 40
0.0
  9
$SKPOLY
 70
     0
  9
$TDCREATE
 40
2459380.617514769
  9
$TDUCREATE
 40
2459380.242514769
  9
$TDUPDATE
 40
2459380.61751478
  9
$TDUUPDATE
 40
2459380.24251478
  9
$TDINDWG
 40
0.0000000116
  9
$TDUSRTIMER
 40
0.0000000116
  9
$USRTIMER
 70
     1
  9
$ANGBASE
 50
0.0
  9
$ANGDIR
 70
     0
  9
$PDMODE
 70
     0
  9
$PDSIZE
 40
0.0
  9
$PLINEWID
 40
0.0
  9
$SPLFRAME
 70
     0
  9
$SPLINETYPE
 70
     6
  9
$SPLINESEGS
 70
     8
  9
$HANDSEED
  5
462
  9
$SURFTAB1
 70
     6
  9
$SURFTAB2
 70
     6
  9
$SURFTYPE
 70
     6
  9
$SURFU
 70
     6
  9
$SURFV
 70
     6
  9
$UCSBASE
  2

  9
$UCSNAME
  2

  9
$UCSORG
 10
0.0
 20
0.0
 30
0.0
  9
$UCSXDIR
 10
1.0
 20
0.0
 30
0.0
  9
$UCSYDIR
 10
0.0
 20
1.0
 30
0.0
  9
$UCSORTHOREF
  2

  9
$UCSORTHOVIEW
 70
     0
  9
$UCSORGTOP
 10
0.0
 20
0.0
 30
0.0
  9
$UCSORGBOTTOM
 10
0.0
 20
0.0
 30
0.0
  9
$UCSORGLEFT
 10
0.0
 20
0.0
 30
0.0
  9
$UCSORGRIGHT
 10
0.0
 20
0.0
 30
0.0
  9
$UCSORGFRONT
 10
0.0
 20
0.0
 30
0.0
  9
$UCSORGBACK
 10
0.0
 20
0.0
 30
0.0
  9
$PUCSBASE
  2

  9
$PUCSNAME
  2

  9
$PUCSORG
 10
0.0
 20
0.0
 30
0.0
  9
$PUCSXDIR
 10
1.0
 20
0.0
 30
0.0
  9
$PUCSYDIR
 10
0.0
 20
1.0
 30
0.0
  9
$PUCSORTHOREF
  2

  9
$PUCSORTHOVIEW
 70
     0
  9
$PUCSORGTOP
 10
0.0
 20
0.0
 30
0.0
  9
$PUCSORGBOTTOM
 10
0.0
 20
0.0
 30
0.0
  9
$PUCSORGLEFT
 10
0.0
 20
0.0
 30
0.0
  9
$PUCSORGRIGHT
 10
0.0
 20
0.0
 30
0.0
  9
$PUCSORGFRONT
 10
0.0
 20
0.0
 30
0.0
  9
$PUCSORGBACK
 10
0.0
 20
0.0
 30
0.0
  9
$USERI1
 70
     0
  9
$USERI2
 70
     0
  9
$USERI3
 70
     0
  9
$USERI4
 70
     0
  9
$USERI5
 70
     0
  9
$USERR1
 40
0.0
  9
$USERR2
 40
0.0
  9
$USERR3
 40
0.0
  9
$USERR4
 40
0.0
  9
$USERR5
 40
0.0
  9
$WORLDVIEW
 70
     1
  9
$SHADEDGE
 70
     3
  9
$SHADEDIF
 70
    70
  9
$TILEMODE
 70
     1
  9
$MAXACTVP
 70
    64
  9
$PINSBASE
 10
0.0
 20
0.0
 30
0.0
  9
$PLIMCHECK
 70
     0
  9
$PEXTMIN
 10
1.000000000000000E+20
 20
1.000000000000000E+20
 30
1.000000000000000E+20
  9
$PEXTMAX
 10
-1.000000000000000E+20
 20
-1.000000000000000E+20
 30
-1.000000000000000E+20
  9
$PLIMMIN
 10
0.0
 20
0.0
  9
$PLIMMAX
 10
420.0
 20
297.0
  9
$UNITMODE
 70
     0
  9
$VISRETAIN
 70
     1
  9
$PLINEGEN
 70
     0
  9
$PSLTSCALE
 70
     1
  9
$TREEDEPTH
 70
  3020
  9
$CMLSTYLE
  2
Standard
  9
$CMLJUST
 70
     0
  9
$CMLSCALE
 40
20.0
  9
$PROXYGRAPHICS
 70
     1
  9
$MEASUREMENT
 70
     1
  9
$CELWEIGHT
370
    -1
  9
$ENDCAPS
280
     0
  9
$JOINSTYLE
280
     0
  9
$LWDISPLAY
290
     0
  9
$INSUNITS
 70
     4
  9
$HYPERLINKBASE
  1

  9
$STYLESHEET
  1

  9
$XEDIT
290
     1
  9
$CEPSNTYPE
380
     0
  9
$PSTYLEMODE
290
     1
  9
$FINGERPRINTGUID
  2
{4CCE45FD-CEF9-4A85-ADA8-682CDABD7587}
  9
$VERSIONGUID
  2
{FAEB1C32-E019-11D5-929B-00C0DF256EC4}
  9
$EXTNAMES
290
     1
  9
$PSVPSCALE
 40
0.0
  9
$OLESTARTUP
290
     0
  9
$SORTENTS
280
   127
  9
$INDEXCTL
280
     0
  9
$HIDETEXT
280
     1
  9
$XCLIPFRAME
280
     2
  9
$HALOGAP
280
     0
  9
$OBSCOLOR
 70
   257
  9
$OBSLTYPE
280
     0
  9
$INTERSECTIONDISPLAY
280
     0
  9
$INTERSECTIONCOLOR
 70
   257
  9
$DIMASSOC
280
     2
  9
$PROJECTNAME
  1

  9
$CAMERADISPLAY
290
     0
  9
$LENSLENGTH
 40
50.0
  9
$CAMERAHEIGHT
 40
0.0
  9
$STEPSPERSEC
 40
2.0
  9
$STEPSIZE
 40
6.0
  9
$3DDWFPREC
 40
2.0
  9
$PSOLWIDTH
 40
5.0
  9
$PSOLHEIGHT
 40
80.0
  9
$LOFTANG1
 40
1.570796326794897
  9
$LOFTANG2
 40
1.570796326794897
  9
$LOFTMAG1
 40
0.0
  9
$LOFTMAG2
 40
0.0
  9
$LOFTPARAM
 70
     7
  9
$LOFTNORMALS
280
     1
  9
$LATITUDE
 40
37.795
  9
$LONGITUDE
 40
-122.394
  9
$NORTHDIRECTION
 40
0.0
  9
$TIMEZONE
 70
 -8000
  9
$LIGHTGLYPHDISPLAY
280
     1
  9
$TILEMODELIGHTSYNCH
280
     1
  9
$SOLIDHIST
280
     1
  9
$SHOWHIST
280
     1
  9
$DWFFRAME
280
     2
  9
$DGNFRAME
280
     2
  9
$REALWORLDSCALE
290
     1
  9
$INTERFERECOLOR
 62
   256
  9
$CSHADOW
280
     0
  9
$SHADOWPLANELOCATION
 40
0.0
  0
ENDSEC
  0
SECTION
  2
CLASSES
  0
CLASS
  1
ACDBDICTIONARYWDFLT
  2
AcDbDictionaryWithDefault
  3
ObjectDBX Classes
 90
        0
 91
        4
280
     0
281
     0
  0
CLASS
  1
VISUALSTYLE
  2
AcDbVisualStyle
  3
ObjectDBX Classes
 90
     4095
 91
        4
280
     0
281
     0
  0
CLASS
  1
MATERIAL
  2
AcDbMaterial
  3
ObjectDBX Classes
 90
     1153
 91
        4
280
     0
281
     0
  0
ENDSEC
  0
SECTION
  2
TABLES
  0
TABLE
  2
VPORT
  5
8
330
0
100
AcDbSymbolTable
 70
     1
  0
VPORT
  5
29
330
8
100
AcDbSymbolTableRecord
100
AcDbViewportTableRecord
  2
*Active
 70
     0
 10
0.0
 20
0.0
 11
1.0
 21
1.0
 12
0.0
 22
0.0
 13
0.0
 23
0.0
 14
10.0
 24
10.0
 15
10.0
 25
10.0
 16
0.0
 26
0.0
 36
1.0
 17
0.0
 27
0.0
 37
0.0
 40
9801.0
 41
1.414141414141414
 42
50.0
 43
0.0
 44
0.0
 50
0.0
 51
0.0
 71
     0
 72
 10000
 73
     1
 74
     3
 75
     0
 76
     0
 77
     0
 78
     0
281
     0
 65
     1
110
0.0
120
0.0
130
0.0
111
1.0
121
0.0
131
0.0
112
0.0
122
1.0
132
0.0
 79
     0
146
0.0
 60
     3
 61
     5
292
     1
282
     1
141
0.0
142
0.0
 63
   250
  0
ENDTAB
  0
TABLE
  2
LTYPE
  5
5
330
0
100
AcDbSymbolTable
 70
     5
  0
LTYPE
  5
14
330
5
100
AcDbSymbolTableRecord
100
AcDbLinetypeTableRecord
  2
ByBlock
 70
     0
  3

 72
    65
 73
     0
 40
0.0
  0
LTYPE
  5
15
330
5
100
AcDbSymbolTableRecord
100
AcDbLinetypeTableRecord
  2
ByLayer
 70
     0
  3

 72
    65
 73
     0
 40
0.0
  0
LTYPE
  5
16
330
5
100
AcDbSymbolTableRecord
100
AcDbLinetypeTableRecord
  2
Continuous
 70
     0
  3
Solid line
 72
    65
 73
     0
 40
0.0
  0
LTYPE
  5
3F
330
5
100
AcDbSymbolTableRecord
100
AcDbLinetypeTableRecord
  2
JWW_HOJO
 70
     0
  3
  -   -   -   -   -   -   -   - 
 72
    65
 73
     2
 40
1.693333333333333
 49
-1.27
 74
     0
 49
0.4233333333333333
 74
     0
  0
LTYPE
  5
40
330
5
100
AcDbSymbolTableRecord
100
AcDbLinetypeTableRecord
  2
JWW_DASHED2
 70
     0
  3
--    ----    ----    ----    --
 72
    65
 73
     2
 40
3.386666666666667
 49
1.693333333333333
 74
     0
 49
-1.693333333333333
 74
     0
  0
LTYPE
  5
41
330
5
100
AcDbSymbolTableRecord
100
AcDbLinetypeTableRecord
  2
JWW_CENTER1
 70
     0
  3
-----  --  ----------  --  -----
 72
    65
 73
     4
 40
6.773333333333333
 49
4.233333333333333
 74
     0
 49
-0.8466666666666667
 74
     0
 49
0.8466666666666667
 74
     0
 49
-0.8466666666666667
 74
     0
  0
LTYPE
  5
42
330
5
100
AcDbSymbolTableRecord
100
AcDbLinetypeTableRecord
  2
JWW_DASHED1
 70
     0
  3
-  --  --  --  --  --  --  --  -
 72
    65
 73
     2
 40
1.693333333333333
 49
0.8466666666666667
 74
     0
 49
-0.8466666666666667
 74
     0
  0
ENDTAB
  0
TABLE
  2
LAYER
  5
2
330
0
100
AcDbSymbolTable
 70
    13
  0
LAYER
  5
10
330
2
100
AcDbSymbolTableRecord
100
AcDbLayerTableRecord
  2
0
 70
     0
 62
     7
  6
Continuous
370
    -3
390
F
347
3E
  0
LAYER
  5
43
330
2
100
AcDbSymbolTableRecord
100
AcDbLayerTableRecord
  2
F-A_文字
 70
     0
 62
     7
  6
Continuous
370
    -3
390
F
347
3E
  0
LAYER
  5
44
330
2
100
AcDbSymbolTableRecord
100
AcDbLayerTableRecord
  2
F-0_補助線
 70
     0
 62
     7
  6
Continuous
370
    -3
390
F
347
3E
  0
LAYER
  5
45
330
2
100
AcDbSymbolTableRecord
100
AcDbLayerTableRecord
  2
0-B_寸法
 70
     0
 62
     7
  6
Continuous
370
    -3
390
F
347
3E
  0
LAYER
  5
46
330
2
100
AcDbSymbolTableRecord
100
AcDbLayerTableRecord
  2
F-1_枠
 70
     0
 62
     7
  6
Continuous
370
    -3
390
F
347
3E
  0
LAYER
  5
47
330
2
100
AcDbSymbolTableRecord
100
AcDbLayerTableRecord
  2
0-A_文字
 70
     0
 62
     7
  6
Continuous
370
    -3
390
F
347
3E
  0
LAYER
  5
48
330
2
100
AcDbSymbolTableRecord
100
AcDbLayerTableRecord
  2
0-7_金物
 70
     0
 62
     7
  6
Continuous
370
    -3
390
F
347
3E
  0
LAYER
  5
49
330
2
100
AcDbSymbolTableRecord
100
AcDbLayerTableRecord
  2
0-6_扉
 70
     0
 62
     7
  6
Continuous
370
    -3
390
F
347
3E
  0
LAYER
  5
4A
330
2
100
AcDbSymbolTableRecord
100
AcDbLayerTableRecord
  2
0-4_枠
 70
     0
 62
     7
  6
Continuous
370
    -3
390
F
347
3E
  0
LAYER
  5
4B
330
2
100
AcDbSymbolTableRecord
100
AcDbLayerTableRecord
  2
0-C_ハッチ
 70
     0
 62
     7
  6
Continuous
370
    -3
390
F
347
3E
  0
LAYER
  5
4C
330
2
100
AcDbSymbolTableRecord
100
AcDbLayerTableRecord
  2
0-3_仕上げ
 70
     0
 62
     7
  6
Continuous
370
    -3
390
F
347
3E
  0
LAYER
  5
4D
330
2
100
AcDbSymbolTableRecord
100
AcDbLayerTableRecord
  2
0-0_補助線
 70
     0
 62
     7
  6
Continuous
370
    -3
390
F
347
3E
  0
LAYER
  5
4E
330
2
100
AcDbSymbolTableRecord
100
AcDbLayerTableRecord
  2
0-1_通り芯
 70
     0
 62
     7
  6
Continuous
370
    -3
390
F
347
3E
  0
ENDTAB
  0
TABLE
  2
STYLE
  5
3
330
0
100
AcDbSymbolTable
 70
     1
  0
STYLE
  5
11
330
3
100
AcDbSymbolTableRecord
100
AcDbTextStyleTableRecord
  2
Standard
 70
     0
 40
0.0
 41
1.0
 50
0.0
 71
     0
 42
2.5
  3
txt
  4

  0
ENDTAB
  0
TABLE
  2
VIEW
  5
6
330
0
100
AcDbSymbolTable
 70
     0
  0
ENDTAB
  0
TABLE
  2
UCS
  5
7
330
0
100
AcDbSymbolTable
 70
     0
  0
ENDTAB
  0
TABLE
  2
APPID
  5
9
330
0
100
AcDbSymbolTable
 70
     1
  0
APPID
  5
12
330
9
100
AcDbSymbolTableRecord
100
AcDbRegAppTableRecord
  2
ACAD
 70
     0
  0
ENDTAB
  0
TABLE
  2
DIMSTYLE
  5
A
330
0
100
AcDbSymbolTable
 70
     1
100
AcDbDimStyleTable
  0
DIMSTYLE
105
27
330
A
100
AcDbSymbolTableRecord
100
AcDbDimStyleTableRecord
  2
ISO-25
 70
     0
 41
2.5
 42
0.625
 43
3.75
 44
1.25
 73
     0
 74
     0
 77
     1
 78
     8
140
2.5
141
2.5
143
0.03937007874016
147
0.625
171
     3
172
     1
178
     0
271
     2
272
     2
274
     3
278
    44
283
     0
284
     8
340
11
  0
ENDTAB
  0
TABLE
  2
BLOCK_RECORD
  5
1
330
0
100
AcDbSymbolTable
 70
     1
  0
BLOCK_RECORD
  5
1F
330
1
100
AcDbSymbolTableRecord
100
AcDbBlockTableRecord
  2
*Model_Space
340
22
 70
     0
280
     1
281
     0
  0
BLOCK_RECORD
  5
1B
330
1
100
AcDbSymbolTableRecord
100
AcDbBlockTableRecord
  2
*Paper_Space
340
1E
 70
     0
280
     1
281
     0
  0
BLOCK_RECORD
  5
23
330
1
100
AcDbSymbolTableRecord
100
AcDbBlockTableRecord
  2
*Paper_Space0
340
26
 70
     0
280
     1
281
     0
  0
ENDTAB
  0
ENDSEC
  0
SECTION
  2
BLOCKS
  0
BLOCK
  5
20
330
1F
100
AcDbEntity
  8
0
100
AcDbBlockBegin
  2
*Model_Space
 70
     0
 10
0.0
 20
0.0
 30
0.0
  3
*Model_Space
  1

  0
ENDBLK
  5
21
330
1F
100
AcDbEntity
  8
0
100
AcDbBlockEnd
  0
BLOCK
  5
1C
330
1B
100
AcDbEntity
 67
     1
  8
0
100
AcDbBlockBegin
  2
*Paper_Space
 70
     0
 10
0.0
 20
0.0
 30
0.0
  3
*Paper_Space
  1

  0
ENDBLK
  5
1D
330
1B
100
AcDbEntity
 67
     1
  8
0
100
AcDbBlockEnd
  0
BLOCK
  5
24
330
23
100
AcDbEntity
  8
0
100
AcDbBlockBegin
  2
*Paper_Space0
 70
     0
 10
0.0
 20
0.0
 30
0.0
  3
*Paper_Space0
  1

  0
ENDBLK
  5
25
330
23
100
AcDbEntity
  8
0
100
AcDbBlockEnd
  0
ENDSEC
  0
SECTION
  2
ENTITIES
  0
MTEXT
  5
4F
330
1F
100
AcDbEntity
  8
F-A_文字
  6
Continuous
 62
     7
370
     0
100
AcDbMText
 10
3689.917643811961
 20
-3946.903115907308
 30
0.0
 40
76.19999999999999
 41
150.0
 46
0.0
 71
     7
 72
     1
  1
{\fＭＳ ゴシック|b0|i0|c128|p49;1/5}
 73
     1
 44
1.0
  0
LINE
  5
50
330
1F
100
AcDbEntity
  8
F-0_補助線
  6
JWW_HOJO
 62
   120
370
     5
100
AcDbLine
 10
6159.917676803936
 20
-4455.0
 30
0.0
 11
-6140.081333436773
 21
-4455.0
 31
0.0
  0
MTEXT
  5
51
330
1F
100
AcDbEntity
  8
F-A_文字
  6
Continuous
 62
     7
370
     0
100
AcDbMText
 10
5768.321977672939
 20
-4314.841419020919
 30
0.0
 40
68.58
 41
90.0
 46
0.0
 71
     7
 72
     1
  1
{\fＭＳ ゴシック|b0|i0|c128|p49;）}
 73
     1
 44
1.0
  0
MTEXT
  5
52
330
1F
100
AcDbEntity
  8
F-A_文字
  6
Continuous
 62
     7
370
     0
100
AcDbMText
 10
5548.066114483239
 20
-4314.771967288282
 30
0.0
 40
74.295
 41
195.0
 46
0.0
 71
     7
 72
     1
  1
{\fＭＳ ゴシック|b0|i0|c128|p49;印刷}
 73
     1
 44
1.0
  0
MTEXT
  5
53
330
1F
100
AcDbEntity
  8
F-A_文字
  6
Continuous
 62
     7
370
     0
100
AcDbMText
 10
5393.32938200033
 20
-4314.771967288282
 30
0.0
 40
74.295
 41
97.5
 46
0.0
 71
     7
 72
     1
  1
{\fＭＳ ゴシック|b0|i0|c128|p49;$d}
 73
     1
 44
1.0
  0
MTEXT
  5
54
330
1F
100
AcDbEntity
  8
F-A_文字
  6
Continuous
 62
     7
370
     0
100
AcDbMText
 10
5350.114617405298
 20
-4316.235443869856
 30
0.0
 40
68.58
 41
45.0
 46
0.0
 71
     7
 72
     1
  1
{\fＭＳ ゴシック|b0|i0|c128|p49;,}
 73
     1
 44
1.0
  0
MTEXT
  5
55
330
1F
100
AcDbEntity
  8
F-A_文字
  6
Continuous
 62
     7
370
     0
100
AcDbMText
 10
5238.592649517422
 20
-4314.771967288282
 30
0.0
 40
74.295
 41
97.5
 46
0.0
 71
     7
 72
     1
  1
{\fＭＳ ゴシック|b0|i0|c128|p49;$m}
 73
     1
 44
1.0
  0
MTEXT
  5
56
330
1F
100
AcDbEntity
  8
F-A_文字
  6
Continuous
 62
     7
370
     0
100
AcDbMText
 10
5191.195810375571
 20
-4319.023493567732
 30
0.0
 40
68.58
 41
45.0
 46
0.0
 71
     7
 72
     1
  1
{\fＭＳ ゴシック|b0|i0|c128|p49;,}
 73
     1
 44
1.0
  0
MTEXT
  5
57
330
1F
100
AcDbEntity
  8
F-A_文字
  6
Continuous
 62
     7
370
     0
100
AcDbMText
 10
5083.855928478601
 20
-4314.771967288282
 30
0.0
 40
74.295
 41
97.5
 46
0.0
 71
     7
 72
     1
  1
{\fＭＳ ゴシック|b0|i0|c128|p49;$y}
 73
     1
 44
1.0
  0
MTEXT
  5
58
330
1F
100
AcDbEntity
  8
F-A_文字
  6
Continuous
 62
     7
370
     0
100
AcDbMText
 10
4943.952040816226
 20
-4319.023493567732
 30
0.0
 40
68.58
 41
90.0
 46
0.0
 71
     7
 72
     1
  1
{\fＭＳ ゴシック|b0|i0|c128|p49;（}
 73
     1
 44
1.0
  0
MTEXT
  5
59
330
1F
100
AcDbEntity
  8
F-A_文字
  6
Continuous
 62
     7
370
     0
100
AcDbMText
 10
4439.917891251784
 20
-3887.143854850754
 30
0.0
 40
45.72
 41
240.0
 46
0.0
 71
     7
 72
     1
  1
{\fＭＳ ゴシック|b0|i0|c128|p49;ＤＡＴＥ}
 73
     1
 44
1.0
  0
MTEXT
  5
5A
330
1F
100
AcDbEntity
  8
F-A_文字
  6
Continuous
 62
     7
370
     0
100
AcDbMText
 10
4439.917891251784
 20
-4087.143857410839
 30
0.0
 40
45.72
 41
180.0
 46
0.0
 71
     7
 72
     1
  1
{\fＭＳ ゴシック|b0|i0|c128|p49;ＮＯ．}
 73
     1
 44
1.0
  0
MTEXT
  5
5B
330
1F
100
AcDbEntity
  8
F-A_文字
  6
Continuous
 62
     7
370
     0
100
AcDbMText
 10
2939.917396372139
 20
-3887.142460617774
 30
0.0
 40
45.72
 41
300.0
 46
0.0
 71
     7
 72
     1
  1
{\fＭＳ ゴシック|b0|i0|c128|p49;ＳＣＡＬＥ}
 73
     1
 44
1.0
  0
MTEXT
  5
5C
330
1F
100
AcDbEntity
  8
F-A_文字
  6
Continuous
 62
     7
370
     0
100
AcDbMText
 10
2939.917396372139
 20
-4087.14246317786
 30
0.0
 40
45.72
 41
240.0
 46
0.0
 71
     7
 72
     1
  1
{\fＭＳ ゴシック|b0|i0|c128|p49;ＦＩＬＥ}
 73
     1
 44
1.0
  0
MTEXT
  5
5D
330
1F
100
AcDbEntity
  8
F-A_文字
  6
Continuous
 62
     7
370
     0
100
AcDbMText
 10
1604.917396372138
 20
-4164.281754523929
 30
0.0
 40
101.44125
 41
1065.0
 46
0.0
 71
     7
 72
     1
  1
{\fＭＳ ゴシック|b0|i0|c128|p49;ウッドワン・・・}
 73
     1
 44
1.0
  0
MTEXT
  5
5E
330
1F
100
AcDbEntity
  8
F-A_文字
  6
Continuous
 62
     7
370
     0
100
AcDbMText
 10
1394.917396372138
 20
-4096.140669266149
 30
0.0
 40
45.72
 41
120.0
 46
0.0
 71
     7
 72
     1
  1
{\fＭＳ ゴシック|b0|i0|c128|p49;株式}
 73
     1
 44
1.0
  0
MTEXT
  5
5F
330
1F
100
AcDbEntity
  8
F-A_文字
  6
Continuous
 62
     7
370
     0
100
AcDbMText
 10
1394.917396372138
 20
-4168.140669266187
 30
0.0
 40
45.72
 41
120.0
 46
0.0
 71
     7
 72
     1
  1
{\fＭＳ ゴシック|b0|i0|c128|p49;会社}
 73
     1
 44
1.0
  0
MTEXT
  5
60
330
1F
100
AcDbEntity
  8
F-A_文字
  6
Continuous
 62
     7
370
     0
100
AcDbMText
 10
99.91854284331623
 20
-3887.139820871936
 30
0.0
 40
45.72
 41
180.0
 46
0.0
 71
     7
 72
     1
  1
{\fＭＳ ゴシック|b0|i0|c128|p49;図面名}
 73
     1
 44
1.0
  0
MTEXT
  5
61
330
1F
100
AcDbEntity
  8
0-B_寸法
  6
Continuous
 62
     7
370
     5
100
AcDbMText
 10
4278.667643811958
 20
3554.775383504013
 30
0.0
 40
63.55080000000001
 41
1042.5
 46
0.0
 71
     7
 72
     1
  1
{\fＭＳ ゴシック|b0|i0|c128|p49;上吊軸固定/フリーオープン}
 73
     1
 44
1.0
  0
LINE
  5
62
330
1F
100
AcDbEntity
  8
F-0_補助線
  6
JWW_HOJO
 62
   120
370
     5
100
AcDbLine
 10
-6140.081333436773
 20
-4455.0
 30
0.0
 11
-6140.081333436773
 21
4424.999604096284
 31
0.0
  0
LINE
  5
63
330
1F
100
AcDbEntity
  8
F-0_補助線
  6
JWW_HOJO
 62
   120
370
     5
100
AcDbLine
 10
-6140.081333436773
 20
4424.999604096284
 30
0.0
 11
6159.917676803936
 21
4424.999604096284
 31
0.0
  0
LINE
  5
64
330
1F
100
AcDbEntity
  8
F-0_補助線
  6
JWW_HOJO
 62
   120
370
     5
100
AcDbLine
 10
6159.917676803936
 20
4424.999604096284
 30
0.0
 11
6159.917676803936
 21
-4455.0
 31
0.0
  0
LINE
  5
65
330
1F
100
AcDbEntity
  8
F-0_補助線
  6
JWW_HOJO
 62
     7
370
     5
100
AcDbLine
 10
509.9185840832865
 20
-3795.000003092998
 30
0.0
 11
509.9185840832865
 21
-4195.000008247994
 31
0.0
  0
LINE
  5
66
330
1F
100
AcDbEntity
  8
F-1_枠
  6
Continuous
 62
   200
370
     5
100
AcDbLine
 10
5859.917429364114
 20
4174.999769056166
 30
0.0
 11
5859.917429364114
 21
-4205.000164959882
 31
0.0
  0
LINE
  5
67
330
1F
100
AcDbEntity
  8
F-1_枠
  6
Continuous
 62
   200
370
     5
100
AcDbLine
 10
-5840.081317971782
 20
4174.999769056166
 30
0.0
 11
-5840.081317971782
 21
-4205.000164959882
 31
0.0
  0
LINE
  5
68
330
1F
100
AcDbEntity
  8
F-1_枠
  6
Continuous
 62
   200
370
     5
100
AcDbLine
 10
5859.917429364114
 20
-4205.000002577498
 30
0.0
 11
-5840.081085996952
 21
-4205.000002577498
 31
0.0
  0
LINE
  5
69
330
1F
100
AcDbEntity
  8
F-1_枠
  6
Continuous
 62
   200
370
     5
100
AcDbLine
 10
-5830.081323642279
 20
4174.999769056166
 30
0.0
 11
-5830.081323642279
 21
-4205.000164959882
 31
0.0
  0
LINE
  5
6A
330
1F
100
AcDbEntity
  8
F-1_枠
  6
Continuous
 62
   200
370
     5
100
AcDbLine
 10
-5835.081309208291
 20
4174.999769056166
 30
0.0
 11
-5835.081309208291
 21
-4205.000164959882
 31
0.0
  0
LINE
  5
6B
330
1F
100
AcDbEntity
  8
F-1_枠
  6
Continuous
 62
   200
370
     5
100
AcDbLine
 10
5854.917165428304
 20
4174.999769056166
 30
0.0
 11
5854.917165428304
 21
-4205.000164959882
 31
0.0
  0
LINE
  5
6C
330
1F
100
AcDbEntity
  8
F-1_枠
  6
Continuous
 62
   200
370
     5
100
AcDbLine
 10
5849.917643811961
 20
4174.999769056166
 30
0.0
 11
5849.917643811961
 21
-4205.000164959882
 31
0.0
  0
LINE
  5
6D
330
1F
100
AcDbEntity
  8
F-1_枠
  6
Continuous
 62
   200
370
     5
100
AcDbLine
 10
5859.917429364114
 20
-4199.999993814004
 30
0.0
 11
-5840.081085996952
 21
-4199.999993814004
 31
0.0
  0
LINE
  5
6E
330
1F
100
AcDbEntity
  8
F-1_枠
  6
Continuous
 62
   200
370
     5
100
AcDbLine
 10
5859.917429364114
 20
-4195.000008247994
 30
0.0
 11
-5840.081085996952
 21
-4195.000008247994
 31
0.0
  0
LINE
  5
6F
330
1F
100
AcDbEntity
  8
F-1_枠
  6
Continuous
 62
   200
370
     5
100
AcDbLine
 10
4349.917891251784
 20
-3795.000003092998
 30
0.0
 11
4349.917891251784
 21
-4195.000008247994
 31
0.0
  0
LINE
  5
70
330
1F
100
AcDbEntity
  8
F-1_枠
  6
Continuous
 62
   200
370
     5
100
AcDbLine
 10
2849.917396372139
 20
-3795.000003092998
 30
0.0
 11
2849.917396372139
 21
-4195.000008247994
 31
0.0
  0
LINE
  5
71
330
1F
100
AcDbEntity
  8
F-1_枠
  6
Continuous
 62
   200
370
     5
100
AcDbLine
 10
9.918542843316231
 20
-3795.000003092998
 30
0.0
 11
9.918542843316231
 21
-4195.000008247994
 31
0.0
  0
LINE
  5
72
330
1F
100
AcDbEntity
  8
F-1_枠
  6
Continuous
 62
   200
370
     5
100
AcDbLine
 10
9.918542843316231
 20
-3994.999936078046
 30
0.0
 11
5849.917643811961
 21
-3995.005364289155
 31
0.0
  0
LINE
  5
73
330
1F
100
AcDbEntity
  8
F-1_枠
  6
Continuous
 62
   200
370
     5
100
AcDbLine
 10
-5840.081085996952
 20
4174.999769056166
 30
0.0
 11
5859.917429364114
 21
4174.999769056166
 31
0.0
  0
LINE
  5
74
330
1F
100
AcDbEntity
  8
F-1_枠
  6
Continuous
 62
   200
370
     5
100
AcDbLine
 10
-5840.081085996952
 20
4164.999983504013
 30
0.0
 11
5859.917429364114
 21
4164.999983504013
 31
0.0
  0
LINE
  5
75
330
1F
100
AcDbEntity
  8
F-1_枠
  6
Continuous
 62
   200
370
     5
100
AcDbLine
 10
-5840.081085996952
 20
4169.999505120355
 30
0.0
 11
5859.917429364114
 21
4169.999505120355
 31
0.0
  0
LINE
  5
76
330
1F
100
AcDbEntity
  8
F-0_補助線
  6
JWW_HOJO
 62
     7
370
     5
100
AcDbLine
 10
-5830.081323642279
 20
-3994.99993607839
 30
0.0
 11
9.918542843316231
 21
-3994.99993607839
 31
0.0
  0
LINE
  5
77
330
1F
100
AcDbEntity
  8
F-0_補助線
  6
JWW_HOJO
 62
     7
370
     5
100
AcDbLine
 10
-5830.081323642279
 20
-3904.99993607839
 30
0.0
 11
9.918542843316231
 21
-3904.99993607839
 31
0.0
  0
LINE
  5
78
330
1F
100
AcDbEntity
  8
F-0_補助線
  6
JWW_HOJO
 62
     7
370
     5
100
AcDbLine
 10
-5830.081323642279
 20
-4084.99993607839
 30
0.0
 11
9.918542843316231
 21
-4084.99993607839
 31
0.0
  0
LINE
  5
79
330
1F
100
AcDbEntity
  8
F-0_補助線
  6
JWW_HOJO
 62
     7
370
     5
100
AcDbLine
 10
9.918408067688347
 20
-4139.999739777983
 30
0.0
 11
5849.917509036332
 21
-4140.005167989091
 31
0.0
  0
LINE
  5
7A
330
1F
100
AcDbEntity
  8
F-0_補助線
  6
JWW_HOJO
 62
     7
370
     5
100
AcDbLine
 10
9.918491721639953
 20
-4049.999739778022
 30
0.0
 11
5849.917592690284
 21
-4050.005167989131
 31
0.0
  0
LINE
  5
7B
330
1F
100
AcDbEntity
  8
F-0_補助線
  6
JWW_HOJO
 62
     7
370
     5
100
AcDbLine
 10
9.918593965360003
 20
-3939.99973721807
 30
0.0
 11
5849.917694934004
 21
-3940.005165429179
 31
0.0
  0
LINE
  5
7C
330
1F
100
AcDbEntity
  8
F-0_補助線
  6
JWW_HOJO
 62
     7
370
     5
100
AcDbLine
 10
9.918677619311609
 20
-3849.999737218109
 30
0.0
 11
5849.917778587956
 21
-3850.005165429218
 31
0.0
  0
LINE
  5
7D
330
1F
100
AcDbEntity
  8
F-0_補助線
  6
JWW_HOJO
 62
     7
370
     5
100
AcDbLine
 10
2939.917396372139
 20
-3795.000003092998
 30
0.0
 11
2939.917396372139
 21
-4195.000008247994
 31
0.0
  0
LINE
  5
7E
330
1F
100
AcDbEntity
  8
F-0_補助線
  6
JWW_HOJO
 62
     7
370
     5
100
AcDbLine
 10
99.91854284331623
 20
-3795.000003092998
 30
0.0
 11
99.91854284331623
 21
-4195.000008247994
 31
0.0
  0
LINE
  5
7F
330
1F
100
AcDbEntity
  8
F-0_補助線
  6
JWW_HOJO
 62
     7
370
     5
100
AcDbLine
 10
4439.917891251784
 20
-3795.000003092998
 30
0.0
 11
4439.917891251784
 21
-4195.000008247994
 31
0.0
  0
LINE
  5
80
330
1F
100
AcDbEntity
  8
F-1_枠
  6
Continuous
 62
   200
370
     5
100
AcDbLine
 10
5859.917429364114
 20
-3795.000003092998
 30
0.0
 11
-5840.081085996952
 21
-3795.000003092998
 31
0.0
  0
LINE
  5
81
330
1F
100
AcDbEntity
  8
F-1_枠
  6
Continuous
 62
   200
370
     5
100
AcDbLine
 10
5859.917429364114
 20
-3790.000017526987
 30
0.0
 11
-5840.081085996952
 21
-3790.000017526987
 31
0.0
  0
LINE
  5
82
330
1F
100
AcDbEntity
  8
F-0_補助線
  6
JWW_HOJO
 62
     7
370
     5
100
AcDbLine
 10
-5087.628710189611
 20
-3795.000003092999
 30
0.0
 11
-5087.628710189611
 21
-4205.000164959882
 31
0.0
  0
LINE
  5
83
330
1F
100
AcDbEntity
  8
F-0_補助線
  6
JWW_HOJO
 62
     7
370
     5
100
AcDbLine
 10
-50.08145715668377
 20
-3795.000003092998
 30
0.0
 11
-50.08145715668377
 21
-4195.000008247994
 31
0.0
  0
LINE
  5
84
330
1F
100
AcDbEntity
  8
0-B_寸法
  6
JWW_DASHED2
 62
     7
370
     5
100
AcDbLine
 10
5159.917643811958
 20
3385.504011182749
 30
0.0
 11
4439.917643811958
 21
3385.504011182749
 31
0.0
  0
LINE
  5
85
330
1F
100
AcDbEntity
  8
0-B_寸法
  6
Continuous
 62
    40
370
     5
100
AcDbLine
 10
5159.917643811958
 20
3439.504011182748
 30
0.0
 11
5159.917643811958
 21
3385.504011182749
 31
0.0
  0
LINE
  5
86
330
1F
100
AcDbEntity
  8
0-B_寸法
  6
Continuous
 62
    40
370
     5
100
AcDbLine
 10
5159.917643811958
 20
3439.504011182748
 30
0.0
 11
5339.917643811958
 21
3439.504011182748
 31
0.0
  0
LINE
  5
87
330
1F
100
AcDbEntity
  8
0-B_寸法
  6
Continuous
 62
    40
370
     5
100
AcDbLine
 10
5159.917643811958
 20
3385.504011182749
 30
0.0
 11
5339.917643811958
 21
3385.504011182749
 31
0.0
  0
LINE
  5
88
330
1F
100
AcDbEntity
  8
0-B_寸法
  6
Continuous
 62
    40
370
     5
100
AcDbLine
 10
4439.917643811958
 20
3439.504011182748
 30
0.0
 11
4439.917643811958
 21
3385.504011182749
 31
0.0
  0
LINE
  5
89
330
1F
100
AcDbEntity
  8
0-B_寸法
  6
Continuous
 62
    40
370
     5
100
AcDbLine
 10
4439.917643811958
 20
3439.504011182748
 30
0.0
 11
4259.917643811958
 21
3439.504011182748
 31
0.0
  0
LINE
  5
8A
330
1F
100
AcDbEntity
  8
0-B_寸法
  6
Continuous
 62
    40
370
     5
100
AcDbLine
 10
4439.917643811958
 20
3385.504011182749
 30
0.0
 11
4259.917643811958
 21
3385.504011182749
 31
0.0
  0
ELLIPSE
  5
8B
330
1F
100
AcDbEntity
  8
0-B_寸法
  6
Continuous
 62
    92
370
     5
100
AcDbEllipse
 10
4855.430917458074
 20
2876.053590301512
 30
0.0
 11
11.36181697857171
 21
42.40287823032828
 31
0.0
210
0.0
220
0.0
230
0.9999999999999999
 40
0.6
 41
1.570796326794897
 42
4.71238898038469
  0
LINE
  5
8C
330
1F
100
AcDbEntity
  8
0-B_寸法
  6
Continuous
 62
    92
370
     5
100
AcDbLine
 10
4880.872644396269
 20
2869.236500114368
 30
0.0
 11
4829.989190519878
 21
2882.870680488653
 31
0.0
  0
LINE
  5
8D
330
1F
100
AcDbEntity
  8
0-B_寸法
  6
Continuous
 62
    92
370
     5
100
AcDbLine
 10
4884.133764364557
 20
2881.40716552561
 30
0.0
 11
4833.250310488166
 21
2895.041345899896
 31
0.0
  0
ELLIPSE
  5
8E
330
1F
100
AcDbEntity
  8
0-B_寸法
  6
Continuous
 62
    92
370
     5
100
AcDbEllipse
 10
4879.604310755754
 20
2966.269922279796
 30
0.0
 11
21.86569797210526
 21
81.6038957748525
 31
0.0
210
0.0
220
0.0
230
1.0
 40
0.5
 41
4.340591432030095
 42
8.225779182329084
  0
ELLIPSE
  5
8F
330
1F
100
AcDbEntity
  8
0-B_寸法
  6
Continuous
 62
    92
370
     5
100
AcDbEllipse
 10
4878.978687882651
 20
2963.935065931004
 30
0.0
 11
26.49533313827761
 21
98.88192943551533
 31
0.0
210
0.0
220
0.0
230
0.9999999999999999
 40
0.4
 41
3.840308517104466
 42
4.432552034522944
  0
ELLIPSE
  5
90
330
1F
100
AcDbEntity
  8
0-B_寸法
  6
Continuous
 62
    92
370
     5
100
AcDbEllipse
 10
4878.978687882651
 20
2963.935065931004
 30
0.0
 11
26.49533313827761
 21
98.88192943551533
 31
0.0
210
0.0
220
0.0
230
0.9999999999999999
 40
0.4
 41
1.850633272656679
 42
2.442876790075129
  0
ELLIPSE
  5
91
330
1F
100
AcDbEntity
  8
0-B_寸法
  6
Continuous
 62
    92
370
     5
100
AcDbEllipse
 10
4740.316707711373
 20
2838.28484693721
 30
0.0
 11
-7.622927487939132
 21
43.23177007461331
 31
0.0
210
0.0
220
0.0
230
1.0
 40
0.6000000000000001
 41
1.570796326794897
 42
4.71238898038469
  0
LINE
  5
92
330
1F
100
AcDbEntity
  8
0-B_寸法
  6
Continuous
 62
    92
370
     5
100
AcDbLine
 10
4766.255769756141
 20
2842.858603429974
 30
0.0
 11
4714.377645666606
 21
2833.711090444447
 31
0.0
  0
LINE
  5
93
330
1F
100
AcDbEntity
  8
0-B_寸法
  6
Continuous
 62
    92
370
     5
100
AcDbLine
 10
4764.067802717537
 20
2855.267181117928
 30
0.0
 11
4712.189678628002
 21
2846.1196681324
 31
0.0
  0
ELLIPSE
  5
94
330
1F
100
AcDbEntity
  8
0-B_寸法
  6
Continuous
 62
    92
370
     5
100
AcDbEllipse
 10
4724.098172894873
 20
2930.264728582853
 30
0.0
 11
-14.67024424252691
 21
83.19908946199426
 31
0.0
210
0.0
220
0.0
230
1.0
 40
0.5
 41
4.340591432030095
 42
8.225779182329084
  0
ELLIPSE
  5
95
330
1F
100
AcDbEntity
  8
0-B_寸法
  6
Continuous
 62
    92
370
     5
100
AcDbEllipse
 10
4724.517918944772
 20
2927.884230441197
 30
0.0
 11
-17.7763823922528
 21
100.8148742797557
 31
0.0
210
0.0
220
0.0
230
1.0
 40
0.4000000000000001
 41
3.840308517104466
 42
4.432552034522944
  0
ELLIPSE
  5
96
330
1F
100
AcDbEntity
  8
0-B_寸法
  6
Continuous
 62
    92
370
     5
100
AcDbEllipse
 10
4724.517918944772
 20
2927.884230441197
 30
0.0
 11
-17.7763823922528
 21
100.8148742797557
 31
0.0
210
0.0
220
0.0
230
1.0
 40
0.4000000000000001
 41
1.850633272656679
 42
2.442876790075129
  0
LINE
  5
97
330
1F
100
AcDbEntity
  8
0-B_寸法
  6
Continuous
 62
    92
370
     5
100
AcDbLine
 10
5369.917643811958
 20
3684.999983504013
 30
0.0
 11
5369.917643811958
 21
2718.999983504013
 31
0.0
  0
LINE
  5
98
330
1F
100
AcDbEntity
  8
0-B_寸法
  6
Continuous
 62
    92
370
     5
100
AcDbLine
 10
5369.917643811958
 20
2718.999983504013
 30
0.0
 11
4229.917643811958
 21
2718.999983504013
 31
0.0
  0
LINE
  5
99
330
1F
100
AcDbEntity
  8
0-B_寸法
  6
Continuous
 62
    92
370
     5
100
AcDbLine
 10
4229.917643811958
 20
3684.999983504013
 30
0.0
 11
4229.917643811958
 21
2718.999983504013
 31
0.0
  0
LINE
  5
9A
330
1F
100
AcDbEntity
  8
0-B_寸法
  6
JWW_HOJO
 62
   120
370
     5
100
AcDbLine
 10
5339.917643811958
 20
3684.999983504013
 30
0.0
 11
5339.917643811958
 21
2718.999983504013
 31
0.0
  0
LINE
  5
9B
330
1F
100
AcDbEntity
  8
0-B_寸法
  6
JWW_HOJO
 62
   120
370
     5
100
AcDbLine
 10
4259.917643811958
 20
3684.999983504013
 30
0.0
 11
4259.917643811958
 21
2718.999983504013
 31
0.0
  0
LINE
  5
9C
330
1F
100
AcDbEntity
  8
0-B_寸法
  6
JWW_HOJO
 62
   120
370
     5
100
AcDbLine
 10
4799.917643811958
 20
3684.999983504013
 30
0.0
 11
4799.917643811958
 21
2718.999983504013
 31
0.0
  0
LINE
  5
9D
330
1F
100
AcDbEntity
  8
0-B_寸法
  6
Continuous
 62
    92
370
     5
100
AcDbLine
 10
5369.917643811958
 20
3540.999983504012
 30
0.0
 11
4229.917643811958
 21
3540.999983504012
 31
0.0
  0
LINE
  5
9E
330
1F
100
AcDbEntity
  8
0-B_寸法
  6
Continuous
 62
    92
370
     5
100
AcDbLine
 10
5369.917643811958
 20
3684.999983504013
 30
0.0
 11
4229.917643811958
 21
3684.999983504013
 31
0.0
  0
MTEXT
  5
9F
330
1F
100
AcDbEntity
  8
F-A_文字
  6
Continuous
 62
     7
370
     5
100
AcDbMText
 10
5096.167700144058
 20
-4147.857012699985
 30
0.0
 40
74.295
 41
97.5
 46
0.0
 71
     7
 72
     1
  1
{\fＭＳ ゴシック|b0|i0|c128|p49;01}
 73
     1
 44
1.0
  0
LINE
  5
A0
330
1F
100
AcDbEntity
  8
F-0_補助線
  6
JWW_HOJO
 62
     7
370
     5
100
AcDbLine
 10
3764.917643811961
 20
-3795.000003092998
 30
0.0
 11
3764.917643811961
 21
-4195.000008247994
 31
0.0
  0
MTEXT
  5
A1
330
1F
100
AcDbEntity
  8
0-A_文字
  6
Continuous
 62
     7
370
     5
100
AcDbMText
 10
-3729.653673962756
 20
126.8083044720367
 30
0.0
 40
91.44
 41
600.0
 46
0.0
 71
     7
 72
     1
  1
{\fＭＳ ゴシック|b0|i0|c128|p49;■縦断面図}
 73
     1
 44
1.0
  0
MTEXT
  5
A2
330
1F
100
AcDbEntity
  8
0-A_文字
  6
Continuous
 62
     7
370
     5
100
AcDbMText
 10
-3729.653673962756
 20
-21.71196069540743
 30
0.0
 40
91.44000000000001
 41
600.0
 46
0.0
 71
     7
 72
     1
  1
{\fＭＳ ゴシック|b0|i0|c128|p49;　[３方枠]}
 73
     1
 44
1.0
  0
LINE
  5
A3
330
1F
100
AcDbEntity
  8
0-7_金物
  6
Continuous
 62
     7
370
     5
100
AcDbLine
 10
-2780.12875763442
 20
-3228.99958945575
 30
0.0
 11
-2780.12875763442
 21
-3285.999668636493
 31
0.0
  0
LINE
  5
A4
330
1F
100
AcDbEntity
  8
0-7_金物
  6
Continuous
 62
     7
370
     5
100
AcDbLine
 10
-2780.12875763442
 20
-3285.999668636493
 30
0.0
 11
-2798.12852009219
 21
-3285.999668636493
 31
0.0
  0
LINE
  5
A5
330
1F
100
AcDbEntity
  8
0-7_金物
  6
Continuous
 62
     7
370
     5
100
AcDbLine
 10
-2798.12852009219
 20
-3228.99958945575
 30
0.0
 11
-2798.12852009219
 21
-3285.999668636493
 31
0.0
  0
LINE
  5
A6
330
1F
100
AcDbEntity
  8
0-6_扉
  6
Continuous
 62
   200
370
     5
100
AcDbLine
 10
-2870.128438746347
 20
-3228.99958945575
 30
0.0
 11
-2708.128438746347
 21
-3228.99958945575
 31
0.0
  0
LWPOLYLINE
  5
A7
330
1F
100
AcDbEntity
  8
0-B_寸法
  6
Continuous
 62
     7
370
     5
100
AcDbPolyline
 90
        4
 70
     1
 43
3.0
 10
-1959.462426072888
 20
-3228.999960615484
 42
0.4142135623731
 10
-1960.962426072888
 20
-3227.499960615484
 42
0.4142135623731
 10
-1962.462426072888
 20
-3228.999960615484
 42
0.4142135623731
 10
-1960.962426072888
 20
-3230.499960615483
 42
0.4142135623731
  0
LINE
  5
A8
330
1F
100
AcDbEntity
  8
0-B_寸法
  6
Continuous
 62
   120
370
     5
100
AcDbLine
 10
-2170.962426072888
 20
-3228.999960615484
 30
0.0
 11
-1960.962426072888
 21
-3228.999960615484
 31
0.0
  0
LWPOLYLINE
  5
A9
330
1F
100
AcDbEntity
  8
0-B_寸法
  6
Continuous
 62
     7
370
     5
100
AcDbPolyline
 90
        4
 70
     1
 43
3.0
 10
-1959.462426072888
 20
-3297.999668636494
 42
0.4142135623731
 10
-1960.962426072888
 20
-3296.499668636494
 42
0.4142135623731
 10
-1962.462426072888
 20
-3297.999668636494
 42
0.4142135623731
 10
-1960.962426072888
 20
-3299.499668636494
 42
0.4142135623731
  0
LINE
  5
AA
330
1F
100
AcDbEntity
  8
0-B_寸法
  6
Continuous
 62
   120
370
     5
100
AcDbLine
 10
-1960.962426072888
 20
-3369.99964636691
 30
0.0
 11
-1750.962426072888
 21
-3369.99964636691
 31
0.0
  0
LWPOLYLINE
  5
AB
330
1F
100
AcDbEntity
  8
0-B_寸法
  6
Continuous
 62
     7
370
     5
100
AcDbPolyline
 90
        4
 70
     1
 43
3.0
 10
-1749.462426072888
 20
-3297.999668636494
 42
0.4142135623731
 10
-1750.962426072888
 20
-3296.499668636494
 42
0.4142135623731
 10
-1752.462426072888
 20
-3297.999668636494
 42
0.4142135623731
 10
-1750.962426072888
 20
-3299.499668636494
 42
0.4142135623731
  0
LWPOLYLINE
  5
AC
330
1F
100
AcDbEntity
  8
0-B_寸法
  6
Continuous
 62
     7
370
     5
100
AcDbPolyline
 90
        4
 70
     1
 43
3.0
 10
-1539.462426072888
 20
-3297.999668636494
 42
0.4142135623731
 10
-1540.962426072888
 20
-3296.499668636494
 42
0.4142135623731
 10
-1542.462426072888
 20
-3297.999668636494
 42
0.4142135623731
 10
-1540.962426072888
 20
-3299.499668636494
 42
0.4142135623731
  0
LINE
  5
AD
330
1F
100
AcDbEntity
  8
0-B_寸法
  6
Continuous
 62
   120
370
     5
100
AcDbLine
 10
-2170.962426072888
 20
-3297.999668636494
 30
0.0
 11
-1540.962426072888
 21
-3297.999668636494
 31
0.0
  0
LINE
  5
AE
330
1F
100
AcDbEntity
  8
0-B_寸法
  6
Continuous
 62
   120
370
     5
100
AcDbLine
 10
-2170.962426072888
 20
-3370.000017526643
 30
0.0
 11
-1540.962426072888
 21
-3370.000017526643
 31
0.0
  0
LWPOLYLINE
  5
AF
330
1F
100
AcDbEntity
  8
0-B_寸法
  6
Continuous
 62
     7
370
     5
100
AcDbPolyline
 90
        4
 70
     1
 43
3.0
 10
-1539.462426072888
 20
-3370.000017526643
 42
0.4142135623731
 10
-1540.962426072888
 20
-3368.500017526643
 42
0.4142135623731
 10
-1542.462426072888
 20
-3370.000017526643
 42
0.4142135623731
 10
-1540.962426072888
 20
-3371.500017526643
 42
0.4142135623731
  0
LINE
  5
B0
330
1F
100
AcDbEntity
  8
0-4_枠
  6
Continuous
 62
   120
370
     5
100
AcDbLine
 10
-3065.12788942994
 20
-1953.999418722271
 30
0.0
 11
-3065.12788942994
 21
-3298.000039796227
 31
0.0
  0
LINE
  5
B1
330
1F
100
AcDbEntity
  8
0-6_扉
  6
Continuous
 62
   200
370
     5
100
AcDbLine
 10
-2870.128438746347
 20
-3228.999960615484
 30
0.0
 11
-2870.128438746347
 21
-1953.999418722271
 31
0.0
  0
LINE
  5
B2
330
1F
100
AcDbEntity
  8
0-6_扉
  6
Continuous
 62
   200
370
     5
100
AcDbLine
 10
-2708.128438746347
 20
-3228.999960615484
 30
0.0
 11
-2708.128438746347
 21
-1953.999418722271
 31
0.0
  0
LINE
  5
B3
330
1F
100
AcDbEntity
  8
0-4_枠
  6
Continuous
 62
   120
370
     5
100
AcDbLine
 10
-2513.127889429941
 20
-1953.999418722271
 30
0.0
 11
-2513.127889429941
 21
-3298.000039796227
 31
0.0
  0
LINE
  5
B4
330
1F
100
AcDbEntity
  8
0-B_寸法
  6
Continuous
 62
   120
370
     5
100
AcDbLine
 10
-2708.128438746347
 20
-1230.979721440623
 30
0.0
 11
-2870.128438746347
 21
-1230.979721440623
 31
0.0
  0
LWPOLYLINE
  5
B5
330
1F
100
AcDbEntity
  8
0-B_寸法
  6
Continuous
 62
     7
370
     5
100
AcDbPolyline
 90
        4
 70
     1
 43
3.0
 10
-2706.628438746347
 20
-1230.979721440623
 42
0.4142135623731
 10
-2708.128438746347
 20
-1229.479721440623
 42
0.4142135623731
 10
-2709.628438746347
 20
-1230.979721440623
 42
0.4142135623731
 10
-2708.128438746347
 20
-1232.479721440622
 42
0.4142135623731
  0
LINE
  5
B6
330
1F
100
AcDbEntity
  8
0-B_寸法
  6
Continuous
 62
   120
370
     5
100
AcDbLine
 10
-2708.128438746347
 20
-1146.742792861651
 30
0.0
 11
-2708.128438746347
 21
-1230.979721440623
 31
0.0
  0
LWPOLYLINE
  5
B7
330
1F
100
AcDbEntity
  8
0-B_寸法
  6
Continuous
 62
     7
370
     5
100
AcDbPolyline
 90
        4
 70
     1
 43
3.0
 10
-2868.628438746347
 20
-1230.979721440623
 42
0.4142135623731
 10
-2870.128438746347
 20
-1229.479721440623
 42
0.4142135623731
 10
-2871.628438746347
 20
-1230.979721440623
 42
0.4142135623731
 10
-2870.128438746347
 20
-1232.479721440622
 42
0.4142135623731
  0
LINE
  5
B8
330
1F
100
AcDbEntity
  8
0-B_寸法
  6
Continuous
 62
   120
370
     5
100
AcDbLine
 10
-2870.128438746347
 20
-1146.742792861651
 30
0.0
 11
-2870.128438746347
 21
-1230.979721440623
 31
0.0
  0
LWPOLYLINE
  5
B9
330
1F
100
AcDbEntity
  8
0-B_寸法
  6
Continuous
 62
     7
370
     5
100
AcDbPolyline
 90
        4
 70
     1
 43
3.0
 10
-2529.627889429943
 20
-881.4815996649214
 42
0.4142135623731
 10
-2531.127889429943
 20
-879.9815996649214
 42
0.4142135623731
 10
-2532.627889429943
 20
-881.4815996649214
 42
0.4142135623731
 10
-2531.127889429943
 20
-882.9815996649214
 42
0.4142135623731
  0
LWPOLYLINE
  5
BA
330
1F
100
AcDbEntity
  8
0-B_寸法
  6
Continuous
 62
     7
370
     5
100
AcDbPolyline
 90
        4
 70
     1
 43
3.0
 10
-3045.627889429943
 20
-881.4815996649214
 42
0.4142135623731
 10
-3047.127889429943
 20
-879.9815996649214
 42
0.4142135623731
 10
-3048.627889429943
 20
-881.4815996649214
 42
0.4142135623731
 10
-3047.127889429943
 20
-882.9815996649214
 42
0.4142135623731
  0
MTEXT
  5
BB
330
1F
100
AcDbEntity
  8
0-B_寸法
  6
Continuous
 62
     7
370
   211
100
AcDbMText
 10
-1561.862979812291
 20
-345.8383115091465
 30
0.0
 40
91.44
 41
60.0
 46
0.0
 71
     7
 72
     1
  1
{\fＭＳ ゴシック|b0|i0|c128|p49;5}
 11
6.123031769111886E-17
 21
1.0
 31
0.0
 73
     1
 44
1.0
  0
LINE
  5
BC
330
1F
100
AcDbEntity
  8
0-B_寸法
  6
Continuous
 62
   120
370
     5
100
AcDbLine
 10
-2531.127889429943
 20
-881.4815996649214
 30
0.0
 11
-2531.127889429943
 21
-727.7706522430263
 31
0.0
  0
LINE
  5
BD
330
1F
100
AcDbEntity
  8
0-B_寸法
  6
Continuous
 62
   120
370
     5
100
AcDbLine
 10
-3047.127889429943
 20
-881.4815996649214
 30
0.0
 11
-3047.127889429943
 21
-727.7706522430263
 31
0.0
  0
LINE
  5
BE
330
1F
100
AcDbEntity
  8
0-B_寸法
  6
Continuous
 62
   120
370
     5
100
AcDbLine
 10
-3047.127889429943
 20
-881.4815996649214
 30
0.0
 11
-2531.127889429943
 21
-881.4815996649214
 31
0.0
  0
LINE
  5
BF
330
1F
100
AcDbEntity
  8
0-6_扉
  6
Continuous
 62
   200
370
     5
100
AcDbLine
 10
-2870.128438746347
 20
-630.9991688080502
 30
0.0
 11
-2708.128438746347
 21
-630.9991688080502
 31
0.0
  0
LINE
  5
C0
330
1F
100
AcDbEntity
  8
0-7_金物
  6
Continuous
 62
     7
370
     5
100
AcDbLine
 10
-2854.1238992566
 20
-591.9991688080506
 30
0.0
 11
-2854.1238992566
 21
-585.9990772553169
 31
0.0
  0
LINE
  5
C1
330
1F
100
AcDbEntity
  8
0-7_金物
  6
Continuous
 62
     7
370
     5
100
AcDbLine
 10
-2724.914286410227
 20
-591.9991688080506
 30
0.0
 11
-2724.914286410227
 21
-585.9990772553169
 31
0.0
  0
LINE
  5
C2
330
1F
100
AcDbEntity
  8
0-7_金物
  6
Continuous
 62
     7
370
     5
100
AcDbLine
 10
-2891.127786433115
 20
-585.9990772553169
 30
0.0
 11
-2891.127786433115
 21
-591.9991688080506
 31
0.0
  0
LINE
  5
C3
330
1F
100
AcDbEntity
  8
0-7_金物
  6
Continuous
 62
     7
370
     5
100
AcDbLine
 10
-2724.914286410227
 20
-591.9991688080506
 30
0.0
 11
-2687.129484450236
 21
-591.9991688080506
 31
0.0
  0
LINE
  5
C4
330
1F
100
AcDbEntity
  8
0-7_金物
  6
Continuous
 62
     7
370
     5
100
AcDbLine
 10
-2687.129484450236
 20
-585.9990772553169
 30
0.0
 11
-2687.129484450236
 21
-591.9991688080506
 31
0.0
  0
LINE
  5
C5
330
1F
100
AcDbEntity
  8
0-7_金物
  6
Continuous
 62
     7
370
     5
100
AcDbLine
 10
-2801.128232752695
 20
-630.9991688080502
 30
0.0
 11
-2777.127551829233
 21
-630.9991688080502
 31
0.0
  0
LINE
  5
C6
330
1F
100
AcDbEntity
  8
0-7_金物
  6
Continuous
 62
     7
370
     5
100
AcDbLine
 10
-2801.128232752695
 20
-585.9990772553169
 30
0.0
 11
-2801.128232752695
 21
-630.9991688080502
 31
0.0
  0
LINE
  5
C7
330
1F
100
AcDbEntity
  8
0-7_金物
  6
Continuous
 62
     7
370
     5
100
AcDbLine
 10
-2777.127551829233
 20
-630.9991688080502
 30
0.0
 11
-2777.127551829233
 21
-585.9990772553169
 31
0.0
  0
LINE
  5
C8
330
1F
100
AcDbEntity
  8
0-7_金物
  6
Continuous
 62
     7
370
     5
100
AcDbLine
 10
-2854.1238992566
 20
-591.9991688080506
 30
0.0
 11
-2891.127786433115
 21
-591.9991688080506
 31
0.0
  0
LINE
  5
C9
330
1F
100
AcDbEntity
  8
0-4_枠
  6
Continuous
 62
    92
370
     5
100
AcDbLine
 10
-2662.962289336381
 20
-406.2567427523594
 30
0.0
 11
-2530.962296989421
 21
-406.2567427523594
 31
0.0
  0
LINE
  5
CA
330
1F
100
AcDbEntity
  8
0-4_枠
  6
Continuous
 62
    92
370
     5
100
AcDbLine
 10
-2914.962289336375
 20
-406.2567427523594
 30
0.0
 11
-3046.962289336378
 21
-406.2567427523594
 31
0.0
  0
LINE
  5
CB
330
1F
100
AcDbEntity
  8
0-4_枠
  6
Continuous
 62
    92
370
     5
100
AcDbLine
 10
-2914.962296989422
 20
-370.1451682135292
 30
0.0
 11
-2914.962289336375
 21
-406.2567427523594
 31
0.0
  0
LINE
  5
CC
330
1F
100
AcDbEntity
  8
0-4_枠
  6
Continuous
 62
    92
370
     5
100
AcDbLine
 10
-3046.96225502775
 20
-568.145016897232
 30
0.0
 11
-3046.962289336378
 21
-406.2567427523594
 31
0.0
  0
LINE
  5
CD
330
1F
100
AcDbEntity
  8
0-4_枠
  6
Continuous
 62
    92
370
     5
100
AcDbLine
 10
-2530.962255027753
 20
-568.1450092678311
 30
0.0
 11
-2530.96228936002
 21
-406.145196187999
 31
0.0
  0
LINE
  5
CE
330
1F
100
AcDbEntity
  8
0-4_枠
  6
Continuous
 62
    92
370
     5
100
AcDbLine
 10
-2662.962296989424
 20
-370.1451961880002
 30
0.0
 11
-2914.962296989415
 21
-370.1451961880002
 31
0.0
  0
ARC
  5
CF
330
1F
100
AcDbEntity
  8
0-4_枠
  6
Continuous
 62
    92
370
     5
100
AcDbCircle
 10
-3028.962255027753
 20
-568.1450130825316
 30
0.0
 40
18.0
100
AcDbArc
 50
180.000012142569
 51
270.0
  0
LINE
  5
D0
330
1F
100
AcDbEntity
  8
0-4_枠
  6
Continuous
 62
    92
370
     5
100
AcDbLine
 10
-3028.962255027753
 20
-586.1450130825314
 30
0.0
 11
-2872.962377098061
 21
-586.1450130825314
 31
0.0
  0
ARC
  5
D1
330
1F
100
AcDbEntity
  8
0-4_枠
  6
Continuous
 62
    92
370
     5
100
AcDbCircle
 10
-2548.962255027755
 20
-568.1450130825316
 30
0.0
 40
18.0
100
AcDbArc
 50
270.0
 51
0.0000121425689963
  0
LINE
  5
D2
330
1F
100
AcDbEntity
  8
0-4_枠
  6
Continuous
 62
    92
370
     5
100
AcDbLine
 10
-2548.962255027755
 20
-586.1450130825314
 30
0.0
 11
-2704.962124255158
 21
-586.1450130825314
 31
0.0
  0
LINE
  5
D3
330
1F
100
AcDbEntity
  8
0-4_枠
  6
Continuous
 62
    92
370
     5
100
AcDbLine
 10
-2704.962124255158
 20
-586.1450130825314
 30
0.0
 11
-2704.962124255158
 21
-466.1445553188595
 31
0.0
  0
LINE
  5
D4
330
1F
100
AcDbEntity
  8
0-4_枠
  6
Continuous
 62
    92
370
     5
100
AcDbLine
 10
-2704.962124255158
 20
-466.1445553188595
 30
0.0
 11
-2872.962377098061
 21
-466.1445553188595
 31
0.0
  0
LINE
  5
D5
330
1F
100
AcDbEntity
  8
0-4_枠
  6
Continuous
 62
    92
370
     5
100
AcDbLine
 10
-2872.962377098061
 20
-466.1445553188595
 30
0.0
 11
-2872.962377098061
 21
-586.1450130825314
 31
0.0
  0
LINE
  5
D6
330
1F
100
AcDbEntity
  8
0-4_枠
  6
Continuous
 62
    92
370
     5
100
AcDbLine
 10
-2662.962289336381
 20
-406.2567427523594
 30
0.0
 11
-2662.962296989418
 21
-370.1452241624699
 31
0.0
  0
LINE
  5
D7
330
1F
100
AcDbEntity
  8
0-7_金物
  6
Continuous
 62
     7
370
     5
100
AcDbLine
 10
-2860.962045219399
 20
-478.1449215297971
 30
0.0
 11
-2860.962045219399
 21
-586.1450130825314
 31
0.0
  0
LINE
  5
D8
330
1F
100
AcDbEntity
  8
0-7_金物
  6
Continuous
 62
     7
370
     5
100
AcDbLine
 10
-2716.961717632271
 20
-478.1449215297971
 30
0.0
 11
-2860.962045219399
 21
-478.1449215297971
 31
0.0
  0
LINE
  5
D9
330
1F
100
AcDbEntity
  8
0-7_金物
  6
Continuous
 62
     7
370
     5
100
AcDbLine
 10
-2716.961717632271
 20
-586.1450130825314
 30
0.0
 11
-2716.961717632271
 21
-478.1449215297971
 31
0.0
  0
LINE
  5
DA
330
1F
100
AcDbEntity
  8
0-7_金物
  6
Continuous
 62
     7
370
     5
100
AcDbLine
 10
-2722.782988098123
 20
-572.932763326671
 30
0.0
 11
-2722.782988098123
 21
-506.9327633266721
 31
0.0
  0
LINE
  5
DB
330
1F
100
AcDbEntity
  8
0-7_金物
  6
Continuous
 62
     7
370
     5
100
AcDbLine
 10
-2722.782988098123
 20
-506.9327633266721
 30
0.0
 11
-2758.962153938272
 21
-506.9327633266721
 31
0.0
  0
LINE
  5
DC
330
1F
100
AcDbEntity
  8
0-7_金物
  6
Continuous
 62
     7
370
     5
100
AcDbLine
 10
-2758.962153938272
 20
-586.1450130825314
 30
0.0
 11
-2758.962153938272
 21
-490.1445553188603
 31
0.0
  0
LINE
  5
DD
330
1F
100
AcDbEntity
  8
0-7_金物
  6
Continuous
 62
     7
370
     5
100
AcDbLine
 10
-2758.962153938272
 20
-490.1445553188603
 30
0.0
 11
-2818.963841941812
 21
-490.1445553188603
 31
0.0
  0
LINE
  5
DE
330
1F
100
AcDbEntity
  8
0-7_金物
  6
Continuous
 62
     7
370
     5
100
AcDbLine
 10
-2818.963841941812
 20
-490.1445553188603
 30
0.0
 11
-2818.963841941812
 21
-586.1450130825314
 31
0.0
  0
LINE
  5
DF
330
1F
100
AcDbEntity
  8
0-7_金物
  6
Continuous
 62
     7
370
     5
100
AcDbLine
 10
-2854.782235649086
 20
-506.9327633266721
 30
0.0
 11
-2854.782235649086
 21
-572.932763326671
 31
0.0
  0
LINE
  5
E0
330
1F
100
AcDbEntity
  8
0-7_金物
  6
Continuous
 62
     7
370
     5
100
AcDbLine
 10
-2818.963841941812
 20
-506.9327633266721
 30
0.0
 11
-2854.782235649086
 21
-506.9327633266721
 31
0.0
  0
LINE
  5
E1
330
1F
100
AcDbEntity
  8
0-7_金物
  6
Continuous
 62
     7
370
     5
100
AcDbLine
 10
-2872.962377098061
 20
-586.1450130825314
 30
0.0
 11
-2890.962148216225
 21
-586.1450130825314
 31
0.0
  0
LINE
  5
E2
330
1F
100
AcDbEntity
  8
0-7_金物
  6
Continuous
 62
     7
370
     5
100
AcDbLine
 10
-2853.958261039711
 20
-592.1451046352647
 30
0.0
 11
-2853.958261039711
 21
-586.1450130825314
 31
0.0
  0
LINE
  5
E3
330
1F
100
AcDbEntity
  8
0-7_金物
  6
Continuous
 62
     7
370
     5
100
AcDbLine
 10
-2860.962045219399
 20
-586.1450130825314
 30
0.0
 11
-2853.958261039711
 21
-586.1450130825314
 31
0.0
  0
LINE
  5
E4
330
1F
100
AcDbEntity
  8
0-7_金物
  6
Continuous
 62
     7
370
     5
100
AcDbLine
 10
-2704.962124255158
 20
-586.1450130825314
 30
0.0
 11
-2686.963846233346
 21
-586.1450130825314
 31
0.0
  0
LINE
  5
E5
330
1F
100
AcDbEntity
  8
0-7_金物
  6
Continuous
 62
     7
370
     5
100
AcDbLine
 10
-2724.748648193338
 20
-592.1451046352647
 30
0.0
 11
-2724.748648193338
 21
-586.1450130825314
 31
0.0
  0
LINE
  5
E6
330
1F
100
AcDbEntity
  8
0-7_金物
  6
Continuous
 62
     7
370
     5
100
AcDbLine
 10
-2724.748648193338
 20
-586.1450130825314
 30
0.0
 11
-2716.961717632271
 21
-586.1450130825314
 31
0.0
  0
LINE
  5
E7
330
1F
100
AcDbEntity
  8
0-7_金物
  6
Continuous
 62
     7
370
     5
100
AcDbLine
 10
-2890.962148216225
 20
-586.1450130825314
 30
0.0
 11
-2890.962148216225
 21
-592.1451046352647
 31
0.0
  0
LINE
  5
E8
330
1F
100
AcDbEntity
  8
0-7_金物
  6
Continuous
 62
     7
370
     5
100
AcDbLine
 10
-2724.748648193338
 20
-592.1451046352647
 30
0.0
 11
-2686.963846233346
 21
-592.1451046352647
 31
0.0
  0
LINE
  5
E9
330
1F
100
AcDbEntity
  8
0-7_金物
  6
Continuous
 62
     7
370
     5
100
AcDbLine
 10
-2686.963846233346
 20
-586.1450130825314
 30
0.0
 11
-2686.963846233346
 21
-592.1451046352647
 31
0.0
  0
LINE
  5
EA
330
1F
100
AcDbEntity
  8
0-7_金物
  6
Continuous
 62
     7
370
     5
100
AcDbLine
 10
-2758.962153938272
 20
-572.932763326671
 30
0.0
 11
-2722.782988098123
 21
-572.932763326671
 31
0.0
  0
LINE
  5
EB
330
1F
100
AcDbEntity
  8
0-7_金物
  6
Continuous
 62
     7
370
     5
100
AcDbLine
 10
-2854.782235649086
 20
-572.932763326671
 30
0.0
 11
-2818.963841941812
 21
-572.932763326671
 31
0.0
  0
LINE
  5
EC
330
1F
100
AcDbEntity
  8
0-7_金物
  6
Continuous
 62
     7
370
     5
100
AcDbLine
 10
-2818.963841941812
 20
-586.1450130825314
 30
0.0
 11
-2758.962153938272
 21
-586.1450130825314
 31
0.0
  0
LINE
  5
ED
330
1F
100
AcDbEntity
  8
0-7_金物
  6
Continuous
 62
     7
370
     5
100
AcDbLine
 10
-2853.958261039711
 20
-592.1451046352647
 30
0.0
 11
-2890.962148216225
 21
-592.1451046352647
 31
0.0
  0
LINE
  5
EE
330
1F
100
AcDbEntity
  8
0-C_ハッチ
  6
Continuous
 62
   120
370
     5
100
AcDbLine
 10
-2592.603572567066
 20
-586.1450130825267
 30
0.0
 11
-2530.962264276566
 21
-524.5037047920252
 31
0.0
  0
LINE
  5
EF
330
1F
100
AcDbEntity
  8
0-C_ハッチ
  6
Continuous
 62
   120
370
     5
100
AcDbLine
 10
-2652.000542186724
 20
-586.1450130825378
 30
0.0
 11
-2530.962276864428
 21
-465.1067477602393
 31
0.0
  0
LINE
  5
F0
330
1F
100
AcDbEntity
  8
0-C_ハッチ
  6
Continuous
 62
   120
370
     5
100
AcDbLine
 10
-2704.962124255169
 20
-579.7096255312807
 30
0.0
 11
-2531.509241476247
 21
-406.2567427523585
 31
0.0
  0
LINE
  5
F1
330
1F
100
AcDbEntity
  8
0-C_ハッチ
  6
Continuous
 62
   120
370
     5
100
AcDbLine
 10
-2704.962124255158
 20
-520.3126559116229
 30
0.0
 11
-2590.906211095892
 21
-406.2567427523547
 31
0.0
  0
LINE
  5
F2
330
1F
100
AcDbEntity
  8
0-C_ハッチ
  6
Continuous
 62
   120
370
     5
100
AcDbLine
 10
-2710.190993282113
 20
-466.1445553188753
 30
0.0
 11
-2650.303180715596
 21
-406.2567427523581
 31
0.0
  0
LINE
  5
F3
330
1F
100
AcDbEntity
  8
0-C_ハッチ
  6
Continuous
 62
   120
370
     5
100
AcDbLine
 10
-2889.588420665414
 20
-586.1450130825276
 30
0.0
 11
-2872.962377098067
 21
-569.5189695151806
 31
0.0
  0
LINE
  5
F4
330
1F
100
AcDbEntity
  8
0-C_ハッチ
  6
Continuous
 62
   120
370
     5
100
AcDbLine
 10
-2769.58796290174
 20
-466.1445553188548
 30
0.0
 11
-2673.5886037709
 21
-370.1451961880139
 31
0.0
  0
LINE
  5
F5
330
1F
100
AcDbEntity
  8
0-C_ハッチ
  6
Continuous
 62
   120
370
     5
100
AcDbLine
 10
-2948.985390285072
 20
-586.1450130825403
 30
0.0
 11
-2872.962377098054
 21
-510.1219998955227
 31
0.0
  0
LINE
  5
F6
330
1F
100
AcDbEntity
  8
0-C_ハッチ
  6
Continuous
 62
   120
370
     5
100
AcDbLine
 10
-2828.984932521397
 20
-466.1445553188659
 30
0.0
 11
-2732.985573390525
 21
-370.1451961879943
 31
0.0
  0
LINE
  5
F7
330
1F
100
AcDbEntity
  8
0-C_ハッチ
  6
Continuous
 62
   120
370
     5
100
AcDbLine
 10
-3008.38235990476
 20
-586.1450130825255
 30
0.0
 11
-2792.382543010237
 21
-370.1451961880011
 31
0.0
  0
LINE
  5
F8
330
1F
100
AcDbEntity
  8
0-C_ハッチ
  6
Continuous
 62
   120
370
     5
100
AcDbLine
 10
-3046.962255624762
 20
-565.3279391828811
 30
0.0
 11
-2851.77951262987
 21
-370.1451961879887
 31
0.0
  0
LINE
  5
F9
330
1F
100
AcDbEntity
  8
0-C_ハッチ
  6
Continuous
 62
   120
370
     5
100
AcDbLine
 10
-3046.962268212625
 20
-505.9309821510419
 30
0.0
 11
-2947.288028813957
 21
-406.2567427523743
 31
0.0
  0
LINE
  5
FA
330
1F
100
AcDbEntity
  8
0-C_ハッチ
  6
Continuous
 62
   120
370
     5
100
AcDbLine
 10
-2914.962296187108
 20
-373.9310101255225
 30
0.0
 11
-2911.176482249572
 21
-370.1451961879878
 31
0.0
  0
LINE
  5
FB
330
1F
100
AcDbEntity
  8
0-C_ハッチ
  6
Continuous
 62
   120
370
     5
100
AcDbLine
 10
-3046.962280800507
 20
-446.534025119274
 30
0.0
 11
-3006.684998433587
 21
-406.2567427523547
 31
0.0
  0
LINE
  5
FC
330
1F
100
AcDbEntity
  8
0-4_枠
  6
Continuous
 62
   120
370
     5
100
AcDbLine
 10
-3046.962289336378
 20
-406.2567427523594
 30
0.0
 11
-3065.12788942994
 21
-406.2567427523594
 31
0.0
  0
LINE
  5
FD
330
1F
100
AcDbEntity
  8
0-B_寸法
  6
Continuous
 62
   120
370
     5
100
AcDbLine
 10
-1960.962426072888
 20
-3297.999668636494
 30
0.0
 11
-1960.962426072888
 21
-585.9986516588207
 31
0.0
  0
LWPOLYLINE
  5
FE
330
1F
100
AcDbEntity
  8
0-B_寸法
  6
Continuous
 62
     7
370
     5
100
AcDbPolyline
 90
        4
 70
     1
 43
3.0
 10
-1959.462426072888
 20
-585.9986516588207
 42
0.4142135623731
 10
-1960.962426072888
 20
-584.4986516588207
 42
0.4142135623731
 10
-1962.462426072888
 20
-585.9986516588207
 42
0.4142135623731
 10
-1960.962426072888
 20
-587.4986516588207
 42
0.4142135623731
  0
LWPOLYLINE
  5
FF
330
1F
100
AcDbEntity
  8
0-B_寸法
  6
Continuous
 62
     7
370
     5
100
AcDbPolyline
 90
        4
 70
     1
 43
3.0
 10
-1959.462426072888
 20
-630.9988001227144
 42
0.4142135623731
 10
-1960.962426072888
 20
-629.4988001227144
 42
0.4142135623731
 10
-1962.462426072888
 20
-630.9988001227144
 42
0.4142135623731
 10
-1960.962426072888
 20
-632.4988001227144
 42
0.4142135623731
  0
LINE
  5
100
330
1F
100
AcDbEntity
  8
0-B_寸法
  6
Continuous
 62
   120
370
     5
100
AcDbLine
 10
-2170.962426072888
 20
-585.9986516588207
 30
0.0
 11
-1960.962426072888
 21
-585.9986516588207
 31
0.0
  0
LINE
  5
101
330
1F
100
AcDbEntity
  8
0-B_寸法
  6
Continuous
 62
   120
370
     5
100
AcDbLine
 10
-2170.962426072888
 20
-630.9988001227144
 30
0.0
 11
-1960.962426072888
 21
-630.9988001227144
 31
0.0
  0
LINE
  5
102
330
1F
100
AcDbEntity
  8
0-B_寸法
  6
Continuous
 62
   120
370
     5
100
AcDbLine
 10
-1750.962426072888
 20
-3297.999668636494
 30
0.0
 11
-1750.962426072888
 21
-369.9992752071738
 31
0.0
  0
MTEXT
  5
103
330
1F
100
AcDbEntity
  8
0-B_寸法
  6
Continuous
 62
     7
370
     0
100
AcDbMText
 10
-1765.961733241386
 20
-552.2787778531313
 30
0.0
 40
91.44
 41
120.0
 46
0.0
 71
     7
 72
     1
  1
{\fＭＳ ゴシック|b0|i0|c128|p49;36}
 11
6.123031769111886E-17
 21
1.0
 31
0.0
 73
     1
 44
1.0
  0
LINE
  5
104
330
1F
100
AcDbEntity
  8
0-B_寸法
  6
Continuous
 62
   120
370
     5
100
AcDbLine
 10
-1960.962426072888
 20
-585.9982804990875
 30
0.0
 11
-1750.962426072888
 21
-585.9982804990875
 31
0.0
  0
LWPOLYLINE
  5
105
330
1F
100
AcDbEntity
  8
0-B_寸法
  6
Continuous
 62
     7
370
     5
100
AcDbPolyline
 90
        4
 70
     1
 43
3.0
 10
-1749.462426072888
 20
-585.9982804990875
 42
0.4142135623731
 10
-1750.962426072888
 20
-584.4982804990875
 42
0.4142135623731
 10
-1752.462426072888
 20
-585.9982804990875
 42
0.4142135623731
 10
-1750.962426072888
 20
-587.4982804990875
 42
0.4142135623731
  0
LWPOLYLINE
  5
106
330
1F
100
AcDbEntity
  8
0-B_寸法
  6
Continuous
 62
     7
370
     5
100
AcDbPolyline
 90
        4
 70
     1
 43
3.0
 10
-1749.462426072888
 20
-369.9992752071738
 42
0.4142135623731
 10
-1750.962426072888
 20
-368.4992752071738
 42
0.4142135623731
 10
-1752.462426072888
 20
-369.9992752071738
 42
0.4142135623731
 10
-1750.962426072888
 20
-371.4992752071738
 42
0.4142135623731
  0
LINE
  5
107
330
1F
100
AcDbEntity
  8
0-B_寸法
  6
Continuous
 62
   120
370
     5
100
AcDbLine
 10
-2170.962426072888
 20
-369.9992752071738
 30
0.0
 11
-1540.962426072888
 21
-369.9992752071738
 31
0.0
  0
LWPOLYLINE
  5
108
330
1F
100
AcDbEntity
  8
0-B_寸法
  6
Continuous
 62
     7
370
     5
100
AcDbPolyline
 90
        4
 70
     1
 43
3.0
 10
-1539.462426072888
 20
-369.9992752071738
 42
0.4142135623731
 10
-1540.962426072888
 20
-368.4992752071738
 42
0.4142135623731
 10
-1542.462426072888
 20
-369.9992752071738
 42
0.4142135623731
 10
-1540.962426072888
 20
-371.4992752071738
 42
0.4142135623731
  0
LINE
  5
109
330
1F
100
AcDbEntity
  8
0-4_枠
  6
Continuous
 62
   120
370
     5
100
AcDbLine
 10
-2530.962296989421
 20
-406.2567427523594
 30
0.0
 11
-2513.127889429941
 21
-406.2567427523594
 31
0.0
  0
LINE
  5
10A
330
1F
100
AcDbEntity
  8
0-4_枠
  6
Continuous
 62
   120
370
     5
100
AcDbLine
 10
-3065.12788942994
 20
-406.2567427523594
 30
0.0
 11
-3065.12788942994
 21
-1833.999418722269
 31
0.0
  0
LINE
  5
10B
330
1F
100
AcDbEntity
  8
0-6_扉
  6
Continuous
 62
   200
370
     5
100
AcDbLine
 10
-2870.128438746347
 20
-1833.999418722269
 30
0.0
 11
-2870.128438746347
 21
-630.9991688080502
 31
0.0
  0
LINE
  5
10C
330
1F
100
AcDbEntity
  8
0-6_扉
  6
Continuous
 62
   200
370
     5
100
AcDbLine
 10
-2708.128438746347
 20
-1833.999418722269
 30
0.0
 11
-2708.128438746347
 21
-630.9991688080502
 31
0.0
  0
LINE
  5
10D
330
1F
100
AcDbEntity
  8
0-4_枠
  6
Continuous
 62
   120
370
     5
100
AcDbLine
 10
-2513.127889429941
 20
-406.2567427523594
 30
0.0
 11
-2513.127889429941
 21
-1833.999418722269
 31
0.0
  0
LINE
  5
10E
330
1F
100
AcDbEntity
  8
0-7_金物
  6
Continuous
 62
     7
370
     5
100
AcDbLine
 10
-2735.127855097667
 20
-370.1451961880002
 30
0.0
 11
-2735.127855097667
 21
-363.9992065426236
 31
0.0
  0
LINE
  5
10F
330
1F
100
AcDbEntity
  8
0-7_金物
  6
Continuous
 62
     7
370
     5
100
AcDbLine
 10
-2843.127923762218
 20
-363.9992065426236
 30
0.0
 11
-2843.127923762218
 21
-370.1451961880002
 31
0.0
  0
LINE
  5
110
330
1F
100
AcDbEntity
  8
0-7_金物
  6
Continuous
 62
     7
370
     5
100
AcDbLine
 10
-2849.128089701549
 20
-363.9992065426236
 30
0.0
 11
-2729.128433024302
 21
-363.9992065426236
 31
0.0
  0
LINE
  5
111
330
1F
100
AcDbEntity
  8
0-7_金物
  6
Continuous
 62
     7
370
     5
100
AcDbLine
 10
-2729.128433024302
 20
-351.9996128078823
 30
0.0
 11
-2729.128433024302
 21
-363.9992065426236
 31
0.0
  0
LINE
  5
112
330
1F
100
AcDbEntity
  8
0-7_金物
  6
Continuous
 62
     7
370
     5
100
AcDbLine
 10
-2849.128089701549
 20
-351.9996128078823
 30
0.0
 11
-2849.128089701549
 21
-363.9992065426236
 31
0.0
  0
LINE
  5
113
330
1F
100
AcDbEntity
  8
0-7_金物
  6
Continuous
 62
     7
370
     5
100
AcDbLine
 10
-2879.128192698375
 20
-339.9992752071738
 30
0.0
 11
-2699.128330027477
 21
-339.9992752071738
 31
0.0
  0
LINE
  5
114
330
1F
100
AcDbEntity
  8
0-7_金物
  6
Continuous
 62
     7
370
     5
100
AcDbLine
 10
-2879.128192698375
 20
-339.9992752071738
 30
0.0
 11
-2879.128192698375
 21
-351.9996128078823
 31
0.0
  0
LINE
  5
115
330
1F
100
AcDbEntity
  8
0-7_金物
  6
Continuous
 62
     7
370
     5
100
AcDbLine
 10
-2699.128330027477
 20
-339.9992752071738
 30
0.0
 11
-2699.128330027477
 21
-351.9996128078823
 31
0.0
  0
LINE
  5
116
330
1F
100
AcDbEntity
  8
0-7_金物
  6
Continuous
 62
     7
370
     5
100
AcDbLine
 10
-2879.128192698375
 20
-351.9996128078823
 30
0.0
 11
-2699.128330027477
 21
-351.9996128078823
 31
0.0
  0
LINE
  5
117
330
1F
100
AcDbEntity
  8
0-3_仕上げ
  6
Continuous
 62
   120
370
     5
100
AcDbLine
 10
-2999.127889429942
 20
-339.9992752071738
 30
0.0
 11
-2579.127889429942
 21
-339.9992752071738
 31
0.0
  0
LINE
  5
118
330
1F
100
AcDbEntity
  8
0-3_仕上げ
  6
Continuous
 62
   120
370
     5
100
AcDbLine
 10
-2579.127889429942
 20
-339.9992752071738
 30
0.0
 11
-2579.127889429942
 21
-159.9992752071738
 31
0.0
  0
LINE
  5
119
330
1F
100
AcDbEntity
  8
0-3_仕上げ
  6
Continuous
 62
   120
370
     5
100
AcDbLine
 10
-2579.127889429942
 20
-159.9992752071738
 30
0.0
 11
-2999.127889429942
 21
-159.9992752071738
 31
0.0
  0
LINE
  5
11A
330
1F
100
AcDbEntity
  8
0-3_仕上げ
  6
Continuous
 62
   120
370
     5
100
AcDbLine
 10
-2999.127889429942
 20
-159.9992752071738
 30
0.0
 11
-2999.127889429942
 21
-339.9992752071738
 31
0.0
  0
LINE
  5
11B
330
1F
100
AcDbEntity
  8
0-3_仕上げ
  6
Continuous
 62
   120
370
     5
100
AcDbLine
 10
-2579.127889429942
 20
-159.9992752071738
 30
0.0
 11
-2999.127889429942
 21
-339.9992752071738
 31
0.0
  0
LINE
  5
11C
330
1F
100
AcDbEntity
  8
0-B_寸法
  6
Continuous
 62
   120
370
     5
100
AcDbLine
 10
-1540.962426072888
 20
-3370.000017526643
 30
0.0
 11
-1540.962426072888
 21
-223.637098666436
 31
0.0
  0
LWPOLYLINE
  5
11D
330
1F
100
AcDbEntity
  8
0-B_寸法
  6
Continuous
 62
     7
370
     5
100
AcDbPolyline
 90
        4
 70
     1
 43
3.0
 10
-1539.462426072888
 20
-339.9992752071738
 42
0.4142135623731
 10
-1540.962426072888
 20
-338.4992752071738
 42
0.4142135623731
 10
-1542.462426072888
 20
-339.9992752071738
 42
0.4142135623731
 10
-1540.962426072888
 20
-341.4992752071738
 42
0.4142135623731
  0
LINE
  5
11E
330
1F
100
AcDbEntity
  8
0-B_寸法
  6
Continuous
 62
   120
370
     5
100
AcDbLine
 10
-1540.962426072888
 20
-339.9992752071738
 30
0.0
 11
-2170.962426072888
 21
-339.9992752071738
 31
0.0
  0
MTEXT
  5
11F
330
1F
100
AcDbEntity
  8
0-B_寸法
  6
Continuous
 62
     7
370
     0
100
AcDbMText
 10
-1975.390208653192
 20
-859.2006590253749
 30
0.0
 40
91.44
 41
180.0
 46
0.0
 71
     7
 72
     1
  1
{\fＭＳ ゴシック|b0|i0|c128|p49;7.5}
 11
6.123031769111886E-17
 21
1.0
 31
0.0
 73
     1
 44
1.0
  0
LINE
  5
120
330
1F
100
AcDbEntity
  8
0-0_補助線
  6
JWW_HOJO
 62
   120
370
     5
100
AcDbLine
 10
-1540.961661236902
 20
-3370.00001742544
 30
0.0
 11
-3740.127551315271
 21
-3370.00001742544
 31
0.0
  0
LWPOLYLINE
  5
121
330
1F
100
AcDbEntity
  8
0-B_寸法
  6
Continuous
 62
     7
370
     5
100
AcDbPolyline
 90
        4
 70
     1
 43
3.0
 10
-3738.627551315271
 20
-3370.000017526643
 42
0.4142135623731
 10
-3740.127551315271
 20
-3368.500017526643
 42
0.4142135623731
 10
-3741.627551315271
 20
-3370.000017526643
 42
0.4142135623731
 10
-3740.127551315271
 20
-3371.500017526643
 42
0.4142135623731
  0
LWPOLYLINE
  5
122
330
1F
100
AcDbEntity
  8
0-B_寸法
  6
Continuous
 62
     7
370
     5
100
AcDbPolyline
 90
        4
 70
     1
 43
3.0
 10
-3738.627551315271
 20
-339.9992752071738
 42
0.4142135623731
 10
-3740.127551315271
 20
-338.4992752071738
 42
0.4142135623731
 10
-3741.627551315271
 20
-339.9992752071738
 42
0.4142135623731
 10
-3740.127551315271
 20
-341.4992752071738
 42
0.4142135623731
  0
LINE
  5
123
330
1F
100
AcDbEntity
  8
0-B_寸法
  6
Continuous
 62
   120
370
     5
100
AcDbLine
 10
-3740.127551315271
 20
-3370.000017526643
 30
0.0
 11
-3740.127551315271
 21
-339.9992752071738
 31
0.0
  0
LINE
  5
124
330
1F
100
AcDbEntity
  8
0-3_仕上げ
  6
Continuous
 62
     7
370
     5
100
AcDbLine
 10
-3380.127567441636
 20
-3345.999901229927
 30
0.0
 11
-2170.961676495707
 21
-3345.999901229927
 31
0.0
  0
LINE
  5
125
330
1F
100
AcDbEntity
  8
0-3_仕上げ
  6
Continuous
 62
     7
370
     5
100
AcDbLine
 10
-3380.127567441636
 20
-3333.999935871502
 30
0.0
 11
-2170.961676495707
 21
-3333.999935871502
 31
0.0
  0
LINE
  5
126
330
1F
100
AcDbEntity
  8
0-3_仕上げ
  6
Continuous
 62
     7
370
     5
100
AcDbLine
 10
-3380.127567441636
 20
-3321.999970513077
 30
0.0
 11
-2170.961676495707
 21
-3321.999970513077
 31
0.0
  0
LINE
  5
127
330
1F
100
AcDbEntity
  8
0-3_仕上げ
  6
Continuous
 62
     7
370
     5
100
AcDbLine
 10
-3380.127567441636
 20
-3309.999819574783
 30
0.0
 11
-2170.961676495707
 21
-3309.999819574783
 31
0.0
  0
LINE
  5
128
330
1F
100
AcDbEntity
  8
0-3_仕上げ
  6
Continuous
 62
     7
370
     5
100
AcDbLine
 10
-3380.127567441636
 20
-3358.000052168218
 30
0.0
 11
-2170.961676495707
 21
-3358.000052168218
 31
0.0
  0
LINE
  5
129
330
1F
100
AcDbEntity
  8
0-3_仕上げ
  6
Continuous
 62
    40
370
     5
100
AcDbLine
 10
-3380.127567441636
 20
-3298.000039796227
 30
0.0
 11
-2170.961676495707
 21
-3298.000039796227
 31
0.0
  0
LINE
  5
12A
330
1F
100
AcDbEntity
  8
0-3_仕上げ
  6
Continuous
 62
    40
370
     5
100
AcDbLine
 10
-3380.127567441636
 20
-3370.000017526643
 30
0.0
 11
-2170.961676495707
 21
-3370.000017526643
 31
0.0
  0
LINE
  5
12B
330
1F
100
AcDbEntity
  8
0-0_補助線
  6
JWW_HOJO
 62
   120
370
     5
100
AcDbLine
 10
-2159.864257841034
 20
-1953.999418722271
 30
0.0
 11
-3403.557755287519
 21
-1953.999418722271
 31
0.0
  0
LINE
  5
12C
330
1F
100
AcDbEntity
  8
0-0_補助線
  6
JWW_HOJO
 62
   120
370
     5
100
AcDbLine
 10
-2159.864257841034
 20
-1833.999418722269
 30
0.0
 11
-3403.557755287519
 21
-1833.999418722269
 31
0.0
  0
LINE
  5
12D
330
1F
100
AcDbEntity
  8
0-B_寸法
  6
Continuous
 62
   120
370
     5
100
AcDbLine
 10
-3740.127551315271
 20
-3370.000017526643
 30
0.0
 11
-3380.128317018821
 21
-3370.000017526643
 31
0.0
  0
LINE
  5
12E
330
1F
100
AcDbEntity
  8
0-B_寸法
  6
Continuous
 62
   120
370
     5
100
AcDbLine
 10
-3740.127551315271
 20
-339.9992752071738
 30
0.0
 11
-3380.128317018821
 21
-339.9992752071738
 31
0.0
  0
MTEXT
  5
12F
330
1F
100
AcDbEntity
  8
0-B_寸法
  6
Continuous
 62
     7
370
     0
100
AcDbMText
 10
-2849.127889429941
 20
-880.761599664921
 30
0.0
 40
91.44
 41
120.0
 46
0.0
 71
     7
 72
     1
  1
{\fＭＳ ゴシック|b0|i0|c128|p49;86}
 73
     1
 44
1.0
  0
MTEXT
  5
130
330
1F
100
AcDbEntity
  8
0-B_寸法
  6
Continuous
 62
     7
370
     0
100
AcDbMText
 10
-2845.377884171335
 20
-1230.259610092495
 30
0.0
 40
91.43999999999758
 41
119.9999999999968
 46
0.0
 71
     7
 72
     1
  1
{\fＭＳ ゴシック|b0|i0|c128|p49;27}
 11
0.9999999999914964
 21
-4.124000483563069E-6
 31
0.0
 73
     1
 44
1.0
  0
MTEXT
  5
131
330
1F
100
AcDbEntity
  8
0-B_寸法
  6
Continuous
 62
     7
370
     0
100
AcDbMText
 10
-2905.377884170826
 20
-1380.369295223269
 30
0.0
 40
91.44000000000035
 41
240.0000000000009
 46
0.0
 71
     7
 72
     1
  1
{\fＭＳ ゴシック|b0|i0|c128|p49;(24)}
 11
0.9999999999914964
 21
-4.124000448035932E-6
 31
0.0
 73
     1
 44
1.0
  0
LINE
  5
132
330
1F
100
AcDbEntity
  8
0-0_補助線
  6
JWW_HOJO
 62
   120
370
     5
100
AcDbLine
 10
-2170.961661236909
 20
-3370.00001742544
 30
0.0
 11
-2170.962362041898
 21
-69.99926054051912
 31
0.0
  0
LINE
  5
133
330
1F
100
AcDbEntity
  8
0-0_補助線
  6
JWW_HOJO
 62
   120
370
     5
100
AcDbLine
 10
-1960.961661236909
 20
-3370.000017425438
 30
0.0
 11
-1960.962362041898
 21
-69.99926054051912
 31
0.0
  0
LINE
  5
134
330
1F
100
AcDbEntity
  8
0-0_補助線
  6
JWW_HOJO
 62
   120
370
     5
100
AcDbLine
 10
-1750.961661236906
 20
-3370.00001742544
 30
0.0
 11
-1750.962362041892
 21
-69.99926054051912
 31
0.0
  0
LINE
  5
135
330
1F
100
AcDbEntity
  8
0-0_補助線
  6
JWW_HOJO
 62
   120
370
     5
100
AcDbLine
 10
-1540.961661236902
 20
-3370.00001742544
 30
0.0
 11
-1540.96236204189
 21
-69.99926054051912
 31
0.0
  0
LINE
  5
136
330
1F
100
AcDbEntity
  8
0-1_通り芯
  6
JWW_CENTER1
 62
   120
370
     5
100
AcDbLine
 10
-2789.127889429942
 20
-69.99926054051912
 30
0.0
 11
-2789.127889429942
 21
-3453.829988408163
 31
0.0
  0
LINE
  5
137
330
1F
100
AcDbEntity
  8
0-0_補助線
  6
JWW_HOJO
 62
   120
370
     5
100
AcDbLine
 10
-3740.127551315271
 20
-3370.000017425439
 30
0.0
 11
-3740.128252120266
 21
-69.99926054051912
 31
0.0
  0
LINE
  5
138
330
1F
100
AcDbEntity
  8
0-0_補助線
  6
JWW_HOJO
 62
   120
370
     5
100
AcDbLine
 10
-1540.96236204189
 20
-69.99926054051912
 30
0.0
 11
-3740.128252120266
 21
-69.99926054051912
 31
0.0
  0
LINE
  5
139
330
1F
100
AcDbEntity
  8
0-0_補助線
  6
JWW_HOJO
 62
   120
370
     5
100
AcDbLine
 10
-3380.127552182841
 20
-3370.000017425441
 30
0.0
 11
-3380.12825298783
 21
-69.99926054051912
 31
0.0
  0
MTEXT
  5
13A
330
1F
100
AcDbEntity
  8
0-B_寸法
  6
Continuous
 62
     7
370
     0
100
AcDbMText
 10
-1975.4289213203
 20
-3252.912229640339
 30
0.0
 40
91.44
 41
240.0
 46
0.0
 71
     7
 72
     1
  1
{\fＭＳ ゴシック|b0|i0|c128|p49;11.5}
 11
6.123031769111886E-17
 21
1.0
 31
0.0
 73
     1
 44
1.0
  0
MTEXT
  5
13B
330
1F
100
AcDbEntity
  8
0-B_寸法
  6
Continuous
 62
     7
370
     0
100
AcDbMText
 10
-1555.963217880319
 20
-3309.917886310378
 30
0.0
 40
91.44
 41
120.0
 46
0.0
 71
     7
 72
     1
  1
{\fＭＳ ゴシック|b0|i0|c128|p49;12}
 11
6.123031769111886E-17
 21
1.0
 31
0.0
 73
     1
 44
1.0
  0
MTEXT
  5
13C
330
1F
100
AcDbEntity
  8
0-B_寸法
  6
Continuous
 62
     7
370
     0
100
AcDbMText
 10
-1975.961733241385
 20
-2196.809544000362
 30
0.0
 40
91.43999999999997
 41
660.0
 46
0.0
 71
     7
 72
     1
  1
{\fＭＳ ゴシック|b0|i0|c128|p49;ＤＨ＝1,983}
 11
6.123031769111886E-17
 21
1.0
 31
0.0
 73
     1
 44
1.0
  0
MTEXT
  5
13D
330
1F
100
AcDbEntity
  8
0-B_寸法
  6
Continuous
 62
     7
370
     0
100
AcDbMText
 10
-1765.961733241386
 20
-2196.809544000362
 30
0.0
 40
91.43999999999997
 41
660.0
 46
0.0
 71
     7
 72
     1
  1
{\fＭＳ ゴシック|b0|i0|c128|p49;枠内＝2,002}
 11
6.123031769111886E-17
 21
1.0
 31
0.0
 73
     1
 44
1.0
  0
MTEXT
  5
13E
330
1F
100
AcDbEntity
  8
0-B_寸法
  6
Continuous
 62
     7
370
     0
100
AcDbMText
 10
-1555.963217880319
 20
-2196.809544000362
 30
0.0
 40
91.43999999999997
 41
660.0
 46
0.0
 71
     7
 72
     1
  1
{\fＭＳ ゴシック|b0|i0|c128|p49;枠外＝2,038}
 11
6.123031769111886E-17
 21
1.0
 31
0.0
 73
     1
 44
1.0
  0
MTEXT
  5
13F
330
1F
100
AcDbEntity
  8
0-B_寸法
  6
Continuous
 62
     7
370
   211
100
AcDbMText
 10
-3755.127551315271
 20
-2238.279464498638
 30
0.0
 40
91.43999999999997
 41
780.0
 46
0.0
 71
     7
 72
     1
  1
{\fＭＳ ゴシック|b0|i0|c128|p49;ＲＯＨ＝2,055}
 11
6.123031769111886E-17
 21
1.0
 31
0.0
 73
     1
 44
1.0
  0
MTEXT
  5
140
330
1F
100
AcDbEntity
  8
0-A_文字
  6
Continuous
 62
     7
370
     0
100
AcDbMText
 10
-3740.12755131527
 20
-3613.55092493511
 30
0.0
 40
68.58000000000001
 41
1395.0
 46
0.0
 71
     7
 72
     1
  1
{\fＭＳ ゴシック|b0|i0|c128|p49;※ 扉厚（　）内はルーバーの場合}
 73
     1
 44
1.0
  0
LINE
  5
141
330
1F
100
AcDbEntity
  8
0-B_寸法
  6
Continuous
 62
    40
370
     5
100
AcDbLine
 10
4626.267356285774
 20
3385.504011182749
 30
0.0
 11
4533.092500048866
 21
3037.770713718684
 31
0.0
  0
LINE
  5
142
330
1F
100
AcDbEntity
  8
0-B_寸法
  6
Continuous
 62
    40
370
     5
100
AcDbLine
 10
4439.917643811958
 20
3385.504011182749
 30
0.0
 11
4533.092500048866
 21
3037.770713718684
 31
0.0
  0
LINE
  5
143
330
1F
100
AcDbEntity
  8
0-B_寸法
  6
Continuous
 62
   120
370
     5
100
AcDbLine
 10
-2012.081407668721
 20
2781.945146596497
 30
0.0
 11
1257.918592331279
 21
2781.945146596497
 31
0.0
  0
LINE
  5
144
330
1F
100
AcDbEntity
  8
0-1_通り芯
  6
JWW_CENTER1
 62
   120
370
     5
100
AcDbLine
 10
1257.918592331279
 20
2601.945146596497
 30
0.0
 11
1257.918592331279
 21
2348.529114611751
 31
0.0
  0
LINE
  5
145
330
1F
100
AcDbEntity
  8
0-B_寸法
  6
Continuous
 62
   120
370
     5
100
AcDbLine
 10
1257.918592331279
 20
2781.945146596497
 30
0.0
 11
1257.918592331279
 21
2601.945146596497
 31
0.0
  0
LWPOLYLINE
  5
146
330
1F
100
AcDbEntity
  8
0-B_寸法
  6
Continuous
 62
     7
370
     5
100
AcDbPolyline
 90
        4
 70
     1
 43
3.0
 10
1259.418592331279
 20
2781.945146596497
 42
0.4142135623731
 10
1257.918592331279
 20
2783.445146596497
 42
0.4142135623731
 10
1256.418592331279
 20
2781.945146596497
 42
0.4142135623731
 10
1257.918592331279
 20
2780.445146596497
 42
0.4142135623731
  0
LINE
  5
147
330
1F
100
AcDbEntity
  8
0-6_扉
  6
JWW_DASHED2
 62
    40
370
     5
100
AcDbLine
 10
1708.835232220927
 20
2359.441384893297
 30
0.0
 11
1674.370403655234
 21
1905.945943352728
 31
0.0
  0
LINE
  5
148
330
1F
100
AcDbEntity
  8
0-6_扉
  6
JWW_DASHED2
 62
    40
370
     5
100
AcDbLine
 10
1419.452775581948
 20
2358.077351108104
 30
0.0
 11
1453.813940061387
 21
1905.945943352728
 31
0.0
  0
LINE
  5
149
330
1F
100
AcDbEntity
  8
0-6_扉
  6
JWW_DASHED2
 62
    40
370
     5
100
AcDbLine
 10
1870.369415471598
 20
2347.165080826552
 30
0.0
 11
1836.837563682123
 21
1905.945943352728
 31
0.0
  0
LINE
  5
14A
330
1F
100
AcDbEntity
  8
0-6_扉
  6
JWW_DASHED2
 62
    40
370
     5
100
AcDbLine
 10
1257.918592331279
 20
2345.801047041364
 30
0.0
 11
1291.346780034497
 21
1905.945943352728
 31
0.0
  0
ARC
  5
14B
330
1F
100
AcDbEntity
  8
0-6_扉
  6
JWW_DASHED2
 62
    40
370
     5
100
AcDbCircle
 10
1852.42117288819
 20
2348.529114611744
 30
0.0
 40
18.0
100
AcDbArc
 50
355.6539792783596
 51
85.65397927835917
  0
LINE
  5
14C
330
1F
100
AcDbEntity
  8
0-6_扉
  6
JWW_DASHED2
 62
    40
370
     5
100
AcDbLine
 10
1853.785206673385
 20
2366.477357195153
 30
0.0
 11
1728.147508589529
 21
2376.025593691511
 31
0.0
  0
ARC
  5
14D
330
1F
100
AcDbEntity
  8
0-6_扉
  6
JWW_DASHED2
 62
    40
370
     5
100
AcDbCircle
 10
1726.783474804334
 20
2358.077351108104
 30
0.0
 40
18.0
100
AcDbArc
 50
85.65397927835929
 51
175.6539792783603
  0
ARC
  5
14E
330
1F
100
AcDbEntity
  8
0-6_扉
  6
JWW_DASHED2
 62
    40
370
     5
100
AcDbCircle
 10
1401.504532998537
 20
2356.713317322912
 30
0.0
 40
18.0
100
AcDbArc
 50
4.346020721638924
 51
94.34602072163929
  0
LINE
  5
14F
330
1F
100
AcDbEntity
  8
0-6_扉
  6
JWW_DASHED2
 62
    40
370
     5
100
AcDbLine
 10
1400.140499213346
 20
2374.661559906321
 30
0.0
 11
1274.502801129492
 21
2365.113323409964
 31
0.0
  0
ARC
  5
150
330
1F
100
AcDbEntity
  8
0-6_扉
  6
JWW_DASHED2
 62
    40
370
     5
100
AcDbCircle
 10
1275.866834914688
 20
2347.165080826555
 30
0.0
 40
18.0
100
AcDbArc
 50
94.34602072163928
 51
184.346020721639
  0
LINE
  5
151
330
1F
100
AcDbEntity
  8
0-0_補助線
  6
JWW_HOJO
 62
   120
370
     5
100
AcDbLine
 10
2781.918344891461
 20
1806.945146596497
 30
0.0
 11
-2762.081209716861
 21
1806.945146596497
 31
0.0
  0
LINE
  5
152
330
1F
100
AcDbEntity
  8
0-B_寸法
  6
Continuous
 62
   120
370
     5
100
AcDbLine
 10
-2192.081679852527
 20
1266.945146596497
 30
0.0
 11
2211.917652059958
 21
1266.945146596497
 31
0.0
  0
LINE
  5
153
330
1F
100
AcDbEntity
  8
0-0_補助線
  6
JWW_HOJO
 62
   120
370
     5
100
AcDbLine
 10
2781.918344891461
 20
1086.945146596497
 30
0.0
 11
-2762.081209716861
 21
1086.945146596497
 31
0.0
  0
LINE
  5
154
330
1F
100
AcDbEntity
  8
0-0_補助線
  6
JWW_HOJO
 62
   120
370
     5
100
AcDbLine
 10
2781.918344891461
 20
1266.945146596497
 30
0.0
 11
-2762.081209716861
 21
1266.945146596497
 31
0.0
  0
LINE
  5
155
330
1F
100
AcDbEntity
  8
0-0_補助線
  6
JWW_HOJO
 62
   120
370
     5
100
AcDbLine
 10
2781.918344891461
 20
1446.945146596497
 30
0.0
 11
-2762.081209716861
 21
1446.945146596497
 31
0.0
  0
LINE
  5
156
330
1F
100
AcDbEntity
  8
0-B_寸法
  6
Continuous
 62
   120
370
     5
100
AcDbLine
 10
-2222.081457156676
 20
2961.945146596497
 30
0.0
 11
2241.91854284331
 21
2961.945146596497
 31
0.0
  0
LINE
  5
157
330
1F
100
AcDbEntity
  8
0-0_補助線
  6
JWW_HOJO
 62
   120
370
     5
100
AcDbLine
 10
2781.918344891461
 20
2961.945146596501
 30
0.0
 11
-2762.081209716861
 21
2961.945146596501
 31
0.0
  0
LINE
  5
158
330
1F
100
AcDbEntity
  8
0-1_通り芯
  6
JWW_CENTER1
 62
   120
370
     5
100
AcDbLine
 10
2782.782833690107
 20
2181.945146596497
 30
0.0
 11
-2763.481040089773
 21
2181.945146596497
 31
0.0
  0
LINE
  5
159
330
1F
100
AcDbEntity
  8
0-0_補助線
  6
JWW_HOJO
 62
   120
370
     5
100
AcDbLine
 10
2781.918344891461
 20
2781.945146596501
 30
0.0
 11
-2762.081209716861
 21
2781.945146596501
 31
0.0
  0
LINE
  5
15A
330
1F
100
AcDbEntity
  8
0-0_補助線
  6
JWW_HOJO
 62
   120
370
     5
100
AcDbLine
 10
2781.918344891461
 20
2601.945146596497
 30
0.0
 11
-2762.081209716861
 21
2601.945146596497
 31
0.0
  0
LINE
  5
15B
330
1F
100
AcDbEntity
  8
0-0_補助線
  6
JWW_HOJO
 62
   120
370
     5
100
AcDbLine
 10
2781.918344891461
 20
1626.945146596497
 30
0.0
 11
-2762.081209716861
 21
1626.945146596497
 31
0.0
  0
LINE
  5
15C
330
1F
100
AcDbEntity
  8
0-B_寸法
  6
Continuous
 62
   120
370
     5
100
AcDbLine
 10
-2222.081457156676
 20
1086.945146596497
 30
0.0
 11
2211.917652059958
 21
1086.945146596497
 31
0.0
  0
LINE
  5
15D
330
1F
100
AcDbEntity
  8
0-B_寸法
  6
Continuous
 62
   120
370
     5
100
AcDbLine
 10
-1997.081457156687
 20
1446.945146596497
 30
0.0
 11
2016.918542843319
 21
1446.945146596497
 31
0.0
  0
LINE
  5
15E
330
1F
100
AcDbEntity
  8
0-0_補助線
  6
JWW_HOJO
 62
     7
370
     5
100
AcDbLine
 10
2001.919235674822
 20
906.9451465964966
 30
0.0
 11
2001.919235674822
 21
2961.945146596497
 31
0.0
  0
LINE
  5
15F
330
1F
100
AcDbEntity
  8
0-B_寸法
  6
Continuous
 62
   120
370
     5
100
AcDbLine
 10
2016.918542843319
 20
1626.945146596497
 30
0.0
 11
2016.918542843319
 21
1806.945146596497
 31
0.0
  0
LWPOLYLINE
  5
160
330
1F
100
AcDbEntity
  8
0-B_寸法
  6
Continuous
 62
     7
370
     5
100
AcDbPolyline
 90
        4
 70
     1
 43
3.0
 10
2018.418542843319
 20
1626.945146596497
 42
0.4142135623731
 10
2016.918542843319
 20
1628.445146596496
 42
0.4142135623731
 10
2015.418542843319
 20
1626.945146596497
 42
0.4142135623731
 10
2016.918542843319
 20
1625.445146596497
 42
0.4142135623731
  0
LINE
  5
161
330
1F
100
AcDbEntity
  8
0-B_寸法
  6
Continuous
 62
   120
370
     5
100
AcDbLine
 10
12.91854284331521
 20
1626.945146596497
 30
0.0
 11
2016.918542843319
 21
1626.945146596497
 31
0.0
  0
LINE
  5
162
330
1F
100
AcDbEntity
  8
0-B_寸法
  6
Continuous
 62
   120
370
     5
100
AcDbLine
 10
12.91854284331521
 20
1626.945146596497
 30
0.0
 11
12.91854284331521
 21
1806.945146596497
 31
0.0
  0
LWPOLYLINE
  5
163
330
1F
100
AcDbEntity
  8
0-B_寸法
  6
Continuous
 62
     7
370
     5
100
AcDbPolyline
 90
        4
 70
     1
 43
3.0
 10
14.41854284331521
 20
1626.945146596497
 42
0.4142135623731
 10
12.91854284331521
 20
1628.445146596496
 42
0.4142135623731
 10
11.41854284331521
 20
1626.945146596497
 42
0.4142135623731
 10
12.91854284331521
 20
1625.445146596497
 42
0.4142135623731
  0
LWPOLYLINE
  5
164
330
1F
100
AcDbEntity
  8
0-B_寸法
  6
Continuous
 62
     7
370
     5
100
AcDbPolyline
 90
        4
 70
     1
 43
3.0
 10
2033.418542843319
 20
1266.945146596497
 42
0.4142135623731
 10
2031.918542843319
 20
1268.445146596496
 42
0.4142135623731
 10
2030.418542843319
 20
1266.945146596497
 42
0.4142135623731
 10
2031.918542843319
 20
1265.445146596497
 42
0.4142135623731
  0
LWPOLYLINE
  5
165
330
1F
100
AcDbEntity
  8
0-B_寸法
  6
Continuous
 62
     7
370
     5
100
AcDbPolyline
 90
        4
 70
     1
 43
3.0
 10
2213.417652059958
 20
1266.945146596497
 42
0.4142135623731
 10
2211.917652059958
 20
1268.445146596496
 42
0.4142135623731
 10
2210.417652059958
 20
1266.945146596497
 42
0.4142135623731
 10
2211.917652059958
 20
1265.445146596497
 42
0.4142135623731
  0
LWPOLYLINE
  5
166
330
1F
100
AcDbEntity
  8
0-B_寸法
  6
Continuous
 62
     7
370
     5
100
AcDbPolyline
 90
        4
 70
     1
 43
3.0
 10
2213.417652059958
 20
1086.945146596497
 42
0.4142135623731
 10
2211.917652059958
 20
1088.445146596496
 42
0.4142135623731
 10
2210.417652059958
 20
1086.945146596497
 42
0.4142135623731
 10
2211.917652059958
 20
1085.445146596497
 42
0.4142135623731
  0
LINE
  5
167
330
1F
100
AcDbEntity
  8
0-B_寸法
  6
Continuous
 62
   120
370
     5
100
AcDbLine
 10
2211.917652059958
 20
1626.945146596497
 30
0.0
 11
2211.917652059958
 21
1086.945146596497
 31
0.0
  0
LINE
  5
168
330
1F
100
AcDbEntity
  8
0-B_寸法
  6
Continuous
 62
   120
370
     5
100
AcDbLine
 10
2031.918542843319
 20
1626.945146596497
 30
0.0
 11
2031.918542843319
 21
1266.945146596497
 31
0.0
  0
LWPOLYLINE
  5
169
330
1F
100
AcDbEntity
  8
0-B_寸法
  6
Continuous
 62
     7
370
     5
100
AcDbPolyline
 90
        4
 70
     1
 43
3.0
 10
2018.418542843319
 20
1446.945146596497
 42
0.4142135623731
 10
2016.918542843319
 20
1448.445146596496
 42
0.4142135623731
 10
2015.418542843319
 20
1446.945146596497
 42
0.4142135623731
 10
2016.918542843319
 20
1445.445146596497
 42
0.4142135623731
  0
LINE
  5
16A
330
1F
100
AcDbEntity
  8
0-B_寸法
  6
Continuous
 62
   120
370
     5
100
AcDbLine
 10
2016.918542843319
 20
1446.945146596497
 30
0.0
 11
2016.918542843319
 21
1626.945146596497
 31
0.0
  0
LINE
  5
16B
330
1F
100
AcDbEntity
  8
0-0_補助線
  6
JWW_HOJO
 62
   120
370
     5
100
AcDbLine
 10
2781.918344891461
 20
1086.945146596497
 30
0.0
 11
2781.918344891461
 21
2781.945146596501
 31
0.0
  0
LINE
  5
16C
330
1F
100
AcDbEntity
  8
0-7_金物
  6
Continuous
 62
     7
370
     5
100
AcDbLine
 10
2229.918205242601
 20
2091.944843328067
 30
0.0
 11
2229.918205242601
 21
2271.944705998964
 31
0.0
  0
LINE
  5
16D
330
1F
100
AcDbEntity
  8
0-7_金物
  6
Continuous
 62
     7
370
     5
100
AcDbLine
 10
2241.91854284331
 20
2271.944705998964
 30
0.0
 11
2229.918205242601
 21
2271.944705998964
 31
0.0
  0
LINE
  5
16E
330
1F
100
AcDbEntity
  8
0-7_金物
  6
Continuous
 62
     7
370
     5
100
AcDbLine
 10
2241.91854284331
 20
2091.944843328067
 30
0.0
 11
2229.918205242601
 21
2091.944843328067
 31
0.0
  0
LINE
  5
16F
330
1F
100
AcDbEntity
  8
0-7_金物
  6
Continuous
 62
     7
370
     5
100
AcDbLine
 10
2241.91854284331
 20
2091.944843328067
 30
0.0
 11
2241.91854284331
 21
2271.944705998964
 31
0.0
  0
LINE
  5
170
330
1F
100
AcDbEntity
  8
0-7_金物
  6
Continuous
 62
     7
370
     5
100
AcDbLine
 10
2229.918205242601
 20
2121.944946324891
 30
0.0
 11
2217.918611507862
 21
2121.944946324891
 31
0.0
  0
LINE
  5
171
330
1F
100
AcDbEntity
  8
0-7_金物
  6
Continuous
 62
     7
370
     5
100
AcDbLine
 10
2229.918205242601
 20
2241.944603002136
 30
0.0
 11
2217.918611507862
 21
2241.944603002136
 31
0.0
  0
LINE
  5
172
330
1F
100
AcDbEntity
  8
0-7_金物
  6
Continuous
 62
     7
370
     5
100
AcDbLine
 10
2217.918611507862
 20
2121.944946324891
 30
0.0
 11
2217.918611507862
 21
2241.944603002136
 31
0.0
  0
LINE
  5
173
330
1F
100
AcDbEntity
  8
0-7_金物
  6
Continuous
 62
     7
370
     5
100
AcDbLine
 10
2217.918611507862
 20
2127.945112264222
 30
0.0
 11
2211.918542843319
 21
2127.945112264222
 31
0.0
  0
LINE
  5
174
330
1F
100
AcDbEntity
  8
0-7_金物
  6
Continuous
 62
     7
370
     5
100
AcDbLine
 10
2211.918542843319
 20
2235.945180928772
 30
0.0
 11
2217.918611507862
 21
2235.945180928772
 31
0.0
  0
LINE
  5
175
330
1F
100
AcDbEntity
  8
0-4_枠
  6
Continuous
 62
    92
370
     5
100
AcDbLine
 10
2211.918542843319
 20
2457.945092159738
 30
0.0
 11
2211.918542843319
 21
1905.945943352729
 31
0.0
  0
LINE
  5
176
330
1F
100
AcDbEntity
  8
0-4_枠
  6
Continuous
 62
    92
370
     5
100
AcDbLine
 10
2049.91854284332
 20
1905.945943352729
 30
0.0
 11
2211.918542843319
 21
1905.945943352729
 31
0.0
  0
LINE
  5
177
330
1F
100
AcDbEntity
  8
0-4_枠
  6
Continuous
 62
    92
370
     5
100
AcDbLine
 10
2049.918676460824
 20
2457.945092159738
 30
0.0
 11
2211.918542843319
 21
2457.945092159738
 31
0.0
  0
ARC
  5
178
330
1F
100
AcDbEntity
  8
0-4_枠
  6
Continuous
 62
    92
370
     5
100
AcDbCircle
 10
2049.91854284332
 20
1923.945943352726
 30
0.0
 40
18.0
100
AcDbArc
 50
180.0
 51
270.0
  0
LINE
  5
179
330
1F
100
AcDbEntity
  8
0-4_枠
  6
Continuous
 62
    92
370
     5
100
AcDbLine
 10
2031.918542843319
 20
1923.945943352726
 30
0.0
 11
2031.918542843319
 21
2439.945329701965
 31
0.0
  0
ARC
  5
17A
330
1F
100
AcDbEntity
  8
0-4_枠
  6
Continuous
 62
    92
370
     5
100
AcDbCircle
 10
2049.918676460824
 20
2439.945329701965
 30
0.0
 40
17.99999878213213
100
AcDbArc
 50
90.0
 51
180.0
  0
LINE
  5
17B
330
1F
100
AcDbEntity
  8
0-B_寸法
  6
Continuous
 62
   120
370
     5
100
AcDbLine
 10
2241.91854284331
 20
2961.945146596497
 30
0.0
 11
2241.91854284331
 21
2601.945146596497
 31
0.0
  0
LWPOLYLINE
  5
17C
330
1F
100
AcDbEntity
  8
0-B_寸法
  6
Continuous
 62
     7
370
     5
100
AcDbPolyline
 90
        4
 70
     1
 43
3.0
 10
2243.41854284331
 20
2961.945146596497
 42
0.4142135623731
 10
2241.91854284331
 20
2963.445146596497
 42
0.4142135623731
 10
2240.418542843311
 20
2961.945146596497
 42
0.4142135623731
 10
2241.91854284331
 20
2960.445146596497
 42
0.4142135623731
  0
LINE
  5
17D
330
1F
100
AcDbEntity
  8
0-C_ハッチ
  6
JWW_DASHED1
 62
   120
370
     5
100
AcDbLine
 10
2211.918542843319
 20
2039.874101782457
 30
0.0
 11
2245.989587657379
 21
2073.945146596517
 31
0.0
  0
LINE
  5
17E
330
1F
100
AcDbEntity
  8
0-3_仕上げ
  6
Continuous
 62
    40
370
     5
100
AcDbLine
 10
2211.918542843319
 20
1998.9451465965
 30
0.0
 11
2782.782833690107
 21
1998.9451465965
 31
0.0
  0
LINE
  5
17F
330
1F
100
AcDbEntity
  8
0-3_仕上げ
  6
Continuous
 62
    40
370
     5
100
AcDbLine
 10
2211.918542843319
 20
2073.945146596499
 30
0.0
 11
2782.782833690107
 21
2073.945146596499
 31
0.0
  0
LINE
  5
180
330
1F
100
AcDbEntity
  8
0-C_ハッチ
  6
Continuous
 62
   120
370
     5
100
AcDbLine
 10
2211.918542843317
 20
2278.087292782954
 30
0.0
 11
2040.98970996368
 21
2449.016125662592
 31
0.0
  0
LINE
  5
181
330
1F
100
AcDbEntity
  8
0-C_ハッチ
  6
Continuous
 62
   120
370
     5
100
AcDbLine
 10
2211.918542843316
 20
2456.278201641953
 30
0.0
 11
2210.251652325534
 21
2457.945092159734
 31
0.0
  0
LINE
  5
182
330
1F
100
AcDbEntity
  8
0-C_ハッチ
  6
Continuous
 62
   120
370
     5
100
AcDbLine
 10
2211.918542843316
 20
2396.881232022251
 30
0.0
 11
2150.854682705838
 21
2457.945092159727
 31
0.0
  0
LINE
  5
183
330
1F
100
AcDbEntity
  8
0-C_ハッチ
  6
Continuous
 62
   120
370
     5
100
AcDbLine
 10
2211.91854284331
 20
2337.484262402609
 30
0.0
 11
2091.45771308619
 21
2457.945092159727
 31
0.0
  0
LINE
  5
184
330
1F
100
AcDbEntity
  8
0-C_ハッチ
  6
Continuous
 62
   120
370
     5
100
AcDbLine
 10
2211.918542843305
 20
2218.690323163265
 30
0.0
 11
2031.918542843307
 21
2398.690323163261
 31
0.0
  0
LINE
  5
185
330
1F
100
AcDbEntity
  8
0-C_ハッチ
  6
Continuous
 62
   120
370
     5
100
AcDbLine
 10
2211.918542843309
 20
2159.293353543614
 30
0.0
 11
2031.918542843316
 21
2339.293353543607
 31
0.0
  0
LINE
  5
186
330
1F
100
AcDbEntity
  8
0-C_ハッチ
  6
Continuous
 62
   120
370
     5
100
AcDbLine
 10
2211.9185428433
 20
2099.89638392392
 30
0.0
 11
2031.918542843302
 21
2279.896383923919
 31
0.0
  0
LINE
  5
187
330
1F
100
AcDbEntity
  8
0-C_ハッチ
  6
Continuous
 62
   120
370
     5
100
AcDbLine
 10
2211.918542843314
 20
2040.499414304261
 30
0.0
 11
2031.918542843314
 21
2220.499414304258
 31
0.0
  0
LINE
  5
188
330
1F
100
AcDbEntity
  8
0-C_ハッチ
  6
Continuous
 62
   120
370
     5
100
AcDbLine
 10
2211.918542843309
 20
1981.102444684618
 30
0.0
 11
2031.918542843317
 21
2161.102444684608
 31
0.0
  0
LINE
  5
189
330
1F
100
AcDbEntity
  8
0-C_ハッチ
  6
Continuous
 62
   120
370
     5
100
AcDbLine
 10
2211.918542843307
 20
1921.705475064917
 30
0.0
 11
2031.918542843309
 21
2101.705475064916
 31
0.0
  0
LINE
  5
18A
330
1F
100
AcDbEntity
  8
0-C_ハッチ
  6
Continuous
 62
   120
370
     5
100
AcDbLine
 10
2168.281104935864
 20
1905.945943352712
 30
0.0
 11
2031.918542843309
 21
2042.308505445269
 31
0.0
  0
LINE
  5
18B
330
1F
100
AcDbEntity
  8
0-C_ハッチ
  6
Continuous
 62
   120
370
     5
100
AcDbLine
 10
2108.884135316162
 20
1905.945943352712
 30
0.0
 11
2031.918542843304
 21
1982.911535825571
 31
0.0
  0
LINE
  5
18C
330
1F
100
AcDbEntity
  8
0-C_ハッチ
  6
Continuous
 62
   120
370
     5
100
AcDbLine
 10
2049.487165696505
 20
1905.945943352724
 30
0.0
 11
2031.918542843316
 21
1923.514566205913
 31
0.0
  0
LINE
  5
18D
330
1F
100
AcDbEntity
  8
0-C_ハッチ
  6
JWW_DASHED1
 62
   120
370
     5
100
AcDbLine
 10
2030.518712470404
 20
2072.190384766994
 30
0.0
 11
2028.763950640905
 21
2073.945146596497
 31
0.0
  0
LINE
  5
18E
330
1F
100
AcDbEntity
  8
0-6_扉
  6
Continuous
 62
   200
370
     5
100
AcDbLine
 10
12.91854284331521
 20
2262.945146596498
 30
0.0
 11
12.91854284331521
 21
2100.945146596499
 31
0.0
  0
LINE
  5
18F
330
1F
100
AcDbEntity
  8
0-6_扉
  6
Continuous
 62
   200
370
     5
100
AcDbLine
 10
12.91854284332032
 20
2262.945146596498
 30
0.0
 11
2016.918542843319
 21
2262.945146596498
 31
0.0
  0
LINE
  5
190
330
1F
100
AcDbEntity
  8
0-6_扉
  6
Continuous
 62
   200
370
     5
100
AcDbLine
 10
12.91854284332032
 20
2100.945146596499
 30
0.0
 11
2016.918542843319
 21
2100.945146596499
 31
0.0
  0
LINE
  5
191
330
1F
100
AcDbEntity
  8
0-6_扉
  6
Continuous
 62
   200
370
     5
100
AcDbLine
 10
2016.918542843319
 20
2262.945146596498
 30
0.0
 11
2016.918542843319
 21
2100.945146596499
 31
0.0
  0
LINE
  5
192
330
1F
100
AcDbEntity
  8
0-C_ハッチ
  6
JWW_DASHED1
 62
   120
370
     5
100
AcDbLine
 10
2764.959283854053
 20
1998.9451465965
 30
0.0
 11
2781.918344891456
 21
2015.904207633903
 31
0.0
  0
LINE
  5
193
330
1F
100
AcDbEntity
  8
0-C_ハッチ
  6
JWW_DASHED1
 62
   120
370
     5
100
AcDbLine
 10
2722.532876982914
 20
1998.945146596507
 30
0.0
 11
2781.918344891455
 21
2058.330614505049
 31
0.0
  0
LINE
  5
194
330
1F
100
AcDbEntity
  8
0-C_ハッチ
  6
JWW_DASHED1
 62
   120
370
     5
100
AcDbLine
 10
2680.106470111718
 20
1998.94514659651
 30
0.0
 11
2755.106470111714
 21
2073.945146596507
 31
0.0
  0
LINE
  5
195
330
1F
100
AcDbEntity
  8
0-C_ハッチ
  6
JWW_DASHED1
 62
   120
370
     5
100
AcDbLine
 10
2637.680063240521
 20
1998.945146596514
 30
0.0
 11
2712.680063240518
 21
2073.94514659651
 31
0.0
  0
LINE
  5
196
330
1F
100
AcDbEntity
  8
0-C_ハッチ
  6
JWW_DASHED1
 62
   120
370
     5
100
AcDbLine
 10
2595.253656369314
 20
1998.945146596507
 30
0.0
 11
2670.253656369307
 21
2073.9451465965
 31
0.0
  0
LINE
  5
197
330
1F
100
AcDbEntity
  8
0-C_ハッチ
  6
JWW_DASHED1
 62
   120
370
     5
100
AcDbLine
 10
2552.827249498118
 20
1998.94514659651
 30
0.0
 11
2627.827249498111
 21
2073.945146596503
 31
0.0
  0
LINE
  5
198
330
1F
100
AcDbEntity
  8
0-C_ハッチ
  6
JWW_DASHED1
 62
   120
370
     5
100
AcDbLine
 10
2510.400842626906
 20
1998.9451465965
 30
0.0
 11
2585.400842626916
 21
2073.94514659651
 31
0.0
  0
LINE
  5
199
330
1F
100
AcDbEntity
  8
0-C_ハッチ
  6
JWW_DASHED1
 62
   120
370
     5
100
AcDbLine
 10
2467.974435755702
 20
1998.945146596495
 30
0.0
 11
2542.974435755714
 21
2073.945146596507
 31
0.0
  0
LINE
  5
19A
330
1F
100
AcDbEntity
  8
0-C_ハッチ
  6
JWW_DASHED1
 62
   120
370
     5
100
AcDbLine
 10
2425.548028884506
 20
1998.9451465965
 30
0.0
 11
2500.548028884501
 21
2073.945146596497
 31
0.0
  0
LINE
  5
19B
330
1F
100
AcDbEntity
  8
0-C_ハッチ
  6
JWW_DASHED1
 62
   120
370
     5
100
AcDbLine
 10
2383.121622013367
 20
1998.945146596507
 30
0.0
 11
2458.121622013364
 21
2073.945146596503
 31
0.0
  0
LINE
  5
19C
330
1F
100
AcDbEntity
  8
0-C_ハッチ
  6
JWW_DASHED1
 62
   120
370
     5
100
AcDbLine
 10
2340.695215142171
 20
1998.945146596509
 30
0.0
 11
2415.695215142167
 21
2073.945146596506
 31
0.0
  0
LINE
  5
19D
330
1F
100
AcDbEntity
  8
0-C_ハッチ
  6
JWW_DASHED1
 62
   120
370
     5
100
AcDbLine
 10
2298.268808270974
 20
1998.945146596514
 30
0.0
 11
2373.268808270971
 21
2073.94514659651
 31
0.0
  0
LINE
  5
19E
330
1F
100
AcDbEntity
  8
0-C_ハッチ
  6
JWW_DASHED1
 62
   120
370
     5
100
AcDbLine
 10
2255.842401399776
 20
1998.945146596514
 30
0.0
 11
2330.842401399769
 21
2073.94514659651
 31
0.0
  0
LINE
  5
19F
330
1F
100
AcDbEntity
  8
0-C_ハッチ
  6
JWW_DASHED1
 62
   120
370
     5
100
AcDbLine
 10
2213.415994528564
 20
1998.945146596502
 30
0.0
 11
2288.415994528574
 21
2073.945146596513
 31
0.0
  0
LINE
  5
1A0
330
1F
100
AcDbEntity
  8
0-B_寸法
  6
Continuous
 62
   120
370
     5
100
AcDbLine
 10
2211.918542843319
 20
1086.945146596497
 30
0.0
 11
2241.91854284331
 21
1086.945146596497
 31
0.0
  0
LWPOLYLINE
  5
1A1
330
1F
100
AcDbEntity
  8
0-B_寸法
  6
Continuous
 62
     7
370
     5
100
AcDbPolyline
 90
        4
 70
     1
 43
3.0
 10
2213.418542843319
 20
1086.945146596497
 42
0.4142135623731
 10
2211.918542843319
 20
1088.445146596496
 42
0.4142135623731
 10
2210.418542843319
 20
1086.945146596497
 42
0.4142135623731
 10
2211.918542843319
 20
1085.445146596497
 42
0.4142135623731
  0
LWPOLYLINE
  5
1A2
330
1F
100
AcDbEntity
  8
0-B_寸法
  6
Continuous
 62
     7
370
     5
100
AcDbPolyline
 90
        4
 70
     1
 43
3.0
 10
2243.41854284331
 20
1086.945146596497
 42
0.4142135623731
 10
2241.91854284331
 20
1088.445146596496
 42
0.4142135623731
 10
2240.418542843311
 20
1086.945146596497
 42
0.4142135623731
 10
2241.91854284331
 20
1085.445146596497
 42
0.4142135623731
  0
LINE
  5
1A3
330
1F
100
AcDbEntity
  8
0-B_寸法
  6
Continuous
 62
   120
370
     5
100
AcDbLine
 10
2211.918542843319
 20
1086.945146596497
 30
0.0
 11
2211.918542843319
 21
1626.945146596497
 31
0.0
  0
LINE
  5
1A4
330
1F
100
AcDbEntity
  8
0-B_寸法
  6
Continuous
 62
   120
370
     5
100
AcDbLine
 10
2241.91854284331
 20
1086.945146596497
 30
0.0
 11
2241.91854284331
 21
1626.945146596497
 31
0.0
  0
LINE
  5
1A5
330
1F
100
AcDbEntity
  8
0-B_寸法
  6
Continuous
 62
   120
370
     5
100
AcDbLine
 10
-2012.081407668721
 20
2781.945146596497
 30
0.0
 11
-2012.081407668721
 21
2601.945146596497
 31
0.0
  0
LWPOLYLINE
  5
1A6
330
1F
100
AcDbEntity
  8
0-B_寸法
  6
Continuous
 62
     7
370
     5
100
AcDbPolyline
 90
        4
 70
     1
 43
3.0
 10
-2010.581407668721
 20
2781.945146596497
 42
0.4142135623731
 10
-2012.081407668721
 20
2783.445146596497
 42
0.4142135623731
 10
-2013.581407668721
 20
2781.945146596497
 42
0.4142135623731
 10
-2012.081407668721
 20
2780.445146596497
 42
0.4142135623731
  0
LWPOLYLINE
  5
1A7
330
1F
100
AcDbEntity
  8
0-B_寸法
  6
Continuous
 62
     7
370
     5
100
AcDbPolyline
 90
        4
 70
     1
 43
3.0
 10
-2190.581679852527
 20
1266.945146596497
 42
0.4142135623731
 10
-2192.081679852527
 20
1268.445146596496
 42
0.4142135623731
 10
-2193.581679852527
 20
1266.945146596497
 42
0.4142135623731
 10
-2192.081679852527
 20
1265.445146596497
 42
0.4142135623731
  0
LWPOLYLINE
  5
1A8
330
1F
100
AcDbEntity
  8
0-B_寸法
  6
Continuous
 62
     7
370
     5
100
AcDbPolyline
 90
        4
 70
     1
 43
3.0
 10
-2010.581457156687
 20
1266.945146596497
 42
0.4142135623731
 10
-2012.081457156687
 20
1268.445146596496
 42
0.4142135623731
 10
-2013.581457156686
 20
1266.945146596497
 42
0.4142135623731
 10
-2012.081457156687
 20
1265.445146596497
 42
0.4142135623731
  0
LWPOLYLINE
  5
1A9
330
1F
100
AcDbEntity
  8
0-B_寸法
  6
Continuous
 62
     7
370
     5
100
AcDbPolyline
 90
        4
 70
     1
 43
3.0
 10
-2190.581679852527
 20
1086.945146596497
 42
0.4142135623731
 10
-2192.081679852527
 20
1088.445146596496
 42
0.4142135623731
 10
-2193.581679852527
 20
1086.945146596497
 42
0.4142135623731
 10
-2192.081679852527
 20
1085.445146596497
 42
0.4142135623731
  0
LINE
  5
1AA
330
1F
100
AcDbEntity
  8
0-B_寸法
  6
Continuous
 62
   120
370
     5
100
AcDbLine
 10
-2192.081679852527
 20
1626.945146596497
 30
0.0
 11
-2192.081679852527
 21
1086.945146596497
 31
0.0
  0
LINE
  5
1AB
330
1F
100
AcDbEntity
  8
0-B_寸法
  6
Continuous
 62
   120
370
     5
100
AcDbLine
 10
-2012.081457156687
 20
1626.945146596497
 30
0.0
 11
-2012.081457156687
 21
1266.945146596497
 31
0.0
  0
LINE
  5
1AC
330
1F
100
AcDbEntity
  8
0-0_補助線
  6
JWW_HOJO
 62
   120
370
     5
100
AcDbLine
 10
-2762.081209716861
 20
1086.945146596497
 30
0.0
 11
-2762.081209716861
 21
2781.945146596501
 31
0.0
  0
LINE
  5
1AD
330
1F
100
AcDbEntity
  8
0-7_金物
  6
Continuous
 62
     7
370
     5
100
AcDbLine
 10
-2210.08111955597
 20
2091.944843328067
 30
0.0
 11
-2210.08111955597
 21
2271.944705998964
 31
0.0
  0
LINE
  5
1AE
330
1F
100
AcDbEntity
  8
0-7_金物
  6
Continuous
 62
     7
370
     5
100
AcDbLine
 10
-2222.081457156676
 20
2271.944705998964
 30
0.0
 11
-2210.08111955597
 21
2271.944705998964
 31
0.0
  0
LINE
  5
1AF
330
1F
100
AcDbEntity
  8
0-7_金物
  6
Continuous
 62
     7
370
     5
100
AcDbLine
 10
-2222.081457156676
 20
2091.944843328067
 30
0.0
 11
-2210.08111955597
 21
2091.944843328067
 31
0.0
  0
LINE
  5
1B0
330
1F
100
AcDbEntity
  8
0-7_金物
  6
Continuous
 62
     7
370
     5
100
AcDbLine
 10
-2222.081457156676
 20
2091.944843328067
 30
0.0
 11
-2222.081457156676
 21
2271.944705998964
 31
0.0
  0
LINE
  5
1B1
330
1F
100
AcDbEntity
  8
0-7_金物
  6
Continuous
 62
     7
370
     5
100
AcDbLine
 10
-2210.08111955597
 20
2121.944946324891
 30
0.0
 11
-2198.081525821231
 21
2121.944946324891
 31
0.0
  0
LINE
  5
1B2
330
1F
100
AcDbEntity
  8
0-7_金物
  6
Continuous
 62
     7
370
     5
100
AcDbLine
 10
-2210.08111955597
 20
2241.944603002136
 30
0.0
 11
-2198.081525821231
 21
2241.944603002136
 31
0.0
  0
LINE
  5
1B3
330
1F
100
AcDbEntity
  8
0-7_金物
  6
Continuous
 62
     7
370
     5
100
AcDbLine
 10
-2198.081525821231
 20
2121.944946324891
 30
0.0
 11
-2198.081525821231
 21
2241.944603002136
 31
0.0
  0
LINE
  5
1B4
330
1F
100
AcDbEntity
  8
0-7_金物
  6
Continuous
 62
     7
370
     5
100
AcDbLine
 10
-2198.081525821231
 20
2127.945112264222
 30
0.0
 11
-2192.081457156687
 21
2127.945112264222
 31
0.0
  0
LINE
  5
1B5
330
1F
100
AcDbEntity
  8
0-7_金物
  6
Continuous
 62
     7
370
     5
100
AcDbLine
 10
-2192.081457156687
 20
2235.945180928772
 30
0.0
 11
-2198.081525821231
 21
2235.945180928772
 31
0.0
  0
LINE
  5
1B6
330
1F
100
AcDbEntity
  8
0-4_枠
  6
Continuous
 62
    92
370
     5
100
AcDbLine
 10
-2192.081457156687
 20
2457.945092159738
 30
0.0
 11
-2192.081457156687
 21
1905.945943352729
 31
0.0
  0
LINE
  5
1B7
330
1F
100
AcDbEntity
  8
0-4_枠
  6
Continuous
 62
    92
370
     5
100
AcDbLine
 10
-2030.081457156687
 20
1905.945943352729
 30
0.0
 11
-2192.081457156687
 21
1905.945943352729
 31
0.0
  0
LINE
  5
1B8
330
1F
100
AcDbEntity
  8
0-4_枠
  6
Continuous
 62
    92
370
     5
100
AcDbLine
 10
-2030.081590774189
 20
2457.945092159738
 30
0.0
 11
-2192.081457156687
 21
2457.945092159738
 31
0.0
  0
ARC
  5
1B9
330
1F
100
AcDbEntity
  8
0-4_枠
  6
Continuous
 62
    92
370
     5
100
AcDbCircle
 10
-2030.081457156687
 20
1923.945943352726
 30
0.0
 40
18.0
100
AcDbArc
 50
270.0
 51
0.0
  0
LINE
  5
1BA
330
1F
100
AcDbEntity
  8
0-4_枠
  6
Continuous
 62
    92
370
     5
100
AcDbLine
 10
-2012.081457156687
 20
1923.945943352726
 30
0.0
 11
-2012.081457156687
 21
2439.945329701965
 31
0.0
  0
ARC
  5
1BB
330
1F
100
AcDbEntity
  8
0-4_枠
  6
Continuous
 62
    92
370
     5
100
AcDbCircle
 10
-2030.081590774189
 20
2439.945329701965
 30
0.0
 40
17.99999878213213
100
AcDbArc
 50
0.0
 51
90.0
  0
LINE
  5
1BC
330
1F
100
AcDbEntity
  8
0-B_寸法
  6
Continuous
 62
   120
370
     5
100
AcDbLine
 10
-2222.081457156676
 20
2961.945146596497
 30
0.0
 11
-2222.081457156676
 21
2601.945146596497
 31
0.0
  0
LWPOLYLINE
  5
1BD
330
1F
100
AcDbEntity
  8
0-B_寸法
  6
Continuous
 62
     7
370
     5
100
AcDbPolyline
 90
        4
 70
     1
 43
3.0
 10
-2220.581457156676
 20
2961.945146596497
 42
0.4142135623731
 10
-2222.081457156676
 20
2963.445146596497
 42
0.4142135623731
 10
-2223.581457156676
 20
2961.945146596497
 42
0.4142135623731
 10
-2222.081457156676
 20
2960.445146596497
 42
0.4142135623731
  0
LINE
  5
1BE
330
1F
100
AcDbEntity
  8
0-3_仕上げ
  6
Continuous
 62
    40
370
     5
100
AcDbLine
 10
-2192.081457156687
 20
1998.9451465965
 30
0.0
 11
-2763.481040089773
 21
1998.9451465965
 31
0.0
  0
LINE
  5
1BF
330
1F
100
AcDbEntity
  8
0-C_ハッチ
  6
JWW_DASHED1
 62
   120
370
     5
100
AcDbLine
 10
-2198.930592259292
 20
1998.944899156668
 30
0.0
 11
-2192.081457156687
 21
2005.794034259274
 31
0.0
  0
LINE
  5
1C0
330
1F
100
AcDbEntity
  8
0-C_ハッチ
  6
JWW_DASHED1
 62
   120
370
     5
100
AcDbLine
 10
-2241.356999130489
 20
1998.944899156671
 30
0.0
 11
-2192.081457156687
 21
2048.220441130474
 31
0.0
  0
LINE
  5
1C1
330
1F
100
AcDbEntity
  8
0-3_仕上げ
  6
Continuous
 62
    40
370
     5
100
AcDbLine
 10
-2192.081457156687
 20
2073.945146596499
 30
0.0
 11
-2763.481040089773
 21
2073.945146596499
 31
0.0
  0
LINE
  5
1C2
330
1F
100
AcDbEntity
  8
0-C_ハッチ
  6
Continuous
 62
   120
370
     5
100
AcDbLine
 10
-2192.081457156683
 20
2278.087292782954
 30
0.0
 11
-2021.152624277047
 21
2449.016125662592
 31
0.0
  0
LINE
  5
1C3
330
1F
100
AcDbEntity
  8
0-C_ハッチ
  6
Continuous
 62
   120
370
     5
100
AcDbLine
 10
-2192.081457156683
 20
2456.278201641953
 30
0.0
 11
-2190.414566638902
 21
2457.945092159734
 31
0.0
  0
LINE
  5
1C4
330
1F
100
AcDbEntity
  8
0-C_ハッチ
  6
Continuous
 62
   120
370
     5
100
AcDbLine
 10
-2192.081457156683
 20
2396.881232022251
 30
0.0
 11
-2131.017597019207
 21
2457.945092159727
 31
0.0
  0
LINE
  5
1C5
330
1F
100
AcDbEntity
  8
0-C_ハッチ
  6
Continuous
 62
   120
370
     5
100
AcDbLine
 10
-2192.081457156676
 20
2337.484262402609
 30
0.0
 11
-2071.620627399559
 21
2457.945092159727
 31
0.0
  0
LINE
  5
1C6
330
1F
100
AcDbEntity
  8
0-C_ハッチ
  6
Continuous
 62
   120
370
     5
100
AcDbLine
 10
-2192.081457156673
 20
2218.690323163265
 30
0.0
 11
-2012.081457156676
 21
2398.690323163261
 31
0.0
  0
LINE
  5
1C7
330
1F
100
AcDbEntity
  8
0-C_ハッチ
  6
Continuous
 62
   120
370
     5
100
AcDbLine
 10
-2192.081457156676
 20
2159.293353543614
 30
0.0
 11
-2012.081457156683
 21
2339.293353543607
 31
0.0
  0
LINE
  5
1C8
330
1F
100
AcDbEntity
  8
0-C_ハッチ
  6
Continuous
 62
   120
370
     5
100
AcDbLine
 10
-2192.081457156669
 20
2099.89638392392
 30
0.0
 11
-2012.081457156669
 21
2279.896383923919
 31
0.0
  0
LINE
  5
1C9
330
1F
100
AcDbEntity
  8
0-C_ハッチ
  6
Continuous
 62
   120
370
     5
100
AcDbLine
 10
-2192.081457156683
 20
2040.499414304261
 30
0.0
 11
-2012.081457156683
 21
2220.499414304258
 31
0.0
  0
LINE
  5
1CA
330
1F
100
AcDbEntity
  8
0-C_ハッチ
  6
Continuous
 62
   120
370
     5
100
AcDbLine
 10
-2192.081457156676
 20
1981.102444684618
 30
0.0
 11
-2012.081457156683
 21
2161.102444684608
 31
0.0
  0
LINE
  5
1CB
330
1F
100
AcDbEntity
  8
0-C_ハッチ
  6
Continuous
 62
   120
370
     5
100
AcDbLine
 10
-2192.081457156676
 20
1921.705475064917
 30
0.0
 11
-2012.081457156676
 21
2101.705475064916
 31
0.0
  0
LINE
  5
1CC
330
1F
100
AcDbEntity
  8
0-C_ハッチ
  6
Continuous
 62
   120
370
     5
100
AcDbLine
 10
-2148.44401924923
 20
1905.945943352712
 30
0.0
 11
-2012.081457156676
 21
2042.308505445269
 31
0.0
  0
LINE
  5
1CD
330
1F
100
AcDbEntity
  8
0-C_ハッチ
  6
Continuous
 62
   120
370
     5
100
AcDbLine
 10
-2089.047049629528
 20
1905.945943352712
 30
0.0
 11
-2012.081457156669
 21
1982.911535825571
 31
0.0
  0
LINE
  5
1CE
330
1F
100
AcDbEntity
  8
0-C_ハッチ
  6
Continuous
 62
   120
370
     5
100
AcDbLine
 10
-2029.650080009874
 20
1905.945943352724
 30
0.0
 11
-2012.081457156683
 21
1923.514566205913
 31
0.0
  0
LINE
  5
1CF
330
1F
100
AcDbEntity
  8
0-B_寸法
  6
Continuous
 62
   120
370
     5
100
AcDbLine
 10
-2012.081457156687
 20
2144.359196304037
 30
0.0
 11
-1997.081457156687
 21
2144.359196304037
 31
0.0
  0
LINE
  5
1D0
330
1F
100
AcDbEntity
  8
0-B_寸法
  6
Continuous
 62
   120
370
     5
100
AcDbLine
 10
-2012.081457156687
 20
2225.68845952722
 30
0.0
 11
-2012.081457156687
 21
2144.359196304037
 31
0.0
  0
LWPOLYLINE
  5
1D1
330
1F
100
AcDbEntity
  8
0-B_寸法
  6
Continuous
 62
     7
370
     5
100
AcDbPolyline
 90
        4
 70
     1
 43
3.0
 10
-2010.581457156687
 20
2144.359196304037
 42
0.4142135623731
 10
-2012.081457156687
 20
2145.859196304037
 42
0.4142135623731
 10
-2013.581457156686
 20
2144.359196304037
 42
0.4142135623731
 10
-2012.081457156687
 20
2142.859196304037
 42
0.4142135623731
  0
LINE
  5
1D2
330
1F
100
AcDbEntity
  8
0-C_ハッチ
  6
JWW_DASHED1
 62
   120
370
     5
100
AcDbLine
 10
-2283.783406001699
 20
1998.944899156661
 30
0.0
 11
-2208.783158561869
 21
2073.945146596493
 31
0.0
  0
LINE
  5
1D3
330
1F
100
AcDbEntity
  8
0-C_ハッチ
  6
JWW_DASHED1
 62
   120
370
     5
100
AcDbLine
 10
-2326.209812872894
 20
1998.944899156668
 30
0.0
 11
-2251.209565433064
 21
2073.945146596497
 31
0.0
  0
LINE
  5
1D4
330
1F
100
AcDbEntity
  8
0-C_ハッチ
  6
JWW_DASHED1
 62
   120
370
     5
100
AcDbLine
 10
-2368.636219744089
 20
1998.944899156671
 30
0.0
 11
-2293.63597230426
 21
2073.945146596503
 31
0.0
  0
LINE
  5
1D5
330
1F
100
AcDbEntity
  8
0-C_ハッチ
  6
JWW_DASHED1
 62
   120
370
     5
100
AcDbLine
 10
-2411.062626615292
 20
1998.944899156668
 30
0.0
 11
-2336.06237917546
 21
2073.945146596503
 31
0.0
  0
LINE
  5
1D6
330
1F
100
AcDbEntity
  8
0-C_ハッチ
  6
JWW_DASHED1
 62
   120
370
     5
100
AcDbLine
 10
-2453.489033486448
 20
1998.944899156661
 30
0.0
 11
-2378.488786046612
 21
2073.945146596493
 31
0.0
  0
LINE
  5
1D7
330
1F
100
AcDbEntity
  8
0-C_ハッチ
  6
JWW_DASHED1
 62
   120
370
     5
100
AcDbLine
 10
-2495.915440357639
 20
1998.944899156665
 30
0.0
 11
-2420.915192917809
 21
2073.945146596497
 31
0.0
  0
LINE
  5
1D8
330
1F
100
AcDbEntity
  8
0-C_ハッチ
  6
JWW_DASHED1
 62
   120
370
     5
100
AcDbLine
 10
-2538.341847228839
 20
1998.944899156668
 30
0.0
 11
-2463.341599789009
 21
2073.945146596499
 31
0.0
  0
LINE
  5
1D9
330
1F
100
AcDbEntity
  8
0-C_ハッチ
  6
JWW_DASHED1
 62
   120
370
     5
100
AcDbLine
 10
-2580.768254100034
 20
1998.94489915667
 30
0.0
 11
-2505.768006660201
 21
2073.945146596503
 31
0.0
  0
LINE
  5
1DA
330
1F
100
AcDbEntity
  8
0-C_ハッチ
  6
JWW_DASHED1
 62
   120
370
     5
100
AcDbLine
 10
-2623.194660971234
 20
1998.94489915667
 30
0.0
 11
-2548.194413531406
 21
2073.9451465965
 31
0.0
  0
LINE
  5
1DB
330
1F
100
AcDbEntity
  8
0-C_ハッチ
  6
JWW_DASHED1
 62
   120
370
     5
100
AcDbLine
 10
-2665.621067842431
 20
1998.944899156675
 30
0.0
 11
-2590.620820402601
 21
2073.945146596503
 31
0.0
  0
LINE
  5
1DC
330
1F
100
AcDbEntity
  8
0-C_ハッチ
  6
JWW_DASHED1
 62
   120
370
     5
100
AcDbLine
 10
-2708.047474713626
 20
1998.944899156678
 30
0.0
 11
-2633.047227273796
 21
2073.94514659651
 31
0.0
  0
LINE
  5
1DD
330
1F
100
AcDbEntity
  8
0-C_ハッチ
  6
JWW_DASHED1
 62
   120
370
     5
100
AcDbLine
 10
-2750.473881584853
 20
1998.944899156651
 30
0.0
 11
-2675.473634145023
 21
2073.945146596486
 31
0.0
  0
LINE
  5
1DE
330
1F
100
AcDbEntity
  8
0-C_ハッチ
  6
JWW_DASHED1
 62
   120
370
     5
100
AcDbLine
 10
-2762.081209716851
 20
2029.763977895802
 30
0.0
 11
-2717.90004101616
 21
2073.945146596493
 31
0.0
  0
LWPOLYLINE
  5
1DF
330
1F
100
AcDbEntity
  8
0-B_寸法
  6
Continuous
 62
     7
370
     5
100
AcDbPolyline
 90
        4
 70
     1
 43
3.0
 10
-2220.581457156676
 20
1086.945146596497
 42
0.4142135623731
 10
-2222.081457156676
 20
1088.445146596496
 42
0.4142135623731
 10
-2223.581457156676
 20
1086.945146596497
 42
0.4142135623731
 10
-2222.081457156676
 20
1085.445146596497
 42
0.4142135623731
  0
LWPOLYLINE
  5
1E0
330
1F
100
AcDbEntity
  8
0-B_寸法
  6
Continuous
 62
     7
370
     5
100
AcDbPolyline
 90
        4
 70
     1
 43
3.0
 10
-2190.581457156687
 20
1086.945146596497
 42
0.4142135623731
 10
-2192.081457156687
 20
1088.445146596496
 42
0.4142135623731
 10
-2193.581457156687
 20
1086.945146596497
 42
0.4142135623731
 10
-2192.081457156687
 20
1085.445146596497
 42
0.4142135623731
  0
LINE
  5
1E1
330
1F
100
AcDbEntity
  8
0-B_寸法
  6
Continuous
 62
   120
370
     5
100
AcDbLine
 10
-2222.081457156676
 20
1086.945146596497
 30
0.0
 11
-2222.081457156676
 21
1626.945146596497
 31
0.0
  0
LINE
  5
1E2
330
1F
100
AcDbEntity
  8
0-B_寸法
  6
Continuous
 62
   120
370
     5
100
AcDbLine
 10
-2192.081457156687
 20
1086.945146596497
 30
0.0
 11
-2192.081457156687
 21
1626.945146596497
 31
0.0
  0
LINE
  5
1E3
330
1F
100
AcDbEntity
  8
0-0_補助線
  6
JWW_HOJO
 62
     7
370
     5
100
AcDbLine
 10
-1977.582725278061
 20
906.9451465964966
 30
0.0
 11
-1977.582725278061
 21
2961.945146596497
 31
0.0
  0
LINE
  5
1E4
330
1F
100
AcDbEntity
  8
0-B_寸法
  6
Continuous
 62
   120
370
     5
100
AcDbLine
 10
6.918542843315549
 20
1626.945146596497
 30
0.0
 11
6.918542843315549
 21
1806.945146596497
 31
0.0
  0
LINE
  5
1E5
330
1F
100
AcDbEntity
  8
0-B_寸法
  6
Continuous
 62
   120
370
     5
100
AcDbLine
 10
-1997.081457156687
 20
1626.945146596497
 30
0.0
 11
-1997.081457156687
 21
1806.945146596497
 31
0.0
  0
LWPOLYLINE
  5
1E6
330
1F
100
AcDbEntity
  8
0-B_寸法
  6
Continuous
 62
     7
370
     5
100
AcDbPolyline
 90
        4
 70
     1
 43
3.0
 10
8.41854284331555
 20
1626.945146596497
 42
0.4142135623731
 10
6.918542843315549
 20
1628.445146596496
 42
0.4142135623731
 10
5.418542843315549
 20
1626.945146596497
 42
0.4142135623731
 10
6.918542843315549
 20
1625.445146596497
 42
0.4142135623731
  0
LWPOLYLINE
  5
1E7
330
1F
100
AcDbEntity
  8
0-B_寸法
  6
Continuous
 62
     7
370
     5
100
AcDbPolyline
 90
        4
 70
     1
 43
3.0
 10
-1995.581457156687
 20
1626.945146596497
 42
0.4142135623731
 10
-1997.081457156687
 20
1628.445146596496
 42
0.4142135623731
 10
-1998.581457156686
 20
1626.945146596497
 42
0.4142135623731
 10
-1997.081457156687
 20
1625.445146596497
 42
0.4142135623731
  0
LINE
  5
1E8
330
1F
100
AcDbEntity
  8
0-B_寸法
  6
Continuous
 62
   120
370
     5
100
AcDbLine
 10
-1997.081457156687
 20
1626.945146596497
 30
0.0
 11
6.918542843315549
 21
1626.945146596497
 31
0.0
  0
LWPOLYLINE
  5
1E9
330
1F
100
AcDbEntity
  8
0-B_寸法
  6
Continuous
 62
     7
370
     5
100
AcDbPolyline
 90
        4
 70
     1
 43
3.0
 10
-1995.581457156687
 20
1446.945146596497
 42
0.4142135623731
 10
-1997.081457156687
 20
1448.445146596496
 42
0.4142135623731
 10
-1998.581457156686
 20
1446.945146596497
 42
0.4142135623731
 10
-1997.081457156687
 20
1445.445146596497
 42
0.4142135623731
  0
LINE
  5
1EA
330
1F
100
AcDbEntity
  8
0-B_寸法
  6
Continuous
 62
   120
370
     5
100
AcDbLine
 10
-1997.081457156687
 20
1446.945146596497
 30
0.0
 11
-1997.081457156687
 21
1626.945146596497
 31
0.0
  0
LINE
  5
1EB
330
1F
100
AcDbEntity
  8
0-B_寸法
  6
Continuous
 62
   120
370
     5
100
AcDbLine
 10
-1011.120196616696
 20
2100.945146596499
 30
0.0
 11
-1011.120196616696
 21
2262.944493355368
 31
0.0
  0
LWPOLYLINE
  5
1EC
330
1F
100
AcDbEntity
  8
0-B_寸法
  6
Continuous
 62
     7
370
     5
100
AcDbPolyline
 90
        4
 70
     1
 43
3.0
 10
-1009.620196616697
 20
2100.945146596499
 42
0.4142135623731
 10
-1011.120196616696
 20
2102.445146596499
 42
0.4142135623731
 10
-1012.620196616696
 20
2100.945146596499
 42
0.4142135623731
 10
-1011.120196616696
 20
2099.445146596499
 42
0.4142135623731
  0
LWPOLYLINE
  5
1ED
330
1F
100
AcDbEntity
  8
0-B_寸法
  6
Continuous
 62
     7
370
     5
100
AcDbPolyline
 90
        4
 70
     1
 43
3.0
 10
-1009.620196616697
 20
2262.944493355368
 42
0.4142135623731
 10
-1011.120196616696
 20
2264.444493355368
 42
0.4142135623731
 10
-1012.620196616696
 20
2262.944493355368
 42
0.4142135623731
 10
-1011.120196616696
 20
2261.444493355368
 42
0.4142135623731
  0
LINE
  5
1EE
330
1F
100
AcDbEntity
  8
0-B_寸法
  6
Continuous
 62
   120
370
     5
100
AcDbLine
 10
-1552.880129734935
 20
1905.945943352729
 30
0.0
 11
-1552.880129734935
 21
2457.945092159738
 31
0.0
  0
LINE
  5
1EF
330
1F
100
AcDbEntity
  8
0-B_寸法
  6
Continuous
 62
   120
370
     5
100
AcDbLine
 10
-1671.655698516605
 20
2457.945092159738
 30
0.0
 11
-1552.880129734935
 21
2457.945092159738
 31
0.0
  0
LWPOLYLINE
  5
1F0
330
1F
100
AcDbEntity
  8
0-B_寸法
  6
Continuous
 62
     7
370
     5
100
AcDbPolyline
 90
        4
 70
     1
 43
3.0
 10
-1551.380129734935
 20
2457.945092159738
 42
0.4142135623731
 10
-1552.880129734935
 20
2459.445092159738
 42
0.4142135623731
 10
-1554.380129734935
 20
2457.945092159738
 42
0.4142135623731
 10
-1552.880129734935
 20
2456.445092159738
 42
0.4142135623731
  0
LINE
  5
1F1
330
1F
100
AcDbEntity
  8
0-B_寸法
  6
Continuous
 62
   120
370
     5
100
AcDbLine
 10
-1997.081457156687
 20
2225.68845952722
 30
0.0
 11
-1997.081457156687
 21
2144.359196304037
 31
0.0
  0
LWPOLYLINE
  5
1F2
330
1F
100
AcDbEntity
  8
0-B_寸法
  6
Continuous
 62
     7
370
     5
100
AcDbPolyline
 90
        4
 70
     1
 43
3.0
 10
-1995.581457156687
 20
2144.359196304037
 42
0.4142135623731
 10
-1997.081457156687
 20
2145.859196304037
 42
0.4142135623731
 10
-1998.581457156686
 20
2144.359196304037
 42
0.4142135623731
 10
-1997.081457156687
 20
2142.859196304037
 42
0.4142135623731
  0
LINE
  5
1F3
330
1F
100
AcDbEntity
  8
0-6_扉
  6
Continuous
 62
   200
370
     5
100
AcDbLine
 10
6.918542843315549
 20
2262.945146596498
 30
0.0
 11
6.918542843315549
 21
2100.945146596499
 31
0.0
  0
LINE
  5
1F4
330
1F
100
AcDbEntity
  8
0-6_扉
  6
Continuous
 62
   200
370
     5
100
AcDbLine
 10
-1997.081457156687
 20
2262.945146596498
 30
0.0
 11
6.918542843315549
 21
2262.945146596498
 31
0.0
  0
LINE
  5
1F5
330
1F
100
AcDbEntity
  8
0-6_扉
  6
Continuous
 62
   200
370
     5
100
AcDbLine
 10
-1997.081457156687
 20
2262.945146596498
 30
0.0
 11
-1997.081457156687
 21
2100.945146596499
 31
0.0
  0
LINE
  5
1F6
330
1F
100
AcDbEntity
  8
0-6_扉
  6
Continuous
 62
   200
370
     5
100
AcDbLine
 10
-1997.081457156687
 20
2100.945146596499
 30
0.0
 11
6.918542843315549
 21
2100.945146596499
 31
0.0
  0
MTEXT
  5
1F7
330
1F
100
AcDbEntity
  8
0-B_寸法
  6
Continuous
 62
     7
370
   211
100
AcDbMText
 10
2136.917652059961
 20
1087.665146596497
 30
0.0
 40
91.44
 41
60.0
 46
0.0
 71
     7
 72
     1
  1
{\fＭＳ ゴシック|b0|i0|c128|p49;5}
 73
     1
 44
1.0
  0
MTEXT
  5
1F8
330
1F
100
AcDbEntity
  8
0-B_寸法
  6
Continuous
 62
     7
370
   211
100
AcDbMText
 10
-2177.081679852532
 20
1087.665146596497
 30
0.0
 40
91.44
 41
60.0
 46
0.0
 71
     7
 72
     1
  1
{\fＭＳ ゴシック|b0|i0|c128|p49;5}
 73
     1
 44
1.0
  0
LINE
  5
1F9
330
1F
100
AcDbEntity
  8
0-B_寸法
  6
Continuous
 62
   120
370
     5
100
AcDbLine
 10
-1671.655698516605
 20
1905.945943352729
 30
0.0
 11
-1552.880129734935
 21
1905.945943352729
 31
0.0
  0
LWPOLYLINE
  5
1FA
330
1F
100
AcDbEntity
  8
0-B_寸法
  6
Continuous
 62
     7
370
     5
100
AcDbPolyline
 90
        4
 70
     1
 43
3.0
 10
-1551.380129734935
 20
1905.945943352729
 42
0.4142135623731
 10
-1552.880129734935
 20
1907.445943352729
 42
0.4142135623731
 10
-1554.380129734935
 20
1905.945943352729
 42
0.4142135623731
 10
-1552.880129734935
 20
1904.445943352729
 42
0.4142135623731
  0
MTEXT
  5
1FB
330
1F
100
AcDbEntity
  8
0-B_寸法
  6
Continuous
 62
     7
370
     0
100
AcDbMText
 10
-260.0814571566821
 20
1087.665196084461
 30
0.0
 40
91.43999999999998
 41
540.0
 46
0.0
 71
     7
 72
     1
  1
{\fＭＳ ゴシック|b0|i0|c128|p49;枠外＝734}
 73
     1
 44
1.0
  0
MTEXT
  5
1FC
330
1F
100
AcDbEntity
  8
0-B_寸法
  6
Continuous
 62
     7
370
     0
100
AcDbMText
 10
2058.167899499781
 20
1267.66519608446
 30
0.0
 40
91.44
 41
120.0
 46
0.0
 71
     7
 72
     1
  1
{\fＭＳ ゴシック|b0|i0|c128|p49;30}
 73
     1
 44
1.0
  0
LINE
  5
1FD
330
1F
100
AcDbEntity
  8
0-0_補助線
  6
JWW_HOJO
 62
     7
370
     5
100
AcDbLine
 10
9.918542843316231
 20
906.9451465964966
 30
0.0
 11
9.918542843316231
 21
2961.945146596497
 31
0.0
  0
MTEXT
  5
1FE
330
1F
100
AcDbEntity
  8
0-B_寸法
  6
Continuous
 62
     7
370
     0
100
AcDbMText
 10
-260.0814571566821
 20
1267.66519608446
 30
0.0
 40
91.43999999999998
 41
540.0
 46
0.0
 71
     7
 72
     1
  1
{\fＭＳ ゴシック|b0|i0|c128|p49;枠内＝674}
 73
     1
 44
1.0
  0
MTEXT
  5
1FF
330
1F
100
AcDbEntity
  8
0-B_寸法
  6
Continuous
 62
     7
370
     0
100
AcDbMText
 10
-2162.081568504607
 20
1267.66519608446
 30
0.0
 40
91.44
 41
120.0
 46
0.0
 71
     7
 72
     1
  1
{\fＭＳ ゴシック|b0|i0|c128|p49;30}
 73
     1
 44
1.0
  0
MTEXT
  5
200
330
1F
100
AcDbEntity
  8
0-B_寸法
  6
Continuous
 62
     7
370
     0
100
AcDbMText
 10
-440.0814571566838
 20
1460.654699778309
 30
0.0
 40
91.43999999999998
 41
900.0
 46
0.0
 71
     7
 72
     1
  1
{\fＭＳ ゴシック|b0|i0|c128|p49;折戸：ＤＷ＝669}
 73
     1
 44
1.0
  0
CIRCLE
  5
201
330
1F
100
AcDbEntity
  8
0-A_文字
  6
Continuous
 62
     7
370
     5
100
AcDbCircle
 10
9.9185057273462
 20
2292.945146596476
 30
0.0
 40
21.00000000000001
  0
CIRCLE
  5
202
330
1F
100
AcDbEntity
  8
0-A_文字
  6
Continuous
 62
     7
370
     5
100
AcDbCircle
 10
9.9185057273462
 20
2292.945146596476
 30
0.0
 40
30.0
  0
MTEXT
  5
203
330
1F
100
AcDbEntity
  8
0-B_寸法
  6
Continuous
 62
     7
370
   211
100
AcDbMText
 10
744.9185428433198
 20
1627.665146596497
 30
0.0
 40
91.43999999999997
 41
539.9999999999999
 46
0.0
 71
     7
 72
     1
  1
{\fＭＳ ゴシック|b0|i0|c128|p49;ＤＷ＝334}
 73
     1
 44
1.0
  0
MTEXT
  5
204
330
1F
100
AcDbEntity
  8
0-B_寸法
  6
Continuous
 62
     7
370
   211
100
AcDbMText
 10
-1265.081457156687
 20
1627.665146596497
 30
0.0
 40
91.43999999999997
 41
539.9999999999999
 46
0.0
 71
     7
 72
     1
  1
{\fＭＳ ゴシック|b0|i0|c128|p49;ＤＷ＝334}
 73
     1
 44
1.0
  0
MTEXT
  5
205
330
1F
100
AcDbEntity
  8
0-B_寸法
  6
Continuous
 62
     7
370
     0
100
AcDbMText
 10
-863.8283011031558
 20
2051.41501792779
 30
0.0
 40
91.44
 41
240.0
 46
0.0
 71
     7
 72
     1
  1
{\fＭＳ ゴシック|b0|i0|c128|p49;(24)}
 11
6.123031769111886E-17
 21
1.0
 31
0.0
 73
     1
 44
1.0
  0
MTEXT
  5
206
330
1F
100
AcDbEntity
  8
0-B_寸法
  6
Continuous
 62
     7
370
     5
100
AcDbMText
 10
-1567.881292702099
 20
2107.874763172175
 30
0.0
 40
91.44
 41
120.0
 46
0.0
 71
     7
 72
     1
  1
{\fＭＳ ゴシック|b0|i0|c128|p49;92}
 11
6.123031769111886E-17
 21
1.0
 31
0.0
 73
     1
 44
1.0
  0
MTEXT
  5
207
330
1F
100
AcDbEntity
  8
0-B_寸法
  6
Continuous
 62
     7
370
     0
100
AcDbMText
 10
-1026.120246104659
 20
2111.415017927789
 30
0.0
 40
91.44
 41
120.0
 46
0.0
 71
     7
 72
     1
  1
{\fＭＳ ゴシック|b0|i0|c128|p49;27}
 11
6.123031769111886E-17
 21
1.0
 31
0.0
 73
     1
 44
1.0
  0
MTEXT
  5
208
330
1F
100
AcDbEntity
  8
0-B_寸法
  6
Continuous
 62
     7
370
     5
100
AcDbMText
 10
-1987.001988422952
 20
2131.828631193371
 30
0.0
 40
91.43999999999988
 41
179.9999999999998
 46
0.0
 71
     7
 72
     1
  1
{\fＭＳ ゴシック|b0|i0|c128|p49;2.5}
 73
     1
 44
1.0
  0
MTEXT
  5
209
330
1F
100
AcDbEntity
  8
0-B_寸法
  6
Continuous
 62
     7
370
   211
100
AcDbMText
 10
-320.0814942726538
 20
2962.665146596496
 30
0.0
 40
91.43999999999997
 41
660.0
 46
0.0
 71
     7
 72
     1
  1
{\fＭＳ ゴシック|b0|i0|c128|p49;ＲＯＷ＝744}
 73
     1
 44
1.0
  0
MTEXT
  5
20A
330
1F
100
AcDbEntity
  8
0-A_文字
  6
Continuous
 62
     7
370
     5
100
AcDbMText
 10
-608.0824221719836
 20
826.7384799298299
 30
0.0
 40
79.58666666666653
 41
2819.999999999995
 46
0.0
 71
     7
 72
     1
  1
{\fＭＳ ゴシック|b0|i0|c128|p49;※有効開口寸法は扉の厚さや調整によって若干異なります。}
 73
     1
 44
1.0
  0
MTEXT
  5
20B
330
1F
100
AcDbEntity
  8
0-A_文字
  6
Continuous
 62
     7
370
     5
100
AcDbMText
 10
-83.08242217198284
 20
931.6903738692237
 30
0.0
 40
79.49045454545431
 41
2294.999999999993
 46
0.0
 71
     7
 72
     1
  1
{\fＭＳ ゴシック|b0|i0|c128|p49;※有効開口寸法にはハンドルの突出は含まない。}
 73
     1
 44
1.0
  0
MTEXT
  5
20C
330
1F
100
AcDbEntity
  8
0-B_寸法
  6
Continuous
 62
     7
370
   211
100
AcDbMText
 10
-500.0814571566838
 20
2782.665146596496
 30
0.0
 40
91.43999999999998
 41
1020.0
 46
0.0
 71
     7
 72
     1
  1
{\fＭＳ ゴシック|b0|i0|c128|p49;有効開口寸法＝545}
 73
     1
 44
1.0
  0
MTEXT
  5
20D
330
1F
100
AcDbEntity
  8
0-A_文字
  6
Continuous
 62
     7
370
     5
100
AcDbMText
 10
-2762.08120971686
 20
3142.213602323598
 30
0.0
 40
100.584
 41
660.0
 46
0.0
 71
     7
 72
     1
  1
{\fＭＳ ゴシック|b0|i0|c128|p49;■横断面図}
 73
     1
 44
1.0
  0
MTEXT
  5
20E
330
1F
100
AcDbEntity
  8
0-C_ハッチ
  6
Continuous
 62
     7
370
     5
100
AcDbMText
 10
1708.333468328459
 20
-3310.357728572448
 30
0.0
 40
57.14999999999974
 41
1424.999999999994
 46
0.0
 71
     7
 72
     1
  1
{\fＭＳ ゴシック|b0|i0|c128|p49;※現場にて左右どちらでも施工可能です。}
 73
     1
 44
1.0
  0
LINE
  5
20F
330
1F
100
AcDbEntity
  8
0-C_ハッチ
  6
JWW_HOJO
 62
   120
370
     5
100
AcDbLine
 10
3213.325595642853
 20
-691.0652998524359
 30
0.0
 11
5307.339354602854
 21
-691.0652998524359
 31
0.0
  0
LINE
  5
210
330
1F
100
AcDbEntity
  8
0-C_ハッチ
  6
JWW_HOJO
 62
   120
370
     5
100
AcDbLine
 10
3213.325595642853
 20
-568.6652998524381
 30
0.0
 11
5307.339354602854
 21
-568.6652998524381
 31
0.0
  0
LINE
  5
211
330
1F
100
AcDbEntity
  8
0-C_ハッチ
  6
Continuous
 62
    92
370
     5
100
AcDbLine
 10
5519.92950318913
 20
-486.9025726977396
 30
0.0
 11
782.3295031891174
 21
-486.9025726977396
 31
0.0
  0
LINE
  5
212
330
1F
100
AcDbEntity
  8
0-C_ハッチ
  6
JWW_HOJO
 62
   120
370
     5
100
AcDbLine
 10
3213.325595642853
 20
-935.8652998524351
 30
0.0
 11
5307.339354602854
 21
-935.8652998524351
 31
0.0
  0
LINE
  5
213
330
1F
100
AcDbEntity
  8
0-C_ハッチ
  6
JWW_HOJO
 62
   120
370
     5
100
AcDbLine
 10
3213.325595642853
 20
-813.465299852435
 30
0.0
 11
5307.339354602854
 21
-813.465299852435
 31
0.0
  0
LINE
  5
214
330
1F
100
AcDbEntity
  8
0-C_ハッチ
  6
JWW_HOJO
 62
   120
370
     5
100
AcDbLine
 10
5307.339354602854
 20
-568.6652998524381
 30
0.0
 11
5307.339354602854
 21
-935.8652998524351
 31
0.0
  0
LINE
  5
215
330
1F
100
AcDbEntity
  8
0-C_ハッチ
  6
Continuous
 62
   120
370
     5
100
AcDbLine
 10
4366.901129580694
 20
-1849.716329939098
 30
0.0
 11
4732.83866050833
 21
-1849.716329939098
 31
0.0
  0
LINE
  5
216
330
1F
100
AcDbEntity
  8
0-C_ハッチ
  6
Continuous
 62
   120
370
     5
100
AcDbLine
 10
4571.191979739094
 20
-2069.19371163652
 30
0.0
 11
4630.066725062069
 21
-2069.19371163652
 31
0.0
  0
LINE
  5
217
330
1F
100
AcDbEntity
  8
0-C_ハッチ
  6
Continuous
 62
   120
370
     5
100
AcDbLine
 10
4447.360440582517
 20
-1945.362172479946
 30
0.0
 11
4571.191979739094
 21
-2069.19371163652
 31
0.0
  0
MTEXT
  5
218
330
1F
100
AcDbEntity
  8
0-C_ハッチ
  6
Continuous
 62
     7
370
     5
100
AcDbMText
 10
787.6483131252978
 20
-232.14970882416
 30
0.0
 40
91.43999999999998
 41
2520.0
 46
0.0
 71
     7
 72
     1
  1
{\fＭＳ ゴシック|b0|i0|c128|p49;■ガイドランナーの取り付け(ＭＵＫＵ固定枠)}
 73
     1
 44
1.0
  0
LINE
  5
219
330
1F
100
AcDbEntity
  8
0-C_ハッチ
  6
Continuous
 62
   120
370
     5
100
AcDbLine
 10
3867.961841846902
 20
-1983.927362252566
 30
0.0
 11
3986.53926010603
 21
-2095.52963826116
 31
0.0
  0
MTEXT
  5
21A
330
1F
100
AcDbEntity
  8
0-C_ハッチ
  6
Continuous
 62
     7
370
     5
100
AcDbMText
 10
1486.729503189122
 20
-453.1825726977396
 30
0.0
 40
91.4400000000001
 41
960.000000000001
 46
0.0
 71
     7
 72
     1
  1
{\fＭＳ ゴシック|b0|i0|c128|p49;下固定ストッパー}
 73
     1
 44
1.0
  0
MTEXT
  5
21B
330
1F
100
AcDbEntity
  8
0-C_ハッチ
  6
Continuous
 62
     7
370
     5
100
AcDbMText
 10
3255.52950318913
 20
-453.1825726977418
 30
0.0
 40
91.43999999999993
 41
2159.999999999998
 46
0.0
 71
     7
 72
     1
  1
{\fＭＳ ゴシック|b0|i0|c128|p49;ストライク(可動側受け金具)の取り付け}
 73
     1
 44
1.0
  0
LINE
  5
21C
330
1F
100
AcDbEntity
  8
0-C_ハッチ
  6
Continuous
 62
    92
370
     5
100
AcDbLine
 10
3151.129503189123
 20
-3370.000017526644
 30
0.0
 11
3151.129503189123
 21
-270.9025726977396
 31
0.0
  0
LINE
  5
21D
330
1F
100
AcDbEntity
  8
0-C_ハッチ
  6
Continuous
 62
    92
370
     5
100
AcDbLine
 10
782.3295031891174
 20
-270.9025726977396
 30
0.0
 11
5519.92950318913
 21
-270.9025726977396
 31
0.0
  0
LINE
  5
21E
330
1F
100
AcDbEntity
  8
0-C_ハッチ
  6
Continuous
 62
    92
370
     5
100
AcDbLine
 10
5519.92950318913
 20
-3370.000017526644
 30
0.0
 11
5519.92950318913
 21
-270.9025726977396
 31
0.0
  0
LINE
  5
21F
330
1F
100
AcDbEntity
  8
0-C_ハッチ
  6
Continuous
 62
    92
370
     5
100
AcDbLine
 10
782.3295031891174
 20
-3370.000017526644
 30
0.0
 11
782.3295031891174
 21
-270.9025726977396
 31
0.0
  0
MTEXT
  5
220
330
1F
100
AcDbEntity
  8
0-C_ハッチ
  6
Continuous
 62
     7
370
     5
100
AcDbMText
 10
3213.325595642852
 20
-687.8612998524367
 30
0.0
 40
64.00800000000002
 41
2100.0
 46
0.0
 71
     7
 72
     1
  1
{\fＭＳ ゴシック|b0|i0|c128|p49;扉を吊った後ストライクを取り付ける際は、下図のよう}
 73
     1
 44
1.0
  0
LINE
  5
221
330
1F
100
AcDbEntity
  8
0-C_ハッチ
  6
JWW_CENTER1
 62
   120
370
     5
100
AcDbLine
 10
3432.928969364539
 20
-2058.993538780936
 30
0.0
 11
5284.595141347942
 21
-1700.834228598388
 31
0.0
  0
LINE
  5
222
330
1F
100
AcDbEntity
  8
0-C_ハッチ
  6
Continuous
 62
    40
370
     5
100
AcDbLine
 10
3529.863887506732
 20
-1867.52182651386
 30
0.0
 11
3529.863887506732
 21
-1283.019975899644
 31
0.0
  0
LINE
  5
223
330
1F
100
AcDbEntity
  8
0-C_ハッチ
  6
Continuous
 62
    40
370
     5
100
AcDbLine
 10
3772.557082628821
 20
-1910.196203248295
 30
0.0
 11
3772.557082628821
 21
-1304.362413525956
 31
0.0
  0
LINE
  5
224
330
1F
100
AcDbEntity
  8
0-C_ハッチ
  6
Continuous
 62
    40
370
     5
100
AcDbLine
 10
3772.557082628821
 20
-1910.196203248295
 30
0.0
 11
3529.863887506732
 21
-1867.52182651386
 31
0.0
  0
LINE
  5
225
330
1F
100
AcDbEntity
  8
0-C_ハッチ
  6
Continuous
 62
    40
370
     5
100
AcDbLine
 10
4111.523789247202
 20
-1850.778789706126
 30
0.0
 11
3772.557082628821
 21
-1910.196203248295
 31
0.0
  0
MTEXT
  5
226
330
1F
100
AcDbEntity
  8
0-C_ハッチ
  6
Continuous
 62
     7
370
     5
100
AcDbMText
 10
3213.325595642852
 20
-810.2612998524341
 30
0.0
 40
64.00799999999998
 41
2100.0
 46
0.0
 71
     7
 72
     1
  1
{\fＭＳ ゴシック|b0|i0|c128|p49;に下用ガイド軸とストライクの位置決め溝をそろえて、}
 73
     1
 44
1.0
  0
MTEXT
  5
227
330
1F
100
AcDbEntity
  8
0-C_ハッチ
  6
Continuous
 62
     7
370
     5
100
AcDbMText
 10
3213.325595642854
 20
-932.6612998524366
 30
0.0
 40
64.00800000000002
 41
1512.0
 46
0.0
 71
     7
 72
     1
  1
{\fＭＳ ゴシック|b0|i0|c128|p49;床に付属のビスで取り付けてください。}
 73
     1
 44
1.0
  0
MTEXT
  5
228
330
1F
100
AcDbEntity
  8
0-C_ハッチ
  6
Continuous
 62
     7
370
     5
100
AcDbMText
 10
4761.638660508337
 20
-1886.856329939098
 30
0.0
 40
45.72000000000044
 41
180.0000000000017
 46
0.0
 71
     7
 72
     1
  1
{\fＭＳ ゴシック|b0|i0|c128|p49;ガイド}
 73
     1
 44
1.0
  0
MTEXT
  5
229
330
1F
100
AcDbEntity
  8
0-C_ハッチ
  6
Continuous
 62
     7
370
     5
100
AcDbMText
 10
4630.066725062069
 20
-2106.333711636521
 30
0.0
 40
45.72000000000001
 41
600.0
 46
0.0
 71
     7
 72
     1
  1
{\fＭＳ ゴシック|b0|i0|c128|p49;ストライクとガイドの}
 73
     1
 44
1.0
  0
ARC
  5
22A
330
1F
100
AcDbEntity
  8
0-C_ハッチ
  6
Continuous
 62
     7
370
     5
100
AcDbCircle
 10
4514.81744287771
 20
-1720.113960054993
 30
0.0
 40
30.0
100
AcDbArc
 50
247.1651394203828
 51
5.793612550752308
  0
LINE
  5
22B
330
1F
100
AcDbEntity
  8
0-C_ハッチ
  6
Continuous
 62
     7
370
     5
100
AcDbLine
 10
4544.664201935911
 20
-1717.085598497674
 30
0.0
 11
4537.631346389302
 21
-1647.771568115988
 31
0.0
  0
ARC
  5
22C
330
1F
100
AcDbEntity
  8
0-C_ハッチ
  6
Continuous
 62
     7
370
     5
100
AcDbCircle
 10
4507.596379607511
 20
-1416.037467868796
 30
0.0
 40
180.0
100
AcDbArc
 50
0.0
 51
48.66116247688833
  0
LINE
  5
22D
330
1F
100
AcDbEntity
  8
0-C_ハッチ
  6
Continuous
 62
     7
370
     5
100
AcDbLine
 10
4687.596379607511
 20
-1727.435898911453
 30
0.0
 11
4687.596379607511
 21
-1416.037467868796
 31
0.0
  0
LINE
  5
22E
330
1F
100
AcDbEntity
  8
0-C_ハッチ
  6
Continuous
 62
     7
370
     5
100
AcDbLine
 10
4422.449741171766
 20
-1836.834657848545
 30
0.0
 11
4417.013345990574
 21
-1875.457337794649
 31
0.0
  0
LINE
  5
22F
330
1F
100
AcDbEntity
  8
0-C_ハッチ
  6
Continuous
 62
     7
370
     5
100
AcDbLine
 10
4374.932397996767
 20
-1898.547572391748
 30
0.0
 11
4372.680203382287
 21
-1898.94441637929
 31
0.0
  0
LINE
  5
230
330
1F
100
AcDbEntity
  8
0-C_ハッチ
  6
Continuous
 62
     7
370
     5
100
AcDbLine
 10
4372.680203382287
 20
-1898.94441637929
 30
0.0
 11
4370.563439652439
 21
-1899.317638700908
 31
0.0
  0
LINE
  5
231
330
1F
100
AcDbEntity
  8
0-C_ハッチ
  6
Continuous
 62
     7
370
     5
100
AcDbLine
 10
4370.563439652439
 20
-1899.317638700908
 30
0.0
 11
4368.582369270183
 21
-1899.66671443069
 31
0.0
  0
LINE
  5
232
330
1F
100
AcDbEntity
  8
0-C_ハッチ
  6
Continuous
 62
     7
370
     5
100
AcDbLine
 10
4368.582369270183
 20
-1899.66671443069
 30
0.0
 11
4366.736729772567
 21
-1899.992168494547
 31
0.0
  0
LINE
  5
233
330
1F
100
AcDbEntity
  8
0-C_ハッチ
  6
Continuous
 62
     7
370
     5
100
AcDbLine
 10
4366.736729772567
 20
-1899.992168494547
 30
0.0
 11
4365.026783622542
 21
-1900.29347596657
 31
0.0
  0
LINE
  5
234
330
1F
100
AcDbEntity
  8
0-C_ハッチ
  6
Continuous
 62
     7
370
     5
100
AcDbLine
 10
4365.026783622542
 20
-1900.29347596657
 30
0.0
 11
4363.467753671482
 21
-1900.491897960341
 31
0.0
  0
LINE
  5
235
330
1F
100
AcDbEntity
  8
0-C_ハッチ
  6
Continuous
 62
     7
370
     5
100
AcDbLine
 10
4363.467753671482
 20
-1900.491897960341
 30
0.0
 11
4361.587731526796
 21
-1900.708692360944
 31
0.0
  0
LINE
  5
236
330
1F
100
AcDbEntity
  8
0-C_ハッチ
  6
Continuous
 62
     7
370
     5
100
AcDbLine
 10
4361.587731526796
 20
-1900.708692360944
 30
0.0
 11
4359.386717188484
 21
-1900.944384094285
 31
0.0
  0
LINE
  5
237
330
1F
100
AcDbEntity
  8
0-C_ハッチ
  6
Continuous
 62
     7
370
     5
100
AcDbLine
 10
4359.386717188484
 20
-1900.944384094285
 30
0.0
 11
4356.864710656544
 21
-1901.198973160368
 31
0.0
  0
LINE
  5
238
330
1F
100
AcDbEntity
  8
0-C_ハッチ
  6
Continuous
 62
     7
370
     5
100
AcDbLine
 10
4356.864710656544
 20
-1901.198973160368
 30
0.0
 11
4354.021974393931
 21
-1901.472984485099
 31
0.0
  0
LINE
  5
239
330
1F
100
AcDbEntity
  8
0-C_ハッチ
  6
Continuous
 62
     7
370
     5
100
AcDbLine
 10
4354.021974393931
 20
-1901.472984485099
 30
0.0
 11
4350.857983474736
 21
-1901.765368216661
 31
0.0
  0
LINE
  5
23A
330
1F
100
AcDbEntity
  8
0-C_ハッチ
  6
Continuous
 62
     7
370
     5
100
AcDbLine
 10
4350.857983474736
 20
-1901.765368216661
 30
0.0
 11
4347.373262824871
 21
-1902.076649280963
 31
0.0
  0
LINE
  5
23B
330
1F
100
AcDbEntity
  8
0-C_ハッチ
  6
Continuous
 62
     7
370
     5
100
AcDbLine
 10
4347.373262824871
 20
-1902.076649280963
 30
0.0
 11
4343.567549981375
 21
-1902.406827678006
 31
0.0
  0
LINE
  5
23C
330
1F
100
AcDbEntity
  8
0-C_ハッチ
  6
Continuous
 62
     7
370
     5
100
AcDbLine
 10
4343.567549981375
 20
-1902.406827678006
 30
0.0
 11
4339.537431311594
 21
-1902.731756815953
 31
0.0
  0
LINE
  5
23D
330
1F
100
AcDbEntity
  8
0-C_ハッチ
  6
Continuous
 62
     7
370
     5
100
AcDbLine
 10
4339.537431311594
 20
-1902.731756815953
 30
0.0
 11
4335.379230719906
 21
-1903.026240251154
 31
0.0
  0
LINE
  5
23E
330
1F
100
AcDbEntity
  8
0-C_ハッチ
  6
Continuous
 62
     7
370
     5
100
AcDbLine
 10
4335.379230719906
 20
-1903.026240251154
 30
0.0
 11
4331.093473132222
 21
-1903.290802909515
 31
0.0
  0
LINE
  5
23F
330
1F
100
AcDbEntity
  8
0-C_ハッチ
  6
Continuous
 62
     7
370
     5
100
AcDbLine
 10
4331.093473132222
 20
-1903.290802909515
 30
0.0
 11
4326.679896085592
 21
-1903.524919865128
 31
0.0
  0
LINE
  5
240
330
1F
100
AcDbEntity
  8
0-C_ハッチ
  6
Continuous
 62
     7
370
     5
100
AcDbLine
 10
4326.679896085592
 20
-1903.524919865128
 30
0.0
 11
4322.138499580009
 21
-1903.729116043904
 31
0.0
  0
LINE
  5
241
330
1F
100
AcDbEntity
  8
0-C_ハッチ
  6
Continuous
 62
     7
370
     5
100
AcDbLine
 10
4322.138499580009
 20
-1903.729116043904
 30
0.0
 11
4317.469283615473
 21
-1903.90339144584
 31
0.0
  0
LINE
  5
242
330
1F
100
AcDbEntity
  8
0-C_ハッチ
  6
Continuous
 62
     7
370
     5
100
AcDbLine
 10
4317.469283615473
 20
-1903.90339144584
 30
0.0
 11
4312.672248191987
 21
-1904.047221145029
 31
0.0
  0
LINE
  5
243
330
1F
100
AcDbEntity
  8
0-C_ハッチ
  6
Continuous
 62
     7
370
     5
100
AcDbLine
 10
4312.672248191987
 20
-1904.047221145029
 30
0.0
 11
4307.747393309552
 21
-1904.161654993288
 31
0.0
  0
LINE
  5
244
330
1F
100
AcDbEntity
  8
0-C_ハッチ
  6
Continuous
 62
     7
370
     5
100
AcDbLine
 10
4307.747393309552
 20
-1904.161654993288
 30
0.0
 11
4302.800229075964
 21
-1904.208898325139
 31
0.0
  0
LINE
  5
245
330
1F
100
AcDbEntity
  8
0-C_ハッチ
  6
Continuous
 62
     7
370
     5
100
AcDbLine
 10
4302.800229075964
 20
-1904.208898325139
 30
0.0
 11
4297.936790524934
 21
-1904.152731252828
 31
0.0
  0
LINE
  5
246
330
1F
100
AcDbEntity
  8
0-C_ハッチ
  6
Continuous
 62
     7
370
     5
100
AcDbLine
 10
4297.936790524934
 20
-1904.152731252828
 30
0.0
 11
4293.157077656462
 21
-1903.994203628175
 31
0.0
  0
LINE
  5
247
330
1F
100
AcDbEntity
  8
0-C_ハッチ
  6
Continuous
 62
     7
370
     5
100
AcDbLine
 10
4293.157077656462
 20
-1903.994203628175
 30
0.0
 11
4288.460565544635
 21
-1903.731740673451
 31
0.0
  0
LINE
  5
248
330
1F
100
AcDbEntity
  8
0-C_ハッチ
  6
Continuous
 62
     7
370
     5
100
AcDbLine
 10
4288.460565544635
 20
-1903.731740673451
 30
0.0
 11
4283.847779115366
 21
-1903.366392240475
 31
0.0
  0
LINE
  5
249
330
1F
100
AcDbEntity
  8
0-C_ハッチ
  6
Continuous
 62
     7
370
     5
100
AcDbLine
 10
4283.847779115366
 20
-1903.366392240475
 30
0.0
 11
4279.318718368651
 21
-1902.898158329248
 31
0.0
  0
LINE
  5
24A
330
1F
100
AcDbEntity
  8
0-C_ハッチ
  6
Continuous
 62
     7
370
     5
100
AcDbLine
 10
4279.318718368651
 20
-1902.898158329248
 30
0.0
 11
4274.872858378587
 21
-1902.326514013861
 31
0.0
  0
LINE
  5
24B
330
1F
100
AcDbEntity
  8
0-C_ハッチ
  6
Continuous
 62
     7
370
     5
100
AcDbLine
 10
4274.872858378587
 20
-1902.326514013861
 30
0.0
 11
4270.510724071081
 21
-1901.65198422022
 31
0.0
  0
LINE
  5
24C
330
1F
100
AcDbEntity
  8
0-C_ハッチ
  6
Continuous
 62
     7
370
     5
100
AcDbLine
 10
4270.510724071081
 20
-1901.65198422022
 30
0.0
 11
4266.427587884447
 21
-1900.916563021084
 31
0.0
  0
LINE
  5
24D
330
1F
100
AcDbEntity
  8
0-C_ハッチ
  6
Continuous
 62
     7
370
     5
100
AcDbLine
 10
4266.427587884447
 20
-1900.916563021084
 30
0.0
 11
4262.818722256995
 21
-1900.162769415118
 31
0.0
  0
LINE
  5
24E
330
1F
100
AcDbEntity
  8
0-C_ハッチ
  6
Continuous
 62
     7
370
     5
100
AcDbLine
 10
4262.818722256995
 20
-1900.162769415118
 30
0.0
 11
4259.683864725777
 21
-1899.391128328231
 31
0.0
  0
LINE
  5
24F
330
1F
100
AcDbEntity
  8
0-C_ハッチ
  6
Continuous
 62
     7
370
     5
100
AcDbLine
 10
4259.683864725777
 20
-1899.391128328231
 30
0.0
 11
4257.023540216695
 21
-1898.601639760421
 31
0.0
  0
LINE
  5
250
330
1F
100
AcDbEntity
  8
0-C_ハッチ
  6
Continuous
 62
     7
370
     5
100
AcDbLine
 10
4257.023540216695
 20
-1898.601639760421
 30
0.0
 11
4254.837486266803
 21
-1897.793253859873
 31
0.0
  0
LINE
  5
251
330
1F
100
AcDbEntity
  8
0-C_ハッチ
  6
Continuous
 62
     7
370
     5
100
AcDbLine
 10
4254.837486266803
 20
-1897.793253859873
 30
0.0
 11
4253.125440413139
 21
-1896.967545404312
 31
0.0
  0
LINE
  5
252
330
1F
100
AcDbEntity
  8
0-C_ハッチ
  6
Continuous
 62
     7
370
     5
100
AcDbLine
 10
4253.125440413139
 20
-1896.967545404312
 30
0.0
 11
4251.887927581617
 21
-1896.122939616011
 31
0.0
  0
LINE
  5
253
330
1F
100
AcDbEntity
  8
0-C_ハッチ
  6
Continuous
 62
     7
370
     5
100
AcDbLine
 10
4251.887927581617
 20
-1896.122939616011
 30
0.0
 11
4251.124422846323
 21
-1895.260486346789
 31
0.0
  0
LINE
  5
254
330
1F
100
AcDbEntity
  8
0-C_ハッチ
  6
Continuous
 62
     7
370
     5
100
AcDbLine
 10
4251.124422846323
 20
-1895.260486346789
 30
0.0
 11
4250.735452747425
 21
-1894.402757410751
 31
0.0
  0
LINE
  5
255
330
1F
100
AcDbEntity
  8
0-C_ハッチ
  6
Continuous
 62
     7
370
     5
100
AcDbLine
 10
4250.735452747425
 20
-1894.402757410751
 30
0.0
 11
4250.621018899164
 21
-1893.571799696097
 31
0.0
  0
LINE
  5
256
330
1F
100
AcDbEntity
  8
0-C_ハッチ
  6
Continuous
 62
     7
370
     5
100
AcDbLine
 10
4250.621018899164
 20
-1893.571799696097
 30
0.0
 11
4250.780858838591
 21
-1892.768138128733
 31
0.0
  0
LINE
  5
257
330
1F
100
AcDbEntity
  8
0-C_ハッチ
  6
Continuous
 62
     7
370
     5
100
AcDbLine
 10
4250.780858838591
 20
-1892.768138128733
 30
0.0
 11
4251.21523502866
 21
-1891.990722856841
 31
0.0
  0
LINE
  5
258
330
1F
100
AcDbEntity
  8
0-C_ハッチ
  6
Continuous
 62
     7
370
     5
100
AcDbLine
 10
4251.21523502866
 20
-1891.990722856841
 30
0.0
 11
4251.923885006414
 21
-1891.24112865815
 31
0.0
  0
LINE
  5
259
330
1F
100
AcDbEntity
  8
0-C_ハッチ
  6
Continuous
 62
     7
370
     5
100
AcDbLine
 10
4251.923885006414
 20
-1891.24112865815
 30
0.0
 11
4252.907333697764
 21
-1890.518305680841
 31
0.0
  0
LINE
  5
25A
330
1F
100
AcDbEntity
  8
0-C_ハッチ
  6
Continuous
 62
     7
370
     5
100
AcDbLine
 10
4252.907333697764
 20
-1890.518305680841
 30
0.0
 11
4254.164793713846
 21
-1889.822253924914
 31
0.0
  0
LINE
  5
25B
330
1F
100
AcDbEntity
  8
0-C_ハッチ
  6
Continuous
 62
     7
370
     5
100
AcDbLine
 10
4254.164793713846
 20
-1889.822253924914
 30
0.0
 11
4255.697052443524
 21
-1889.153498316278
 31
0.0
  0
LINE
  5
25C
330
1F
100
AcDbEntity
  8
0-C_ハッチ
  6
Continuous
 62
     7
370
     5
100
AcDbLine
 10
4255.697052443524
 20
-1889.153498316278
 30
0.0
 11
4257.33455881804
 21
-1888.523587224941
 31
0.0
  0
LINE
  5
25D
330
1F
100
AcDbEntity
  8
0-C_ハッチ
  6
Continuous
 62
     7
370
     5
100
AcDbLine
 10
4257.33455881804
 20
-1888.523587224941
 30
0.0
 11
4258.908549157521
 21
-1887.944593946821
 31
0.0
  0
LINE
  5
25E
330
1F
100
AcDbEntity
  8
0-C_ハッチ
  6
Continuous
 62
     7
370
     5
100
AcDbLine
 10
4258.908549157521
 20
-1887.944593946821
 30
0.0
 11
4260.418760999002
 21
-1887.416518481917
 31
0.0
  0
LINE
  5
25F
330
1F
100
AcDbEntity
  8
0-C_ハッチ
  6
Continuous
 62
     7
370
     5
100
AcDbLine
 10
4260.418760999002
 20
-1887.416518481917
 30
0.0
 11
4261.865456805438
 21
-1886.939360830229
 31
0.0
  0
LINE
  5
260
330
1F
100
AcDbEntity
  8
0-C_ハッチ
  6
Continuous
 62
     7
370
     5
100
AcDbLine
 10
4261.865456805438
 20
-1886.939360830229
 30
0.0
 11
4263.248636576829
 21
-1886.513120991757
 31
0.0
  0
LINE
  5
261
330
1F
100
AcDbEntity
  8
0-C_ハッチ
  6
Continuous
 62
     7
370
     5
100
AcDbLine
 10
4263.248636576829
 20
-1886.513120991757
 30
0.0
 11
4264.568300313184
 21
-1886.137798966502
 31
0.0
  0
LINE
  5
262
330
1F
100
AcDbEntity
  8
0-C_ハッチ
  6
Continuous
 62
     7
370
     5
100
AcDbLine
 10
4264.568300313184
 20
-1886.137798966502
 30
0.0
 11
4265.824185551534
 21
-1885.812869828554
 31
0.0
  0
LINE
  5
263
330
1F
100
AcDbEntity
  8
0-C_ハッチ
  6
Continuous
 62
     7
370
     5
100
AcDbLine
 10
4265.824185551534
 20
-1885.812869828554
 30
0.0
 11
4267.016554754845
 21
-1885.539383429733
 31
0.0
  0
LINE
  5
264
330
1F
100
AcDbEntity
  8
0-C_ハッチ
  6
Continuous
 62
     7
370
     5
100
AcDbLine
 10
4267.016554754845
 20
-1885.539383429733
 30
0.0
 11
4268.135171867877
 21
-1885.301067066844
 31
0.0
  0
LINE
  5
265
330
1F
100
AcDbEntity
  8
0-C_ハッチ
  6
Continuous
 62
     7
370
     5
100
AcDbLine
 10
4268.135171867877
 20
-1885.301067066844
 30
0.0
 11
4269.169538372441
 21
-1885.082697888513
 31
0.0
  0
LINE
  5
266
330
1F
100
AcDbEntity
  8
0-C_ハッチ
  6
Continuous
 62
     7
370
     5
100
AcDbLine
 10
4269.169538372441
 20
-1885.082697888513
 30
0.0
 11
4270.120179194452
 21
-1884.884275894743
 31
0.0
  0
LINE
  5
267
330
1F
100
AcDbEntity
  8
0-C_ハッチ
  6
Continuous
 62
     7
370
     5
100
AcDbLine
 10
4270.120179194452
 20
-1884.884275894743
 30
0.0
 11
4270.986306945041
 21
-1884.705801085531
 31
0.0
  0
LINE
  5
268
330
1F
100
AcDbEntity
  8
0-C_ハッチ
  6
Continuous
 62
     7
370
     5
100
AcDbLine
 10
4270.986306945041
 20
-1884.705801085531
 30
0.0
 11
4271.768709013071
 21
-1884.547273460877
 31
0.0
  0
LINE
  5
269
330
1F
100
AcDbEntity
  8
0-C_ハッチ
  6
Continuous
 62
     7
370
     5
100
AcDbLine
 10
4271.768709013071
 20
-1884.547273460877
 30
0.0
 11
4272.466860472638
 21
-1884.408693020783
 31
0.0
  0
LINE
  5
26A
330
1F
100
AcDbEntity
  8
0-C_ハッチ
  6
Continuous
 62
     7
370
     5
100
AcDbLine
 10
4272.466860472638
 20
-1884.408693020783
 30
0.0
 11
4273.081023786689
 21
-1884.290059765248
 31
0.0
  0
LINE
  5
26B
330
1F
100
AcDbEntity
  8
0-C_ハッチ
  6
Continuous
 62
     7
370
     5
100
AcDbLine
 10
4273.081023786689
 20
-1884.290059765248
 30
0.0
 11
4273.610936492277
 21
-1884.191373694272
 31
0.0
  0
LINE
  5
26C
330
1F
100
AcDbEntity
  8
0-C_ハッチ
  6
Continuous
 62
     7
370
     5
100
AcDbLine
 10
4273.610936492277
 20
-1884.191373694272
 30
0.0
 11
4276.826370150597
 21
-1883.624453712068
 31
0.0
  0
LINE
  5
26D
330
1F
100
AcDbEntity
  8
0-C_ハッチ
  6
Continuous
 62
     7
370
     5
100
AcDbLine
 10
4276.826370150597
 20
-1883.624453712068
 30
0.0
 11
4280.343898669805
 21
-1883.003991287102
 31
0.0
  0
LINE
  5
26E
330
1F
100
AcDbEntity
  8
0-C_ハッチ
  6
Continuous
 62
     7
370
     5
100
AcDbLine
 10
4280.343898669805
 20
-1883.003991287102
 30
0.0
 11
4284.164309438763
 21
-1882.33103627119
 31
0.0
  0
LINE
  5
26F
330
1F
100
AcDbEntity
  8
0-C_ハッチ
  6
Continuous
 62
     7
370
     5
100
AcDbLine
 10
4284.164309438763
 20
-1882.33103627119
 30
0.0
 11
4288.286815068608
 21
-1881.604013886605
 31
0.0
  0
LINE
  5
270
330
1F
100
AcDbEntity
  8
0-C_ハッチ
  6
Continuous
 62
     7
370
     5
100
AcDbLine
 10
4288.286815068608
 20
-1881.604013886605
 30
0.0
 11
4292.712202948204
 21
-1880.823973985167
 31
0.0
  0
LINE
  5
271
330
1F
100
AcDbEntity
  8
0-C_ハッチ
  6
Continuous
 62
     7
370
     5
100
AcDbLine
 10
4174.093300303713
 20
-1876.650967936503
 30
0.0
 11
4180.432695033711
 21
-1875.424767837465
 31
0.0
  0
LINE
  5
272
330
1F
100
AcDbEntity
  8
0-C_ハッチ
  6
Continuous
 62
     7
370
     5
100
AcDbLine
 10
4386.556864196657
 20
-1913.838061524779
 30
0.0
 11
4393.316397969495
 21
-1912.685397563515
 31
0.0
  0
LINE
  5
273
330
1F
100
AcDbEntity
  8
0-C_ハッチ
  6
Continuous
 62
     7
370
     5
100
AcDbLine
 10
4386.556864196657
 20
-1913.838061524779
 30
0.0
 11
4439.145753144529
 21
-1923.042594759445
 31
0.0
  0
LINE
  5
274
330
1F
100
AcDbEntity
  8
0-C_ハッチ
  6
Continuous
 62
     7
370
     5
100
AcDbLine
 10
4393.316397969495
 20
-1912.685397563515
 30
0.0
 11
4445.905286917372
 21
-1921.889930798181
 31
0.0
  0
LINE
  5
275
330
1F
100
AcDbEntity
  8
0-C_ハッチ
  6
Continuous
 62
     7
370
     5
100
AcDbLine
 10
4386.063409745309
 20
-1835.752853174494
 30
0.0
 11
4386.063409745309
 21
-1860.808840363814
 31
0.0
  0
ELLIPSE
  5
276
330
1F
100
AcDbEntity
  8
0-C_ハッチ
  6
Continuous
 62
     7
370
     5
100
AcDbEllipse
 10
4349.165649317054
 20
-1860.808840363814
 30
0.0
 11
36.89776042825395
 21
0.0
 31
0.0
210
0.0
220
0.0
230
1.0
 40
0.5
 41
3.141592653589793
 42
6.283185307179586
  0
LINE
  5
277
330
1F
100
AcDbEntity
  8
0-C_ハッチ
  6
Continuous
 62
     7
370
     5
100
AcDbLine
 10
4312.267888888802
 20
-1835.752853174494
 30
0.0
 11
4312.267888888802
 21
-1860.808840363814
 31
0.0
  0
LINE
  5
278
330
1F
100
AcDbEntity
  8
0-C_ハッチ
  6
Continuous
 62
     7
370
     5
100
AcDbLine
 10
4329.628404918955
 20
-1792.227503914545
 30
0.0
 11
4175.374202094657
 21
-1820.794496832581
 31
0.0
  0
LINE
  5
279
330
1F
100
AcDbEntity
  8
0-C_ハッチ
  6
Continuous
 62
     7
370
     5
100
AcDbLine
 10
4329.628404918955
 20
-1792.227503914545
 30
0.0
 11
4348.149103319032
 21
-1805.456686684438
 31
0.0
  0
LINE
  5
27A
330
1F
100
AcDbEntity
  8
0-C_ハッチ
  6
Continuous
 62
     7
370
     5
100
AcDbLine
 10
4328.305329164195
 20
-1669.196419110084
 30
0.0
 11
4329.628404918955
 21
-1792.227503914545
 31
0.0
  0
LINE
  5
27B
330
1F
100
AcDbEntity
  8
0-C_ハッチ
  6
Continuous
 62
     7
370
     5
100
AcDbLine
 10
4348.149103319032
 20
-1682.467071026823
 30
0.0
 11
4537.631346389302
 21
-1647.771568115988
 31
0.0
  0
LINE
  5
27C
330
1F
100
AcDbEntity
  8
0-C_ハッチ
  6
Continuous
 62
     7
370
     5
100
AcDbLine
 10
4363.80711827194
 20
-1661.765567935947
 30
0.0
 11
4328.305329164195
 21
-1669.196419110084
 31
0.0
  0
LINE
  5
27D
330
1F
100
AcDbEntity
  8
0-C_ハッチ
  6
Continuous
 62
     7
370
     5
100
AcDbLine
 10
4363.80711827194
 20
-1661.765567935947
 30
0.0
 11
4388.942670519918
 21
-1666.550792526469
 31
0.0
  0
LINE
  5
27E
330
1F
100
AcDbEntity
  8
0-C_ハッチ
  6
Continuous
 62
     7
370
     5
100
AcDbLine
 10
4493.540982014136
 20
-1646.707018371629
 30
0.0
 11
4509.416053830598
 21
-1638.769088768966
 31
0.0
  0
LINE
  5
27F
330
1F
100
AcDbEntity
  8
0-C_ハッチ
  6
Continuous
 62
     7
370
     5
100
AcDbLine
 10
4509.416053830598
 20
-1638.769088768966
 30
0.0
 11
4549.227484654906
 21
-1634.800648893543
 31
0.0
  0
LINE
  5
280
330
1F
100
AcDbEntity
  8
0-C_ハッチ
  6
Continuous
 62
     7
370
     5
100
AcDbLine
 10
4549.227484654906
 20
-1634.800648893543
 30
0.0
 11
4549.227484654906
 21
-1753.516504060469
 31
0.0
  0
LINE
  5
281
330
1F
100
AcDbEntity
  8
0-C_ハッチ
  6
Continuous
 62
     7
370
     5
100
AcDbLine
 10
4388.462888238684
 20
-1278.206405310011
 30
0.0
 11
4388.942670519918
 21
-1666.550792526469
 31
0.0
  0
LINE
  5
282
330
1F
100
AcDbEntity
  8
0-C_ハッチ
  6
Continuous
 62
     7
370
     5
100
AcDbLine
 10
4363.80711827194
 20
-1661.765567935947
 30
0.0
 11
4363.80711827194
 21
-1282.384260479685
 31
0.0
  0
LINE
  5
283
330
1F
100
AcDbEntity
  8
0-C_ハッチ
  6
Continuous
 62
     7
370
     5
100
AcDbLine
 10
4493.540982014136
 20
-1260.99005359731
 30
0.0
 11
4493.540982014136
 21
-1646.707018371629
 31
0.0
  0
LINE
  5
284
330
1F
100
AcDbEntity
  8
0-C_ハッチ
  6
Continuous
 62
     7
370
     5
100
AcDbLine
 10
4509.416053830598
 20
-1638.769088768966
 30
0.0
 11
4509.416053830598
 21
-1258.372120538684
 31
0.0
  0
ELLIPSE
  5
285
330
1F
100
AcDbEntity
  8
0-C_ハッチ
  6
Continuous
 62
     7
370
     5
100
AcDbEllipse
 10
4644.101413612922
 20
-1628.353622129759
 30
0.0
 11
2.171034762115338E-15
 21
35.45685934649716
 31
0.0
210
0.0
220
0.0
230
1.0
 40
0.8
 41
0.0
 42
6.283185307179586
  0
ELLIPSE
  5
286
330
1F
100
AcDbEntity
  8
0-C_ハッチ
  6
Continuous
 62
     7
370
     5
100
AcDbEllipse
 10
4644.101413612922
 20
-1628.353622129759
 30
0.0
 11
1.068889043675199E-15
 21
17.45685934649716
 31
0.0
210
0.0
220
0.0
230
1.0
 40
0.5937773382631759
 41
0.0
 42
6.283185307179586
  0
LINE
  5
287
330
1F
100
AcDbEntity
  8
0-C_ハッチ
  6
Continuous
 62
     7
370
     5
100
AcDbLine
 10
4616.780122541092
 20
-1657.09181556809
 30
0.0
 11
4636.19947881689
 21
-1662.406896254152
 31
0.0
  0
ELLIPSE
  5
288
330
1F
100
AcDbEntity
  8
0-C_ハッチ
  6
Continuous
 62
     7
370
     5
100
AcDbEllipse
 10
4621.261881050822
 20
-1622.080328156823
 30
0.0
 11
2.171034762115338E-15
 21
35.45685934649716
 31
0.0
210
0.0
220
0.0
230
1.0
 40
0.8
 41
5.997256757456505
 42
9.266112668701924
  0
ELLIPSE
  5
289
330
1F
100
AcDbEntity
  8
0-C_ハッチ
  6
Continuous
 62
     7
370
     5
100
AcDbEllipse
 10
4254.553875448483
 20
-1693.993458000369
 30
0.0
 11
2.171034762115338E-15
 21
35.45685934649716
 31
0.0
210
0.0
220
0.0
230
1.0
 40
0.8
 41
0.0
 42
6.283185307179586
  0
ELLIPSE
  5
28A
330
1F
100
AcDbEntity
  8
0-C_ハッチ
  6
Continuous
 62
     7
370
     5
100
AcDbEllipse
 10
4254.553875448483
 20
-1693.993458000369
 30
0.0
 11
1.068889043675199E-15
 21
17.45685934649716
 31
0.0
210
0.0
220
0.0
230
1.0
 40
0.5937773382631759
 41
0.0
 42
6.283185307179586
  0
LINE
  5
28B
330
1F
100
AcDbEntity
  8
0-C_ハッチ
  6
Continuous
 62
     7
370
     5
100
AcDbLine
 10
4227.232584376656
 20
-1722.731651438699
 30
0.0
 11
4246.651940652451
 21
-1728.046732124762
 31
0.0
  0
ELLIPSE
  5
28C
330
1F
100
AcDbEntity
  8
0-C_ハッチ
  6
Continuous
 62
     7
370
     5
100
AcDbEllipse
 10
4231.714342886379
 20
-1687.720164027432
 30
0.0
 11
2.171034762115338E-15
 21
35.45685934649716
 31
0.0
210
0.0
220
0.0
230
1.0
 40
0.8
 41
5.997256757456505
 42
9.266112668701924
  0
LINE
  5
28D
330
1F
100
AcDbEntity
  8
0-C_ハッチ
  6
Continuous
 62
     7
370
     5
100
AcDbLine
 10
4239.714783911742
 20
-1653.702847131778
 30
0.0
 11
4259.134140187537
 21
-1659.017927817841
 31
0.0
  0
LINE
  5
28E
330
1F
100
AcDbEntity
  8
0-C_ハッチ
  6
Continuous
 62
     7
370
     5
100
AcDbLine
 10
4629.262322076184
 20
-1588.063011261169
 30
0.0
 11
4648.681678351976
 21
-1593.378091947232
 31
0.0
  0
LINE
  5
28F
330
1F
100
AcDbEntity
  8
0-C_ハッチ
  6
Continuous
 62
     7
370
     5
100
AcDbLine
 10
4138.656763314647
 20
-1868.112805945698
 30
0.0
 11
4180.432695033711
 21
-1875.424767837465
 31
0.0
  0
LINE
  5
290
330
1F
100
AcDbEntity
  8
0-C_ハッチ
  6
Continuous
 62
     7
370
     5
100
AcDbLine
 10
4131.857778627838
 20
-1869.258564888506
 30
0.0
 11
4174.093300303713
 21
-1876.650967936503
 31
0.0
  0
LINE
  5
291
330
1F
100
AcDbEntity
  8
0-C_ハッチ
  6
Continuous
 62
     7
370
     5
100
AcDbLine
 10
4422.449741171766
 20
-1820.288261949182
 30
0.0
 11
4381.795017799967
 21
-1827.139360314059
 31
0.0
  0
LINE
  5
292
330
1F
100
AcDbEntity
  8
0-C_ハッチ
  6
Continuous
 62
     7
370
     5
100
AcDbLine
 10
4422.449741171766
 20
-1820.288261949182
 30
0.0
 11
4417.013345990574
 21
-1858.910941895285
 31
0.0
  0
LINE
  5
293
330
1F
100
AcDbEntity
  8
0-C_ハッチ
  6
Continuous
 62
     7
370
     5
100
AcDbLine
 10
4385.316780873935
 20
-1864.501414390763
 30
0.0
 11
4417.013345990574
 21
-1858.910941895285
 31
0.0
  0
LINE
  5
294
330
1F
100
AcDbEntity
  8
0-C_ハッチ
  6
Continuous
 62
     7
370
     5
100
AcDbLine
 10
4292.714006883568
 20
-1880.834201842433
 30
0.0
 11
4325.649286061514
 21
-1875.025251513032
 31
0.0
  0
LINE
  5
295
330
1F
100
AcDbEntity
  8
0-C_ハッチ
  6
Continuous
 62
     7
370
     5
100
AcDbLine
 10
4269.51408367895
 20
-1901.472477478641
 30
0.0
 11
4417.013345990335
 21
-1875.457337793295
 31
0.0
  0
LINE
  5
296
330
1F
100
AcDbEntity
  8
0-C_ハッチ
  6
Continuous
 62
     7
370
     5
100
AcDbLine
 10
4417.013345990574
 20
-1858.910941895285
 30
0.0
 11
4417.013345990335
 21
-1875.457337793295
 31
0.0
  0
LINE
  5
297
330
1F
100
AcDbEntity
  8
0-C_ハッチ
  6
Continuous
 62
     7
370
     5
100
AcDbLine
 10
4422.449741171766
 20
-1836.834657847565
 30
0.0
 11
4422.449741171766
 21
-1820.288261949182
 31
0.0
  0
LINE
  5
298
330
1F
100
AcDbEntity
  8
0-C_ハッチ
  6
Continuous
 62
     7
370
     5
100
AcDbLine
 10
4513.074524956492
 20
-1874.196784378393
 30
0.0
 11
4374.933649125084
 21
-1898.554667916317
 31
0.0
  0
ELLIPSE
  5
299
330
1F
100
AcDbEntity
  8
0-C_ハッチ
  6
Continuous
 62
     7
370
     5
100
AcDbEllipse
 10
4349.165649317054
 20
-1835.752853174494
 30
0.0
 11
18.52285489353675
 21
0.0
 31
0.0
210
0.0
220
0.0
230
1.0
 40
0.5
 41
3.141592653589793
 42
6.283185307179586
  0
ARC
  5
29A
330
1F
100
AcDbEntity
  8
0-C_ハッチ
  6
Continuous
 62
     7
370
     5
100
AcDbCircle
 10
4249.877799897012
 20
-1772.719046218681
 30
0.0
 40
180.0
100
AcDbArc
 50
260.070167268476
 51
279.6772325660855
  0
LINE
  5
29B
330
1F
100
AcDbEntity
  8
0-C_ハッチ
  6
Continuous
 62
     7
370
     5
100
AcDbLine
 10
4281.712516173272
 20
-1985.558258859834
 30
0.0
 11
4749.134249477201
 21
-1904.64531676971
 31
0.0
  0
LINE
  5
29C
330
1F
100
AcDbEntity
  8
0-C_ハッチ
  6
Continuous
 62
     7
370
     5
100
AcDbLine
 10
4219.75668879443
 20
-1985.461940955755
 30
0.0
 11
3926.975587262779
 21
-1933.842015765263
 31
0.0
  0
ARC
  5
29D
330
1F
100
AcDbEntity
  8
0-C_ハッチ
  6
Continuous
 62
     7
370
     5
100
AcDbCircle
 10
4251.010258920599
 20
-1808.195998501011
 30
0.0
 40
180.0
100
AcDbArc
 50
260.0010025806856
 51
279.8208509823177
  0
ELLIPSE
  5
29E
330
1F
100
AcDbEntity
  8
0-C_ハッチ
  6
Continuous
 62
     7
370
     5
100
AcDbEllipse
 10
4514.053706837543
 20
-1892.756180531821
 30
0.0
 11
19.86135961083638
 21
0.0
 31
0.0
210
0.0
220
0.0
230
1.0
 40
0.5
 41
0.0
 42
6.283185307179586
  0
ELLIPSE
  5
29F
330
1F
100
AcDbEntity
  8
0-C_ハッチ
  6
Continuous
 62
     7
370
     5
100
AcDbEllipse
 10
4514.813618833175
 20
-1898.32886849979
 30
0.0
 11
13.10465733292201
 21
0.0
 31
0.0
210
0.0
220
0.0
230
1.0
 40
0.4
 41
0.0
 42
6.283185307179586
  0
ELLIPSE
  5
2A0
330
1F
100
AcDbEntity
  8
0-C_ハッチ
  6
Continuous
 62
     7
370
     5
100
AcDbEllipse
 10
4191.447317441779
 20
-1908.532270191145
 30
0.0
 11
19.86135961083638
 21
0.0
 31
0.0
210
0.0
220
0.0
230
1.0
 40
0.5
 41
0.0
 42
6.283185307179586
  0
ELLIPSE
  5
2A1
330
1F
100
AcDbEntity
  8
0-C_ハッチ
  6
Continuous
 62
     7
370
     5
100
AcDbEllipse
 10
4192.207229437407
 20
-1914.104958159115
 30
0.0
 11
13.10465733292201
 21
0.0
 31
0.0
210
0.0
220
0.0
230
1.0
 40
0.4
 41
0.0
 42
6.283185307179586
  0
LINE
  5
2A2
330
1F
100
AcDbEntity
  8
0-C_ハッチ
  6
Continuous
 62
     7
370
     5
100
AcDbLine
 10
3944.553193178269
 20
-1902.005005434759
 30
0.0
 11
4218.838239343756
 21
-1950.022587301935
 31
0.0
  0
LINE
  5
2A3
330
1F
100
AcDbEntity
  8
0-C_ハッチ
  6
Continuous
 62
     7
370
     5
100
AcDbLine
 10
3944.556952749519
 20
-1900.822335970648
 30
0.0
 11
4312.267888888802
 21
-1838.856011165222
 31
0.0
  0
LINE
  5
2A4
330
1F
100
AcDbEntity
  8
0-C_ハッチ
  6
Continuous
 62
     7
370
     5
100
AcDbLine
 10
4330.642794423517
 20
-1835.752853174494
 30
0.0
 11
4330.642794423517
 21
-1826.242825109442
 31
0.0
  0
LINE
  5
2A5
330
1F
100
AcDbEntity
  8
0-C_ハッチ
  6
Continuous
 62
     7
370
     5
100
AcDbLine
 10
4367.688504210591
 20
-1835.752853174494
 30
0.0
 11
4367.688504210591
 21
-1819.710665880481
 31
0.0
  0
ELLIPSE
  5
2A6
330
1F
100
AcDbEntity
  8
0-C_ハッチ
  6
Continuous
 62
     7
370
     5
100
AcDbEllipse
 10
4349.165649317054
 20
-1835.752853174494
 30
0.0
 11
36.89776042825395
 21
0.0
 31
0.0
210
0.0
220
0.0
230
1.0
 40
0.5
 41
2.768968464067914
 42
7.32806629937406
  0
LINE
  5
2A7
330
1F
100
AcDbEntity
  8
0-C_ハッチ
  6
Continuous
 62
     7
370
     5
100
AcDbLine
 10
4445.905286917372
 20
-1921.889930798181
 30
0.0
 11
4445.905286917372
 21
-1957.135703372462
 31
0.0
  0
LINE
  5
2A8
330
1F
100
AcDbEntity
  8
0-C_ハッチ
  6
Continuous
 62
     7
370
     5
100
AcDbLine
 10
4439.145753144529
 20
-1923.042594759445
 30
0.0
 11
4439.145753144529
 21
-1958.305811062689
 31
0.0
  0
LINE
  5
2A9
330
1F
100
AcDbEntity
  8
0-C_ハッチ
  6
Continuous
 62
     7
370
     5
100
AcDbLine
 10
4111.523789247202
 20
-1850.778789706126
 30
0.0
 11
4157.566267514984
 21
-1856.761534956009
 31
0.0
  0
LINE
  5
2AA
330
1F
100
AcDbEntity
  8
0-C_ハッチ
  6
Continuous
 62
     7
370
     5
100
AcDbLine
 10
4175.374202094657
 20
-1466.206032772378
 30
0.0
 11
4175.374202094657
 21
-1838.788432082529
 31
0.0
  0
ARC
  5
2AB
330
1F
100
AcDbEntity
  8
0-C_ハッチ
  6
Continuous
 62
     7
370
     5
100
AcDbCircle
 10
4355.374202094657
 20
-1466.206032772378
 30
0.0
 40
180.0
100
AcDbArc
 50
99.36427710995552
 51
180.0
  0
LINE
  5
2AC
330
1F
100
AcDbEntity
  8
0-C_ハッチ
  6
Continuous
 62
     7
370
     5
100
AcDbLine
 10
4157.566353079605
 20
-1454.291966873767
 30
0.0
 11
4157.566353079605
 21
-1856.761370296098
 31
0.0
  0
ARC
  5
2AD
330
1F
100
AcDbEntity
  8
0-C_ハッチ
  6
Continuous
 62
     7
370
     5
100
AcDbCircle
 10
4337.566353079605
 20
-1454.291966873767
 30
0.0
 40
180.0
100
AcDbArc
 50
100.4830549659711
 51
180.0
  0
LINE
  5
2AE
330
1F
100
AcDbEntity
  8
0-C_ハッチ
  6
Continuous
 62
     7
370
     5
100
AcDbLine
 10
4110.954244635449
 20
-1429.692504206424
 30
0.0
 11
4110.954244635449
 21
-1850.704775152894
 31
0.0
  0
ARC
  5
2AF
330
1F
100
AcDbEntity
  8
0-C_ハッチ
  6
Continuous
 62
     7
370
     5
100
AcDbCircle
 10
4290.954244635449
 20
-1429.692504206424
 30
0.0
 40
180.0
100
AcDbArc
 50
99.74095296447314
 51
180.0
  0
LINE
  5
2B0
330
1F
100
AcDbEntity
  8
0-C_ハッチ
  6
Continuous
 62
     7
370
     5
100
AcDbLine
 10
4516.390803146627
 20
-1238.148092547696
 30
0.0
 11
4304.816302904371
 21
-1277.296390054686
 31
0.0
  0
LINE
  5
2B1
330
1F
100
AcDbEntity
  8
0-C_ハッチ
  6
Continuous
 62
     7
370
     5
100
AcDbLine
 10
4729.140853321862
 20
-1415.143669366779
 30
0.0
 11
4729.140853321862
 21
-1755.976854012727
 31
0.0
  0
LINE
  5
2B2
330
1F
100
AcDbEntity
  8
0-C_ハッチ
  6
Continuous
 62
     7
370
     5
100
AcDbLine
 10
4498.582954131574
 20
-1256.687139904287
 30
0.0
 11
4326.086254287946
 21
-1288.604748674342
 31
0.0
  0
LINE
  5
2B3
330
1F
100
AcDbEntity
  8
0-C_ハッチ
  6
Continuous
 62
     7
370
     5
100
AcDbLine
 10
4711.333004306815
 20
-1433.682716723369
 30
0.0
 11
4711.333004306815
 21
-1740.778465677787
 31
0.0
  0
ARC
  5
2B4
330
1F
100
AcDbEntity
  8
0-C_ハッチ
  6
Continuous
 62
     7
370
     5
100
AcDbCircle
 10
4531.333004306815
 20
-1433.682716723369
 30
0.0
 40
180.0
100
AcDbArc
 50
0.0
 51
100.4830549659711
  0
LINE
  5
2B5
330
1F
100
AcDbEntity
  8
0-C_ハッチ
  6
Continuous
 62
     7
370
     5
100
AcDbLine
 10
4260.499345895729
 20
-1252.287602518918
 30
0.0
 11
4417.623422924748
 21
-1225.314290000642
 31
0.0
  0
ARC
  5
2B6
330
1F
100
AcDbEntity
  8
0-C_ハッチ
  6
Continuous
 62
     7
370
     5
100
AcDbCircle
 10
4450.373473099989
 20
-1402.309866819723
 30
0.0
 40
180.0
100
AcDbArc
 50
82.78560205276084
 51
100.4830549659711
  0
LINE
  5
2B7
330
1F
100
AcDbEntity
  8
0-C_ハッチ
  6
Continuous
 62
     7
370
     5
100
AcDbLine
 10
4472.978330242401
 20
-1223.734895355157
 30
0.0
 11
4572.92405273682
 21
-1236.721811329182
 31
0.0
  0
ARC
  5
2B8
330
1F
100
AcDbEntity
  8
0-C_ハッチ
  6
Continuous
 62
     7
370
     5
100
AcDbCircle
 10
4549.140853321862
 20
-1415.143669366779
 30
0.0
 40
180.0
100
AcDbArc
 50
0.0
 51
82.48094193237357
  0
ARC
  5
2B9
330
1F
100
AcDbEntity
  8
0-C_ハッチ
  6
Continuous
 62
     7
370
     5
100
AcDbCircle
 10
4549.140853321862
 20
-1415.143669366779
 30
0.0
 40
180.0
100
AcDbArc
 50
82.48094193237357
 51
100.4830549659711
  0
ARC
  5
2BA
330
1F
100
AcDbEntity
  8
0-C_ハッチ
  6
Continuous
 62
     7
370
     5
100
AcDbCircle
 10
4329.958652068919
 20
-1374.033048059335
 30
0.0
 40
12.0
100
AcDbArc
 50
0.0
 51
139.3154869822215
  0
LINE
  5
2BB
330
1F
100
AcDbEntity
  8
0-C_ハッチ
  6
Continuous
 62
     7
370
     5
100
AcDbLine
 10
4341.958652068922
 20
-1565.263563663839
 30
0.0
 11
4341.958652068922
 21
-1374.033048059335
 31
0.0
  0
ARC
  5
2BC
330
1F
100
AcDbEntity
  8
0-C_ハッチ
  6
Continuous
 62
     7
370
     5
100
AcDbCircle
 10
4329.958652068919
 20
-1565.263563663839
 30
0.0
 40
12.0
100
AcDbArc
 50
226.7801567871272
 51
0.0
  0
LINE
  5
2BD
330
1F
100
AcDbEntity
  8
0-C_ハッチ
  6
Continuous
 62
     7
370
     5
100
AcDbLine
 10
4297.280896551922
 20
-1393.637305886217
 30
0.0
 11
4320.858925229681
 21
-1366.210326573097
 31
0.0
  0
LINE
  5
2BE
330
1F
100
AcDbEntity
  8
0-C_ハッチ
  6
Continuous
 62
     7
370
     5
100
AcDbLine
 10
4306.102221567932
 20
-1559.312301339086
 30
0.0
 11
4321.741057731285
 21
-1574.008341722888
 31
0.0
  0
ARC
  5
2BF
330
1F
100
AcDbEntity
  8
0-C_ハッチ
  6
Continuous
 62
     7
370
     5
100
AcDbCircle
 10
4388.278164944308
 20
-1471.864520748592
 30
0.0
 40
120.0
100
AcDbArc
 50
139.3154869822216
 51
226.7801567871272
  0
ARC
  5
2C0
330
1F
100
AcDbEntity
  8
0-C_ハッチ
  6
Continuous
 62
     7
370
     5
100
AcDbCircle
 10
4307.470006328671
 20
-1545.379386103049
 30
0.0
 40
12.0
100
AcDbArc
 50
249.9839863783417
 51
0.0
  0
LINE
  5
2C1
330
1F
100
AcDbEntity
  8
0-C_ハッチ
  6
Continuous
 62
     7
370
     5
100
AcDbLine
 10
4319.470006328671
 20
-1545.379386103049
 30
0.0
 11
4319.470006328671
 21
-1367.825976909529
 31
0.0
  0
ARC
  5
2C2
330
1F
100
AcDbEntity
  8
0-C_ハッチ
  6
Continuous
 62
     7
370
     5
100
AcDbCircle
 10
4450.941595826097
 20
-1437.172076318264
 30
0.0
 40
120.0
100
AcDbArc
 50
313.2198432128728
 51
40.68451301777836
  0
ARC
  5
2C3
330
1F
100
AcDbEntity
  8
0-C_ハッチ
  6
Continuous
 62
     7
370
     5
100
AcDbCircle
 10
4535.241428676908
 20
-1340.39048067536
 30
0.0
 40
12.0
100
AcDbArc
 50
40.68451301777846
 51
180.0
  0
LINE
  5
2C4
330
1F
100
AcDbEntity
  8
0-C_ハッチ
  6
Continuous
 62
     7
370
     5
100
AcDbLine
 10
4523.241428676909
 20
-1531.620996279864
 30
0.0
 11
4523.241428676909
 21
-1340.39048067536
 31
0.0
  0
ARC
  5
2C5
330
1F
100
AcDbEntity
  8
0-C_ハッチ
  6
Continuous
 62
     7
370
     5
100
AcDbCircle
 10
4535.241428676908
 20
-1531.620996279864
 30
0.0
 40
12.0
100
AcDbArc
 50
180.0
 51
313.2198432128728
  0
LINE
  5
2C6
330
1F
100
AcDbEntity
  8
0-C_ハッチ
  6
Continuous
 62
     7
370
     5
100
AcDbLine
 10
4567.919184193905
 20
-1359.994738502241
 30
0.0
 11
4544.341155516147
 21
-1332.567759189122
 31
0.0
  0
LINE
  5
2C7
330
1F
100
AcDbEntity
  8
0-C_ハッチ
  6
Continuous
 62
     7
370
     5
100
AcDbLine
 10
4559.097859177895
 20
-1525.669733955111
 30
0.0
 11
4543.45902301455
 21
-1540.365774338913
 31
0.0
  0
ARC
  5
2C8
330
1F
100
AcDbEntity
  8
0-C_ハッチ
  6
Continuous
 62
     7
370
     5
100
AcDbCircle
 10
4476.921915801523
 20
-1438.221953364618
 30
0.0
 40
120.0
100
AcDbArc
 50
313.2198432128728
 51
40.68451301777836
  0
LINE
  5
2C9
330
1F
100
AcDbEntity
  8
0-C_ハッチ
  6
Continuous
 62
     7
370
     5
100
AcDbLine
 10
4541.93886421848
 20
-1358.944861455889
 30
0.0
 11
4523.574539718813
 21
-1337.582687584798
 31
0.0
  0
LINE
  5
2CA
330
1F
100
AcDbEntity
  8
0-C_ハッチ
  6
Continuous
 62
     7
370
     5
100
AcDbLine
 10
4533.11753920247
 20
-1524.619856908758
 30
0.0
 11
4523.427456545558
 21
-1533.725767640281
 31
0.0
  0
LINE
  5
2CB
330
1F
100
AcDbEntity
  8
0-C_ハッチ
  6
Continuous
 62
     7
370
     5
100
AcDbLine
 10
4175.374202094657
 20
-1838.788432082529
 30
0.0
 11
4392.229082375656
 21
-1798.937399261848
 31
0.0
  0
LINE
  5
2CC
330
1F
100
AcDbEntity
  8
0-C_ハッチ
  6
Continuous
 62
     7
370
     5
100
AcDbLine
 10
4157.566353079605
 20
-1856.760876461093
 30
0.0
 11
4419.758338985429
 21
-1810.529347619071
 31
0.0
  0
LINE
  5
2CD
330
1F
100
AcDbEntity
  8
0-C_ハッチ
  6
Continuous
 62
     7
370
     5
100
AcDbLine
 10
4348.149103319032
 20
-1682.467071026823
 30
0.0
 11
4348.149103319032
 21
-1805.456686684438
 31
0.0
  0
LINE
  5
2CE
330
1F
100
AcDbEntity
  8
0-C_ハッチ
  6
Continuous
 62
     7
370
     5
100
AcDbLine
 10
4503.175150708714
 20
-1747.762776178865
 30
0.0
 11
4348.142759461044
 21
-1682.482136802577
 31
0.0
  0
LINE
  5
2CF
330
1F
100
AcDbEntity
  8
0-C_ハッチ
  6
Continuous
 62
     7
370
     5
100
AcDbLine
 10
4503.175150708714
 20
-1845.65428351281
 30
0.0
 11
4348.149103319032
 21
-1780.376315391879
 31
0.0
  0
LINE
  5
2D0
330
1F
100
AcDbEntity
  8
0-C_ハッチ
  6
Continuous
 62
     7
370
     5
100
AcDbLine
 10
4544.81744287771
 20
-1720.113960054993
 30
0.0
 11
4544.81744287771
 21
-1818.005467388938
 31
0.0
  0
ARC
  5
2D1
330
1F
100
AcDbEntity
  8
0-C_ハッチ
  6
Continuous
 62
     7
370
     5
100
AcDbCircle
 10
4514.81744287771
 20
-1818.005467388938
 30
0.0
 40
30.0
100
AcDbArc
 50
247.1651394203828
 51
0.0
  0
LINE
  5
2D2
330
1F
100
AcDbEntity
  8
0-C_ハッチ
  6
Continuous
 62
     7
370
     5
100
AcDbLine
 10
4544.81744287771
 20
-1754.347655215057
 30
0.0
 11
4687.596379607511
 21
-1727.435898911453
 31
0.0
  0
LINE
  5
2D3
330
1F
100
AcDbEntity
  8
0-C_ハッチ
  6
Continuous
 62
     7
370
     5
100
AcDbLine
 10
4711.333004306815
 20
-1740.778465677787
 30
0.0
 11
4544.81744287771
 21
-1772.676643241294
 31
0.0
  0
LINE
  5
2D4
330
1F
100
AcDbEntity
  8
0-C_ハッチ
  6
Continuous
 62
     7
370
     5
100
AcDbLine
 10
4544.81744287771
 20
-1788.47804979401
 30
0.0
 11
4729.140853321862
 21
-1755.976854012727
 31
0.0
  0
LINE
  5
2D5
330
1F
100
AcDbEntity
  8
0-C_ハッチ
  6
Continuous
 62
     7
370
     5
100
AcDbLine
 10
4417.912342031538
 20
-1655.407309763864
 30
0.0
 11
4396.280437443426
 21
-1659.935066468861
 31
0.0
  0
LINE
  5
2D6
330
1F
100
AcDbEntity
  8
0-C_ハッチ
  6
Continuous
 62
     7
370
     5
100
AcDbLine
 10
4489.675943434606
 20
-1640.386527562094
 30
0.0
 11
4468.044038846494
 21
-1644.914284267091
 31
0.0
  0
LINE
  5
2D7
330
1F
100
AcDbEntity
  8
0-C_ハッチ
  6
Continuous
 62
     7
370
     5
100
AcDbLine
 10
4417.912342031538
 20
-1628.237024653262
 30
0.0
 11
4417.912342031538
 21
-1655.407309763864
 31
0.0
  0
ARC
  5
2D8
330
1F
100
AcDbEntity
  8
0-C_ハッチ
  6
Continuous
 62
     7
370
     5
100
AcDbCircle
 10
4441.912342031536
 20
-1628.237024653262
 30
0.0
 40
24.0
100
AcDbArc
 50
101.82186584
 51
180.0
  0
LINE
  5
2D9
330
1F
100
AcDbEntity
  8
0-C_ハッチ
  6
Continuous
 62
     7
370
     5
100
AcDbLine
 10
4439.127168374845
 20
-1604.299898281002
 30
0.0
 11
4436.995471559887
 21
-1604.746082042013
 31
0.0
  0
LINE
  5
2DA
330
1F
100
AcDbEntity
  8
0-C_ハッチ
  6
Continuous
 62
     7
370
     5
100
AcDbLine
 10
4468.044038846494
 20
-1627.790840892252
 30
0.0
 11
4468.044038846494
 21
-1644.914284267091
 31
0.0
  0
ARC
  5
2DB
330
1F
100
AcDbEntity
  8
0-C_ハッチ
  6
Continuous
 62
     7
370
     5
100
AcDbCircle
 10
4444.044038846495
 20
-1627.790840892252
 30
0.0
 40
24.0
100
AcDbArc
 50
0.0
 51
101.82186584
  0
LINE
  5
2DC
330
1F
100
AcDbEntity
  8
0-C_ハッチ
  6
Continuous
 62
     7
370
     5
100
AcDbLine
 10
4428.574828434147
 20
-1643.117190431523
 30
0.0
 11
4428.574828434147
 21
-1662.136390008944
 31
0.0
  0
ARC
  5
2DD
330
1F
100
AcDbEntity
  8
0-C_ハッチ
  6
Continuous
 62
     7
370
     5
100
AcDbCircle
 10
4445.374828434145
 20
-1643.117190431523
 30
0.0
 40
16.8
100
AcDbArc
 50
101.82186584
 51
180.0
  0
LINE
  5
2DE
330
1F
100
AcDbEntity
  8
0-C_ハッチ
  6
Continuous
 62
     7
370
     5
100
AcDbLine
 10
4443.425206874464
 20
-1626.36120197094
 30
0.0
 11
4441.933019103992
 21
-1626.673530603648
 31
0.0
  0
LINE
  5
2DF
330
1F
100
AcDbEntity
  8
0-C_ハッチ
  6
Continuous
 62
     7
370
     5
100
AcDbLine
 10
4463.667016204619
 20
-1642.804861798816
 30
0.0
 11
4463.667016204619
 21
-1654.791272161203
 31
0.0
  0
ARC
  5
2E0
330
1F
100
AcDbEntity
  8
0-C_ハッチ
  6
Continuous
 62
     7
370
     5
100
AcDbCircle
 10
4446.867016204617
 20
-1642.804861798816
 30
0.0
 40
16.8
100
AcDbArc
 50
0.0
 51
101.82186584
  0
LINE
  5
2E1
330
1F
100
AcDbEntity
  8
0-C_ハッチ
  6
Continuous
 62
     7
370
     5
100
AcDbLine
 10
4478.809349416296
 20
-1651.621842467705
 30
0.0
 11
4463.667016204619
 21
-1654.791272161203
 31
0.0
  0
LINE
  5
2E2
330
1F
100
AcDbEntity
  8
0-C_ハッチ
  6
Continuous
 62
     7
370
     5
100
AcDbLine
 10
4428.574828434147
 20
-1662.136390008944
 30
0.0
 11
4413.432495222471
 21
-1665.305819702442
 31
0.0
  0
LINE
  5
2E3
330
1F
100
AcDbEntity
  8
0-C_ハッチ
  6
Continuous
 62
     7
370
     5
100
AcDbLine
 10
3926.975587262779
 20
-1933.842015765263
 30
0.0
 11
3944.145640656054
 21
-1901.099572121546
 31
0.0
  0
ARC
  5
2E4
330
1F
100
AcDbEntity
  8
0-C_ハッチ
  6
Continuous
 62
     7
370
     5
100
AcDbCircle
 10
3944.656658380111
 20
-1901.413993631148
 30
0.0
 40
0.6000000000000001
100
AcDbArc
 50
99.56556047057619
 51
260.070167268476
  0
LINE
  5
2E5
330
1F
100
AcDbEntity
  8
0-C_ハッチ
  6
Continuous
 62
     7
370
     5
100
AcDbLine
 10
4722.440241570165
 20
-1873.525047891892
 30
0.0
 11
4513.074524956492
 21
-1874.196784378393
 31
0.0
  0
LINE
  5
2E6
330
1F
100
AcDbEntity
  8
0-C_ハッチ
  6
Continuous
 62
     7
370
     5
100
AcDbLine
 10
4722.543025230144
 20
-1874.716507009696
 30
0.0
 11
4280.135382396748
 21
-1950.157708018391
 31
0.0
  0
ARC
  5
2E7
330
1F
100
AcDbEntity
  8
0-C_ハッチ
  6
Continuous
 62
     7
370
     5
100
AcDbCircle
 10
4722.442166621812
 20
-1874.125044803697
 30
0.0
 40
0.6000000000000001
100
AcDbArc
 50
279.6772325660855
 51
90.18382920651953
  0
LINE
  5
2E8
330
1F
100
AcDbEntity
  8
0-C_ハッチ
  6
Continuous
 62
     7
370
     5
100
AcDbLine
 10
4749.134249477201
 20
-1904.64531676971
 30
0.0
 11
4722.86280490525
 21
-1873.694852532097
 31
0.0
  0
LINE
  5
2E9
330
1F
100
AcDbEntity
  8
0-C_ハッチ
  6
Continuous
 62
     7
370
     5
100
AcDbLine
 10
4711.333004306815
 20
-1740.778465677787
 30
0.0
 11
4687.596379607511
 21
-1727.435898911453
 31
0.0
  0
LINE
  5
2EA
330
1F
100
AcDbEntity
  8
0-C_ハッチ
  6
Continuous
 62
    40
370
     5
100
AcDbLine
 10
4729.140853321862
 20
-1738.414179179797
 30
0.0
 11
5084.710703993104
 21
-1675.502354060275
 31
0.0
  0
MTEXT
  5
2EB
330
1F
100
AcDbEntity
  8
0-C_ハッチ
  6
Continuous
 62
     7
370
     5
100
AcDbMText
 10
4000.137536144027
 20
-2135.621352690107
 30
0.0
 40
45.71999999999978
 41
359.9999999999983
 46
0.0
 71
     7
 72
     1
  1
{\fＭＳ ゴシック|b0|i0|c128|p49;枠の前面より}
 73
     1
 44
1.0
  0
MTEXT
  5
2EC
330
1F
100
AcDbEntity
  8
0-C_ハッチ
  6
Continuous
 62
     7
370
     5
100
AcDbMText
 10
4630.066725062069
 20
-2174.362237252709
 30
0.0
 40
45.72
 41
300.0
 46
0.0
 71
     7
 72
     1
  1
{\fＭＳ ゴシック|b0|i0|c128|p49;位置決め溝}
 73
     1
 44
1.0
  0
MTEXT
  5
2ED
330
1F
100
AcDbEntity
  8
0-C_ハッチ
  6
Continuous
 62
     7
370
     5
100
AcDbMText
 10
4000.137536144025
 20
-2210.13775740153
 30
0.0
 40
45.72000000000033
 41
240.0000000000017
 46
0.0
 71
     7
 72
     1
  1
{\fＭＳ ゴシック|b0|i0|c128|p49;46㎜後ろ}
 73
     1
 44
1.0
  0
LINE
  5
2EE
330
1F
100
AcDbEntity
  8
0-C_ハッチ
  6
Continuous
 62
     7
370
     5
100
AcDbLine
 10
3500.52018704659
 20
-3169.416420470527
 30
0.0
 11
3500.52018704659
 21
-2289.480885017695
 31
0.0
  0
LINE
  5
2EF
330
1F
100
AcDbEntity
  8
0-C_ハッチ
  6
Continuous
 62
     7
370
     5
100
AcDbLine
 10
5170.538819331661
 20
-3169.416420470527
 30
0.0
 11
5170.538819331661
 21
-2289.480885017695
 31
0.0
  0
LINE
  5
2F0
330
1F
100
AcDbEntity
  8
0-C_ハッチ
  6
Continuous
 62
     7
370
     5
100
AcDbLine
 10
3500.52018704659
 20
-3169.416420470527
 30
0.0
 11
5170.538819331661
 21
-3169.416420470527
 31
0.0
  0
LINE
  5
2F1
330
1F
100
AcDbEntity
  8
0-C_ハッチ
  6
Continuous
 62
     7
370
     5
100
AcDbLine
 10
5170.538819331661
 20
-2289.480885017695
 30
0.0
 11
3500.52018704659
 21
-2289.480885017695
 31
0.0
  0
LINE
  5
2F2
330
1F
100
AcDbEntity
  8
0-C_ハッチ
  6
JWW_HOJO
 62
   120
370
     5
100
AcDbLine
 10
3492.446698775424
 20
-2916.328574525985
 30
0.0
 11
5162.465331060495
 21
-2916.328574525985
 31
0.0
  0
MTEXT
  5
2F3
330
1F
100
AcDbEntity
  8
0-C_ハッチ
  6
Continuous
 62
     7
370
     5
100
AcDbMText
 10
3591.611632800718
 20
-2412.814917341414
 30
0.0
 40
57.15
 41
225.0
 46
0.0
 71
     7
 72
     1
  1
{\fＭＳ ゴシック|b0|i0|c128|p49;平面図}
 73
     1
 44
1.0
  0
LINE
  5
2F4
330
1F
100
AcDbEntity
  8
0-6_扉
  6
Continuous
 62
   200
370
     5
100
AcDbLine
 10
4573.12262159831
 20
-2717.497454775846
 30
0.0
 11
4573.12262159831
 21
-2879.497454775843
 31
0.0
  0
LINE
  5
2F5
330
1F
100
AcDbEntity
  8
0-C_ハッチ
  6
JWW_CENTER1
 62
   120
370
     5
100
AcDbLine
 10
4363.12262159831
 20
-2735.496158191173
 30
0.0
 11
4363.12262159831
 21
-2861.496811432307
 31
0.0
  0
ARC
  5
2F6
330
1F
100
AcDbEntity
  8
0-C_ハッチ
  6
Continuous
 62
     7
370
     5
100
AcDbCircle
 10
4372.122621598308
 20
-2798.497454775845
 30
0.0
 40
27.00000000000017
100
AcDbArc
 50
270.0
 51
90.0
  0
ARC
  5
2F7
330
1F
100
AcDbEntity
  8
0-C_ハッチ
  6
Continuous
 62
     7
370
     5
100
AcDbCircle
 10
4228.122621598306
 20
-2910.997454775845
 30
0.0
 40
6.0
100
AcDbArc
 50
135.0000000000086
 51
270.0
  0
ARC
  5
2F8
330
1F
100
AcDbEntity
  8
0-C_ハッチ
  6
Continuous
 62
     7
370
     5
100
AcDbCircle
 10
4228.122621598306
 20
-2685.997454775845
 30
0.0
 40
6.0
100
AcDbArc
 50
90.0
 51
224.9999999999913
  0
CIRCLE
  5
2F9
330
1F
100
AcDbEntity
  8
0-C_ハッチ
  6
Continuous
 62
     7
370
     5
100
AcDbCircle
 10
4321.122621598307
 20
-2873.497454775845
 30
0.0
 40
11.7
  0
CIRCLE
  5
2FA
330
1F
100
AcDbEntity
  8
0-C_ハッチ
  6
Continuous
 62
     7
370
     5
100
AcDbCircle
 10
4321.122621598307
 20
-2723.497454775845
 30
0.0
 40
11.7
  0
CIRCLE
  5
2FB
330
1F
100
AcDbEntity
  8
0-C_ハッチ
  6
Continuous
 62
     7
370
     5
100
AcDbCircle
 10
4321.122621598307
 20
-2723.497454775845
 30
0.0
 40
22.5
  0
CIRCLE
  5
2FC
330
1F
100
AcDbEntity
  8
0-C_ハッチ
  6
Continuous
 62
     7
370
     5
100
AcDbCircle
 10
4321.122621598307
 20
-2873.497454775845
 30
0.0
 40
22.5
  0
CIRCLE
  5
2FD
330
1F
100
AcDbEntity
  8
0-C_ハッチ
  6
Continuous
 62
     7
370
     5
100
AcDbCircle
 10
4450.122621598309
 20
-2798.497454775845
 30
0.0
 40
11.7
  0
CIRCLE
  5
2FE
330
1F
100
AcDbEntity
  8
0-C_ハッチ
  6
Continuous
 62
     7
370
     5
100
AcDbCircle
 10
4450.122621598309
 20
-2798.497454775845
 30
0.0
 40
22.5
  0
LINE
  5
2FF
330
1F
100
AcDbEntity
  8
0-C_ハッチ
  6
Continuous
 62
     7
370
     5
100
AcDbLine
 10
4422.696214727115
 20
-2916.997454775845
 30
0.0
 11
4228.122621598306
 21
-2916.997454775845
 31
0.0
  0
ARC
  5
300
330
1F
100
AcDbEntity
  8
0-C_ハッチ
  6
Continuous
 62
     7
370
     5
100
AcDbCircle
 10
4422.696214727115
 20
-2886.997454775845
 30
0.0
 40
30.0
100
AcDbArc
 50
270.0
 51
315.0
  0
LINE
  5
301
330
1F
100
AcDbEntity
  8
0-C_ハッチ
  6
Continuous
 62
     7
370
     5
100
AcDbLine
 10
4486.335825033903
 20
-2865.784251340248
 30
0.0
 11
4443.909418162711
 21
-2908.210658211442
 31
0.0
  0
ARC
  5
302
330
1F
100
AcDbEntity
  8
0-C_ハッチ
  6
Continuous
 62
     7
370
     5
100
AcDbCircle
 10
4465.122621598309
 20
-2844.571047904652
 30
0.0
 40
30.0
100
AcDbArc
 50
314.9999999999999
 51
359.9999999999999
  0
LINE
  5
303
330
1F
100
AcDbEntity
  8
0-C_ハッチ
  6
Continuous
 62
     7
370
     5
100
AcDbLine
 10
4495.122621598309
 20
-2752.423861647037
 30
0.0
 11
4495.122621598309
 21
-2844.571047904652
 31
0.0
  0
ARC
  5
304
330
1F
100
AcDbEntity
  8
0-C_ハッチ
  6
Continuous
 62
     7
370
     5
100
AcDbCircle
 10
4465.122621598309
 20
-2752.423861647037
 30
0.0
 40
30.0
100
AcDbArc
 50
0.0000000000000127
 51
45.00000000000001
  0
LINE
  5
305
330
1F
100
AcDbEntity
  8
0-C_ハッチ
  6
Continuous
 62
     7
370
     5
100
AcDbLine
 10
4443.909418162711
 20
-2688.784251340248
 30
0.0
 11
4486.335825033903
 21
-2731.210658211441
 31
0.0
  0
LINE
  5
306
330
1F
100
AcDbEntity
  8
0-C_ハッチ
  6
Continuous
 62
     7
370
     5
100
AcDbLine
 10
4422.696214727115
 20
-2679.997454775845
 30
0.0
 11
4228.122621598306
 21
-2679.997454775845
 31
0.0
  0
ARC
  5
307
330
1F
100
AcDbEntity
  8
0-C_ハッチ
  6
Continuous
 62
     7
370
     5
100
AcDbCircle
 10
4422.696214727115
 20
-2709.997454775845
 30
0.0
 40
30.0
100
AcDbArc
 50
45.00000000000006
 51
90.00000000000006
  0
LINE
  5
308
330
1F
100
AcDbEntity
  8
0-C_ハッチ
  6
Continuous
 62
     7
370
     5
100
AcDbLine
 10
4296.350543659666
 20
-2762.710658211441
 30
0.0
 11
4223.879980911187
 21
-2690.240095462964
 31
0.0
  0
LINE
  5
309
330
1F
100
AcDbEntity
  8
0-C_ハッチ
  6
Continuous
 62
     7
370
     5
100
AcDbLine
 10
4317.563747095261
 20
-2771.497454775845
 30
0.0
 11
4372.122621598308
 21
-2771.497454775845
 31
0.0
  0
ARC
  5
30A
330
1F
100
AcDbEntity
  8
0-C_ハッチ
  6
Continuous
 62
     7
370
     5
100
AcDbCircle
 10
4317.563747095261
 20
-2741.497454775845
 30
0.0
 40
30.0
100
AcDbArc
 50
225.0000000000006
 51
270.0
  0
LINE
  5
30B
330
1F
100
AcDbEntity
  8
0-C_ハッチ
  6
Continuous
 62
     7
370
     5
100
AcDbLine
 10
4317.563747095261
 20
-2825.497454775845
 30
0.0
 11
4372.122621598308
 21
-2825.497454775845
 31
0.0
  0
LINE
  5
30C
330
1F
100
AcDbEntity
  8
0-C_ハッチ
  6
Continuous
 62
     7
370
     5
100
AcDbLine
 10
4296.350543659666
 20
-2834.284251340248
 30
0.0
 11
4223.879980911187
 21
-2906.754814088725
 31
0.0
  0
ARC
  5
30D
330
1F
100
AcDbEntity
  8
0-C_ハッチ
  6
Continuous
 62
     7
370
     5
100
AcDbCircle
 10
4317.563747095261
 20
-2855.497454775845
 30
0.0
 40
30.0
100
AcDbArc
 50
90.0
 51
134.9999999999995
  0
LINE
  5
30E
330
1F
100
AcDbEntity
  8
0-C_ハッチ
  6
JWW_CENTER1
 62
   120
370
     5
100
AcDbLine
 10
4321.122621598307
 20
-2690.552023263088
 30
0.0
 11
4321.122621598307
 21
-2756.488119729645
 31
0.0
  0
LINE
  5
30F
330
1F
100
AcDbEntity
  8
0-C_ハッチ
  6
JWW_CENTER1
 62
   120
370
     5
100
AcDbLine
 10
4321.122621598307
 20
-2838.191543612119
 30
0.0
 11
4321.122621598307
 21
-2903.410943377953
 31
0.0
  0
LINE
  5
310
330
1F
100
AcDbEntity
  8
0-C_ハッチ
  6
JWW_CENTER1
 62
   120
370
     5
100
AcDbLine
 10
4450.122621598309
 20
-2765.088480138326
 30
0.0
 11
4450.122621598309
 21
-2831.741273305607
 31
0.0
  0
LINE
  5
311
330
1F
100
AcDbEntity
  8
0-C_ハッチ
  6
JWW_CENTER1
 62
   120
370
     5
100
AcDbLine
 10
4289.165719582867
 20
-2873.497454775845
 30
0.0
 11
4355.818512750149
 21
-2873.497454775845
 31
0.0
  0
LINE
  5
312
330
1F
100
AcDbEntity
  8
0-C_ハッチ
  6
JWW_CENTER1
 62
   120
370
     5
100
AcDbLine
 10
4289.165719582867
 20
-2723.497454775845
 30
0.0
 11
4355.818512750149
 21
-2723.497454775845
 31
0.0
  0
LWPOLYLINE
  5
313
330
1F
100
AcDbEntity
  8
0-C_ハッチ
  6
Continuous
 62
     7
370
     5
100
AcDbPolyline
 90
        4
 70
     1
 43
3.0
 10
4223.622621598307
 20
-2685.997454775845
 42
0.4142135623731
 10
4222.122621598306
 20
-2684.497454775845
 42
0.4142135623731
 10
4220.622621598306
 20
-2685.997454775845
 42
0.4142135623731
 10
4222.122621598306
 20
-2687.497454775845
 42
0.4142135623731
  0
LWPOLYLINE
  5
314
330
1F
100
AcDbEntity
  8
0-C_ハッチ
  6
Continuous
 62
     7
370
     5
100
AcDbPolyline
 90
        4
 70
     1
 43
3.0
 10
4223.622621598307
 20
-2910.997454775845
 42
0.4142135623731
 10
4222.122621598306
 20
-2909.497454775845
 42
0.4142135623731
 10
4220.622621598306
 20
-2910.997454775845
 42
0.4142135623731
 10
4222.122621598306
 20
-2912.497454775845
 42
0.4142135623731
  0
LWPOLYLINE
  5
315
330
1F
100
AcDbEntity
  8
0-C_ハッチ
  6
Continuous
 62
     7
370
     5
100
AcDbPolyline
 90
        4
 70
     1
 43
3.0
 10
3983.014119500463
 20
-2798.497454775845
 42
0.4142135623731
 10
3981.514119500463
 20
-2796.997454775845
 42
0.4142135623731
 10
3980.014119500463
 20
-2798.497454775845
 42
0.4142135623731
 10
3981.514119500463
 20
-2799.997454775845
 42
0.4142135623731
  0
MTEXT
  5
316
330
1F
100
AcDbEntity
  8
0-C_ハッチ
  6
Continuous
 62
     7
370
   211
100
AcDbMText
 10
4466.622621598309
 20
-2403.570831825838
 30
0.0
 40
57.15
 41
150.0
 46
0.0
 71
     7
 72
     1
  1
{\fＭＳ ゴシック|b0|i0|c128|p49;15.5}
 73
     1
 44
1.0
  0
LINE
  5
317
330
1F
100
AcDbEntity
  8
0-C_ハッチ
  6
Continuous
 62
   120
370
     5
100
AcDbLine
 10
3981.514119500463
 20
-2798.497454775845
 30
0.0
 11
3999.455726148242
 21
-2798.497454775845
 31
0.0
  0
LWPOLYLINE
  5
318
330
1F
100
AcDbEntity
  8
0-C_ハッチ
  6
Continuous
 62
     7
370
     5
100
AcDbPolyline
 90
        4
 70
     1
 43
3.0
 10
4081.844048493109
 20
-2679.996380887023
 42
0.4142135623731
 10
4080.344048493109
 20
-2678.496380887023
 42
0.4142135623731
 10
4078.844048493108
 20
-2679.996380887023
 42
0.4142135623731
 10
4080.344048493109
 20
-2681.496380887023
 42
0.4142135623731
  0
LINE
  5
319
330
1F
100
AcDbEntity
  8
0-C_ハッチ
  6
Continuous
 62
   120
370
     5
100
AcDbLine
 10
4080.344048493109
 20
-2679.996380887023
 30
0.0
 11
4179.173977485754
 21
-2679.996380887023
 31
0.0
  0
LWPOLYLINE
  5
31A
330
1F
100
AcDbEntity
  8
0-C_ハッチ
  6
Continuous
 62
     7
370
     5
100
AcDbPolyline
 90
        4
 70
     1
 43
3.0
 10
4081.844048493109
 20
-2916.996380887016
 42
0.4142135623731
 10
4080.344048493109
 20
-2915.496380887016
 42
0.4142135623731
 10
4078.844048493108
 20
-2916.996380887016
 42
0.4142135623731
 10
4080.344048493109
 20
-2918.496380887016
 42
0.4142135623731
  0
LINE
  5
31B
330
1F
100
AcDbEntity
  8
0-C_ハッチ
  6
Continuous
 62
   120
370
     5
100
AcDbLine
 10
4080.344048493109
 20
-2916.996380887016
 30
0.0
 11
4179.173977485754
 21
-2916.996380887016
 31
0.0
  0
LINE
  5
31C
330
1F
100
AcDbEntity
  8
0-C_ハッチ
  6
Continuous
 62
   120
370
     5
100
AcDbLine
 10
4080.344048493109
 20
-2679.996380887023
 30
0.0
 11
4080.344048493109
 21
-2916.996380887016
 31
0.0
  0
LWPOLYLINE
  5
31D
330
1F
100
AcDbEntity
  8
0-C_ハッチ
  6
Continuous
 62
     7
370
     5
100
AcDbPolyline
 90
        4
 70
     1
 43
3.0
 10
4496.622621598309
 20
-2400.645831825838
 42
0.4142135623731
 10
4495.122621598309
 20
-2399.145831825838
 42
0.4142135623731
 10
4493.622621598308
 20
-2400.645831825838
 42
0.4142135623731
 10
4495.122621598309
 20
-2402.145831825838
 42
0.4142135623731
  0
LINE
  5
31E
330
1F
100
AcDbEntity
  8
0-C_ハッチ
  6
Continuous
 62
   120
370
     5
100
AcDbLine
 10
4495.122621598309
 20
-2400.645831825838
 30
0.0
 11
4495.122621598309
 21
-2468.145831825838
 31
0.0
  0
LWPOLYLINE
  5
31F
330
1F
100
AcDbEntity
  8
0-C_ハッチ
  6
Continuous
 62
     7
370
     5
100
AcDbPolyline
 90
        4
 70
     1
 43
3.0
 10
4081.844048493109
 20
-2522.497509212608
 42
0.4142135623731
 10
4080.344048493109
 20
-2520.997509212608
 42
0.4142135623731
 10
4078.844048493108
 20
-2522.497509212608
 42
0.4142135623731
 10
4080.344048493109
 20
-2523.997509212608
 42
0.4142135623731
  0
LINE
  5
320
330
1F
100
AcDbEntity
  8
0-C_ハッチ
  6
Continuous
 62
   120
370
     5
100
AcDbLine
 10
3978.96633145471
 20
-2522.497509212608
 30
0.0
 11
4538.356046091166
 21
-2522.497509212608
 31
0.0
  0
LWPOLYLINE
  5
321
330
1F
100
AcDbEntity
  8
0-C_ハッチ
  6
Continuous
 62
     7
370
     5
100
AcDbPolyline
 90
        4
 70
     1
 43
3.0
 10
3983.014119500463
 20
-2522.497509212608
 42
0.4142135623731
 10
3981.514119500463
 20
-2520.997509212608
 42
0.4142135623731
 10
3980.014119500463
 20
-2522.497509212608
 42
0.4142135623731
 10
3981.514119500463
 20
-2523.997509212608
 42
0.4142135623731
  0
LINE
  5
322
330
1F
100
AcDbEntity
  8
0-C_ハッチ
  6
Continuous
 62
   120
370
     5
100
AcDbLine
 10
3981.514119500463
 20
-2522.497509212608
 30
0.0
 11
3981.514119500463
 21
-2798.497454775845
 31
0.0
  0
LINE
  5
323
330
1F
100
AcDbEntity
  8
0-C_ハッチ
  6
Continuous
 62
   120
370
     5
100
AcDbLine
 10
3882.684190507818
 20
-2522.497509212608
 30
0.0
 11
3978.96633145471
 21
-2522.497509212608
 31
0.0
  0
LWPOLYLINE
  5
324
330
1F
100
AcDbEntity
  8
0-C_ハッチ
  6
Continuous
 62
     7
370
     5
100
AcDbPolyline
 90
        4
 70
     1
 43
3.0
 10
3884.184190507818
 20
-2522.497509212608
 42
0.4142135623731
 10
3882.684190507818
 20
-2520.997509212608
 42
0.4142135623731
 10
3881.184190507818
 20
-2522.497509212608
 42
0.4142135623731
 10
3882.684190507818
 20
-2523.997509212608
 42
0.4142135623731
  0
LINE
  5
325
330
1F
100
AcDbEntity
  8
0-C_ハッチ
  6
Continuous
 62
   120
370
     5
100
AcDbLine
 10
4080.344048493109
 20
-2522.497509212608
 30
0.0
 11
4080.344048493109
 21
-2679.996380887023
 31
0.0
  0
LWPOLYLINE
  5
326
330
1F
100
AcDbEntity
  8
0-C_ハッチ
  6
Continuous
 62
     7
370
     5
100
AcDbPolyline
 90
        4
 70
     1
 43
3.0
 10
4081.844048493109
 20
-3074.496658019616
 42
0.4142135623731
 10
4080.344048493109
 20
-3072.996658019616
 42
0.4142135623731
 10
4078.844048493108
 20
-3074.496658019616
 42
0.4142135623731
 10
4080.344048493109
 20
-3075.996658019616
 42
0.4142135623731
  0
LINE
  5
327
330
1F
100
AcDbEntity
  8
0-C_ハッチ
  6
Continuous
 62
   120
370
     5
100
AcDbLine
 10
3978.96633145471
 20
-3074.496658019616
 30
0.0
 11
4538.356046091166
 21
-3074.496658019616
 31
0.0
  0
LWPOLYLINE
  5
328
330
1F
100
AcDbEntity
  8
0-C_ハッチ
  6
Continuous
 62
     7
370
     5
100
AcDbPolyline
 90
        4
 70
     1
 43
3.0
 10
3983.014119500463
 20
-3074.496658019616
 42
0.4142135623731
 10
3981.514119500463
 20
-3072.996658019616
 42
0.4142135623731
 10
3980.014119500463
 20
-3074.496658019616
 42
0.4142135623731
 10
3981.514119500463
 20
-3075.996658019616
 42
0.4142135623731
  0
LINE
  5
329
330
1F
100
AcDbEntity
  8
0-C_ハッチ
  6
Continuous
 62
   120
370
     5
100
AcDbLine
 10
3981.514119500463
 20
-2798.497454775845
 30
0.0
 11
3981.514119500463
 21
-3074.496658019616
 31
0.0
  0
LINE
  5
32A
330
1F
100
AcDbEntity
  8
0-C_ハッチ
  6
Continuous
 62
   120
370
     5
100
AcDbLine
 10
3882.684190507818
 20
-3074.496658019616
 30
0.0
 11
3978.96633145471
 21
-3074.496658019616
 31
0.0
  0
LWPOLYLINE
  5
32B
330
1F
100
AcDbEntity
  8
0-C_ハッチ
  6
Continuous
 62
     7
370
     5
100
AcDbPolyline
 90
        4
 70
     1
 43
3.0
 10
3884.184190507818
 20
-3074.496658019616
 42
0.4142135623731
 10
3882.684190507818
 20
-3072.996658019616
 42
0.4142135623731
 10
3881.184190507818
 20
-3074.496658019616
 42
0.4142135623731
 10
3882.684190507818
 20
-3075.996658019616
 42
0.4142135623731
  0
LINE
  5
32C
330
1F
100
AcDbEntity
  8
0-C_ハッチ
  6
Continuous
 62
   120
370
     5
100
AcDbLine
 10
4080.344048493109
 20
-2916.996380887016
 30
0.0
 11
4080.344048493109
 21
-3074.496658019616
 31
0.0
  0
LINE
  5
32D
330
1F
100
AcDbEntity
  8
0-C_ハッチ
  6
Continuous
 62
   120
370
     5
100
AcDbLine
 10
3882.684190507818
 20
-2522.497509212608
 30
0.0
 11
3882.684190507818
 21
-3074.496658019616
 31
0.0
  0
MTEXT
  5
32E
330
1F
100
AcDbEntity
  8
0-C_ハッチ
  6
Continuous
 62
     7
370
   211
100
AcDbMText
 10
4074.635891495971
 20
-2647.671945049816
 30
0.0
 40
57.15
 41
75.0
 46
0.0
 71
     7
 72
     1
  1
{\fＭＳ ゴシック|b0|i0|c128|p49;26}
 11
6.123031769111886E-17
 21
1.0
 31
0.0
 73
     1
 44
1.0
  0
MTEXT
  5
32F
330
1F
100
AcDbEntity
  8
0-C_ハッチ
  6
Continuous
 62
     7
370
   211
100
AcDbMText
 10
3975.514119500463
 20
-2706.922481994226
 30
0.0
 40
57.15
 41
75.0
 46
0.0
 71
     7
 72
     1
  1
{\fＭＳ ゴシック|b0|i0|c128|p49;46}
 11
6.123031769111886E-17
 21
1.0
 31
0.0
 73
     1
 44
1.0
  0
LWPOLYLINE
  5
330
330
1F
100
AcDbEntity
  8
0-C_ハッチ
  6
Continuous
 62
     7
370
     5
100
AcDbPolyline
 90
        4
 70
     1
 43
3.0
 10
4589.62262159831
 20
-2400.645831825838
 42
0.4142135623731
 10
4588.12262159831
 20
-2399.145831825838
 42
0.4142135623731
 10
4586.622621598309
 20
-2400.645831825838
 42
0.4142135623731
 10
4588.12262159831
 20
-2402.145831825838
 42
0.4142135623731
  0
LINE
  5
331
330
1F
100
AcDbEntity
  8
0-C_ハッチ
  6
Continuous
 62
   120
370
     5
100
AcDbLine
 10
4588.12262159831
 20
-2400.645831825838
 30
0.0
 11
4588.12262159831
 21
-2468.145831825838
 31
0.0
  0
MTEXT
  5
332
330
1F
100
AcDbEntity
  8
0-C_ハッチ
  6
Continuous
 62
     7
370
   211
100
AcDbMText
 10
3876.97603351068
 20
-2844.92138088702
 30
0.0
 40
57.15
 41
75.0
 46
0.0
 71
     7
 72
     1
  1
{\fＭＳ ゴシック|b0|i0|c128|p49;92}
 11
6.123031769111886E-17
 21
1.0
 31
0.0
 73
     1
 44
1.0
  0
LINE
  5
333
330
1F
100
AcDbEntity
  8
0-C_ハッチ
  6
Continuous
 62
   120
370
     5
100
AcDbLine
 10
4588.12262159831
 20
-2400.645831825838
 30
0.0
 11
4495.122621598309
 21
-2400.645831825838
 31
0.0
  0
MTEXT
  5
334
330
1F
100
AcDbEntity
  8
0-C_ハッチ
  6
Continuous
 62
     7
370
   211
100
AcDbMText
 10
4074.344048493109
 20
-2850.922454775845
 30
0.0
 40
57.15
 41
75.0
 46
0.0
 71
     7
 72
     1
  1
{\fＭＳ ゴシック|b0|i0|c128|p49;40}
 11
6.123031769111886E-17
 21
1.0
 31
0.0
 73
     1
 44
1.0
  0
MTEXT
  5
335
330
1F
100
AcDbEntity
  8
0-C_ハッチ
  6
Continuous
 62
     7
370
   211
100
AcDbMText
 10
3975.514119500463
 20
-2982.92205639773
 30
0.0
 40
57.15
 41
75.0
 46
0.0
 71
     7
 72
     1
  1
{\fＭＳ ゴシック|b0|i0|c128|p49;46}
 11
6.123031769111886E-17
 21
1.0
 31
0.0
 73
     1
 44
1.0
  0
MTEXT
  5
336
330
1F
100
AcDbEntity
  8
0-C_ハッチ
  6
Continuous
 62
     7
370
   211
100
AcDbMText
 10
4074.635891495971
 20
-3031.113270274441
 30
0.0
 40
57.15
 41
75.0
 46
0.0
 71
     7
 72
     1
  1
{\fＭＳ ゴシック|b0|i0|c128|p49;26}
 11
6.123031769111886E-17
 21
1.0
 31
0.0
 73
     1
 44
1.0
  0
LINE
  5
337
330
1F
100
AcDbEntity
  8
0-C_ハッチ
  6
JWW_CENTER1
 62
   120
370
     5
100
AcDbLine
 10
4139.355049142025
 20
-2798.497454775845
 30
0.0
 11
4782.259374097565
 21
-2798.497454775845
 31
0.0
  0
LINE
  5
338
330
1F
100
AcDbEntity
  8
0-6_扉
  6
Continuous
 62
   200
370
     5
100
AcDbLine
 10
4139.355049142025
 20
-2717.497454775846
 30
0.0
 11
4573.12262159831
 21
-2717.497454775846
 31
0.0
  0
LINE
  5
339
330
1F
100
AcDbEntity
  8
0-6_扉
  6
Continuous
 62
   200
370
     5
100
AcDbLine
 10
4139.355049142025
 20
-2879.497454775843
 30
0.0
 11
4573.12262159831
 21
-2879.497454775843
 31
0.0
  0
LINE
  5
33A
330
1F
100
AcDbEntity
  8
0-7_金物
  6
Continuous
 62
     7
370
     5
100
AcDbLine
 10
4786.122283997594
 20
-2888.497758044276
 30
0.0
 11
4786.122283997594
 21
-2708.497895373379
 31
0.0
  0
LINE
  5
33B
330
1F
100
AcDbEntity
  8
0-7_金物
  6
Continuous
 62
     7
370
     5
100
AcDbLine
 10
4798.122621598301
 20
-2708.497895373379
 30
0.0
 11
4786.122283997594
 21
-2708.497895373379
 31
0.0
  0
LINE
  5
33C
330
1F
100
AcDbEntity
  8
0-7_金物
  6
Continuous
 62
     7
370
     5
100
AcDbLine
 10
4798.122621598301
 20
-2888.497758044276
 30
0.0
 11
4786.122283997594
 21
-2888.497758044276
 31
0.0
  0
LINE
  5
33D
330
1F
100
AcDbEntity
  8
0-7_金物
  6
Continuous
 62
     7
370
     5
100
AcDbLine
 10
4798.122621598301
 20
-2888.497758044276
 30
0.0
 11
4798.122621598301
 21
-2708.497895373379
 31
0.0
  0
LINE
  5
33E
330
1F
100
AcDbEntity
  8
0-7_金物
  6
Continuous
 62
     7
370
     5
100
AcDbLine
 10
4786.122283997594
 20
-2858.497655047452
 30
0.0
 11
4774.122690262854
 21
-2858.497655047452
 31
0.0
  0
LINE
  5
33F
330
1F
100
AcDbEntity
  8
0-7_金物
  6
Continuous
 62
     7
370
     5
100
AcDbLine
 10
4786.122283997594
 20
-2738.497998370206
 30
0.0
 11
4774.122690262854
 21
-2738.497998370206
 31
0.0
  0
LINE
  5
340
330
1F
100
AcDbEntity
  8
0-7_金物
  6
Continuous
 62
     7
370
     5
100
AcDbLine
 10
4774.122690262854
 20
-2858.497655047452
 30
0.0
 11
4774.122690262854
 21
-2738.497998370206
 31
0.0
  0
LINE
  5
341
330
1F
100
AcDbEntity
  8
0-7_金物
  6
Continuous
 62
     7
370
     5
100
AcDbLine
 10
4774.122690262854
 20
-2852.497489108121
 30
0.0
 11
4768.12262159831
 21
-2852.497489108121
 31
0.0
  0
LINE
  5
342
330
1F
100
AcDbEntity
  8
0-7_金物
  6
Continuous
 62
     7
370
     5
100
AcDbLine
 10
4768.12262159831
 20
-2744.49742044357
 30
0.0
 11
4774.122690262854
 21
-2744.49742044357
 31
0.0
  0
LINE
  5
343
330
1F
100
AcDbEntity
  8
0-4_枠
  6
Continuous
 62
    92
370
     5
100
AcDbLine
 10
4768.12262159831
 20
-2522.497509212605
 30
0.0
 11
4768.12262159831
 21
-3074.496658019614
 31
0.0
  0
LINE
  5
344
330
1F
100
AcDbEntity
  8
0-4_枠
  6
Continuous
 62
    92
370
     5
100
AcDbLine
 10
4606.12262159831
 20
-3074.496658019614
 30
0.0
 11
4768.12262159831
 21
-3074.496658019614
 31
0.0
  0
LINE
  5
345
330
1F
100
AcDbEntity
  8
0-4_枠
  6
Continuous
 62
    92
370
     5
100
AcDbLine
 10
4606.122755215814
 20
-2522.497509212605
 30
0.0
 11
4768.12262159831
 21
-2522.497509212605
 31
0.0
  0
ARC
  5
346
330
1F
100
AcDbEntity
  8
0-4_枠
  6
Continuous
 62
    92
370
     5
100
AcDbCircle
 10
4606.12262159831
 20
-3056.496658019616
 30
0.0
 40
18.0
100
AcDbArc
 50
180.0
 51
270.0
  0
LINE
  5
347
330
1F
100
AcDbEntity
  8
0-4_枠
  6
Continuous
 62
    92
370
     5
100
AcDbLine
 10
4588.12262159831
 20
-3056.496658019616
 30
0.0
 11
4588.12262159831
 21
-2540.497271670376
 31
0.0
  0
ARC
  5
348
330
1F
100
AcDbEntity
  8
0-4_枠
  6
Continuous
 62
    92
370
     5
100
AcDbCircle
 10
4606.122755215814
 20
-2540.497271670376
 30
0.0
 40
17.99999878213213
100
AcDbArc
 50
90.0
 51
180.0
  0
LINE
  5
349
330
1F
100
AcDbEntity
  8
0-C_ハッチ
  6
JWW_DASHED1
 62
   120
370
     5
100
AcDbLine
 10
4768.12262159831
 20
-2940.568499589886
 30
0.0
 11
4802.19366641237
 21
-2906.497454775826
 31
0.0
  0
LINE
  5
34A
330
1F
100
AcDbEntity
  8
0-C_ハッチ
  6
Continuous
 62
   120
370
     5
100
AcDbLine
 10
4768.122621598308
 20
-2702.355308589389
 30
0.0
 11
4597.19378871867
 21
-2531.426475709751
 31
0.0
  0
LINE
  5
34B
330
1F
100
AcDbEntity
  8
0-C_ハッチ
  6
Continuous
 62
   120
370
     5
100
AcDbLine
 10
4768.122621598306
 20
-2524.16439973039
 30
0.0
 11
4766.455731080525
 21
-2522.497509212609
 31
0.0
  0
LINE
  5
34C
330
1F
100
AcDbEntity
  8
0-C_ハッチ
  6
Continuous
 62
   120
370
     5
100
AcDbLine
 10
4768.122621598306
 20
-2583.561369350092
 30
0.0
 11
4707.058761460829
 21
-2522.497509212615
 31
0.0
  0
LINE
  5
34D
330
1F
100
AcDbEntity
  8
0-C_ハッチ
  6
Continuous
 62
   120
370
     5
100
AcDbLine
 10
4768.122621598301
 20
-2642.958338969735
 30
0.0
 11
4647.661791841182
 21
-2522.497509212615
 31
0.0
  0
LINE
  5
34E
330
1F
100
AcDbEntity
  8
0-C_ハッチ
  6
Continuous
 62
   120
370
     5
100
AcDbLine
 10
4768.122621598296
 20
-2761.752278209078
 30
0.0
 11
4588.122621598299
 21
-2581.75227820908
 31
0.0
  0
LINE
  5
34F
330
1F
100
AcDbEntity
  8
0-C_ハッチ
  6
Continuous
 62
   120
370
     5
100
AcDbLine
 10
4768.122621598299
 20
-2821.149247828729
 30
0.0
 11
4588.122621598306
 21
-2641.149247828735
 31
0.0
  0
LINE
  5
350
330
1F
100
AcDbEntity
  8
0-C_ハッチ
  6
Continuous
 62
   120
370
     5
100
AcDbLine
 10
4768.122621598292
 20
-2880.546217448423
 30
0.0
 11
4588.122621598292
 21
-2700.546217448424
 31
0.0
  0
LINE
  5
351
330
1F
100
AcDbEntity
  8
0-C_ハッチ
  6
Continuous
 62
   120
370
     5
100
AcDbLine
 10
4768.122621598306
 20
-2939.943187068082
 30
0.0
 11
4588.122621598306
 21
-2759.943187068084
 31
0.0
  0
LINE
  5
352
330
1F
100
AcDbEntity
  8
0-C_ハッチ
  6
Continuous
 62
   120
370
     5
100
AcDbLine
 10
4768.122621598299
 20
-2999.340156687725
 30
0.0
 11
4588.122621598308
 21
-2819.340156687735
 31
0.0
  0
LINE
  5
353
330
1F
100
AcDbEntity
  8
0-C_ハッチ
  6
Continuous
 62
   120
370
     5
100
AcDbLine
 10
4768.122621598299
 20
-3058.737126307426
 30
0.0
 11
4588.122621598299
 21
-2878.737126307427
 31
0.0
  0
LINE
  5
354
330
1F
100
AcDbEntity
  8
0-C_ハッチ
  6
Continuous
 62
   120
370
     5
100
AcDbLine
 10
4724.485183690855
 20
-3074.496658019631
 30
0.0
 11
4588.122621598299
 21
-2938.134095927074
 31
0.0
  0
LINE
  5
355
330
1F
100
AcDbEntity
  8
0-C_ハッチ
  6
Continuous
 62
   120
370
     5
100
AcDbLine
 10
4665.088214071153
 20
-3074.496658019631
 30
0.0
 11
4588.122621598294
 21
-2997.531065546772
 31
0.0
  0
LINE
  5
356
330
1F
100
AcDbEntity
  8
0-C_ハッチ
  6
Continuous
 62
   120
370
     5
100
AcDbLine
 10
4605.691244451497
 20
-3074.496658019619
 30
0.0
 11
4588.122621598306
 21
-3056.92803516643
 31
0.0
  0
LINE
  5
357
330
1F
100
AcDbEntity
  8
0-C_ハッチ
  6
JWW_DASHED1
 62
   120
370
     5
100
AcDbLine
 10
4854.472887025964
 20
-2981.497454775829
 30
0.0
 11
4929.472887025962
 21
-2906.497454775833
 31
0.0
  0
LINE
  5
358
330
1F
100
AcDbEntity
  8
0-C_ハッチ
  6
JWW_DASHED1
 62
   120
370
     5
100
AcDbLine
 10
4812.046480154769
 20
-2981.497454775829
 30
0.0
 11
4887.04648015476
 21
-2906.497454775833
 31
0.0
  0
LINE
  5
359
330
1F
100
AcDbEntity
  8
0-C_ハッチ
  6
JWW_DASHED1
 62
   120
370
     5
100
AcDbLine
 10
4769.620073283556
 20
-2981.497454775841
 30
0.0
 11
4844.620073283564
 21
-2906.49745477583
 31
0.0
  0
LINE
  5
35A
330
1F
100
AcDbEntity
  8
0-3_仕上げ
  6
Continuous
 62
    40
370
     5
100
AcDbLine
 10
4768.12262159831
 20
-2906.497454775843
 30
0.0
 11
4957.395262825108
 21
-2906.497454775843
 31
0.0
  0
LINE
  5
35B
330
1F
100
AcDbEntity
  8
0-3_仕上げ
  6
Continuous
 62
    40
370
     5
100
AcDbLine
 10
4768.12262159831
 20
-2981.497454775843
 30
0.0
 11
4957.395262825108
 21
-2981.497454775843
 31
0.0
  0
LINE
  5
35C
330
1F
100
AcDbEntity
  8
0-C_ハッチ
  6
JWW_DASHED1
 62
   120
370
     5
100
AcDbLine
 10
4939.325700768358
 20
-2981.497454775836
 30
0.0
 11
4957.395262825108
 21
-2963.427892719085
 31
0.0
  0
LINE
  5
35D
330
1F
100
AcDbEntity
  8
0-C_ハッチ
  6
JWW_DASHED1
 62
   120
370
     5
100
AcDbLine
 10
4896.899293897162
 20
-2981.497454775834
 30
0.0
 11
4957.395262825108
 21
-2921.001485847886
 31
0.0
  0
LINE
  5
35E
330
1F
100
AcDbEntity
  8
0-C_ハッチ
  6
JWW_HOJO
 62
   120
370
     5
100
AcDbLine
 10
895.7828896110763
 20
-568.6652998524381
 30
0.0
 11
2964.39386705107
 21
-568.6652998524381
 31
0.0
  0
LINE
  5
35F
330
1F
100
AcDbEntity
  8
0-C_ハッチ
  6
JWW_HOJO
 62
   120
370
     5
100
AcDbLine
 10
895.7828896110763
 20
-691.0652998524369
 30
0.0
 11
2964.39386705107
 21
-691.0652998524369
 31
0.0
  0
LINE
  5
360
330
1F
100
AcDbEntity
  8
0-C_ハッチ
  6
JWW_HOJO
 62
   120
370
     5
100
AcDbLine
 10
2964.39386705107
 20
-568.6652998524381
 30
0.0
 11
2964.39386705107
 21
-813.4652998524372
 31
0.0
  0
LINE
  5
361
330
1F
100
AcDbEntity
  8
0-C_ハッチ
  6
JWW_HOJO
 62
   120
370
     5
100
AcDbLine
 10
895.7828896110763
 20
-568.6652998524381
 30
0.0
 11
895.7828896110763
 21
-813.4652998524372
 31
0.0
  0
LINE
  5
362
330
1F
100
AcDbEntity
  8
0-C_ハッチ
  6
JWW_HOJO
 62
   120
370
     5
100
AcDbLine
 10
2964.39386705107
 20
-813.4652998524372
 30
0.0
 11
895.7828896110763
 21
-813.4652998524372
 31
0.0
  0
LWPOLYLINE
  5
363
330
1F
100
AcDbEntity
  8
0-C_ハッチ
  6
Continuous
 62
   120
370
     5
100
AcDbPolyline
 90
        4
 70
     1
 43
3.0
 10
2976.061359865023
 20
-2379.124466361125
 42
0.4142135623731
 10
2974.561359865023
 20
-2377.624466361125
 42
0.4142135623731
 10
2973.061359865023
 20
-2379.124466361125
 42
0.4142135623731
 10
2974.561359865023
 20
-2380.624466361125
 42
0.4142135623731
  0
LINE
  5
364
330
1F
100
AcDbEntity
  8
0-C_ハッチ
  6
JWW_CENTER1
 62
   120
370
     5
100
AcDbLine
 10
1882.209904260573
 20
-1252.573822281599
 30
0.0
 11
1882.209904260573
 21
-1965.07850369544
 31
0.0
  0
LINE
  5
365
330
1F
100
AcDbEntity
  8
0-C_ハッチ
  6
JWW_CENTER1
 62
   120
370
     5
100
AcDbLine
 10
1882.209904260573
 20
-1965.07850369544
 30
0.0
 11
2512.336009099402
 21
-2509.012792199846
 31
0.0
  0
MTEXT
  5
366
330
1F
100
AcDbEntity
  8
0-C_ハッチ
  6
Continuous
 62
     7
370
     5
100
AcDbMText
 10
1769.681294854978
 20
-1220.039952374471
 30
0.0
 40
45.71999999999971
 41
299.9999999999981
 46
0.0
 71
     7
 72
     1
  1
{\fＭＳ ゴシック|b0|i0|c128|p49;枠センター}
 73
     1
 44
1.0
  0
LINE
  5
367
330
1F
100
AcDbEntity
  8
0-C_ハッチ
  6
Continuous
 62
    40
370
     5
100
AcDbLine
 10
1394.05037141548
 20
-1179.081232507224
 30
0.0
 11
1394.05037141548
 21
-2216.361239910093
 31
0.0
  0
LINE
  5
368
330
1F
100
AcDbEntity
  8
0-C_ハッチ
  6
Continuous
 62
    40
370
     5
100
AcDbLine
 10
1303.224750977797
 20
-1161.61879786374
 30
0.0
 11
1303.224750977797
 21
-2198.898588734672
 31
0.0
  0
LINE
  5
369
330
1F
100
AcDbEntity
  8
0-C_ハッチ
  6
Continuous
 62
    40
370
     5
100
AcDbLine
 10
1104.161743932361
 20
-1049.868830163475
 30
0.0
 11
1104.161743932361
 21
-1995.706377590153
 31
0.0
  0
LINE
  5
36A
330
1F
100
AcDbEntity
  8
0-C_ハッチ
  6
Continuous
 62
    40
370
     5
100
AcDbLine
 10
1394.05037141548
 20
-2216.361239910093
 30
0.0
 11
1303.224750977797
 21
-2198.898588734672
 31
0.0
  0
LINE
  5
36B
330
1F
100
AcDbEntity
  8
0-C_ハッチ
  6
Continuous
 62
    40
370
     5
100
AcDbLine
 10
1303.224750977797
 20
-2198.898588698614
 30
0.0
 11
1104.161743932361
 21
-1995.706377590153
 31
0.0
  0
MTEXT
  5
36C
330
1F
100
AcDbEntity
  8
0-C_ハッチ
  6
Continuous
 62
     7
370
   211
100
AcDbMText
 10
2824.685219498693
 20
-2517.588817530308
 30
0.0
 40
68.58
 41
225.0
 46
0.0
 71
     7
 72
     1
  1
{\fＭＳ ゴシック|b0|i0|c128|p49;6.5㎜}
 73
     1
 44
1.0
  0
LINE
  5
36D
330
1F
100
AcDbEntity
  8
0-C_ハッチ
  6
JWW_DASHED1
 62
     7
370
     5
100
AcDbLine
 10
2348.140335500141
 20
-1725.238706046044
 30
0.0
 11
2912.846186642155
 21
-2212.701252029235
 31
0.0
  0
LINE
  5
36E
330
1F
100
AcDbEntity
  8
0-C_ハッチ
  6
Continuous
 62
   120
370
     5
100
AcDbLine
 10
2974.561359865023
 20
-2379.124466361125
 30
0.0
 11
3054.599742812379
 21
-2335.290461530315
 31
0.0
  0
LINE
  5
36F
330
1F
100
AcDbEntity
  8
0-C_ハッチ
  6
Continuous
 62
   120
370
     5
100
AcDbLine
 10
3054.599742812379
 20
-2335.290461530315
 30
0.0
 11
2913.080497618184
 21
-2213.129090455146
 31
0.0
  0
LWPOLYLINE
  5
370
330
1F
100
AcDbEntity
  8
0-C_ハッチ
  6
Continuous
 62
   120
370
     5
100
AcDbPolyline
 90
        4
 70
     1
 43
3.0
 10
3056.099742812379
 20
-2335.290461530315
 42
0.4142135623731
 10
3054.599742812379
 20
-2333.790461530315
 42
0.4142135623731
 10
3053.099742812379
 20
-2335.290461530315
 42
0.4142135623731
 10
3054.599742812379
 20
-2336.790461530315
 42
0.4142135623731
  0
LINE
  5
371
330
1F
100
AcDbEntity
  8
0-C_ハッチ
  6
Continuous
 62
   120
370
     5
100
AcDbLine
 10
2974.561359865023
 20
-2379.124466361125
 30
0.0
 11
2833.04211467083
 21
-2256.963095285954
 31
0.0
  0
LINE
  5
372
330
1F
100
AcDbEntity
  8
0-C_ハッチ
  6
Continuous
 62
    40
370
     5
100
AcDbLine
 10
2348.140335500141
 20
-1725.238706046044
 30
0.0
 11
2348.140335500141
 21
-1040.438115401503
 31
0.0
  0
LINE
  5
373
330
1F
100
AcDbEntity
  8
0-C_ハッチ
  6
Continuous
 62
    40
370
     5
100
AcDbLine
 10
1394.053528379936
 20
-2216.367372759472
 30
0.0
 11
2348.140335500141
 21
-1725.238706046044
 31
0.0
  0
MTEXT
  5
374
330
1F
100
AcDbEntity
  8
0-C_ハッチ
  6
Continuous
 62
     7
370
     5
100
AcDbMText
 10
895.7828896110775
 20
-687.8612998524367
 30
0.0
 40
64.00799999999991
 41
1973.999999999997
 46
0.0
 71
     7
 72
     1
  1
{\fＭＳ ゴシック|b0|i0|c128|p49;竪枠の後ろ面から6.5㎜内側に取り付けてください。}
 73
     1
 44
1.0
  0
ELLIPSE
  5
375
330
1F
100
AcDbEntity
  8
0-C_ハッチ
  6
Continuous
 62
     7
370
     5
100
AcDbEllipse
 10
2171.22801257489
 20
-2210.668167514086
 30
0.0
 11
79.69551291525261
 21
0.0
 31
0.0
210
0.0
220
0.0
230
1.0
 40
0.7
 41
0.0
 42
6.283185307179586
  0
LINE
  5
376
330
1F
100
AcDbEntity
  8
0-C_ハッチ
  6
Continuous
 62
     7
370
     5
100
AcDbLine
 10
2107.693885282666
 20
-1942.959596930095
 30
0.0
 11
2105.523841573012
 21
-1966.523783468144
 31
0.0
  0
LINE
  5
377
330
1F
100
AcDbEntity
  8
0-C_ハッチ
  6
Continuous
 62
     7
370
     5
100
AcDbLine
 10
2307.59931967388
 20
-1840.510069646202
 30
0.0
 11
2312.518925297222
 21
-1837.988850503128
 31
0.0
  0
LINE
  5
378
330
1F
100
AcDbEntity
  8
0-C_ハッチ
  6
Continuous
 62
     7
370
     5
100
AcDbLine
 10
2312.518925297222
 20
-1837.988850503128
 30
0.0
 11
2335.788628400068
 21
-1834.919608710589
 31
0.0
  0
LINE
  5
379
330
1F
100
AcDbEntity
  8
0-C_ハッチ
  6
Continuous
 62
     7
370
     5
100
AcDbLine
 10
2335.788628400068
 20
-1834.919608710589
 30
0.0
 11
2452.851305614113
 21
-1925.068940852832
 31
0.0
  0
LINE
  5
37A
330
1F
100
AcDbEntity
  8
0-C_ハッチ
  6
Continuous
 62
     7
370
     5
100
AcDbLine
 10
2452.851305614113
 20
-1925.068940852832
 30
0.0
 11
2471.454942307884
 21
-1929.596033127385
 31
0.0
  0
LINE
  5
37B
330
1F
100
AcDbEntity
  8
0-C_ハッチ
  6
Continuous
 62
     7
370
     5
100
AcDbLine
 10
2471.454942307884
 20
-1929.596033127385
 30
0.0
 11
2481.997291810269
 21
-1939.827757722854
 31
0.0
  0
LINE
  5
37C
330
1F
100
AcDbEntity
  8
0-C_ハッチ
  6
Continuous
 62
     7
370
     5
100
AcDbLine
 10
2481.997291810269
 20
-1939.827757722854
 30
0.0
 11
2495.081332566201
 21
-1942.494250111369
 31
0.0
  0
LINE
  5
37D
330
1F
100
AcDbEntity
  8
0-C_ハッチ
  6
Continuous
 62
     7
370
     5
100
AcDbLine
 10
2495.081332566201
 20
-1942.494250111369
 30
0.0
 11
2588.858558900111
 21
-2023.4506204172
 31
0.0
  0
LINE
  5
37E
330
1F
100
AcDbEntity
  8
0-C_ハッチ
  6
Continuous
 62
     7
370
     5
100
AcDbLine
 10
2588.858558900111
 20
-2023.4506204172
 30
0.0
 11
2595.706479851809
 21
-2045.136687666982
 31
0.0
  0
LINE
  5
37F
330
1F
100
AcDbEntity
  8
0-C_ハッチ
  6
Continuous
 62
     7
370
     5
100
AcDbLine
 10
2595.706479851809
 20
-2045.136687666982
 30
0.0
 11
2627.05794225651
 21
-2068.300683814818
 31
0.0
  0
LINE
  5
380
330
1F
100
AcDbEntity
  8
0-C_ハッチ
  6
Continuous
 62
     7
370
     5
100
AcDbLine
 10
2627.05794225651
 20
-2068.300683814818
 30
0.0
 11
2640.979764763919
 21
-2092.640251536858
 31
0.0
  0
LINE
  5
381
330
1F
100
AcDbEntity
  8
0-C_ハッチ
  6
Continuous
 62
     7
370
     5
100
AcDbLine
 10
2640.979764763919
 20
-2092.640251536858
 30
0.0
 11
2783.04833752631
 21
-2211.733801478817
 31
0.0
  0
LINE
  5
382
330
1F
100
AcDbEntity
  8
0-C_ハッチ
  6
Continuous
 62
     7
370
     5
100
AcDbLine
 10
2783.04833752631
 20
-2211.733801478817
 30
0.0
 11
2779.886183847797
 21
-2236.259586667231
 31
0.0
  0
LINE
  5
383
330
1F
100
AcDbEntity
  8
0-C_ハッチ
  6
Continuous
 62
     7
370
     5
100
AcDbLine
 10
2779.886183847797
 20
-2236.259586667231
 30
0.0
 11
2560.534606678149
 21
-2370.546001590587
 31
0.0
  0
LINE
  5
384
330
1F
100
AcDbEntity
  8
0-C_ハッチ
  6
Continuous
 62
     7
370
     5
100
AcDbLine
 10
2560.534606678149
 20
-2370.546001590587
 30
0.0
 11
2531.218544487333
 21
-2366.205126782413
 31
0.0
  0
LINE
  5
385
330
1F
100
AcDbEntity
  8
0-C_ハッチ
  6
Continuous
 62
     7
370
     5
100
AcDbLine
 10
2531.218544487333
 20
-2366.205126782413
 30
0.0
 11
2518.925042151031
 21
-2359.694011417364
 31
0.0
  0
LINE
  5
386
330
1F
100
AcDbEntity
  8
0-C_ハッチ
  6
Continuous
 62
     7
370
     5
100
AcDbLine
 10
2307.59931967388
 20
-1840.510069646202
 30
0.0
 11
2107.693885282666
 21
-1942.959596930095
 31
0.0
  0
LINE
  5
387
330
1F
100
AcDbEntity
  8
0-C_ハッチ
  6
Continuous
 62
     7
370
     5
100
AcDbLine
 10
2466.013297867597
 20
-1928.681087267216
 30
0.0
 11
2182.526535544624
 21
-2075.959221602179
 31
0.0
  0
LINE
  5
388
330
1F
100
AcDbEntity
  8
0-C_ハッチ
  6
Continuous
 62
     7
370
     5
100
AcDbLine
 10
2581.231122972887
 20
-2058.425252680383
 30
0.0
 11
2327.354906275933
 21
-2201.610539699384
 31
0.0
  0
LINE
  5
389
330
1F
100
AcDbEntity
  8
0-C_ハッチ
  6
Continuous
 62
     7
370
     5
100
AcDbLine
 10
2627.802024733151
 20
-2076.749760021807
 30
0.0
 11
2365.647201518302
 21
-2223.795220947404
 31
0.0
  0
LINE
  5
38A
330
1F
100
AcDbEntity
  8
0-C_ハッチ
  6
Continuous
 62
     7
370
     5
100
AcDbLine
 10
2640.979764763919
 20
-2104.90304570746
 30
0.0
 11
2403.629265548187
 21
-2241.297891161847
 31
0.0
  0
LINE
  5
38B
330
1F
100
AcDbEntity
  8
0-C_ハッチ
  6
Continuous
 62
     7
370
     5
100
AcDbLine
 10
2327.354906275933
 20
-2201.610539699384
 30
0.0
 11
2430.372140930893
 21
-2265.482540124863
 31
0.0
  0
LINE
  5
38C
330
1F
100
AcDbEntity
  8
0-C_ハッチ
  6
Continuous
 62
     7
370
     5
100
AcDbLine
 10
2430.372140930893
 20
-2265.482540124863
 30
0.0
 11
2452.913509334383
 21
-2290.674849986801
 31
0.0
  0
LINE
  5
38D
330
1F
100
AcDbEntity
  8
0-C_ハッチ
  6
Continuous
 62
     7
370
     5
100
AcDbLine
 10
2113.352849049464
 20
-1971.143787628666
 30
0.0
 11
2138.963459245493
 21
-1994.429238508798
 31
0.0
  0
LINE
  5
38E
330
1F
100
AcDbEntity
  8
0-C_ハッチ
  6
Continuous
 62
     7
370
     5
100
AcDbLine
 10
2138.963459245493
 20
-1994.429238508798
 30
0.0
 11
2190.619318290573
 21
-2094.717777054975
 31
0.0
  0
LINE
  5
38F
330
1F
100
AcDbEntity
  8
0-C_ハッチ
  6
Continuous
 62
     7
370
     5
100
AcDbLine
 10
2190.619318290573
 20
-2094.717777054975
 30
0.0
 11
2325.370686338221
 21
-2215.764641921725
 31
0.0
  0
LINE
  5
390
330
1F
100
AcDbEntity
  8
0-C_ハッチ
  6
Continuous
 62
     7
370
     5
100
AcDbLine
 10
2325.370686338221
 20
-2215.764641921725
 30
0.0
 11
2470.68015166554
 21
-2310.33260352248
 31
0.0
  0
LINE
  5
391
330
1F
100
AcDbEntity
  8
0-C_ハッチ
  6
Continuous
 62
     7
370
     5
100
AcDbLine
 10
2470.68015166554
 20
-2310.33260352248
 30
0.0
 11
2518.925042151031
 21
-2359.694011417364
 31
0.0
  0
LINE
  5
392
330
1F
100
AcDbEntity
  8
0-C_ハッチ
  6
Continuous
 62
     7
370
     5
100
AcDbLine
 10
2451.254480997576
 20
-2308.596214229769
 30
0.0
 11
2315.4180910951
 21
-2224.353282804884
 31
0.0
  0
LINE
  5
393
330
1F
100
AcDbEntity
  8
0-C_ハッチ
  6
Continuous
 62
     7
370
     5
100
AcDbLine
 10
2315.4180910951
 20
-2224.353282804884
 30
0.0
 11
2184.929646358072
 21
-2103.228860135016
 31
0.0
  0
LINE
  5
394
330
1F
100
AcDbEntity
  8
0-C_ハッチ
  6
Continuous
 62
     7
370
     5
100
AcDbLine
 10
2184.929646358072
 20
-2103.228860135016
 30
0.0
 11
2135.350919136678
 21
-2002.025572575889
 31
0.0
  0
LINE
  5
395
330
1F
100
AcDbEntity
  8
0-C_ハッチ
  6
Continuous
 62
     7
370
     5
100
AcDbLine
 10
2126.220357867749
 20
-2007.777251381445
 30
0.0
 11
1927.488132884148
 21
-2121.119122517847
 31
0.0
  0
LINE
  5
396
330
1F
100
AcDbEntity
  8
0-C_ハッチ
  6
Continuous
 62
     7
370
     5
100
AcDbLine
 10
2177.875429523965
 20
-2108.050238997548
 30
0.0
 11
2034.798999015436
 21
-2185.006870720608
 31
0.0
  0
LINE
  5
397
330
1F
100
AcDbEntity
  8
0-C_ハッチ
  6
Continuous
 62
     7
370
     5
100
AcDbLine
 10
2307.248144240459
 20
-2232.383861830567
 30
0.0
 11
2164.170926343067
 21
-2309.355847636475
 31
0.0
  0
LINE
  5
398
330
1F
100
AcDbEntity
  8
0-C_ハッチ
  6
Continuous
 62
     7
370
     5
100
AcDbLine
 10
2426.707608757171
 20
-2317.697246529199
 30
0.0
 11
2226.57904855432
 21
-2425.361435990432
 31
0.0
  0
LINE
  5
399
330
1F
100
AcDbEntity
  8
0-C_ハッチ
  6
Continuous
 62
     7
370
     5
100
AcDbLine
 10
2210.633168440076
 20
-2444.153868474327
 30
0.0
 11
2144.064164307593
 21
-2308.208622061378
 31
0.0
  0
LINE
  5
39A
330
1F
100
AcDbEntity
  8
0-C_ハッチ
  6
Continuous
 62
     7
370
     5
100
AcDbLine
 10
1906.884528475386
 20
-2129.831777147117
 30
0.0
 11
2009.622240083564
 21
-2178.681579127506
 31
0.0
  0
LINE
  5
39B
330
1F
100
AcDbEntity
  8
0-C_ハッチ
  6
Continuous
 62
     7
370
     5
100
AcDbLine
 10
2009.622240083564
 20
-2178.681579127506
 30
0.0
 11
2144.064164307593
 21
-2308.208622061378
 31
0.0
  0
LINE
  5
39C
330
1F
100
AcDbEntity
  8
0-C_ハッチ
  6
Continuous
 62
     7
370
     5
100
AcDbLine
 10
2173.286527223576
 20
-2418.775537993229
 30
0.0
 11
2136.002089727345
 21
-2351.632330531551
 31
0.0
  0
LINE
  5
39D
330
1F
100
AcDbEntity
  8
0-C_ハッチ
  6
Continuous
 62
     7
370
     5
100
AcDbLine
 10
2136.002089727345
 20
-2351.632330531551
 30
0.0
 11
1995.917736902666
 21
-2204.401045834006
 31
0.0
  0
LINE
  5
39E
330
1F
100
AcDbEntity
  8
0-C_ハッチ
  6
Continuous
 62
     7
370
     5
100
AcDbLine
 10
1995.917736902666
 20
-2204.401045834006
 30
0.0
 11
1961.377349598073
 21
-2187.905839671271
 31
0.0
  0
LINE
  5
39F
330
1F
100
AcDbEntity
  8
0-C_ハッチ
  6
Continuous
 62
     7
370
     5
100
AcDbLine
 10
2493.260170405965
 20
-1944.216845372166
 30
0.0
 11
2199.748173128522
 21
-2096.703328373096
 31
0.0
  0
LINE
  5
3A0
330
1F
100
AcDbEntity
  8
0-C_ハッチ
  6
Continuous
 62
     7
370
     5
100
AcDbLine
 10
2479.922056641309
 20
-1940.905891887635
 30
0.0
 11
2191.344210673898
 21
-2090.828965600901
 31
0.0
  0
LINE
  5
3A1
330
1F
100
AcDbEntity
  8
0-C_ハッチ
  6
Continuous
 62
     7
370
     5
100
AcDbLine
 10
2307.261555440194
 20
-2182.270332985151
 30
0.0
 11
2584.957434122774
 21
-2025.650840972546
 31
0.0
  0
LINE
  5
3A2
330
1F
100
AcDbEntity
  8
0-C_ハッチ
  6
Continuous
 62
     7
370
     5
100
AcDbLine
 10
2450.504741802775
 20
-1926.288036717574
 30
0.0
 11
2182.938871741901
 21
-2065.294887800731
 31
0.0
  0
LINE
  5
3A3
330
1F
100
AcDbEntity
  8
0-C_ハッチ
  6
Continuous
 62
     7
370
     5
100
AcDbLine
 10
2518.925042151031
 20
-2359.694011417364
 30
0.0
 11
2518.925042151031
 21
-2365.694011417365
 31
0.0
  0
LINE
  5
3A4
330
1F
100
AcDbEntity
  8
0-C_ハッチ
  6
Continuous
 62
     7
370
     5
100
AcDbLine
 10
2560.534606678149
 20
-2370.546001590587
 30
0.0
 11
2560.534606678149
 21
-2376.546001590589
 31
0.0
  0
LINE
  5
3A5
330
1F
100
AcDbEntity
  8
0-C_ハッチ
  6
Continuous
 62
     7
370
     5
100
AcDbLine
 10
2560.534606678149
 20
-2376.546001590589
 30
0.0
 11
2531.218544487333
 21
-2372.205072898516
 31
0.0
  0
LINE
  5
3A6
330
1F
100
AcDbEntity
  8
0-C_ハッチ
  6
Continuous
 62
     7
370
     5
100
AcDbLine
 10
2531.218544487333
 20
-2366.205126782413
 30
0.0
 11
2531.218544487333
 21
-2372.205072898516
 31
0.0
  0
LINE
  5
3A7
330
1F
100
AcDbEntity
  8
0-C_ハッチ
  6
Continuous
 62
     7
370
     5
100
AcDbLine
 10
2531.218544487333
 20
-2372.205072898516
 30
0.0
 11
2518.924980625153
 21
-2365.693911407045
 31
0.0
  0
LINE
  5
3A8
330
1F
100
AcDbEntity
  8
0-C_ハッチ
  6
Continuous
 62
     7
370
     5
100
AcDbLine
 10
2560.534606678149
 20
-2376.546001590589
 30
0.0
 11
2779.886183847797
 21
-2242.259586667233
 31
0.0
  0
LINE
  5
3A9
330
1F
100
AcDbEntity
  8
0-C_ハッチ
  6
Continuous
 62
     7
370
     5
100
AcDbLine
 10
2779.886183847797
 20
-2242.259586667233
 30
0.0
 11
2779.886183847797
 21
-2236.259586667231
 31
0.0
  0
LINE
  5
3AA
330
1F
100
AcDbEntity
  8
0-C_ハッチ
  6
Continuous
 62
     7
370
     5
100
AcDbLine
 10
2783.04833752631
 20
-2211.733801478817
 30
0.0
 11
2783.04833752631
 21
-2217.733801478814
 31
0.0
  0
LINE
  5
3AB
330
1F
100
AcDbEntity
  8
0-C_ハッチ
  6
Continuous
 62
     7
370
     5
100
AcDbLine
 10
2783.04833752631
 20
-2217.733801478814
 30
0.0
 11
2779.886183847797
 21
-2242.259586667233
 31
0.0
  0
ELLIPSE
  5
3AC
330
1F
100
AcDbEntity
  8
0-C_ハッチ
  6
Continuous
 62
     7
370
     5
100
AcDbEllipse
 10
2475.786492074389
 20
-2018.956619365979
 30
0.0
 11
45.7135540476191
 21
0.0
 31
0.0
210
0.0
220
0.0
230
1.0
 40
0.7
 41
0.0
 42
6.283185307179586
  0
ARC
  5
3AD
330
1F
100
AcDbEntity
  8
0-C_ハッチ
  6
Continuous
 62
     7
370
     5
100
AcDbCircle
 10
2249.661208253662
 20
-1951.576514707258
 30
0.0
 40
12.0
100
AcDbArc
 50
117.3949267100002
 51
230.1598717470478
  0
LINE
  5
3AE
330
1F
100
AcDbEntity
  8
0-C_ハッチ
  6
Continuous
 62
     7
370
     5
100
AcDbLine
 10
2252.856331501901
 20
-1969.870741628993
 30
0.0
 11
2241.973436750243
 21
-1960.79053496506
 31
0.0
  0
ARC
  5
3AF
330
1F
100
AcDbEntity
  8
0-C_ハッチ
  6
Continuous
 62
     7
370
     5
100
AcDbCircle
 10
2260.54410300532
 20
-1960.656721371188
 30
0.0
 40
12.0
100
AcDbArc
 50
230.159871747048
 51
297.3949267103217
  0
LINE
  5
3B0
330
1F
100
AcDbEntity
  8
0-C_ハッチ
  6
Continuous
 62
     7
370
     5
100
AcDbLine
 10
2357.309362777587
 20
-1924.024947921852
 30
0.0
 11
2266.065557055235
 21
-1971.3109949351
 31
0.0
  0
ARC
  5
3B1
330
1F
100
AcDbEntity
  8
0-C_ハッチ
  6
Continuous
 62
     7
370
     5
100
AcDbCircle
 10
2351.787908727675
 20
-1913.370674357938
 30
0.0
 40
12.0
100
AcDbArc
 50
297.3949267103216
 51
50.15987174704777
  0
LINE
  5
3B2
330
1F
100
AcDbEntity
  8
0-C_ハッチ
  6
Continuous
 62
     7
370
     5
100
AcDbLine
 10
2348.592785479915
 20
-1895.076447436605
 30
0.0
 11
2359.475680231094
 21
-1904.156654100137
 31
0.0
  0
LINE
  5
3B3
330
1F
100
AcDbEntity
  8
0-C_ハッチ
  6
Continuous
 62
     7
370
     5
100
AcDbLine
 10
2335.383559926644
 20
-1893.636194130464
 30
0.0
 11
2244.139754203808
 21
-1940.922241143313
 31
0.0
  0
ARC
  5
3B4
330
1F
100
AcDbEntity
  8
0-C_ハッチ
  6
Continuous
 62
     7
370
     5
100
AcDbCircle
 10
2340.905013976497
 20
-1904.29046769441
 30
0.0
 40
12.0
100
AcDbArc
 50
50.15987174704691
 51
117.3949267100002
  0
ARC
  5
3B5
330
1F
100
AcDbEntity
  8
0-C_ハッチ
  6
Continuous
 62
     7
370
     5
100
AcDbCircle
 10
2553.9347207548
 20
-2217.842553801847
 30
0.0
 40
12.0
100
AcDbArc
 50
117.3949267100002
 51
230.1598717470478
  0
LINE
  5
3B6
330
1F
100
AcDbEntity
  8
0-C_ハッチ
  6
Continuous
 62
     7
370
     5
100
AcDbLine
 10
2557.129844003038
 20
-2236.136780723583
 30
0.0
 11
2546.24694925138
 21
-2227.056574059652
 31
0.0
  0
ARC
  5
3B7
330
1F
100
AcDbEntity
  8
0-C_ハッチ
  6
Continuous
 62
     7
370
     5
100
AcDbCircle
 10
2564.817615506458
 20
-2226.922760465779
 30
0.0
 40
12.0
100
AcDbArc
 50
230.159871747048
 51
297.3949267103217
  0
LINE
  5
3B8
330
1F
100
AcDbEntity
  8
0-C_ハッチ
  6
Continuous
 62
     7
370
     5
100
AcDbLine
 10
2661.582875278725
 20
-2190.290987016444
 30
0.0
 11
2570.339069556372
 21
-2237.577034029692
 31
0.0
  0
ARC
  5
3B9
330
1F
100
AcDbEntity
  8
0-C_ハッチ
  6
Continuous
 62
     7
370
     5
100
AcDbCircle
 10
2656.061421228811
 20
-2179.63671345253
 30
0.0
 40
12.0
100
AcDbArc
 50
297.3949267103216
 51
50.15987174704777
  0
LINE
  5
3BA
330
1F
100
AcDbEntity
  8
0-C_ハッチ
  6
Continuous
 62
     7
370
     5
100
AcDbLine
 10
2652.866297981053
 20
-2161.342486531195
 30
0.0
 11
2663.749192732231
 21
-2170.422693194727
 31
0.0
  0
LINE
  5
3BB
330
1F
100
AcDbEntity
  8
0-C_ハッチ
  6
Continuous
 62
     7
370
     5
100
AcDbLine
 10
2639.657072427779
 20
-2159.902233225056
 30
0.0
 11
2548.413266704947
 21
-2207.188280237905
 31
0.0
  0
ARC
  5
3BC
330
1F
100
AcDbEntity
  8
0-C_ハッチ
  6
Continuous
 62
     7
370
     5
100
AcDbCircle
 10
2645.178526477633
 20
-2170.556506789
 30
0.0
 40
12.0
100
AcDbArc
 50
50.15987174704691
 51
117.3949267100002
  0
ELLIPSE
  5
3BD
330
1F
100
AcDbEntity
  8
0-C_ハッチ
  6
Continuous
 62
     7
370
     5
100
AcDbEllipse
 10
2171.53598978297
 20
-2232.993290992567
 30
0.0
 11
79.69551291525261
 21
0.0
 31
0.0
210
0.0
220
0.0
230
1.0
 40
0.7
 41
0.2111186597640594
 42
2.949786527099673
  0
LINE
  5
3BE
330
1F
100
AcDbEntity
  8
0-C_ハッチ
  6
Continuous
 62
     7
370
     5
100
AcDbLine
 10
2340.905013976497
 20
-1892.290467694411
 30
0.0
 11
2340.905013976497
 21
-1898.290467694412
 31
0.0
  0
ARC
  5
3BF
330
1F
100
AcDbEntity
  8
0-C_ハッチ
  6
Continuous
 62
     7
370
     5
100
AcDbCircle
 10
2340.905013976497
 20
-1910.290467694411
 30
0.0
 40
12.0
100
AcDbArc
 50
50.15987174704691
 51
117.3949267100002
  0
LINE
  5
3C0
330
1F
100
AcDbEntity
  8
0-C_ハッチ
  6
Continuous
 62
     7
370
     5
100
AcDbLine
 10
2348.592785479915
 20
-1901.076447436606
 30
0.0
 11
2359.475680231094
 21
-1910.156654100138
 31
0.0
  0
LINE
  5
3C1
330
1F
100
AcDbEntity
  8
0-C_ハッチ
  6
Continuous
 62
     7
370
     5
100
AcDbLine
 10
2335.383559926644
 20
-1899.636194130465
 30
0.0
 11
2244.139754203808
 21
-1946.922241143315
 31
0.0
  0
ARC
  5
3C2
330
1F
100
AcDbEntity
  8
0-C_ハッチ
  6
Continuous
 62
     7
370
     5
100
AcDbCircle
 10
2351.787908727675
 20
-1919.37067435794
 30
0.0
 40
12.0
100
AcDbArc
 50
20.75540117989427
 51
50.15987174704777
  0
LINE
  5
3C3
330
1F
100
AcDbEntity
  8
0-C_ハッチ
  6
Continuous
 62
     7
370
     5
100
AcDbLine
 10
2335.383559926641
 20
-1893.636194130466
 30
0.0
 11
2335.383559926641
 21
-1899.636194130465
 31
0.0
  0
LINE
  5
3C4
330
1F
100
AcDbEntity
  8
0-C_ハッチ
  6
Continuous
 62
     7
370
     5
100
AcDbLine
 10
2337.85297684989
 20
-1892.685078025045
 30
0.0
 11
2337.85297684989
 21
-1898.685078025046
 31
0.0
  0
LINE
  5
3C5
330
1F
100
AcDbEntity
  8
0-C_ハッチ
  6
Continuous
 62
     7
370
     5
100
AcDbLine
 10
2339.304002224266
 20
-1892.39774885601
 30
0.0
 11
2339.304002224266
 21
-1898.397748856012
 31
0.0
  0
LINE
  5
3C6
330
1F
100
AcDbEntity
  8
0-C_ハッチ
  6
Continuous
 62
     7
370
     5
100
AcDbLine
 10
2342.656371192651
 20
-1892.418957769324
 30
0.0
 11
2342.656371192651
 21
-1898.418957769326
 31
0.0
  0
LINE
  5
3C7
330
1F
100
AcDbEntity
  8
0-C_ハッチ
  6
Continuous
 62
     7
370
     5
100
AcDbLine
 10
2344.282520319107
 20
-1892.775588150724
 30
0.0
 11
2344.282520319107
 21
-1898.775588150725
 31
0.0
  0
LINE
  5
3C8
330
1F
100
AcDbEntity
  8
0-C_ハッチ
  6
Continuous
 62
     7
370
     5
100
AcDbLine
 10
2348.592785479915
 20
-1895.076447436605
 30
0.0
 11
2348.592785479915
 21
-1901.076447436608
 31
0.0
  0
LINE
  5
3C9
330
1F
100
AcDbEntity
  8
0-C_ハッチ
  6
Continuous
 62
     7
370
     5
100
AcDbLine
 10
2244.139754203808
 20
-1940.922241143313
 30
0.0
 11
2244.139754203808
 21
-1946.922241143315
 31
0.0
  0
LINE
  5
3CA
330
1F
100
AcDbEntity
  8
0-C_ハッチ
  6
Continuous
 62
     7
370
     5
100
AcDbLine
 10
2239.892053051825
 20
-1944.607755374175
 30
0.0
 11
2239.892053051825
 21
-1950.607755374176
 31
0.0
  0
LINE
  5
3CB
330
1F
100
AcDbEntity
  8
0-C_ハッチ
  6
Continuous
 62
     7
370
     5
100
AcDbLine
 10
2238.691204466135
 20
-1946.712461160921
 30
0.0
 11
2238.691204466135
 21
-1952.712461160922
 31
0.0
  0
ARC
  5
3CC
330
1F
100
AcDbEntity
  8
0-C_ハッチ
  6
Continuous
 62
     7
370
     5
100
AcDbCircle
 10
2249.661208253662
 20
-1957.576514707259
 30
0.0
 40
12.0
100
AcDbArc
 50
117.3949267100002
 51
165.5224878140668
  0
LINE
  5
3CD
330
1F
100
AcDbEntity
  8
0-C_ハッチ
  6
Continuous
 62
     7
370
     5
100
AcDbLine
 10
2645.178526477635
 20
-2158.556506789
 30
0.0
 11
2645.178526477635
 21
-2164.556506789002
 31
0.0
  0
ARC
  5
3CE
330
1F
100
AcDbEntity
  8
0-C_ハッチ
  6
Continuous
 62
     7
370
     5
100
AcDbCircle
 10
2645.178526477635
 20
-2176.556506789001
 30
0.0
 40
12.0
100
AcDbArc
 50
50.15987174704691
 51
117.3949267100002
  0
LINE
  5
3CF
330
1F
100
AcDbEntity
  8
0-C_ハッチ
  6
Continuous
 62
     7
370
     5
100
AcDbLine
 10
2652.866297981053
 20
-2167.342486531196
 30
0.0
 11
2663.749192732232
 21
-2176.422693194728
 31
0.0
  0
LINE
  5
3D0
330
1F
100
AcDbEntity
  8
0-C_ハッチ
  6
Continuous
 62
     7
370
     5
100
AcDbLine
 10
2639.657072427782
 20
-2165.902233225055
 30
0.0
 11
2548.413266704947
 21
-2213.188280237905
 31
0.0
  0
ARC
  5
3D1
330
1F
100
AcDbEntity
  8
0-C_ハッチ
  6
Continuous
 62
     7
370
     5
100
AcDbCircle
 10
2656.061421228811
 20
-2185.636713452529
 30
0.0
 40
12.0
100
AcDbArc
 50
20.75540117989427
 51
50.15987174704777
  0
LINE
  5
3D2
330
1F
100
AcDbEntity
  8
0-C_ハッチ
  6
Continuous
 62
     7
370
     5
100
AcDbLine
 10
2639.657072427779
 20
-2159.902233225056
 30
0.0
 11
2639.657072427779
 21
-2165.902233225055
 31
0.0
  0
LINE
  5
3D3
330
1F
100
AcDbEntity
  8
0-C_ハッチ
  6
Continuous
 62
     7
370
     5
100
AcDbLine
 10
2642.126489351028
 20
-2158.951117119634
 30
0.0
 11
2642.126489351028
 21
-2164.951117119635
 31
0.0
  0
LINE
  5
3D4
330
1F
100
AcDbEntity
  8
0-C_ハッチ
  6
Continuous
 62
     7
370
     5
100
AcDbLine
 10
2643.577514725404
 20
-2158.6637879506
 30
0.0
 11
2643.577514725404
 21
-2164.663787950601
 31
0.0
  0
LINE
  5
3D5
330
1F
100
AcDbEntity
  8
0-C_ハッチ
  6
Continuous
 62
     7
370
     5
100
AcDbLine
 10
2646.92988369379
 20
-2158.684996863914
 30
0.0
 11
2646.92988369379
 21
-2164.684996863915
 31
0.0
  0
LINE
  5
3D6
330
1F
100
AcDbEntity
  8
0-C_ハッチ
  6
Continuous
 62
     7
370
     5
100
AcDbLine
 10
2648.556032820245
 20
-2159.041627245314
 30
0.0
 11
2648.556032820245
 21
-2165.041627245315
 31
0.0
  0
LINE
  5
3D7
330
1F
100
AcDbEntity
  8
0-C_ハッチ
  6
Continuous
 62
     7
370
     5
100
AcDbLine
 10
2652.866297981053
 20
-2161.342486531195
 30
0.0
 11
2652.866297981053
 21
-2167.342486531198
 31
0.0
  0
LINE
  5
3D8
330
1F
100
AcDbEntity
  8
0-C_ハッチ
  6
Continuous
 62
     7
370
     5
100
AcDbLine
 10
2548.413266704947
 20
-2207.188280237903
 30
0.0
 11
2548.413266704947
 21
-2213.188280237905
 31
0.0
  0
LINE
  5
3D9
330
1F
100
AcDbEntity
  8
0-C_ハッチ
  6
Continuous
 62
     7
370
     5
100
AcDbLine
 10
2544.165565552963
 20
-2210.873794468765
 30
0.0
 11
2544.165565552963
 21
-2216.873794468766
 31
0.0
  0
LINE
  5
3DA
330
1F
100
AcDbEntity
  8
0-C_ハッチ
  6
Continuous
 62
     7
370
     5
100
AcDbLine
 10
2542.964716967273
 20
-2212.978500255511
 30
0.0
 11
2542.964716967273
 21
-2218.978500255513
 31
0.0
  0
ARC
  5
3DB
330
1F
100
AcDbEntity
  8
0-C_ハッチ
  6
Continuous
 62
     7
370
     5
100
AcDbCircle
 10
2553.9347207548
 20
-2223.842553801849
 30
0.0
 40
12.0
100
AcDbArc
 50
117.3949267100002
 51
165.5224878140668
  0
LINE
  5
3DC
330
1F
100
AcDbEntity
  8
0-C_ハッチ
  6
Continuous
 62
     7
370
     5
100
AcDbLine
 10
2449.703146894868
 20
-2029.687100584993
 30
0.0
 11
2459.094632400368
 21
-2035.724484124243
 31
0.0
  0
LINE
  5
3DD
330
1F
100
AcDbEntity
  8
0-C_ハッチ
  6
Continuous
 62
     7
370
     5
100
AcDbLine
 10
2501.869837253911
 20
-2029.687100584993
 30
0.0
 11
2492.478351748415
 21
-2035.724484124243
 31
0.0
  0
LINE
  5
3DE
330
1F
100
AcDbEntity
  8
0-C_ハッチ
  6
Continuous
 62
     7
370
     5
100
AcDbLine
 10
2492.478351748415
 20
-2002.188754607715
 30
0.0
 11
2501.869837253911
 21
-2008.226138146965
 31
0.0
  0
LINE
  5
3DF
330
1F
100
AcDbEntity
  8
0-C_ハッチ
  6
Continuous
 62
     7
370
     5
100
AcDbLine
 10
2459.094632400368
 20
-2002.188754607715
 30
0.0
 11
2449.703146894868
 21
-2008.226138146965
 31
0.0
  0
LINE
  5
3E0
330
1F
100
AcDbEntity
  8
0-C_ハッチ
  6
Continuous
 62
     7
370
     5
100
AcDbLine
 10
2492.478351748415
 20
-2002.188754607715
 30
0.0
 11
2475.78649207439
 21
-2012.91923582673
 31
0.0
  0
LINE
  5
3E1
330
1F
100
AcDbEntity
  8
0-C_ハッチ
  6
Continuous
 62
     7
370
     5
100
AcDbLine
 10
2466.39500656889
 20
-2018.956619365979
 30
0.0
 11
2449.703146894868
 21
-2029.687100584993
 31
0.0
  0
LINE
  5
3E2
330
1F
100
AcDbEntity
  8
0-C_ハッチ
  6
Continuous
 62
     7
370
     5
100
AcDbLine
 10
2459.094632400368
 20
-2002.188754607715
 30
0.0
 11
2475.78649207439
 21
-2012.91923582673
 31
0.0
  0
LINE
  5
3E3
330
1F
100
AcDbEntity
  8
0-C_ハッチ
  6
Continuous
 62
     7
370
     5
100
AcDbLine
 10
2485.177977579891
 20
-2018.956619365979
 30
0.0
 11
2501.869837253911
 21
-2029.687100584993
 31
0.0
  0
LINE
  5
3E4
330
1F
100
AcDbEntity
  8
0-C_ハッチ
  6
Continuous
 62
     7
370
     5
100
AcDbLine
 10
2501.869837253911
 20
-2008.226138146965
 30
0.0
 11
2485.177977579891
 21
-2018.956619365979
 31
0.0
  0
LINE
  5
3E5
330
1F
100
AcDbEntity
  8
0-C_ハッチ
  6
Continuous
 62
     7
370
     5
100
AcDbLine
 10
2475.78649207439
 20
-2024.994002905228
 30
0.0
 11
2459.094632400368
 21
-2035.724484124243
 31
0.0
  0
LINE
  5
3E6
330
1F
100
AcDbEntity
  8
0-C_ハッチ
  6
Continuous
 62
     7
370
     5
100
AcDbLine
 10
2449.703146894868
 20
-2008.226138146965
 30
0.0
 11
2466.39500656889
 21
-2018.956619365979
 31
0.0
  0
LINE
  5
3E7
330
1F
100
AcDbEntity
  8
0-C_ハッチ
  6
Continuous
 62
     7
370
     5
100
AcDbLine
 10
2475.78649207439
 20
-2024.994002905228
 30
0.0
 11
2492.478351748415
 21
-2035.724484124243
 31
0.0
  0
LINE
  5
3E8
330
1F
100
AcDbEntity
  8
0-C_ハッチ
  6
Continuous
 62
     7
370
     5
100
AcDbLine
 10
2621.680983289445
 20
-2190.841831908886
 30
0.0
 11
2621.680983289445
 21
-1970.117081240038
 31
0.0
  0
LINE
  5
3E9
330
1F
100
AcDbEntity
  8
0-C_ハッチ
  6
Continuous
 62
     7
370
     5
100
AcDbLine
 10
2317.407470788307
 20
-1924.575792814296
 30
0.0
 11
2317.407470788307
 21
-1703.851042145448
 31
0.0
  0
ELLIPSE
  5
3EA
330
1F
100
AcDbEntity
  8
0-C_ハッチ
  6
Continuous
 62
     7
370
     5
100
AcDbEllipse
 10
2621.680983289233
 20
-1793.902992507799
 30
0.0
 11
26.15375705822504
 21
0.0
 31
0.0
210
0.0
220
0.0
230
1.0
 40
0.6
 41
0.0
 42
6.283185307179586
  0
LINE
  5
3EB
330
1F
100
AcDbEntity
  8
0-C_ハッチ
  6
Continuous
 62
     7
370
     5
100
AcDbLine
 10
2608.63931069947
 20
-1799.268233117306
 30
0.0
 11
2613.33505345222
 21
-1802.286924886931
 31
0.0
  0
LINE
  5
3EC
330
1F
100
AcDbEntity
  8
0-C_ハッチ
  6
Continuous
 62
     7
370
     5
100
AcDbLine
 10
2634.722655878992
 20
-1799.268233117306
 30
0.0
 11
2630.026913126243
 21
-1802.286924886931
 31
0.0
  0
LINE
  5
3ED
330
1F
100
AcDbEntity
  8
0-C_ハッチ
  6
Continuous
 62
     7
370
     5
100
AcDbLine
 10
2630.026913126243
 20
-1785.519060128668
 30
0.0
 11
2634.722655878992
 21
-1788.537751898293
 31
0.0
  0
LINE
  5
3EE
330
1F
100
AcDbEntity
  8
0-C_ハッチ
  6
Continuous
 62
     7
370
     5
100
AcDbLine
 10
2613.33505345222
 20
-1785.519060128668
 30
0.0
 11
2608.63931069947
 21
-1788.537751898293
 31
0.0
  0
LINE
  5
3EF
330
1F
100
AcDbEntity
  8
0-C_ハッチ
  6
Continuous
 62
     7
370
     5
100
AcDbLine
 10
2630.026913126243
 20
-1785.519060128668
 30
0.0
 11
2621.680983289233
 21
-1790.884300738175
 31
0.0
  0
LINE
  5
3F0
330
1F
100
AcDbEntity
  8
0-C_ハッチ
  6
Continuous
 62
     7
370
     5
100
AcDbLine
 10
2616.985240536482
 20
-1793.902992507799
 30
0.0
 11
2608.63931069947
 21
-1799.268233117306
 31
0.0
  0
LINE
  5
3F1
330
1F
100
AcDbEntity
  8
0-C_ハッチ
  6
Continuous
 62
     7
370
     5
100
AcDbLine
 10
2613.33505345222
 20
-1785.519060128668
 30
0.0
 11
2621.680983289233
 21
-1790.884300738175
 31
0.0
  0
LINE
  5
3F2
330
1F
100
AcDbEntity
  8
0-C_ハッチ
  6
Continuous
 62
     7
370
     5
100
AcDbLine
 10
2626.376726041982
 20
-1793.902992507799
 30
0.0
 11
2634.722655878992
 21
-1799.268233117306
 31
0.0
  0
LINE
  5
3F3
330
1F
100
AcDbEntity
  8
0-C_ハッチ
  6
Continuous
 62
     7
370
     5
100
AcDbLine
 10
2634.722655878992
 20
-1788.537751898293
 30
0.0
 11
2626.376726041982
 21
-1793.902992507799
 31
0.0
  0
LINE
  5
3F4
330
1F
100
AcDbEntity
  8
0-C_ハッチ
  6
Continuous
 62
     7
370
     5
100
AcDbLine
 10
2621.680983289233
 20
-1796.921684277424
 30
0.0
 11
2613.33505345222
 21
-1802.286924886931
 31
0.0
  0
LINE
  5
3F5
330
1F
100
AcDbEntity
  8
0-C_ハッチ
  6
Continuous
 62
     7
370
     5
100
AcDbLine
 10
2608.63931069947
 20
-1788.537751898293
 30
0.0
 11
2616.985240536482
 21
-1793.902992507799
 31
0.0
  0
LINE
  5
3F6
330
1F
100
AcDbEntity
  8
0-C_ハッチ
  6
Continuous
 62
     7
370
     5
100
AcDbLine
 10
2621.680983289233
 20
-1796.921684277424
 30
0.0
 11
2630.026913126243
 21
-1802.286924886931
 31
0.0
  0
LINE
  5
3F7
330
1F
100
AcDbEntity
  8
0-C_ハッチ
  6
Continuous
 62
     7
370
     5
100
AcDbLine
 10
2608.669914772364
 20
-1942.932252838867
 30
0.0
 11
2621.680983289445
 21
-1965.468084571214
 31
0.0
  0
LINE
  5
3F8
330
1F
100
AcDbEntity
  8
0-C_ハッチ
  6
Continuous
 62
     7
370
     5
100
AcDbLine
 10
2634.692051806529
 20
-1942.932252838867
 30
0.0
 11
2621.680983289445
 21
-1965.468084571214
 31
0.0
  0
LINE
  5
3F9
330
1F
100
AcDbEntity
  8
0-C_ハッチ
  6
Continuous
 62
     7
370
     5
100
AcDbLine
 10
2634.692051806529
 20
-1853.82560173691
 30
0.0
 11
2608.669914772364
 21
-1866.295950523413
 31
0.0
  0
LINE
  5
3FA
330
1F
100
AcDbEntity
  8
0-C_ハッチ
  6
Continuous
 62
     7
370
     5
100
AcDbLine
 10
2634.692051806529
 20
-1926.807290597125
 30
0.0
 11
2608.669914772364
 21
-1939.277639383627
 31
0.0
  0
LINE
  5
3FB
330
1F
100
AcDbEntity
  8
0-C_ハッチ
  6
Continuous
 62
     7
370
     5
100
AcDbLine
 10
2634.692051806529
 20
-1914.643675787088
 30
0.0
 11
2608.669914772364
 21
-1927.114024573591
 31
0.0
  0
LINE
  5
3FC
330
1F
100
AcDbEntity
  8
0-C_ハッチ
  6
Continuous
 62
     7
370
     5
100
AcDbLine
 10
2634.692051806529
 20
-1890.316446167016
 30
0.0
 11
2608.669914772364
 21
-1902.78679495352
 31
0.0
  0
LINE
  5
3FD
330
1F
100
AcDbEntity
  8
0-C_ハッチ
  6
Continuous
 62
     7
370
     5
100
AcDbLine
 10
2634.692051806529
 20
-1902.480060977053
 30
0.0
 11
2608.669914772364
 21
-1914.950409763554
 31
0.0
  0
LINE
  5
3FE
330
1F
100
AcDbEntity
  8
0-C_ハッチ
  6
Continuous
 62
     7
370
     5
100
AcDbLine
 10
2634.692051806529
 20
-1878.152831356982
 30
0.0
 11
2608.669914772364
 21
-1890.623180143484
 31
0.0
  0
LINE
  5
3FF
330
1F
100
AcDbEntity
  8
0-C_ハッチ
  6
Continuous
 62
     7
370
     5
100
AcDbLine
 10
2634.692051806529
 20
-1865.989216546945
 30
0.0
 11
2608.669914772364
 21
-1878.459565333448
 31
0.0
  0
LINE
  5
400
330
1F
100
AcDbEntity
  8
0-C_ハッチ
  6
Continuous
 62
     7
370
     5
100
AcDbLine
 10
2634.692051806529
 20
-1817.334757312101
 30
0.0
 11
2608.669914772364
 21
-1829.805106098605
 31
0.0
  0
LINE
  5
401
330
1F
100
AcDbEntity
  8
0-C_ハッチ
  6
Continuous
 62
     7
370
     5
100
AcDbLine
 10
2634.692051806529
 20
-1829.498372120371
 30
0.0
 11
2608.669914772364
 21
-1841.968720906875
 31
0.0
  0
LINE
  5
402
330
1F
100
AcDbEntity
  8
0-C_ハッチ
  6
Continuous
 62
     7
370
     5
100
AcDbLine
 10
2634.692051806529
 20
-1841.66198692864
 30
0.0
 11
2608.669914772364
 21
-1854.132335715143
 31
0.0
  0
ELLIPSE
  5
403
330
1F
100
AcDbEntity
  8
0-C_ハッチ
  6
Continuous
 62
     7
370
     5
100
AcDbEllipse
 10
2622.008835540278
 20
-1795.346497056828
 30
0.0
 11
26.15375705822504
 21
0.0
 31
0.0
210
0.0
220
0.0
230
1.0
 40
0.6
 41
3.230595867857267
 42
6.465060446500363
  0
LINE
  5
404
330
1F
100
AcDbEntity
  8
0-C_ハッチ
  6
Continuous
 62
     7
370
     5
100
AcDbLine
 10
2608.669914772364
 20
-1808.844392906289
 30
0.0
 11
2608.669914772364
 21
-1942.932252838867
 31
0.0
  0
LINE
  5
405
330
1F
100
AcDbEntity
  8
0-C_ハッチ
  6
Continuous
 62
     7
370
     5
100
AcDbLine
 10
2634.692051806529
 20
-1809.070046598603
 30
0.0
 11
2634.692051806529
 21
-1942.932252838867
 31
0.0
  0
ELLIPSE
  5
406
330
1F
100
AcDbEntity
  8
0-C_ハッチ
  6
Continuous
 62
     7
370
     5
100
AcDbEllipse
 10
2317.407470788095
 20
-1527.636953413209
 30
0.0
 11
26.15375705822504
 21
0.0
 31
0.0
210
0.0
220
0.0
230
1.0
 40
0.6
 41
0.0
 42
6.283185307179586
  0
LINE
  5
407
330
1F
100
AcDbEntity
  8
0-C_ハッチ
  6
Continuous
 62
     7
370
     5
100
AcDbLine
 10
2304.365798198332
 20
-1533.002194022716
 30
0.0
 11
2309.061540951082
 21
-1536.02088579234
 31
0.0
  0
LINE
  5
408
330
1F
100
AcDbEntity
  8
0-C_ハッチ
  6
Continuous
 62
     7
370
     5
100
AcDbLine
 10
2330.449143377854
 20
-1533.002194022716
 30
0.0
 11
2325.753400625105
 21
-1536.02088579234
 31
0.0
  0
LINE
  5
409
330
1F
100
AcDbEntity
  8
0-C_ハッチ
  6
Continuous
 62
     7
370
     5
100
AcDbLine
 10
2325.753400625105
 20
-1519.253021034078
 30
0.0
 11
2330.449143377854
 21
-1522.271712803702
 31
0.0
  0
LINE
  5
40A
330
1F
100
AcDbEntity
  8
0-C_ハッチ
  6
Continuous
 62
     7
370
     5
100
AcDbLine
 10
2309.061540951082
 20
-1519.253021034078
 30
0.0
 11
2304.365798198332
 21
-1522.271712803702
 31
0.0
  0
LINE
  5
40B
330
1F
100
AcDbEntity
  8
0-C_ハッチ
  6
Continuous
 62
     7
370
     5
100
AcDbLine
 10
2325.753400625105
 20
-1519.253021034078
 30
0.0
 11
2317.407470788095
 21
-1524.618261643584
 31
0.0
  0
LINE
  5
40C
330
1F
100
AcDbEntity
  8
0-C_ハッチ
  6
Continuous
 62
     7
370
     5
100
AcDbLine
 10
2312.711728035343
 20
-1527.636953413209
 30
0.0
 11
2304.365798198332
 21
-1533.002194022716
 31
0.0
  0
LINE
  5
40D
330
1F
100
AcDbEntity
  8
0-C_ハッチ
  6
Continuous
 62
     7
370
     5
100
AcDbLine
 10
2309.061540951082
 20
-1519.253021034078
 30
0.0
 11
2317.407470788095
 21
-1524.618261643584
 31
0.0
  0
LINE
  5
40E
330
1F
100
AcDbEntity
  8
0-C_ハッチ
  6
Continuous
 62
     7
370
     5
100
AcDbLine
 10
2322.103213540844
 20
-1527.636953413209
 30
0.0
 11
2330.449143377854
 21
-1533.002194022716
 31
0.0
  0
LINE
  5
40F
330
1F
100
AcDbEntity
  8
0-C_ハッチ
  6
Continuous
 62
     7
370
     5
100
AcDbLine
 10
2330.449143377854
 20
-1522.271712803702
 30
0.0
 11
2322.103213540844
 21
-1527.636953413209
 31
0.0
  0
LINE
  5
410
330
1F
100
AcDbEntity
  8
0-C_ハッチ
  6
Continuous
 62
     7
370
     5
100
AcDbLine
 10
2317.407470788095
 20
-1530.655645182833
 30
0.0
 11
2309.061540951082
 21
-1536.02088579234
 31
0.0
  0
LINE
  5
411
330
1F
100
AcDbEntity
  8
0-C_ハッチ
  6
Continuous
 62
     7
370
     5
100
AcDbLine
 10
2304.365798198332
 20
-1522.271712803702
 30
0.0
 11
2312.711728035343
 21
-1527.636953413209
 31
0.0
  0
LINE
  5
412
330
1F
100
AcDbEntity
  8
0-C_ハッチ
  6
Continuous
 62
     7
370
     5
100
AcDbLine
 10
2317.407470788095
 20
-1530.655645182833
 30
0.0
 11
2325.753400625105
 21
-1536.02088579234
 31
0.0
  0
LINE
  5
413
330
1F
100
AcDbEntity
  8
0-C_ハッチ
  6
Continuous
 62
     7
370
     5
100
AcDbLine
 10
2304.396402271226
 20
-1676.666213744277
 30
0.0
 11
2317.407470788307
 21
-1699.202045476623
 31
0.0
  0
LINE
  5
414
330
1F
100
AcDbEntity
  8
0-C_ハッチ
  6
Continuous
 62
     7
370
     5
100
AcDbLine
 10
2330.41853930539
 20
-1676.666213744277
 30
0.0
 11
2317.407470788307
 21
-1699.202045476623
 31
0.0
  0
LINE
  5
415
330
1F
100
AcDbEntity
  8
0-C_ハッチ
  6
Continuous
 62
     7
370
     5
100
AcDbLine
 10
2330.41853930539
 20
-1587.559562642318
 30
0.0
 11
2304.396402271226
 21
-1600.029911428823
 31
0.0
  0
LINE
  5
416
330
1F
100
AcDbEntity
  8
0-C_ハッチ
  6
Continuous
 62
     7
370
     5
100
AcDbLine
 10
2330.41853930539
 20
-1660.541251502535
 30
0.0
 11
2304.396402271226
 21
-1673.011600289037
 31
0.0
  0
LINE
  5
417
330
1F
100
AcDbEntity
  8
0-C_ハッチ
  6
Continuous
 62
     7
370
     5
100
AcDbLine
 10
2330.41853930539
 20
-1648.377636692498
 30
0.0
 11
2304.396402271226
 21
-1660.847985479001
 31
0.0
  0
LINE
  5
418
330
1F
100
AcDbEntity
  8
0-C_ハッチ
  6
Continuous
 62
     7
370
     5
100
AcDbLine
 10
2330.41853930539
 20
-1624.050407072426
 30
0.0
 11
2304.396402271226
 21
-1636.52075585893
 31
0.0
  0
LINE
  5
419
330
1F
100
AcDbEntity
  8
0-C_ハッチ
  6
Continuous
 62
     7
370
     5
100
AcDbLine
 10
2330.41853930539
 20
-1636.214021882463
 30
0.0
 11
2304.396402271226
 21
-1648.684370668963
 31
0.0
  0
LINE
  5
41A
330
1F
100
AcDbEntity
  8
0-C_ハッチ
  6
Continuous
 62
     7
370
     5
100
AcDbLine
 10
2330.41853930539
 20
-1611.886792262391
 30
0.0
 11
2304.396402271226
 21
-1624.357141048893
 31
0.0
  0
LINE
  5
41B
330
1F
100
AcDbEntity
  8
0-C_ハッチ
  6
Continuous
 62
     7
370
     5
100
AcDbLine
 10
2330.41853930539
 20
-1599.723177452354
 30
0.0
 11
2304.396402271226
 21
-1612.193526238858
 31
0.0
  0
LINE
  5
41C
330
1F
100
AcDbEntity
  8
0-C_ハッチ
  6
Continuous
 62
     7
370
     5
100
AcDbLine
 10
2330.41853930539
 20
-1551.068718217511
 30
0.0
 11
2304.396402271226
 21
-1563.539067004013
 31
0.0
  0
LINE
  5
41D
330
1F
100
AcDbEntity
  8
0-C_ハッチ
  6
Continuous
 62
     7
370
     5
100
AcDbLine
 10
2330.41853930539
 20
-1563.232333025781
 30
0.0
 11
2304.396402271226
 21
-1575.702681812283
 31
0.0
  0
LINE
  5
41E
330
1F
100
AcDbEntity
  8
0-C_ハッチ
  6
Continuous
 62
     7
370
     5
100
AcDbLine
 10
2330.41853930539
 20
-1575.395947834048
 30
0.0
 11
2304.396402271226
 21
-1587.866296620553
 31
0.0
  0
ELLIPSE
  5
41F
330
1F
100
AcDbEntity
  8
0-C_ハッチ
  6
Continuous
 62
     7
370
     5
100
AcDbEllipse
 10
2317.73532303914
 20
-1529.080457962238
 30
0.0
 11
26.15375705822504
 21
0.0
 31
0.0
210
0.0
220
0.0
230
1.0
 40
0.6
 41
3.230595867857267
 42
6.465060446500363
  0
LINE
  5
420
330
1F
100
AcDbEntity
  8
0-C_ハッチ
  6
Continuous
 62
     7
370
     5
100
AcDbLine
 10
2304.396402271226
 20
-1542.578353811698
 30
0.0
 11
2304.396402271226
 21
-1676.666213744277
 31
0.0
  0
LINE
  5
421
330
1F
100
AcDbEntity
  8
0-C_ハッチ
  6
Continuous
 62
     7
370
     5
100
AcDbLine
 10
2330.41853930539
 20
-1542.804007504013
 30
0.0
 11
2330.41853930539
 21
-1676.666213744277
 31
0.0
  0
LINE
  5
422
330
1F
100
AcDbEntity
  8
0-C_ハッチ
  6
Continuous
 62
     7
370
     5
100
AcDbLine
 10
1865.961535155659
 20
-2111.295334607956
 30
0.0
 11
1956.41804211516
 21
-2203.180496252568
 31
0.0
  0
ARC
  5
423
330
1F
100
AcDbEntity
  8
0-C_ハッチ
  6
Continuous
 62
     7
370
     5
100
AcDbCircle
 10
2172.790129672807
 20
-2417.509257500949
 30
0.0
 40
18.0
100
AcDbArc
 50
224.5510943265456
 51
302.2629554764285
  0
LINE
  5
424
330
1F
100
AcDbEntity
  8
0-C_ハッチ
  6
Continuous
 62
     7
370
     5
100
AcDbLine
 10
2182.398632896107
 20
-2432.730186047126
 30
0.0
 11
2264.560255509802
 21
-2516.18945535346
 31
0.0
  0
ARC
  5
425
330
1F
100
AcDbEntity
  8
0-C_ハッチ
  6
Continuous
 62
     7
370
     5
100
AcDbCircle
 10
2172.790129672805
 20
-2423.509257500948
 30
0.0
 40
18.0
100
AcDbArc
 50
224.5510943265451
 51
302.2629554764407
  0
LINE
  5
426
330
1F
100
AcDbEntity
  8
0-C_ハッチ
  6
Continuous
 62
     7
370
     5
100
AcDbLine
 10
2182.398632896107
 20
-2438.730186047123
 30
0.0
 11
2264.551996844144
 21
-2522.181066251836
 31
0.0
  0
LINE
  5
427
330
1F
100
AcDbEntity
  8
0-C_ハッチ
  6
Continuous
 62
     7
370
     5
100
AcDbLine
 10
2182.398632896107
 20
-2432.730186047126
 30
0.0
 11
2182.398632896107
 21
-2438.731068987456
 31
0.0
  0
LINE
  5
428
330
1F
100
AcDbEntity
  8
0-C_ハッチ
  6
Continuous
 62
     7
370
     5
100
AcDbLine
 10
1949.322112502352
 20
-2222.16947870851
 30
0.0
 11
2159.962877515961
 21
-2436.137068162529
 31
0.0
  0
LINE
  5
429
330
1F
100
AcDbEntity
  8
0-C_ハッチ
  6
Continuous
 62
     7
370
     5
100
AcDbLine
 10
1949.322112502352
 20
-2216.169478708512
 30
0.0
 11
2159.962877515963
 21
-2430.13706816253
 31
0.0
  0
LINE
  5
42A
330
1F
100
AcDbEntity
  8
0-C_ハッチ
  6
Continuous
 62
     7
370
     5
100
AcDbLine
 10
1950.453813949438
 20
-2206.849929222023
 30
0.0
 11
1956.41804211516
 21
-2203.180496252568
 31
0.0
  0
ARC
  5
42B
330
1F
100
AcDbEntity
  8
0-C_ハッチ
  6
Continuous
 62
     7
370
     5
100
AcDbCircle
 10
1953.5978632213
 20
-2211.960208487985
 30
0.0
 40
6.0
100
AcDbArc
 50
121.6015005399993
 51
224.5510943265456
  0
LINE
  5
42C
330
1F
100
AcDbEntity
  8
0-C_ハッチ
  6
Continuous
 62
     7
370
     5
100
AcDbLine
 10
1865.961535155659
 20
-2117.295334607954
 30
0.0
 11
1952.739394174439
 21
-2205.443748371974
 31
0.0
  0
LINE
  5
42D
330
1F
100
AcDbEntity
  8
0-C_ハッチ
  6
Continuous
 62
     7
370
     5
100
AcDbLine
 10
1947.597863221299
 20
-2211.960208487985
 30
0.0
 11
1947.597863221299
 21
-2217.960208487983
 31
0.0
  0
ARC
  5
42E
330
1F
100
AcDbEntity
  8
0-C_ハッチ
  6
Continuous
 62
     7
370
     5
100
AcDbCircle
 10
1953.5978632213
 20
-2217.960208487983
 30
0.0
 40
6.0
100
AcDbArc
 50
180.0
 51
224.5510943265451
  0
LINE
  5
42F
330
1F
100
AcDbEntity
  8
0-C_ハッチ
  6
Continuous
 62
     7
370
     5
100
AcDbLine
 10
2177.985216484098
 20
-2434.743266698555
 30
0.0
 11
2177.985216484098
 21
-2440.743266698553
 31
0.0
  0
LINE
  5
430
330
1F
100
AcDbEntity
  8
0-C_ハッチ
  6
Continuous
 62
     7
370
     5
100
AcDbLine
 10
2174.185656505938
 20
-2435.455078876913
 30
0.0
 11
2174.185656505935
 21
-2441.455078876912
 31
0.0
  0
LINE
  5
431
330
1F
100
AcDbEntity
  8
0-C_ハッチ
  6
Continuous
 62
     7
370
     5
100
AcDbLine
 10
2170.01616779556
 20
-2435.294226871279
 30
0.0
 11
2170.016167795558
 21
-2441.294226871279
 31
0.0
  0
LINE
  5
432
330
1F
100
AcDbEntity
  8
0-C_ハッチ
  6
Continuous
 62
     7
370
     5
100
AcDbLine
 10
2166.33323255107
 20
-2434.311295459463
 30
0.0
 11
2166.333232551069
 21
-2440.311295459461
 31
0.0
  0
LINE
  5
433
330
1F
100
AcDbEntity
  8
0-C_ハッチ
  6
Continuous
 62
     7
370
     5
100
AcDbLine
 10
2163.166932569269
 20
-2432.720900328286
 30
0.0
 11
2163.166932569267
 21
-2438.720900328285
 31
0.0
  0
LINE
  5
434
330
1F
100
AcDbEntity
  8
0-C_ハッチ
  6
Continuous
 62
     7
370
     5
100
AcDbLine
 10
2159.962877515963
 20
-2430.13706816253
 30
0.0
 11
2159.962877515961
 21
-2436.137068162529
 31
0.0
  0
LINE
  5
435
330
1F
100
AcDbEntity
  8
0-C_ハッチ
  6
Continuous
 62
     7
370
     5
100
AcDbLine
 10
1950.775047901137
 20
-2217.645361522035
 30
0.0
 11
1950.775047901135
 21
-2223.64536152203
 31
0.0
  0
LINE
  5
436
330
1F
100
AcDbEntity
  8
0-C_ハッチ
  6
Continuous
 62
     7
370
     5
100
AcDbLine
 10
1948.298297693149
 20
-2214.773499303536
 30
0.0
 11
1948.298297693149
 21
-2220.77349930353
 31
0.0
  0
LINE
  5
437
330
1F
100
AcDbEntity
  8
0-C_ハッチ
  6
Continuous
 62
     7
370
     5
100
AcDbLine
 10
1949.255223909873
 20
-2216.100435995123
 30
0.0
 11
1949.25522390987
 21
-2222.100435995118
 31
0.0
  0
LINE
  5
438
330
1F
100
AcDbEntity
  8
0-C_ハッチ
  6
Continuous
 62
     7
370
     5
100
AcDbLine
 10
2518.925042151031
 20
-2359.694011417364
 30
0.0
 11
2264.560255509802
 21
-2516.18945535346
 31
0.0
  0
LINE
  5
439
330
1F
100
AcDbEntity
  8
0-C_ハッチ
  6
Continuous
 62
     7
370
     5
100
AcDbLine
 10
2264.560255509802
 20
-2516.18945535346
 30
0.0
 11
2264.55461547717
 21
-2522.180287360117
 31
0.0
  0
LINE
  5
43A
330
1F
100
AcDbEntity
  8
0-C_ハッチ
  6
Continuous
 62
     7
370
     5
100
AcDbLine
 10
2518.925042151031
 20
-2365.694011417365
 30
0.0
 11
2264.55461547717
 21
-2522.180287360117
 31
0.0
  0
LINE
  5
43B
330
1F
100
AcDbEntity
  8
0-C_ハッチ
  6
Continuous
 62
     7
370
     5
100
AcDbLine
 10
2105.523841573012
 20
-1966.523783468144
 30
0.0
 11
1865.961535155659
 21
-2111.295334607956
 31
0.0
  0
LINE
  5
43C
330
1F
100
AcDbEntity
  8
0-C_ハッチ
  6
Continuous
 62
     7
370
     5
100
AcDbLine
 10
1865.961535155659
 20
-2117.295334607954
 30
0.0
 11
1865.961535155659
 21
-2111.295334607956
 31
0.0
  0
MTEXT
  5
43D
330
1F
100
AcDbEntity
  8
0-C_ハッチ
  6
Continuous
 62
     7
370
     5
100
AcDbMText
 10
895.7828896110758
 20
-810.2612998524374
 30
0.0
 40
64.00800000000001
 41
1806.000000000001
 46
0.0
 71
     7
 72
     1
  1
{\fＭＳ ゴシック|b0|i0|c128|p49;ストッパー側面は竪枠から6.5㎜離して下さい。}
 73
     1
 44
1.0
  0
LWPOLYLINE
  5
43E
330
1F
100
AcDbEntity
  8
0-C_ハッチ
  6
Continuous
 62
   120
370
     5
100
AcDbPolyline
 90
        4
 70
     1
 43
3.0
 10
2220.02244281079
 20
-1886.161074354207
 42
0.4142135623731
 10
2218.522442810791
 20
-1884.661074354207
 42
0.4142135623731
 10
2217.022442810791
 20
-1886.161074354207
 42
0.4142135623731
 10
2218.522442810791
 20
-1887.661074354207
 42
0.4142135623731
  0
LWPOLYLINE
  5
43F
330
1F
100
AcDbEntity
  8
0-C_ハッチ
  6
Continuous
 62
   120
370
     5
100
AcDbPolyline
 90
        4
 70
     1
 43
3.0
 10
2151.661512269426
 20
-1827.150895550351
 42
0.4142135623731
 10
2150.161512269427
 20
-1825.650895550351
 42
0.4142135623731
 10
2148.661512269427
 20
-1827.150895550351
 42
0.4142135623731
 10
2150.161512269427
 20
-1828.650895550351
 42
0.4142135623731
  0
LINE
  5
440
330
1F
100
AcDbEntity
  8
0-C_ハッチ
  6
Continuous
 62
   120
370
     5
100
AcDbLine
 10
2150.161512269427
 20
-1827.150895550351
 30
0.0
 11
2218.522442810791
 21
-1886.161074354207
 31
0.0
  0
MTEXT
  5
441
330
1F
100
AcDbEntity
  8
0-C_ハッチ
  6
Continuous
 62
     7
370
   211
100
AcDbMText
 10
1907.02297509891
 20
-1834.912916697655
 30
0.0
 40
68.5799999999994
 41
224.9999999999981
 46
0.0
 71
     7
 72
     1
  1
{\fＭＳ ゴシック|b0|i0|c128|p49;6.5㎜}
 73
     1
 44
1.0
  0
LINE
  5
442
330
1F
100
AcDbEntity
  8
0-C_ハッチ
  6
Continuous
 62
   120
370
     5
100
AcDbLine
 10
2626.892747480956
 20
-1829.198353791432
 30
0.0
 11
2646.205543092081
 21
-1415.904527713325
 31
0.0
  0
LINE
  5
443
330
1F
100
AcDbEntity
  8
0-C_ハッチ
  6
Continuous
 62
   120
370
     5
100
AcDbLine
 10
2330.41853930539
 20
-1582.907270100516
 30
0.0
 11
2646.205543092081
 21
-1415.904527713325
 31
0.0
  0
MTEXT
  5
444
330
1F
100
AcDbEntity
  8
0-C_ハッチ
  6
Continuous
 62
     7
370
     5
100
AcDbMText
 10
2440.969168165604
 20
-1406.69381824662
 30
0.0
 40
45.72
 41
600.0
 46
0.0
 71
     7
 72
     1
  1
{\fＭＳ ゴシック|b0|i0|c128|p49;取り付けビス(同梱品)}
 73
     1
 44
1.0
  0
LWPOLYLINE
  5
445
330
1F
100
AcDbEntity
  8
0-0_補助線
  6
Continuous
 62
     7
370
     5
100
AcDbPolyline
 90
        4
 70
     1
 43
3.0
 10
-618.1897332767223
 20
-1242.320772007859
 42
0.4142135623731
 10
-619.6897332767223
 20
-1240.820772007859
 42
0.4142135623731
 10
-621.1897332767224
 20
-1242.320772007859
 42
0.4142135623731
 10
-619.6897332767223
 20
-1243.820772007859
 42
0.4142135623731
  0
LINE
  5
446
330
1F
100
AcDbEntity
  8
0-0_補助線
  6
Continuous
 62
   120
370
     5
100
AcDbLine
 10
-619.6897332767223
 20
-1242.320772007859
 30
0.0
 11
-619.6897332767223
 21
-1385.862821807859
 31
0.0
  0
LINE
  5
447
330
1F
100
AcDbEntity
  8
0-0_補助線
  6
Continuous
 62
    92
370
     5
100
AcDbLine
 10
-619.6897332767223
 20
-1435.862821807858
 30
0.0
 11
-619.6897332767223
 21
-2311.154027356685
 31
0.0
  0
MTEXT
  5
448
330
1F
100
AcDbEntity
  8
0-0_補助線
  6
Continuous
 62
     7
370
     0
100
AcDbMText
 10
-930.5051776461727
 20
-456.9441956599958
 30
0.0
 40
91.44000000000007
 41
1440.000000000001
 46
0.0
 71
     7
 72
     1
  1
{\fＭＳ ゴシック|b0|i0|c128|p49;竪枠下端形状図（S＝1/3）}
 73
     1
 44
1.0
  0
LINE
  5
449
330
1F
100
AcDbEntity
  8
0-0_補助線
  6
Continuous
 62
    92
370
     5
100
AcDbLine
 10
-1203.339858481463
 20
-486.9025726977401
 30
0.0
 11
782.3295031891174
 21
-486.9025726977401
 31
0.0
  0
LINE
  5
44A
330
1F
100
AcDbEntity
  8
0-0_補助線
  6
Continuous
 62
    92
370
     5
100
AcDbLine
 10
-1203.339858481463
 20
-270.9025726977396
 30
0.0
 11
782.3295031891174
 21
-270.9025726977396
 31
0.0
  0
LINE
  5
44B
330
1F
100
AcDbEntity
  8
0-0_補助線
  6
Continuous
 62
    92
370
     5
100
AcDbLine
 10
-1203.339858481463
 20
-270.9025726977396
 30
0.0
 11
-1203.339858481463
 21
-3370.000017526644
 31
0.0
  0
LINE
  5
44C
330
1F
100
AcDbEntity
  8
0-C_ハッチ
  6
Continuous
 62
    92
370
     5
100
AcDbLine
 10
-1203.339858481463
 20
-3370.000017526644
 30
0.0
 11
5519.92950318913
 21
-3370.000017526644
 31
0.0
  0
LWPOLYLINE
  5
44D
330
1F
100
AcDbEntity
  8
0-0_補助線
  6
Continuous
 62
     7
370
     5
100
AcDbPolyline
 90
        4
 70
     1
 43
3.0
 10
301.8106296350239
 20
-1242.320772007859
 42
0.4142135623731
 10
300.3106296350239
 20
-1240.820772007859
 42
0.4142135623731
 10
298.8106296350238
 20
-1242.320772007859
 42
0.4142135623731
 10
300.3106296350239
 20
-1243.820772007859
 42
0.4142135623731
  0
LINE
  5
44E
330
1F
100
AcDbEntity
  8
0-0_補助線
  6
JWW_HOJO
 62
   120
370
     5
100
AcDbLine
 10
-654.6900796924813
 20
-1385.862821807859
 30
0.0
 11
300.3106296350239
 21
-1385.862821807859
 31
0.0
  0
LINE
  5
44F
330
1F
100
AcDbEntity
  8
0-0_補助線
  6
JWW_HOJO
 62
   120
370
     5
100
AcDbLine
 10
-654.6900796924813
 20
-1435.862821807858
 30
0.0
 11
300.3106296350239
 21
-1435.862821807858
 31
0.0
  0
LINE
  5
450
330
1F
100
AcDbEntity
  8
0-0_補助線
  6
Continuous
 62
    92
370
     5
100
AcDbLine
 10
300.3106296350239
 20
-1435.862821807858
 30
0.0
 11
300.3106296350239
 21
-2311.154027356685
 31
0.0
  0
LINE
  5
451
330
1F
100
AcDbEntity
  8
0-0_補助線
  6
Continuous
 62
    92
370
     5
100
AcDbLine
 10
-619.6897332767223
 20
-2311.154027356685
 30
0.0
 11
300.3106296350239
 21
-2311.154027356685
 31
0.0
  0
LINE
  5
452
330
1F
100
AcDbEntity
  8
0-0_補助線
  6
Continuous
 62
   120
370
     5
100
AcDbLine
 10
-619.6897332767223
 20
-1242.320772007859
 30
0.0
 11
300.3106296350239
 21
-1242.320772007859
 31
0.0
  0
LINE
  5
453
330
1F
100
AcDbEntity
  8
0-0_補助線
  6
Continuous
 62
   120
370
     5
100
AcDbLine
 10
300.3106296350239
 20
-1242.320772007859
 30
0.0
 11
300.3106296350239
 21
-1385.862821807859
 31
0.0
  0
MTEXT
  5
454
330
1F
100
AcDbEntity
  8
0-0_補助線
  6
Continuous
 62
     7
370
   211
100
AcDbMText
 10
-235.3877223724218
 20
-1241.600772007858
 30
0.0
 40
91.4399999999992
 41
119.9999999999989
 46
0.0
 71
     7
 72
     1
  1
{\fＭＳ ゴシック|b0|i0|c128|p49;92}
 73
     1
 44
1.0
  0
LINE
  5
455
330
1F
100
AcDbEntity
  8
0-A_文字
  6
Continuous
 62
    92
370
     5
100
AcDbLine
 10
-5659.999495325868
 20
3730.000181455871
 30
0.0
 11
-5659.999495325868
 21
4000.000181455871
 31
0.0
  0
MTEXT
  5
456
330
1F
100
AcDbEntity
  8
0-A_文字
  6
Continuous
 62
    92
370
     5
100
AcDbMText
 10
-5592.499495325868
 20
3758.959004985283
 30
0.0
 40
147.9176470588235
 41
3300.0
 46
0.0
 71
     7
 72
     1
  1
{\fＭＳ ゴシック|b0|i0|c128|p49;クローゼットドア　固定枠　間口３尺}
 73
     1
 44
1.0
  0
LINE
  5
457
330
1F
100
AcDbEntity
  8
0-A_文字
  6
Continuous
 62
    92
370
     5
100
AcDbLine
 10
-5659.999495325868
 20
3730.000181455871
 30
0.0
 11
-2207.14285714286
 21
3730.000181455871
 31
0.0
  0
LINE
  5
458
330
1F
100
AcDbEntity
  8
0-A_文字
  6
Continuous
 62
    92
370
     5
100
AcDbLine
 10
-5659.999495325868
 20
4000.000181455871
 30
0.0
 11
-2207.14285714286
 21
4000.000181455871
 31
0.0
  0
LINE
  5
459
330
1F
100
AcDbEntity
  8
0-A_文字
  6
Continuous
 62
    92
370
     5
100
AcDbLine
 10
-2207.14285714286
 20
3730.000181455871
 30
0.0
 11
-2207.14285714286
 21
4000.000181455871
 31
0.0
  0
LINE
  5
45A
330
1F
100
AcDbEntity
  8
F-0_補助線
  6
JWW_HOJO
 62
     7
370
     5
100
AcDbLine
 10
1349.918584083287
 20
-3795.000003092998
 30
0.0
 11
1349.918584083287
 21
-4195.000008247994
 31
0.0
  0
LINE
  5
45B
330
1F
100
AcDbEntity
  8
F-0_補助線
  6
JWW_HOJO
 62
     7
370
     5
100
AcDbLine
 10
4889.917891251784
 20
-3795.000003092998
 30
0.0
 11
4889.917891251784
 21
-4195.000008247994
 31
0.0
  0
MTEXT
  5
45C
330
1F
100
AcDbEntity
  8
F-A_文字
  6
Continuous
 62
     7
370
     0
100
AcDbMText
 10
1349.918584083287
 20
-3945.948482732445
 30
0.0
 40
78.105
 41
615.0
 46
0.0
 71
     7
 72
     1
  1
{\fＭＳ ゴシック|b0|i0|c128|p49;建具納まり図}
 73
     1
 44
1.0
  0
MTEXT
  5
45D
330
1F
100
AcDbEntity
  8
F-A_文字
  6
Continuous
 62
     7
370
     0
100
AcDbMText
 10
509.9185840832865
 20
-3956.425201962234
 30
0.0
 40
57.15
 41
675.0
 46
0.0
 71
     7
 72
     1
  1
{\fＭＳ ゴシック|b0|i0|c128|p49;ＰＩＮＯＥＡＲＴＨ}
 73
     1
 44
1.0
  0
MTEXT
  5
45E
330
1F
100
AcDbEntity
  8
F-A_文字
  6
Continuous
 62
     7
370
     0
100
AcDbMText
 10
4889.917891251784
 20
-3945.570773120548
 30
0.0
 40
78.86699999999999
 41
517.5
 46
0.0
 71
     7
 72
     1
  1
{\fＭＳ ゴシック|b0|i0|c128|p49;2021.04.01}
 73
     1
 44
1.0
  0
MTEXT
  5
45F
330
1F
100
AcDbEntity
  8
F-A_文字
  6
Continuous
 62
     7
370
     0
100
AcDbMText
 10
-5080.081323642279
 20
-4045.068205309159
 30
0.0
 40
79.8634615384615
 41
4087.5
 46
0.0
 71
     7
 72
     1
  1
{\fＭＳ ゴシック|b0|i0|c128|p49;ピノアース　クローゼットドア　固定枠　３方枠下レール無し　枠外H2,038　枠外W734}
 73
     1
 44
1.0
  0
ENDSEC
  0
SECTION
  2
OBJECTS
  0
DICTIONARY
  5
C
330
0
100
AcDbDictionary
281
     1
  3
ACAD_GROUP
350
D
  3
ACAD_LAYOUT
350
1A
  3
ACAD_MATERIAL
350
3B
  3
ACAD_MLEADERSTYLE
350
461
  3
ACAD_MLINESTYLE
350
17
  3
ACAD_PLOTSETTINGS
350
19
  3
ACAD_PLOTSTYLENAME
350
E
  3
ACAD_TABLESTYLE
350
460
  3
ACAD_VISUALSTYLE
350
2A
  0
DICTIONARY
  5
D
102
{ACAD_REACTORS
330
C
102
}
330
C
100
AcDbDictionary
281
     1
  0
DICTIONARY
  5
1A
102
{ACAD_REACTORS
330
C
102
}
330
C
100
AcDbDictionary
281
     1
  3
Layout1
350
1E
  3
Layout2
350
26
  3
Model
350
22
  0
DICTIONARY
  5
3B
102
{ACAD_REACTORS
330
C
102
}
330
C
100
AcDbDictionary
281
     1
  3
ByBlock
350
3D
  3
ByLayer
350
3C
  3
Global
350
3E
  0
DICTIONARY
  5
461
102
{ACAD_REACTORS
330
C
102
}
330
C
100
AcDbDictionary
281
     1
  0
DICTIONARY
  5
17
102
{ACAD_REACTORS
330
C
102
}
330
C
100
AcDbDictionary
281
     1
  3
Standard
350
18
  0
DICTIONARY
  5
19
102
{ACAD_REACTORS
330
C
102
}
330
C
100
AcDbDictionary
281
     1
  0
ACDBDICTIONARYWDFLT
  5
E
102
{ACAD_REACTORS
330
C
102
}
330
C
100
AcDbDictionary
281
     1
  3
Normal
350
F
100
AcDbDictionaryWithDefault
340
F
  0
DICTIONARY
  5
460
102
{ACAD_REACTORS
330
C
102
}
330
C
100
AcDbDictionary
281
     1
  0
DICTIONARY
  5
2A
102
{ACAD_REACTORS
330
C
102
}
330
C
100
AcDbDictionary
281
     1
  3
2dWireframe
350
2F
  3
3D Hidden
350
31
  3
3dWireframe
350
30
  3
Basic
350
32
  3
Brighten
350
36
  3
ColorChange
350
3A
  3
Conceptual
350
34
  3
Dim
350
35
  3
Facepattern
350
39
  3
Flat
350
2B
  3
FlatWithEdges
350
2C
  3
Gouraud
350
2D
  3
GouraudWithEdges
350
2E
  3
Linepattern
350
38
  3
Realistic
350
33
  3
Thicken
350
37
  0
LAYOUT
  5
1E
102
{ACAD_REACTORS
330
1A
102
}
330
1A
100
AcDbPlotSettings
  1

  2
none_device
  4

  6

 40
0.0
 41
0.0
 42
0.0
 43
0.0
 44
0.0
 45
0.0
 46
0.0
 47
0.0
 48
0.0
 49
0.0
140
0.0
141
0.0
142
1.0
143
1.0
 70
   688
 72
     0
 73
     0
 74
     5
  7

 75
    16
 76
     0
 77
     5
 78
   300
147
1.0
148
0.0
149
0.0
100
AcDbLayout
  1
Layout1
 70
     1
 71
     1
 10
0.0
 20
0.0
 11
420.0
 21
297.0
 12
0.0
 22
0.0
 32
0.0
 14
1.000000000000000E+20
 24
1.000000000000000E+20
 34
1.000000000000000E+20
 15
-1.000000000000000E+20
 25
-1.000000000000000E+20
 35
-1.000000000000000E+20
146
0.0
 13
0.0
 23
0.0
 33
0.0
 16
1.0
 26
0.0
 36
0.0
 17
0.0
 27
1.0
 37
0.0
 76
     0
330
1B
  0
LAYOUT
  5
26
102
{ACAD_REACTORS
330
1A
102
}
330
1A
100
AcDbPlotSettings
  1

  2
none_device
  4

  6

 40
0.0
 41
0.0
 42
0.0
 43
0.0
 44
0.0
 45
0.0
 46
0.0
 47
0.0
 48
0.0
 49
0.0
140
0.0
141
0.0
142
1.0
143
1.0
 70
   688
 72
     0
 73
     0
 74
     5
  7

 75
    16
 76
     0
 77
     5
 78
   300
147
1.0
148
0.0
149
0.0
100
AcDbLayout
  1
Layout2
 70
     1
 71
     2
 10
0.0
 20
0.0
 11
0.0
 21
0.0
 12
0.0
 22
0.0
 32
0.0
 14
0.0
 24
0.0
 34
0.0
 15
0.0
 25
0.0
 35
0.0
146
0.0
 13
0.0
 23
0.0
 33
0.0
 16
1.0
 26
0.0
 36
0.0
 17
0.0
 27
1.0
 37
0.0
 76
     0
330
23
  0
LAYOUT
  5
22
102
{ACAD_REACTORS
330
1A
102
}
330
1A
100
AcDbPlotSettings
  1

  2
none_device
  4

  6

 40
0.0
 41
0.0
 42
0.0
 43
0.0
 44
0.0
 45
0.0
 46
0.0
 47
0.0
 48
0.0
 49
0.0
140
0.0
141
0.0
142
1.0
143
1.0
 70
  1712
 72
     0
 73
     0
 74
     0
  7

 75
     0
 76
     0
 77
     5
 78
   300
147
1.0
148
0.0
149
0.0
100
AcDbLayout
  1
Model
 70
     1
 71
     0
 10
-6300.0
 20
-4455.0
 11
6300.0
 21
4455.0
 12
0.0
 22
0.0
 32
0.0
 14
-6300.0
 24
-4455.0
 34
0.0
 15
6300.0
 25
4455.0
 35
0.0
146
0.0
 13
0.0
 23
0.0
 33
0.0
 16
1.0
 26
0.0
 36
0.0
 17
0.0
 27
1.0
 37
0.0
 76
     0
330
1F
331
29
  0
MATERIAL
  5
3D
102
{ACAD_REACTORS
330
3B
102
}
330
3B
100
AcDbMaterial
  1
ByBlock
 72
     1
 94
      127
  0
MATERIAL
  5
3C
102
{ACAD_REACTORS
330
3B
102
}
330
3B
100
AcDbMaterial
  1
ByLayer
 72
     1
 94
      127
  0
MATERIAL
  5
3E
102
{ACAD_REACTORS
330
3B
102
}
330
3B
100
AcDbMaterial
  1
Global
 72
     1
 94
      127
  0
MLINESTYLE
  5
18
102
{ACAD_REACTORS
330
17
102
}
330
17
100
AcDbMlineStyle
  2
Standard
 70
     0
  3

 62
   256
 51
90.0
 52
90.0
 71
     2
 49
0.5
 62
   256
  6
BYLAYER
 49
-0.5
 62
   256
  6
BYLAYER
  0
ACDBPLACEHOLDER
  5
F
102
{ACAD_REACTORS
330
E
102
}
330
E
  0
VISUALSTYLE
  5
2F
102
{ACAD_REACTORS
330
2A
102
}
330
2A
100
AcDbVisualStyle
  2
2dWireframe
 70
     4
177
     2
291
     0
 71
     0
176
     1
 72
     2
176
     1
 73
     0
176
     1
 90
        0
176
     1
 40
-0.6
176
     1
 41
-30.0
176
     1
 62
     5
 63
     7
421
 16777215
176
     1
 74
     1
176
     1
 91
        4
176
     1
 64
     7
176
     1
 65
   257
176
     1
 75
     1
176
     1
175
     1
176
     1
 42
1.0
176
     1
 92
        0
176
     1
 66
   257
176
     1
 43
1.0
176
     1
 76
     1
176
     1
 77
     6
176
     1
 78
     2
176
     1
 67
     7
176
     1
 79
     5
176
     1
170
     0
176
     1
171
     0
176
     1
290
     0
176
     1
 93
        1
176
     1
 44
0.0
176
     1
173
     0
176
     1
  0
VISUALSTYLE
  5
31
102
{ACAD_REACTORS
330
2A
102
}
330
2A
100
AcDbVisualStyle
  2
3D Hidden
 70
     6
177
     2
291
     0
 71
     1
176
     1
 72
     2
176
     1
 73
     2
176
     1
 90
        0
176
     1
 40
-0.6
176
     1
 41
-30.0
176
     1
 62
     5
 63
     7
421
 16777215
176
     1
 74
     2
176
     1
 91
        2
176
     1
 64
     7
176
     1
 65
   257
176
     1
 75
     2
176
     1
175
     1
176
     1
 42
40.0
176
     1
 92
        0
176
     1
 66
   257
176
     1
 43
1.0
176
     1
 76
     1
176
     1
 77
     6
176
     1
 78
     2
176
     1
 67
     7
176
     1
 79
     3
176
     1
170
     0
176
     1
171
     0
176
     1
290
     0
176
     1
 93
        1
176
     1
 44
0.0
176
     1
173
     0
176
     1
  0
VISUALSTYLE
  5
30
102
{ACAD_REACTORS
330
2A
102
}
330
2A
100
AcDbVisualStyle
  2
3dWireframe
 70
     5
177
     2
291
     0
 71
     0
176
     1
 72
     2
176
     1
 73
     0
176
     1
 90
        0
176
     1
 40
-0.6
176
     1
 41
-30.0
176
     1
 62
     5
 63
     7
421
 16777215
176
     1
 74
     1
176
     1
 91
        4
176
     1
 64
     7
176
     1
 65
   257
176
     1
 75
     1
176
     1
175
     1
176
     1
 42
1.0
176
     1
 92
        0
176
     1
 66
   257
176
     1
 43
1.0
176
     1
 76
     1
176
     1
 77
     6
176
     1
 78
     2
176
     1
 67
     7
176
     1
 79
     5
176
     1
170
     0
176
     1
171
     0
176
     1
290
     0
176
     1
 93
        1
176
     1
 44
0.0
176
     1
173
     0
176
     1
  0
VISUALSTYLE
  5
32
102
{ACAD_REACTORS
330
2A
102
}
330
2A
100
AcDbVisualStyle
  2
Basic
 70
     7
177
     2
291
     1
 71
     1
176
     1
 72
     0
176
     1
 73
     1
176
     1
 90
        0
176
     1
 40
-0.6
176
     1
 41
-30.0
176
     1
 62
     5
 63
     7
421
 16777215
176
     1
 74
     0
176
     1
 91
        4
176
     1
 64
     7
176
     1
 65
   257
176
     1
 75
     1
176
     1
175
     1
176
     1
 42
1.0
176
     1
 92
        8
176
     1
 66
     7
176
     1
 43
1.0
176
     1
 76
     1
176
     1
 77
     6
176
     1
 78
     2
176
     1
 67
     7
176
     1
 79
     5
176
     1
170
     0
176
     1
171
     0
176
     1
290
     0
176
     1
 93
        1
176
     1
 44
0.0
176
     1
173
     0
176
     1
  0
VISUALSTYLE
  5
36
102
{ACAD_REACTORS
330
2A
102
}
330
2A
100
AcDbVisualStyle
  2
Brighten
 70
    12
177
     2
291
     1
 71
     2
176
     1
 72
     2
176
     1
 73
     0
176
     1
 90
        0
176
     1
 40
-0.6
176
     1
 41
-30.0
176
     1
 62
     5
 63
     7
421
 16777215
176
     1
 74
     1
176
     1
 91
        4
176
     1
 64
     7
176
     1
 65
   257
176
     1
 75
     1
176
     1
175
     1
176
     1
 42
1.0
176
     1
 92
        8
176
     1
 66
     7
176
     1
 43
1.0
176
     1
 76
     1
176
     1
 77
     6
176
     1
 78
     2
176
     1
 67
     7
176
     1
 79
     5
176
     1
170
     0
176
     1
171
     0
176
     1
290
     0
176
     1
 93
        1
176
     1
 44
50.0
176
     1
173
     0
176
     1
  0
VISUALSTYLE
  5
3A
102
{ACAD_REACTORS
330
2A
102
}
330
2A
100
AcDbVisualStyle
  2
ColorChange
 70
    16
177
     2
291
     1
 71
     2
176
     1
 72
     2
176
     1
 73
     3
176
     1
 90
        0
176
     1
 40
-0.6
176
     1
 41
-30.0
176
     1
 62
     5
 63
     8
421
  8421504
176
     1
 74
     1
176
     1
 91
        4
176
     1
 64
     7
176
     1
 65
   257
176
     1
 75
     1
176
     1
175
     1
176
     1
 42
1.0
176
     1
 92
        8
176
     1
 66
     8
424
  8421504
176
     1
 43
1.0
176
     1
 76
     1
176
     1
 77
     6
176
     1
 78
     2
176
     1
 67
     7
176
     1
 79
     5
176
     1
170
     0
176
     1
171
     0
176
     1
290
     0
176
     1
 93
        1
176
     1
 44
0.0
176
     1
173
     0
176
     1
  0
VISUALSTYLE
  5
34
102
{ACAD_REACTORS
330
2A
102
}
330
2A
100
AcDbVisualStyle
  2
Conceptual
 70
     9
177
     2
291
     0
 71
     3
176
     1
 72
     2
176
     1
 73
     0
176
     1
 90
        0
176
     1
 40
-0.6
176
     1
 41
-30.0
176
     1
 62
     5
 63
     7
421
 16777215
176
     1
 74
     2
176
     1
 91
        2
176
     1
 64
     7
176
     1
 65
   257
176
     1
 75
     1
176
     1
175
     1
176
     1
 42
40.0
176
     1
 92
        8
176
     1
 66
     7
176
     1
 43
1.0
176
     1
 76
     1
176
     1
 77
     6
176
     1
 78
     2
176
     1
 67
     7
176
     1
 79
     3
176
     1
170
     0
176
     1
171
     0
176
     1
290
     0
176
     1
 93
        1
176
     1
 44
0.0
176
     1
173
     0
176
     1
  0
VISUALSTYLE
  5
35
102
{ACAD_REACTORS
330
2A
102
}
330
2A
100
AcDbVisualStyle
  2
Dim
 70
    11
177
     2
291
     1
 71
     2
176
     1
 72
     2
176
     1
 73
     0
176
     1
 90
        0
176
     1
 40
-0.6
176
     1
 41
-30.0
176
     1
 62
     5
 63
     7
421
 16777215
176
     1
 74
     1
176
     1
 91
        4
176
     1
 64
     7
176
     1
 65
   257
176
     1
 75
     1
176
     1
175
     1
176
     1
 42
1.0
176
     1
 92
        8
176
     1
 66
     7
176
     1
 43
1.0
176
     1
 76
     1
176
     1
 77
     6
176
     1
 78
     2
176
     1
 67
     7
176
     1
 79
     5
176
     1
170
     0
176
     1
171
     0
176
     1
290
     0
176
     1
 93
        1
176
     1
 44
-50.0
176
     1
173
     0
176
     1
  0
VISUALSTYLE
  5
39
102
{ACAD_REACTORS
330
2A
102
}
330
2A
100
AcDbVisualStyle
  2
Facepattern
 70
    15
177
     2
291
     1
 71
     2
176
     1
 72
     2
176
     1
 73
     0
176
     1
 90
        0
176
     1
 40
-0.6
176
     1
 41
-30.0
176
     1
 62
     5
 63
     7
421
 16777215
176
     1
 74
     1
176
     1
 91
        4
176
     1
 64
     7
176
     1
 65
   257
176
     1
 75
     1
176
     1
175
     1
176
     1
 42
1.0
176
     1
 92
        8
176
     1
 66
     7
176
     1
 43
1.0
176
     1
 76
     1
176
     1
 77
     6
176
     1
 78
     2
176
     1
 67
     7
176
     1
 79
     5
176
     1
170
     0
176
     1
171
     0
176
     1
290
     0
176
     1
 93
        1
176
     1
 44
0.0
176
     1
173
     0
176
     1
  0
VISUALSTYLE
  5
2B
102
{ACAD_REACTORS
330
2A
102
}
330
2A
100
AcDbVisualStyle
  2
Flat
 70
     0
177
     2
291
     1
 71
     2
176
     1
 72
     1
176
     1
 73
     1
176
     1
 90
        2
176
     1
 40
-0.6
176
     1
 41
30.0
176
     1
 62
     5
 63
     7
421
 16777215
176
     1
 74
     0
176
     1
 91
        4
176
     1
 64
     7
176
     1
 65
   257
176
     1
 75
     1
176
     1
175
     1
176
     1
 42
1.0
176
     1
 92
        8
176
     1
 66
     7
176
     1
 43
1.0
176
     1
 76
     1
176
     1
 77
     6
176
     1
 78
     2
176
     1
 67
     7
176
     1
 79
     5
176
     1
170
     0
176
     1
171
     0
176
     1
290
     0
176
     1
 93
       13
176
     1
 44
0.0
176
     1
173
     0
176
     1
  0
VISUALSTYLE
  5
2C
102
{ACAD_REACTORS
330
2A
102
}
330
2A
100
AcDbVisualStyle
  2
FlatWithEdges
 70
     1
177
     2
291
     1
 71
     2
176
     1
 72
     1
176
     1
 73
     1
176
     1
 90
        2
176
     1
 40
-0.6
176
     1
 41
30.0
176
     1
 62
     5
 63
     7
421
 16777215
176
     1
 74
     1
176
     1
 91
        4
176
     1
 64
     7
176
     1
 65
   257
176
     1
 75
     1
176
     1
175
     1
176
     1
 42
1.0
176
     1
 92
        0
176
     1
 66
   257
176
     1
 43
1.0
176
     1
 76
     1
176
     1
 77
     6
176
     1
 78
     2
176
     1
 67
     7
176
     1
 79
     5
176
     1
170
     0
176
     1
171
     0
176
     1
290
     0
176
     1
 93
       13
176
     1
 44
0.0
176
     1
173
     0
176
     1
  0
VISUALSTYLE
  5
2D
102
{ACAD_REACTORS
330
2A
102
}
330
2A
100
AcDbVisualStyle
  2
Gouraud
 70
     2
177
     2
291
     1
 71
     2
176
     1
 72
     2
176
     1
 73
     1
176
     1
 90
        2
176
     1
 40
-0.6
176
     1
 41
30.0
176
     1
 62
     5
 63
     7
421
 16777215
176
     1
 74
     0
176
     1
 91
        4
176
     1
 64
     7
176
     1
 65
   257
176
     1
 75
     1
176
     1
175
     1
176
     1
 42
1.0
176
     1
 92
        0
176
     1
 66
     7
176
     1
 43
1.0
176
     1
 76
     1
176
     1
 77
     6
176
     1
 78
     2
176
     1
 67
     7
176
     1
 79
     5
176
     1
170
     0
176
     1
171
     0
176
     1
290
     0
176
     1
 93
       13
176
     1
 44
0.0
176
     1
173
     0
176
     1
  0
VISUALSTYLE
  5
2E
102
{ACAD_REACTORS
330
2A
102
}
330
2A
100
AcDbVisualStyle
  2
GouraudWithEdges
 70
     3
177
     2
291
     1
 71
     2
176
     1
 72
     2
176
     1
 73
     1
176
     1
 90
        2
176
     1
 40
-0.6
176
     1
 41
30.0
176
     1
 62
     5
 63
     7
421
 16777215
176
     1
 74
     1
176
     1
 91
        4
176
     1
 64
     7
176
     1
 65
   257
176
     1
 75
     1
176
     1
175
     1
176
     1
 42
1.0
176
     1
 92
        0
176
     1
 66
   257
176
     1
 43
1.0
176
     1
 76
     1
176
     1
 77
     6
176
     1
 78
     2
176
     1
 67
     7
176
     1
 79
     5
176
     1
170
     0
176
     1
171
     0
176
     1
290
     0
176
     1
 93
       13
176
     1
 44
0.0
176
     1
173
     0
176
     1
  0
VISUALSTYLE
  5
38
102
{ACAD_REACTORS
330
2A
102
}
330
2A
100
AcDbVisualStyle
  2
Linepattern
 70
    14
177
     2
291
     1
 71
     2
176
     1
 72
     2
176
     1
 73
     0
176
     1
 90
        0
176
     1
 40
-0.6
176
     1
 41
-30.0
176
     1
 62
     5
 63
     7
421
 16777215
176
     1
 74
     1
176
     1
 91
        4
176
     1
 64
     7
176
     1
 65
   257
176
     1
 75
     7
176
     1
175
     7
176
     1
 42
1.0
176
     1
 92
        8
176
     1
 66
     7
176
     1
 43
1.0
176
     1
 76
     1
176
     1
 77
     6
176
     1
 78
     2
176
     1
 67
     7
176
     1
 79
     5
176
     1
170
     0
176
     1
171
     0
176
     1
290
     0
176
     1
 93
        1
176
     1
 44
0.0
176
     1
173
     0
176
     1
  0
VISUALSTYLE
  5
33
102
{ACAD_REACTORS
330
2A
102
}
330
2A
100
AcDbVisualStyle
  2
Realistic
 70
     8
177
     2
291
     0
 71
     2
176
     1
 72
     2
176
     1
 73
     0
176
     1
 90
        0
176
     1
 40
-0.6
176
     1
 41
-30.0
176
     1
 62
     5
 63
     7
421
 16777215
176
     1
 74
     1
176
     1
 91
        0
176
     1
 64
     7
176
     1
 65
   257
176
     1
 75
     1
176
     1
175
     1
176
     1
 42
1.0
176
     1
 92
        8
176
     1
 66
     8
424
  7895160
176
     1
 43
1.0
176
     1
 76
     1
176
     1
 77
     6
176
     1
 78
     2
176
     1
 67
     7
176
     1
 79
     5
176
     1
170
     0
176
     1
171
     0
176
     1
290
     0
176
     1
 93
       13
176
     1
 44
0.0
176
     1
173
     0
176
     1
  0
VISUALSTYLE
  5
37
102
{ACAD_REACTORS
330
2A
102
}
330
2A
100
AcDbVisualStyle
  2
Thicken
 70
    13
177
     2
291
     1
 71
     2
176
     1
 72
     2
176
     1
 73
     0
176
     1
 90
        0
176
     1
 40
-0.6
176
     1
 41
-30.0
176
     1
 62
     5
 63
     7
421
 16777215
176
     1
 74
     1
176
     1
 91
        4
176
     1
 64
     7
176
     1
 65
   257
176
     1
 75
     1
176
     1
175
     1
176
     1
 42
1.0
176
     1
 92
       12
176
     1
 66
     7
176
     1
 43
1.0
176
     1
 76
     1
176
     1
 77
     6
176
     1
 78
     2
176
     1
 67
     7
176
     1
 79
     5
176
     1
170
     0
176
     1
171
     0
176
     1
290
     0
176
     1
 93
        1
176
     1
 44
0.0
176
     1
173
     0
176
     1
  0
ENDSEC
  0
EOF
