  0
SECTION
  2
HEADER
  9
$ACADVER
  1
AC1024
  9
$ACADMAINTVER
 70
     6
  9
$DWGCODEPAGE
  3
ANSI_932
  9
$INSBASE
 10
0.0
 20
0.0
 30
0.0
  9
$EXTMIN
 10
-6300.0
 20
-4455.0
 30
0.0
  9
$EXTMAX
 10
6300.0
 20
4455.0
 30
0.0
  9
$LIMMIN
 10
-6300.0
 20
-4455.0
  9
$LIMMAX
 10
6300.0
 20
4455.0
  9
$ORTHOMODE
 70
     0
  9
$REGENMODE
 70
     1
  9
$FILLMODE
 70
     1
  9
$QTEXTMODE
 70
     0
  9
$MIRRTEXT
 70
     1
  9
$LTSCALE
 40
30.0
  9
$ATTMODE
 70
     1
  9
$TEXTSIZE
 40
2.5
  9
$TRACEWID
 40
1.0
  9
$TEXTSTYLE
  7
Standard
  9
$CLAYER
  8
0
  9
$CELTYPE
  6
ByLayer
  9
$CECOLOR
 62
   256
  9
$CELTSCALE
 40
1.0
  9
$DISPSILH
 70
     0
  9
$DIMSCALE
 40
1.0
  9
$DIMASZ
 40
2.5
  9
$DIMEXO
 40
0.625
  9
$DIMDLI
 40
3.75
  9
$DIMRND
 40
0.0
  9
$DIMDLE
 40
0.0
  9
$DIMEXE
 40
1.25
  9
$DIMTP
 40
0.0
  9
$DIMTM
 40
0.0
  9
$DIMTXT
 40
2.5
  9
$DIMCEN
 40
2.5
  9
$DIMTSZ
 40
0.0
  9
$DIMTOL
 70
     0
  9
$DIMLIM
 70
     0
  9
$DIMTIH
 70
     0
  9
$DIMTOH
 70
     0
  9
$DIMSE1
 70
     0
  9
$DIMSE2
 70
     0
  9
$DIMTAD
 70
     1
  9
$DIMZIN
 70
     8
  9
$DIMBLK
  1

  9
$DIMASO
 70
     1
  9
$DIMSHO
 70
     1
  9
$DIMPOST
  1

  9
$DIMAPOST
  1

  9
$DIMALT
 70
     0
  9
$DIMALTD
 70
     3
  9
$DIMALTF
 40
0.03937007874016
  9
$DIMLFAC
 40
1.0
  9
$DIMTOFL
 70
     1
  9
$DIMTVP
 40
0.0
  9
$DIMTIX
 70
     0
  9
$DIMSOXD
 70
     0
  9
$DIMSAH
 70
     0
  9
$DIMBLK1
  1

  9
$DIMBLK2
  1

  9
$DIMSTYLE
  2
ISO-25
  9
$DIMCLRD
 70
     0
  9
$DIMCLRE
 70
     0
  9
$DIMCLRT
 70
     0
  9
$DIMTFAC
 40
1.0
  9
$DIMGAP
 40
0.625
  9
$DIMJUST
 70
     0
  9
$DIMSD1
 70
     0
  9
$DIMSD2
 70
     0
  9
$DIMTOLJ
 70
     0
  9
$DIMTZIN
 70
     8
  9
$DIMALTZ
 70
     0
  9
$DIMALTTZ
 70
     0
  9
$DIMUPT
 70
     0
  9
$DIMDEC
 70
     2
  9
$DIMTDEC
 70
     2
  9
$DIMALTU
 70
     2
  9
$DIMALTTD
 70
     3
  9
$DIMTXSTY
  7
Standard
  9
$DIMAUNIT
 70
     0
  9
$DIMADEC
 70
     0
  9
$DIMALTRND
 40
0.0
  9
$DIMAZIN
 70
     0
  9
$DIMDSEP
 70
    44
  9
$DIMATFIT
 70
     3
  9
$DIMFRAC
 70
     0
  9
$DIMLDRBLK
  1

  9
$DIMLUNIT
 70
     2
  9
$DIMLWD
 70
    -2
  9
$DIMLWE
 70
    -2
  9
$DIMTMOVE
 70
     0
  9
$DIMFXL
 40
1.0
  9
$DIMFXLON
 70
     0
  9
$DIMJOGANG
 40
0.7853981633974483
  9
$DIMTFILL
 70
     0
  9
$DIMTFILLCLR
 70
     0
  9
$DIMARCSYM
 70
     0
  9
$DIMLTYPE
  6

  9
$DIMLTEX1
  6

  9
$DIMLTEX2
  6

  9
$DIMTXTDIRECTION
 70
     0
  9
$LUNITS
 70
     2
  9
$LUPREC
 70
     4
  9
$SKETCHINC
 40
1.0
  9
$FILLETRAD
 40
10.0
  9
$AUNITS
 70
     0
  9
$AUPREC
 70
     0
  9
$MENU
  1
.
  9
$ELEVATION
 40
0.0
  9
$PELEVATION
 40
0.0
  9
$THICKNESS
 40
0.0
  9
$LIMCHECK
 70
     0
  9
$CHAMFERA
 40
10.0
  9
$CHAMFERB
 40
10.0
  9
$CHAMFERC
 40
20.0
  9
$CHAMFERD
 40
0.0
  9
$SKPOLY
 70
     0
  9
$TDCREATE
 40
2459432.488196203
  9
$TDUCREATE
 40
2459432.113196203
  9
$TDUPDATE
 40
2459432.488196215
  9
$TDUUPDATE
 40
2459432.113196215
  9
$TDINDWG
 40
0.0000000116
  9
$TDUSRTIMER
 40
0.0000000116
  9
$USRTIMER
 70
     1
  9
$ANGBASE
 50
0.0
  9
$ANGDIR
 70
     0
  9
$PDMODE
 70
     0
  9
$PDSIZE
 40
0.0
  9
$PLINEWID
 40
0.0
  9
$SPLFRAME
 70
     0
  9
$SPLINETYPE
 70
     6
  9
$SPLINESEGS
 70
     8
  9
$HANDSEED
  5
426
  9
$SURFTAB1
 70
     6
  9
$SURFTAB2
 70
     6
  9
$SURFTYPE
 70
     6
  9
$SURFU
 70
     6
  9
$SURFV
 70
     6
  9
$UCSBASE
  2

  9
$UCSNAME
  2

  9
$UCSORG
 10
0.0
 20
0.0
 30
0.0
  9
$UCSXDIR
 10
1.0
 20
0.0
 30
0.0
  9
$UCSYDIR
 10
0.0
 20
1.0
 30
0.0
  9
$UCSORTHOREF
  2

  9
$UCSORTHOVIEW
 70
     0
  9
$UCSORGTOP
 10
0.0
 20
0.0
 30
0.0
  9
$UCSORGBOTTOM
 10
0.0
 20
0.0
 30
0.0
  9
$UCSORGLEFT
 10
0.0
 20
0.0
 30
0.0
  9
$UCSORGRIGHT
 10
0.0
 20
0.0
 30
0.0
  9
$UCSORGFRONT
 10
0.0
 20
0.0
 30
0.0
  9
$UCSORGBACK
 10
0.0
 20
0.0
 30
0.0
  9
$PUCSBASE
  2

  9
$PUCSNAME
  2

  9
$PUCSORG
 10
0.0
 20
0.0
 30
0.0
  9
$PUCSXDIR
 10
1.0
 20
0.0
 30
0.0
  9
$PUCSYDIR
 10
0.0
 20
1.0
 30
0.0
  9
$PUCSORTHOREF
  2

  9
$PUCSORTHOVIEW
 70
     0
  9
$PUCSORGTOP
 10
0.0
 20
0.0
 30
0.0
  9
$PUCSORGBOTTOM
 10
0.0
 20
0.0
 30
0.0
  9
$PUCSORGLEFT
 10
0.0
 20
0.0
 30
0.0
  9
$PUCSORGRIGHT
 10
0.0
 20
0.0
 30
0.0
  9
$PUCSORGFRONT
 10
0.0
 20
0.0
 30
0.0
  9
$PUCSORGBACK
 10
0.0
 20
0.0
 30
0.0
  9
$USERI1
 70
     0
  9
$USERI2
 70
     0
  9
$USERI3
 70
     0
  9
$USERI4
 70
     0
  9
$USERI5
 70
     0
  9
$USERR1
 40
0.0
  9
$USERR2
 40
0.0
  9
$USERR3
 40
0.0
  9
$USERR4
 40
0.0
  9
$USERR5
 40
0.0
  9
$WORLDVIEW
 70
     1
  9
$SHADEDGE
 70
     3
  9
$SHADEDIF
 70
    70
  9
$TILEMODE
 70
     1
  9
$MAXACTVP
 70
    64
  9
$PINSBASE
 10
0.0
 20
0.0
 30
0.0
  9
$PLIMCHECK
 70
     0
  9
$PEXTMIN
 10
1.000000000000000E+20
 20
1.000000000000000E+20
 30
1.000000000000000E+20
  9
$PEXTMAX
 10
-1.000000000000000E+20
 20
-1.000000000000000E+20
 30
-1.000000000000000E+20
  9
$PLIMMIN
 10
0.0
 20
0.0
  9
$PLIMMAX
 10
420.0
 20
297.0
  9
$UNITMODE
 70
     0
  9
$VISRETAIN
 70
     1
  9
$PLINEGEN
 70
     0
  9
$PSLTSCALE
 70
     1
  9
$TREEDEPTH
 70
  3020
  9
$CMLSTYLE
  2
Standard
  9
$CMLJUST
 70
     0
  9
$CMLSCALE
 40
20.0
  9
$PROXYGRAPHICS
 70
     1
  9
$MEASUREMENT
 70
     1
  9
$CELWEIGHT
370
    -1
  9
$ENDCAPS
280
     0
  9
$JOINSTYLE
280
     0
  9
$LWDISPLAY
290
     0
  9
$INSUNITS
 70
     4
  9
$HYPERLINKBASE
  1

  9
$STYLESHEET
  1

  9
$XEDIT
290
     1
  9
$CEPSNTYPE
380
     0
  9
$PSTYLEMODE
290
     1
  9
$FINGERPRINTGUID
  2
{3B95F0ED-640A-4AF7-A6E9-21A996F07CF6}
  9
$VERSIONGUID
  2
{FAEB1C32-E019-11D5-929B-00C0DF256EC4}
  9
$EXTNAMES
290
     1
  9
$PSVPSCALE
 40
0.0
  9
$OLESTARTUP
290
     0
  9
$SORTENTS
280
   127
  9
$INDEXCTL
280
     0
  9
$HIDETEXT
280
     1
  9
$XCLIPFRAME
280
     2
  9
$HALOGAP
280
     0
  9
$OBSCOLOR
 70
   257
  9
$OBSLTYPE
280
     0
  9
$INTERSECTIONDISPLAY
280
     0
  9
$INTERSECTIONCOLOR
 70
   257
  9
$DIMASSOC
280
     2
  9
$PROJECTNAME
  1

  9
$CAMERADISPLAY
290
     0
  9
$LENSLENGTH
 40
50.0
  9
$CAMERAHEIGHT
 40
0.0
  9
$STEPSPERSEC
 40
2.0
  9
$STEPSIZE
 40
6.0
  9
$3DDWFPREC
 40
2.0
  9
$PSOLWIDTH
 40
5.0
  9
$PSOLHEIGHT
 40
80.0
  9
$LOFTANG1
 40
1.570796326794897
  9
$LOFTANG2
 40
1.570796326794897
  9
$LOFTMAG1
 40
0.0
  9
$LOFTMAG2
 40
0.0
  9
$LOFTPARAM
 70
     7
  9
$LOFTNORMALS
280
     1
  9
$LATITUDE
 40
37.795
  9
$LONGITUDE
 40
-122.394
  9
$NORTHDIRECTION
 40
0.0
  9
$TIMEZONE
 70
 -8000
  9
$LIGHTGLYPHDISPLAY
280
     1
  9
$TILEMODELIGHTSYNCH
280
     1
  9
$SOLIDHIST
280
     1
  9
$SHOWHIST
280
     1
  9
$DWFFRAME
280
     2
  9
$DGNFRAME
280
     2
  9
$REALWORLDSCALE
290
     1
  9
$INTERFERECOLOR
 62
   256
  9
$CSHADOW
280
     0
  9
$SHADOWPLANELOCATION
 40
0.0
  0
ENDSEC
  0
SECTION
  2
CLASSES
  0
CLASS
  1
ACDBDICTIONARYWDFLT
  2
AcDbDictionaryWithDefault
  3
ObjectDBX Classes
 90
        0
 91
        4
280
     0
281
     0
  0
CLASS
  1
VISUALSTYLE
  2
AcDbVisualStyle
  3
ObjectDBX Classes
 90
     4095
 91
        4
280
     0
281
     0
  0
CLASS
  1
MATERIAL
  2
AcDbMaterial
  3
ObjectDBX Classes
 90
     1153
 91
        4
280
     0
281
     0
  0
ENDSEC
  0
SECTION
  2
TABLES
  0
TABLE
  2
VPORT
  5
8
330
0
100
AcDbSymbolTable
 70
     1
  0
VPORT
  5
29
330
8
100
AcDbSymbolTableRecord
100
AcDbViewportTableRecord
  2
*Active
 70
     0
 10
0.0
 20
0.0
 11
1.0
 21
1.0
 12
0.0
 22
0.0
 13
0.0
 23
0.0
 14
10.0
 24
10.0
 15
10.0
 25
10.0
 16
0.0
 26
0.0
 36
1.0
 17
0.0
 27
0.0
 37
0.0
 40
9801.0
 41
1.414141414141414
 42
50.0
 43
0.0
 44
0.0
 50
0.0
 51
0.0
 71
     0
 72
 10000
 73
     1
 74
     3
 75
     0
 76
     0
 77
     0
 78
     0
281
     0
 65
     1
110
0.0
120
0.0
130
0.0
111
1.0
121
0.0
131
0.0
112
0.0
122
1.0
132
0.0
 79
     0
146
0.0
 60
     3
 61
     5
292
     1
282
     1
141
0.0
142
0.0
 63
   250
  0
ENDTAB
  0
TABLE
  2
LTYPE
  5
5
330
0
100
AcDbSymbolTable
 70
     4
  0
LTYPE
  5
14
330
5
100
AcDbSymbolTableRecord
100
AcDbLinetypeTableRecord
  2
ByBlock
 70
     0
  3

 72
    65
 73
     0
 40
0.0
  0
LTYPE
  5
15
330
5
100
AcDbSymbolTableRecord
100
AcDbLinetypeTableRecord
  2
ByLayer
 70
     0
  3

 72
    65
 73
     0
 40
0.0
  0
LTYPE
  5
16
330
5
100
AcDbSymbolTableRecord
100
AcDbLinetypeTableRecord
  2
Continuous
 70
     0
  3
Solid line
 72
    65
 73
     0
 40
0.0
  0
LTYPE
  5
3F
330
5
100
AcDbSymbolTableRecord
100
AcDbLinetypeTableRecord
  2
JWW_HOJO
 70
     0
  3
  -   -   -   -   -   -   -   - 
 72
    65
 73
     2
 40
1.693333333333333
 49
-1.27
 74
     0
 49
0.4233333333333333
 74
     0
  0
LTYPE
  5
40
330
5
100
AcDbSymbolTableRecord
100
AcDbLinetypeTableRecord
  2
JWW_CENTER1
 70
     0
  3
-----  --  ----------  --  -----
 72
    65
 73
     4
 40
6.773333333333333
 49
4.233333333333333
 74
     0
 49
-0.8466666666666667
 74
     0
 49
0.8466666666666667
 74
     0
 49
-0.8466666666666667
 74
     0
  0
LTYPE
  5
41
330
5
100
AcDbSymbolTableRecord
100
AcDbLinetypeTableRecord
  2
JWW_DASHED1
 70
     0
  3
-  --  --  --  --  --  --  --  -
 72
    65
 73
     2
 40
1.693333333333333
 49
0.8466666666666667
 74
     0
 49
-0.8466666666666667
 74
     0
  0
ENDTAB
  0
TABLE
  2
LAYER
  5
2
330
0
100
AcDbSymbolTable
 70
    13
  0
LAYER
  5
10
330
2
100
AcDbSymbolTableRecord
100
AcDbLayerTableRecord
  2
0
 70
     0
 62
     7
  6
Continuous
370
    -3
390
F
347
3E
  0
LAYER
  5
42
330
2
100
AcDbSymbolTableRecord
100
AcDbLayerTableRecord
  2
F-1_枠
 70
     0
 62
     7
  6
Continuous
370
    -3
390
F
347
3E
  0
LAYER
  5
43
330
2
100
AcDbSymbolTableRecord
100
AcDbLayerTableRecord
  2
F-0_補助線
 70
     0
 62
     7
  6
Continuous
370
    -3
390
F
347
3E
  0
LAYER
  5
44
330
2
100
AcDbSymbolTableRecord
100
AcDbLayerTableRecord
  2
0-0_補助線
 70
     0
 62
     7
  6
Continuous
370
    -3
390
F
347
3E
  0
LAYER
  5
45
330
2
100
AcDbSymbolTableRecord
100
AcDbLayerTableRecord
  2
F-A_文字
 70
     0
 62
     7
  6
Continuous
370
    -3
390
F
347
3E
  0
LAYER
  5
46
330
2
100
AcDbSymbolTableRecord
100
AcDbLayerTableRecord
  2
0-B_寸法
 70
     0
 62
     7
  6
Continuous
370
    -3
390
F
347
3E
  0
LAYER
  5
47
330
2
100
AcDbSymbolTableRecord
100
AcDbLayerTableRecord
  2
0-A_文字
 70
     0
 62
     7
  6
Continuous
370
    -3
390
F
347
3E
  0
LAYER
  5
48
330
2
100
AcDbSymbolTableRecord
100
AcDbLayerTableRecord
  2
0-3_仕上げ
 70
     0
 62
     7
  6
Continuous
370
    -3
390
F
347
3E
  0
LAYER
  5
49
330
2
100
AcDbSymbolTableRecord
100
AcDbLayerTableRecord
  2
0-2_扉
 70
     0
 62
     7
  6
Continuous
370
    -3
390
F
347
3E
  0
LAYER
  5
4A
330
2
100
AcDbSymbolTableRecord
100
AcDbLayerTableRecord
  2
0-4_枠
 70
     0
 62
     7
  6
Continuous
370
    -3
390
F
347
3E
  0
LAYER
  5
4B
330
2
100
AcDbSymbolTableRecord
100
AcDbLayerTableRecord
  2
0-1_通り芯
 70
     0
 62
     7
  6
Continuous
370
    -3
390
F
347
3E
  0
LAYER
  5
4C
330
2
100
AcDbSymbolTableRecord
100
AcDbLayerTableRecord
  2
0-C_ハッチ
 70
     0
 62
     7
  6
Continuous
370
    -3
390
F
347
3E
  0
LAYER
  5
4D
330
2
100
AcDbSymbolTableRecord
100
AcDbLayerTableRecord
  2
引手
 70
     0
 62
     7
  6
Continuous
370
    -3
390
F
347
3E
  0
ENDTAB
  0
TABLE
  2
STYLE
  5
3
330
0
100
AcDbSymbolTable
 70
     1
  0
STYLE
  5
11
330
3
100
AcDbSymbolTableRecord
100
AcDbTextStyleTableRecord
  2
Standard
 70
     0
 40
0.0
 41
1.0
 50
0.0
 71
     0
 42
2.5
  3
txt
  4

  0
ENDTAB
  0
TABLE
  2
VIEW
  5
6
330
0
100
AcDbSymbolTable
 70
     0
  0
ENDTAB
  0
TABLE
  2
UCS
  5
7
330
0
100
AcDbSymbolTable
 70
     0
  0
ENDTAB
  0
TABLE
  2
APPID
  5
9
330
0
100
AcDbSymbolTable
 70
     1
  0
APPID
  5
12
330
9
100
AcDbSymbolTableRecord
100
AcDbRegAppTableRecord
  2
ACAD
 70
     0
  0
ENDTAB
  0
TABLE
  2
DIMSTYLE
  5
A
330
0
100
AcDbSymbolTable
 70
     1
100
AcDbDimStyleTable
  0
DIMSTYLE
105
27
330
A
100
AcDbSymbolTableRecord
100
AcDbDimStyleTableRecord
  2
ISO-25
 70
     0
 41
2.5
 42
0.625
 43
3.75
 44
1.25
 73
     0
 74
     0
 77
     1
 78
     8
140
2.5
141
2.5
143
0.03937007874016
147
0.625
171
     3
172
     1
178
     0
271
     2
272
     2
274
     3
278
    44
283
     0
284
     8
340
11
  0
ENDTAB
  0
TABLE
  2
BLOCK_RECORD
  5
1
330
0
100
AcDbSymbolTable
 70
     1
  0
BLOCK_RECORD
  5
1F
330
1
100
AcDbSymbolTableRecord
100
AcDbBlockTableRecord
  2
*Model_Space
340
22
 70
     0
280
     1
281
     0
  0
BLOCK_RECORD
  5
1B
330
1
100
AcDbSymbolTableRecord
100
AcDbBlockTableRecord
  2
*Paper_Space
340
1E
 70
     0
280
     1
281
     0
  0
BLOCK_RECORD
  5
23
330
1
100
AcDbSymbolTableRecord
100
AcDbBlockTableRecord
  2
*Paper_Space0
340
26
 70
     0
280
     1
281
     0
  0
ENDTAB
  0
ENDSEC
  0
SECTION
  2
BLOCKS
  0
BLOCK
  5
20
330
1F
100
AcDbEntity
  8
0
100
AcDbBlockBegin
  2
*Model_Space
 70
     0
 10
0.0
 20
0.0
 30
0.0
  3
*Model_Space
  1

  0
ENDBLK
  5
21
330
1F
100
AcDbEntity
  8
0
100
AcDbBlockEnd
  0
BLOCK
  5
1C
330
1B
100
AcDbEntity
 67
     1
  8
0
100
AcDbBlockBegin
  2
*Paper_Space
 70
     0
 10
0.0
 20
0.0
 30
0.0
  3
*Paper_Space
  1

  0
ENDBLK
  5
1D
330
1B
100
AcDbEntity
 67
     1
  8
0
100
AcDbBlockEnd
  0
BLOCK
  5
24
330
23
100
AcDbEntity
  8
0
100
AcDbBlockBegin
  2
*Paper_Space0
 70
     0
 10
0.0
 20
0.0
 30
0.0
  3
*Paper_Space0
  1

  0
ENDBLK
  5
25
330
23
100
AcDbEntity
  8
0
100
AcDbBlockEnd
  0
ENDSEC
  0
SECTION
  2
ENTITIES
  0
LINE
  5
4E
330
1F
100
AcDbEntity
  8
F-1_枠
  6
Continuous
 62
   200
370
    20
100
AcDbLine
 10
-5999.999752560178
 20
4174.999769056166
 30
0.0
 11
5699.998762800888
 21
4174.999769056166
 31
0.0
  0
LINE
  5
4F
330
1F
100
AcDbEntity
  8
F-0_補助線
  6
JWW_HOJO
 62
   120
370
     5
100
AcDbLine
 10
-6300.0
 20
-4455.0
 30
0.0
 11
-6300.0
 21
4424.999604096284
 31
0.0
  0
LINE
  5
50
330
1F
100
AcDbEntity
  8
F-0_補助線
  6
JWW_HOJO
 62
   120
370
     5
100
AcDbLine
 10
5999.999010240709
 20
4424.999604096284
 30
0.0
 11
5999.999010240709
 21
-4455.0
 31
0.0
  0
LINE
  5
51
330
1F
100
AcDbEntity
  8
F-0_補助線
  6
JWW_HOJO
 62
   120
370
     5
100
AcDbLine
 10
5999.999010240709
 20
-4455.0
 30
0.0
 11
-6300.0
 21
-4455.0
 31
0.0
  0
LINE
  5
52
330
1F
100
AcDbEntity
  8
F-1_枠
  6
Continuous
 62
   200
370
    20
100
AcDbLine
 10
-5999.999752560178
 20
4164.999983504013
 30
0.0
 11
5699.998762800888
 21
4164.999983504013
 31
0.0
  0
LINE
  5
53
330
1F
100
AcDbEntity
  8
F-1_枠
  6
Continuous
 62
   200
370
    20
100
AcDbLine
 10
-5999.999752560178
 20
4169.999505120355
 30
0.0
 11
5699.998762800888
 21
4169.999505120355
 31
0.0
  0
LINE
  5
54
330
1F
100
AcDbEntity
  8
F-1_枠
  6
Continuous
 62
   200
370
    20
100
AcDbLine
 10
5689.998977248734
 20
4174.999769056166
 30
0.0
 11
5689.998977248734
 21
-4205.000164959882
 31
0.0
  0
LINE
  5
55
330
1F
100
AcDbEntity
  8
F-1_枠
  6
Continuous
 62
   200
370
    20
100
AcDbLine
 10
5694.998498865077
 20
4174.999769056166
 30
0.0
 11
5694.998498865077
 21
-4205.000164959882
 31
0.0
  0
LINE
  5
56
330
1F
100
AcDbEntity
  8
F-1_枠
  6
Continuous
 62
   200
370
    20
100
AcDbLine
 10
5699.998762800888
 20
4174.999769056166
 30
0.0
 11
5699.998762800888
 21
-4205.000164959882
 31
0.0
  0
LINE
  5
57
330
1F
100
AcDbEntity
  8
F-1_枠
  6
Continuous
 62
   200
370
    20
100
AcDbLine
 10
-5989.999990205507
 20
4174.999769056166
 30
0.0
 11
-5989.999990205507
 21
-4205.000164959882
 31
0.0
  0
LINE
  5
58
330
1F
100
AcDbEntity
  8
F-1_枠
  6
Continuous
 62
   200
370
    20
100
AcDbLine
 10
-5994.999975771518
 20
4174.999769056166
 30
0.0
 11
-5994.999975771518
 21
-4205.000164959882
 31
0.0
  0
LINE
  5
59
330
1F
100
AcDbEntity
  8
F-1_枠
  6
Continuous
 62
   200
370
    20
100
AcDbLine
 10
-5999.99998453501
 20
4174.999769056166
 30
0.0
 11
-5999.99998453501
 21
-4205.000164959882
 31
0.0
  0
LINE
  5
5A
330
1F
100
AcDbEntity
  8
F-1_枠
  6
Continuous
 62
   200
370
    20
100
AcDbLine
 10
-5490.000018557986
 20
4174.999769056166
 30
0.0
 11
-5490.000018557986
 21
-3790.000179909372
 31
0.0
  0
LINE
  5
5B
330
1F
100
AcDbEntity
  8
F-0_補助線
  6
JWW_HOJO
 62
   120
370
     5
100
AcDbLine
 10
-6300.0
 20
4424.999604096284
 30
0.0
 11
5999.999010240709
 21
4424.999604096284
 31
0.0
  0
LINE
  5
5C
330
1F
100
AcDbEntity
  8
F-0_補助線
  6
JWW_HOJO
 62
     7
370
     9
100
AcDbLine
 10
849.9995876002961
 20
-3795.000003092998
 30
0.0
 11
849.9995876002961
 21
-4195.000008247994
 31
0.0
  0
LINE
  5
5D
330
1F
100
AcDbEntity
  8
F-0_補助線
  6
JWW_HOJO
 62
     7
370
     9
100
AcDbLine
 10
349.9999175200594
 20
-3795.000003092998
 30
0.0
 11
349.9999175200594
 21
-4195.000008247994
 31
0.0
  0
LINE
  5
5E
330
1F
100
AcDbEntity
  8
F-1_枠
  6
Continuous
 62
   200
370
    20
100
AcDbLine
 10
5699.998762800888
 20
-4205.000002577498
 30
0.0
 11
-5999.999752560178
 21
-4205.000002577498
 31
0.0
  0
LINE
  5
5F
330
1F
100
AcDbEntity
  8
F-1_枠
  6
Continuous
 62
   200
370
    20
100
AcDbLine
 10
5699.998762800888
 20
-4199.999993814004
 30
0.0
 11
-5999.999752560178
 21
-4199.999993814004
 31
0.0
  0
LINE
  5
60
330
1F
100
AcDbEntity
  8
F-1_枠
  6
Continuous
 62
   200
370
    20
100
AcDbLine
 10
5699.998762800888
 20
-4195.000008247994
 30
0.0
 11
-5999.999752560178
 21
-4195.000008247994
 31
0.0
  0
LINE
  5
61
330
1F
100
AcDbEntity
  8
F-1_枠
  6
Continuous
 62
   200
370
    20
100
AcDbLine
 10
4189.999224688556
 20
-3795.000003092998
 30
0.0
 11
4189.999224688556
 21
-4195.000008247994
 31
0.0
  0
LINE
  5
62
330
1F
100
AcDbEntity
  8
F-1_枠
  6
Continuous
 62
   200
370
    20
100
AcDbLine
 10
2689.998729808911
 20
-3795.000003092998
 30
0.0
 11
2689.998729808911
 21
-4195.000008247994
 31
0.0
  0
LINE
  5
63
330
1F
100
AcDbEntity
  8
F-1_枠
  6
Continuous
 62
   200
370
    20
100
AcDbLine
 10
-150.0001237199109
 20
-3795.000003092998
 30
0.0
 11
-150.0001237199109
 21
-4195.000008247994
 31
0.0
  0
LINE
  5
64
330
1F
100
AcDbEntity
  8
F-1_枠
  6
Continuous
 62
   200
370
    20
100
AcDbLine
 10
-150.0001237199109
 20
-3994.999936078046
 30
0.0
 11
5689.998977248734
 21
-3995.005364289155
 31
0.0
  0
LINE
  5
65
330
1F
100
AcDbEntity
  8
F-0_補助線
  6
JWW_HOJO
 62
     7
370
     9
100
AcDbLine
 10
-5989.999990205507
 20
-3994.99993607839
 30
0.0
 11
-150.0001237199109
 21
-3994.99993607839
 31
0.0
  0
LINE
  5
66
330
1F
100
AcDbEntity
  8
F-0_補助線
  6
JWW_HOJO
 62
     7
370
     9
100
AcDbLine
 10
-5989.999990205507
 20
-3904.99993607839
 30
0.0
 11
-150.0001237199109
 21
-3904.99993607839
 31
0.0
  0
LINE
  5
67
330
1F
100
AcDbEntity
  8
F-0_補助線
  6
JWW_HOJO
 62
     7
370
     9
100
AcDbLine
 10
-5989.999990205507
 20
-4084.99993607839
 30
0.0
 11
-150.0001237199109
 21
-4084.99993607839
 31
0.0
  0
LINE
  5
68
330
1F
100
AcDbEntity
  8
F-0_補助線
  6
JWW_HOJO
 62
     7
370
     9
100
AcDbLine
 10
-150.0002584955388
 20
-4139.999739777983
 30
0.0
 11
5689.998842473105
 21
-4140.005167989091
 31
0.0
  0
LINE
  5
69
330
1F
100
AcDbEntity
  8
F-0_補助線
  6
JWW_HOJO
 62
     7
370
     9
100
AcDbLine
 10
-150.0001748415872
 20
-4049.999739778022
 30
0.0
 11
5689.998926127057
 21
-4050.005167989131
 31
0.0
  0
LINE
  5
6A
330
1F
100
AcDbEntity
  8
F-0_補助線
  6
JWW_HOJO
 62
     7
370
     9
100
AcDbLine
 10
-150.0000725978671
 20
-3939.99973721807
 30
0.0
 11
5689.999028370777
 21
-3940.005165429179
 31
0.0
  0
LINE
  5
6B
330
1F
100
AcDbEntity
  8
F-0_補助線
  6
JWW_HOJO
 62
     7
370
     9
100
AcDbLine
 10
-149.9999889439155
 20
-3849.999737218109
 30
0.0
 11
5689.999112024728
 21
-3850.005165429218
 31
0.0
  0
LINE
  5
6C
330
1F
100
AcDbEntity
  8
F-0_補助線
  6
JWW_HOJO
 62
     7
370
     9
100
AcDbLine
 10
2779.998729808911
 20
-3795.000003092998
 30
0.0
 11
2779.998729808911
 21
-4195.000008247994
 31
0.0
  0
LINE
  5
6D
330
1F
100
AcDbEntity
  8
F-0_補助線
  6
JWW_HOJO
 62
     7
370
     9
100
AcDbLine
 10
-60.0001237199109
 20
-3795.000003092998
 30
0.0
 11
-60.0001237199109
 21
-4195.000008247994
 31
0.0
  0
LINE
  5
6E
330
1F
100
AcDbEntity
  8
F-0_補助線
  6
JWW_HOJO
 62
     7
370
     9
100
AcDbLine
 10
4279.999224688556
 20
-3795.000003092998
 30
0.0
 11
4279.999224688556
 21
-4195.000008247994
 31
0.0
  0
LINE
  5
6F
330
1F
100
AcDbEntity
  8
F-0_補助線
  6
JWW_HOJO
 62
     7
370
     9
100
AcDbLine
 10
-5247.547376752838
 20
-3795.000003092999
 30
0.0
 11
-5247.547376752838
 21
-4205.000164959882
 31
0.0
  0
LINE
  5
70
330
1F
100
AcDbEntity
  8
F-0_補助線
  6
JWW_HOJO
 62
     7
370
     9
100
AcDbLine
 10
-210.0001237199109
 20
-3795.000003092998
 30
0.0
 11
-210.0001237199109
 21
-4195.000008247994
 31
0.0
  0
LINE
  5
71
330
1F
100
AcDbEntity
  8
0-0_補助線
  6
JWW_HOJO
 62
     7
370
     9
100
AcDbLine
 10
-5490.000018557986
 20
1418.000148463893
 30
0.0
 11
5689.998977248734
 21
1418.000148463893
 31
0.0
  0
LINE
  5
72
330
1F
100
AcDbEntity
  8
0-0_補助線
  6
JWW_HOJO
 62
   120
370
     5
100
AcDbLine
 10
-5490.000018557986
 20
1368.000148463894
 30
0.0
 11
5689.998977248734
 21
1368.000148463894
 31
0.0
  0
LINE
  5
73
330
1F
100
AcDbEntity
  8
0-0_補助線
  6
JWW_HOJO
 62
     7
370
     9
100
AcDbLine
 10
-5490.000018557986
 20
-2701.250083820241
 30
0.0
 11
5699.998762800888
 21
-2701.250083820241
 31
0.0
  0
LINE
  5
74
330
1F
100
AcDbEntity
  8
0-0_補助線
  6
JWW_HOJO
 62
   120
370
     5
100
AcDbLine
 10
-5490.000018557986
 20
-2751.250083820241
 30
0.0
 11
5699.998762800888
 21
-2751.250083820241
 31
0.0
  0
LINE
  5
75
330
1F
100
AcDbEntity
  8
F-1_枠
  6
Continuous
 62
   200
370
    20
100
AcDbLine
 10
-2916.000018557986
 20
-3790.000179909372
 30
0.0
 11
-2916.000018557986
 21
4174.999769056166
 31
0.0
  0
LINE
  5
76
330
1F
100
AcDbEntity
  8
F-1_枠
  6
Continuous
 62
   200
370
    20
100
AcDbLine
 10
-522.0000185579818
 20
-3790.000179909372
 30
0.0
 11
-522.0000185579818
 21
4174.999769056166
 31
0.0
  0
LINE
  5
77
330
1F
100
AcDbEntity
  8
F-1_枠
  6
Continuous
 62
   200
370
    20
100
AcDbLine
 10
1677.99998144202
 20
-3790.000179909372
 30
0.0
 11
1677.99998144202
 21
4174.999769056166
 31
0.0
  0
LINE
  5
78
330
1F
100
AcDbEntity
  8
F-1_枠
  6
Continuous
 62
   200
370
    20
100
AcDbLine
 10
3751.999981442023
 20
-3790.000179909372
 30
0.0
 11
3751.999981442023
 21
4174.999769056166
 31
0.0
  0
LINE
  5
79
330
1F
100
AcDbEntity
  8
0-0_補助線
  6
JWW_HOJO
 62
     7
370
     9
100
AcDbLine
 10
-4890.000018557986
 20
3964.999818544131
 30
0.0
 11
-4890.000018557986
 21
-3790.000179909372
 31
0.0
  0
LINE
  5
7A
330
1F
100
AcDbEntity
  8
0-0_補助線
  6
JWW_HOJO
 62
   120
370
     5
100
AcDbLine
 10
-4940.000018557987
 20
3964.999818544131
 30
0.0
 11
-4940.000018557987
 21
-3790.000179909372
 31
0.0
  0
LINE
  5
7B
330
1F
100
AcDbEntity
  8
0-0_補助線
  6
JWW_HOJO
 62
     7
370
     9
100
AcDbLine
 10
-2316.000018557984
 20
3964.999818544131
 30
0.0
 11
-2316.000018557984
 21
-3790.000179909372
 31
0.0
  0
LINE
  5
7C
330
1F
100
AcDbEntity
  8
0-0_補助線
  6
JWW_HOJO
 62
   120
370
     5
100
AcDbLine
 10
-2366.000018557984
 20
3964.999818544131
 30
0.0
 11
-2366.000018557984
 21
-3790.000179909372
 31
0.0
  0
LINE
  5
7D
330
1F
100
AcDbEntity
  8
0-0_補助線
  6
JWW_HOJO
 62
     7
370
     9
100
AcDbLine
 10
77.99998144201822
 20
3964.999818544131
 30
0.0
 11
77.99998144201822
 21
-3790.000179909372
 31
0.0
  0
LINE
  5
7E
330
1F
100
AcDbEntity
  8
0-0_補助線
  6
JWW_HOJO
 62
   120
370
     5
100
AcDbLine
 10
27.99998144201936
 20
3964.999818544131
 30
0.0
 11
27.99998144201936
 21
-3790.000179909372
 31
0.0
  0
LINE
  5
7F
330
1F
100
AcDbEntity
  8
0-0_補助線
  6
JWW_HOJO
 62
     7
370
     9
100
AcDbLine
 10
2277.999981442021
 20
3964.999818544131
 30
0.0
 11
2277.999981442021
 21
-3790.000179909372
 31
0.0
  0
LINE
  5
80
330
1F
100
AcDbEntity
  8
0-0_補助線
  6
JWW_HOJO
 62
   120
370
     5
100
AcDbLine
 10
2227.999981442021
 20
3964.999818544131
 30
0.0
 11
2227.999981442021
 21
-3790.000179909372
 31
0.0
  0
LINE
  5
81
330
1F
100
AcDbEntity
  8
0-0_補助線
  6
JWW_HOJO
 62
     7
370
     9
100
AcDbLine
 10
4351.999981442024
 20
3964.999818544131
 30
0.0
 11
4351.999981442024
 21
-3790.000179909372
 31
0.0
  0
LINE
  5
82
330
1F
100
AcDbEntity
  8
0-0_補助線
  6
JWW_HOJO
 62
   120
370
     5
100
AcDbLine
 10
4301.999981442023
 20
3964.999818544131
 30
0.0
 11
4301.999981442023
 21
-3790.000179909372
 31
0.0
  0
LINE
  5
83
330
1F
100
AcDbEntity
  8
0-0_補助線
  6
JWW_HOJO
 62
     7
370
     9
100
AcDbLine
 10
-5490.000018557986
 20
1168.000148463894
 30
0.0
 11
5689.998977248734
 21
1168.000148463894
 31
0.0
  0
LINE
  5
84
330
1F
100
AcDbEntity
  8
0-0_補助線
  6
JWW_HOJO
 62
     7
370
     9
100
AcDbLine
 10
-5490.000018557986
 20
-2951.250083820241
 30
0.0
 11
5699.998762800888
 21
-2951.250083820241
 31
0.0
  0
LINE
  5
85
330
1F
100
AcDbEntity
  8
F-A_文字
  6
Continuous
 62
     7
370
     9
100
AcDbLine
 10
-2916.000018557986
 20
184.5000148463899
 30
0.0
 11
-5490.000018557986
 21
-3790.000017526987
 31
0.0
  0
LINE
  5
86
330
1F
100
AcDbEntity
  8
F-A_文字
  6
Continuous
 62
     7
370
     9
100
AcDbLine
 10
-522.0000185579818
 20
184.5000148463899
 30
0.0
 11
-2916.000018557986
 21
-3790.000017526987
 31
0.0
  0
LINE
  5
87
330
1F
100
AcDbEntity
  8
F-A_文字
  6
Continuous
 62
     7
370
     9
100
AcDbLine
 10
1677.99998144202
 20
184.5000148463899
 30
0.0
 11
-522.0000185579818
 21
-3790.000179909372
 31
0.0
  0
LINE
  5
88
330
1F
100
AcDbEntity
  8
F-A_文字
  6
Continuous
 62
     7
370
     9
100
AcDbLine
 10
1677.99998144202
 20
-3790.000017526987
 30
0.0
 11
3751.999981442023
 21
184.5000148463899
 31
0.0
  0
LINE
  5
89
330
1F
100
AcDbEntity
  8
F-A_文字
  6
Continuous
 62
     7
370
     9
100
AcDbLine
 10
3751.999981442023
 20
-3790.000017526987
 30
0.0
 11
5689.998977248734
 21
184.5000148463899
 31
0.0
  0
LINE
  5
8A
330
1F
100
AcDbEntity
  8
F-1_枠
  6
Continuous
 62
   200
370
    20
100
AcDbLine
 10
5699.998762800888
 20
-3795.000003092998
 30
0.0
 11
-5999.99998453501
 21
-3795.000003092998
 31
0.0
  0
LINE
  5
8B
330
1F
100
AcDbEntity
  8
F-1_枠
  6
Continuous
 62
   200
370
    20
100
AcDbLine
 10
-5999.99998453501
 20
3964.999818544131
 30
0.0
 11
5699.998762800888
 21
3964.999818544131
 31
0.0
  0
LINE
  5
8C
330
1F
100
AcDbEntity
  8
F-1_枠
  6
Continuous
 62
   200
370
    20
100
AcDbLine
 10
5699.998762800888
 20
-3790.000017526987
 30
0.0
 11
-5999.99998453501
 21
-3790.000017526987
 31
0.0
  0
LINE
  5
8D
330
1F
100
AcDbEntity
  8
F-1_枠
  6
Continuous
 62
   200
370
    20
100
AcDbLine
 10
-5999.99998453501
 20
190.5001831054688
 30
0.0
 11
5699.998762800888
 21
190.5001831054688
 31
0.0
  0
LINE
  5
8E
330
1F
100
AcDbEntity
  8
F-1_枠
  6
Continuous
 62
   200
370
    20
100
AcDbLine
 10
-5999.99998453501
 20
-15.50015011349217
 30
0.0
 11
5699.998762800888
 21
-15.50015011349217
 31
0.0
  0
LINE
  5
8F
330
1F
100
AcDbEntity
  8
F-1_枠
  6
Continuous
 62
   200
370
    20
100
AcDbLine
 10
-5999.99998453501
 20
184.5000148463899
 30
0.0
 11
5699.998762800888
 21
184.5000148463899
 31
0.0
  0
LINE
  5
90
330
1F
100
AcDbEntity
  8
F-1_枠
  6
Continuous
 62
   200
370
    20
100
AcDbLine
 10
-5999.99998453501
 20
187.5000989759289
 30
0.0
 11
5699.998762800888
 21
187.5000989759289
 31
0.0
  0
LINE
  5
91
330
1F
100
AcDbEntity
  8
F-A_文字
  6
Continuous
 62
     7
370
     9
100
AcDbLine
 10
1677.99998144202
 20
190.499951130636
 30
0.0
 11
3751.999981442023
 21
4164.999983504013
 31
0.0
  0
LINE
  5
92
330
1F
100
AcDbEntity
  8
F-A_文字
  6
Continuous
 62
     7
370
     9
100
AcDbLine
 10
3751.999981442023
 20
190.499951130636
 30
0.0
 11
5689.998977248734
 21
4164.999983504013
 31
0.0
  0
LINE
  5
93
330
1F
100
AcDbEntity
  8
0-0_補助線
  6
JWW_HOJO
 62
     7
370
     9
100
AcDbLine
 10
-5490.000018557986
 20
-465.7500838202401
 30
0.0
 11
5699.998762800888
 21
-465.7500838202401
 31
0.0
  0
LINE
  5
94
330
1F
100
AcDbEntity
  8
0-B_寸法
  6
Continuous
 62
   120
370
     5
100
AcDbLine
 10
-1525.000018557985
 20
1168.000148463893
 30
0.0
 11
-1525.000018557985
 21
1368.000148463894
 31
0.0
  0
LWPOLYLINE
  5
95
330
1F
100
AcDbEntity
  8
0-B_寸法
  6
Continuous
 62
     7
370
     9
100
AcDbPolyline
 90
        4
 70
     1
 43
3.0
 10
-1523.500018557985
 20
1168.000148463893
 42
0.4142135623731
 10
-1525.000018557985
 20
1169.500148463893
 42
0.4142135623731
 10
-1526.500018557985
 20
1168.000148463893
 42
0.4142135623731
 10
-1525.000018557985
 20
1166.500148463893
 42
0.4142135623731
  0
LINE
  5
96
330
1F
100
AcDbEntity
  8
0-B_寸法
  6
Continuous
 62
   120
370
     5
100
AcDbLine
 10
-715.0000185579853
 20
1168.000148463893
 30
0.0
 11
-1525.000018557985
 21
1168.000148463893
 31
0.0
  0
LINE
  5
97
330
1F
100
AcDbEntity
  8
0-B_寸法
  6
Continuous
 62
   120
370
     5
100
AcDbLine
 10
-715.0000185579853
 20
1168.000148463893
 30
0.0
 11
-715.0000185579853
 21
1368.000148463894
 31
0.0
  0
LWPOLYLINE
  5
98
330
1F
100
AcDbEntity
  8
0-B_寸法
  6
Continuous
 62
     7
370
     9
100
AcDbPolyline
 90
        4
 70
     1
 43
3.0
 10
-713.5000185579853
 20
1168.000148463893
 42
0.4142135623731
 10
-715.0000185579853
 20
1169.500148463893
 42
0.4142135623731
 10
-716.5000185579853
 20
1168.000148463893
 42
0.4142135623731
 10
-715.0000185579853
 20
1166.500148463893
 42
0.4142135623731
  0
LINE
  5
99
330
1F
100
AcDbEntity
  8
0-B_寸法
  6
Continuous
 62
   120
370
     5
100
AcDbLine
 10
1484.999981442018
 20
1168.000148463893
 30
0.0
 11
1484.999981442018
 21
1368.000148463894
 31
0.0
  0
LWPOLYLINE
  5
9A
330
1F
100
AcDbEntity
  8
0-B_寸法
  6
Continuous
 62
     7
370
     9
100
AcDbPolyline
 90
        4
 70
     1
 43
3.0
 10
1486.499981442018
 20
1168.000148463893
 42
0.4142135623731
 10
1484.999981442018
 20
1169.500148463893
 42
0.4142135623731
 10
1483.499981442018
 20
1168.000148463893
 42
0.4142135623731
 10
1484.999981442018
 20
1166.500148463893
 42
0.4142135623731
  0
LINE
  5
9B
330
1F
100
AcDbEntity
  8
0-B_寸法
  6
Continuous
 62
   120
370
     5
100
AcDbLine
 10
771.9999814420163
 20
1168.000148463893
 30
0.0
 11
771.9999814420163
 21
1368.000148463894
 31
0.0
  0
LWPOLYLINE
  5
9C
330
1F
100
AcDbEntity
  8
0-B_寸法
  6
Continuous
 62
     7
370
     9
100
AcDbPolyline
 90
        4
 70
     1
 43
3.0
 10
773.4999814420163
 20
1168.000148463893
 42
0.4142135623731
 10
771.9999814420163
 20
1169.500148463893
 42
0.4142135623731
 10
770.4999814420163
 20
1168.000148463893
 42
0.4142135623731
 10
771.9999814420163
 20
1166.500148463893
 42
0.4142135623731
  0
LINE
  5
9D
330
1F
100
AcDbEntity
  8
0-B_寸法
  6
Continuous
 62
   120
370
     5
100
AcDbLine
 10
1484.999981442018
 20
1168.000148463893
 30
0.0
 11
771.9999814420163
 21
1168.000148463893
 31
0.0
  0
MTEXT
  5
9E
330
1F
100
AcDbEntity
  8
0-B_寸法
  6
Continuous
 62
     7
370
   211
100
AcDbMText
 10
-1288.750018557985
 20
1174.075148463893
 30
0.0
 40
57.15
 41
337.5
 46
0.0
 71
     7
 72
     1
  1
{\fＭＳ ゴシック|b0|i0|c128|p49;ＤＷ＝810}
 73
     1
 44
1.0
  0
MTEXT
  5
9F
330
1F
100
AcDbEntity
  8
0-B_寸法
  6
Continuous
 62
     7
370
   211
100
AcDbMText
 10
959.7499814420161
 20
1174.075148463893
 30
0.0
 40
57.15
 41
337.5
 46
0.0
 71
     7
 72
     1
  1
{\fＭＳ ゴシック|b0|i0|c128|p49;ＤＷ＝713}
 73
     1
 44
1.0
  0
MTEXT
  5
A0
330
1F
100
AcDbEntity
  8
F-A_文字
  6
Continuous
 62
     7
370
     9
100
AcDbMText
 10
-5890.000004381747
 20
4018.575148463894
 30
0.0
 40
57.15
 41
300.0
 46
0.0
 71
     7
 72
     1
  1
{\fＭＳ ゴシック|b0|i0|c128|p49;デザイン}
 73
     1
 44
1.0
  0
MTEXT
  5
A1
330
1F
100
AcDbEntity
  8
F-A_文字
  6
Continuous
 62
     7
370
     9
100
AcDbMText
 10
-5852.500004381747
 20
2031.325062684755
 30
0.0
 40
57.15
 41
225.0
 46
0.0
 71
     7
 72
     1
  1
{\fＭＳ ゴシック|b0|i0|c128|p49;姿　図}
 73
     1
 44
1.0
  0
MTEXT
  5
A2
330
1F
100
AcDbEntity
  8
F-A_文字
  6
Continuous
 62
     7
370
     9
100
AcDbMText
 10
-5890.000004381747
 20
38.07493236644844
 30
0.0
 40
57.15
 41
300.0
 46
0.0
 71
     7
 72
     1
  1
{\fＭＳ ゴシック|b0|i0|c128|p49;デザイン}
 73
     1
 44
1.0
  0
MTEXT
  5
A3
330
1F
100
AcDbEntity
  8
F-A_文字
  6
Continuous
 62
     7
370
     9
100
AcDbMText
 10
-5852.500004381747
 20
-1949.175091552734
 30
0.0
 40
57.15
 41
225.0
 46
0.0
 71
     7
 72
     1
  1
{\fＭＳ ゴシック|b0|i0|c128|p49;姿　図}
 73
     1
 44
1.0
  0
MTEXT
  5
A4
330
1F
100
AcDbEntity
  8
F-A_文字
  6
Continuous
 62
     7
370
     0
100
AcDbMText
 10
-60.0001237199109
 20
-3887.139820871936
 30
0.0
 40
45.72
 41
180.0
 46
0.0
 71
     7
 72
     1
  1
{\fＭＳ ゴシック|b0|i0|c128|p49;図面名}
 73
     1
 44
1.0
  0
MTEXT
  5
A5
330
1F
100
AcDbEntity
  8
F-A_文字
  6
Continuous
 62
     7
370
     0
100
AcDbMText
 10
2779.998729808911
 20
-3887.142460617774
 30
0.0
 40
45.72
 41
300.0
 46
0.0
 71
     7
 72
     1
  1
{\fＭＳ ゴシック|b0|i0|c128|p49;ＳＣＡＬＥ}
 73
     1
 44
1.0
  0
MTEXT
  5
A6
330
1F
100
AcDbEntity
  8
F-A_文字
  6
Continuous
 62
     7
370
     0
100
AcDbMText
 10
4279.999224688556
 20
-3887.143854850754
 30
0.0
 40
45.72
 41
240.0
 46
0.0
 71
     7
 72
     1
  1
{\fＭＳ ゴシック|b0|i0|c128|p49;ＤＡＴＥ}
 73
     1
 44
1.0
  0
MTEXT
  5
A7
330
1F
100
AcDbEntity
  8
F-A_文字
  6
Continuous
 62
     7
370
     0
100
AcDbMText
 10
1180.417701903718
 20
-3946.423911599839
 30
0.0
 40
77.15249999999999
 41
405.0
 46
0.0
 71
     7
 72
     1
  1
{\fＭＳ ゴシック|b0|i0|c128|p49;建具姿図}
 73
     1
 44
1.0
  0
MTEXT
  5
A8
330
1F
100
AcDbEntity
  8
F-A_文字
  6
Continuous
 62
     7
370
     0
100
AcDbMText
 10
3383.748977248734
 20
-3946.426865907308
 30
0.0
 40
77.15249999999999
 41
202.5
 46
0.0
 71
     7
 72
     1
  1
{\fＭＳ ゴシック|b0|i0|c128|p49;1/30}
 73
     1
 44
1.0
  0
MTEXT
  5
A9
330
1F
100
AcDbEntity
  8
F-A_文字
  6
Continuous
 62
     7
370
     0
100
AcDbMText
 10
2779.998729808911
 20
-4087.14246317786
 30
0.0
 40
45.72
 41
240.0
 46
0.0
 71
     7
 72
     1
  1
{\fＭＳ ゴシック|b0|i0|c128|p49;ＦＩＬＥ}
 73
     1
 44
1.0
  0
MTEXT
  5
AA
330
1F
100
AcDbEntity
  8
F-A_文字
  6
Continuous
 62
     7
370
     0
100
AcDbMText
 10
4279.999224688556
 20
-4087.143857410839
 30
0.0
 40
45.72
 41
180.0
 46
0.0
 71
     7
 72
     1
  1
{\fＭＳ ゴシック|b0|i0|c128|p49;ＮＯ．}
 73
     1
 44
1.0
  0
MTEXT
  5
AB
330
1F
100
AcDbEntity
  8
F-A_文字
  6
Continuous
 62
     7
370
     0
100
AcDbMText
 10
1234.998729808911
 20
-4096.140669266149
 30
0.0
 40
45.72
 41
120.0
 46
0.0
 71
     7
 72
     1
  1
{\fＭＳ ゴシック|b0|i0|c128|p49;株式}
 73
     1
 44
1.0
  0
MTEXT
  5
AC
330
1F
100
AcDbEntity
  8
F-A_文字
  6
Continuous
 62
     7
370
     9
100
AcDbMText
 10
4936.249033580831
 20
-4147.857012699985
 30
0.0
 40
74.295
 41
97.5
 46
0.0
 71
     7
 72
     1
  1
{\fＭＳ ゴシック|b0|i0|c128|p49;01}
 73
     1
 44
1.0
  0
MTEXT
  5
AD
330
1F
100
AcDbEntity
  8
F-A_文字
  6
Continuous
 62
     7
370
     0
100
AcDbMText
 10
1444.998729808911
 20
-4164.281754523929
 30
0.0
 40
101.44125
 41
1065.0
 46
0.0
 71
     7
 72
     1
  1
{\fＭＳ ゴシック|b0|i0|c128|p49;ウッドワン・・・}
 73
     1
 44
1.0
  0
MTEXT
  5
AE
330
1F
100
AcDbEntity
  8
F-A_文字
  6
Continuous
 62
     7
370
     0
100
AcDbMText
 10
1234.998729808911
 20
-4168.140669266187
 30
0.0
 40
45.72
 41
120.0
 46
0.0
 71
     7
 72
     1
  1
{\fＭＳ ゴシック|b0|i0|c128|p49;会社}
 73
     1
 44
1.0
  0
MTEXT
  5
AF
330
1F
100
AcDbEntity
  8
F-A_文字
  6
Continuous
 62
     7
370
     0
100
AcDbMText
 10
5608.403311109712
 20
-4314.841419020919
 30
0.0
 40
68.58
 41
90.0
 46
0.0
 71
     7
 72
     1
  1
{\fＭＳ ゴシック|b0|i0|c128|p49;）}
 73
     1
 44
1.0
  0
MTEXT
  5
B0
330
1F
100
AcDbEntity
  8
F-A_文字
  6
Continuous
 62
     7
370
     0
100
AcDbMText
 10
5190.195950842071
 20
-4316.235443869856
 30
0.0
 40
68.58
 41
45.0
 46
0.0
 71
     7
 72
     1
  1
{\fＭＳ ゴシック|b0|i0|c128|p49;,}
 73
     1
 44
1.0
  0
MTEXT
  5
B1
330
1F
100
AcDbEntity
  8
F-A_文字
  6
Continuous
 62
     7
370
     0
100
AcDbMText
 10
4923.937261915373
 20
-4314.771967288282
 30
0.0
 40
74.295
 41
97.5
 46
0.0
 71
     7
 72
     1
  1
{\fＭＳ ゴシック|b0|i0|c128|p49;$y}
 73
     1
 44
1.0
  0
MTEXT
  5
B2
330
1F
100
AcDbEntity
  8
F-A_文字
  6
Continuous
 62
     7
370
     0
100
AcDbMText
 10
5078.673982954195
 20
-4314.771967288282
 30
0.0
 40
74.295
 41
97.5
 46
0.0
 71
     7
 72
     1
  1
{\fＭＳ ゴシック|b0|i0|c128|p49;$m}
 73
     1
 44
1.0
  0
MTEXT
  5
B3
330
1F
100
AcDbEntity
  8
F-A_文字
  6
Continuous
 62
     7
370
     0
100
AcDbMText
 10
5233.410715437103
 20
-4314.771967288282
 30
0.0
 40
74.295
 41
97.5
 46
0.0
 71
     7
 72
     1
  1
{\fＭＳ ゴシック|b0|i0|c128|p49;$d}
 73
     1
 44
1.0
  0
MTEXT
  5
B4
330
1F
100
AcDbEntity
  8
F-A_文字
  6
Continuous
 62
     7
370
     0
100
AcDbMText
 10
5388.147447920011
 20
-4314.771967288282
 30
0.0
 40
74.295
 41
195.0
 46
0.0
 71
     7
 72
     1
  1
{\fＭＳ ゴシック|b0|i0|c128|p49;印刷}
 73
     1
 44
1.0
  0
MTEXT
  5
B5
330
1F
100
AcDbEntity
  8
F-A_文字
  6
Continuous
 62
     7
370
     0
100
AcDbMText
 10
4784.033374252999
 20
-4319.023493567732
 30
0.0
 40
68.58
 41
90.0
 46
0.0
 71
     7
 72
     1
  1
{\fＭＳ ゴシック|b0|i0|c128|p49;（}
 73
     1
 44
1.0
  0
MTEXT
  5
B6
330
1F
100
AcDbEntity
  8
F-A_文字
  6
Continuous
 62
     7
370
     0
100
AcDbMText
 10
5031.277143812345
 20
-4319.023493567732
 30
0.0
 40
68.58
 41
45.0
 46
0.0
 71
     7
 72
     1
  1
{\fＭＳ ゴシック|b0|i0|c128|p49;,}
 73
     1
 44
1.0
  0
LINE
  5
B7
330
1F
100
AcDbEntity
  8
0-B_寸法
  6
Continuous
 62
   120
370
     5
100
AcDbLine
 10
-3109.000018557984
 20
1168.000148463893
 30
0.0
 11
-4009.000018557984
 21
1168.000148463893
 31
0.0
  0
LINE
  5
B8
330
1F
100
AcDbEntity
  8
0-B_寸法
  6
Continuous
 62
   120
370
     5
100
AcDbLine
 10
-3109.000018557984
 20
1168.000148463893
 30
0.0
 11
-3109.000018557984
 21
1368.000148463894
 31
0.0
  0
LINE
  5
B9
330
1F
100
AcDbEntity
  8
0-B_寸法
  6
Continuous
 62
   120
370
     5
100
AcDbLine
 10
-4009.000018557984
 20
1168.000148463893
 30
0.0
 11
-4009.000018557984
 21
1368.000148463894
 31
0.0
  0
LWPOLYLINE
  5
BA
330
1F
100
AcDbEntity
  8
0-B_寸法
  6
Continuous
 62
     7
370
     9
100
AcDbPolyline
 90
        4
 70
     1
 43
3.0
 10
-3107.500018557984
 20
1168.000148463893
 42
0.4142135623731
 10
-3109.000018557984
 20
1169.500148463893
 42
0.4142135623731
 10
-3110.500018557984
 20
1168.000148463893
 42
0.4142135623731
 10
-3109.000018557984
 20
1166.500148463893
 42
0.4142135623731
  0
LWPOLYLINE
  5
BB
330
1F
100
AcDbEntity
  8
0-B_寸法
  6
Continuous
 62
     7
370
     9
100
AcDbPolyline
 90
        4
 70
     1
 43
3.0
 10
-4007.500018557984
 20
1168.000148463893
 42
0.4142135623731
 10
-4009.000018557984
 20
1169.500148463893
 42
0.4142135623731
 10
-4010.500018557984
 20
1168.000148463893
 42
0.4142135623731
 10
-4009.000018557984
 20
1166.500148463893
 42
0.4142135623731
  0
MTEXT
  5
BC
330
1F
100
AcDbEntity
  8
0-B_寸法
  6
Continuous
 62
     7
370
   211
100
AcDbMText
 10
-3727.750018557984
 20
1174.075148463893
 30
0.0
 40
57.15
 41
337.5
 46
0.0
 71
     7
 72
     1
  1
{\fＭＳ ゴシック|b0|i0|c128|p49;ＤＷ＝900}
 73
     1
 44
1.0
  0
LINE
  5
BD
330
1F
100
AcDbEntity
  8
F-0_補助線
  6
JWW_HOJO
 62
   200
370
    20
100
AcDbLine
 10
-5999.99998453501
 20
84.49993236644843
 30
0.0
 11
5694.998498865077
 21
84.49993236644843
 31
0.0
  0
LINE
  5
BE
330
1F
100
AcDbEntity
  8
F-0_補助線
  6
JWW_HOJO
 62
   200
370
    20
100
AcDbLine
 10
-5999.99998453501
 20
4064.999901024072
 30
0.0
 11
5699.998762800888
 21
4064.999901024072
 31
0.0
  0
MTEXT
  5
BF
330
1F
100
AcDbEntity
  8
F-A_文字
  6
Continuous
 62
     7
370
     0
100
AcDbMText
 10
4778.749126529666
 20
-3938.071010139966
 30
0.0
 40
78.86699999999999
 41
517.5
 46
0.0
 71
     7
 72
     1
  1
{\fＭＳ ゴシック|b0|i0|c128|p49;2021.04.01}
 73
     1
 44
1.0
  0
MTEXT
  5
C0
330
1F
100
AcDbEntity
  8
F-A_文字
  6
Continuous
 62
     7
370
     0
100
AcDbMText
 10
349.9999175200594
 20
-3945.630201962234
 30
0.0
 40
78.74000000000001
 41
465.0
 46
0.0
 71
     7
 72
     1
  1
{\fＭＳ ゴシック|b0|i0|c128|p49;PINOEARTH}
 73
     1
 44
1.0
  0
MTEXT
  5
C1
330
1F
100
AcDbEntity
  8
F-A_文字
  6
Continuous
 62
     7
370
     0
100
AcDbMText
 10
-5247.547376752838
 20
-4045.206602745057
 30
0.0
 40
79.58666666666667
 41
2820.0
 46
0.0
 71
     7
 72
     1
  1
{\fＭＳ ゴシック|b0|i0|c128|p49;ピノアース　アウトセット引き戸　上吊りタイプ　Ｎ－ＶＭ}
 73
     1
 44
1.0
  0
MTEXT
  5
C2
330
1F
100
AcDbEntity
  8
0-A_文字
  6
Continuous
 62
     7
370
     9
100
AcDbMText
 10
-4405.500018557986
 20
4013.576151024072
 30
0.0
 40
77.15249999999999
 41
405.0
 46
0.0
 71
     7
 72
     1
  1
{\fＭＳ ゴシック|b0|i0|c128|p49;Ｎ－ＶＭ}
 73
     1
 44
1.0
  0
MTEXT
  5
C3
330
1F
100
AcDbEntity
  8
0-A_文字
  6
Continuous
 62
     7
370
     9
100
AcDbMText
 10
-1921.500018557984
 20
4013.576151024072
 30
0.0
 40
77.15249999999999
 41
405.0
 46
0.0
 71
     7
 72
     1
  1
{\fＭＳ ゴシック|b0|i0|c128|p49;Ｎ－ＶＭ}
 73
     1
 44
1.0
  0
MTEXT
  5
C4
330
1F
100
AcDbEntity
  8
0-A_文字
  6
Continuous
 62
     7
370
     9
100
AcDbMText
 10
375.4999814420196
 20
4013.576151024072
 30
0.0
 40
77.15249999999999
 41
405.0
 46
0.0
 71
     7
 72
     1
  1
{\fＭＳ ゴシック|b0|i0|c128|p49;Ｎ－ＶＭ}
 73
     1
 44
1.0
  0
LINE
  5
C5
330
1F
100
AcDbEntity
  8
0-0_補助線
  6
JWW_HOJO
 62
   120
370
     5
100
AcDbLine
 10
5699.998762800888
 20
-3430.000017526988
 30
0.0
 11
-5999.99998453501
 21
-3430.000017526988
 31
0.0
  0
LINE
  5
C6
330
1F
100
AcDbEntity
  8
0-0_補助線
  6
JWW_HOJO
 62
   120
370
     5
100
AcDbLine
 10
-5999.99998453501
 20
430.5001831054688
 30
0.0
 11
5699.998762800888
 21
430.5001831054688
 31
0.0
  0
LINE
  5
C7
330
1F
100
AcDbEntity
  8
0-0_補助線
  6
JWW_HOJO
 62
   120
370
     5
100
AcDbLine
 10
-5999.99998453501
 20
670.5001831054692
 30
0.0
 11
5699.998762800888
 21
670.5001831054692
 31
0.0
  0
LINE
  5
C8
330
1F
100
AcDbEntity
  8
0-0_補助線
  6
JWW_HOJO
 62
   120
370
     5
100
AcDbLine
 10
-5999.99998453501
 20
550.5001831054688
 30
0.0
 11
5699.998762800888
 21
550.5001831054688
 31
0.0
  0
LINE
  5
C9
330
1F
100
AcDbEntity
  8
0-0_補助線
  6
JWW_HOJO
 62
   120
370
     5
100
AcDbLine
 10
-5999.99998453501
 20
310.5001831054688
 30
0.0
 11
5699.998762800888
 21
310.5001831054688
 31
0.0
  0
LINE
  5
CA
330
1F
100
AcDbEntity
  8
0-0_補助線
  6
JWW_HOJO
 62
   120
370
     5
100
AcDbLine
 10
-5370.000018557986
 20
4174.999769056166
 30
0.0
 11
-5370.000018557986
 21
-3790.000179909371
 31
0.0
  0
LINE
  5
CB
330
1F
100
AcDbEntity
  8
0-0_補助線
  6
JWW_HOJO
 62
   120
370
     5
100
AcDbLine
 10
5699.998762800888
 20
-3550.000017526988
 30
0.0
 11
-5999.99998453501
 21
-3550.000017526988
 31
0.0
  0
LINE
  5
CC
330
1F
100
AcDbEntity
  8
0-0_補助線
  6
JWW_HOJO
 62
   120
370
     5
100
AcDbLine
 10
5699.998762800888
 20
-3670.000017526988
 30
0.0
 11
-5999.99998453501
 21
-3670.000017526988
 31
0.0
  0
LINE
  5
CD
330
1F
100
AcDbEntity
  8
0-0_補助線
  6
JWW_HOJO
 62
   120
370
     5
100
AcDbLine
 10
-2796.000018557986
 20
4174.999769056166
 30
0.0
 11
-2796.000018557986
 21
-3790.000179909371
 31
0.0
  0
LINE
  5
CE
330
1F
100
AcDbEntity
  8
0-0_補助線
  6
JWW_HOJO
 62
   120
370
     5
100
AcDbLine
 10
-402.0000185579826
 20
4174.999769056166
 30
0.0
 11
-402.0000185579826
 21
-3790.000179909371
 31
0.0
  0
LINE
  5
CF
330
1F
100
AcDbEntity
  8
0-0_補助線
  6
JWW_HOJO
 62
   120
370
     5
100
AcDbLine
 10
1797.99998144202
 20
4174.999769056166
 30
0.0
 11
1797.99998144202
 21
-3790.000179909371
 31
0.0
  0
LINE
  5
D0
330
1F
100
AcDbEntity
  8
0-0_補助線
  6
JWW_HOJO
 62
   120
370
     5
100
AcDbLine
 10
3871.999981442023
 20
4174.999769056166
 30
0.0
 11
3871.999981442023
 21
-3790.000179909371
 31
0.0
  0
LINE
  5
D1
330
1F
100
AcDbEntity
  8
0-0_補助線
  6
JWW_HOJO
 62
   120
370
     5
100
AcDbLine
 10
-5999.99998453501
 20
790.5001831054697
 30
0.0
 11
5699.998762800888
 21
790.5001831054697
 31
0.0
  0
LINE
  5
D2
330
1F
100
AcDbEntity
  8
0-0_補助線
  6
JWW_HOJO
 62
   120
370
     5
100
AcDbLine
 10
5699.998762800888
 20
-3190.000017526988
 30
0.0
 11
-5999.99998453501
 21
-3190.000017526988
 31
0.0
  0
LINE
  5
D3
330
1F
100
AcDbEntity
  8
0-0_補助線
  6
JWW_HOJO
 62
   120
370
     5
100
AcDbLine
 10
5699.998762800888
 20
-3310.000017526988
 30
0.0
 11
-5999.99998453501
 21
-3310.000017526988
 31
0.0
  0
MTEXT
  5
D4
330
1F
100
AcDbEntity
  8
0-A_文字
  6
Continuous
 62
     7
370
     9
100
AcDbMText
 10
-5370.000018557985
 20
661.5754150802942
 30
0.0
 40
57.14999999999998
 41
1200.0
 46
0.0
 71
     7
 72
     1
  1
{\fＭＳ ゴシック|b0|i0|c128|p49;上レール寸法 1,789mm（DW=900mm）}
 73
     1
 44
1.0
  0
MTEXT
  5
D5
330
1F
100
AcDbEntity
  8
0-A_文字
  6
Continuous
 62
     7
370
     9
100
AcDbMText
 10
-2796.000018557985
 20
661.5754150802942
 30
0.0
 40
57.15000000000005
 41
1200.000000000001
 46
0.0
 71
     7
 72
     1
  1
{\fＭＳ ゴシック|b0|i0|c128|p49;上レール寸法 1,609mm（DW=810mm）}
 73
     1
 44
1.0
  0
MTEXT
  5
D6
330
1F
100
AcDbEntity
  8
0-A_文字
  6
Continuous
 62
     7
370
     9
100
AcDbMText
 10
-402.0000185579869
 20
661.5754150802944
 30
0.0
 40
57.15000000000042
 41
1200.000000000009
 46
0.0
 71
     7
 72
     1
  1
{\fＭＳ ゴシック|b0|i0|c128|p49;上レール寸法 1,415mm（DW=713mm）}
 73
     1
 44
1.0
  0
MTEXT
  5
D7
330
1F
100
AcDbEntity
  8
0-A_文字
  6
Continuous
 62
     7
370
     9
100
AcDbMText
 10
-2796.000018557987
 20
541.5751831054606
 30
0.0
 40
57.15000000000008
 41
825.0000000000009
 46
0.0
 71
     7
 72
     1
  1
{\fＭＳ ゴシック|b0|i0|c128|p49;ステンド調熱処理ガラス}
 73
     1
 44
1.0
  0
MTEXT
  5
D8
330
1F
100
AcDbEntity
  8
0-A_文字
  6
Continuous
 62
     7
370
     9
100
AcDbMText
 10
-5370.000018557987
 20
541.5751831054606
 30
0.0
 40
57.15000000000008
 41
825.0000000000009
 46
0.0
 71
     7
 72
     1
  1
{\fＭＳ ゴシック|b0|i0|c128|p49;ステンド調熱処理ガラス}
 73
     1
 44
1.0
  0
MTEXT
  5
D9
330
1F
100
AcDbEntity
  8
0-A_文字
  6
Continuous
 62
     7
370
     9
100
AcDbMText
 10
-402.0000185579835
 20
541.5751831054606
 30
0.0
 40
57.15000000000008
 41
825.0000000000009
 46
0.0
 71
     7
 72
     1
  1
{\fＭＳ ゴシック|b0|i0|c128|p49;ステンド調熱処理ガラス}
 73
     1
 44
1.0
  0
LINE
  5
DA
330
1F
100
AcDbEntity
  8
0-3_仕上げ
  6
Continuous
 62
    92
370
    13
100
AcDbLine
 10
-1393.000018557986
 20
2309.000148463893
 30
0.0
 11
-1393.000018557986
 21
3267.000148463893
 31
0.0
  0
LINE
  5
DB
330
1F
100
AcDbEntity
  8
0-3_仕上げ
  6
Continuous
 62
    92
370
    13
100
AcDbLine
 10
-847.000018557988
 20
3267.000148463893
 30
0.0
 11
-1393.000018557986
 21
3267.000148463893
 31
0.0
  0
LINE
  5
DC
330
1F
100
AcDbEntity
  8
0-3_仕上げ
  6
Continuous
 62
    92
370
    13
100
AcDbLine
 10
-847.000018557988
 20
2309.000148463893
 30
0.0
 11
-1393.000018557986
 21
2309.000148463893
 31
0.0
  0
LINE
  5
DD
330
1F
100
AcDbEntity
  8
0-3_仕上げ
  6
Continuous
 62
    92
370
    13
100
AcDbLine
 10
-847.000018557988
 20
2309.000148463893
 30
0.0
 11
-847.000018557988
 21
3267.000148463893
 31
0.0
  0
LINE
  5
DE
330
1F
100
AcDbEntity
  8
0-3_仕上げ
  6
Continuous
 62
     7
370
     9
100
AcDbLine
 10
-846.0000185579889
 20
3271.000148463892
 30
0.0
 11
-1394.000018557985
 21
3271.000148463892
 31
0.0
  0
LINE
  5
DF
330
1F
100
AcDbEntity
  8
0-3_仕上げ
  6
Continuous
 62
     7
370
     9
100
AcDbLine
 10
-846.0000185579889
 20
2305.000148463893
 30
0.0
 11
-1394.000018557985
 21
2305.000148463893
 31
0.0
  0
LINE
  5
E0
330
1F
100
AcDbEntity
  8
0-3_仕上げ
  6
Continuous
 62
     7
370
     9
100
AcDbLine
 10
-1394.000018557985
 20
3271.000148463892
 30
0.0
 11
-1395.500018557987
 21
3269.500148463892
 31
0.0
  0
LINE
  5
E1
330
1F
100
AcDbEntity
  8
0-3_仕上げ
  6
Continuous
 62
     7
370
     9
100
AcDbLine
 10
-846.0000185579889
 20
3271.000148463892
 30
0.0
 11
-844.5000185579869
 21
3269.500148463892
 31
0.0
  0
LINE
  5
E2
330
1F
100
AcDbEntity
  8
0-3_仕上げ
  6
Continuous
 62
     7
370
     9
100
AcDbLine
 10
-844.5000185579869
 20
3269.500148463892
 30
0.0
 11
-847.000018557988
 21
3267.000148463893
 31
0.0
  0
LINE
  5
E3
330
1F
100
AcDbEntity
  8
0-3_仕上げ
  6
Continuous
 62
     7
370
     9
100
AcDbLine
 10
-1393.000018557986
 20
3267.000148463893
 30
0.0
 11
-1395.500018557987
 21
3269.500148463892
 31
0.0
  0
LINE
  5
E4
330
1F
100
AcDbEntity
  8
0-3_仕上げ
  6
Continuous
 62
     7
370
     9
100
AcDbLine
 10
-1394.000018557985
 20
2305.000148463893
 30
0.0
 11
-1395.500018557987
 21
2306.500148463893
 31
0.0
  0
LINE
  5
E5
330
1F
100
AcDbEntity
  8
0-3_仕上げ
  6
Continuous
 62
     7
370
     9
100
AcDbLine
 10
-1395.500018557987
 20
2306.500148463893
 30
0.0
 11
-1393.000018557986
 21
2309.000148463893
 31
0.0
  0
LINE
  5
E6
330
1F
100
AcDbEntity
  8
0-3_仕上げ
  6
Continuous
 62
     7
370
     9
100
AcDbLine
 10
-847.000018557988
 20
2309.000148463893
 30
0.0
 11
-844.5000185579869
 21
2306.500148463893
 31
0.0
  0
LINE
  5
E7
330
1F
100
AcDbEntity
  8
0-3_仕上げ
  6
Continuous
 62
     7
370
     9
100
AcDbLine
 10
-846.0000185579889
 20
2305.000148463893
 30
0.0
 11
-844.5000185579869
 21
2306.500148463893
 31
0.0
  0
ARC
  5
E8
330
1F
100
AcDbEntity
  8
0-3_仕上げ
  6
JWW_CENTER1
 62
   120
370
     5
100
AcDbCircle
 10
-1110.121823191062
 20
3165.821368112184
 30
0.0
 40
60.0
100
AcDbArc
 50
183.6514672287091
 51
234.4577409694452
  0
LINE
  5
E9
330
1F
100
AcDbEntity
  8
0-3_仕上げ
  6
JWW_CENTER1
 62
   120
370
     5
100
AcDbLine
 10
-1270.000018557985
 20
3162.000148463893
 30
0.0
 11
-1270.000018557985
 21
3267.000148463893
 31
0.0
  0
LINE
  5
EA
330
1F
100
AcDbEntity
  8
0-3_仕上げ
  6
Continuous
 62
   120
370
     5
100
AcDbLine
 10
-1273.000018557986
 20
3162.191209446307
 30
0.0
 11
-1273.000018557986
 21
3267.000148463893
 31
0.0
  0
LINE
  5
EB
330
1F
100
AcDbEntity
  8
0-3_仕上げ
  6
Continuous
 62
   120
370
     5
100
AcDbLine
 10
-1267.000018557988
 20
3162.000148463893
 30
0.0
 11
-1267.000018557988
 21
3267.000148463893
 31
0.0
  0
ARC
  5
EC
330
1F
100
AcDbEntity
  8
0-3_仕上げ
  6
JWW_CENTER1
 62
   120
370
     5
100
AcDbCircle
 10
-1210.121823191063
 20
3165.821368112184
 30
0.0
 40
60.0
100
AcDbArc
 50
183.6514672287091
 51
234.4577409694452
  0
ARC
  5
ED
330
1F
100
AcDbEntity
  8
0-3_仕上げ
  6
Continuous
 62
   120
370
     5
100
AcDbCircle
 10
-1210.121823191063
 20
3165.821368112184
 30
0.0
 40
57.0
100
AcDbArc
 50
183.6514672287091
 51
233.502329744074
  0
ARC
  5
EE
330
1F
100
AcDbEntity
  8
0-3_仕上げ
  6
JWW_CENTER1
 62
   120
370
     5
100
AcDbCircle
 10
-1210.121823191063
 20
3068.178928815601
 30
0.0
 40
60.0
100
AcDbArc
 50
125.5422590305548
 51
176.3485327712908
  0
ARC
  5
EF
330
1F
100
AcDbEntity
  8
0-3_仕上げ
  6
Continuous
 62
   120
370
     5
100
AcDbCircle
 10
-1210.121823191063
 20
3068.178928815601
 30
0.0
 40
63.0
100
AcDbArc
 50
129.200407421848
 51
161.8874291519458
  0
ARC
  5
F0
330
1F
100
AcDbEntity
  8
0-3_仕上げ
  6
Continuous
 62
   120
370
     5
100
AcDbCircle
 10
-1210.121823191063
 20
3165.821368112184
 30
0.0
 40
63.0
100
AcDbArc
 50
198.1125708480542
 51
230.799592578152
  0
ARC
  5
F1
330
1F
100
AcDbEntity
  8
0-3_仕上げ
  6
Continuous
 62
   120
370
     5
100
AcDbCircle
 10
-1329.878213924911
 20
3165.821368112184
 30
0.0
 40
63.0
100
AcDbArc
 50
309.200407421848
 51
341.8874291519458
  0
ARC
  5
F2
330
1F
100
AcDbEntity
  8
0-3_仕上げ
  6
Continuous
 62
   120
370
     5
100
AcDbCircle
 10
-1329.878213924911
 20
3068.178928815601
 30
0.0
 40
63.0
100
AcDbArc
 50
18.11257084805418
 51
50.79959257815202
  0
ARC
  5
F3
330
1F
100
AcDbEntity
  8
0-3_仕上げ
  6
Continuous
 62
   120
370
     5
100
AcDbCircle
 10
-1210.121823191063
 20
3068.178928815601
 30
0.0
 40
57.0
100
AcDbArc
 50
126.497670255926
 51
176.2536402876275
  0
ARC
  5
F4
330
1F
100
AcDbEntity
  8
0-3_仕上げ
  6
JWW_CENTER1
 62
   120
370
     5
100
AcDbCircle
 10
-1110.121823191062
 20
3068.178928815601
 30
0.0
 40
60.0
100
AcDbArc
 50
125.5422590305548
 51
176.3485327712908
  0
ARC
  5
F5
330
1F
100
AcDbEntity
  8
0-3_仕上げ
  6
Continuous
 62
   120
370
     5
100
AcDbCircle
 10
-1110.121823191062
 20
3068.178928815601
 30
0.0
 40
63.0
100
AcDbArc
 50
129.200407421848
 51
161.8874291519458
  0
ARC
  5
F6
330
1F
100
AcDbEntity
  8
0-3_仕上げ
  6
Continuous
 62
   120
370
     5
100
AcDbCircle
 10
-1110.121823191062
 20
3165.821368112184
 30
0.0
 40
63.0
100
AcDbArc
 50
198.1125708480542
 51
230.799592578152
  0
ARC
  5
F7
330
1F
100
AcDbEntity
  8
0-3_仕上げ
  6
Continuous
 62
   120
370
     5
100
AcDbCircle
 10
-1229.87821392491
 20
3165.821368112184
 30
0.0
 40
63.0
100
AcDbArc
 50
309.200407421848
 51
341.8874291519458
  0
ARC
  5
F8
330
1F
100
AcDbEntity
  8
0-3_仕上げ
  6
Continuous
 62
   120
370
     5
100
AcDbCircle
 10
-1229.87821392491
 20
3068.178928815601
 30
0.0
 40
63.0
100
AcDbArc
 50
18.11257084805418
 51
50.79959257815202
  0
LINE
  5
F9
330
1F
100
AcDbEntity
  8
0-3_仕上げ
  6
Continuous
 62
   120
370
     5
100
AcDbLine
 10
-1244.024858895009
 20
3120.000148463892
 30
0.0
 11
-1195.975178220963
 21
3120.000148463892
 31
0.0
  0
LINE
  5
FA
330
1F
100
AcDbEntity
  8
0-3_仕上げ
  6
Continuous
 62
   120
370
     5
100
AcDbLine
 10
-1244.024858895009
 20
3114.000148463893
 30
0.0
 11
-1195.975178220963
 21
3114.000148463893
 31
0.0
  0
LINE
  5
FB
330
1F
100
AcDbEntity
  8
0-3_仕上げ
  6
JWW_CENTER1
 62
   120
370
     5
100
AcDbLine
 10
-1245.000018557987
 20
3117.000148463893
 30
0.0
 11
-1195.000018557985
 21
3117.000148463893
 31
0.0
  0
ARC
  5
FC
330
1F
100
AcDbEntity
  8
0-3_仕上げ
  6
Continuous
 62
   120
370
     5
100
AcDbCircle
 10
-1229.87821392491
 20
3165.821368112184
 30
0.0
 40
57.0
100
AcDbArc
 50
306.497670255926
 51
356.2536402876231
  0
LINE
  5
FD
330
1F
100
AcDbEntity
  8
0-3_仕上げ
  6
Continuous
 62
   120
370
     5
100
AcDbLine
 10
-1173.000018557988
 20
3162.097003494958
 30
0.0
 11
-1173.000018557988
 21
3267.000148463893
 31
0.0
  0
LINE
  5
FE
330
1F
100
AcDbEntity
  8
0-3_仕上げ
  6
JWW_CENTER1
 62
   120
370
     5
100
AcDbLine
 10
-1170.000018557987
 20
3162.000148463893
 30
0.0
 11
-1170.000018557987
 21
3267.000148463893
 31
0.0
  0
ARC
  5
FF
330
1F
100
AcDbEntity
  8
0-3_仕上げ
  6
JWW_CENTER1
 62
   120
370
     5
100
AcDbCircle
 10
-1229.87821392491
 20
3165.821368112184
 30
0.0
 40
60.0
100
AcDbArc
 50
305.5422590305548
 51
356.3485327712913
  0
LINE
  5
100
330
1F
100
AcDbEntity
  8
0-3_仕上げ
  6
Continuous
 62
   120
370
     5
100
AcDbLine
 10
-1167.000018557987
 20
3162.097003494961
 30
0.0
 11
-1167.000018557987
 21
3267.000148463893
 31
0.0
  0
ARC
  5
101
330
1F
100
AcDbEntity
  8
0-3_仕上げ
  6
Continuous
 62
   120
370
     5
100
AcDbCircle
 10
-1229.87821392491
 20
3068.178928815601
 30
0.0
 40
57.0
100
AcDbArc
 50
3.746359712376933
 51
53.50232974407399
  0
ARC
  5
102
330
1F
100
AcDbEntity
  8
0-3_仕上げ
  6
JWW_CENTER1
 62
   120
370
     5
100
AcDbCircle
 10
-1229.87821392491
 20
3068.178928815601
 30
0.0
 40
60.0
100
AcDbArc
 50
3.651467228708674
 51
54.45774096944522
  0
ARC
  5
103
330
1F
100
AcDbEntity
  8
0-3_仕上げ
  6
JWW_CENTER1
 62
   120
370
     5
100
AcDbCircle
 10
-1210.121823191063
 20
2517.821368112184
 30
0.0
 40
60.0
100
AcDbArc
 50
183.6514672287091
 51
234.4577409694452
  0
ARC
  5
104
330
1F
100
AcDbEntity
  8
0-3_仕上げ
  6
JWW_CENTER1
 62
   120
370
     5
100
AcDbCircle
 10
-1210.121823191063
 20
2420.178928815601
 30
0.0
 40
60.0
100
AcDbArc
 50
125.5422590305548
 51
176.3485327712908
  0
ARC
  5
105
330
1F
100
AcDbEntity
  8
0-3_仕上げ
  6
Continuous
 62
   120
370
     5
100
AcDbCircle
 10
-1210.121823191063
 20
2420.178928815601
 30
0.0
 40
63.0
100
AcDbArc
 50
129.200407421848
 51
161.8874291519458
  0
ARC
  5
106
330
1F
100
AcDbEntity
  8
0-3_仕上げ
  6
Continuous
 62
   120
370
     5
100
AcDbCircle
 10
-1210.121823191063
 20
2517.821368112184
 30
0.0
 40
63.0
100
AcDbArc
 50
198.1125708480542
 51
230.799592578152
  0
ARC
  5
107
330
1F
100
AcDbEntity
  8
0-3_仕上げ
  6
Continuous
 62
   120
370
     5
100
AcDbCircle
 10
-1329.878213924911
 20
2517.821368112184
 30
0.0
 40
63.0
100
AcDbArc
 50
309.200407421848
 51
341.8874291519458
  0
ARC
  5
108
330
1F
100
AcDbEntity
  8
0-3_仕上げ
  6
Continuous
 62
   120
370
     5
100
AcDbCircle
 10
-1329.878213924911
 20
2420.178928815601
 30
0.0
 40
63.0
100
AcDbArc
 50
18.11257084805418
 51
50.79959257815202
  0
LINE
  5
109
330
1F
100
AcDbEntity
  8
0-3_仕上げ
  6
Continuous
 62
   120
370
     5
100
AcDbLine
 10
-1273.000018557986
 20
2309.000148463892
 30
0.0
 11
-1273.000018557986
 21
2423.903293432827
 31
0.0
  0
LINE
  5
10A
330
1F
100
AcDbEntity
  8
0-3_仕上げ
  6
JWW_CENTER1
 62
   120
370
     5
100
AcDbLine
 10
-1270.000018557985
 20
2309.000148463892
 30
0.0
 11
-1270.000018557985
 21
2424.000148463892
 31
0.0
  0
LINE
  5
10B
330
1F
100
AcDbEntity
  8
0-3_仕上げ
  6
Continuous
 62
   120
370
     5
100
AcDbLine
 10
-1267.000018557988
 20
2309.000148463892
 30
0.0
 11
-1267.000018557988
 21
2423.903293432822
 31
0.0
  0
ARC
  5
10C
330
1F
100
AcDbEntity
  8
0-3_仕上げ
  6
Continuous
 62
   120
370
     5
100
AcDbCircle
 10
-1210.121823191063
 20
2420.178928815601
 30
0.0
 40
57.0
100
AcDbArc
 50
126.497670255926
 51
176.2536402876274
  0
LINE
  5
10D
330
1F
100
AcDbEntity
  8
0-3_仕上げ
  6
Continuous
 62
   120
370
     5
100
AcDbLine
 10
-1273.000018557986
 20
2514.097003494959
 30
0.0
 11
-1273.000018557986
 21
3071.903293432827
 31
0.0
  0
LINE
  5
10E
330
1F
100
AcDbEntity
  8
0-3_仕上げ
  6
JWW_CENTER1
 62
   120
370
     5
100
AcDbLine
 10
-1270.000018557985
 20
2514.000148463893
 30
0.0
 11
-1270.000018557985
 21
3072.000148463893
 31
0.0
  0
LINE
  5
10F
330
1F
100
AcDbEntity
  8
0-3_仕上げ
  6
Continuous
 62
   120
370
     5
100
AcDbLine
 10
-1267.000018557988
 20
2514.097003494963
 30
0.0
 11
-1267.000018557988
 21
3071.903293432823
 31
0.0
  0
ARC
  5
110
330
1F
100
AcDbEntity
  8
0-3_仕上げ
  6
Continuous
 62
   120
370
     5
100
AcDbCircle
 10
-1210.121823191063
 20
2517.821368112184
 30
0.0
 40
57.0
100
AcDbArc
 50
183.7463597123725
 51
233.502329744074
  0
ARC
  5
111
330
1F
100
AcDbEntity
  8
0-3_仕上げ
  6
JWW_CENTER1
 62
   120
370
     5
100
AcDbCircle
 10
-1110.121823191062
 20
2517.821368112184
 30
0.0
 40
60.0
100
AcDbArc
 50
183.6514672287091
 51
234.4577409694452
  0
ARC
  5
112
330
1F
100
AcDbEntity
  8
0-3_仕上げ
  6
Continuous
 62
   120
370
     5
100
AcDbCircle
 10
-1110.121823191062
 20
2420.178928815601
 30
0.0
 40
63.0
100
AcDbArc
 50
129.200407421848
 51
161.8874291519458
  0
ARC
  5
113
330
1F
100
AcDbEntity
  8
0-3_仕上げ
  6
Continuous
 62
   120
370
     5
100
AcDbCircle
 10
-1110.121823191062
 20
2517.821368112184
 30
0.0
 40
63.0
100
AcDbArc
 50
198.1125708480542
 51
230.799592578152
  0
ARC
  5
114
330
1F
100
AcDbEntity
  8
0-3_仕上げ
  6
Continuous
 62
   120
370
     5
100
AcDbCircle
 10
-1229.87821392491
 20
2517.821368112184
 30
0.0
 40
63.0
100
AcDbArc
 50
309.200407421848
 51
341.8874291519458
  0
ARC
  5
115
330
1F
100
AcDbEntity
  8
0-3_仕上げ
  6
Continuous
 62
   120
370
     5
100
AcDbCircle
 10
-1229.87821392491
 20
2420.178928815601
 30
0.0
 40
63.0
100
AcDbArc
 50
18.11257084805418
 51
50.79959257815202
  0
LINE
  5
116
330
1F
100
AcDbEntity
  8
0-3_仕上げ
  6
Continuous
 62
   120
370
     5
100
AcDbLine
 10
-1244.024858895009
 20
2472.000148463893
 30
0.0
 11
-1195.975178220963
 21
2472.000148463893
 31
0.0
  0
LINE
  5
117
330
1F
100
AcDbEntity
  8
0-3_仕上げ
  6
Continuous
 62
   120
370
     5
100
AcDbLine
 10
-1244.024858895009
 20
2466.000148463892
 30
0.0
 11
-1195.975178220963
 21
2466.000148463892
 31
0.0
  0
LINE
  5
118
330
1F
100
AcDbEntity
  8
0-3_仕上げ
  6
JWW_CENTER1
 62
   120
370
     5
100
AcDbLine
 10
-1245.000018557987
 20
2469.000148463892
 30
0.0
 11
-1195.000018557985
 21
2469.000148463892
 31
0.0
  0
ARC
  5
119
330
1F
100
AcDbEntity
  8
0-3_仕上げ
  6
JWW_CENTER1
 62
   120
370
     5
100
AcDbCircle
 10
-1229.87821392491
 20
2420.178928815601
 30
0.0
 40
60.0
100
AcDbArc
 50
3.651467228708674
 51
54.45774096944522
  0
ARC
  5
11A
330
1F
100
AcDbEntity
  8
0-3_仕上げ
  6
Continuous
 62
   120
370
     5
100
AcDbCircle
 10
-1229.87821392491
 20
2517.821368112184
 30
0.0
 40
57.0
100
AcDbArc
 50
306.497670255926
 51
356.2536402876231
  0
LINE
  5
11B
330
1F
100
AcDbEntity
  8
0-3_仕上げ
  6
Continuous
 62
   120
370
     5
100
AcDbLine
 10
-1173.000018557988
 20
2514.097003494959
 30
0.0
 11
-1173.000018557988
 21
3071.903293432827
 31
0.0
  0
ARC
  5
11C
330
1F
100
AcDbEntity
  8
0-3_仕上げ
  6
Continuous
 62
   120
370
     5
100
AcDbCircle
 10
-1229.87821392491
 20
2420.178928815601
 30
0.0
 40
57.0
100
AcDbArc
 50
3.74635971237695
 51
53.50232974407399
  0
LINE
  5
11D
330
1F
100
AcDbEntity
  8
0-3_仕上げ
  6
Continuous
 62
   120
370
     5
100
AcDbLine
 10
-1173.000018557988
 20
2309.000148463892
 30
0.0
 11
-1173.000018557988
 21
2423.903293432827
 31
0.0
  0
LINE
  5
11E
330
1F
100
AcDbEntity
  8
0-3_仕上げ
  6
Continuous
 62
   120
370
     5
100
AcDbLine
 10
-1144.024858895008
 20
2466.000148463892
 30
0.0
 11
-1095.975178220962
 21
2466.000148463892
 31
0.0
  0
LINE
  5
11F
330
1F
100
AcDbEntity
  8
0-3_仕上げ
  6
JWW_CENTER1
 62
   120
370
     5
100
AcDbLine
 10
-1145.000018557987
 20
2469.000148463892
 30
0.0
 11
-1095.000018557987
 21
2469.000148463892
 31
0.0
  0
LINE
  5
120
330
1F
100
AcDbEntity
  8
0-3_仕上げ
  6
Continuous
 62
   120
370
     5
100
AcDbLine
 10
-1144.024858895008
 20
2472.000148463893
 30
0.0
 11
-1095.975178220962
 21
2472.000148463893
 31
0.0
  0
LINE
  5
121
330
1F
100
AcDbEntity
  8
0-3_仕上げ
  6
JWW_CENTER1
 62
   120
370
     5
100
AcDbLine
 10
-1170.000018557987
 20
2514.000148463893
 30
0.0
 11
-1170.000018557987
 21
3072.000148463892
 31
0.0
  0
ARC
  5
122
330
1F
100
AcDbEntity
  8
0-3_仕上げ
  6
JWW_CENTER1
 62
   120
370
     5
100
AcDbCircle
 10
-1229.87821392491
 20
2517.821368112184
 30
0.0
 40
60.0
100
AcDbArc
 50
305.5422590305548
 51
356.3485327712913
  0
LINE
  5
123
330
1F
100
AcDbEntity
  8
0-3_仕上げ
  6
Continuous
 62
   120
370
     5
100
AcDbLine
 10
-1167.000018557987
 20
2514.09700349496
 30
0.0
 11
-1167.000018557987
 21
3071.903293432823
 31
0.0
  0
ARC
  5
124
330
1F
100
AcDbEntity
  8
0-3_仕上げ
  6
Continuous
 62
   120
370
     5
100
AcDbCircle
 10
-1110.121823191062
 20
2517.821368112184
 30
0.0
 40
57.0
100
AcDbArc
 50
183.7463597123748
 51
233.502329744074
  0
ARC
  5
125
330
1F
100
AcDbEntity
  8
0-3_仕上げ
  6
Continuous
 62
   120
370
     5
100
AcDbCircle
 10
-1110.121823191062
 20
2420.178928815601
 30
0.0
 40
57.0
100
AcDbArc
 50
126.497670255926
 51
176.2536402876256
  0
LINE
  5
126
330
1F
100
AcDbEntity
  8
0-3_仕上げ
  6
Continuous
 62
   120
370
     5
100
AcDbLine
 10
-1167.000018557987
 20
2309.000148463892
 30
0.0
 11
-1167.000018557987
 21
2423.903293432824
 31
0.0
  0
ARC
  5
127
330
1F
100
AcDbEntity
  8
0-3_仕上げ
  6
JWW_CENTER1
 62
   120
370
     5
100
AcDbCircle
 10
-1110.121823191062
 20
2420.178928815601
 30
0.0
 40
60.0
100
AcDbArc
 50
125.5422590305548
 51
176.348532771291
  0
LINE
  5
128
330
1F
100
AcDbEntity
  8
0-3_仕上げ
  6
JWW_CENTER1
 62
   120
370
     5
100
AcDbLine
 10
-1170.000018557987
 20
2309.000148463892
 30
0.0
 11
-1170.000018557987
 21
2424.000148463892
 31
0.0
  0
LINE
  5
129
330
1F
100
AcDbEntity
  8
0-3_仕上げ
  6
Continuous
 62
   120
370
     5
100
AcDbLine
 10
-1144.024858895008
 20
3114.000148463893
 30
0.0
 11
-1095.975178220962
 21
3114.000148463893
 31
0.0
  0
LINE
  5
12A
330
1F
100
AcDbEntity
  8
0-3_仕上げ
  6
Continuous
 62
   120
370
     5
100
AcDbLine
 10
-1144.024858895008
 20
3120.000148463892
 30
0.0
 11
-1095.975178220962
 21
3120.000148463892
 31
0.0
  0
LINE
  5
12B
330
1F
100
AcDbEntity
  8
0-3_仕上げ
  6
JWW_CENTER1
 62
   120
370
     5
100
AcDbLine
 10
-1145.000018557987
 20
3117.000148463893
 30
0.0
 11
-1095.000018557987
 21
3117.000148463893
 31
0.0
  0
ARC
  5
12C
330
1F
100
AcDbEntity
  8
0-3_仕上げ
  6
Continuous
 62
   120
370
     5
100
AcDbCircle
 10
-1110.121823191062
 20
3068.178928815601
 30
0.0
 40
57.0
100
AcDbArc
 50
126.497670255926
 51
176.2536402876275
  0
ARC
  5
12D
330
1F
100
AcDbEntity
  8
0-3_仕上げ
  6
Continuous
 62
   120
370
     5
100
AcDbCircle
 10
-1110.121823191062
 20
3165.821368112184
 30
0.0
 40
57.0
100
AcDbArc
 50
183.6514672287091
 51
233.502329744074
  0
ARC
  5
12E
330
1F
100
AcDbEntity
  8
0-3_仕上げ
  6
JWW_CENTER1
 62
   120
370
     5
100
AcDbCircle
 10
-1010.121823191061
 20
3165.821368112184
 30
0.0
 40
60.0
100
AcDbArc
 50
183.6514672287091
 51
234.4577409694452
  0
ARC
  5
12F
330
1F
100
AcDbEntity
  8
0-3_仕上げ
  6
JWW_CENTER1
 62
   120
370
     5
100
AcDbCircle
 10
-1010.121823191061
 20
3068.178928815601
 30
0.0
 40
60.0
100
AcDbArc
 50
125.5422590305548
 51
176.3485327712908
  0
ARC
  5
130
330
1F
100
AcDbEntity
  8
0-3_仕上げ
  6
Continuous
 62
   120
370
     5
100
AcDbCircle
 10
-1010.121823191061
 20
3068.178928815601
 30
0.0
 40
63.0
100
AcDbArc
 50
129.200407421848
 51
161.8874291519458
  0
ARC
  5
131
330
1F
100
AcDbEntity
  8
0-3_仕上げ
  6
Continuous
 62
   120
370
     5
100
AcDbCircle
 10
-1010.121823191061
 20
3165.821368112184
 30
0.0
 40
63.0
100
AcDbArc
 50
198.1125708480542
 51
230.799592578152
  0
ARC
  5
132
330
1F
100
AcDbEntity
  8
0-3_仕上げ
  6
Continuous
 62
   120
370
     5
100
AcDbCircle
 10
-1129.878213924912
 20
3165.821368112184
 30
0.0
 40
63.0
100
AcDbArc
 50
309.200407421848
 51
341.8874291519458
  0
ARC
  5
133
330
1F
100
AcDbEntity
  8
0-3_仕上げ
  6
Continuous
 62
   120
370
     5
100
AcDbCircle
 10
-1129.878213924912
 20
3068.178928815601
 30
0.0
 40
63.0
100
AcDbArc
 50
18.11257084805418
 51
50.79959257815202
  0
ARC
  5
134
330
1F
100
AcDbEntity
  8
0-3_仕上げ
  6
Continuous
 62
   120
370
     5
100
AcDbCircle
 10
-1129.878213924912
 20
3165.821368112184
 30
0.0
 40
57.0
100
AcDbArc
 50
306.497670255926
 51
356.2536402876231
  0
LINE
  5
135
330
1F
100
AcDbEntity
  8
0-3_仕上げ
  6
Continuous
 62
   120
370
     5
100
AcDbLine
 10
-1073.000018557987
 20
3162.097003494958
 30
0.0
 11
-1073.000018557987
 21
3267.000148463893
 31
0.0
  0
LINE
  5
136
330
1F
100
AcDbEntity
  8
0-3_仕上げ
  6
JWW_CENTER1
 62
   120
370
     5
100
AcDbLine
 10
-1070.000018557987
 20
3162.000148463893
 30
0.0
 11
-1070.000018557987
 21
3267.000148463893
 31
0.0
  0
ARC
  5
137
330
1F
100
AcDbEntity
  8
0-3_仕上げ
  6
JWW_CENTER1
 62
   120
370
     5
100
AcDbCircle
 10
-1129.878213924912
 20
3165.821368112184
 30
0.0
 40
60.0
100
AcDbArc
 50
305.5422590305548
 51
356.3485327712913
  0
LINE
  5
138
330
1F
100
AcDbEntity
  8
0-3_仕上げ
  6
Continuous
 62
   120
370
     5
100
AcDbLine
 10
-1067.000018557986
 20
3162.097003494961
 30
0.0
 11
-1067.000018557986
 21
3267.000148463893
 31
0.0
  0
ARC
  5
139
330
1F
100
AcDbEntity
  8
0-3_仕上げ
  6
Continuous
 62
   120
370
     5
100
AcDbCircle
 10
-1129.878213924912
 20
3068.178928815601
 30
0.0
 40
57.0
100
AcDbArc
 50
3.746359712376933
 51
53.50232974407399
  0
ARC
  5
13A
330
1F
100
AcDbEntity
  8
0-3_仕上げ
  6
JWW_CENTER1
 62
   120
370
     5
100
AcDbCircle
 10
-1129.878213924912
 20
3068.178928815601
 30
0.0
 40
60.0
100
AcDbArc
 50
3.651467228708674
 51
54.45774096944522
  0
ARC
  5
13B
330
1F
100
AcDbEntity
  8
0-3_仕上げ
  6
JWW_CENTER1
 62
   120
370
     5
100
AcDbCircle
 10
-1010.121823191061
 20
2517.821368112184
 30
0.0
 40
60.0
100
AcDbArc
 50
183.6514672287091
 51
234.4577409694452
  0
ARC
  5
13C
330
1F
100
AcDbEntity
  8
0-3_仕上げ
  6
Continuous
 62
   120
370
     5
100
AcDbCircle
 10
-1010.121823191061
 20
2420.178928815601
 30
0.0
 40
63.0
100
AcDbArc
 50
129.200407421848
 51
161.8874291519458
  0
ARC
  5
13D
330
1F
100
AcDbEntity
  8
0-3_仕上げ
  6
Continuous
 62
   120
370
     5
100
AcDbCircle
 10
-1010.121823191061
 20
2517.821368112184
 30
0.0
 40
63.0
100
AcDbArc
 50
198.1125708480542
 51
230.799592578152
  0
ARC
  5
13E
330
1F
100
AcDbEntity
  8
0-3_仕上げ
  6
Continuous
 62
   120
370
     5
100
AcDbCircle
 10
-1129.878213924912
 20
2517.821368112184
 30
0.0
 40
63.0
100
AcDbArc
 50
309.200407421848
 51
341.8874291519458
  0
ARC
  5
13F
330
1F
100
AcDbEntity
  8
0-3_仕上げ
  6
Continuous
 62
   120
370
     5
100
AcDbCircle
 10
-1129.878213924912
 20
2420.178928815601
 30
0.0
 40
63.0
100
AcDbArc
 50
18.11257084805418
 51
50.79959257815202
  0
ARC
  5
140
330
1F
100
AcDbEntity
  8
0-3_仕上げ
  6
JWW_CENTER1
 62
   120
370
     5
100
AcDbCircle
 10
-1129.878213924912
 20
2420.178928815601
 30
0.0
 40
60.0
100
AcDbArc
 50
3.651467228708674
 51
54.45774096944522
  0
ARC
  5
141
330
1F
100
AcDbEntity
  8
0-3_仕上げ
  6
Continuous
 62
   120
370
     5
100
AcDbCircle
 10
-1129.878213924912
 20
2517.821368112184
 30
0.0
 40
57.0
100
AcDbArc
 50
306.497670255926
 51
356.2536402876231
  0
LINE
  5
142
330
1F
100
AcDbEntity
  8
0-3_仕上げ
  6
Continuous
 62
   120
370
     5
100
AcDbLine
 10
-1073.000018557987
 20
2514.097003494959
 30
0.0
 11
-1073.000018557987
 21
3071.903293432827
 31
0.0
  0
ARC
  5
143
330
1F
100
AcDbEntity
  8
0-3_仕上げ
  6
Continuous
 62
   120
370
     5
100
AcDbCircle
 10
-1129.878213924912
 20
2420.178928815601
 30
0.0
 40
57.0
100
AcDbArc
 50
3.74635971237695
 51
53.50232974407399
  0
LINE
  5
144
330
1F
100
AcDbEntity
  8
0-3_仕上げ
  6
Continuous
 62
   120
370
     5
100
AcDbLine
 10
-1073.000018557987
 20
2309.000148463892
 30
0.0
 11
-1073.000018557987
 21
2423.903293432827
 31
0.0
  0
LINE
  5
145
330
1F
100
AcDbEntity
  8
0-3_仕上げ
  6
Continuous
 62
   120
370
     5
100
AcDbLine
 10
-1044.024858895011
 20
2466.000148463892
 30
0.0
 11
-995.9751782209645
 21
2466.000148463892
 31
0.0
  0
LINE
  5
146
330
1F
100
AcDbEntity
  8
0-3_仕上げ
  6
JWW_CENTER1
 62
   120
370
     5
100
AcDbLine
 10
-1045.000018557985
 20
2469.000148463892
 30
0.0
 11
-995.0000185579864
 21
2469.000148463892
 31
0.0
  0
LINE
  5
147
330
1F
100
AcDbEntity
  8
0-3_仕上げ
  6
Continuous
 62
   120
370
     5
100
AcDbLine
 10
-1044.024858895011
 20
2472.000148463893
 30
0.0
 11
-995.9751782209645
 21
2472.000148463893
 31
0.0
  0
LINE
  5
148
330
1F
100
AcDbEntity
  8
0-3_仕上げ
  6
JWW_CENTER1
 62
   120
370
     5
100
AcDbLine
 10
-1070.000018557987
 20
2514.000148463893
 30
0.0
 11
-1070.000018557987
 21
3072.000148463892
 31
0.0
  0
ARC
  5
149
330
1F
100
AcDbEntity
  8
0-3_仕上げ
  6
JWW_CENTER1
 62
   120
370
     5
100
AcDbCircle
 10
-1129.878213924912
 20
2517.821368112184
 30
0.0
 40
60.0
100
AcDbArc
 50
305.5422590305548
 51
356.3485327712913
  0
LINE
  5
14A
330
1F
100
AcDbEntity
  8
0-3_仕上げ
  6
Continuous
 62
   120
370
     5
100
AcDbLine
 10
-1067.000018557986
 20
2514.09700349496
 30
0.0
 11
-1067.000018557986
 21
3071.903293432823
 31
0.0
  0
ARC
  5
14B
330
1F
100
AcDbEntity
  8
0-3_仕上げ
  6
Continuous
 62
   120
370
     5
100
AcDbCircle
 10
-1010.121823191061
 20
2517.821368112184
 30
0.0
 40
57.0
100
AcDbArc
 50
183.7463597123748
 51
233.502329744074
  0
ARC
  5
14C
330
1F
100
AcDbEntity
  8
0-3_仕上げ
  6
Continuous
 62
   120
370
     5
100
AcDbCircle
 10
-1010.121823191061
 20
2420.178928815601
 30
0.0
 40
57.0
100
AcDbArc
 50
126.497670255926
 51
176.2536402876256
  0
LINE
  5
14D
330
1F
100
AcDbEntity
  8
0-3_仕上げ
  6
Continuous
 62
   120
370
     5
100
AcDbLine
 10
-1067.000018557986
 20
2309.000148463892
 30
0.0
 11
-1067.000018557986
 21
2423.903293432824
 31
0.0
  0
ARC
  5
14E
330
1F
100
AcDbEntity
  8
0-3_仕上げ
  6
JWW_CENTER1
 62
   120
370
     5
100
AcDbCircle
 10
-1010.121823191061
 20
2420.178928815601
 30
0.0
 40
60.0
100
AcDbArc
 50
125.5422590305548
 51
176.348532771291
  0
LINE
  5
14F
330
1F
100
AcDbEntity
  8
0-3_仕上げ
  6
JWW_CENTER1
 62
   120
370
     5
100
AcDbLine
 10
-1070.000018557987
 20
2309.000148463892
 30
0.0
 11
-1070.000018557987
 21
2424.000148463892
 31
0.0
  0
LINE
  5
150
330
1F
100
AcDbEntity
  8
0-3_仕上げ
  6
Continuous
 62
   120
370
     5
100
AcDbLine
 10
-1044.024858895011
 20
3114.000148463893
 30
0.0
 11
-995.9751782209645
 21
3114.000148463893
 31
0.0
  0
LINE
  5
151
330
1F
100
AcDbEntity
  8
0-3_仕上げ
  6
Continuous
 62
   120
370
     5
100
AcDbLine
 10
-1044.024858895011
 20
3120.000148463892
 30
0.0
 11
-995.9751782209645
 21
3120.000148463892
 31
0.0
  0
LINE
  5
152
330
1F
100
AcDbEntity
  8
0-3_仕上げ
  6
JWW_CENTER1
 62
   120
370
     5
100
AcDbLine
 10
-1045.000018557985
 20
3117.000148463893
 30
0.0
 11
-995.0000185579864
 21
3117.000148463893
 31
0.0
  0
ARC
  5
153
330
1F
100
AcDbEntity
  8
0-3_仕上げ
  6
Continuous
 62
   120
370
     5
100
AcDbCircle
 10
-1010.121823191061
 20
3068.178928815601
 30
0.0
 40
57.0
100
AcDbArc
 50
126.497670255926
 51
176.2536402876275
  0
ARC
  5
154
330
1F
100
AcDbEntity
  8
0-3_仕上げ
  6
Continuous
 62
   120
370
     5
100
AcDbCircle
 10
-1010.121823191061
 20
3165.821368112184
 30
0.0
 40
57.0
100
AcDbArc
 50
183.6514672287091
 51
233.502329744074
  0
ARC
  5
155
330
1F
100
AcDbEntity
  8
0-3_仕上げ
  6
JWW_CENTER1
 62
   120
370
     5
100
AcDbCircle
 10
-910.1218231910633
 20
3165.821368112184
 30
0.0
 40
60.0
100
AcDbArc
 50
183.6514672287091
 51
234.4577409694452
  0
ARC
  5
156
330
1F
100
AcDbEntity
  8
0-3_仕上げ
  6
JWW_CENTER1
 62
   120
370
     5
100
AcDbCircle
 10
-910.1218231910633
 20
3068.178928815601
 30
0.0
 40
60.0
100
AcDbArc
 50
125.5422590305548
 51
176.3485327712908
  0
ARC
  5
157
330
1F
100
AcDbEntity
  8
0-3_仕上げ
  6
Continuous
 62
   120
370
     5
100
AcDbCircle
 10
-910.1218231910633
 20
3068.178928815601
 30
0.0
 40
63.0
100
AcDbArc
 50
129.200407421848
 51
161.8874291519458
  0
ARC
  5
158
330
1F
100
AcDbEntity
  8
0-3_仕上げ
  6
Continuous
 62
   120
370
     5
100
AcDbCircle
 10
-910.1218231910633
 20
3165.821368112184
 30
0.0
 40
63.0
100
AcDbArc
 50
198.1125708480542
 51
230.799592578152
  0
ARC
  5
159
330
1F
100
AcDbEntity
  8
0-3_仕上げ
  6
Continuous
 62
   120
370
     5
100
AcDbCircle
 10
-1029.878213924911
 20
3165.821368112184
 30
0.0
 40
63.0
100
AcDbArc
 50
309.200407421848
 51
341.8874291519458
  0
ARC
  5
15A
330
1F
100
AcDbEntity
  8
0-3_仕上げ
  6
Continuous
 62
   120
370
     5
100
AcDbCircle
 10
-1029.878213924911
 20
3068.178928815601
 30
0.0
 40
63.0
100
AcDbArc
 50
18.11257084805418
 51
50.79959257815202
  0
ARC
  5
15B
330
1F
100
AcDbEntity
  8
0-3_仕上げ
  6
Continuous
 62
   120
370
     5
100
AcDbCircle
 10
-1029.878213924911
 20
3165.821368112184
 30
0.0
 40
57.0
100
AcDbArc
 50
306.497670255926
 51
356.2536402876231
  0
LINE
  5
15C
330
1F
100
AcDbEntity
  8
0-3_仕上げ
  6
Continuous
 62
   120
370
     5
100
AcDbLine
 10
-973.000018557986
 20
3162.097003494958
 30
0.0
 11
-973.000018557986
 21
3267.000148463893
 31
0.0
  0
LINE
  5
15D
330
1F
100
AcDbEntity
  8
0-3_仕上げ
  6
JWW_CENTER1
 62
   120
370
     5
100
AcDbLine
 10
-970.0000185579853
 20
3162.000148463893
 30
0.0
 11
-970.0000185579853
 21
3267.000148463893
 31
0.0
  0
ARC
  5
15E
330
1F
100
AcDbEntity
  8
0-3_仕上げ
  6
JWW_CENTER1
 62
   120
370
     5
100
AcDbCircle
 10
-1029.878213924911
 20
3165.821368112184
 30
0.0
 40
60.0
100
AcDbArc
 50
305.5422590305548
 51
356.3485327712913
  0
LINE
  5
15F
330
1F
100
AcDbEntity
  8
0-3_仕上げ
  6
Continuous
 62
   120
370
     5
100
AcDbLine
 10
-967.0000185579846
 20
3162.097003494961
 30
0.0
 11
-967.0000185579846
 21
3267.000148463893
 31
0.0
  0
ARC
  5
160
330
1F
100
AcDbEntity
  8
0-3_仕上げ
  6
Continuous
 62
   120
370
     5
100
AcDbCircle
 10
-1029.878213924911
 20
3068.178928815601
 30
0.0
 40
57.0
100
AcDbArc
 50
3.746359712376933
 51
53.50232974407399
  0
ARC
  5
161
330
1F
100
AcDbEntity
  8
0-3_仕上げ
  6
JWW_CENTER1
 62
   120
370
     5
100
AcDbCircle
 10
-1029.878213924911
 20
3068.178928815601
 30
0.0
 40
60.0
100
AcDbArc
 50
3.651467228708674
 51
54.45774096944522
  0
ARC
  5
162
330
1F
100
AcDbEntity
  8
0-3_仕上げ
  6
JWW_CENTER1
 62
   120
370
     5
100
AcDbCircle
 10
-910.1218231910633
 20
2517.821368112184
 30
0.0
 40
60.0
100
AcDbArc
 50
183.6514672287091
 51
234.4577409694452
  0
ARC
  5
163
330
1F
100
AcDbEntity
  8
0-3_仕上げ
  6
Continuous
 62
   120
370
     5
100
AcDbCircle
 10
-910.1218231910633
 20
2420.178928815601
 30
0.0
 40
63.0
100
AcDbArc
 50
129.200407421848
 51
161.8874291519458
  0
ARC
  5
164
330
1F
100
AcDbEntity
  8
0-3_仕上げ
  6
Continuous
 62
   120
370
     5
100
AcDbCircle
 10
-910.1218231910633
 20
2517.821368112184
 30
0.0
 40
63.0
100
AcDbArc
 50
198.1125708480542
 51
230.799592578152
  0
ARC
  5
165
330
1F
100
AcDbEntity
  8
0-3_仕上げ
  6
Continuous
 62
   120
370
     5
100
AcDbCircle
 10
-1029.878213924911
 20
2517.821368112184
 30
0.0
 40
63.0
100
AcDbArc
 50
309.200407421848
 51
341.8874291519458
  0
ARC
  5
166
330
1F
100
AcDbEntity
  8
0-3_仕上げ
  6
Continuous
 62
   120
370
     5
100
AcDbCircle
 10
-1029.878213924911
 20
2420.178928815601
 30
0.0
 40
63.0
100
AcDbArc
 50
18.11257084805418
 51
50.79959257815202
  0
ARC
  5
167
330
1F
100
AcDbEntity
  8
0-3_仕上げ
  6
JWW_CENTER1
 62
   120
370
     5
100
AcDbCircle
 10
-1029.878213924911
 20
2420.178928815601
 30
0.0
 40
60.0
100
AcDbArc
 50
3.651467228708674
 51
54.45774096944522
  0
ARC
  5
168
330
1F
100
AcDbEntity
  8
0-3_仕上げ
  6
Continuous
 62
   120
370
     5
100
AcDbCircle
 10
-1029.878213924911
 20
2517.821368112184
 30
0.0
 40
57.0
100
AcDbArc
 50
306.497670255926
 51
356.2536402876231
  0
LINE
  5
169
330
1F
100
AcDbEntity
  8
0-3_仕上げ
  6
Continuous
 62
   120
370
     5
100
AcDbLine
 10
-973.000018557986
 20
2514.097003494959
 30
0.0
 11
-973.000018557986
 21
3071.903293432827
 31
0.0
  0
ARC
  5
16A
330
1F
100
AcDbEntity
  8
0-3_仕上げ
  6
Continuous
 62
   120
370
     5
100
AcDbCircle
 10
-1029.878213924911
 20
2420.178928815601
 30
0.0
 40
57.0
100
AcDbArc
 50
3.74635971237695
 51
53.50232974407399
  0
LINE
  5
16B
330
1F
100
AcDbEntity
  8
0-3_仕上げ
  6
Continuous
 62
   120
370
     5
100
AcDbLine
 10
-973.000018557986
 20
2309.000148463892
 30
0.0
 11
-973.000018557986
 21
2423.903293432827
 31
0.0
  0
LINE
  5
16C
330
1F
100
AcDbEntity
  8
0-3_仕上げ
  6
JWW_CENTER1
 62
   120
370
     5
100
AcDbLine
 10
-970.0000185579853
 20
2514.000148463893
 30
0.0
 11
-970.0000185579853
 21
3072.000148463892
 31
0.0
  0
ARC
  5
16D
330
1F
100
AcDbEntity
  8
0-3_仕上げ
  6
JWW_CENTER1
 62
   120
370
     5
100
AcDbCircle
 10
-1029.878213924911
 20
2517.821368112184
 30
0.0
 40
60.0
100
AcDbArc
 50
305.5422590305548
 51
356.3485327712913
  0
LINE
  5
16E
330
1F
100
AcDbEntity
  8
0-3_仕上げ
  6
Continuous
 62
   120
370
     5
100
AcDbLine
 10
-967.0000185579846
 20
2514.09700349496
 30
0.0
 11
-967.0000185579846
 21
3071.903293432823
 31
0.0
  0
ARC
  5
16F
330
1F
100
AcDbEntity
  8
0-3_仕上げ
  6
Continuous
 62
   120
370
     5
100
AcDbCircle
 10
-910.1218231910633
 20
2517.821368112184
 30
0.0
 40
57.0
100
AcDbArc
 50
183.7463597123748
 51
233.502329744074
  0
ARC
  5
170
330
1F
100
AcDbEntity
  8
0-3_仕上げ
  6
Continuous
 62
   120
370
     5
100
AcDbCircle
 10
-910.1218231910633
 20
2420.178928815601
 30
0.0
 40
57.0
100
AcDbArc
 50
126.497670255926
 51
176.2536402876256
  0
LINE
  5
171
330
1F
100
AcDbEntity
  8
0-3_仕上げ
  6
Continuous
 62
   120
370
     5
100
AcDbLine
 10
-967.0000185579846
 20
2309.000148463892
 30
0.0
 11
-967.0000185579846
 21
2423.903293432824
 31
0.0
  0
ARC
  5
172
330
1F
100
AcDbEntity
  8
0-3_仕上げ
  6
JWW_CENTER1
 62
   120
370
     5
100
AcDbCircle
 10
-910.1218231910633
 20
2420.178928815601
 30
0.0
 40
60.0
100
AcDbArc
 50
125.5422590305548
 51
176.348532771291
  0
LINE
  5
173
330
1F
100
AcDbEntity
  8
0-3_仕上げ
  6
JWW_CENTER1
 62
   120
370
     5
100
AcDbLine
 10
-970.0000185579853
 20
2309.000148463892
 30
0.0
 11
-970.0000185579853
 21
2424.000148463892
 31
0.0
  0
ARC
  5
174
330
1F
100
AcDbEntity
  8
0-3_仕上げ
  6
Continuous
 62
   120
370
     5
100
AcDbCircle
 10
-910.1218231910633
 20
3068.178928815601
 30
0.0
 40
57.0
100
AcDbArc
 50
126.497670255926
 51
176.2536402876275
  0
ARC
  5
175
330
1F
100
AcDbEntity
  8
0-3_仕上げ
  6
Continuous
 62
   120
370
     5
100
AcDbCircle
 10
-910.1218231910633
 20
3165.821368112184
 30
0.0
 40
57.0
100
AcDbArc
 50
183.6514672287091
 51
233.502329744074
  0
ARC
  5
176
330
1F
100
AcDbEntity
  8
0-3_仕上げ
  6
Continuous
 62
   120
370
     5
100
AcDbCircle
 10
-1329.878213924911
 20
3165.821368112184
 30
0.0
 40
57.0
100
AcDbArc
 50
306.497670255926
 51
356.3485327712909
  0
ARC
  5
177
330
1F
100
AcDbEntity
  8
0-3_仕上げ
  6
JWW_CENTER1
 62
   120
370
     5
100
AcDbCircle
 10
-1329.878213924911
 20
3165.821368112184
 30
0.0
 40
60.0
100
AcDbArc
 50
305.5422590305548
 51
356.3485327712909
  0
ARC
  5
178
330
1F
100
AcDbEntity
  8
0-3_仕上げ
  6
JWW_CENTER1
 62
   120
370
     5
100
AcDbCircle
 10
-1329.878213924911
 20
3068.178928815601
 30
0.0
 40
60.0
100
AcDbArc
 50
3.651467228709083
 51
54.45774096944522
  0
ARC
  5
179
330
1F
100
AcDbEntity
  8
0-3_仕上げ
  6
Continuous
 62
   120
370
     5
100
AcDbCircle
 10
-1329.878213924911
 20
3068.178928815601
 30
0.0
 40
57.0
100
AcDbArc
 50
3.746359712376933
 51
53.50232974407399
  0
ARC
  5
17A
330
1F
100
AcDbEntity
  8
0-3_仕上げ
  6
Continuous
 62
   120
370
     5
100
AcDbCircle
 10
-1329.878213924911
 20
2420.178928815601
 30
0.0
 40
57.0
100
AcDbArc
 50
3.74635971237695
 51
53.50232974407398
  0
ARC
  5
17B
330
1F
100
AcDbEntity
  8
0-3_仕上げ
  6
JWW_CENTER1
 62
   120
370
     5
100
AcDbCircle
 10
-1329.878213924911
 20
2420.178928815601
 30
0.0
 40
60.0
100
AcDbArc
 50
3.651467228708674
 51
54.45774096944522
  0
ARC
  5
17C
330
1F
100
AcDbEntity
  8
0-3_仕上げ
  6
Continuous
 62
   120
370
     5
100
AcDbCircle
 10
-1329.878213924911
 20
2517.821368112184
 30
0.0
 40
57.0
100
AcDbArc
 50
306.497670255926
 51
356.2536402876231
  0
ARC
  5
17D
330
1F
100
AcDbEntity
  8
0-3_仕上げ
  6
JWW_CENTER1
 62
   120
370
     5
100
AcDbCircle
 10
-1329.878213924911
 20
2517.821368112184
 30
0.0
 40
60.0
100
AcDbArc
 50
305.5422590305548
 51
356.3485327712913
  0
LINE
  5
17E
330
1F
100
AcDbEntity
  8
0-3_仕上げ
  6
Continuous
 62
   120
370
     5
100
AcDbLine
 10
-1393.000018557986
 20
2472.000148463893
 30
0.0
 11
-1295.975178220965
 21
2472.000148463893
 31
0.0
  0
LINE
  5
17F
330
1F
100
AcDbEntity
  8
0-3_仕上げ
  6
JWW_CENTER1
 62
   120
370
     5
100
AcDbLine
 10
-1393.000018557986
 20
2469.000148463892
 30
0.0
 11
-1295.000018557987
 21
2469.000148463892
 31
0.0
  0
LINE
  5
180
330
1F
100
AcDbEntity
  8
0-3_仕上げ
  6
Continuous
 62
   120
370
     5
100
AcDbLine
 10
-1393.000018557986
 20
2466.000148463892
 30
0.0
 11
-1295.975178220965
 21
2466.000148463892
 31
0.0
  0
LINE
  5
181
330
1F
100
AcDbEntity
  8
0-3_仕上げ
  6
Continuous
 62
   120
370
     5
100
AcDbLine
 10
-1393.000018557986
 20
3120.000148463892
 30
0.0
 11
-1295.975178220965
 21
3120.000148463892
 31
0.0
  0
LINE
  5
182
330
1F
100
AcDbEntity
  8
0-3_仕上げ
  6
JWW_CENTER1
 62
   120
370
     5
100
AcDbLine
 10
-1393.000018557986
 20
3117.000148463893
 30
0.0
 11
-1295.000018557987
 21
3117.000148463893
 31
0.0
  0
LINE
  5
183
330
1F
100
AcDbEntity
  8
0-3_仕上げ
  6
Continuous
 62
   120
370
     5
100
AcDbLine
 10
-1393.000018557986
 20
3114.000148463893
 30
0.0
 11
-1295.975178220965
 21
3114.000148463893
 31
0.0
  0
LINE
  5
184
330
1F
100
AcDbEntity
  8
0-3_仕上げ
  6
Continuous
 62
   120
370
     5
100
AcDbLine
 10
-944.0248588950095
 20
2466.000148463892
 30
0.0
 11
-847.000018557988
 21
2466.000148463892
 31
0.0
  0
LINE
  5
185
330
1F
100
AcDbEntity
  8
0-3_仕上げ
  6
JWW_CENTER1
 62
   120
370
     5
100
AcDbLine
 10
-945.0000185579876
 20
2469.000148463892
 30
0.0
 11
-847.000018557988
 21
2469.000148463892
 31
0.0
  0
LINE
  5
186
330
1F
100
AcDbEntity
  8
0-3_仕上げ
  6
Continuous
 62
   120
370
     5
100
AcDbLine
 10
-944.0248588950095
 20
2472.000148463893
 30
0.0
 11
-847.000018557988
 21
2472.000148463893
 31
0.0
  0
LINE
  5
187
330
1F
100
AcDbEntity
  8
0-3_仕上げ
  6
Continuous
 62
   120
370
     5
100
AcDbLine
 10
-944.0248588950095
 20
3114.000148463893
 30
0.0
 11
-847.000018557988
 21
3114.000148463893
 31
0.0
  0
LINE
  5
188
330
1F
100
AcDbEntity
  8
0-3_仕上げ
  6
Continuous
 62
   120
370
     5
100
AcDbLine
 10
-944.0248588950095
 20
3120.000148463892
 30
0.0
 11
-847.000018557988
 21
3120.000148463892
 31
0.0
  0
LINE
  5
189
330
1F
100
AcDbEntity
  8
0-3_仕上げ
  6
JWW_CENTER1
 62
   120
370
     5
100
AcDbLine
 10
-945.0000185579876
 20
3117.000148463893
 30
0.0
 11
-847.000018557988
 21
3117.000148463893
 31
0.0
  0
LWPOLYLINE
  5
18A
330
1F
100
AcDbEntity
  8
0-B_寸法
  6
Continuous
 62
     7
370
     9
100
AcDbPolyline
 90
        4
 70
     1
 43
3.0
 10
-2564.500018557985
 20
1427.000148463893
 42
0.4142135623731
 10
-2566.000018557985
 20
1428.500148463893
 42
0.4142135623731
 10
-2567.500018557985
 20
1427.000148463893
 42
0.4142135623731
 10
-2566.000018557985
 20
1425.500148463893
 42
0.4142135623731
  0
LINE
  5
18B
330
1F
100
AcDbEntity
  8
0-B_寸法
  6
Continuous
 62
   120
370
     5
100
AcDbLine
 10
-2566.000018557985
 20
3410.000148463893
 30
0.0
 11
-2566.000018557985
 21
1427.000148463893
 31
0.0
  0
LWPOLYLINE
  5
18C
330
1F
100
AcDbEntity
  8
0-B_寸法
  6
Continuous
 62
     7
370
     9
100
AcDbPolyline
 90
        4
 70
     1
 43
3.0
 10
-2564.500018557985
 20
3410.000148463893
 42
0.4142135623731
 10
-2566.000018557985
 20
3411.500148463893
 42
0.4142135623731
 10
-2567.500018557985
 20
3410.000148463893
 42
0.4142135623731
 10
-2566.000018557985
 20
3408.500148463893
 42
0.4142135623731
  0
LINE
  5
18D
330
1F
100
AcDbEntity
  8
0-B_寸法
  6
Continuous
 62
   120
370
     5
100
AcDbLine
 10
-2566.000018557985
 20
1427.000148463893
 30
0.0
 11
-2366.000018557984
 21
1427.000148463893
 31
0.0
  0
LINE
  5
18E
330
1F
100
AcDbEntity
  8
0-B_寸法
  6
Continuous
 62
   120
370
     5
100
AcDbLine
 10
-2566.000018557985
 20
3410.000148463893
 30
0.0
 11
-2366.000018557984
 21
3410.000148463893
 31
0.0
  0
LINE
  5
18F
330
1F
100
AcDbEntity
  8
0-2_扉
  6
JWW_DASHED1
 62
   120
370
     5
100
AcDbLine
 10
-1525.000018557985
 20
3410.000148463893
 30
0.0
 11
-1525.000018557985
 21
3406.000148463893
 31
0.0
  0
LINE
  5
190
330
1F
100
AcDbEntity
  8
0-4_枠
  6
JWW_DASHED1
 62
   120
370
     5
100
AcDbLine
 10
-1498.000018557986
 20
1427.000148463893
 30
0.0
 11
-1498.000018557986
 21
3410.000148463893
 31
0.0
  0
LINE
  5
191
330
1F
100
AcDbEntity
  8
0-4_枠
  6
Continuous
 62
    92
370
    13
100
AcDbLine
 10
-1498.000018557986
 20
3410.000148463893
 30
0.0
 11
-1498.000018557986
 21
3415.000148463894
 31
0.0
  0
LINE
  5
192
330
1F
100
AcDbEntity
  8
0-2_扉
  6
Continuous
 62
    92
370
    13
100
AcDbLine
 10
-1525.000018557985
 20
3410.000148463893
 30
0.0
 11
-1525.000018557985
 21
1427.000148463893
 31
0.0
  0
LINE
  5
193
330
1F
100
AcDbEntity
  8
0-4_枠
  6
Continuous
 62
    92
370
    13
100
AcDbLine
 10
-2316.000018557984
 20
3415.000148463894
 30
0.0
 11
-707.0000185579858
 21
3415.000148463894
 31
0.0
  0
LINE
  5
194
330
1F
100
AcDbEntity
  8
0-1_通り芯
  6
JWW_CENTER1
 62
   120
370
     5
100
AcDbLine
 10
-725.0000185579847
 20
2384.500148463893
 30
0.0
 11
-807.0000185579843
 21
2384.500148463893
 31
0.0
  0
LINE
  5
195
330
1F
100
AcDbEntity
  8
0-1_通り芯
  6
JWW_CENTER1
 62
   120
370
     5
100
AcDbLine
 10
-766.000018557985
 20
2465.500148463892
 30
0.0
 11
-766.000018557985
 21
2303.500148463893
 31
0.0
  0
LINE
  5
196
330
1F
100
AcDbEntity
  8
0-4_枠
  6
Continuous
 62
    92
370
    13
100
AcDbLine
 10
-2316.000018557984
 20
3447.000148463893
 30
0.0
 11
-707.0000185579858
 21
3447.000148463893
 31
0.0
  0
LINE
  5
197
330
1F
100
AcDbEntity
  8
0-2_扉
  6
Continuous
 62
    92
370
    13
100
AcDbLine
 10
-1525.000018557985
 20
3410.000148463893
 30
0.0
 11
-715.0000185579853
 21
3410.000148463893
 31
0.0
  0
LINE
  5
198
330
1F
100
AcDbEntity
  8
0-2_扉
  6
Continuous
 62
    92
370
    13
100
AcDbLine
 10
-1525.000018557985
 20
1427.000148463893
 30
0.0
 11
-715.0000185579853
 21
1427.000148463893
 31
0.0
  0
LINE
  5
199
330
1F
100
AcDbEntity
  8
0-2_扉
  6
Continuous
 62
    92
370
    13
100
AcDbLine
 10
-715.0000185579853
 20
1427.000148463893
 30
0.0
 11
-715.0000185579853
 21
3410.000148463893
 31
0.0
  0
LWPOLYLINE
  5
19A
330
1F
100
AcDbEntity
  8
0-B_寸法
  6
Continuous
 62
     7
370
     9
100
AcDbPolyline
 90
        4
 70
     1
 43
3.0
 10
-170.5000185579829
 20
1427.000148463893
 42
0.4142135623731
 10
-172.0000185579829
 20
1428.500148463893
 42
0.4142135623731
 10
-173.5000185579829
 20
1427.000148463893
 42
0.4142135623731
 10
-172.0000185579829
 20
1425.500148463893
 42
0.4142135623731
  0
LINE
  5
19B
330
1F
100
AcDbEntity
  8
0-B_寸法
  6
Continuous
 62
   120
370
     5
100
AcDbLine
 10
-172.0000185579829
 20
3410.000148463893
 30
0.0
 11
-172.0000185579829
 21
1427.000148463893
 31
0.0
  0
LWPOLYLINE
  5
19C
330
1F
100
AcDbEntity
  8
0-B_寸法
  6
Continuous
 62
     7
370
     9
100
AcDbPolyline
 90
        4
 70
     1
 43
3.0
 10
-170.5000185579829
 20
3410.000148463893
 42
0.4142135623731
 10
-172.0000185579829
 20
3411.500148463893
 42
0.4142135623731
 10
-173.5000185579829
 20
3410.000148463893
 42
0.4142135623731
 10
-172.0000185579829
 20
3408.500148463893
 42
0.4142135623731
  0
LINE
  5
19D
330
1F
100
AcDbEntity
  8
0-B_寸法
  6
Continuous
 62
   120
370
     5
100
AcDbLine
 10
-172.0000185579829
 20
1427.000148463893
 30
0.0
 11
27.99998144201851
 21
1427.000148463893
 31
0.0
  0
LINE
  5
19E
330
1F
100
AcDbEntity
  8
0-B_寸法
  6
Continuous
 62
   120
370
     5
100
AcDbLine
 10
-172.0000185579829
 20
3410.000148463893
 30
0.0
 11
27.99998144201851
 21
3410.000148463893
 31
0.0
  0
LINE
  5
19F
330
1F
100
AcDbEntity
  8
0-4_枠
  6
Continuous
 62
    92
370
    13
100
AcDbLine
 10
77.99998144201652
 20
3415.000148463894
 30
0.0
 11
1492.999981442016
 21
3415.000148463894
 31
0.0
  0
LINE
  5
1A0
330
1F
100
AcDbEntity
  8
0-1_通り芯
  6
JWW_CENTER1
 62
   120
370
     5
100
AcDbLine
 10
1474.999981442017
 20
2384.500148463893
 30
0.0
 11
1392.999981442017
 21
2384.500148463893
 31
0.0
  0
LINE
  5
1A1
330
1F
100
AcDbEntity
  8
0-1_通り芯
  6
JWW_CENTER1
 62
   120
370
     5
100
AcDbLine
 10
1433.999981442017
 20
2465.500148463892
 30
0.0
 11
1433.999981442017
 21
2303.500148463893
 31
0.0
  0
LINE
  5
1A2
330
1F
100
AcDbEntity
  8
0-4_枠
  6
Continuous
 62
    92
370
    13
100
AcDbLine
 10
77.99998144201652
 20
3447.000148463893
 30
0.0
 11
1492.999981442016
 21
3447.000148463893
 31
0.0
  0
LINE
  5
1A3
330
1F
100
AcDbEntity
  8
0-2_扉
  6
Continuous
 62
    92
370
    13
100
AcDbLine
 10
1484.999981442018
 20
1427.000148463893
 30
0.0
 11
1484.999981442018
 21
3410.000148463893
 31
0.0
  0
LINE
  5
1A4
330
1F
100
AcDbEntity
  8
0-2_扉
  6
JWW_DASHED1
 62
   120
370
     5
100
AcDbLine
 10
771.9999814420163
 20
3410.000148463893
 30
0.0
 11
771.9999814420163
 21
3406.000148463893
 31
0.0
  0
LINE
  5
1A5
330
1F
100
AcDbEntity
  8
0-4_枠
  6
JWW_DASHED1
 62
   120
370
     5
100
AcDbLine
 10
798.9999814420164
 20
1427.000148463893
 30
0.0
 11
798.9999814420164
 21
3410.000148463893
 31
0.0
  0
LINE
  5
1A6
330
1F
100
AcDbEntity
  8
0-4_枠
  6
Continuous
 62
    92
370
    13
100
AcDbLine
 10
798.9999814420164
 20
3410.000148463893
 30
0.0
 11
798.9999814420164
 21
3415.000148463894
 31
0.0
  0
LINE
  5
1A7
330
1F
100
AcDbEntity
  8
0-2_扉
  6
Continuous
 62
    92
370
    13
100
AcDbLine
 10
771.9999814420163
 20
3410.000148463893
 30
0.0
 11
771.9999814420163
 21
1427.000148463893
 31
0.0
  0
LINE
  5
1A8
330
1F
100
AcDbEntity
  8
0-2_扉
  6
Continuous
 62
    92
370
    13
100
AcDbLine
 10
771.9999814420163
 20
3410.000148463893
 30
0.0
 11
1484.999981442018
 21
3410.000148463893
 31
0.0
  0
LINE
  5
1A9
330
1F
100
AcDbEntity
  8
0-2_扉
  6
Continuous
 62
    92
370
    13
100
AcDbLine
 10
771.9999814420163
 20
1427.000148463893
 30
0.0
 11
1484.999981442018
 21
1427.000148463893
 31
0.0
  0
MTEXT
  5
1AA
330
1F
100
AcDbEntity
  8
0-B_寸法
  6
Continuous
 62
     7
370
    70
100
AcDbMText
 10
-2581.000018557985
 20
2209.325148463893
 30
0.0
 40
57.14999999999999
 41
412.5
 46
0.0
 71
     7
 72
     1
  1
{\fＭＳ ゴシック|b0|i0|c128|p49;ＤＨ＝1,983}
 11
6.123031769111886E-17
 21
1.0
 31
0.0
 73
     1
 44
1.0
  0
MTEXT
  5
1AB
330
1F
100
AcDbEntity
  8
0-B_寸法
  6
Continuous
 62
     7
370
    70
100
AcDbMText
 10
-187.0000185579829
 20
2209.325148463893
 30
0.0
 40
57.14999999999999
 41
412.5
 46
0.0
 71
     7
 72
     1
  1
{\fＭＳ ゴシック|b0|i0|c128|p49;ＤＨ＝1,983}
 11
6.123031769111886E-17
 21
1.0
 31
0.0
 73
     1
 44
1.0
  0
LINE
  5
1AC
330
1F
100
AcDbEntity
  8
0-3_仕上げ
  6
Continuous
 62
     7
370
     9
100
AcDbLine
 10
-843.0000185579883
 20
1427.000148463893
 30
0.0
 11
-843.0000185579883
 21
3410.000148463893
 31
0.0
  0
LINE
  5
1AD
330
1F
100
AcDbEntity
  8
0-3_仕上げ
  6
Continuous
 62
     7
370
     9
100
AcDbLine
 10
-1397.000018557989
 20
1427.000148463893
 30
0.0
 11
-1397.000018557989
 21
3410.000148463893
 31
0.0
  0
LINE
  5
1AE
330
1F
100
AcDbEntity
  8
0-3_仕上げ
  6
Continuous
 62
     7
370
     9
100
AcDbLine
 10
-1394.000018557985
 20
1427.000148463893
 30
0.0
 11
-1394.000018557985
 21
1618.000148463893
 31
0.0
  0
LINE
  5
1AF
330
1F
100
AcDbEntity
  8
0-3_仕上げ
  6
Continuous
 62
    92
370
    13
100
AcDbLine
 10
-847.000018557988
 20
1622.000148463893
 30
0.0
 11
-1393.000018557986
 21
1622.000148463893
 31
0.0
  0
LINE
  5
1B0
330
1F
100
AcDbEntity
  8
0-3_仕上げ
  6
Continuous
 62
     7
370
     9
100
AcDbLine
 10
-846.0000185579889
 20
1427.000148463893
 30
0.0
 11
-846.0000185579889
 21
1618.000148463893
 31
0.0
  0
LINE
  5
1B1
330
1F
100
AcDbEntity
  8
0-3_仕上げ
  6
Continuous
 62
     7
370
     9
100
AcDbLine
 10
-844.5000185579869
 20
1427.000148463893
 30
0.0
 11
-844.5000185579869
 21
1619.500148463893
 31
0.0
  0
LINE
  5
1B2
330
1F
100
AcDbEntity
  8
0-3_仕上げ
  6
Continuous
 62
     7
370
     9
100
AcDbLine
 10
-846.0000185579889
 20
1618.000148463893
 30
0.0
 11
-1394.000018557985
 21
1618.000148463893
 31
0.0
  0
LINE
  5
1B3
330
1F
100
AcDbEntity
  8
0-3_仕上げ
  6
Continuous
 62
     7
370
     9
100
AcDbLine
 10
-1395.500018557987
 20
1427.000148463893
 30
0.0
 11
-1395.500018557987
 21
1619.500148463893
 31
0.0
  0
LINE
  5
1B4
330
1F
100
AcDbEntity
  8
0-3_仕上げ
  6
Continuous
 62
     7
370
     9
100
AcDbLine
 10
-847.000018557988
 20
1622.000148463893
 30
0.0
 11
-844.5000185579869
 21
1619.500148463893
 31
0.0
  0
LINE
  5
1B5
330
1F
100
AcDbEntity
  8
0-3_仕上げ
  6
Continuous
 62
     7
370
     9
100
AcDbLine
 10
-846.0000185579889
 20
1618.000148463893
 30
0.0
 11
-844.5000185579869
 21
1619.500148463893
 31
0.0
  0
LINE
  5
1B6
330
1F
100
AcDbEntity
  8
0-3_仕上げ
  6
Continuous
 62
     7
370
     9
100
AcDbLine
 10
-1394.000018557985
 20
1618.000148463893
 30
0.0
 11
-1395.500018557987
 21
1619.500148463893
 31
0.0
  0
LINE
  5
1B7
330
1F
100
AcDbEntity
  8
0-3_仕上げ
  6
Continuous
 62
     7
370
     9
100
AcDbLine
 10
-1395.500018557987
 20
1619.500148463893
 30
0.0
 11
-1393.000018557986
 21
1622.000148463893
 31
0.0
  0
LINE
  5
1B8
330
1F
100
AcDbEntity
  8
0-C_ハッチ
  6
JWW_DASHED1
 62
   120
370
     5
100
AcDbLine
 10
-1393.000018557986
 20
3232.058973090534
 30
0.0
 11
-1358.058843184628
 21
3267.000148463892
 31
0.0
  0
LINE
  5
1B9
330
1F
100
AcDbEntity
  8
0-C_ハッチ
  6
JWW_DASHED1
 62
   120
370
     5
100
AcDbLine
 10
-1393.000018557986
 20
3147.206159348134
 30
0.0
 11
-1273.206029442235
 21
3267.000148463885
 31
0.0
  0
LINE
  5
1BA
330
1F
100
AcDbEntity
  8
0-C_ハッチ
  6
JWW_DASHED1
 62
   120
370
     5
100
AcDbLine
 10
-1393.000018557986
 20
3189.632566219335
 30
0.0
 11
-1315.632436313431
 21
3267.000148463888
 31
0.0
  0
LINE
  5
1BB
330
1F
100
AcDbEntity
  8
0-3_仕上げ
  6
Continuous
 62
    92
370
    13
100
AcDbLine
 10
-1393.000018557986
 20
2209.000148463893
 30
0.0
 11
-1393.000018557986
 21
1622.000148463893
 31
0.0
  0
LINE
  5
1BC
330
1F
100
AcDbEntity
  8
0-3_仕上げ
  6
Continuous
 62
    92
370
    13
100
AcDbLine
 10
-1393.000018557986
 20
2209.000148463893
 30
0.0
 11
-847.000018557988
 21
2209.000148463893
 31
0.0
  0
LINE
  5
1BD
330
1F
100
AcDbEntity
  8
0-3_仕上げ
  6
Continuous
 62
    92
370
    13
100
AcDbLine
 10
-847.000018557988
 20
2209.000148463893
 30
0.0
 11
-847.000018557988
 21
1622.000148463893
 31
0.0
  0
LINE
  5
1BE
330
1F
100
AcDbEntity
  8
0-3_仕上げ
  6
Continuous
 62
     7
370
     9
100
AcDbLine
 10
-846.0000185579889
 20
2213.000148463893
 30
0.0
 11
-846.0000185579889
 21
2305.000148463893
 31
0.0
  0
LINE
  5
1BF
330
1F
100
AcDbEntity
  8
0-C_ハッチ
  6
JWW_DASHED1
 62
   120
370
     5
100
AcDbLine
 10
-873.5610095640442
 20
2309.000148463893
 30
0.0
 11
-847.000018557988
 21
2335.561139469951
 31
0.0
  0
LINE
  5
1C0
330
1F
100
AcDbEntity
  8
0-C_ハッチ
  6
JWW_DASHED1
 62
   120
370
     5
100
AcDbLine
 10
-915.9874164352442
 20
2309.000148463893
 30
0.0
 11
-847.000018557988
 21
2377.987546341152
 31
0.0
  0
LINE
  5
1C1
330
1F
100
AcDbEntity
  8
0-3_仕上げ
  6
Continuous
 62
     7
370
     9
100
AcDbLine
 10
-1395.500018557987
 20
2211.500148463893
 30
0.0
 11
-1395.500018557987
 21
2306.500148463893
 31
0.0
  0
LINE
  5
1C2
330
1F
100
AcDbEntity
  8
0-3_仕上げ
  6
Continuous
 62
     7
370
     9
100
AcDbLine
 10
-1394.000018557985
 20
2213.000148463893
 30
0.0
 11
-1394.000018557985
 21
2305.000148463893
 31
0.0
  0
LINE
  5
1C3
330
1F
100
AcDbEntity
  8
0-3_仕上げ
  6
Continuous
 62
     7
370
     9
100
AcDbLine
 10
-1394.000018557985
 20
2213.000148463893
 30
0.0
 11
-846.0000185579889
 21
2213.000148463893
 31
0.0
  0
LINE
  5
1C4
330
1F
100
AcDbEntity
  8
0-3_仕上げ
  6
Continuous
 62
     7
370
     9
100
AcDbLine
 10
-844.5000185579869
 20
2211.500148463893
 30
0.0
 11
-844.5000185579869
 21
2306.500148463893
 31
0.0
  0
LINE
  5
1C5
330
1F
100
AcDbEntity
  8
0-C_ハッチ
  6
JWW_DASHED1
 62
   120
370
     5
100
AcDbLine
 10
-1393.000018557986
 20
2765.368497507389
 30
0.0
 11
-891.3683676014756
 21
3267.000148463899
 31
0.0
  0
LINE
  5
1C6
330
1F
100
AcDbEntity
  8
0-C_ハッチ
  6
JWW_DASHED1
 62
   120
370
     5
100
AcDbLine
 10
-1393.000018557986
 20
2807.794904378589
 30
0.0
 11
-933.7947744726722
 21
3267.000148463902
 31
0.0
  0
LINE
  5
1C7
330
1F
100
AcDbEntity
  8
0-C_ハッチ
  6
JWW_DASHED1
 62
   120
370
     5
100
AcDbLine
 10
-1393.000018557986
 20
2850.221311249789
 30
0.0
 11
-976.2211813438859
 21
3267.000148463889
 31
0.0
  0
LINE
  5
1C8
330
1F
100
AcDbEntity
  8
0-C_ハッチ
  6
JWW_DASHED1
 62
   120
370
     5
100
AcDbLine
 10
-1393.000018557986
 20
2892.647718120989
 30
0.0
 11
-1018.647588215082
 21
3267.000148463893
 31
0.0
  0
LINE
  5
1C9
330
1F
100
AcDbEntity
  8
0-C_ハッチ
  6
JWW_DASHED1
 62
   120
370
     5
100
AcDbLine
 10
-1393.000018557986
 20
2935.074124992189
 30
0.0
 11
-1061.073995086279
 21
3267.000148463896
 31
0.0
  0
LINE
  5
1CA
330
1F
100
AcDbEntity
  8
0-C_ハッチ
  6
JWW_DASHED1
 62
   120
370
     5
100
AcDbLine
 10
-1393.000018557986
 20
2977.500531863389
 30
0.0
 11
-1103.500401957486
 21
3267.00014846389
 31
0.0
  0
LINE
  5
1CB
330
1F
100
AcDbEntity
  8
0-C_ハッチ
  6
JWW_DASHED1
 62
   120
370
     5
100
AcDbLine
 10
-1393.000018557986
 20
3019.926938734534
 30
0.0
 11
-1145.926808828621
 21
3267.000148463899
 31
0.0
  0
LINE
  5
1CC
330
1F
100
AcDbEntity
  8
0-C_ハッチ
  6
JWW_DASHED1
 62
   120
370
     5
100
AcDbLine
 10
-1393.000018557986
 20
3062.353345605734
 30
0.0
 11
-1188.353215699818
 21
3267.000148463904
 31
0.0
  0
LINE
  5
1CD
330
1F
100
AcDbEntity
  8
0-C_ハッチ
  6
JWW_DASHED1
 62
   120
370
     5
100
AcDbLine
 10
-1393.000018557986
 20
3104.779752476934
 30
0.0
 11
-1230.779622571011
 21
3267.000148463908
 31
0.0
  0
LINE
  5
1CE
330
1F
100
AcDbEntity
  8
0-C_ハッチ
  6
JWW_DASHED1
 62
   120
370
     5
100
AcDbLine
 10
-1393.000018557986
 20
2722.942090636188
 30
0.0
 11
-848.9419607302824
 21
3267.000148463893
 31
0.0
  0
LINE
  5
1CF
330
1F
100
AcDbEntity
  8
0-C_ハッチ
  6
JWW_DASHED1
 62
   120
370
     5
100
AcDbLine
 10
-1393.000018557986
 20
2680.515683765043
 30
0.0
 11
-847.000018557988
 21
3226.515683765042
 31
0.0
  0
LINE
  5
1D0
330
1F
100
AcDbEntity
  8
0-C_ハッチ
  6
JWW_DASHED1
 62
   120
370
     5
100
AcDbLine
 10
-1393.000018557986
 20
2341.104428795498
 30
0.0
 11
-847.000018557988
 21
2887.104428795496
 31
0.0
  0
LINE
  5
1D1
330
1F
100
AcDbEntity
  8
0-C_ハッチ
  6
JWW_DASHED1
 62
   120
370
     5
100
AcDbLine
 10
-1393.000018557986
 20
2383.530835666643
 30
0.0
 11
-847.000018557988
 21
2929.530835666641
 31
0.0
  0
LINE
  5
1D2
330
1F
100
AcDbEntity
  8
0-C_ハッチ
  6
JWW_DASHED1
 62
   120
370
     5
100
AcDbLine
 10
-1393.000018557986
 20
2425.957242537844
 30
0.0
 11
-847.000018557988
 21
2971.957242537841
 31
0.0
  0
LINE
  5
1D3
330
1F
100
AcDbEntity
  8
0-C_ハッチ
  6
JWW_DASHED1
 62
   120
370
     5
100
AcDbLine
 10
-1393.000018557986
 20
2468.383649409044
 30
0.0
 11
-847.000018557988
 21
3014.383649409041
 31
0.0
  0
LINE
  5
1D4
330
1F
100
AcDbEntity
  8
0-C_ハッチ
  6
JWW_DASHED1
 62
   120
370
     5
100
AcDbLine
 10
-1393.000018557986
 20
2510.810056280243
 30
0.0
 11
-847.000018557988
 21
3056.810056280241
 31
0.0
  0
LINE
  5
1D5
330
1F
100
AcDbEntity
  8
0-C_ハッチ
  6
JWW_DASHED1
 62
   120
370
     5
100
AcDbLine
 10
-1393.000018557986
 20
2553.236463151444
 30
0.0
 11
-847.000018557988
 21
3099.236463151442
 31
0.0
  0
LINE
  5
1D6
330
1F
100
AcDbEntity
  8
0-C_ハッチ
  6
JWW_DASHED1
 62
   120
370
     5
100
AcDbLine
 10
-1393.000018557986
 20
2595.662870022643
 30
0.0
 11
-847.000018557988
 21
3141.662870022642
 31
0.0
  0
LINE
  5
1D7
330
1F
100
AcDbEntity
  8
0-C_ハッチ
  6
JWW_DASHED1
 62
   120
370
     5
100
AcDbLine
 10
-1393.000018557986
 20
2638.089276893843
 30
0.0
 11
-847.000018557988
 21
3184.089276893842
 31
0.0
  0
LINE
  5
1D8
330
1F
100
AcDbEntity
  8
0-C_ハッチ
  6
JWW_DASHED1
 62
   120
370
     5
100
AcDbLine
 10
-1382.677892018393
 20
2309.000148463893
 30
0.0
 11
-847.000018557988
 21
2844.678021924297
 31
0.0
  0
LINE
  5
1D9
330
1F
100
AcDbEntity
  8
0-C_ハッチ
  6
JWW_DASHED1
 62
   120
370
     5
100
AcDbLine
 10
-1340.25148514719
 20
2309.000148463893
 30
0.0
 11
-847.000018557988
 21
2802.251615053096
 31
0.0
  0
LINE
  5
1DA
330
1F
100
AcDbEntity
  8
0-C_ハッチ
  6
JWW_DASHED1
 62
   120
370
     5
100
AcDbLine
 10
-958.4138233064442
 20
2309.000148463893
 30
0.0
 11
-847.000018557988
 21
2420.413953212351
 31
0.0
  0
LINE
  5
1DB
330
1F
100
AcDbEntity
  8
0-C_ハッチ
  6
JWW_DASHED1
 62
   120
370
     5
100
AcDbLine
 10
-1000.840230177644
 20
2309.000148463893
 30
0.0
 11
-847.000018557988
 21
2462.840360083551
 31
0.0
  0
LINE
  5
1DC
330
1F
100
AcDbEntity
  8
0-C_ハッチ
  6
JWW_DASHED1
 62
   120
370
     5
100
AcDbLine
 10
-1043.266637048844
 20
2309.000148463893
 30
0.0
 11
-847.000018557988
 21
2505.266766954751
 31
0.0
  0
LINE
  5
1DD
330
1F
100
AcDbEntity
  8
0-C_ハッチ
  6
JWW_DASHED1
 62
   120
370
     5
100
AcDbLine
 10
-1085.693043920044
 20
2309.000148463893
 30
0.0
 11
-847.000018557988
 21
2547.693173825951
 31
0.0
  0
LINE
  5
1DE
330
1F
100
AcDbEntity
  8
0-C_ハッチ
  6
JWW_DASHED1
 62
   120
370
     5
100
AcDbLine
 10
-1128.119450791244
 20
2309.000148463893
 30
0.0
 11
-847.000018557988
 21
2590.119580697151
 31
0.0
  0
LINE
  5
1DF
330
1F
100
AcDbEntity
  8
0-C_ハッチ
  6
JWW_DASHED1
 62
   120
370
     5
100
AcDbLine
 10
-1170.54585766239
 20
2309.000148463893
 30
0.0
 11
-847.000018557988
 21
2632.545987568296
 31
0.0
  0
LINE
  5
1E0
330
1F
100
AcDbEntity
  8
0-C_ハッチ
  6
JWW_DASHED1
 62
   120
370
     5
100
AcDbLine
 10
-1212.97226453359
 20
2309.000148463893
 30
0.0
 11
-847.000018557988
 21
2674.972394439496
 31
0.0
  0
LINE
  5
1E1
330
1F
100
AcDbEntity
  8
0-C_ハッチ
  6
JWW_DASHED1
 62
   120
370
     5
100
AcDbLine
 10
-1255.39867140479
 20
2309.000148463893
 30
0.0
 11
-847.000018557988
 21
2717.398801310696
 31
0.0
  0
LINE
  5
1E2
330
1F
100
AcDbEntity
  8
0-C_ハッチ
  6
JWW_DASHED1
 62
   120
370
     5
100
AcDbLine
 10
-1297.82507827599
 20
2309.000148463893
 30
0.0
 11
-847.000018557988
 21
2759.825208181896
 31
0.0
  0
LINE
  5
1E3
330
1F
100
AcDbEntity
  8
0-3_仕上げ
  6
Continuous
 62
     7
370
     9
100
AcDbLine
 10
-1394.000018557985
 20
2213.000148463893
 30
0.0
 11
-1395.500018557987
 21
2211.500148463893
 31
0.0
  0
LINE
  5
1E4
330
1F
100
AcDbEntity
  8
0-3_仕上げ
  6
Continuous
 62
     7
370
     9
100
AcDbLine
 10
-1393.000018557986
 20
2209.000148463893
 30
0.0
 11
-1395.500018557987
 21
2211.500148463893
 31
0.0
  0
LINE
  5
1E5
330
1F
100
AcDbEntity
  8
0-3_仕上げ
  6
Continuous
 62
     7
370
     9
100
AcDbLine
 10
-846.0000185579889
 20
2213.000148463893
 30
0.0
 11
-844.5000185579869
 21
2211.500148463893
 31
0.0
  0
LINE
  5
1E6
330
1F
100
AcDbEntity
  8
0-3_仕上げ
  6
Continuous
 62
     7
370
     9
100
AcDbLine
 10
-844.5000185579869
 20
2211.500148463893
 30
0.0
 11
-847.000018557988
 21
2209.000148463893
 31
0.0
  0
LINE
  5
1E7
330
1F
100
AcDbEntity
  8
0-3_仕上げ
  6
Continuous
 62
     7
370
     9
100
AcDbLine
 10
-846.0000185579889
 20
3271.000148463892
 30
0.0
 11
-846.0000185579889
 21
3410.000148463893
 31
0.0
  0
LINE
  5
1E8
330
1F
100
AcDbEntity
  8
0-3_仕上げ
  6
Continuous
 62
     7
370
     9
100
AcDbLine
 10
-844.5000185579869
 20
3269.500148463892
 30
0.0
 11
-844.5000185579869
 21
3410.000148463893
 31
0.0
  0
LINE
  5
1E9
330
1F
100
AcDbEntity
  8
0-3_仕上げ
  6
Continuous
 62
     7
370
     9
100
AcDbLine
 10
-1395.500018557987
 20
3269.500148463892
 30
0.0
 11
-1395.500018557987
 21
3410.000148463893
 31
0.0
  0
LINE
  5
1EA
330
1F
100
AcDbEntity
  8
0-3_仕上げ
  6
Continuous
 62
     7
370
     9
100
AcDbLine
 10
-1394.000018557985
 20
3271.000148463892
 30
0.0
 11
-1394.000018557985
 21
3410.000148463893
 31
0.0
  0
LINE
  5
1EB
330
1F
100
AcDbEntity
  8
0-3_仕上げ
  6
Continuous
 62
     7
370
     9
100
AcDbLine
 10
1372.999981442016
 20
1427.000148463893
 30
0.0
 11
1372.999981442016
 21
3410.000148463893
 31
0.0
  0
LINE
  5
1EC
330
1F
100
AcDbEntity
  8
0-3_仕上げ
  6
Continuous
 62
     7
370
     9
100
AcDbLine
 10
1369.999981442016
 20
1427.000148463893
 30
0.0
 11
1369.999981442016
 21
1618.000148463893
 31
0.0
  0
LINE
  5
1ED
330
1F
100
AcDbEntity
  8
0-3_仕上げ
  6
Continuous
 62
     7
370
     9
100
AcDbLine
 10
1371.499981442018
 20
1427.000148463893
 30
0.0
 11
1371.499981442018
 21
1619.500148463893
 31
0.0
  0
LINE
  5
1EE
330
1F
100
AcDbEntity
  8
0-3_仕上げ
  6
Continuous
 62
     7
370
     9
100
AcDbLine
 10
1368.999981442017
 20
1622.000148463893
 30
0.0
 11
1371.499981442018
 21
1619.500148463893
 31
0.0
  0
LINE
  5
1EF
330
1F
100
AcDbEntity
  8
0-3_仕上げ
  6
Continuous
 62
     7
370
     9
100
AcDbLine
 10
1369.999981442016
 20
1618.000148463893
 30
0.0
 11
1371.499981442018
 21
1619.500148463893
 31
0.0
  0
LINE
  5
1F0
330
1F
100
AcDbEntity
  8
0-3_仕上げ
  6
Continuous
 62
    92
370
    13
100
AcDbLine
 10
1368.999981442017
 20
2209.000148463893
 30
0.0
 11
1368.999981442017
 21
1622.000148463893
 31
0.0
  0
LINE
  5
1F1
330
1F
100
AcDbEntity
  8
0-3_仕上げ
  6
Continuous
 62
    92
370
    13
100
AcDbLine
 10
1368.999981442017
 20
2309.000148463893
 30
0.0
 11
1368.999981442017
 21
3267.000148463893
 31
0.0
  0
LINE
  5
1F2
330
1F
100
AcDbEntity
  8
0-3_仕上げ
  6
Continuous
 62
     7
370
     9
100
AcDbLine
 10
1369.999981442016
 20
2213.000148463893
 30
0.0
 11
1369.999981442016
 21
2305.000148463893
 31
0.0
  0
LINE
  5
1F3
330
1F
100
AcDbEntity
  8
0-3_仕上げ
  6
Continuous
 62
     7
370
     9
100
AcDbLine
 10
1371.499981442018
 20
2211.500148463893
 30
0.0
 11
1371.499981442018
 21
2306.500148463893
 31
0.0
  0
LINE
  5
1F4
330
1F
100
AcDbEntity
  8
0-3_仕上げ
  6
Continuous
 62
     7
370
     9
100
AcDbLine
 10
1369.999981442016
 20
3271.000148463892
 30
0.0
 11
1371.499981442018
 21
3269.500148463892
 31
0.0
  0
LINE
  5
1F5
330
1F
100
AcDbEntity
  8
0-3_仕上げ
  6
Continuous
 62
     7
370
     9
100
AcDbLine
 10
1371.499981442018
 20
3269.500148463892
 30
0.0
 11
1368.999981442017
 21
3267.000148463893
 31
0.0
  0
LINE
  5
1F6
330
1F
100
AcDbEntity
  8
0-3_仕上げ
  6
Continuous
 62
     7
370
     9
100
AcDbLine
 10
1369.999981442016
 20
2213.000148463893
 30
0.0
 11
1371.499981442018
 21
2211.500148463893
 31
0.0
  0
LINE
  5
1F7
330
1F
100
AcDbEntity
  8
0-3_仕上げ
  6
Continuous
 62
     7
370
     9
100
AcDbLine
 10
1371.499981442018
 20
2211.500148463893
 30
0.0
 11
1368.999981442017
 21
2209.000148463893
 31
0.0
  0
LINE
  5
1F8
330
1F
100
AcDbEntity
  8
0-3_仕上げ
  6
Continuous
 62
     7
370
     9
100
AcDbLine
 10
1368.999981442017
 20
2309.000148463893
 30
0.0
 11
1371.499981442018
 21
2306.500148463893
 31
0.0
  0
LINE
  5
1F9
330
1F
100
AcDbEntity
  8
0-3_仕上げ
  6
Continuous
 62
     7
370
     9
100
AcDbLine
 10
1369.999981442016
 20
2305.000148463893
 30
0.0
 11
1371.499981442018
 21
2306.500148463893
 31
0.0
  0
LINE
  5
1FA
330
1F
100
AcDbEntity
  8
0-3_仕上げ
  6
Continuous
 62
     7
370
     9
100
AcDbLine
 10
1369.999981442016
 20
3271.000148463892
 30
0.0
 11
1369.999981442016
 21
3410.000148463893
 31
0.0
  0
LINE
  5
1FB
330
1F
100
AcDbEntity
  8
0-3_仕上げ
  6
Continuous
 62
     7
370
     9
100
AcDbLine
 10
1371.499981442018
 20
3269.500148463892
 30
0.0
 11
1371.499981442018
 21
3410.000148463893
 31
0.0
  0
LINE
  5
1FC
330
1F
100
AcDbEntity
  8
0-3_仕上げ
  6
Continuous
 62
     7
370
     9
100
AcDbLine
 10
883.9999814420131
 20
1427.000148463893
 30
0.0
 11
883.9999814420131
 21
3410.000148463893
 31
0.0
  0
LINE
  5
1FD
330
1F
100
AcDbEntity
  8
0-3_仕上げ
  6
Continuous
 62
     7
370
     9
100
AcDbLine
 10
886.9999814420172
 20
1427.000148463893
 30
0.0
 11
886.9999814420172
 21
1618.000148463893
 31
0.0
  0
LINE
  5
1FE
330
1F
100
AcDbEntity
  8
0-3_仕上げ
  6
Continuous
 62
    92
370
    13
100
AcDbLine
 10
1368.999981442017
 20
1622.000148463893
 30
0.0
 11
887.9999814420163
 21
1622.000148463893
 31
0.0
  0
LINE
  5
1FF
330
1F
100
AcDbEntity
  8
0-3_仕上げ
  6
Continuous
 62
     7
370
     9
100
AcDbLine
 10
1369.999981442016
 20
1618.000148463893
 30
0.0
 11
886.9999814420172
 21
1618.000148463893
 31
0.0
  0
LINE
  5
200
330
1F
100
AcDbEntity
  8
0-3_仕上げ
  6
Continuous
 62
     7
370
     9
100
AcDbLine
 10
885.4999814420152
 20
1427.000148463893
 30
0.0
 11
885.4999814420152
 21
1619.500148463893
 31
0.0
  0
LINE
  5
201
330
1F
100
AcDbEntity
  8
0-3_仕上げ
  6
Continuous
 62
     7
370
     9
100
AcDbLine
 10
886.9999814420172
 20
1618.000148463893
 30
0.0
 11
885.4999814420152
 21
1619.500148463893
 31
0.0
  0
LINE
  5
202
330
1F
100
AcDbEntity
  8
0-3_仕上げ
  6
Continuous
 62
     7
370
     9
100
AcDbLine
 10
885.4999814420152
 20
1619.500148463893
 30
0.0
 11
887.9999814420163
 21
1622.000148463893
 31
0.0
  0
LINE
  5
203
330
1F
100
AcDbEntity
  8
0-3_仕上げ
  6
Continuous
 62
    92
370
    13
100
AcDbLine
 10
887.9999814420163
 20
2209.000148463893
 30
0.0
 11
887.9999814420163
 21
1622.000148463893
 31
0.0
  0
LINE
  5
204
330
1F
100
AcDbEntity
  8
0-3_仕上げ
  6
Continuous
 62
    92
370
    13
100
AcDbLine
 10
887.9999814420163
 20
2309.000148463893
 30
0.0
 11
887.9999814420163
 21
3267.000148463893
 31
0.0
  0
LINE
  5
205
330
1F
100
AcDbEntity
  8
0-3_仕上げ
  6
Continuous
 62
    92
370
    13
100
AcDbLine
 10
1368.999981442017
 20
3267.000148463893
 30
0.0
 11
887.9999814420163
 21
3267.000148463893
 31
0.0
  0
LINE
  5
206
330
1F
100
AcDbEntity
  8
0-3_仕上げ
  6
Continuous
 62
    92
370
    13
100
AcDbLine
 10
1368.999981442017
 20
2309.000148463893
 30
0.0
 11
887.9999814420163
 21
2309.000148463893
 31
0.0
  0
LINE
  5
207
330
1F
100
AcDbEntity
  8
0-3_仕上げ
  6
Continuous
 62
    92
370
    13
100
AcDbLine
 10
887.9999814420163
 20
2209.000148463893
 30
0.0
 11
1368.999981442017
 21
2209.000148463893
 31
0.0
  0
LINE
  5
208
330
1F
100
AcDbEntity
  8
0-3_仕上げ
  6
Continuous
 62
     7
370
     9
100
AcDbLine
 10
1369.999981442016
 20
3271.000148463892
 30
0.0
 11
886.9999814420172
 21
3271.000148463892
 31
0.0
  0
LINE
  5
209
330
1F
100
AcDbEntity
  8
0-3_仕上げ
  6
Continuous
 62
     7
370
     9
100
AcDbLine
 10
885.4999814420152
 20
2211.500148463893
 30
0.0
 11
885.4999814420152
 21
2306.500148463893
 31
0.0
  0
LINE
  5
20A
330
1F
100
AcDbEntity
  8
0-3_仕上げ
  6
Continuous
 62
     7
370
     9
100
AcDbLine
 10
886.9999814420172
 20
2213.000148463893
 30
0.0
 11
886.9999814420172
 21
2305.000148463893
 31
0.0
  0
LINE
  5
20B
330
1F
100
AcDbEntity
  8
0-3_仕上げ
  6
Continuous
 62
     7
370
     9
100
AcDbLine
 10
886.9999814420172
 20
2213.000148463893
 30
0.0
 11
1369.999981442016
 21
2213.000148463893
 31
0.0
  0
LINE
  5
20C
330
1F
100
AcDbEntity
  8
0-3_仕上げ
  6
Continuous
 62
     7
370
     9
100
AcDbLine
 10
1369.999981442016
 20
2305.000148463893
 30
0.0
 11
886.9999814420172
 21
2305.000148463893
 31
0.0
  0
LINE
  5
20D
330
1F
100
AcDbEntity
  8
0-3_仕上げ
  6
Continuous
 62
     7
370
     9
100
AcDbLine
 10
886.9999814420172
 20
2213.000148463893
 30
0.0
 11
885.4999814420152
 21
2211.500148463893
 31
0.0
  0
LINE
  5
20E
330
1F
100
AcDbEntity
  8
0-3_仕上げ
  6
Continuous
 62
     7
370
     9
100
AcDbLine
 10
886.9999814420172
 20
3271.000148463892
 30
0.0
 11
885.4999814420152
 21
3269.500148463892
 31
0.0
  0
LINE
  5
20F
330
1F
100
AcDbEntity
  8
0-3_仕上げ
  6
Continuous
 62
     7
370
     9
100
AcDbLine
 10
887.9999814420163
 20
3267.000148463893
 30
0.0
 11
885.4999814420152
 21
3269.500148463892
 31
0.0
  0
LINE
  5
210
330
1F
100
AcDbEntity
  8
0-3_仕上げ
  6
Continuous
 62
     7
370
     9
100
AcDbLine
 10
886.9999814420172
 20
2305.000148463893
 30
0.0
 11
885.4999814420152
 21
2306.500148463893
 31
0.0
  0
LINE
  5
211
330
1F
100
AcDbEntity
  8
0-3_仕上げ
  6
Continuous
 62
     7
370
     9
100
AcDbLine
 10
885.4999814420152
 20
2306.500148463893
 30
0.0
 11
887.9999814420163
 21
2309.000148463893
 31
0.0
  0
LINE
  5
212
330
1F
100
AcDbEntity
  8
0-3_仕上げ
  6
Continuous
 62
     7
370
     9
100
AcDbLine
 10
887.9999814420163
 20
2209.000148463893
 30
0.0
 11
885.4999814420152
 21
2211.500148463893
 31
0.0
  0
LINE
  5
213
330
1F
100
AcDbEntity
  8
0-3_仕上げ
  6
Continuous
 62
     7
370
     9
100
AcDbLine
 10
885.4999814420152
 20
3269.500148463892
 30
0.0
 11
885.4999814420152
 21
3410.000148463893
 31
0.0
  0
LINE
  5
214
330
1F
100
AcDbEntity
  8
0-3_仕上げ
  6
Continuous
 62
     7
370
     9
100
AcDbLine
 10
886.9999814420172
 20
3271.000148463892
 30
0.0
 11
886.9999814420172
 21
3410.000148463893
 31
0.0
  0
ARC
  5
215
330
1F
100
AcDbEntity
  8
0-3_仕上げ
  6
JWW_CENTER1
 62
   120
370
     5
100
AcDbCircle
 10
1138.378176808941
 20
3165.821368112184
 30
0.0
 40
60.0
100
AcDbArc
 50
183.6514672287091
 51
234.4577409694452
  0
LINE
  5
216
330
1F
100
AcDbEntity
  8
0-3_仕上げ
  6
JWW_CENTER1
 62
   120
370
     5
100
AcDbLine
 10
978.4999814420182
 20
3162.000148463893
 30
0.0
 11
978.4999814420182
 21
3267.000148463893
 31
0.0
  0
LINE
  5
217
330
1F
100
AcDbEntity
  8
0-3_仕上げ
  6
Continuous
 62
   120
370
     5
100
AcDbLine
 10
975.4999814420175
 20
3162.191209446307
 30
0.0
 11
975.4999814420175
 21
3267.000148463893
 31
0.0
  0
LINE
  5
218
330
1F
100
AcDbEntity
  8
0-3_仕上げ
  6
Continuous
 62
   120
370
     5
100
AcDbLine
 10
981.4999814420155
 20
3162.000148463893
 30
0.0
 11
981.4999814420155
 21
3267.000148463893
 31
0.0
  0
ARC
  5
219
330
1F
100
AcDbEntity
  8
0-3_仕上げ
  6
JWW_CENTER1
 62
   120
370
     5
100
AcDbCircle
 10
1038.37817680894
 20
3165.821368112184
 30
0.0
 40
60.0
100
AcDbArc
 50
183.6514672287091
 51
234.4577409694452
  0
ARC
  5
21A
330
1F
100
AcDbEntity
  8
0-3_仕上げ
  6
Continuous
 62
   120
370
     5
100
AcDbCircle
 10
1038.37817680894
 20
3165.821368112184
 30
0.0
 40
57.0
100
AcDbArc
 50
183.6514672287091
 51
233.502329744074
  0
ARC
  5
21B
330
1F
100
AcDbEntity
  8
0-3_仕上げ
  6
JWW_CENTER1
 62
   120
370
     5
100
AcDbCircle
 10
1038.37817680894
 20
3068.178928815601
 30
0.0
 40
60.0
100
AcDbArc
 50
125.5422590305548
 51
176.3485327712908
  0
ARC
  5
21C
330
1F
100
AcDbEntity
  8
0-3_仕上げ
  6
Continuous
 62
   120
370
     5
100
AcDbCircle
 10
1038.37817680894
 20
3068.178928815601
 30
0.0
 40
63.0
100
AcDbArc
 50
129.200407421848
 51
161.8874291519458
  0
ARC
  5
21D
330
1F
100
AcDbEntity
  8
0-3_仕上げ
  6
Continuous
 62
   120
370
     5
100
AcDbCircle
 10
1038.37817680894
 20
3165.821368112184
 30
0.0
 40
63.0
100
AcDbArc
 50
198.1125708480542
 51
230.799592578152
  0
ARC
  5
21E
330
1F
100
AcDbEntity
  8
0-3_仕上げ
  6
Continuous
 62
   120
370
     5
100
AcDbCircle
 10
918.6217860750928
 20
3165.821368112184
 30
0.0
 40
63.0
100
AcDbArc
 50
309.200407421848
 51
341.8874291519458
  0
ARC
  5
21F
330
1F
100
AcDbEntity
  8
0-3_仕上げ
  6
Continuous
 62
   120
370
     5
100
AcDbCircle
 10
918.6217860750928
 20
3068.178928815601
 30
0.0
 40
63.0
100
AcDbArc
 50
18.11257084805418
 51
50.79959257815202
  0
ARC
  5
220
330
1F
100
AcDbEntity
  8
0-3_仕上げ
  6
Continuous
 62
   120
370
     5
100
AcDbCircle
 10
1038.37817680894
 20
3068.178928815601
 30
0.0
 40
57.0
100
AcDbArc
 50
126.497670255926
 51
176.2536402876275
  0
ARC
  5
221
330
1F
100
AcDbEntity
  8
0-3_仕上げ
  6
JWW_CENTER1
 62
   120
370
     5
100
AcDbCircle
 10
1138.378176808941
 20
3068.178928815601
 30
0.0
 40
60.0
100
AcDbArc
 50
125.5422590305548
 51
176.3485327712908
  0
ARC
  5
222
330
1F
100
AcDbEntity
  8
0-3_仕上げ
  6
Continuous
 62
   120
370
     5
100
AcDbCircle
 10
1138.378176808941
 20
3068.178928815601
 30
0.0
 40
63.0
100
AcDbArc
 50
129.200407421848
 51
161.8874291519458
  0
ARC
  5
223
330
1F
100
AcDbEntity
  8
0-3_仕上げ
  6
Continuous
 62
   120
370
     5
100
AcDbCircle
 10
1138.378176808941
 20
3165.821368112184
 30
0.0
 40
63.0
100
AcDbArc
 50
198.1125708480542
 51
230.799592578152
  0
ARC
  5
224
330
1F
100
AcDbEntity
  8
0-3_仕上げ
  6
Continuous
 62
   120
370
     5
100
AcDbCircle
 10
1018.621786075094
 20
3165.821368112184
 30
0.0
 40
63.0
100
AcDbArc
 50
309.200407421848
 51
341.8874291519458
  0
ARC
  5
225
330
1F
100
AcDbEntity
  8
0-3_仕上げ
  6
Continuous
 62
   120
370
     5
100
AcDbCircle
 10
1018.621786075094
 20
3068.178928815601
 30
0.0
 40
63.0
100
AcDbArc
 50
18.11257084805418
 51
50.79959257815202
  0
LINE
  5
226
330
1F
100
AcDbEntity
  8
0-3_仕上げ
  6
Continuous
 62
   120
370
     5
100
AcDbLine
 10
1004.475141104994
 20
3120.000148463892
 30
0.0
 11
1052.52482177904
 21
3120.000148463892
 31
0.0
  0
LINE
  5
227
330
1F
100
AcDbEntity
  8
0-3_仕上げ
  6
Continuous
 62
   120
370
     5
100
AcDbLine
 10
1004.475141104994
 20
3114.000148463893
 30
0.0
 11
1052.52482177904
 21
3114.000148463893
 31
0.0
  0
LINE
  5
228
330
1F
100
AcDbEntity
  8
0-3_仕上げ
  6
JWW_CENTER1
 62
   120
370
     5
100
AcDbLine
 10
1003.499981442016
 20
3117.000148463893
 30
0.0
 11
1053.499981442018
 21
3117.000148463893
 31
0.0
  0
ARC
  5
229
330
1F
100
AcDbEntity
  8
0-3_仕上げ
  6
Continuous
 62
   120
370
     5
100
AcDbCircle
 10
1018.621786075094
 20
3165.821368112184
 30
0.0
 40
57.0
100
AcDbArc
 50
306.497670255926
 51
356.2536402876231
  0
LINE
  5
22A
330
1F
100
AcDbEntity
  8
0-3_仕上げ
  6
Continuous
 62
   120
370
     5
100
AcDbLine
 10
1075.499981442015
 20
3162.097003494958
 30
0.0
 11
1075.499981442015
 21
3267.000148463893
 31
0.0
  0
LINE
  5
22B
330
1F
100
AcDbEntity
  8
0-3_仕上げ
  6
JWW_CENTER1
 62
   120
370
     5
100
AcDbLine
 10
1078.499981442016
 20
3162.000148463893
 30
0.0
 11
1078.499981442016
 21
3267.000148463893
 31
0.0
  0
ARC
  5
22C
330
1F
100
AcDbEntity
  8
0-3_仕上げ
  6
JWW_CENTER1
 62
   120
370
     5
100
AcDbCircle
 10
1018.621786075094
 20
3165.821368112184
 30
0.0
 40
60.0
100
AcDbArc
 50
305.5422590305548
 51
356.3485327712913
  0
LINE
  5
22D
330
1F
100
AcDbEntity
  8
0-3_仕上げ
  6
Continuous
 62
   120
370
     5
100
AcDbLine
 10
1081.499981442017
 20
3162.097003494961
 30
0.0
 11
1081.499981442017
 21
3267.000148463893
 31
0.0
  0
ARC
  5
22E
330
1F
100
AcDbEntity
  8
0-3_仕上げ
  6
Continuous
 62
   120
370
     5
100
AcDbCircle
 10
1018.621786075094
 20
3068.178928815601
 30
0.0
 40
57.0
100
AcDbArc
 50
3.746359712376933
 51
53.50232974407399
  0
ARC
  5
22F
330
1F
100
AcDbEntity
  8
0-3_仕上げ
  6
JWW_CENTER1
 62
   120
370
     5
100
AcDbCircle
 10
1018.621786075094
 20
3068.178928815601
 30
0.0
 40
60.0
100
AcDbArc
 50
3.651467228708674
 51
54.45774096944522
  0
ARC
  5
230
330
1F
100
AcDbEntity
  8
0-3_仕上げ
  6
JWW_CENTER1
 62
   120
370
     5
100
AcDbCircle
 10
1038.37817680894
 20
2517.821368112184
 30
0.0
 40
60.0
100
AcDbArc
 50
183.6514672287091
 51
234.4577409694452
  0
ARC
  5
231
330
1F
100
AcDbEntity
  8
0-3_仕上げ
  6
JWW_CENTER1
 62
   120
370
     5
100
AcDbCircle
 10
1038.37817680894
 20
2420.178928815601
 30
0.0
 40
60.0
100
AcDbArc
 50
125.5422590305548
 51
176.3485327712908
  0
ARC
  5
232
330
1F
100
AcDbEntity
  8
0-3_仕上げ
  6
Continuous
 62
   120
370
     5
100
AcDbCircle
 10
1038.37817680894
 20
2420.178928815601
 30
0.0
 40
63.0
100
AcDbArc
 50
129.200407421848
 51
161.8874291519458
  0
ARC
  5
233
330
1F
100
AcDbEntity
  8
0-3_仕上げ
  6
Continuous
 62
   120
370
     5
100
AcDbCircle
 10
1038.37817680894
 20
2517.821368112184
 30
0.0
 40
63.0
100
AcDbArc
 50
198.1125708480542
 51
230.799592578152
  0
ARC
  5
234
330
1F
100
AcDbEntity
  8
0-3_仕上げ
  6
Continuous
 62
   120
370
     5
100
AcDbCircle
 10
918.6217860750928
 20
2517.821368112184
 30
0.0
 40
63.0
100
AcDbArc
 50
309.200407421848
 51
341.8874291519458
  0
ARC
  5
235
330
1F
100
AcDbEntity
  8
0-3_仕上げ
  6
Continuous
 62
   120
370
     5
100
AcDbCircle
 10
918.6217860750928
 20
2420.178928815601
 30
0.0
 40
63.0
100
AcDbArc
 50
18.11257084805418
 51
50.79959257815202
  0
LINE
  5
236
330
1F
100
AcDbEntity
  8
0-3_仕上げ
  6
Continuous
 62
   120
370
     5
100
AcDbLine
 10
975.4999814420175
 20
2309.000148463892
 30
0.0
 11
975.4999814420175
 21
2423.903293432827
 31
0.0
  0
LINE
  5
237
330
1F
100
AcDbEntity
  8
0-3_仕上げ
  6
JWW_CENTER1
 62
   120
370
     5
100
AcDbLine
 10
978.4999814420182
 20
2309.000148463892
 30
0.0
 11
978.4999814420182
 21
2424.000148463892
 31
0.0
  0
LINE
  5
238
330
1F
100
AcDbEntity
  8
0-3_仕上げ
  6
Continuous
 62
   120
370
     5
100
AcDbLine
 10
981.4999814420155
 20
2309.000148463892
 30
0.0
 11
981.4999814420155
 21
2423.903293432822
 31
0.0
  0
ARC
  5
239
330
1F
100
AcDbEntity
  8
0-3_仕上げ
  6
Continuous
 62
   120
370
     5
100
AcDbCircle
 10
1038.37817680894
 20
2420.178928815601
 30
0.0
 40
57.0
100
AcDbArc
 50
126.497670255926
 51
176.2536402876274
  0
LINE
  5
23A
330
1F
100
AcDbEntity
  8
0-3_仕上げ
  6
Continuous
 62
   120
370
     5
100
AcDbLine
 10
975.4999814420175
 20
2514.097003494959
 30
0.0
 11
975.4999814420175
 21
3071.903293432827
 31
0.0
  0
LINE
  5
23B
330
1F
100
AcDbEntity
  8
0-3_仕上げ
  6
JWW_CENTER1
 62
   120
370
     5
100
AcDbLine
 10
978.4999814420182
 20
2514.000148463893
 30
0.0
 11
978.4999814420182
 21
3072.000148463893
 31
0.0
  0
LINE
  5
23C
330
1F
100
AcDbEntity
  8
0-3_仕上げ
  6
Continuous
 62
   120
370
     5
100
AcDbLine
 10
981.4999814420155
 20
2514.097003494963
 30
0.0
 11
981.4999814420155
 21
3071.903293432823
 31
0.0
  0
ARC
  5
23D
330
1F
100
AcDbEntity
  8
0-3_仕上げ
  6
Continuous
 62
   120
370
     5
100
AcDbCircle
 10
1038.37817680894
 20
2517.821368112184
 30
0.0
 40
57.0
100
AcDbArc
 50
183.7463597123725
 51
233.502329744074
  0
ARC
  5
23E
330
1F
100
AcDbEntity
  8
0-3_仕上げ
  6
JWW_CENTER1
 62
   120
370
     5
100
AcDbCircle
 10
1138.378176808941
 20
2517.821368112184
 30
0.0
 40
60.0
100
AcDbArc
 50
183.6514672287091
 51
234.4577409694452
  0
ARC
  5
23F
330
1F
100
AcDbEntity
  8
0-3_仕上げ
  6
Continuous
 62
   120
370
     5
100
AcDbCircle
 10
1138.378176808941
 20
2420.178928815601
 30
0.0
 40
63.0
100
AcDbArc
 50
129.200407421848
 51
161.8874291519458
  0
ARC
  5
240
330
1F
100
AcDbEntity
  8
0-3_仕上げ
  6
Continuous
 62
   120
370
     5
100
AcDbCircle
 10
1138.378176808941
 20
2517.821368112184
 30
0.0
 40
63.0
100
AcDbArc
 50
198.1125708480542
 51
230.799592578152
  0
ARC
  5
241
330
1F
100
AcDbEntity
  8
0-3_仕上げ
  6
Continuous
 62
   120
370
     5
100
AcDbCircle
 10
1018.621786075094
 20
2517.821368112184
 30
0.0
 40
63.0
100
AcDbArc
 50
309.200407421848
 51
341.8874291519458
  0
ARC
  5
242
330
1F
100
AcDbEntity
  8
0-3_仕上げ
  6
Continuous
 62
   120
370
     5
100
AcDbCircle
 10
1018.621786075094
 20
2420.178928815601
 30
0.0
 40
63.0
100
AcDbArc
 50
18.11257084805418
 51
50.79959257815202
  0
LINE
  5
243
330
1F
100
AcDbEntity
  8
0-3_仕上げ
  6
Continuous
 62
   120
370
     5
100
AcDbLine
 10
1004.475141104994
 20
2472.000148463893
 30
0.0
 11
1052.52482177904
 21
2472.000148463893
 31
0.0
  0
LINE
  5
244
330
1F
100
AcDbEntity
  8
0-3_仕上げ
  6
Continuous
 62
   120
370
     5
100
AcDbLine
 10
1004.475141104994
 20
2466.000148463892
 30
0.0
 11
1052.52482177904
 21
2466.000148463892
 31
0.0
  0
LINE
  5
245
330
1F
100
AcDbEntity
  8
0-3_仕上げ
  6
JWW_CENTER1
 62
   120
370
     5
100
AcDbLine
 10
1003.499981442016
 20
2469.000148463892
 30
0.0
 11
1053.499981442018
 21
2469.000148463892
 31
0.0
  0
ARC
  5
246
330
1F
100
AcDbEntity
  8
0-3_仕上げ
  6
JWW_CENTER1
 62
   120
370
     5
100
AcDbCircle
 10
1018.621786075094
 20
2420.178928815601
 30
0.0
 40
60.0
100
AcDbArc
 50
3.651467228708674
 51
54.45774096944522
  0
ARC
  5
247
330
1F
100
AcDbEntity
  8
0-3_仕上げ
  6
Continuous
 62
   120
370
     5
100
AcDbCircle
 10
1018.621786075094
 20
2517.821368112184
 30
0.0
 40
57.0
100
AcDbArc
 50
306.497670255926
 51
356.2536402876231
  0
LINE
  5
248
330
1F
100
AcDbEntity
  8
0-3_仕上げ
  6
Continuous
 62
   120
370
     5
100
AcDbLine
 10
1075.499981442015
 20
2514.097003494959
 30
0.0
 11
1075.499981442015
 21
3071.903293432827
 31
0.0
  0
ARC
  5
249
330
1F
100
AcDbEntity
  8
0-3_仕上げ
  6
Continuous
 62
   120
370
     5
100
AcDbCircle
 10
1018.621786075094
 20
2420.178928815601
 30
0.0
 40
57.0
100
AcDbArc
 50
3.74635971237695
 51
53.50232974407399
  0
LINE
  5
24A
330
1F
100
AcDbEntity
  8
0-3_仕上げ
  6
Continuous
 62
   120
370
     5
100
AcDbLine
 10
1075.499981442015
 20
2309.000148463892
 30
0.0
 11
1075.499981442015
 21
2423.903293432827
 31
0.0
  0
LINE
  5
24B
330
1F
100
AcDbEntity
  8
0-3_仕上げ
  6
Continuous
 62
   120
370
     5
100
AcDbLine
 10
1104.475141104995
 20
2466.000148463892
 30
0.0
 11
1152.524821779041
 21
2466.000148463892
 31
0.0
  0
LINE
  5
24C
330
1F
100
AcDbEntity
  8
0-3_仕上げ
  6
JWW_CENTER1
 62
   120
370
     5
100
AcDbLine
 10
1103.499981442017
 20
2469.000148463892
 30
0.0
 11
1153.499981442016
 21
2469.000148463892
 31
0.0
  0
LINE
  5
24D
330
1F
100
AcDbEntity
  8
0-3_仕上げ
  6
Continuous
 62
   120
370
     5
100
AcDbLine
 10
1104.475141104995
 20
2472.000148463893
 30
0.0
 11
1152.524821779041
 21
2472.000148463893
 31
0.0
  0
LINE
  5
24E
330
1F
100
AcDbEntity
  8
0-3_仕上げ
  6
JWW_CENTER1
 62
   120
370
     5
100
AcDbLine
 10
1078.499981442016
 20
2514.000148463893
 30
0.0
 11
1078.499981442016
 21
3072.000148463892
 31
0.0
  0
ARC
  5
24F
330
1F
100
AcDbEntity
  8
0-3_仕上げ
  6
JWW_CENTER1
 62
   120
370
     5
100
AcDbCircle
 10
1018.621786075094
 20
2517.821368112184
 30
0.0
 40
60.0
100
AcDbArc
 50
305.5422590305548
 51
356.3485327712913
  0
LINE
  5
250
330
1F
100
AcDbEntity
  8
0-3_仕上げ
  6
Continuous
 62
   120
370
     5
100
AcDbLine
 10
1081.499981442017
 20
2514.09700349496
 30
0.0
 11
1081.499981442017
 21
3071.903293432823
 31
0.0
  0
ARC
  5
251
330
1F
100
AcDbEntity
  8
0-3_仕上げ
  6
Continuous
 62
   120
370
     5
100
AcDbCircle
 10
1138.378176808941
 20
2517.821368112184
 30
0.0
 40
57.0
100
AcDbArc
 50
183.7463597123748
 51
233.502329744074
  0
ARC
  5
252
330
1F
100
AcDbEntity
  8
0-3_仕上げ
  6
Continuous
 62
   120
370
     5
100
AcDbCircle
 10
1138.378176808941
 20
2420.178928815601
 30
0.0
 40
57.0
100
AcDbArc
 50
126.497670255926
 51
176.2536402876256
  0
LINE
  5
253
330
1F
100
AcDbEntity
  8
0-3_仕上げ
  6
Continuous
 62
   120
370
     5
100
AcDbLine
 10
1081.499981442017
 20
2309.000148463892
 30
0.0
 11
1081.499981442017
 21
2423.903293432824
 31
0.0
  0
ARC
  5
254
330
1F
100
AcDbEntity
  8
0-3_仕上げ
  6
JWW_CENTER1
 62
   120
370
     5
100
AcDbCircle
 10
1138.378176808941
 20
2420.178928815601
 30
0.0
 40
60.0
100
AcDbArc
 50
125.5422590305548
 51
176.348532771291
  0
LINE
  5
255
330
1F
100
AcDbEntity
  8
0-3_仕上げ
  6
JWW_CENTER1
 62
   120
370
     5
100
AcDbLine
 10
1078.499981442016
 20
2309.000148463892
 30
0.0
 11
1078.499981442016
 21
2424.000148463892
 31
0.0
  0
LINE
  5
256
330
1F
100
AcDbEntity
  8
0-3_仕上げ
  6
Continuous
 62
   120
370
     5
100
AcDbLine
 10
1104.475141104995
 20
3114.000148463893
 30
0.0
 11
1152.524821779041
 21
3114.000148463893
 31
0.0
  0
LINE
  5
257
330
1F
100
AcDbEntity
  8
0-3_仕上げ
  6
Continuous
 62
   120
370
     5
100
AcDbLine
 10
1104.475141104995
 20
3120.000148463892
 30
0.0
 11
1152.524821779041
 21
3120.000148463892
 31
0.0
  0
LINE
  5
258
330
1F
100
AcDbEntity
  8
0-3_仕上げ
  6
JWW_CENTER1
 62
   120
370
     5
100
AcDbLine
 10
1103.499981442017
 20
3117.000148463893
 30
0.0
 11
1153.499981442016
 21
3117.000148463893
 31
0.0
  0
ARC
  5
259
330
1F
100
AcDbEntity
  8
0-3_仕上げ
  6
Continuous
 62
   120
370
     5
100
AcDbCircle
 10
1138.378176808941
 20
3068.178928815601
 30
0.0
 40
57.0
100
AcDbArc
 50
126.497670255926
 51
176.2536402876275
  0
ARC
  5
25A
330
1F
100
AcDbEntity
  8
0-3_仕上げ
  6
Continuous
 62
   120
370
     5
100
AcDbCircle
 10
1138.378176808941
 20
3165.821368112184
 30
0.0
 40
57.0
100
AcDbArc
 50
183.6514672287091
 51
233.502329744074
  0
ARC
  5
25B
330
1F
100
AcDbEntity
  8
0-3_仕上げ
  6
JWW_CENTER1
 62
   120
370
     5
100
AcDbCircle
 10
1238.378176808942
 20
3165.821368112184
 30
0.0
 40
60.0
100
AcDbArc
 50
183.6514672287091
 51
234.4577409694452
  0
ARC
  5
25C
330
1F
100
AcDbEntity
  8
0-3_仕上げ
  6
JWW_CENTER1
 62
   120
370
     5
100
AcDbCircle
 10
1238.378176808942
 20
3068.178928815601
 30
0.0
 40
60.0
100
AcDbArc
 50
125.5422590305548
 51
176.3485327712908
  0
ARC
  5
25D
330
1F
100
AcDbEntity
  8
0-3_仕上げ
  6
Continuous
 62
   120
370
     5
100
AcDbCircle
 10
1238.378176808942
 20
3068.178928815601
 30
0.0
 40
63.0
100
AcDbArc
 50
129.200407421848
 51
161.8874291519458
  0
ARC
  5
25E
330
1F
100
AcDbEntity
  8
0-3_仕上げ
  6
Continuous
 62
   120
370
     5
100
AcDbCircle
 10
1238.378176808942
 20
3165.821368112184
 30
0.0
 40
63.0
100
AcDbArc
 50
198.1125708480542
 51
230.799592578152
  0
ARC
  5
25F
330
1F
100
AcDbEntity
  8
0-3_仕上げ
  6
Continuous
 62
   120
370
     5
100
AcDbCircle
 10
1118.621786075092
 20
3165.821368112184
 30
0.0
 40
63.0
100
AcDbArc
 50
309.200407421848
 51
341.8874291519458
  0
ARC
  5
260
330
1F
100
AcDbEntity
  8
0-3_仕上げ
  6
Continuous
 62
   120
370
     5
100
AcDbCircle
 10
1118.621786075092
 20
3068.178928815601
 30
0.0
 40
63.0
100
AcDbArc
 50
18.11257084805418
 51
50.79959257815202
  0
ARC
  5
261
330
1F
100
AcDbEntity
  8
0-3_仕上げ
  6
Continuous
 62
   120
370
     5
100
AcDbCircle
 10
1118.621786075092
 20
3165.821368112184
 30
0.0
 40
57.0
100
AcDbArc
 50
306.497670255926
 51
356.2536402876231
  0
LINE
  5
262
330
1F
100
AcDbEntity
  8
0-3_仕上げ
  6
Continuous
 62
   120
370
     5
100
AcDbLine
 10
1175.499981442016
 20
3162.097003494958
 30
0.0
 11
1175.499981442016
 21
3267.000148463893
 31
0.0
  0
LINE
  5
263
330
1F
100
AcDbEntity
  8
0-3_仕上げ
  6
JWW_CENTER1
 62
   120
370
     5
100
AcDbLine
 10
1178.499981442017
 20
3162.000148463893
 30
0.0
 11
1178.499981442017
 21
3267.000148463893
 31
0.0
  0
ARC
  5
264
330
1F
100
AcDbEntity
  8
0-3_仕上げ
  6
JWW_CENTER1
 62
   120
370
     5
100
AcDbCircle
 10
1118.621786075092
 20
3165.821368112184
 30
0.0
 40
60.0
100
AcDbArc
 50
305.5422590305548
 51
356.3485327712913
  0
LINE
  5
265
330
1F
100
AcDbEntity
  8
0-3_仕上げ
  6
Continuous
 62
   120
370
     5
100
AcDbLine
 10
1181.499981442018
 20
3162.097003494961
 30
0.0
 11
1181.499981442018
 21
3267.000148463893
 31
0.0
  0
ARC
  5
266
330
1F
100
AcDbEntity
  8
0-3_仕上げ
  6
Continuous
 62
   120
370
     5
100
AcDbCircle
 10
1118.621786075092
 20
3068.178928815601
 30
0.0
 40
57.0
100
AcDbArc
 50
3.746359712376933
 51
53.50232974407399
  0
ARC
  5
267
330
1F
100
AcDbEntity
  8
0-3_仕上げ
  6
JWW_CENTER1
 62
   120
370
     5
100
AcDbCircle
 10
1118.621786075092
 20
3068.178928815601
 30
0.0
 40
60.0
100
AcDbArc
 50
3.651467228708674
 51
54.45774096944522
  0
ARC
  5
268
330
1F
100
AcDbEntity
  8
0-3_仕上げ
  6
JWW_CENTER1
 62
   120
370
     5
100
AcDbCircle
 10
1238.378176808942
 20
2517.821368112184
 30
0.0
 40
60.0
100
AcDbArc
 50
183.6514672287091
 51
234.4577409694452
  0
ARC
  5
269
330
1F
100
AcDbEntity
  8
0-3_仕上げ
  6
Continuous
 62
   120
370
     5
100
AcDbCircle
 10
1238.378176808942
 20
2420.178928815601
 30
0.0
 40
63.0
100
AcDbArc
 50
129.200407421848
 51
161.8874291519458
  0
ARC
  5
26A
330
1F
100
AcDbEntity
  8
0-3_仕上げ
  6
Continuous
 62
   120
370
     5
100
AcDbCircle
 10
1238.378176808942
 20
2517.821368112184
 30
0.0
 40
63.0
100
AcDbArc
 50
198.1125708480542
 51
230.799592578152
  0
ARC
  5
26B
330
1F
100
AcDbEntity
  8
0-3_仕上げ
  6
Continuous
 62
   120
370
     5
100
AcDbCircle
 10
1118.621786075092
 20
2517.821368112184
 30
0.0
 40
63.0
100
AcDbArc
 50
309.200407421848
 51
341.8874291519458
  0
ARC
  5
26C
330
1F
100
AcDbEntity
  8
0-3_仕上げ
  6
Continuous
 62
   120
370
     5
100
AcDbCircle
 10
1118.621786075092
 20
2420.178928815601
 30
0.0
 40
63.0
100
AcDbArc
 50
18.11257084805418
 51
50.79959257815202
  0
ARC
  5
26D
330
1F
100
AcDbEntity
  8
0-3_仕上げ
  6
JWW_CENTER1
 62
   120
370
     5
100
AcDbCircle
 10
1118.621786075092
 20
2420.178928815601
 30
0.0
 40
60.0
100
AcDbArc
 50
3.651467228708674
 51
54.45774096944522
  0
ARC
  5
26E
330
1F
100
AcDbEntity
  8
0-3_仕上げ
  6
Continuous
 62
   120
370
     5
100
AcDbCircle
 10
1118.621786075092
 20
2517.821368112184
 30
0.0
 40
57.0
100
AcDbArc
 50
306.497670255926
 51
356.2536402876231
  0
LINE
  5
26F
330
1F
100
AcDbEntity
  8
0-3_仕上げ
  6
Continuous
 62
   120
370
     5
100
AcDbLine
 10
1175.499981442016
 20
2514.097003494959
 30
0.0
 11
1175.499981442016
 21
3071.903293432827
 31
0.0
  0
ARC
  5
270
330
1F
100
AcDbEntity
  8
0-3_仕上げ
  6
Continuous
 62
   120
370
     5
100
AcDbCircle
 10
1118.621786075092
 20
2420.178928815601
 30
0.0
 40
57.0
100
AcDbArc
 50
3.74635971237695
 51
53.50232974407399
  0
LINE
  5
271
330
1F
100
AcDbEntity
  8
0-3_仕上げ
  6
Continuous
 62
   120
370
     5
100
AcDbLine
 10
1175.499981442016
 20
2309.000148463892
 30
0.0
 11
1175.499981442016
 21
2423.903293432827
 31
0.0
  0
LINE
  5
272
330
1F
100
AcDbEntity
  8
0-3_仕上げ
  6
Continuous
 62
   120
370
     5
100
AcDbLine
 10
1204.475141104993
 20
2466.000148463892
 30
0.0
 11
1252.524821779039
 21
2466.000148463892
 31
0.0
  0
LINE
  5
273
330
1F
100
AcDbEntity
  8
0-3_仕上げ
  6
JWW_CENTER1
 62
   120
370
     5
100
AcDbLine
 10
1203.499981442018
 20
2469.000148463892
 30
0.0
 11
1253.499981442017
 21
2469.000148463892
 31
0.0
  0
LINE
  5
274
330
1F
100
AcDbEntity
  8
0-3_仕上げ
  6
Continuous
 62
   120
370
     5
100
AcDbLine
 10
1204.475141104993
 20
2472.000148463893
 30
0.0
 11
1252.524821779039
 21
2472.000148463893
 31
0.0
  0
LINE
  5
275
330
1F
100
AcDbEntity
  8
0-3_仕上げ
  6
JWW_CENTER1
 62
   120
370
     5
100
AcDbLine
 10
1178.499981442017
 20
2514.000148463893
 30
0.0
 11
1178.499981442017
 21
3072.000148463892
 31
0.0
  0
ARC
  5
276
330
1F
100
AcDbEntity
  8
0-3_仕上げ
  6
JWW_CENTER1
 62
   120
370
     5
100
AcDbCircle
 10
1118.621786075092
 20
2517.821368112184
 30
0.0
 40
60.0
100
AcDbArc
 50
305.5422590305548
 51
356.3485327712913
  0
LINE
  5
277
330
1F
100
AcDbEntity
  8
0-3_仕上げ
  6
Continuous
 62
   120
370
     5
100
AcDbLine
 10
1181.499981442018
 20
2514.09700349496
 30
0.0
 11
1181.499981442018
 21
3071.903293432823
 31
0.0
  0
ARC
  5
278
330
1F
100
AcDbEntity
  8
0-3_仕上げ
  6
Continuous
 62
   120
370
     5
100
AcDbCircle
 10
1238.378176808942
 20
2517.821368112184
 30
0.0
 40
57.0
100
AcDbArc
 50
183.7463597123748
 51
233.502329744074
  0
ARC
  5
279
330
1F
100
AcDbEntity
  8
0-3_仕上げ
  6
Continuous
 62
   120
370
     5
100
AcDbCircle
 10
1238.378176808942
 20
2420.178928815601
 30
0.0
 40
57.0
100
AcDbArc
 50
126.497670255926
 51
176.2536402876256
  0
LINE
  5
27A
330
1F
100
AcDbEntity
  8
0-3_仕上げ
  6
Continuous
 62
   120
370
     5
100
AcDbLine
 10
1181.499981442018
 20
2309.000148463892
 30
0.0
 11
1181.499981442018
 21
2423.903293432824
 31
0.0
  0
ARC
  5
27B
330
1F
100
AcDbEntity
  8
0-3_仕上げ
  6
JWW_CENTER1
 62
   120
370
     5
100
AcDbCircle
 10
1238.378176808942
 20
2420.178928815601
 30
0.0
 40
60.0
100
AcDbArc
 50
125.5422590305548
 51
176.348532771291
  0
LINE
  5
27C
330
1F
100
AcDbEntity
  8
0-3_仕上げ
  6
JWW_CENTER1
 62
   120
370
     5
100
AcDbLine
 10
1178.499981442017
 20
2309.000148463892
 30
0.0
 11
1178.499981442017
 21
2424.000148463892
 31
0.0
  0
LINE
  5
27D
330
1F
100
AcDbEntity
  8
0-3_仕上げ
  6
Continuous
 62
   120
370
     5
100
AcDbLine
 10
1204.475141104993
 20
3114.000148463893
 30
0.0
 11
1252.524821779039
 21
3114.000148463893
 31
0.0
  0
LINE
  5
27E
330
1F
100
AcDbEntity
  8
0-3_仕上げ
  6
Continuous
 62
   120
370
     5
100
AcDbLine
 10
1204.475141104993
 20
3120.000148463892
 30
0.0
 11
1252.524821779039
 21
3120.000148463892
 31
0.0
  0
LINE
  5
27F
330
1F
100
AcDbEntity
  8
0-3_仕上げ
  6
JWW_CENTER1
 62
   120
370
     5
100
AcDbLine
 10
1203.499981442018
 20
3117.000148463893
 30
0.0
 11
1253.499981442017
 21
3117.000148463893
 31
0.0
  0
ARC
  5
280
330
1F
100
AcDbEntity
  8
0-3_仕上げ
  6
Continuous
 62
   120
370
     5
100
AcDbCircle
 10
1238.378176808942
 20
3068.178928815601
 30
0.0
 40
57.0
100
AcDbArc
 50
126.497670255926
 51
176.2536402876275
  0
ARC
  5
281
330
1F
100
AcDbEntity
  8
0-3_仕上げ
  6
Continuous
 62
   120
370
     5
100
AcDbCircle
 10
1238.378176808942
 20
3165.821368112184
 30
0.0
 40
57.0
100
AcDbArc
 50
183.6514672287091
 51
233.502329744074
  0
ARC
  5
282
330
1F
100
AcDbEntity
  8
0-3_仕上げ
  6
JWW_CENTER1
 62
   120
370
     5
100
AcDbCircle
 10
1338.37817680894
 20
3165.821368112184
 30
0.0
 40
60.0
100
AcDbArc
 50
183.6514672287091
 51
234.4577409694452
  0
ARC
  5
283
330
1F
100
AcDbEntity
  8
0-3_仕上げ
  6
JWW_CENTER1
 62
   120
370
     5
100
AcDbCircle
 10
1338.37817680894
 20
3068.178928815601
 30
0.0
 40
60.0
100
AcDbArc
 50
125.5422590305548
 51
176.3485327712908
  0
ARC
  5
284
330
1F
100
AcDbEntity
  8
0-3_仕上げ
  6
Continuous
 62
   120
370
     5
100
AcDbCircle
 10
1338.37817680894
 20
3068.178928815601
 30
0.0
 40
63.0
100
AcDbArc
 50
129.200407421848
 51
161.8874291519458
  0
ARC
  5
285
330
1F
100
AcDbEntity
  8
0-3_仕上げ
  6
Continuous
 62
   120
370
     5
100
AcDbCircle
 10
1338.37817680894
 20
3165.821368112184
 30
0.0
 40
63.0
100
AcDbArc
 50
198.1125708480542
 51
230.799592578152
  0
ARC
  5
286
330
1F
100
AcDbEntity
  8
0-3_仕上げ
  6
Continuous
 62
   120
370
     5
100
AcDbCircle
 10
1218.621786075093
 20
3165.821368112184
 30
0.0
 40
63.0
100
AcDbArc
 50
309.200407421848
 51
341.8874291519458
  0
ARC
  5
287
330
1F
100
AcDbEntity
  8
0-3_仕上げ
  6
Continuous
 62
   120
370
     5
100
AcDbCircle
 10
1218.621786075093
 20
3068.178928815601
 30
0.0
 40
63.0
100
AcDbArc
 50
18.11257084805418
 51
50.79959257815202
  0
ARC
  5
288
330
1F
100
AcDbEntity
  8
0-3_仕上げ
  6
Continuous
 62
   120
370
     5
100
AcDbCircle
 10
1218.621786075093
 20
3165.821368112184
 30
0.0
 40
57.0
100
AcDbArc
 50
306.497670255926
 51
356.2536402876231
  0
LINE
  5
289
330
1F
100
AcDbEntity
  8
0-3_仕上げ
  6
Continuous
 62
   120
370
     5
100
AcDbLine
 10
1275.499981442018
 20
3162.097003494958
 30
0.0
 11
1275.499981442018
 21
3267.000148463893
 31
0.0
  0
LINE
  5
28A
330
1F
100
AcDbEntity
  8
0-3_仕上げ
  6
JWW_CENTER1
 62
   120
370
     5
100
AcDbLine
 10
1278.499981442018
 20
3162.000148463893
 30
0.0
 11
1278.499981442018
 21
3267.000148463893
 31
0.0
  0
ARC
  5
28B
330
1F
100
AcDbEntity
  8
0-3_仕上げ
  6
JWW_CENTER1
 62
   120
370
     5
100
AcDbCircle
 10
1218.621786075093
 20
3165.821368112184
 30
0.0
 40
60.0
100
AcDbArc
 50
305.5422590305548
 51
356.3485327712913
  0
LINE
  5
28C
330
1F
100
AcDbEntity
  8
0-3_仕上げ
  6
Continuous
 62
   120
370
     5
100
AcDbLine
 10
1281.499981442019
 20
3162.097003494961
 30
0.0
 11
1281.499981442019
 21
3267.000148463893
 31
0.0
  0
ARC
  5
28D
330
1F
100
AcDbEntity
  8
0-3_仕上げ
  6
Continuous
 62
   120
370
     5
100
AcDbCircle
 10
1218.621786075093
 20
3068.178928815601
 30
0.0
 40
57.0
100
AcDbArc
 50
3.746359712376933
 51
53.50232974407399
  0
ARC
  5
28E
330
1F
100
AcDbEntity
  8
0-3_仕上げ
  6
JWW_CENTER1
 62
   120
370
     5
100
AcDbCircle
 10
1218.621786075093
 20
3068.178928815601
 30
0.0
 40
60.0
100
AcDbArc
 50
3.651467228708674
 51
54.45774096944522
  0
ARC
  5
28F
330
1F
100
AcDbEntity
  8
0-3_仕上げ
  6
JWW_CENTER1
 62
   120
370
     5
100
AcDbCircle
 10
1338.37817680894
 20
2517.821368112184
 30
0.0
 40
60.0
100
AcDbArc
 50
183.6514672287091
 51
234.4577409694452
  0
ARC
  5
290
330
1F
100
AcDbEntity
  8
0-3_仕上げ
  6
Continuous
 62
   120
370
     5
100
AcDbCircle
 10
1338.37817680894
 20
2420.178928815601
 30
0.0
 40
63.0
100
AcDbArc
 50
129.200407421848
 51
161.8874291519458
  0
ARC
  5
291
330
1F
100
AcDbEntity
  8
0-3_仕上げ
  6
Continuous
 62
   120
370
     5
100
AcDbCircle
 10
1338.37817680894
 20
2517.821368112184
 30
0.0
 40
63.0
100
AcDbArc
 50
198.1125708480542
 51
230.799592578152
  0
ARC
  5
292
330
1F
100
AcDbEntity
  8
0-3_仕上げ
  6
Continuous
 62
   120
370
     5
100
AcDbCircle
 10
1218.621786075093
 20
2517.821368112184
 30
0.0
 40
63.0
100
AcDbArc
 50
309.200407421848
 51
341.8874291519458
  0
ARC
  5
293
330
1F
100
AcDbEntity
  8
0-3_仕上げ
  6
Continuous
 62
   120
370
     5
100
AcDbCircle
 10
1218.621786075093
 20
2420.178928815601
 30
0.0
 40
63.0
100
AcDbArc
 50
18.11257084805418
 51
50.79959257815202
  0
ARC
  5
294
330
1F
100
AcDbEntity
  8
0-3_仕上げ
  6
JWW_CENTER1
 62
   120
370
     5
100
AcDbCircle
 10
1218.621786075093
 20
2420.178928815601
 30
0.0
 40
60.0
100
AcDbArc
 50
3.651467228708674
 51
54.45774096944522
  0
ARC
  5
295
330
1F
100
AcDbEntity
  8
0-3_仕上げ
  6
Continuous
 62
   120
370
     5
100
AcDbCircle
 10
1218.621786075093
 20
2517.821368112184
 30
0.0
 40
57.0
100
AcDbArc
 50
306.497670255926
 51
356.2536402876231
  0
LINE
  5
296
330
1F
100
AcDbEntity
  8
0-3_仕上げ
  6
Continuous
 62
   120
370
     5
100
AcDbLine
 10
1275.499981442018
 20
2514.097003494959
 30
0.0
 11
1275.499981442018
 21
3071.903293432827
 31
0.0
  0
ARC
  5
297
330
1F
100
AcDbEntity
  8
0-3_仕上げ
  6
Continuous
 62
   120
370
     5
100
AcDbCircle
 10
1218.621786075093
 20
2420.178928815601
 30
0.0
 40
57.0
100
AcDbArc
 50
3.74635971237695
 51
53.50232974407399
  0
LINE
  5
298
330
1F
100
AcDbEntity
  8
0-3_仕上げ
  6
Continuous
 62
   120
370
     5
100
AcDbLine
 10
1275.499981442018
 20
2309.000148463892
 30
0.0
 11
1275.499981442018
 21
2423.903293432827
 31
0.0
  0
LINE
  5
299
330
1F
100
AcDbEntity
  8
0-3_仕上げ
  6
JWW_CENTER1
 62
   120
370
     5
100
AcDbLine
 10
1278.499981442018
 20
2514.000148463893
 30
0.0
 11
1278.499981442018
 21
3072.000148463892
 31
0.0
  0
ARC
  5
29A
330
1F
100
AcDbEntity
  8
0-3_仕上げ
  6
JWW_CENTER1
 62
   120
370
     5
100
AcDbCircle
 10
1218.621786075093
 20
2517.821368112184
 30
0.0
 40
60.0
100
AcDbArc
 50
305.5422590305548
 51
356.3485327712913
  0
LINE
  5
29B
330
1F
100
AcDbEntity
  8
0-3_仕上げ
  6
Continuous
 62
   120
370
     5
100
AcDbLine
 10
1281.499981442019
 20
2514.09700349496
 30
0.0
 11
1281.499981442019
 21
3071.903293432823
 31
0.0
  0
ARC
  5
29C
330
1F
100
AcDbEntity
  8
0-3_仕上げ
  6
Continuous
 62
   120
370
     5
100
AcDbCircle
 10
1338.37817680894
 20
2517.821368112184
 30
0.0
 40
57.0
100
AcDbArc
 50
183.7463597123748
 51
233.502329744074
  0
ARC
  5
29D
330
1F
100
AcDbEntity
  8
0-3_仕上げ
  6
Continuous
 62
   120
370
     5
100
AcDbCircle
 10
1338.37817680894
 20
2420.178928815601
 30
0.0
 40
57.0
100
AcDbArc
 50
126.497670255926
 51
176.2536402876256
  0
LINE
  5
29E
330
1F
100
AcDbEntity
  8
0-3_仕上げ
  6
Continuous
 62
   120
370
     5
100
AcDbLine
 10
1281.499981442019
 20
2309.000148463892
 30
0.0
 11
1281.499981442019
 21
2423.903293432824
 31
0.0
  0
ARC
  5
29F
330
1F
100
AcDbEntity
  8
0-3_仕上げ
  6
JWW_CENTER1
 62
   120
370
     5
100
AcDbCircle
 10
1338.37817680894
 20
2420.178928815601
 30
0.0
 40
60.0
100
AcDbArc
 50
125.5422590305548
 51
176.348532771291
  0
LINE
  5
2A0
330
1F
100
AcDbEntity
  8
0-3_仕上げ
  6
JWW_CENTER1
 62
   120
370
     5
100
AcDbLine
 10
1278.499981442018
 20
2309.000148463892
 30
0.0
 11
1278.499981442018
 21
2424.000148463892
 31
0.0
  0
ARC
  5
2A1
330
1F
100
AcDbEntity
  8
0-3_仕上げ
  6
Continuous
 62
   120
370
     5
100
AcDbCircle
 10
1338.37817680894
 20
3068.178928815601
 30
0.0
 40
57.0
100
AcDbArc
 50
126.497670255926
 51
176.2536402876275
  0
ARC
  5
2A2
330
1F
100
AcDbEntity
  8
0-3_仕上げ
  6
Continuous
 62
   120
370
     5
100
AcDbCircle
 10
1338.37817680894
 20
3165.821368112184
 30
0.0
 40
57.0
100
AcDbArc
 50
183.6514672287091
 51
233.502329744074
  0
ARC
  5
2A3
330
1F
100
AcDbEntity
  8
0-3_仕上げ
  6
Continuous
 62
   120
370
     5
100
AcDbCircle
 10
918.6217860750928
 20
3165.821368112184
 30
0.0
 40
57.0
100
AcDbArc
 50
306.497670255926
 51
356.3485327712909
  0
ARC
  5
2A4
330
1F
100
AcDbEntity
  8
0-3_仕上げ
  6
JWW_CENTER1
 62
   120
370
     5
100
AcDbCircle
 10
918.6217860750928
 20
3165.821368112184
 30
0.0
 40
60.0
100
AcDbArc
 50
305.5422590305548
 51
356.3485327712909
  0
ARC
  5
2A5
330
1F
100
AcDbEntity
  8
0-3_仕上げ
  6
JWW_CENTER1
 62
   120
370
     5
100
AcDbCircle
 10
918.6217860750928
 20
3068.178928815601
 30
0.0
 40
60.0
100
AcDbArc
 50
3.651467228709083
 51
54.45774096944522
  0
ARC
  5
2A6
330
1F
100
AcDbEntity
  8
0-3_仕上げ
  6
Continuous
 62
   120
370
     5
100
AcDbCircle
 10
918.6217860750928
 20
3068.178928815601
 30
0.0
 40
57.0
100
AcDbArc
 50
3.746359712376933
 51
53.50232974407399
  0
ARC
  5
2A7
330
1F
100
AcDbEntity
  8
0-3_仕上げ
  6
Continuous
 62
   120
370
     5
100
AcDbCircle
 10
918.6217860750928
 20
2420.178928815601
 30
0.0
 40
57.0
100
AcDbArc
 50
3.74635971237695
 51
53.50232974407398
  0
ARC
  5
2A8
330
1F
100
AcDbEntity
  8
0-3_仕上げ
  6
JWW_CENTER1
 62
   120
370
     5
100
AcDbCircle
 10
918.6217860750928
 20
2420.178928815601
 30
0.0
 40
60.0
100
AcDbArc
 50
3.651467228708674
 51
54.45774096944522
  0
ARC
  5
2A9
330
1F
100
AcDbEntity
  8
0-3_仕上げ
  6
Continuous
 62
   120
370
     5
100
AcDbCircle
 10
918.6217860750928
 20
2517.821368112184
 30
0.0
 40
57.0
100
AcDbArc
 50
306.497670255926
 51
356.2536402876231
  0
ARC
  5
2AA
330
1F
100
AcDbEntity
  8
0-3_仕上げ
  6
JWW_CENTER1
 62
   120
370
     5
100
AcDbCircle
 10
918.6217860750928
 20
2517.821368112184
 30
0.0
 40
60.0
100
AcDbArc
 50
305.5422590305548
 51
356.3485327712913
  0
LINE
  5
2AB
330
1F
100
AcDbEntity
  8
0-C_ハッチ
  6
JWW_DASHED1
 62
   120
370
     5
100
AcDbLine
 10
887.9999814420163
 20
3264.558973090533
 30
0.0
 11
890.4411568153755
 21
3267.000148463892
 31
0.0
  0
LINE
  5
2AC
330
1F
100
AcDbEntity
  8
0-C_ハッチ
  6
JWW_DASHED1
 62
   120
370
     5
100
AcDbLine
 10
887.9999814420163
 20
3179.706159348133
 30
0.0
 11
975.2939705577687
 21
3267.000148463885
 31
0.0
  0
LINE
  5
2AD
330
1F
100
AcDbEntity
  8
0-C_ハッチ
  6
JWW_DASHED1
 62
   120
370
     5
100
AcDbLine
 10
887.9999814420163
 20
3222.132566219333
 30
0.0
 11
932.8675636865721
 21
3267.000148463888
 31
0.0
  0
LINE
  5
2AE
330
1F
100
AcDbEntity
  8
0-C_ハッチ
  6
JWW_DASHED1
 62
   120
370
     5
100
AcDbLine
 10
887.9999814420163
 20
2797.868497507387
 30
0.0
 11
1357.131632398528
 21
3267.000148463899
 31
0.0
  0
LINE
  5
2AF
330
1F
100
AcDbEntity
  8
0-C_ハッチ
  6
JWW_DASHED1
 62
   120
370
     5
100
AcDbLine
 10
887.9999814420163
 20
2840.294904378587
 30
0.0
 11
1314.705225527331
 21
3267.000148463902
 31
0.0
  0
LINE
  5
2B0
330
1F
100
AcDbEntity
  8
0-C_ハッチ
  6
JWW_DASHED1
 62
   120
370
     5
100
AcDbLine
 10
887.9999814420163
 20
2882.721311249788
 30
0.0
 11
1272.278818656118
 21
3267.000148463889
 31
0.0
  0
LINE
  5
2B1
330
1F
100
AcDbEntity
  8
0-C_ハッチ
  6
JWW_DASHED1
 62
   120
370
     5
100
AcDbLine
 10
887.9999814420163
 20
2925.147718120988
 30
0.0
 11
1229.852411784921
 21
3267.000148463893
 31
0.0
  0
LINE
  5
2B2
330
1F
100
AcDbEntity
  8
0-C_ハッチ
  6
JWW_DASHED1
 62
   120
370
     5
100
AcDbLine
 10
887.9999814420163
 20
2967.574124992188
 30
0.0
 11
1187.426004913724
 21
3267.000148463896
 31
0.0
  0
LINE
  5
2B3
330
1F
100
AcDbEntity
  8
0-C_ハッチ
  6
JWW_DASHED1
 62
   120
370
     5
100
AcDbLine
 10
887.9999814420163
 20
3010.000531863388
 30
0.0
 11
1144.999598042518
 21
3267.00014846389
 31
0.0
  0
LINE
  5
2B4
330
1F
100
AcDbEntity
  8
0-C_ハッチ
  6
JWW_DASHED1
 62
   120
370
     5
100
AcDbLine
 10
887.9999814420163
 20
3052.426938734533
 30
0.0
 11
1102.573191171382
 21
3267.000148463899
 31
0.0
  0
LINE
  5
2B5
330
1F
100
AcDbEntity
  8
0-C_ハッチ
  6
JWW_DASHED1
 62
   120
370
     5
100
AcDbLine
 10
887.9999814420163
 20
3094.853345605733
 30
0.0
 11
1060.146784300186
 21
3267.000148463904
 31
0.0
  0
LINE
  5
2B6
330
1F
100
AcDbEntity
  8
0-C_ハッチ
  6
JWW_DASHED1
 62
   120
370
     5
100
AcDbLine
 10
887.9999814420163
 20
3137.279752476933
 30
0.0
 11
1017.720377428993
 21
3267.000148463908
 31
0.0
  0
LINE
  5
2B7
330
1F
100
AcDbEntity
  8
0-3_仕上げ
  6
Continuous
 62
   120
370
     5
100
AcDbLine
 10
887.9999814420163
 20
2472.000148463893
 30
0.0
 11
952.524821779039
 21
2472.000148463893
 31
0.0
  0
LINE
  5
2B8
330
1F
100
AcDbEntity
  8
0-3_仕上げ
  6
JWW_CENTER1
 62
   120
370
     5
100
AcDbLine
 10
887.9999814420163
 20
2469.000148463892
 30
0.0
 11
953.4999814420171
 21
2469.000148463892
 31
0.0
  0
LINE
  5
2B9
330
1F
100
AcDbEntity
  8
0-3_仕上げ
  6
Continuous
 62
   120
370
     5
100
AcDbLine
 10
887.9999814420163
 20
2466.000148463892
 30
0.0
 11
952.524821779039
 21
2466.000148463892
 31
0.0
  0
LINE
  5
2BA
330
1F
100
AcDbEntity
  8
0-3_仕上げ
  6
Continuous
 62
   120
370
     5
100
AcDbLine
 10
887.9999814420163
 20
3120.000148463892
 30
0.0
 11
952.524821779039
 21
3120.000148463892
 31
0.0
  0
LINE
  5
2BB
330
1F
100
AcDbEntity
  8
0-3_仕上げ
  6
JWW_CENTER1
 62
   120
370
     5
100
AcDbLine
 10
887.9999814420163
 20
3117.000148463893
 30
0.0
 11
953.4999814420171
 21
3117.000148463893
 31
0.0
  0
LINE
  5
2BC
330
1F
100
AcDbEntity
  8
0-3_仕上げ
  6
Continuous
 62
   120
370
     5
100
AcDbLine
 10
887.9999814420163
 20
3114.000148463893
 30
0.0
 11
952.524821779039
 21
3114.000148463893
 31
0.0
  0
LINE
  5
2BD
330
1F
100
AcDbEntity
  8
0-C_ハッチ
  6
JWW_DASHED1
 62
   120
370
     5
100
AcDbLine
 10
1332.512583564759
 20
2309.000148463893
 30
0.0
 11
1368.999981442017
 21
2345.487546341152
 31
0.0
  0
LINE
  5
2BE
330
1F
100
AcDbEntity
  8
0-C_ハッチ
  6
JWW_DASHED1
 62
   120
370
     5
100
AcDbLine
 10
887.9999814420163
 20
2755.442090636187
 30
0.0
 11
1368.999981442017
 21
3236.442090636188
 31
0.0
  0
LINE
  5
2BF
330
1F
100
AcDbEntity
  8
0-C_ハッチ
  6
JWW_DASHED1
 62
   120
370
     5
100
AcDbLine
 10
908.2485148528137
 20
2309.000148463893
 30
0.0
 11
1368.999981442017
 21
2769.751615053097
 31
0.0
  0
LINE
  5
2C0
330
1F
100
AcDbEntity
  8
0-C_ハッチ
  6
JWW_DASHED1
 62
   120
370
     5
100
AcDbLine
 10
1290.086176693559
 20
2309.000148463893
 30
0.0
 11
1368.999981442017
 21
2387.913953212351
 31
0.0
  0
LINE
  5
2C1
330
1F
100
AcDbEntity
  8
0-C_ハッチ
  6
JWW_DASHED1
 62
   120
370
     5
100
AcDbLine
 10
1247.659769822359
 20
2309.000148463893
 30
0.0
 11
1368.999981442017
 21
2430.340360083552
 31
0.0
  0
LINE
  5
2C2
330
1F
100
AcDbEntity
  8
0-C_ハッチ
  6
JWW_DASHED1
 62
   120
370
     5
100
AcDbLine
 10
1205.233362951159
 20
2309.000148463893
 30
0.0
 11
1368.999981442017
 21
2472.766766954752
 31
0.0
  0
LINE
  5
2C3
330
1F
100
AcDbEntity
  8
0-C_ハッチ
  6
JWW_DASHED1
 62
   120
370
     5
100
AcDbLine
 10
1162.806956079959
 20
2309.000148463893
 30
0.0
 11
1368.999981442017
 21
2515.193173825952
 31
0.0
  0
LINE
  5
2C4
330
1F
100
AcDbEntity
  8
0-C_ハッチ
  6
JWW_DASHED1
 62
   120
370
     5
100
AcDbLine
 10
1120.380549208759
 20
2309.000148463893
 30
0.0
 11
1368.999981442017
 21
2557.619580697152
 31
0.0
  0
LINE
  5
2C5
330
1F
100
AcDbEntity
  8
0-C_ハッチ
  6
JWW_DASHED1
 62
   120
370
     5
100
AcDbLine
 10
1077.954142337614
 20
2309.000148463893
 30
0.0
 11
1368.999981442017
 21
2600.045987568297
 31
0.0
  0
LINE
  5
2C6
330
1F
100
AcDbEntity
  8
0-C_ハッチ
  6
JWW_DASHED1
 62
   120
370
     5
100
AcDbLine
 10
1035.527735466414
 20
2309.000148463893
 30
0.0
 11
1368.999981442017
 21
2642.472394439497
 31
0.0
  0
LINE
  5
2C7
330
1F
100
AcDbEntity
  8
0-C_ハッチ
  6
JWW_DASHED1
 62
   120
370
     5
100
AcDbLine
 10
993.1013285952138
 20
2309.000148463893
 30
0.0
 11
1368.999981442017
 21
2684.898801310697
 31
0.0
  0
LINE
  5
2C8
330
1F
100
AcDbEntity
  8
0-C_ハッチ
  6
JWW_DASHED1
 62
   120
370
     5
100
AcDbLine
 10
950.6749217240138
 20
2309.000148463893
 30
0.0
 11
1368.999981442017
 21
2727.325208181897
 31
0.0
  0
LINE
  5
2C9
330
1F
100
AcDbEntity
  8
0-3_仕上げ
  6
Continuous
 62
   120
370
     5
100
AcDbLine
 10
1304.475141104994
 20
2466.000148463892
 30
0.0
 11
1368.999981442017
 21
2466.000148463892
 31
0.0
  0
LINE
  5
2CA
330
1F
100
AcDbEntity
  8
0-3_仕上げ
  6
JWW_CENTER1
 62
   120
370
     5
100
AcDbLine
 10
1303.499981442016
 20
2469.000148463892
 30
0.0
 11
1368.999981442017
 21
2469.000148463892
 31
0.0
  0
LINE
  5
2CB
330
1F
100
AcDbEntity
  8
0-3_仕上げ
  6
Continuous
 62
   120
370
     5
100
AcDbLine
 10
1304.475141104994
 20
2472.000148463893
 30
0.0
 11
1368.999981442017
 21
2472.000148463893
 31
0.0
  0
LINE
  5
2CC
330
1F
100
AcDbEntity
  8
0-3_仕上げ
  6
Continuous
 62
   120
370
     5
100
AcDbLine
 10
1304.475141104994
 20
3114.000148463893
 30
0.0
 11
1368.999981442017
 21
3114.000148463893
 31
0.0
  0
LINE
  5
2CD
330
1F
100
AcDbEntity
  8
0-3_仕上げ
  6
Continuous
 62
   120
370
     5
100
AcDbLine
 10
1304.475141104994
 20
3120.000148463892
 30
0.0
 11
1368.999981442017
 21
3120.000148463892
 31
0.0
  0
LINE
  5
2CE
330
1F
100
AcDbEntity
  8
0-3_仕上げ
  6
JWW_CENTER1
 62
   120
370
     5
100
AcDbLine
 10
1303.499981442016
 20
3117.000148463893
 30
0.0
 11
1368.999981442017
 21
3117.000148463893
 31
0.0
  0
LINE
  5
2CF
330
1F
100
AcDbEntity
  8
0-C_ハッチ
  6
JWW_DASHED1
 62
   120
370
     5
100
AcDbLine
 10
887.9999814420163
 20
2331.178021924299
 30
0.0
 11
1368.999981442017
 21
2812.178021924298
 31
0.0
  0
LINE
  5
2D0
330
1F
100
AcDbEntity
  8
0-C_ハッチ
  6
JWW_DASHED1
 62
   120
370
     5
100
AcDbLine
 10
887.9999814420163
 20
2713.015683765042
 30
0.0
 11
1368.999981442017
 21
3194.015683765043
 31
0.0
  0
LINE
  5
2D1
330
1F
100
AcDbEntity
  8
0-C_ハッチ
  6
JWW_DASHED1
 62
   120
370
     5
100
AcDbLine
 10
887.9999814420163
 20
2373.604428795497
 30
0.0
 11
1368.999981442017
 21
2854.604428795497
 31
0.0
  0
LINE
  5
2D2
330
1F
100
AcDbEntity
  8
0-C_ハッチ
  6
JWW_DASHED1
 62
   120
370
     5
100
AcDbLine
 10
887.9999814420163
 20
2416.030835666642
 30
0.0
 11
1368.999981442017
 21
2897.030835666643
 31
0.0
  0
LINE
  5
2D3
330
1F
100
AcDbEntity
  8
0-C_ハッチ
  6
JWW_DASHED1
 62
   120
370
     5
100
AcDbLine
 10
887.9999814420163
 20
2458.457242537842
 30
0.0
 11
1368.999981442017
 21
2939.457242537843
 31
0.0
  0
LINE
  5
2D4
330
1F
100
AcDbEntity
  8
0-C_ハッチ
  6
JWW_DASHED1
 62
   120
370
     5
100
AcDbLine
 10
887.9999814420163
 20
2500.883649409042
 30
0.0
 11
1368.999981442017
 21
2981.883649409043
 31
0.0
  0
LINE
  5
2D5
330
1F
100
AcDbEntity
  8
0-C_ハッチ
  6
JWW_DASHED1
 62
   120
370
     5
100
AcDbLine
 10
887.9999814420163
 20
2543.310056280242
 30
0.0
 11
1368.999981442017
 21
3024.310056280243
 31
0.0
  0
LINE
  5
2D6
330
1F
100
AcDbEntity
  8
0-C_ハッチ
  6
JWW_DASHED1
 62
   120
370
     5
100
AcDbLine
 10
887.9999814420163
 20
2585.736463151442
 30
0.0
 11
1368.999981442017
 21
3066.736463151443
 31
0.0
  0
LINE
  5
2D7
330
1F
100
AcDbEntity
  8
0-C_ハッチ
  6
JWW_DASHED1
 62
   120
370
     5
100
AcDbLine
 10
887.9999814420163
 20
2628.162870022642
 30
0.0
 11
1368.999981442017
 21
3109.162870022643
 31
0.0
  0
LINE
  5
2D8
330
1F
100
AcDbEntity
  8
0-C_ハッチ
  6
JWW_DASHED1
 62
   120
370
     5
100
AcDbLine
 10
887.9999814420163
 20
2670.589276893842
 30
0.0
 11
1368.999981442017
 21
3151.589276893843
 31
0.0
  0
LINE
  5
2D9
330
1F
100
AcDbEntity
  8
0-4_枠
  6
Continuous
 62
    92
370
    13
100
AcDbLine
 10
-4890.000018557986
 20
3460.000148463894
 30
0.0
 11
-3101.000018557986
 21
3460.000148463894
 31
0.0
  0
LINE
  5
2DA
330
1F
100
AcDbEntity
  8
0-4_枠
  6
Continuous
 62
    92
370
    13
100
AcDbLine
 10
-4890.000018557986
 20
3415.000148463894
 30
0.0
 11
-3101.000018557986
 21
3415.000148463894
 31
0.0
  0
LWPOLYLINE
  5
2DB
330
1F
100
AcDbEntity
  8
0-B_寸法
  6
Continuous
 62
     7
370
     9
100
AcDbPolyline
 90
        4
 70
     1
 43
3.0
 10
-5138.500018557985
 20
1427.000148463893
 42
0.4142135623731
 10
-5140.000018557986
 20
1428.500148463893
 42
0.4142135623731
 10
-5141.500018557986
 20
1427.000148463893
 42
0.4142135623731
 10
-5140.000018557986
 20
1425.500148463893
 42
0.4142135623731
  0
LINE
  5
2DC
330
1F
100
AcDbEntity
  8
0-B_寸法
  6
Continuous
 62
   120
370
     5
100
AcDbLine
 10
-5140.000018557986
 20
3410.000148463893
 30
0.0
 11
-5140.000018557986
 21
1427.000148463893
 31
0.0
  0
LWPOLYLINE
  5
2DD
330
1F
100
AcDbEntity
  8
0-B_寸法
  6
Continuous
 62
     7
370
     9
100
AcDbPolyline
 90
        4
 70
     1
 43
3.0
 10
-5138.500018557985
 20
3410.000148463893
 42
0.4142135623731
 10
-5140.000018557986
 20
3411.500148463893
 42
0.4142135623731
 10
-5141.500018557986
 20
3410.000148463893
 42
0.4142135623731
 10
-5140.000018557986
 20
3408.500148463893
 42
0.4142135623731
  0
LINE
  5
2DE
330
1F
100
AcDbEntity
  8
0-B_寸法
  6
Continuous
 62
   120
370
     5
100
AcDbLine
 10
-5140.000018557986
 20
1427.000148463893
 30
0.0
 11
-4940.000018557985
 21
1427.000148463893
 31
0.0
  0
LINE
  5
2DF
330
1F
100
AcDbEntity
  8
0-B_寸法
  6
Continuous
 62
   120
370
     5
100
AcDbLine
 10
-5140.000018557986
 20
3410.000148463893
 30
0.0
 11
-4940.000018557985
 21
3410.000148463893
 31
0.0
  0
LINE
  5
2E0
330
1F
100
AcDbEntity
  8
0-1_通り芯
  6
JWW_CENTER1
 62
   120
370
     5
100
AcDbLine
 10
-3119.000018557985
 20
2384.500148463893
 30
0.0
 11
-3201.000018557984
 21
2384.500148463893
 31
0.0
  0
LINE
  5
2E1
330
1F
100
AcDbEntity
  8
0-1_通り芯
  6
JWW_CENTER1
 62
   120
370
     5
100
AcDbLine
 10
-3160.000018557985
 20
2465.500148463892
 30
0.0
 11
-3160.000018557985
 21
2303.500148463893
 31
0.0
  0
LINE
  5
2E2
330
1F
100
AcDbEntity
  8
0-2_扉
  6
JWW_DASHED1
 62
   120
370
     5
100
AcDbLine
 10
-4009.000018557984
 20
3410.000148463893
 30
0.0
 11
-4009.000018557984
 21
3406.000148463893
 31
0.0
  0
LINE
  5
2E3
330
1F
100
AcDbEntity
  8
0-4_枠
  6
Continuous
 62
    92
370
    13
100
AcDbLine
 10
-4890.000018557986
 20
3447.000148463893
 30
0.0
 11
-3101.000018557986
 21
3447.000148463893
 31
0.0
  0
LINE
  5
2E4
330
1F
100
AcDbEntity
  8
0-4_枠
  6
JWW_DASHED1
 62
   120
370
     5
100
AcDbLine
 10
-3982.000018557987
 20
1427.000148463893
 30
0.0
 11
-3982.000018557987
 21
3410.000148463893
 31
0.0
  0
LINE
  5
2E5
330
1F
100
AcDbEntity
  8
0-4_枠
  6
Continuous
 62
    92
370
    13
100
AcDbLine
 10
-3982.000018557987
 20
3410.000148463893
 30
0.0
 11
-3982.000018557987
 21
3415.000148463894
 31
0.0
  0
LINE
  5
2E6
330
1F
100
AcDbEntity
  8
0-2_扉
  6
Continuous
 62
    92
370
    13
100
AcDbLine
 10
-4009.000018557984
 20
3410.000148463893
 30
0.0
 11
-4009.000018557984
 21
1427.000148463893
 31
0.0
  0
LINE
  5
2E7
330
1F
100
AcDbEntity
  8
0-2_扉
  6
Continuous
 62
    92
370
    13
100
AcDbLine
 10
-4009.000018557984
 20
3410.000148463893
 30
0.0
 11
-3109.000018557984
 21
3410.000148463893
 31
0.0
  0
LINE
  5
2E8
330
1F
100
AcDbEntity
  8
0-2_扉
  6
Continuous
 62
    92
370
    13
100
AcDbLine
 10
-4009.000018557984
 20
1427.000148463893
 30
0.0
 11
-3109.000018557984
 21
1427.000148463893
 31
0.0
  0
LINE
  5
2E9
330
1F
100
AcDbEntity
  8
0-2_扉
  6
Continuous
 62
    92
370
    13
100
AcDbLine
 10
-3109.000018557984
 20
1427.000148463893
 30
0.0
 11
-3109.000018557984
 21
3410.000148463893
 31
0.0
  0
MTEXT
  5
2EA
330
1F
100
AcDbEntity
  8
0-B_寸法
  6
Continuous
 62
     7
370
    70
100
AcDbMText
 10
-5155.000018557986
 20
2209.325148463893
 30
0.0
 40
57.14999999999999
 41
412.5
 46
0.0
 71
     7
 72
     1
  1
{\fＭＳ ゴシック|b0|i0|c128|p49;ＤＨ＝1,983}
 11
6.123031769111886E-17
 21
1.0
 31
0.0
 73
     1
 44
1.0
  0
LINE
  5
2EB
330
1F
100
AcDbEntity
  8
0-3_仕上げ
  6
Continuous
 62
     7
370
     9
100
AcDbLine
 10
-3238.500018557986
 20
1427.000148463893
 30
0.0
 11
-3238.500018557986
 21
1620.000148463893
 31
0.0
  0
LINE
  5
2EC
330
1F
100
AcDbEntity
  8
0-3_仕上げ
  6
Continuous
 62
     7
370
     9
100
AcDbLine
 10
-3240.000018557984
 20
1427.000148463893
 30
0.0
 11
-3240.000018557984
 21
1618.500148463893
 31
0.0
  0
LINE
  5
2ED
330
1F
100
AcDbEntity
  8
0-3_仕上げ
  6
Continuous
 62
     7
370
     9
100
AcDbLine
 10
-3241.000018557983
 20
1622.500148463893
 30
0.0
 11
-3238.500018557986
 21
1620.000148463893
 31
0.0
  0
LINE
  5
2EE
330
1F
100
AcDbEntity
  8
0-3_仕上げ
  6
Continuous
 62
     7
370
     9
100
AcDbLine
 10
-3240.000018557984
 20
1618.500148463893
 30
0.0
 11
-3238.500018557986
 21
1620.000148463893
 31
0.0
  0
LINE
  5
2EF
330
1F
100
AcDbEntity
  8
0-3_仕上げ
  6
Continuous
 62
    92
370
    13
100
AcDbLine
 10
-3241.000018557983
 20
2206.500148463894
 30
0.0
 11
-3241.000018557983
 21
1622.500148463893
 31
0.0
  0
LINE
  5
2F0
330
1F
100
AcDbEntity
  8
0-3_仕上げ
  6
Continuous
 62
    92
370
    13
100
AcDbLine
 10
-3241.000018557983
 20
2306.500148463893
 30
0.0
 11
-3241.000018557983
 21
3264.500148463893
 31
0.0
  0
LINE
  5
2F1
330
1F
100
AcDbEntity
  8
0-3_仕上げ
  6
Continuous
 62
     7
370
     9
100
AcDbLine
 10
-3240.000018557984
 20
2210.500148463894
 30
0.0
 11
-3240.000018557984
 21
2302.500148463893
 31
0.0
  0
LINE
  5
2F2
330
1F
100
AcDbEntity
  8
0-3_仕上げ
  6
Continuous
 62
     7
370
     9
100
AcDbLine
 10
-3240.000018557984
 20
3268.500148463893
 30
0.0
 11
-3238.500018557986
 21
3267.000148463893
 31
0.0
  0
LINE
  5
2F3
330
1F
100
AcDbEntity
  8
0-3_仕上げ
  6
Continuous
 62
     7
370
     9
100
AcDbLine
 10
-3238.500018557986
 20
3267.000148463893
 30
0.0
 11
-3241.000018557983
 21
3264.500148463893
 31
0.0
  0
LINE
  5
2F4
330
1F
100
AcDbEntity
  8
0-3_仕上げ
  6
Continuous
 62
     7
370
     9
100
AcDbLine
 10
-3240.000018557984
 20
2210.500148463894
 30
0.0
 11
-3238.500018557986
 21
2209.000148463893
 31
0.0
  0
LINE
  5
2F5
330
1F
100
AcDbEntity
  8
0-3_仕上げ
  6
Continuous
 62
     7
370
     9
100
AcDbLine
 10
-3238.500018557986
 20
2209.000148463893
 30
0.0
 11
-3241.000018557983
 21
2206.500148463894
 31
0.0
  0
LINE
  5
2F6
330
1F
100
AcDbEntity
  8
0-3_仕上げ
  6
Continuous
 62
     7
370
     9
100
AcDbLine
 10
-3240.000018557984
 20
2302.500148463893
 30
0.0
 11
-3238.500018557986
 21
2304.000148463894
 31
0.0
  0
LINE
  5
2F7
330
1F
100
AcDbEntity
  8
0-3_仕上げ
  6
Continuous
 62
     7
370
     9
100
AcDbLine
 10
-3241.000018557983
 20
2306.500148463893
 30
0.0
 11
-3238.500018557986
 21
2304.000148463894
 31
0.0
  0
LINE
  5
2F8
330
1F
100
AcDbEntity
  8
0-3_仕上げ
  6
Continuous
 62
     7
370
     9
100
AcDbLine
 10
-3238.500018557986
 20
2209.000148463893
 30
0.0
 11
-3238.500018557986
 21
2304.000148463894
 31
0.0
  0
LINE
  5
2F9
330
1F
100
AcDbEntity
  8
0-3_仕上げ
  6
Continuous
 62
     7
370
     9
100
AcDbLine
 10
-3237.000018557983
 20
1427.000148463893
 30
0.0
 11
-3237.000018557983
 21
3410.000148463894
 31
0.0
  0
LINE
  5
2FA
330
1F
100
AcDbEntity
  8
0-3_仕上げ
  6
Continuous
 62
     7
370
     9
100
AcDbLine
 10
-3240.000018557984
 20
3268.500148463893
 30
0.0
 11
-3240.000018557984
 21
3410.000148463894
 31
0.0
  0
LINE
  5
2FB
330
1F
100
AcDbEntity
  8
0-3_仕上げ
  6
Continuous
 62
     7
370
     9
100
AcDbLine
 10
-3238.500018557986
 20
3267.000148463893
 30
0.0
 11
-3238.500018557986
 21
3410.000148463894
 31
0.0
  0
LINE
  5
2FC
330
1F
100
AcDbEntity
  8
0-3_仕上げ
  6
Continuous
 62
     7
370
     9
100
AcDbLine
 10
-3879.500018557982
 20
1427.000148463893
 30
0.0
 11
-3879.500018557982
 21
1620.000148463893
 31
0.0
  0
LINE
  5
2FD
330
1F
100
AcDbEntity
  8
0-3_仕上げ
  6
Continuous
 62
     7
370
     9
100
AcDbLine
 10
-3878.000018557984
 20
1427.000148463893
 30
0.0
 11
-3878.000018557984
 21
1618.500148463893
 31
0.0
  0
LINE
  5
2FE
330
1F
100
AcDbEntity
  8
0-3_仕上げ
  6
Continuous
 62
     7
370
     9
100
AcDbLine
 10
-3879.500018557982
 20
1620.000148463893
 30
0.0
 11
-3877.000018557985
 21
1622.500148463893
 31
0.0
  0
LINE
  5
2FF
330
1F
100
AcDbEntity
  8
0-3_仕上げ
  6
Continuous
 62
     7
370
     9
100
AcDbLine
 10
-3878.000018557984
 20
1618.500148463893
 30
0.0
 11
-3879.500018557982
 21
1620.000148463893
 31
0.0
  0
LINE
  5
300
330
1F
100
AcDbEntity
  8
0-3_仕上げ
  6
Continuous
 62
     7
370
     9
100
AcDbLine
 10
-3240.000018557984
 20
1618.500148463893
 30
0.0
 11
-3878.000018557984
 21
1618.500148463893
 31
0.0
  0
LINE
  5
301
330
1F
100
AcDbEntity
  8
0-3_仕上げ
  6
Continuous
 62
    92
370
    13
100
AcDbLine
 10
-3241.000018557983
 20
1622.500148463893
 30
0.0
 11
-3877.000018557985
 21
1622.500148463893
 31
0.0
  0
LINE
  5
302
330
1F
100
AcDbEntity
  8
0-3_仕上げ
  6
Continuous
 62
    92
370
    13
100
AcDbLine
 10
-3877.000018557985
 20
2206.500148463894
 30
0.0
 11
-3877.000018557985
 21
1622.500148463893
 31
0.0
  0
LINE
  5
303
330
1F
100
AcDbEntity
  8
0-3_仕上げ
  6
Continuous
 62
    92
370
    13
100
AcDbLine
 10
-3877.000018557985
 20
2306.500148463893
 30
0.0
 11
-3877.000018557985
 21
3264.500148463893
 31
0.0
  0
LINE
  5
304
330
1F
100
AcDbEntity
  8
0-3_仕上げ
  6
Continuous
 62
     7
370
     9
100
AcDbLine
 10
-3878.000018557984
 20
2210.500148463894
 30
0.0
 11
-3878.000018557984
 21
2302.500148463893
 31
0.0
  0
LINE
  5
305
330
1F
100
AcDbEntity
  8
0-3_仕上げ
  6
Continuous
 62
    92
370
    13
100
AcDbLine
 10
-3241.000018557983
 20
3264.500148463893
 30
0.0
 11
-3877.000018557985
 21
3264.500148463893
 31
0.0
  0
LINE
  5
306
330
1F
100
AcDbEntity
  8
0-3_仕上げ
  6
Continuous
 62
    92
370
    13
100
AcDbLine
 10
-3241.000018557983
 20
2306.500148463893
 30
0.0
 11
-3877.000018557985
 21
2306.500148463893
 31
0.0
  0
LINE
  5
307
330
1F
100
AcDbEntity
  8
0-3_仕上げ
  6
Continuous
 62
    92
370
    13
100
AcDbLine
 10
-3877.000018557985
 20
2206.500148463894
 30
0.0
 11
-3241.000018557983
 21
2206.500148463894
 31
0.0
  0
LINE
  5
308
330
1F
100
AcDbEntity
  8
0-3_仕上げ
  6
Continuous
 62
     7
370
     9
100
AcDbLine
 10
-3878.000018557984
 20
3268.500148463893
 30
0.0
 11
-3879.500018557982
 21
3267.000148463893
 31
0.0
  0
LINE
  5
309
330
1F
100
AcDbEntity
  8
0-3_仕上げ
  6
Continuous
 62
     7
370
     9
100
AcDbLine
 10
-3877.000018557985
 20
3264.500148463893
 30
0.0
 11
-3879.500018557982
 21
3267.000148463893
 31
0.0
  0
LINE
  5
30A
330
1F
100
AcDbEntity
  8
0-3_仕上げ
  6
Continuous
 62
     7
370
     9
100
AcDbLine
 10
-3240.000018557984
 20
3268.500148463893
 30
0.0
 11
-3878.000018557984
 21
3268.500148463893
 31
0.0
  0
LINE
  5
30B
330
1F
100
AcDbEntity
  8
0-3_仕上げ
  6
Continuous
 62
     7
370
     9
100
AcDbLine
 10
-3240.000018557984
 20
2302.500148463893
 30
0.0
 11
-3878.000018557984
 21
2302.500148463893
 31
0.0
  0
LINE
  5
30C
330
1F
100
AcDbEntity
  8
0-3_仕上げ
  6
Continuous
 62
     7
370
     9
100
AcDbLine
 10
-3878.000018557984
 20
2210.500148463894
 30
0.0
 11
-3240.000018557984
 21
2210.500148463894
 31
0.0
  0
LINE
  5
30D
330
1F
100
AcDbEntity
  8
0-3_仕上げ
  6
Continuous
 62
     7
370
     9
100
AcDbLine
 10
-3878.000018557984
 20
2210.500148463894
 30
0.0
 11
-3879.500018557982
 21
2209.000148463893
 31
0.0
  0
LINE
  5
30E
330
1F
100
AcDbEntity
  8
0-3_仕上げ
  6
Continuous
 62
     7
370
     9
100
AcDbLine
 10
-3877.000018557985
 20
2206.500148463894
 30
0.0
 11
-3879.500018557982
 21
2209.000148463893
 31
0.0
  0
LINE
  5
30F
330
1F
100
AcDbEntity
  8
0-3_仕上げ
  6
Continuous
 62
     7
370
     9
100
AcDbLine
 10
-3878.000018557984
 20
2302.500148463893
 30
0.0
 11
-3879.500018557982
 21
2304.000148463894
 31
0.0
  0
LINE
  5
310
330
1F
100
AcDbEntity
  8
0-3_仕上げ
  6
Continuous
 62
     7
370
     9
100
AcDbLine
 10
-3879.500018557982
 20
2304.000148463894
 30
0.0
 11
-3877.000018557985
 21
2306.500148463893
 31
0.0
  0
LINE
  5
311
330
1F
100
AcDbEntity
  8
0-3_仕上げ
  6
Continuous
 62
     7
370
     9
100
AcDbLine
 10
-3879.500018557982
 20
2209.000148463893
 30
0.0
 11
-3879.500018557982
 21
2304.000148463894
 31
0.0
  0
LINE
  5
312
330
1F
100
AcDbEntity
  8
0-3_仕上げ
  6
Continuous
 62
     7
370
     9
100
AcDbLine
 10
-3881.000018557984
 20
1427.000148463893
 30
0.0
 11
-3881.000018557984
 21
3410.000148463894
 31
0.0
  0
LINE
  5
313
330
1F
100
AcDbEntity
  8
0-3_仕上げ
  6
Continuous
 62
     7
370
     9
100
AcDbLine
 10
-3879.500018557982
 20
3267.000148463893
 30
0.0
 11
-3879.500018557982
 21
3410.000148463894
 31
0.0
  0
LINE
  5
314
330
1F
100
AcDbEntity
  8
0-3_仕上げ
  6
Continuous
 62
     7
370
     9
100
AcDbLine
 10
-3878.000018557984
 20
3268.500148463893
 30
0.0
 11
-3878.000018557984
 21
3410.000148463894
 31
0.0
  0
ARC
  5
315
330
1F
100
AcDbEntity
  8
0-3_仕上げ
  6
JWW_CENTER1
 62
   120
370
     5
100
AcDbCircle
 10
-3768.878213924908
 20
2515.321368112184
 30
0.0
 40
60.0
100
AcDbArc
 50
305.5422590305548
 51
356.3485327712913
  0
ARC
  5
316
330
1F
100
AcDbEntity
  8
0-3_仕上げ
  6
Continuous
 62
   120
370
     5
100
AcDbCircle
 10
-3768.878213924908
 20
2515.321368112184
 30
0.0
 40
57.0
100
AcDbArc
 50
306.497670255926
 51
356.2536402876231
  0
ARC
  5
317
330
1F
100
AcDbEntity
  8
0-3_仕上げ
  6
JWW_CENTER1
 62
   120
370
     5
100
AcDbCircle
 10
-3768.878213924908
 20
2417.678928815601
 30
0.0
 40
60.0
100
AcDbArc
 50
3.651467228708674
 51
54.45774096944522
  0
ARC
  5
318
330
1F
100
AcDbEntity
  8
0-3_仕上げ
  6
Continuous
 62
   120
370
     5
100
AcDbCircle
 10
-3768.878213924908
 20
2417.678928815601
 30
0.0
 40
57.0
100
AcDbArc
 50
3.74635971237695
 51
53.50232974407398
  0
ARC
  5
319
330
1F
100
AcDbEntity
  8
0-3_仕上げ
  6
Continuous
 62
   120
370
     5
100
AcDbCircle
 10
-3768.878213924908
 20
3065.678928815603
 30
0.0
 40
57.0
100
AcDbArc
 50
3.746359712376933
 51
53.50232974407399
  0
ARC
  5
31A
330
1F
100
AcDbEntity
  8
0-3_仕上げ
  6
JWW_CENTER1
 62
   120
370
     5
100
AcDbCircle
 10
-3768.878213924908
 20
3065.678928815603
 30
0.0
 40
60.0
100
AcDbArc
 50
3.651467228709083
 51
54.45774096944522
  0
ARC
  5
31B
330
1F
100
AcDbEntity
  8
0-3_仕上げ
  6
JWW_CENTER1
 62
   120
370
     5
100
AcDbCircle
 10
-3768.878213924908
 20
3163.321368112185
 30
0.0
 40
60.0
100
AcDbArc
 50
305.5422590305548
 51
356.3485327712909
  0
ARC
  5
31C
330
1F
100
AcDbEntity
  8
0-3_仕上げ
  6
Continuous
 62
   120
370
     5
100
AcDbCircle
 10
-3768.878213924908
 20
3163.321368112185
 30
0.0
 40
57.0
100
AcDbArc
 50
306.497670255926
 51
356.3485327712909
  0
ARC
  5
31D
330
1F
100
AcDbEntity
  8
0-3_仕上げ
  6
Continuous
 62
   120
370
     5
100
AcDbCircle
 10
-3349.121823191061
 20
3163.321368112185
 30
0.0
 40
57.0
100
AcDbArc
 50
183.6514672287091
 51
233.502329744074
  0
ARC
  5
31E
330
1F
100
AcDbEntity
  8
0-3_仕上げ
  6
Continuous
 62
   120
370
     5
100
AcDbCircle
 10
-3349.121823191061
 20
3065.678928815603
 30
0.0
 40
57.0
100
AcDbArc
 50
126.497670255926
 51
176.2536402876275
  0
LINE
  5
31F
330
1F
100
AcDbEntity
  8
0-3_仕上げ
  6
JWW_CENTER1
 62
   120
370
     5
100
AcDbLine
 10
-3409.000018557982
 20
2306.500148463893
 30
0.0
 11
-3409.000018557982
 21
2421.500148463893
 31
0.0
  0
ARC
  5
320
330
1F
100
AcDbEntity
  8
0-3_仕上げ
  6
JWW_CENTER1
 62
   120
370
     5
100
AcDbCircle
 10
-3349.121823191061
 20
2417.678928815601
 30
0.0
 40
60.0
100
AcDbArc
 50
125.5422590305548
 51
176.348532771291
  0
LINE
  5
321
330
1F
100
AcDbEntity
  8
0-3_仕上げ
  6
Continuous
 62
   120
370
     5
100
AcDbLine
 10
-3406.000018557982
 20
2306.500148463893
 30
0.0
 11
-3406.000018557982
 21
2421.403293432823
 31
0.0
  0
ARC
  5
322
330
1F
100
AcDbEntity
  8
0-3_仕上げ
  6
Continuous
 62
   120
370
     5
100
AcDbCircle
 10
-3349.121823191061
 20
2417.678928815601
 30
0.0
 40
57.0
100
AcDbArc
 50
126.497670255926
 51
176.2536402876256
  0
ARC
  5
323
330
1F
100
AcDbEntity
  8
0-3_仕上げ
  6
Continuous
 62
   120
370
     5
100
AcDbCircle
 10
-3349.121823191061
 20
2515.321368112184
 30
0.0
 40
57.0
100
AcDbArc
 50
183.7463597123748
 51
233.502329744074
  0
LINE
  5
324
330
1F
100
AcDbEntity
  8
0-3_仕上げ
  6
Continuous
 62
   120
370
     5
100
AcDbLine
 10
-3406.000018557982
 20
2511.597003494961
 30
0.0
 11
-3406.000018557982
 21
3069.403293432826
 31
0.0
  0
ARC
  5
325
330
1F
100
AcDbEntity
  8
0-3_仕上げ
  6
JWW_CENTER1
 62
   120
370
     5
100
AcDbCircle
 10
-3468.878213924908
 20
2515.321368112184
 30
0.0
 40
60.0
100
AcDbArc
 50
305.5422590305548
 51
356.3485327712913
  0
LINE
  5
326
330
1F
100
AcDbEntity
  8
0-3_仕上げ
  6
JWW_CENTER1
 62
   120
370
     5
100
AcDbLine
 10
-3409.000018557982
 20
2511.500148463895
 30
0.0
 11
-3409.000018557982
 21
3069.500148463892
 31
0.0
  0
LINE
  5
327
330
1F
100
AcDbEntity
  8
0-3_仕上げ
  6
Continuous
 62
   120
370
     5
100
AcDbLine
 10
-3412.000018557983
 20
2306.500148463893
 30
0.0
 11
-3412.000018557983
 21
2421.403293432827
 31
0.0
  0
ARC
  5
328
330
1F
100
AcDbEntity
  8
0-3_仕上げ
  6
Continuous
 62
   120
370
     5
100
AcDbCircle
 10
-3468.878213924908
 20
2417.678928815601
 30
0.0
 40
57.0
100
AcDbArc
 50
3.74635971237695
 51
53.50232974407399
  0
LINE
  5
329
330
1F
100
AcDbEntity
  8
0-3_仕上げ
  6
Continuous
 62
   120
370
     5
100
AcDbLine
 10
-3412.000018557983
 20
2511.597003494958
 30
0.0
 11
-3412.000018557983
 21
3069.403293432829
 31
0.0
  0
ARC
  5
32A
330
1F
100
AcDbEntity
  8
0-3_仕上げ
  6
Continuous
 62
   120
370
     5
100
AcDbCircle
 10
-3468.878213924908
 20
2515.321368112184
 30
0.0
 40
57.0
100
AcDbArc
 50
306.497670255926
 51
356.2536402876231
  0
ARC
  5
32B
330
1F
100
AcDbEntity
  8
0-3_仕上げ
  6
JWW_CENTER1
 62
   120
370
     5
100
AcDbCircle
 10
-3468.878213924908
 20
2417.678928815601
 30
0.0
 40
60.0
100
AcDbArc
 50
3.651467228708674
 51
54.45774096944522
  0
ARC
  5
32C
330
1F
100
AcDbEntity
  8
0-3_仕上げ
  6
Continuous
 62
   120
370
     5
100
AcDbCircle
 10
-3468.878213924908
 20
2417.678928815601
 30
0.0
 40
63.0
100
AcDbArc
 50
18.11257084805418
 51
50.79959257815202
  0
ARC
  5
32D
330
1F
100
AcDbEntity
  8
0-3_仕上げ
  6
Continuous
 62
   120
370
     5
100
AcDbCircle
 10
-3468.878213924908
 20
2515.321368112184
 30
0.0
 40
63.0
100
AcDbArc
 50
309.200407421848
 51
341.8874291519458
  0
ARC
  5
32E
330
1F
100
AcDbEntity
  8
0-3_仕上げ
  6
Continuous
 62
   120
370
     5
100
AcDbCircle
 10
-3349.121823191061
 20
2515.321368112184
 30
0.0
 40
63.0
100
AcDbArc
 50
198.1125708480542
 51
230.799592578152
  0
ARC
  5
32F
330
1F
100
AcDbEntity
  8
0-3_仕上げ
  6
Continuous
 62
   120
370
     5
100
AcDbCircle
 10
-3349.121823191061
 20
2417.678928815601
 30
0.0
 40
63.0
100
AcDbArc
 50
129.200407421848
 51
161.8874291519458
  0
ARC
  5
330
330
1F
100
AcDbEntity
  8
0-3_仕上げ
  6
JWW_CENTER1
 62
   120
370
     5
100
AcDbCircle
 10
-3349.121823191061
 20
2515.321368112184
 30
0.0
 40
60.0
100
AcDbArc
 50
183.6514672287091
 51
234.4577409694452
  0
ARC
  5
331
330
1F
100
AcDbEntity
  8
0-3_仕上げ
  6
JWW_CENTER1
 62
   120
370
     5
100
AcDbCircle
 10
-3468.878213924908
 20
3065.678928815603
 30
0.0
 40
60.0
100
AcDbArc
 50
3.651467228708674
 51
54.45774096944522
  0
ARC
  5
332
330
1F
100
AcDbEntity
  8
0-3_仕上げ
  6
Continuous
 62
   120
370
     5
100
AcDbCircle
 10
-3468.878213924908
 20
3065.678928815603
 30
0.0
 40
57.0
100
AcDbArc
 50
3.746359712376933
 51
53.50232974407399
  0
LINE
  5
333
330
1F
100
AcDbEntity
  8
0-3_仕上げ
  6
Continuous
 62
   120
370
     5
100
AcDbLine
 10
-3406.000018557982
 20
3159.597003494962
 30
0.0
 11
-3406.000018557982
 21
3264.500148463892
 31
0.0
  0
ARC
  5
334
330
1F
100
AcDbEntity
  8
0-3_仕上げ
  6
JWW_CENTER1
 62
   120
370
     5
100
AcDbCircle
 10
-3468.878213924908
 20
3163.321368112185
 30
0.0
 40
60.0
100
AcDbArc
 50
305.5422590305548
 51
356.3485327712913
  0
LINE
  5
335
330
1F
100
AcDbEntity
  8
0-3_仕上げ
  6
JWW_CENTER1
 62
   120
370
     5
100
AcDbLine
 10
-3409.000018557982
 20
3159.500148463892
 30
0.0
 11
-3409.000018557982
 21
3264.500148463892
 31
0.0
  0
LINE
  5
336
330
1F
100
AcDbEntity
  8
0-3_仕上げ
  6
Continuous
 62
   120
370
     5
100
AcDbLine
 10
-3412.000018557983
 20
3159.597003494959
 30
0.0
 11
-3412.000018557983
 21
3264.500148463892
 31
0.0
  0
ARC
  5
337
330
1F
100
AcDbEntity
  8
0-3_仕上げ
  6
Continuous
 62
   120
370
     5
100
AcDbCircle
 10
-3468.878213924908
 20
3163.321368112185
 30
0.0
 40
57.0
100
AcDbArc
 50
306.497670255926
 51
356.2536402876231
  0
ARC
  5
338
330
1F
100
AcDbEntity
  8
0-3_仕上げ
  6
Continuous
 62
   120
370
     5
100
AcDbCircle
 10
-3468.878213924908
 20
3065.678928815603
 30
0.0
 40
63.0
100
AcDbArc
 50
18.11257084805418
 51
50.79959257815202
  0
ARC
  5
339
330
1F
100
AcDbEntity
  8
0-3_仕上げ
  6
Continuous
 62
   120
370
     5
100
AcDbCircle
 10
-3468.878213924908
 20
3163.321368112185
 30
0.0
 40
63.0
100
AcDbArc
 50
309.200407421848
 51
341.8874291519458
  0
ARC
  5
33A
330
1F
100
AcDbEntity
  8
0-3_仕上げ
  6
Continuous
 62
   120
370
     5
100
AcDbCircle
 10
-3349.121823191061
 20
3163.321368112185
 30
0.0
 40
63.0
100
AcDbArc
 50
198.1125708480542
 51
230.799592578152
  0
ARC
  5
33B
330
1F
100
AcDbEntity
  8
0-3_仕上げ
  6
Continuous
 62
   120
370
     5
100
AcDbCircle
 10
-3349.121823191061
 20
3065.678928815603
 30
0.0
 40
63.0
100
AcDbArc
 50
129.200407421848
 51
161.8874291519458
  0
ARC
  5
33C
330
1F
100
AcDbEntity
  8
0-3_仕上げ
  6
JWW_CENTER1
 62
   120
370
     5
100
AcDbCircle
 10
-3349.121823191061
 20
3065.678928815603
 30
0.0
 40
60.0
100
AcDbArc
 50
125.5422590305548
 51
176.3485327712908
  0
ARC
  5
33D
330
1F
100
AcDbEntity
  8
0-3_仕上げ
  6
JWW_CENTER1
 62
   120
370
     5
100
AcDbCircle
 10
-3349.121823191061
 20
3163.321368112185
 30
0.0
 40
60.0
100
AcDbArc
 50
183.6514672287091
 51
234.4577409694452
  0
ARC
  5
33E
330
1F
100
AcDbEntity
  8
0-3_仕上げ
  6
Continuous
 62
   120
370
     5
100
AcDbCircle
 10
-3449.121823191058
 20
3163.321368112185
 30
0.0
 40
57.0
100
AcDbArc
 50
183.6514672287091
 51
233.502329744074
  0
ARC
  5
33F
330
1F
100
AcDbEntity
  8
0-3_仕上げ
  6
Continuous
 62
   120
370
     5
100
AcDbCircle
 10
-3449.121823191058
 20
3065.678928815603
 30
0.0
 40
57.0
100
AcDbArc
 50
126.497670255926
 51
176.2536402876275
  0
LINE
  5
340
330
1F
100
AcDbEntity
  8
0-3_仕上げ
  6
JWW_CENTER1
 62
   120
370
     5
100
AcDbLine
 10
-3484.000018557982
 20
3114.500148463892
 30
0.0
 11
-3434.000018557983
 21
3114.500148463892
 31
0.0
  0
LINE
  5
341
330
1F
100
AcDbEntity
  8
0-3_仕上げ
  6
Continuous
 62
   120
370
     5
100
AcDbLine
 10
-3483.024858895008
 20
3117.500148463893
 30
0.0
 11
-3434.975178220961
 21
3117.500148463893
 31
0.0
  0
LINE
  5
342
330
1F
100
AcDbEntity
  8
0-3_仕上げ
  6
Continuous
 62
   120
370
     5
100
AcDbLine
 10
-3483.024858895008
 20
3111.500148463895
 30
0.0
 11
-3434.975178220961
 21
3111.500148463895
 31
0.0
  0
LINE
  5
343
330
1F
100
AcDbEntity
  8
0-3_仕上げ
  6
JWW_CENTER1
 62
   120
370
     5
100
AcDbLine
 10
-3509.000018557983
 20
2306.500148463893
 30
0.0
 11
-3509.000018557983
 21
2421.500148463893
 31
0.0
  0
ARC
  5
344
330
1F
100
AcDbEntity
  8
0-3_仕上げ
  6
JWW_CENTER1
 62
   120
370
     5
100
AcDbCircle
 10
-3449.121823191058
 20
2417.678928815601
 30
0.0
 40
60.0
100
AcDbArc
 50
125.5422590305548
 51
176.348532771291
  0
LINE
  5
345
330
1F
100
AcDbEntity
  8
0-3_仕上げ
  6
Continuous
 62
   120
370
     5
100
AcDbLine
 10
-3506.000018557983
 20
2306.500148463893
 30
0.0
 11
-3506.000018557983
 21
2421.403293432823
 31
0.0
  0
ARC
  5
346
330
1F
100
AcDbEntity
  8
0-3_仕上げ
  6
Continuous
 62
   120
370
     5
100
AcDbCircle
 10
-3449.121823191058
 20
2417.678928815601
 30
0.0
 40
57.0
100
AcDbArc
 50
126.497670255926
 51
176.2536402876256
  0
ARC
  5
347
330
1F
100
AcDbEntity
  8
0-3_仕上げ
  6
Continuous
 62
   120
370
     5
100
AcDbCircle
 10
-3449.121823191058
 20
2515.321368112184
 30
0.0
 40
57.0
100
AcDbArc
 50
183.7463597123748
 51
233.502329744074
  0
LINE
  5
348
330
1F
100
AcDbEntity
  8
0-3_仕上げ
  6
Continuous
 62
   120
370
     5
100
AcDbLine
 10
-3506.000018557983
 20
2511.597003494961
 30
0.0
 11
-3506.000018557983
 21
3069.403293432826
 31
0.0
  0
ARC
  5
349
330
1F
100
AcDbEntity
  8
0-3_仕上げ
  6
JWW_CENTER1
 62
   120
370
     5
100
AcDbCircle
 10
-3568.878213924909
 20
2515.321368112184
 30
0.0
 40
60.0
100
AcDbArc
 50
305.5422590305548
 51
356.3485327712913
  0
LINE
  5
34A
330
1F
100
AcDbEntity
  8
0-3_仕上げ
  6
JWW_CENTER1
 62
   120
370
     5
100
AcDbLine
 10
-3509.000018557983
 20
2511.500148463895
 30
0.0
 11
-3509.000018557983
 21
3069.500148463892
 31
0.0
  0
LINE
  5
34B
330
1F
100
AcDbEntity
  8
0-3_仕上げ
  6
Continuous
 62
   120
370
     5
100
AcDbLine
 10
-3483.024858895008
 20
2469.500148463892
 30
0.0
 11
-3434.975178220961
 21
2469.500148463892
 31
0.0
  0
LINE
  5
34C
330
1F
100
AcDbEntity
  8
0-3_仕上げ
  6
JWW_CENTER1
 62
   120
370
     5
100
AcDbLine
 10
-3484.000018557982
 20
2466.500148463891
 30
0.0
 11
-3434.000018557983
 21
2466.500148463891
 31
0.0
  0
LINE
  5
34D
330
1F
100
AcDbEntity
  8
0-3_仕上げ
  6
Continuous
 62
   120
370
     5
100
AcDbLine
 10
-3483.024858895008
 20
2463.500148463894
 30
0.0
 11
-3434.975178220961
 21
2463.500148463894
 31
0.0
  0
LINE
  5
34E
330
1F
100
AcDbEntity
  8
0-3_仕上げ
  6
Continuous
 62
   120
370
     5
100
AcDbLine
 10
-3512.000018557984
 20
2306.500148463893
 30
0.0
 11
-3512.000018557984
 21
2421.403293432827
 31
0.0
  0
ARC
  5
34F
330
1F
100
AcDbEntity
  8
0-3_仕上げ
  6
Continuous
 62
   120
370
     5
100
AcDbCircle
 10
-3568.878213924909
 20
2417.678928815601
 30
0.0
 40
57.0
100
AcDbArc
 50
3.74635971237695
 51
53.50232974407399
  0
LINE
  5
350
330
1F
100
AcDbEntity
  8
0-3_仕上げ
  6
Continuous
 62
   120
370
     5
100
AcDbLine
 10
-3512.000018557984
 20
2511.597003494958
 30
0.0
 11
-3512.000018557984
 21
3069.403293432829
 31
0.0
  0
ARC
  5
351
330
1F
100
AcDbEntity
  8
0-3_仕上げ
  6
Continuous
 62
   120
370
     5
100
AcDbCircle
 10
-3568.878213924909
 20
2515.321368112184
 30
0.0
 40
57.0
100
AcDbArc
 50
306.497670255926
 51
356.2536402876231
  0
ARC
  5
352
330
1F
100
AcDbEntity
  8
0-3_仕上げ
  6
JWW_CENTER1
 62
   120
370
     5
100
AcDbCircle
 10
-3568.878213924909
 20
2417.678928815601
 30
0.0
 40
60.0
100
AcDbArc
 50
3.651467228708674
 51
54.45774096944522
  0
ARC
  5
353
330
1F
100
AcDbEntity
  8
0-3_仕上げ
  6
Continuous
 62
   120
370
     5
100
AcDbCircle
 10
-3568.878213924909
 20
2417.678928815601
 30
0.0
 40
63.0
100
AcDbArc
 50
18.11257084805418
 51
50.79959257815202
  0
ARC
  5
354
330
1F
100
AcDbEntity
  8
0-3_仕上げ
  6
Continuous
 62
   120
370
     5
100
AcDbCircle
 10
-3568.878213924909
 20
2515.321368112184
 30
0.0
 40
63.0
100
AcDbArc
 50
309.200407421848
 51
341.8874291519458
  0
ARC
  5
355
330
1F
100
AcDbEntity
  8
0-3_仕上げ
  6
Continuous
 62
   120
370
     5
100
AcDbCircle
 10
-3449.121823191058
 20
2515.321368112184
 30
0.0
 40
63.0
100
AcDbArc
 50
198.1125708480542
 51
230.799592578152
  0
ARC
  5
356
330
1F
100
AcDbEntity
  8
0-3_仕上げ
  6
Continuous
 62
   120
370
     5
100
AcDbCircle
 10
-3449.121823191058
 20
2417.678928815601
 30
0.0
 40
63.0
100
AcDbArc
 50
129.200407421848
 51
161.8874291519458
  0
ARC
  5
357
330
1F
100
AcDbEntity
  8
0-3_仕上げ
  6
JWW_CENTER1
 62
   120
370
     5
100
AcDbCircle
 10
-3449.121823191058
 20
2515.321368112184
 30
0.0
 40
60.0
100
AcDbArc
 50
183.6514672287091
 51
234.4577409694452
  0
ARC
  5
358
330
1F
100
AcDbEntity
  8
0-3_仕上げ
  6
JWW_CENTER1
 62
   120
370
     5
100
AcDbCircle
 10
-3568.878213924909
 20
3065.678928815603
 30
0.0
 40
60.0
100
AcDbArc
 50
3.651467228708674
 51
54.45774096944522
  0
ARC
  5
359
330
1F
100
AcDbEntity
  8
0-3_仕上げ
  6
Continuous
 62
   120
370
     5
100
AcDbCircle
 10
-3568.878213924909
 20
3065.678928815603
 30
0.0
 40
57.0
100
AcDbArc
 50
3.746359712376933
 51
53.50232974407399
  0
LINE
  5
35A
330
1F
100
AcDbEntity
  8
0-3_仕上げ
  6
Continuous
 62
   120
370
     5
100
AcDbLine
 10
-3506.000018557983
 20
3159.597003494962
 30
0.0
 11
-3506.000018557983
 21
3264.500148463892
 31
0.0
  0
ARC
  5
35B
330
1F
100
AcDbEntity
  8
0-3_仕上げ
  6
JWW_CENTER1
 62
   120
370
     5
100
AcDbCircle
 10
-3568.878213924909
 20
3163.321368112185
 30
0.0
 40
60.0
100
AcDbArc
 50
305.5422590305548
 51
356.3485327712913
  0
LINE
  5
35C
330
1F
100
AcDbEntity
  8
0-3_仕上げ
  6
JWW_CENTER1
 62
   120
370
     5
100
AcDbLine
 10
-3509.000018557983
 20
3159.500148463892
 30
0.0
 11
-3509.000018557983
 21
3264.500148463892
 31
0.0
  0
LINE
  5
35D
330
1F
100
AcDbEntity
  8
0-3_仕上げ
  6
Continuous
 62
   120
370
     5
100
AcDbLine
 10
-3512.000018557984
 20
3159.597003494959
 30
0.0
 11
-3512.000018557984
 21
3264.500148463892
 31
0.0
  0
ARC
  5
35E
330
1F
100
AcDbEntity
  8
0-3_仕上げ
  6
Continuous
 62
   120
370
     5
100
AcDbCircle
 10
-3568.878213924909
 20
3163.321368112185
 30
0.0
 40
57.0
100
AcDbArc
 50
306.497670255926
 51
356.2536402876231
  0
ARC
  5
35F
330
1F
100
AcDbEntity
  8
0-3_仕上げ
  6
Continuous
 62
   120
370
     5
100
AcDbCircle
 10
-3568.878213924909
 20
3065.678928815603
 30
0.0
 40
63.0
100
AcDbArc
 50
18.11257084805418
 51
50.79959257815202
  0
ARC
  5
360
330
1F
100
AcDbEntity
  8
0-3_仕上げ
  6
Continuous
 62
   120
370
     5
100
AcDbCircle
 10
-3568.878213924909
 20
3163.321368112185
 30
0.0
 40
63.0
100
AcDbArc
 50
309.200407421848
 51
341.8874291519458
  0
ARC
  5
361
330
1F
100
AcDbEntity
  8
0-3_仕上げ
  6
Continuous
 62
   120
370
     5
100
AcDbCircle
 10
-3449.121823191058
 20
3163.321368112185
 30
0.0
 40
63.0
100
AcDbArc
 50
198.1125708480542
 51
230.799592578152
  0
ARC
  5
362
330
1F
100
AcDbEntity
  8
0-3_仕上げ
  6
Continuous
 62
   120
370
     5
100
AcDbCircle
 10
-3449.121823191058
 20
3065.678928815603
 30
0.0
 40
63.0
100
AcDbArc
 50
129.200407421848
 51
161.8874291519458
  0
ARC
  5
363
330
1F
100
AcDbEntity
  8
0-3_仕上げ
  6
JWW_CENTER1
 62
   120
370
     5
100
AcDbCircle
 10
-3449.121823191058
 20
3065.678928815603
 30
0.0
 40
60.0
100
AcDbArc
 50
125.5422590305548
 51
176.3485327712908
  0
ARC
  5
364
330
1F
100
AcDbEntity
  8
0-3_仕上げ
  6
JWW_CENTER1
 62
   120
370
     5
100
AcDbCircle
 10
-3449.121823191058
 20
3163.321368112185
 30
0.0
 40
60.0
100
AcDbArc
 50
183.6514672287091
 51
234.4577409694452
  0
ARC
  5
365
330
1F
100
AcDbEntity
  8
0-3_仕上げ
  6
Continuous
 62
   120
370
     5
100
AcDbCircle
 10
-3549.121823191059
 20
3163.321368112185
 30
0.0
 40
57.0
100
AcDbArc
 50
183.6514672287091
 51
233.502329744074
  0
ARC
  5
366
330
1F
100
AcDbEntity
  8
0-3_仕上げ
  6
Continuous
 62
   120
370
     5
100
AcDbCircle
 10
-3549.121823191059
 20
3065.678928815603
 30
0.0
 40
57.0
100
AcDbArc
 50
126.497670255926
 51
176.2536402876275
  0
LINE
  5
367
330
1F
100
AcDbEntity
  8
0-3_仕上げ
  6
JWW_CENTER1
 62
   120
370
     5
100
AcDbLine
 10
-3584.000018557983
 20
3114.500148463892
 30
0.0
 11
-3534.000018557985
 21
3114.500148463892
 31
0.0
  0
LINE
  5
368
330
1F
100
AcDbEntity
  8
0-3_仕上げ
  6
Continuous
 62
   120
370
     5
100
AcDbLine
 10
-3583.024858895005
 20
3117.500148463893
 30
0.0
 11
-3534.975178220959
 21
3117.500148463893
 31
0.0
  0
LINE
  5
369
330
1F
100
AcDbEntity
  8
0-3_仕上げ
  6
Continuous
 62
   120
370
     5
100
AcDbLine
 10
-3583.024858895005
 20
3111.500148463895
 30
0.0
 11
-3534.975178220959
 21
3111.500148463895
 31
0.0
  0
LINE
  5
36A
330
1F
100
AcDbEntity
  8
0-3_仕上げ
  6
JWW_CENTER1
 62
   120
370
     5
100
AcDbLine
 10
-3609.000018557985
 20
2306.500148463893
 30
0.0
 11
-3609.000018557985
 21
2421.500148463893
 31
0.0
  0
ARC
  5
36B
330
1F
100
AcDbEntity
  8
0-3_仕上げ
  6
JWW_CENTER1
 62
   120
370
     5
100
AcDbCircle
 10
-3549.121823191059
 20
2417.678928815601
 30
0.0
 40
60.0
100
AcDbArc
 50
125.5422590305548
 51
176.348532771291
  0
LINE
  5
36C
330
1F
100
AcDbEntity
  8
0-3_仕上げ
  6
Continuous
 62
   120
370
     5
100
AcDbLine
 10
-3606.000018557984
 20
2306.500148463893
 30
0.0
 11
-3606.000018557984
 21
2421.403293432823
 31
0.0
  0
ARC
  5
36D
330
1F
100
AcDbEntity
  8
0-3_仕上げ
  6
Continuous
 62
   120
370
     5
100
AcDbCircle
 10
-3549.121823191059
 20
2417.678928815601
 30
0.0
 40
57.0
100
AcDbArc
 50
126.497670255926
 51
176.2536402876256
  0
ARC
  5
36E
330
1F
100
AcDbEntity
  8
0-3_仕上げ
  6
Continuous
 62
   120
370
     5
100
AcDbCircle
 10
-3549.121823191059
 20
2515.321368112184
 30
0.0
 40
57.0
100
AcDbArc
 50
183.7463597123748
 51
233.502329744074
  0
LINE
  5
36F
330
1F
100
AcDbEntity
  8
0-3_仕上げ
  6
Continuous
 62
   120
370
     5
100
AcDbLine
 10
-3606.000018557984
 20
2511.597003494961
 30
0.0
 11
-3606.000018557984
 21
3069.403293432826
 31
0.0
  0
ARC
  5
370
330
1F
100
AcDbEntity
  8
0-3_仕上げ
  6
JWW_CENTER1
 62
   120
370
     5
100
AcDbCircle
 10
-3668.878213924907
 20
2515.321368112184
 30
0.0
 40
60.0
100
AcDbArc
 50
305.5422590305548
 51
356.3485327712913
  0
LINE
  5
371
330
1F
100
AcDbEntity
  8
0-3_仕上げ
  6
JWW_CENTER1
 62
   120
370
     5
100
AcDbLine
 10
-3609.000018557985
 20
2511.500148463895
 30
0.0
 11
-3609.000018557985
 21
3069.500148463892
 31
0.0
  0
LINE
  5
372
330
1F
100
AcDbEntity
  8
0-3_仕上げ
  6
Continuous
 62
   120
370
     5
100
AcDbLine
 10
-3583.024858895005
 20
2469.500148463892
 30
0.0
 11
-3534.975178220959
 21
2469.500148463892
 31
0.0
  0
LINE
  5
373
330
1F
100
AcDbEntity
  8
0-3_仕上げ
  6
JWW_CENTER1
 62
   120
370
     5
100
AcDbLine
 10
-3584.000018557983
 20
2466.500148463891
 30
0.0
 11
-3534.000018557985
 21
2466.500148463891
 31
0.0
  0
LINE
  5
374
330
1F
100
AcDbEntity
  8
0-3_仕上げ
  6
Continuous
 62
   120
370
     5
100
AcDbLine
 10
-3583.024858895005
 20
2463.500148463894
 30
0.0
 11
-3534.975178220959
 21
2463.500148463894
 31
0.0
  0
LINE
  5
375
330
1F
100
AcDbEntity
  8
0-3_仕上げ
  6
Continuous
 62
   120
370
     5
100
AcDbLine
 10
-3612.000018557985
 20
2306.500148463893
 30
0.0
 11
-3612.000018557985
 21
2421.403293432827
 31
0.0
  0
ARC
  5
376
330
1F
100
AcDbEntity
  8
0-3_仕上げ
  6
Continuous
 62
   120
370
     5
100
AcDbCircle
 10
-3668.878213924907
 20
2417.678928815601
 30
0.0
 40
57.0
100
AcDbArc
 50
3.74635971237695
 51
53.50232974407399
  0
LINE
  5
377
330
1F
100
AcDbEntity
  8
0-3_仕上げ
  6
Continuous
 62
   120
370
     5
100
AcDbLine
 10
-3612.000018557985
 20
2511.597003494958
 30
0.0
 11
-3612.000018557985
 21
3069.403293432829
 31
0.0
  0
ARC
  5
378
330
1F
100
AcDbEntity
  8
0-3_仕上げ
  6
Continuous
 62
   120
370
     5
100
AcDbCircle
 10
-3668.878213924907
 20
2515.321368112184
 30
0.0
 40
57.0
100
AcDbArc
 50
306.497670255926
 51
356.2536402876231
  0
ARC
  5
379
330
1F
100
AcDbEntity
  8
0-3_仕上げ
  6
JWW_CENTER1
 62
   120
370
     5
100
AcDbCircle
 10
-3668.878213924907
 20
2417.678928815601
 30
0.0
 40
60.0
100
AcDbArc
 50
3.651467228708674
 51
54.45774096944522
  0
LINE
  5
37A
330
1F
100
AcDbEntity
  8
0-3_仕上げ
  6
JWW_CENTER1
 62
   120
370
     5
100
AcDbLine
 10
-3684.000018557985
 20
2466.500148463891
 30
0.0
 11
-3634.000018557982
 21
2466.500148463891
 31
0.0
  0
LINE
  5
37B
330
1F
100
AcDbEntity
  8
0-3_仕上げ
  6
Continuous
 62
   120
370
     5
100
AcDbLine
 10
-3683.024858895006
 20
2463.500148463894
 30
0.0
 11
-3634.975178220961
 21
2463.500148463894
 31
0.0
  0
LINE
  5
37C
330
1F
100
AcDbEntity
  8
0-3_仕上げ
  6
Continuous
 62
   120
370
     5
100
AcDbLine
 10
-3683.024858895006
 20
2469.500148463892
 30
0.0
 11
-3634.975178220961
 21
2469.500148463892
 31
0.0
  0
ARC
  5
37D
330
1F
100
AcDbEntity
  8
0-3_仕上げ
  6
Continuous
 62
   120
370
     5
100
AcDbCircle
 10
-3668.878213924907
 20
2417.678928815601
 30
0.0
 40
63.0
100
AcDbArc
 50
18.11257084805418
 51
50.79959257815202
  0
ARC
  5
37E
330
1F
100
AcDbEntity
  8
0-3_仕上げ
  6
Continuous
 62
   120
370
     5
100
AcDbCircle
 10
-3668.878213924907
 20
2515.321368112184
 30
0.0
 40
63.0
100
AcDbArc
 50
309.200407421848
 51
341.8874291519458
  0
ARC
  5
37F
330
1F
100
AcDbEntity
  8
0-3_仕上げ
  6
Continuous
 62
   120
370
     5
100
AcDbCircle
 10
-3549.121823191059
 20
2515.321368112184
 30
0.0
 40
63.0
100
AcDbArc
 50
198.1125708480542
 51
230.799592578152
  0
ARC
  5
380
330
1F
100
AcDbEntity
  8
0-3_仕上げ
  6
Continuous
 62
   120
370
     5
100
AcDbCircle
 10
-3549.121823191059
 20
2417.678928815601
 30
0.0
 40
63.0
100
AcDbArc
 50
129.200407421848
 51
161.8874291519458
  0
ARC
  5
381
330
1F
100
AcDbEntity
  8
0-3_仕上げ
  6
JWW_CENTER1
 62
   120
370
     5
100
AcDbCircle
 10
-3549.121823191059
 20
2515.321368112184
 30
0.0
 40
60.0
100
AcDbArc
 50
183.6514672287091
 51
234.4577409694452
  0
ARC
  5
382
330
1F
100
AcDbEntity
  8
0-3_仕上げ
  6
Continuous
 62
   120
370
     5
100
AcDbCircle
 10
-3649.12182319106
 20
2515.321368112184
 30
0.0
 40
57.0
100
AcDbArc
 50
183.7463597123725
 51
233.502329744074
  0
LINE
  5
383
330
1F
100
AcDbEntity
  8
0-3_仕上げ
  6
Continuous
 62
   120
370
     5
100
AcDbLine
 10
-3706.000018557985
 20
2511.597003494965
 30
0.0
 11
-3706.000018557985
 21
3069.403293432822
 31
0.0
  0
LINE
  5
384
330
1F
100
AcDbEntity
  8
0-3_仕上げ
  6
JWW_CENTER1
 62
   120
370
     5
100
AcDbLine
 10
-3709.000018557982
 20
2511.500148463895
 30
0.0
 11
-3709.000018557982
 21
3069.500148463892
 31
0.0
  0
LINE
  5
385
330
1F
100
AcDbEntity
  8
0-3_仕上げ
  6
Continuous
 62
   120
370
     5
100
AcDbLine
 10
-3712.000018557983
 20
2511.597003494958
 30
0.0
 11
-3712.000018557983
 21
3069.403293432829
 31
0.0
  0
ARC
  5
386
330
1F
100
AcDbEntity
  8
0-3_仕上げ
  6
Continuous
 62
   120
370
     5
100
AcDbCircle
 10
-3649.12182319106
 20
2417.678928815601
 30
0.0
 40
57.0
100
AcDbArc
 50
126.497670255926
 51
176.2536402876274
  0
LINE
  5
387
330
1F
100
AcDbEntity
  8
0-3_仕上げ
  6
Continuous
 62
   120
370
     5
100
AcDbLine
 10
-3706.000018557985
 20
2306.500148463893
 30
0.0
 11
-3706.000018557985
 21
2421.403293432823
 31
0.0
  0
LINE
  5
388
330
1F
100
AcDbEntity
  8
0-3_仕上げ
  6
JWW_CENTER1
 62
   120
370
     5
100
AcDbLine
 10
-3709.000018557982
 20
2306.500148463893
 30
0.0
 11
-3709.000018557982
 21
2421.500148463893
 31
0.0
  0
LINE
  5
389
330
1F
100
AcDbEntity
  8
0-3_仕上げ
  6
Continuous
 62
   120
370
     5
100
AcDbLine
 10
-3712.000018557983
 20
2306.500148463893
 30
0.0
 11
-3712.000018557983
 21
2421.403293432827
 31
0.0
  0
ARC
  5
38A
330
1F
100
AcDbEntity
  8
0-3_仕上げ
  6
Continuous
 62
   120
370
     5
100
AcDbCircle
 10
-3768.878213924908
 20
2417.678928815601
 30
0.0
 40
63.0
100
AcDbArc
 50
18.11257084805418
 51
50.79959257815202
  0
ARC
  5
38B
330
1F
100
AcDbEntity
  8
0-3_仕上げ
  6
Continuous
 62
   120
370
     5
100
AcDbCircle
 10
-3768.878213924908
 20
2515.321368112184
 30
0.0
 40
63.0
100
AcDbArc
 50
309.200407421848
 51
341.8874291519458
  0
ARC
  5
38C
330
1F
100
AcDbEntity
  8
0-3_仕上げ
  6
Continuous
 62
   120
370
     5
100
AcDbCircle
 10
-3649.12182319106
 20
2515.321368112184
 30
0.0
 40
63.0
100
AcDbArc
 50
198.1125708480542
 51
230.799592578152
  0
ARC
  5
38D
330
1F
100
AcDbEntity
  8
0-3_仕上げ
  6
Continuous
 62
   120
370
     5
100
AcDbCircle
 10
-3649.12182319106
 20
2417.678928815601
 30
0.0
 40
63.0
100
AcDbArc
 50
129.200407421848
 51
161.8874291519458
  0
ARC
  5
38E
330
1F
100
AcDbEntity
  8
0-3_仕上げ
  6
JWW_CENTER1
 62
   120
370
     5
100
AcDbCircle
 10
-3649.12182319106
 20
2417.678928815601
 30
0.0
 40
60.0
100
AcDbArc
 50
125.5422590305548
 51
176.3485327712908
  0
ARC
  5
38F
330
1F
100
AcDbEntity
  8
0-3_仕上げ
  6
JWW_CENTER1
 62
   120
370
     5
100
AcDbCircle
 10
-3649.12182319106
 20
2515.321368112184
 30
0.0
 40
60.0
100
AcDbArc
 50
183.6514672287091
 51
234.4577409694452
  0
ARC
  5
390
330
1F
100
AcDbEntity
  8
0-3_仕上げ
  6
JWW_CENTER1
 62
   120
370
     5
100
AcDbCircle
 10
-3668.878213924907
 20
3065.678928815603
 30
0.0
 40
60.0
100
AcDbArc
 50
3.651467228708674
 51
54.45774096944522
  0
ARC
  5
391
330
1F
100
AcDbEntity
  8
0-3_仕上げ
  6
Continuous
 62
   120
370
     5
100
AcDbCircle
 10
-3668.878213924907
 20
3065.678928815603
 30
0.0
 40
57.0
100
AcDbArc
 50
3.746359712376933
 51
53.50232974407399
  0
LINE
  5
392
330
1F
100
AcDbEntity
  8
0-3_仕上げ
  6
Continuous
 62
   120
370
     5
100
AcDbLine
 10
-3606.000018557984
 20
3159.597003494962
 30
0.0
 11
-3606.000018557984
 21
3264.500148463892
 31
0.0
  0
ARC
  5
393
330
1F
100
AcDbEntity
  8
0-3_仕上げ
  6
JWW_CENTER1
 62
   120
370
     5
100
AcDbCircle
 10
-3668.878213924907
 20
3163.321368112185
 30
0.0
 40
60.0
100
AcDbArc
 50
305.5422590305548
 51
356.3485327712913
  0
LINE
  5
394
330
1F
100
AcDbEntity
  8
0-3_仕上げ
  6
JWW_CENTER1
 62
   120
370
     5
100
AcDbLine
 10
-3609.000018557985
 20
3159.500148463892
 30
0.0
 11
-3609.000018557985
 21
3264.500148463892
 31
0.0
  0
LINE
  5
395
330
1F
100
AcDbEntity
  8
0-3_仕上げ
  6
Continuous
 62
   120
370
     5
100
AcDbLine
 10
-3612.000018557985
 20
3159.597003494959
 30
0.0
 11
-3612.000018557985
 21
3264.500148463892
 31
0.0
  0
ARC
  5
396
330
1F
100
AcDbEntity
  8
0-3_仕上げ
  6
Continuous
 62
   120
370
     5
100
AcDbCircle
 10
-3668.878213924907
 20
3163.321368112185
 30
0.0
 40
57.0
100
AcDbArc
 50
306.497670255926
 51
356.2536402876231
  0
LINE
  5
397
330
1F
100
AcDbEntity
  8
0-3_仕上げ
  6
JWW_CENTER1
 62
   120
370
     5
100
AcDbLine
 10
-3684.000018557985
 20
3114.500148463892
 30
0.0
 11
-3634.000018557982
 21
3114.500148463892
 31
0.0
  0
LINE
  5
398
330
1F
100
AcDbEntity
  8
0-3_仕上げ
  6
Continuous
 62
   120
370
     5
100
AcDbLine
 10
-3683.024858895006
 20
3111.500148463895
 30
0.0
 11
-3634.975178220961
 21
3111.500148463895
 31
0.0
  0
LINE
  5
399
330
1F
100
AcDbEntity
  8
0-3_仕上げ
  6
Continuous
 62
   120
370
     5
100
AcDbLine
 10
-3683.024858895006
 20
3117.500148463893
 30
0.0
 11
-3634.975178220961
 21
3117.500148463893
 31
0.0
  0
ARC
  5
39A
330
1F
100
AcDbEntity
  8
0-3_仕上げ
  6
Continuous
 62
   120
370
     5
100
AcDbCircle
 10
-3668.878213924907
 20
3065.678928815603
 30
0.0
 40
63.0
100
AcDbArc
 50
18.11257084805418
 51
50.79959257815202
  0
ARC
  5
39B
330
1F
100
AcDbEntity
  8
0-3_仕上げ
  6
Continuous
 62
   120
370
     5
100
AcDbCircle
 10
-3668.878213924907
 20
3163.321368112185
 30
0.0
 40
63.0
100
AcDbArc
 50
309.200407421848
 51
341.8874291519458
  0
ARC
  5
39C
330
1F
100
AcDbEntity
  8
0-3_仕上げ
  6
Continuous
 62
   120
370
     5
100
AcDbCircle
 10
-3549.121823191059
 20
3163.321368112185
 30
0.0
 40
63.0
100
AcDbArc
 50
198.1125708480542
 51
230.799592578152
  0
ARC
  5
39D
330
1F
100
AcDbEntity
  8
0-3_仕上げ
  6
Continuous
 62
   120
370
     5
100
AcDbCircle
 10
-3549.121823191059
 20
3065.678928815603
 30
0.0
 40
63.0
100
AcDbArc
 50
129.200407421848
 51
161.8874291519458
  0
ARC
  5
39E
330
1F
100
AcDbEntity
  8
0-3_仕上げ
  6
JWW_CENTER1
 62
   120
370
     5
100
AcDbCircle
 10
-3549.121823191059
 20
3065.678928815603
 30
0.0
 40
60.0
100
AcDbArc
 50
125.5422590305548
 51
176.3485327712908
  0
ARC
  5
39F
330
1F
100
AcDbEntity
  8
0-3_仕上げ
  6
Continuous
 62
   120
370
     5
100
AcDbCircle
 10
-3649.12182319106
 20
3065.678928815603
 30
0.0
 40
57.0
100
AcDbArc
 50
126.497670255926
 51
176.2536402876275
  0
ARC
  5
3A0
330
1F
100
AcDbEntity
  8
0-3_仕上げ
  6
Continuous
 62
   120
370
     5
100
AcDbCircle
 10
-3768.878213924908
 20
3065.678928815603
 30
0.0
 40
63.0
100
AcDbArc
 50
18.11257084805418
 51
50.79959257815202
  0
ARC
  5
3A1
330
1F
100
AcDbEntity
  8
0-3_仕上げ
  6
Continuous
 62
   120
370
     5
100
AcDbCircle
 10
-3768.878213924908
 20
3163.321368112185
 30
0.0
 40
63.0
100
AcDbArc
 50
309.200407421848
 51
341.8874291519458
  0
ARC
  5
3A2
330
1F
100
AcDbEntity
  8
0-3_仕上げ
  6
Continuous
 62
   120
370
     5
100
AcDbCircle
 10
-3649.12182319106
 20
3163.321368112185
 30
0.0
 40
63.0
100
AcDbArc
 50
198.1125708480542
 51
230.799592578152
  0
ARC
  5
3A3
330
1F
100
AcDbEntity
  8
0-3_仕上げ
  6
Continuous
 62
   120
370
     5
100
AcDbCircle
 10
-3649.12182319106
 20
3065.678928815603
 30
0.0
 40
63.0
100
AcDbArc
 50
129.200407421848
 51
161.8874291519458
  0
ARC
  5
3A4
330
1F
100
AcDbEntity
  8
0-3_仕上げ
  6
JWW_CENTER1
 62
   120
370
     5
100
AcDbCircle
 10
-3649.12182319106
 20
3065.678928815603
 30
0.0
 40
60.0
100
AcDbArc
 50
125.5422590305548
 51
176.3485327712908
  0
ARC
  5
3A5
330
1F
100
AcDbEntity
  8
0-3_仕上げ
  6
Continuous
 62
   120
370
     5
100
AcDbCircle
 10
-3649.12182319106
 20
3163.321368112185
 30
0.0
 40
57.0
100
AcDbArc
 50
183.6514672287091
 51
233.502329744074
  0
ARC
  5
3A6
330
1F
100
AcDbEntity
  8
0-3_仕上げ
  6
JWW_CENTER1
 62
   120
370
     5
100
AcDbCircle
 10
-3649.12182319106
 20
3163.321368112185
 30
0.0
 40
60.0
100
AcDbArc
 50
183.6514672287091
 51
234.4577409694452
  0
LINE
  5
3A7
330
1F
100
AcDbEntity
  8
0-3_仕上げ
  6
Continuous
 62
   120
370
     5
100
AcDbLine
 10
-3706.000018557985
 20
3159.500148463892
 30
0.0
 11
-3706.000018557985
 21
3264.500148463892
 31
0.0
  0
LINE
  5
3A8
330
1F
100
AcDbEntity
  8
0-3_仕上げ
  6
Continuous
 62
   120
370
     5
100
AcDbLine
 10
-3712.000018557983
 20
3159.691209446309
 30
0.0
 11
-3712.000018557983
 21
3264.500148463892
 31
0.0
  0
LINE
  5
3A9
330
1F
100
AcDbEntity
  8
0-3_仕上げ
  6
JWW_CENTER1
 62
   120
370
     5
100
AcDbLine
 10
-3709.000018557982
 20
3159.500148463892
 30
0.0
 11
-3709.000018557982
 21
3264.500148463892
 31
0.0
  0
ARC
  5
3AA
330
1F
100
AcDbEntity
  8
0-3_仕上げ
  6
JWW_CENTER1
 62
   120
370
     5
100
AcDbCircle
 10
-3549.121823191059
 20
3163.321368112185
 30
0.0
 40
60.0
100
AcDbArc
 50
183.6514672287091
 51
234.4577409694452
  0
LINE
  5
3AB
330
1F
100
AcDbEntity
  8
0-3_仕上げ
  6
Continuous
 62
   120
370
     5
100
AcDbLine
 10
-3877.000018557985
 20
3117.500148463893
 30
0.0
 11
-3734.975178220961
 21
3117.500148463893
 31
0.0
  0
LINE
  5
3AC
330
1F
100
AcDbEntity
  8
0-3_仕上げ
  6
Continuous
 62
   120
370
     5
100
AcDbLine
 10
-3877.000018557985
 20
2463.500148463894
 30
0.0
 11
-3734.975178220961
 21
2463.500148463894
 31
0.0
  0
LINE
  5
3AD
330
1F
100
AcDbEntity
  8
0-3_仕上げ
  6
Continuous
 62
   120
370
     5
100
AcDbLine
 10
-3877.000018557985
 20
3111.500148463895
 30
0.0
 11
-3734.975178220961
 21
3111.500148463895
 31
0.0
  0
LINE
  5
3AE
330
1F
100
AcDbEntity
  8
0-3_仕上げ
  6
JWW_CENTER1
 62
   120
370
     5
100
AcDbLine
 10
-3877.000018557985
 20
3114.500148463892
 30
0.0
 11
-3734.000018557983
 21
3114.500148463892
 31
0.0
  0
LINE
  5
3AF
330
1F
100
AcDbEntity
  8
0-3_仕上げ
  6
JWW_CENTER1
 62
   120
370
     5
100
AcDbLine
 10
-3877.000018557985
 20
2466.500148463891
 30
0.0
 11
-3734.000018557983
 21
2466.500148463891
 31
0.0
  0
LINE
  5
3B0
330
1F
100
AcDbEntity
  8
0-3_仕上げ
  6
Continuous
 62
   120
370
     5
100
AcDbLine
 10
-3877.000018557985
 20
2469.500148463892
 30
0.0
 11
-3734.975178220961
 21
2469.500148463892
 31
0.0
  0
LINE
  5
3B1
330
1F
100
AcDbEntity
  8
0-3_仕上げ
  6
Continuous
 62
   120
370
     5
100
AcDbLine
 10
-3383.024858895007
 20
2463.500148463894
 30
0.0
 11
-3241.000018557983
 21
2463.500148463894
 31
0.0
  0
LINE
  5
3B2
330
1F
100
AcDbEntity
  8
0-3_仕上げ
  6
Continuous
 62
   120
370
     5
100
AcDbLine
 10
-3383.024858895007
 20
3117.500148463893
 30
0.0
 11
-3241.000018557983
 21
3117.500148463893
 31
0.0
  0
LINE
  5
3B3
330
1F
100
AcDbEntity
  8
0-3_仕上げ
  6
JWW_CENTER1
 62
   120
370
     5
100
AcDbLine
 10
-3384.000018557985
 20
3114.500148463892
 30
0.0
 11
-3241.000018557983
 21
3114.500148463892
 31
0.0
  0
LINE
  5
3B4
330
1F
100
AcDbEntity
  8
0-3_仕上げ
  6
Continuous
 62
   120
370
     5
100
AcDbLine
 10
-3383.024858895007
 20
3111.500148463895
 30
0.0
 11
-3241.000018557983
 21
3111.500148463895
 31
0.0
  0
LINE
  5
3B5
330
1F
100
AcDbEntity
  8
0-3_仕上げ
  6
Continuous
 62
   120
370
     5
100
AcDbLine
 10
-3383.024858895007
 20
2469.500148463892
 30
0.0
 11
-3241.000018557983
 21
2469.500148463892
 31
0.0
  0
LINE
  5
3B6
330
1F
100
AcDbEntity
  8
0-3_仕上げ
  6
JWW_CENTER1
 62
   120
370
     5
100
AcDbLine
 10
-3384.000018557985
 20
2466.500148463891
 30
0.0
 11
-3241.000018557983
 21
2466.500148463891
 31
0.0
  0
LINE
  5
3B7
330
1F
100
AcDbEntity
  8
0-C_ハッチ
  6
JWW_DASHED1
 62
   120
370
     5
100
AcDbLine
 10
-3274.324694876484
 20
2306.500148463901
 30
0.0
 11
-3241.000018557992
 21
2339.824824782393
 31
0.0
  0
LINE
  5
3B8
330
1F
100
AcDbEntity
  8
0-C_ハッチ
  6
JWW_DASHED1
 62
   120
370
     5
100
AcDbLine
 10
-3316.75110174768
 20
2306.500148463904
 30
0.0
 11
-3241.000018557995
 21
2382.251231653589
 31
0.0
  0
LINE
  5
3B9
330
1F
100
AcDbEntity
  8
0-C_ハッチ
  6
JWW_DASHED1
 62
   120
370
     5
100
AcDbLine
 10
-3359.17750861889
 20
2306.500148463894
 30
0.0
 11
-3241.000018557982
 21
2424.677638524802
 31
0.0
  0
LINE
  5
3BA
330
1F
100
AcDbEntity
  8
0-C_ハッチ
  6
JWW_DASHED1
 62
   120
370
     5
100
AcDbLine
 10
-3401.60391549009
 20
2306.500148463895
 30
0.0
 11
-3241.000018557986
 21
2467.104045395999
 31
0.0
  0
LINE
  5
3BB
330
1F
100
AcDbEntity
  8
0-C_ハッチ
  6
JWW_DASHED1
 62
   120
370
     5
100
AcDbLine
 10
-3444.030322361302
 20
2306.500148463882
 30
0.0
 11
-3241.000018557974
 21
2509.53045226721
 31
0.0
  0
LINE
  5
3BC
330
1F
100
AcDbEntity
  8
0-C_ハッチ
  6
JWW_DASHED1
 62
   120
370
     5
100
AcDbLine
 10
-3486.456729232499
 20
2306.500148463886
 30
0.0
 11
-3241.000018557978
 21
2551.956859138406
 31
0.0
  0
LINE
  5
3BD
330
1F
100
AcDbEntity
  8
0-C_ハッチ
  6
JWW_DASHED1
 62
   120
370
     5
100
AcDbLine
 10
-3528.883136103696
 20
2306.500148463889
 30
0.0
 11
-3241.000018557981
 21
2594.383266009603
 31
0.0
  0
LINE
  5
3BE
330
1F
100
AcDbEntity
  8
0-C_ハッチ
  6
JWW_DASHED1
 62
   120
370
     5
100
AcDbLine
 10
-3571.309542974834
 20
2306.500148463896
 30
0.0
 11
-3241.000018557989
 21
2636.80967288074
 31
0.0
  0
LINE
  5
3BF
330
1F
100
AcDbEntity
  8
0-C_ハッチ
  6
JWW_DASHED1
 62
   120
370
     5
100
AcDbLine
 10
-3613.735949846031
 20
2306.500148463899
 30
0.0
 11
-3241.000018557992
 21
2679.236079751937
 31
0.0
  0
LINE
  5
3C0
330
1F
100
AcDbEntity
  8
0-C_ハッチ
  6
JWW_DASHED1
 62
   120
370
     5
100
AcDbLine
 10
-3656.162356717227
 20
2306.500148463902
 30
0.0
 11
-3241.000018557996
 21
2721.662486623134
 31
0.0
  0
LINE
  5
3C1
330
1F
100
AcDbEntity
  8
0-C_ハッチ
  6
JWW_DASHED1
 62
   120
370
     5
100
AcDbLine
 10
-3698.588763588429
 20
2306.500148463901
 30
0.0
 11
-3241.000018557984
 21
2764.088893494346
 31
0.0
  0
LINE
  5
3C2
330
1F
100
AcDbEntity
  8
0-C_ハッチ
  6
JWW_DASHED1
 62
   120
370
     5
100
AcDbLine
 10
-3741.015170459653
 20
2306.500148463877
 30
0.0
 11
-3241.00001855798
 21
2806.51530036555
 31
0.0
  0
LINE
  5
3C3
330
1F
100
AcDbEntity
  8
0-C_ハッチ
  6
JWW_DASHED1
 62
   120
370
     5
100
AcDbLine
 10
-3783.44157733085
 20
2306.50014846388
 30
0.0
 11
-3241.000018557976
 21
2848.941707236754
 31
0.0
  0
LINE
  5
3C4
330
1F
100
AcDbEntity
  8
0-C_ハッチ
  6
JWW_DASHED1
 62
   120
370
     5
100
AcDbLine
 10
-3825.867984202047
 20
2306.500148463884
 30
0.0
 11
-3241.000018557979
 21
2891.368114107951
 31
0.0
  0
LINE
  5
3C5
330
1F
100
AcDbEntity
  8
0-C_ハッチ
  6
JWW_DASHED1
 62
   120
370
     5
100
AcDbLine
 10
-3868.294391073243
 20
2306.500148463887
 30
0.0
 11
-3241.000018557982
 21
2933.794520979147
 31
0.0
  0
LINE
  5
3C6
330
1F
100
AcDbEntity
  8
0-C_ハッチ
  6
JWW_DASHED1
 62
   120
370
     5
100
AcDbLine
 10
-3877.000018557987
 20
2340.220927850289
 30
0.0
 11
-3241.000018557991
 21
2976.220927850285
 31
0.0
  0
LINE
  5
3C7
330
1F
100
AcDbEntity
  8
0-C_ハッチ
  6
JWW_DASHED1
 62
   120
370
     5
100
AcDbLine
 10
-3877.00001855799
 20
2382.647334721486
 30
0.0
 11
-3241.000018557994
 21
3018.647334721482
 31
0.0
  0
LINE
  5
3C8
330
1F
100
AcDbEntity
  8
0-C_ハッチ
  6
JWW_DASHED1
 62
   120
370
     5
100
AcDbLine
 10
-3877.000018557993
 20
2425.073741592682
 30
0.0
 11
-3241.000018557982
 21
3061.073741592694
 31
0.0
  0
LINE
  5
3C9
330
1F
100
AcDbEntity
  8
0-C_ハッチ
  6
JWW_DASHED1
 62
   120
370
     5
100
AcDbLine
 10
-3877.000018557997
 20
2467.500148463879
 30
0.0
 11
-3241.000018557985
 21
3103.500148463891
 31
0.0
  0
LINE
  5
3CA
330
1F
100
AcDbEntity
  8
0-C_ハッチ
  6
JWW_DASHED1
 62
   120
370
     5
100
AcDbLine
 10
-3877.000018557968
 20
2509.926555335107
 30
0.0
 11
-3241.000018557973
 21
3145.926555335102
 31
0.0
  0
LINE
  5
3CB
330
1F
100
AcDbEntity
  8
0-C_ハッチ
  6
JWW_DASHED1
 62
   120
370
     5
100
AcDbLine
 10
-3877.000018557973
 20
2552.352962206303
 30
0.0
 11
-3241.000018557977
 21
3188.352962206298
 31
0.0
  0
LINE
  5
3CC
330
1F
100
AcDbEntity
  8
0-C_ハッチ
  6
JWW_DASHED1
 62
   120
370
     5
100
AcDbLine
 10
-3877.000018557976
 20
2594.779369077499
 30
0.0
 11
-3241.00001855798
 21
3230.779369077495
 31
0.0
  0
LINE
  5
3CD
330
1F
100
AcDbEntity
  8
0-C_ハッチ
  6
JWW_DASHED1
 62
   120
370
     5
100
AcDbLine
 10
-3877.000018557984
 20
2637.205775948637
 30
0.0
 11
-3249.705646042722
 21
3264.500148463898
 31
0.0
  0
LINE
  5
3CE
330
1F
100
AcDbEntity
  8
0-C_ハッチ
  6
JWW_DASHED1
 62
   120
370
     5
100
AcDbLine
 10
-3877.000018557987
 20
2679.632182819834
 30
0.0
 11
-3292.13205291392
 21
3264.500148463901
 31
0.0
  0
LINE
  5
3CF
330
1F
100
AcDbEntity
  8
0-C_ハッチ
  6
JWW_DASHED1
 62
   120
370
     5
100
AcDbLine
 10
-3877.000018557992
 20
2722.05858969103
 30
0.0
 11
-3334.558459785117
 21
3264.500148463904
 31
0.0
  0
LINE
  5
3D0
330
1F
100
AcDbEntity
  8
0-C_ハッチ
  6
JWW_DASHED1
 62
   120
370
     5
100
AcDbLine
 10
-3877.000018557995
 20
2764.484996562226
 30
0.0
 11
-3376.984866656326
 21
3264.500148463895
 31
0.0
  0
LINE
  5
3D1
330
1F
100
AcDbEntity
  8
0-C_ハッチ
  6
JWW_DASHED1
 62
   120
370
     5
100
AcDbLine
 10
-3877.000018557974
 20
2806.911403433447
 30
0.0
 11
-3419.411273527526
 21
3264.500148463895
 31
0.0
  0
LINE
  5
3D2
330
1F
100
AcDbEntity
  8
0-C_ハッチ
  6
JWW_DASHED1
 62
   120
370
     5
100
AcDbLine
 10
-3877.00001855797
 20
2849.337810304651
 30
0.0
 11
-3461.837680398739
 21
3264.500148463882
 31
0.0
  0
LINE
  5
3D3
330
1F
100
AcDbEntity
  8
0-C_ハッチ
  6
JWW_DASHED1
 62
   120
370
     5
100
AcDbLine
 10
-3877.000018557973
 20
2891.764217175848
 30
0.0
 11
-3504.264087269935
 21
3264.500148463886
 31
0.0
  0
LINE
  5
3D4
330
1F
100
AcDbEntity
  8
0-C_ハッチ
  6
JWW_DASHED1
 62
   120
370
     5
100
AcDbLine
 10
-3877.000018557977
 20
2934.190624047044
 30
0.0
 11
-3546.690494141132
 21
3264.500148463889
 31
0.0
  0
LINE
  5
3D5
330
1F
100
AcDbEntity
  8
0-C_ハッチ
  6
JWW_DASHED1
 62
   120
370
     5
100
AcDbLine
 10
-3877.000018557986
 20
2976.617030918182
 30
0.0
 11
-3589.11690101227
 21
3264.500148463896
 31
0.0
  0
LINE
  5
3D6
330
1F
100
AcDbEntity
  8
0-C_ハッチ
  6
JWW_DASHED1
 62
   120
370
     5
100
AcDbLine
 10
-3877.000018557988
 20
3019.043437789378
 30
0.0
 11
-3631.543307883467
 21
3264.500148463899
 31
0.0
  0
LINE
  5
3D7
330
1F
100
AcDbEntity
  8
0-C_ハッチ
  6
JWW_DASHED1
 62
   120
370
     5
100
AcDbLine
 10
-3877.000018557992
 20
3061.469844660574
 30
0.0
 11
-3673.969714754669
 21
3264.500148463897
 31
0.0
  0
LINE
  5
3D8
330
1F
100
AcDbEntity
  8
0-C_ハッチ
  6
JWW_DASHED1
 62
   120
370
     5
100
AcDbLine
 10
-3877.000018557996
 20
3103.896251531771
 30
0.0
 11
-3716.396121625864
 21
3264.500148463902
 31
0.0
  0
LINE
  5
3D9
330
1F
100
AcDbEntity
  8
0-C_ハッチ
  6
JWW_DASHED1
 62
   120
370
     5
100
AcDbLine
 10
-3877.000018557981
 20
3146.322658402984
 30
0.0
 11
-3758.822528497073
 21
3264.500148463893
 31
0.0
  0
LINE
  5
3DA
330
1F
100
AcDbEntity
  8
0-C_ハッチ
  6
JWW_DASHED1
 62
   120
370
     5
100
AcDbLine
 10
-3877.000018557971
 20
3188.749065274195
 30
0.0
 11
-3801.248935368286
 21
3264.500148463881
 31
0.0
  0
LINE
  5
3DB
330
1F
100
AcDbEntity
  8
0-C_ハッチ
  6
JWW_DASHED1
 62
   120
370
     5
100
AcDbLine
 10
-3877.000018557974
 20
3231.175472145391
 30
0.0
 11
-3843.675342239483
 21
3264.500148463884
 31
0.0
  0
ARC
  5
3DC
330
1F
100
AcDbEntity
  8
引手
  6
Continuous
 62
    92
370
    13
100
AcDbCircle
 10
-746.5000185579856
 20
2438.000148463893
 30
0.0
 40
1.5
100
AcDbArc
 50
0.0
 51
90.0
  0
LINE
  5
3DD
330
1F
100
AcDbEntity
  8
引手
  6
Continuous
 62
    92
370
    13
100
AcDbLine
 10
-745.0000185579853
 20
2331.000148463892
 30
0.0
 11
-745.0000185579853
 21
2438.000148463893
 31
0.0
  0
ARC
  5
3DE
330
1F
100
AcDbEntity
  8
引手
  6
Continuous
 62
    92
370
    13
100
AcDbCircle
 10
-746.5000185579856
 20
2331.000148463892
 30
0.0
 40
1.5
100
AcDbArc
 50
270.0
 51
0.0
  0
LINE
  5
3DF
330
1F
100
AcDbEntity
  8
引手
  6
Continuous
 62
    92
370
    13
100
AcDbLine
 10
-785.5000185579843
 20
2329.500148463893
 30
0.0
 11
-746.5000185579856
 21
2329.500148463893
 31
0.0
  0
ARC
  5
3E0
330
1F
100
AcDbEntity
  8
引手
  6
Continuous
 62
    92
370
    13
100
AcDbCircle
 10
-785.5000185579843
 20
2331.000148463892
 30
0.0
 40
1.5
100
AcDbArc
 50
180.0
 51
270.0
  0
LINE
  5
3E1
330
1F
100
AcDbEntity
  8
引手
  6
Continuous
 62
    92
370
    13
100
AcDbLine
 10
-787.0000185579846
 20
2438.000148463893
 30
0.0
 11
-787.0000185579846
 21
2331.000148463892
 31
0.0
  0
LINE
  5
3E2
330
1F
100
AcDbEntity
  8
引手
  6
Continuous
 62
    92
370
    13
100
AcDbLine
 10
-785.5000185579843
 20
2439.500148463893
 30
0.0
 11
-746.5000185579856
 21
2439.500148463893
 31
0.0
  0
ARC
  5
3E3
330
1F
100
AcDbEntity
  8
引手
  6
Continuous
 62
    92
370
    13
100
AcDbCircle
 10
-785.5000185579843
 20
2438.000148463893
 30
0.0
 40
1.5
100
AcDbArc
 50
90.0
 51
180.0
  0
ARC
  5
3E4
330
1F
100
AcDbEntity
  8
引手
  6
Continuous
 62
     7
370
     9
100
AcDbCircle
 10
-755.0000185579847
 20
2422.000148463893
 30
0.0
 40
1.5
100
AcDbArc
 50
0.0
 51
90.0
  0
LINE
  5
3E5
330
1F
100
AcDbEntity
  8
引手
  6
Continuous
 62
     7
370
     9
100
AcDbLine
 10
-753.5000185579844
 20
2347.000148463893
 30
0.0
 11
-753.5000185579844
 21
2422.000148463893
 31
0.0
  0
ARC
  5
3E6
330
1F
100
AcDbEntity
  8
引手
  6
Continuous
 62
     7
370
     9
100
AcDbCircle
 10
-755.0000185579847
 20
2347.000148463893
 30
0.0
 40
1.5
100
AcDbArc
 50
270.0
 51
0.0
  0
LINE
  5
3E7
330
1F
100
AcDbEntity
  8
引手
  6
Continuous
 62
     7
370
     9
100
AcDbLine
 10
-777.0000185579843
 20
2345.500148463893
 30
0.0
 11
-755.0000185579847
 21
2345.500148463893
 31
0.0
  0
ARC
  5
3E8
330
1F
100
AcDbEntity
  8
引手
  6
Continuous
 62
     7
370
     9
100
AcDbCircle
 10
-777.0000185579843
 20
2347.000148463893
 30
0.0
 40
1.5
100
AcDbArc
 50
180.0
 51
270.0
  0
LINE
  5
3E9
330
1F
100
AcDbEntity
  8
引手
  6
Continuous
 62
     7
370
     9
100
AcDbLine
 10
-778.5000185579838
 20
2422.000148463893
 30
0.0
 11
-778.5000185579838
 21
2347.000148463893
 31
0.0
  0
LINE
  5
3EA
330
1F
100
AcDbEntity
  8
引手
  6
Continuous
 62
     7
370
     9
100
AcDbLine
 10
-777.0000185579843
 20
2423.500148463893
 30
0.0
 11
-755.0000185579847
 21
2423.500148463893
 31
0.0
  0
ARC
  5
3EB
330
1F
100
AcDbEntity
  8
引手
  6
Continuous
 62
     7
370
     9
100
AcDbCircle
 10
-777.0000185579843
 20
2422.000148463893
 30
0.0
 40
1.5
100
AcDbArc
 50
90.0
 51
180.0
  0
ARC
  5
3EC
330
1F
100
AcDbEntity
  8
引手
  6
Continuous
 62
    92
370
    13
100
AcDbCircle
 10
1453.499981442016
 20
2438.000148463893
 30
0.0
 40
1.5
100
AcDbArc
 50
0.0
 51
90.0
  0
LINE
  5
3ED
330
1F
100
AcDbEntity
  8
引手
  6
Continuous
 62
    92
370
    13
100
AcDbLine
 10
1454.999981442018
 20
2331.000148463892
 30
0.0
 11
1454.999981442018
 21
2438.000148463893
 31
0.0
  0
ARC
  5
3EE
330
1F
100
AcDbEntity
  8
引手
  6
Continuous
 62
    92
370
    13
100
AcDbCircle
 10
1453.499981442016
 20
2331.000148463892
 30
0.0
 40
1.5
100
AcDbArc
 50
270.0
 51
0.0
  0
LINE
  5
3EF
330
1F
100
AcDbEntity
  8
引手
  6
Continuous
 62
    92
370
    13
100
AcDbLine
 10
1414.499981442018
 20
2329.500148463893
 30
0.0
 11
1453.499981442016
 21
2329.500148463893
 31
0.0
  0
ARC
  5
3F0
330
1F
100
AcDbEntity
  8
引手
  6
Continuous
 62
    92
370
    13
100
AcDbCircle
 10
1414.499981442018
 20
2331.000148463892
 30
0.0
 40
1.5
100
AcDbArc
 50
180.0
 51
270.0
  0
LINE
  5
3F1
330
1F
100
AcDbEntity
  8
引手
  6
Continuous
 62
    92
370
    13
100
AcDbLine
 10
1412.999981442017
 20
2438.000148463893
 30
0.0
 11
1412.999981442017
 21
2331.000148463892
 31
0.0
  0
LINE
  5
3F2
330
1F
100
AcDbEntity
  8
引手
  6
Continuous
 62
    92
370
    13
100
AcDbLine
 10
1414.499981442018
 20
2439.500148463893
 30
0.0
 11
1453.499981442016
 21
2439.500148463893
 31
0.0
  0
ARC
  5
3F3
330
1F
100
AcDbEntity
  8
引手
  6
Continuous
 62
    92
370
    13
100
AcDbCircle
 10
1414.499981442018
 20
2438.000148463893
 30
0.0
 40
1.5
100
AcDbArc
 50
90.0
 51
180.0
  0
ARC
  5
3F4
330
1F
100
AcDbEntity
  8
引手
  6
Continuous
 62
     7
370
     9
100
AcDbCircle
 10
1444.999981442017
 20
2422.000148463893
 30
0.0
 40
1.5
100
AcDbArc
 50
0.0
 51
90.0
  0
LINE
  5
3F5
330
1F
100
AcDbEntity
  8
引手
  6
Continuous
 62
     7
370
     9
100
AcDbLine
 10
1446.499981442018
 20
2347.000148463893
 30
0.0
 11
1446.499981442018
 21
2422.000148463893
 31
0.0
  0
ARC
  5
3F6
330
1F
100
AcDbEntity
  8
引手
  6
Continuous
 62
     7
370
     9
100
AcDbCircle
 10
1444.999981442017
 20
2347.000148463893
 30
0.0
 40
1.5
100
AcDbArc
 50
270.0
 51
0.0
  0
LINE
  5
3F7
330
1F
100
AcDbEntity
  8
引手
  6
Continuous
 62
     7
370
     9
100
AcDbLine
 10
1422.999981442017
 20
2345.500148463893
 30
0.0
 11
1444.999981442017
 21
2345.500148463893
 31
0.0
  0
ARC
  5
3F8
330
1F
100
AcDbEntity
  8
引手
  6
Continuous
 62
     7
370
     9
100
AcDbCircle
 10
1422.999981442017
 20
2347.000148463893
 30
0.0
 40
1.5
100
AcDbArc
 50
180.0
 51
270.0
  0
LINE
  5
3F9
330
1F
100
AcDbEntity
  8
引手
  6
Continuous
 62
     7
370
     9
100
AcDbLine
 10
1421.499981442018
 20
2422.000148463893
 30
0.0
 11
1421.499981442018
 21
2347.000148463893
 31
0.0
  0
LINE
  5
3FA
330
1F
100
AcDbEntity
  8
引手
  6
Continuous
 62
     7
370
     9
100
AcDbLine
 10
1422.999981442017
 20
2423.500148463893
 30
0.0
 11
1444.999981442017
 21
2423.500148463893
 31
0.0
  0
ARC
  5
3FB
330
1F
100
AcDbEntity
  8
引手
  6
Continuous
 62
     7
370
     9
100
AcDbCircle
 10
1422.999981442017
 20
2422.000148463893
 30
0.0
 40
1.5
100
AcDbArc
 50
90.0
 51
180.0
  0
ARC
  5
3FC
330
1F
100
AcDbEntity
  8
引手
  6
Continuous
 62
    92
370
    13
100
AcDbCircle
 10
-3140.500018557986
 20
2438.000148463893
 30
0.0
 40
1.5
100
AcDbArc
 50
0.0
 51
90.0
  0
LINE
  5
3FD
330
1F
100
AcDbEntity
  8
引手
  6
Continuous
 62
    92
370
    13
100
AcDbLine
 10
-3139.000018557986
 20
2331.000148463892
 30
0.0
 11
-3139.000018557986
 21
2438.000148463893
 31
0.0
  0
ARC
  5
3FE
330
1F
100
AcDbEntity
  8
引手
  6
Continuous
 62
    92
370
    13
100
AcDbCircle
 10
-3140.500018557986
 20
2331.000148463892
 30
0.0
 40
1.5
100
AcDbArc
 50
270.0
 51
0.0
  0
LINE
  5
3FF
330
1F
100
AcDbEntity
  8
引手
  6
Continuous
 62
    92
370
    13
100
AcDbLine
 10
-3179.500018557985
 20
2329.500148463893
 30
0.0
 11
-3140.500018557986
 21
2329.500148463893
 31
0.0
  0
ARC
  5
400
330
1F
100
AcDbEntity
  8
引手
  6
Continuous
 62
    92
370
    13
100
AcDbCircle
 10
-3179.500018557985
 20
2331.000148463892
 30
0.0
 40
1.5
100
AcDbArc
 50
180.0
 51
270.0
  0
LINE
  5
401
330
1F
100
AcDbEntity
  8
引手
  6
Continuous
 62
    92
370
    13
100
AcDbLine
 10
-3181.000018557985
 20
2438.000148463893
 30
0.0
 11
-3181.000018557985
 21
2331.000148463892
 31
0.0
  0
LINE
  5
402
330
1F
100
AcDbEntity
  8
引手
  6
Continuous
 62
    92
370
    13
100
AcDbLine
 10
-3179.500018557985
 20
2439.500148463893
 30
0.0
 11
-3140.500018557986
 21
2439.500148463893
 31
0.0
  0
ARC
  5
403
330
1F
100
AcDbEntity
  8
引手
  6
Continuous
 62
    92
370
    13
100
AcDbCircle
 10
-3179.500018557985
 20
2438.000148463893
 30
0.0
 40
1.5
100
AcDbArc
 50
90.0
 51
180.0
  0
ARC
  5
404
330
1F
100
AcDbEntity
  8
引手
  6
Continuous
 62
     7
370
     9
100
AcDbCircle
 10
-3149.000018557985
 20
2422.000148463893
 30
0.0
 40
1.5
100
AcDbArc
 50
0.0
 51
90.0
  0
LINE
  5
405
330
1F
100
AcDbEntity
  8
引手
  6
Continuous
 62
     7
370
     9
100
AcDbLine
 10
-3147.500018557985
 20
2347.000148463893
 30
0.0
 11
-3147.500018557985
 21
2422.000148463893
 31
0.0
  0
ARC
  5
406
330
1F
100
AcDbEntity
  8
引手
  6
Continuous
 62
     7
370
     9
100
AcDbCircle
 10
-3149.000018557985
 20
2347.000148463893
 30
0.0
 40
1.5
100
AcDbArc
 50
270.0
 51
0.0
  0
LINE
  5
407
330
1F
100
AcDbEntity
  8
引手
  6
Continuous
 62
     7
370
     9
100
AcDbLine
 10
-3171.000018557985
 20
2345.500148463893
 30
0.0
 11
-3149.000018557985
 21
2345.500148463893
 31
0.0
  0
ARC
  5
408
330
1F
100
AcDbEntity
  8
引手
  6
Continuous
 62
     7
370
     9
100
AcDbCircle
 10
-3171.000018557985
 20
2347.000148463893
 30
0.0
 40
1.5
100
AcDbArc
 50
180.0
 51
270.0
  0
LINE
  5
409
330
1F
100
AcDbEntity
  8
引手
  6
Continuous
 62
     7
370
     9
100
AcDbLine
 10
-3172.500018557984
 20
2422.000148463893
 30
0.0
 11
-3172.500018557984
 21
2347.000148463893
 31
0.0
  0
LINE
  5
40A
330
1F
100
AcDbEntity
  8
引手
  6
Continuous
 62
     7
370
     9
100
AcDbLine
 10
-3171.000018557985
 20
2423.500148463893
 30
0.0
 11
-3149.000018557985
 21
2423.500148463893
 31
0.0
  0
ARC
  5
40B
330
1F
100
AcDbEntity
  8
引手
  6
Continuous
 62
     7
370
     9
100
AcDbCircle
 10
-3171.000018557985
 20
2422.000148463893
 30
0.0
 40
1.5
100
AcDbArc
 50
90.0
 51
180.0
  0
LINE
  5
40C
330
1F
100
AcDbEntity
  8
0-4_枠
  6
Continuous
 62
    92
370
    13
100
AcDbLine
 10
-2316.000018557984
 20
3460.000148463893
 30
0.0
 11
-707.0000185579858
 21
3460.000148463893
 31
0.0
  0
LINE
  5
40D
330
1F
100
AcDbEntity
  8
0-4_枠
  6
Continuous
 62
    92
370
    13
100
AcDbLine
 10
77.99998144201652
 20
3460.000148463893
 30
0.0
 11
1492.999981442016
 21
3460.000148463893
 31
0.0
  0
LINE
  5
40E
330
1F
100
AcDbEntity
  8
0-4_枠
  6
Continuous
 62
    92
370
    13
100
AcDbLine
 10
1492.999981442016
 20
3403.000148463893
 30
0.0
 11
1492.999981442016
 21
3460.000148463893
 31
0.0
  0
LINE
  5
40F
330
1F
100
AcDbEntity
  8
0-4_枠
  6
Continuous
 62
    92
370
    13
100
AcDbLine
 10
77.99998144201652
 20
3403.000148463893
 30
0.0
 11
771.9999814420163
 21
3403.000148463893
 31
0.0
  0
LINE
  5
410
330
1F
100
AcDbEntity
  8
0-4_枠
  6
Continuous
 62
    92
370
    13
100
AcDbLine
 10
1484.999981442018
 20
3403.000148463893
 30
0.0
 11
1492.999981442016
 21
3403.000148463893
 31
0.0
  0
LINE
  5
411
330
1F
100
AcDbEntity
  8
0-4_枠
  6
Continuous
 62
    92
370
    13
100
AcDbLine
 10
77.99998144201652
 20
3403.000148463893
 30
0.0
 11
77.99998144201652
 21
3460.000148463893
 31
0.0
  0
LINE
  5
412
330
1F
100
AcDbEntity
  8
0-4_枠
  6
Continuous
 62
    92
370
    13
100
AcDbLine
 10
-707.0000185579858
 20
3403.000148463893
 30
0.0
 11
-707.0000185579858
 21
3460.000148463893
 31
0.0
  0
LINE
  5
413
330
1F
100
AcDbEntity
  8
0-4_枠
  6
Continuous
 62
    92
370
    13
100
AcDbLine
 10
-2316.000018557984
 20
3403.000148463893
 30
0.0
 11
-1525.000018557985
 21
3403.000148463893
 31
0.0
  0
LINE
  5
414
330
1F
100
AcDbEntity
  8
0-4_枠
  6
Continuous
 62
    92
370
    13
100
AcDbLine
 10
-715.0000185579853
 20
3403.000148463893
 30
0.0
 11
-707.0000185579858
 21
3403.000148463893
 31
0.0
  0
LINE
  5
415
330
1F
100
AcDbEntity
  8
0-4_枠
  6
Continuous
 62
    92
370
    13
100
AcDbLine
 10
-2316.000018557984
 20
3403.000148463893
 30
0.0
 11
-2316.000018557984
 21
3460.000148463893
 31
0.0
  0
LINE
  5
416
330
1F
100
AcDbEntity
  8
0-4_枠
  6
Continuous
 62
    92
370
    13
100
AcDbLine
 10
-3101.000018557986
 20
3403.000148463893
 30
0.0
 11
-3101.000018557986
 21
3460.000148463894
 31
0.0
  0
LINE
  5
417
330
1F
100
AcDbEntity
  8
0-4_枠
  6
Continuous
 62
    92
370
    13
100
AcDbLine
 10
-4890.000018557986
 20
3403.000148463893
 30
0.0
 11
-4009.000018557984
 21
3403.000148463893
 31
0.0
  0
LINE
  5
418
330
1F
100
AcDbEntity
  8
0-4_枠
  6
Continuous
 62
    92
370
    13
100
AcDbLine
 10
-3109.000018557984
 20
3403.000148463893
 30
0.0
 11
-3101.000018557986
 21
3403.000148463893
 31
0.0
  0
LINE
  5
419
330
1F
100
AcDbEntity
  8
0-4_枠
  6
Continuous
 62
    92
370
    13
100
AcDbLine
 10
-4890.000018557986
 20
3403.000148463893
 30
0.0
 11
-4890.000018557986
 21
3460.000148463894
 31
0.0
  0
LINE
  5
41A
330
1F
100
AcDbEntity
  8
0-4_枠
  6
Continuous
 62
    92
370
    13
100
AcDbLine
 10
-1498.000018557986
 20
1427.000148463893
 30
0.0
 11
-1498.000018557986
 21
1418.000148463893
 31
0.0
  0
LINE
  5
41B
330
1F
100
AcDbEntity
  8
0-4_枠
  6
Continuous
 62
    92
370
    13
100
AcDbLine
 10
-1526.000018557986
 20
1418.000148463893
 30
0.0
 11
-1498.000018557986
 21
1418.000148463893
 31
0.0
  0
LINE
  5
41C
330
1F
100
AcDbEntity
  8
0-4_枠
  6
Continuous
 62
    92
370
    13
100
AcDbLine
 10
-1526.000018557986
 20
3415.000148463894
 30
0.0
 11
-1526.000018557986
 21
1418.000148463893
 31
0.0
  0
LINE
  5
41D
330
1F
100
AcDbEntity
  8
0-4_枠
  6
Continuous
 62
    92
370
    13
100
AcDbLine
 10
798.9999814420164
 20
1427.000148463893
 30
0.0
 11
798.9999814420164
 21
1418.000148463893
 31
0.0
  0
LINE
  5
41E
330
1F
100
AcDbEntity
  8
0-4_枠
  6
Continuous
 62
    92
370
    13
100
AcDbLine
 10
770.9999814420164
 20
1418.000148463893
 30
0.0
 11
798.9999814420164
 21
1418.000148463893
 31
0.0
  0
LINE
  5
41F
330
1F
100
AcDbEntity
  8
0-4_枠
  6
Continuous
 62
    92
370
    13
100
AcDbLine
 10
770.9999814420164
 20
3415.000148463894
 30
0.0
 11
770.9999814420164
 21
1418.000148463893
 31
0.0
  0
LINE
  5
420
330
1F
100
AcDbEntity
  8
0-4_枠
  6
Continuous
 62
    92
370
    13
100
AcDbLine
 10
-3982.000018557987
 20
1427.000148463893
 30
0.0
 11
-3982.000018557987
 21
1418.000148463893
 31
0.0
  0
LINE
  5
421
330
1F
100
AcDbEntity
  8
0-4_枠
  6
Continuous
 62
    92
370
    13
100
AcDbLine
 10
-4010.000018557985
 20
1418.000148463893
 30
0.0
 11
-3982.000018557987
 21
1418.000148463893
 31
0.0
  0
LINE
  5
422
330
1F
100
AcDbEntity
  8
0-4_枠
  6
Continuous
 62
    92
370
    13
100
AcDbLine
 10
-4010.000018557985
 20
3415.000148463894
 30
0.0
 11
-4010.000018557985
 21
1418.000148463893
 31
0.0
  0
LINE
  5
423
330
1F
100
AcDbEntity
  8
0-0_補助線
  6
JWW_HOJO
 62
     7
370
     9
100
AcDbLine
 10
-5490.000018557986
 20
3460.000148463894
 30
0.0
 11
5689.998977248734
 21
3460.000148463894
 31
0.0
  0
ENDSEC
  0
SECTION
  2
OBJECTS
  0
DICTIONARY
  5
C
330
0
100
AcDbDictionary
281
     1
  3
ACAD_GROUP
350
D
  3
ACAD_LAYOUT
350
1A
  3
ACAD_MATERIAL
350
3B
  3
ACAD_MLEADERSTYLE
350
425
  3
ACAD_MLINESTYLE
350
17
  3
ACAD_PLOTSETTINGS
350
19
  3
ACAD_PLOTSTYLENAME
350
E
  3
ACAD_TABLESTYLE
350
424
  3
ACAD_VISUALSTYLE
350
2A
  0
DICTIONARY
  5
D
102
{ACAD_REACTORS
330
C
102
}
330
C
100
AcDbDictionary
281
     1
  0
DICTIONARY
  5
1A
102
{ACAD_REACTORS
330
C
102
}
330
C
100
AcDbDictionary
281
     1
  3
Layout1
350
1E
  3
Layout2
350
26
  3
Model
350
22
  0
DICTIONARY
  5
3B
102
{ACAD_REACTORS
330
C
102
}
330
C
100
AcDbDictionary
281
     1
  3
ByBlock
350
3D
  3
ByLayer
350
3C
  3
Global
350
3E
  0
DICTIONARY
  5
425
102
{ACAD_REACTORS
330
C
102
}
330
C
100
AcDbDictionary
281
     1
  0
DICTIONARY
  5
17
102
{ACAD_REACTORS
330
C
102
}
330
C
100
AcDbDictionary
281
     1
  3
Standard
350
18
  0
DICTIONARY
  5
19
102
{ACAD_REACTORS
330
C
102
}
330
C
100
AcDbDictionary
281
     1
  0
ACDBDICTIONARYWDFLT
  5
E
102
{ACAD_REACTORS
330
C
102
}
330
C
100
AcDbDictionary
281
     1
  3
Normal
350
F
100
AcDbDictionaryWithDefault
340
F
  0
DICTIONARY
  5
424
102
{ACAD_REACTORS
330
C
102
}
330
C
100
AcDbDictionary
281
     1
  0
DICTIONARY
  5
2A
102
{ACAD_REACTORS
330
C
102
}
330
C
100
AcDbDictionary
281
     1
  3
2dWireframe
350
2F
  3
3D Hidden
350
31
  3
3dWireframe
350
30
  3
Basic
350
32
  3
Brighten
350
36
  3
ColorChange
350
3A
  3
Conceptual
350
34
  3
Dim
350
35
  3
Facepattern
350
39
  3
Flat
350
2B
  3
FlatWithEdges
350
2C
  3
Gouraud
350
2D
  3
GouraudWithEdges
350
2E
  3
Linepattern
350
38
  3
Realistic
350
33
  3
Thicken
350
37
  0
LAYOUT
  5
1E
102
{ACAD_REACTORS
330
1A
102
}
330
1A
100
AcDbPlotSettings
  1

  2
none_device
  4

  6

 40
0.0
 41
0.0
 42
0.0
 43
0.0
 44
0.0
 45
0.0
 46
0.0
 47
0.0
 48
0.0
 49
0.0
140
0.0
141
0.0
142
1.0
143
1.0
 70
   688
 72
     0
 73
     0
 74
     5
  7

 75
    16
 76
     0
 77
     5
 78
   300
147
1.0
148
0.0
149
0.0
100
AcDbLayout
  1
Layout1
 70
     1
 71
     1
 10
0.0
 20
0.0
 11
420.0
 21
297.0
 12
0.0
 22
0.0
 32
0.0
 14
1.000000000000000E+20
 24
1.000000000000000E+20
 34
1.000000000000000E+20
 15
-1.000000000000000E+20
 25
-1.000000000000000E+20
 35
-1.000000000000000E+20
146
0.0
 13
0.0
 23
0.0
 33
0.0
 16
1.0
 26
0.0
 36
0.0
 17
0.0
 27
1.0
 37
0.0
 76
     0
330
1B
  0
LAYOUT
  5
26
102
{ACAD_REACTORS
330
1A
102
}
330
1A
100
AcDbPlotSettings
  1

  2
none_device
  4

  6

 40
0.0
 41
0.0
 42
0.0
 43
0.0
 44
0.0
 45
0.0
 46
0.0
 47
0.0
 48
0.0
 49
0.0
140
0.0
141
0.0
142
1.0
143
1.0
 70
   688
 72
     0
 73
     0
 74
     5
  7

 75
    16
 76
     0
 77
     5
 78
   300
147
1.0
148
0.0
149
0.0
100
AcDbLayout
  1
Layout2
 70
     1
 71
     2
 10
0.0
 20
0.0
 11
0.0
 21
0.0
 12
0.0
 22
0.0
 32
0.0
 14
0.0
 24
0.0
 34
0.0
 15
0.0
 25
0.0
 35
0.0
146
0.0
 13
0.0
 23
0.0
 33
0.0
 16
1.0
 26
0.0
 36
0.0
 17
0.0
 27
1.0
 37
0.0
 76
     0
330
23
  0
LAYOUT
  5
22
102
{ACAD_REACTORS
330
1A
102
}
330
1A
100
AcDbPlotSettings
  1

  2
none_device
  4

  6

 40
0.0
 41
0.0
 42
0.0
 43
0.0
 44
0.0
 45
0.0
 46
0.0
 47
0.0
 48
0.0
 49
0.0
140
0.0
141
0.0
142
1.0
143
1.0
 70
  1712
 72
     0
 73
     0
 74
     0
  7

 75
     0
 76
     0
 77
     5
 78
   300
147
1.0
148
0.0
149
0.0
100
AcDbLayout
  1
Model
 70
     1
 71
     0
 10
-6300.0
 20
-4455.0
 11
6300.0
 21
4455.0
 12
0.0
 22
0.0
 32
0.0
 14
-6300.0
 24
-4455.0
 34
0.0
 15
6300.0
 25
4455.0
 35
0.0
146
0.0
 13
0.0
 23
0.0
 33
0.0
 16
1.0
 26
0.0
 36
0.0
 17
0.0
 27
1.0
 37
0.0
 76
     0
330
1F
331
29
  0
MATERIAL
  5
3D
102
{ACAD_REACTORS
330
3B
102
}
330
3B
100
AcDbMaterial
  1
ByBlock
 72
     1
 94
      127
  0
MATERIAL
  5
3C
102
{ACAD_REACTORS
330
3B
102
}
330
3B
100
AcDbMaterial
  1
ByLayer
 72
     1
 94
      127
  0
MATERIAL
  5
3E
102
{ACAD_REACTORS
330
3B
102
}
330
3B
100
AcDbMaterial
  1
Global
 72
     1
 94
      127
  0
MLINESTYLE
  5
18
102
{ACAD_REACTORS
330
17
102
}
330
17
100
AcDbMlineStyle
  2
Standard
 70
     0
  3

 62
   256
 51
90.0
 52
90.0
 71
     2
 49
0.5
 62
   256
  6
BYLAYER
 49
-0.5
 62
   256
  6
BYLAYER
  0
ACDBPLACEHOLDER
  5
F
102
{ACAD_REACTORS
330
E
102
}
330
E
  0
VISUALSTYLE
  5
2F
102
{ACAD_REACTORS
330
2A
102
}
330
2A
100
AcDbVisualStyle
  2
2dWireframe
 70
     4
177
     2
291
     0
 71
     0
176
     1
 72
     2
176
     1
 73
     0
176
     1
 90
        0
176
     1
 40
-0.6
176
     1
 41
-30.0
176
     1
 62
     5
 63
     7
421
 16777215
176
     1
 74
     1
176
     1
 91
        4
176
     1
 64
     7
176
     1
 65
   257
176
     1
 75
     1
176
     1
175
     1
176
     1
 42
1.0
176
     1
 92
        0
176
     1
 66
   257
176
     1
 43
1.0
176
     1
 76
     1
176
     1
 77
     6
176
     1
 78
     2
176
     1
 67
     7
176
     1
 79
     5
176
     1
170
     0
176
     1
171
     0
176
     1
290
     0
176
     1
 93
        1
176
     1
 44
0.0
176
     1
173
     0
176
     1
  0
VISUALSTYLE
  5
31
102
{ACAD_REACTORS
330
2A
102
}
330
2A
100
AcDbVisualStyle
  2
3D Hidden
 70
     6
177
     2
291
     0
 71
     1
176
     1
 72
     2
176
     1
 73
     2
176
     1
 90
        0
176
     1
 40
-0.6
176
     1
 41
-30.0
176
     1
 62
     5
 63
     7
421
 16777215
176
     1
 74
     2
176
     1
 91
        2
176
     1
 64
     7
176
     1
 65
   257
176
     1
 75
     2
176
     1
175
     1
176
     1
 42
40.0
176
     1
 92
        0
176
     1
 66
   257
176
     1
 43
1.0
176
     1
 76
     1
176
     1
 77
     6
176
     1
 78
     2
176
     1
 67
     7
176
     1
 79
     3
176
     1
170
     0
176
     1
171
     0
176
     1
290
     0
176
     1
 93
        1
176
     1
 44
0.0
176
     1
173
     0
176
     1
  0
VISUALSTYLE
  5
30
102
{ACAD_REACTORS
330
2A
102
}
330
2A
100
AcDbVisualStyle
  2
3dWireframe
 70
     5
177
     2
291
     0
 71
     0
176
     1
 72
     2
176
     1
 73
     0
176
     1
 90
        0
176
     1
 40
-0.6
176
     1
 41
-30.0
176
     1
 62
     5
 63
     7
421
 16777215
176
     1
 74
     1
176
     1
 91
        4
176
     1
 64
     7
176
     1
 65
   257
176
     1
 75
     1
176
     1
175
     1
176
     1
 42
1.0
176
     1
 92
        0
176
     1
 66
   257
176
     1
 43
1.0
176
     1
 76
     1
176
     1
 77
     6
176
     1
 78
     2
176
     1
 67
     7
176
     1
 79
     5
176
     1
170
     0
176
     1
171
     0
176
     1
290
     0
176
     1
 93
        1
176
     1
 44
0.0
176
     1
173
     0
176
     1
  0
VISUALSTYLE
  5
32
102
{ACAD_REACTORS
330
2A
102
}
330
2A
100
AcDbVisualStyle
  2
Basic
 70
     7
177
     2
291
     1
 71
     1
176
     1
 72
     0
176
     1
 73
     1
176
     1
 90
        0
176
     1
 40
-0.6
176
     1
 41
-30.0
176
     1
 62
     5
 63
     7
421
 16777215
176
     1
 74
     0
176
     1
 91
        4
176
     1
 64
     7
176
     1
 65
   257
176
     1
 75
     1
176
     1
175
     1
176
     1
 42
1.0
176
     1
 92
        8
176
     1
 66
     7
176
     1
 43
1.0
176
     1
 76
     1
176
     1
 77
     6
176
     1
 78
     2
176
     1
 67
     7
176
     1
 79
     5
176
     1
170
     0
176
     1
171
     0
176
     1
290
     0
176
     1
 93
        1
176
     1
 44
0.0
176
     1
173
     0
176
     1
  0
VISUALSTYLE
  5
36
102
{ACAD_REACTORS
330
2A
102
}
330
2A
100
AcDbVisualStyle
  2
Brighten
 70
    12
177
     2
291
     1
 71
     2
176
     1
 72
     2
176
     1
 73
     0
176
     1
 90
        0
176
     1
 40
-0.6
176
     1
 41
-30.0
176
     1
 62
     5
 63
     7
421
 16777215
176
     1
 74
     1
176
     1
 91
        4
176
     1
 64
     7
176
     1
 65
   257
176
     1
 75
     1
176
     1
175
     1
176
     1
 42
1.0
176
     1
 92
        8
176
     1
 66
     7
176
     1
 43
1.0
176
     1
 76
     1
176
     1
 77
     6
176
     1
 78
     2
176
     1
 67
     7
176
     1
 79
     5
176
     1
170
     0
176
     1
171
     0
176
     1
290
     0
176
     1
 93
        1
176
     1
 44
50.0
176
     1
173
     0
176
     1
  0
VISUALSTYLE
  5
3A
102
{ACAD_REACTORS
330
2A
102
}
330
2A
100
AcDbVisualStyle
  2
ColorChange
 70
    16
177
     2
291
     1
 71
     2
176
     1
 72
     2
176
     1
 73
     3
176
     1
 90
        0
176
     1
 40
-0.6
176
     1
 41
-30.0
176
     1
 62
     5
 63
     8
421
  8421504
176
     1
 74
     1
176
     1
 91
        4
176
     1
 64
     7
176
     1
 65
   257
176
     1
 75
     1
176
     1
175
     1
176
     1
 42
1.0
176
     1
 92
        8
176
     1
 66
     8
424
  8421504
176
     1
 43
1.0
176
     1
 76
     1
176
     1
 77
     6
176
     1
 78
     2
176
     1
 67
     7
176
     1
 79
     5
176
     1
170
     0
176
     1
171
     0
176
     1
290
     0
176
     1
 93
        1
176
     1
 44
0.0
176
     1
173
     0
176
     1
  0
VISUALSTYLE
  5
34
102
{ACAD_REACTORS
330
2A
102
}
330
2A
100
AcDbVisualStyle
  2
Conceptual
 70
     9
177
     2
291
     0
 71
     3
176
     1
 72
     2
176
     1
 73
     0
176
     1
 90
        0
176
     1
 40
-0.6
176
     1
 41
-30.0
176
     1
 62
     5
 63
     7
421
 16777215
176
     1
 74
     2
176
     1
 91
        2
176
     1
 64
     7
176
     1
 65
   257
176
     1
 75
     1
176
     1
175
     1
176
     1
 42
40.0
176
     1
 92
        8
176
     1
 66
     7
176
     1
 43
1.0
176
     1
 76
     1
176
     1
 77
     6
176
     1
 78
     2
176
     1
 67
     7
176
     1
 79
     3
176
     1
170
     0
176
     1
171
     0
176
     1
290
     0
176
     1
 93
        1
176
     1
 44
0.0
176
     1
173
     0
176
     1
  0
VISUALSTYLE
  5
35
102
{ACAD_REACTORS
330
2A
102
}
330
2A
100
AcDbVisualStyle
  2
Dim
 70
    11
177
     2
291
     1
 71
     2
176
     1
 72
     2
176
     1
 73
     0
176
     1
 90
        0
176
     1
 40
-0.6
176
     1
 41
-30.0
176
     1
 62
     5
 63
     7
421
 16777215
176
     1
 74
     1
176
     1
 91
        4
176
     1
 64
     7
176
     1
 65
   257
176
     1
 75
     1
176
     1
175
     1
176
     1
 42
1.0
176
     1
 92
        8
176
     1
 66
     7
176
     1
 43
1.0
176
     1
 76
     1
176
     1
 77
     6
176
     1
 78
     2
176
     1
 67
     7
176
     1
 79
     5
176
     1
170
     0
176
     1
171
     0
176
     1
290
     0
176
     1
 93
        1
176
     1
 44
-50.0
176
     1
173
     0
176
     1
  0
VISUALSTYLE
  5
39
102
{ACAD_REACTORS
330
2A
102
}
330
2A
100
AcDbVisualStyle
  2
Facepattern
 70
    15
177
     2
291
     1
 71
     2
176
     1
 72
     2
176
     1
 73
     0
176
     1
 90
        0
176
     1
 40
-0.6
176
     1
 41
-30.0
176
     1
 62
     5
 63
     7
421
 16777215
176
     1
 74
     1
176
     1
 91
        4
176
     1
 64
     7
176
     1
 65
   257
176
     1
 75
     1
176
     1
175
     1
176
     1
 42
1.0
176
     1
 92
        8
176
     1
 66
     7
176
     1
 43
1.0
176
     1
 76
     1
176
     1
 77
     6
176
     1
 78
     2
176
     1
 67
     7
176
     1
 79
     5
176
     1
170
     0
176
     1
171
     0
176
     1
290
     0
176
     1
 93
        1
176
     1
 44
0.0
176
     1
173
     0
176
     1
  0
VISUALSTYLE
  5
2B
102
{ACAD_REACTORS
330
2A
102
}
330
2A
100
AcDbVisualStyle
  2
Flat
 70
     0
177
     2
291
     1
 71
     2
176
     1
 72
     1
176
     1
 73
     1
176
     1
 90
        2
176
     1
 40
-0.6
176
     1
 41
30.0
176
     1
 62
     5
 63
     7
421
 16777215
176
     1
 74
     0
176
     1
 91
        4
176
     1
 64
     7
176
     1
 65
   257
176
     1
 75
     1
176
     1
175
     1
176
     1
 42
1.0
176
     1
 92
        8
176
     1
 66
     7
176
     1
 43
1.0
176
     1
 76
     1
176
     1
 77
     6
176
     1
 78
     2
176
     1
 67
     7
176
     1
 79
     5
176
     1
170
     0
176
     1
171
     0
176
     1
290
     0
176
     1
 93
       13
176
     1
 44
0.0
176
     1
173
     0
176
     1
  0
VISUALSTYLE
  5
2C
102
{ACAD_REACTORS
330
2A
102
}
330
2A
100
AcDbVisualStyle
  2
FlatWithEdges
 70
     1
177
     2
291
     1
 71
     2
176
     1
 72
     1
176
     1
 73
     1
176
     1
 90
        2
176
     1
 40
-0.6
176
     1
 41
30.0
176
     1
 62
     5
 63
     7
421
 16777215
176
     1
 74
     1
176
     1
 91
        4
176
     1
 64
     7
176
     1
 65
   257
176
     1
 75
     1
176
     1
175
     1
176
     1
 42
1.0
176
     1
 92
        0
176
     1
 66
   257
176
     1
 43
1.0
176
     1
 76
     1
176
     1
 77
     6
176
     1
 78
     2
176
     1
 67
     7
176
     1
 79
     5
176
     1
170
     0
176
     1
171
     0
176
     1
290
     0
176
     1
 93
       13
176
     1
 44
0.0
176
     1
173
     0
176
     1
  0
VISUALSTYLE
  5
2D
102
{ACAD_REACTORS
330
2A
102
}
330
2A
100
AcDbVisualStyle
  2
Gouraud
 70
     2
177
     2
291
     1
 71
     2
176
     1
 72
     2
176
     1
 73
     1
176
     1
 90
        2
176
     1
 40
-0.6
176
     1
 41
30.0
176
     1
 62
     5
 63
     7
421
 16777215
176
     1
 74
     0
176
     1
 91
        4
176
     1
 64
     7
176
     1
 65
   257
176
     1
 75
     1
176
     1
175
     1
176
     1
 42
1.0
176
     1
 92
        0
176
     1
 66
     7
176
     1
 43
1.0
176
     1
 76
     1
176
     1
 77
     6
176
     1
 78
     2
176
     1
 67
     7
176
     1
 79
     5
176
     1
170
     0
176
     1
171
     0
176
     1
290
     0
176
     1
 93
       13
176
     1
 44
0.0
176
     1
173
     0
176
     1
  0
VISUALSTYLE
  5
2E
102
{ACAD_REACTORS
330
2A
102
}
330
2A
100
AcDbVisualStyle
  2
GouraudWithEdges
 70
     3
177
     2
291
     1
 71
     2
176
     1
 72
     2
176
     1
 73
     1
176
     1
 90
        2
176
     1
 40
-0.6
176
     1
 41
30.0
176
     1
 62
     5
 63
     7
421
 16777215
176
     1
 74
     1
176
     1
 91
        4
176
     1
 64
     7
176
     1
 65
   257
176
     1
 75
     1
176
     1
175
     1
176
     1
 42
1.0
176
     1
 92
        0
176
     1
 66
   257
176
     1
 43
1.0
176
     1
 76
     1
176
     1
 77
     6
176
     1
 78
     2
176
     1
 67
     7
176
     1
 79
     5
176
     1
170
     0
176
     1
171
     0
176
     1
290
     0
176
     1
 93
       13
176
     1
 44
0.0
176
     1
173
     0
176
     1
  0
VISUALSTYLE
  5
38
102
{ACAD_REACTORS
330
2A
102
}
330
2A
100
AcDbVisualStyle
  2
Linepattern
 70
    14
177
     2
291
     1
 71
     2
176
     1
 72
     2
176
     1
 73
     0
176
     1
 90
        0
176
     1
 40
-0.6
176
     1
 41
-30.0
176
     1
 62
     5
 63
     7
421
 16777215
176
     1
 74
     1
176
     1
 91
        4
176
     1
 64
     7
176
     1
 65
   257
176
     1
 75
     7
176
     1
175
     7
176
     1
 42
1.0
176
     1
 92
        8
176
     1
 66
     7
176
     1
 43
1.0
176
     1
 76
     1
176
     1
 77
     6
176
     1
 78
     2
176
     1
 67
     7
176
     1
 79
     5
176
     1
170
     0
176
     1
171
     0
176
     1
290
     0
176
     1
 93
        1
176
     1
 44
0.0
176
     1
173
     0
176
     1
  0
VISUALSTYLE
  5
33
102
{ACAD_REACTORS
330
2A
102
}
330
2A
100
AcDbVisualStyle
  2
Realistic
 70
     8
177
     2
291
     0
 71
     2
176
     1
 72
     2
176
     1
 73
     0
176
     1
 90
        0
176
     1
 40
-0.6
176
     1
 41
-30.0
176
     1
 62
     5
 63
     7
421
 16777215
176
     1
 74
     1
176
     1
 91
        0
176
     1
 64
     7
176
     1
 65
   257
176
     1
 75
     1
176
     1
175
     1
176
     1
 42
1.0
176
     1
 92
        8
176
     1
 66
     8
424
  7895160
176
     1
 43
1.0
176
     1
 76
     1
176
     1
 77
     6
176
     1
 78
     2
176
     1
 67
     7
176
     1
 79
     5
176
     1
170
     0
176
     1
171
     0
176
     1
290
     0
176
     1
 93
       13
176
     1
 44
0.0
176
     1
173
     0
176
     1
  0
VISUALSTYLE
  5
37
102
{ACAD_REACTORS
330
2A
102
}
330
2A
100
AcDbVisualStyle
  2
Thicken
 70
    13
177
     2
291
     1
 71
     2
176
     1
 72
     2
176
     1
 73
     0
176
     1
 90
        0
176
     1
 40
-0.6
176
     1
 41
-30.0
176
     1
 62
     5
 63
     7
421
 16777215
176
     1
 74
     1
176
     1
 91
        4
176
     1
 64
     7
176
     1
 65
   257
176
     1
 75
     1
176
     1
175
     1
176
     1
 42
1.0
176
     1
 92
       12
176
     1
 66
     7
176
     1
 43
1.0
176
     1
 76
     1
176
     1
 77
     6
176
     1
 78
     2
176
     1
 67
     7
176
     1
 79
     5
176
     1
170
     0
176
     1
171
     0
176
     1
290
     0
176
     1
 93
        1
176
     1
 44
0.0
176
     1
173
     0
176
     1
  0
ENDSEC
  0
EOF
