  0
SECTION
  2
HEADER
  9
$ACADVER
  1
AC1024
  9
$ACADMAINTVER
 70
     6
  9
$DWGCODEPAGE
  3
ANSI_932
  9
$INSBASE
 10
0.0
 20
0.0
 30
0.0
  9
$EXTMIN
 10
-6300.0
 20
-4455.0
 30
0.0
  9
$EXTMAX
 10
6300.0
 20
4455.0
 30
0.0
  9
$LIMMIN
 10
-6300.0
 20
-4455.0
  9
$LIMMAX
 10
6300.0
 20
4455.0
  9
$ORTHOMODE
 70
     0
  9
$REGENMODE
 70
     1
  9
$FILLMODE
 70
     1
  9
$QTEXTMODE
 70
     0
  9
$MIRRTEXT
 70
     1
  9
$LTSCALE
 40
30.0
  9
$ATTMODE
 70
     1
  9
$TEXTSIZE
 40
2.5
  9
$TRACEWID
 40
1.0
  9
$TEXTSTYLE
  7
Standard
  9
$CLAYER
  8
0
  9
$CELTYPE
  6
ByLayer
  9
$CECOLOR
 62
   256
  9
$CELTSCALE
 40
1.0
  9
$DISPSILH
 70
     0
  9
$DIMSCALE
 40
1.0
  9
$DIMASZ
 40
2.5
  9
$DIMEXO
 40
0.625
  9
$DIMDLI
 40
3.75
  9
$DIMRND
 40
0.0
  9
$DIMDLE
 40
0.0
  9
$DIMEXE
 40
1.25
  9
$DIMTP
 40
0.0
  9
$DIMTM
 40
0.0
  9
$DIMTXT
 40
2.5
  9
$DIMCEN
 40
2.5
  9
$DIMTSZ
 40
0.0
  9
$DIMTOL
 70
     0
  9
$DIMLIM
 70
     0
  9
$DIMTIH
 70
     0
  9
$DIMTOH
 70
     0
  9
$DIMSE1
 70
     0
  9
$DIMSE2
 70
     0
  9
$DIMTAD
 70
     1
  9
$DIMZIN
 70
     8
  9
$DIMBLK
  1

  9
$DIMASO
 70
     1
  9
$DIMSHO
 70
     1
  9
$DIMPOST
  1

  9
$DIMAPOST
  1

  9
$DIMALT
 70
     0
  9
$DIMALTD
 70
     3
  9
$DIMALTF
 40
0.03937007874016
  9
$DIMLFAC
 40
1.0
  9
$DIMTOFL
 70
     1
  9
$DIMTVP
 40
0.0
  9
$DIMTIX
 70
     0
  9
$DIMSOXD
 70
     0
  9
$DIMSAH
 70
     0
  9
$DIMBLK1
  1

  9
$DIMBLK2
  1

  9
$DIMSTYLE
  2
ISO-25
  9
$DIMCLRD
 70
     0
  9
$DIMCLRE
 70
     0
  9
$DIMCLRT
 70
     0
  9
$DIMTFAC
 40
1.0
  9
$DIMGAP
 40
0.625
  9
$DIMJUST
 70
     0
  9
$DIMSD1
 70
     0
  9
$DIMSD2
 70
     0
  9
$DIMTOLJ
 70
     0
  9
$DIMTZIN
 70
     8
  9
$DIMALTZ
 70
     0
  9
$DIMALTTZ
 70
     0
  9
$DIMUPT
 70
     0
  9
$DIMDEC
 70
     2
  9
$DIMTDEC
 70
     2
  9
$DIMALTU
 70
     2
  9
$DIMALTTD
 70
     3
  9
$DIMTXSTY
  7
Standard
  9
$DIMAUNIT
 70
     0
  9
$DIMADEC
 70
     0
  9
$DIMALTRND
 40
0.0
  9
$DIMAZIN
 70
     0
  9
$DIMDSEP
 70
    44
  9
$DIMATFIT
 70
     3
  9
$DIMFRAC
 70
     0
  9
$DIMLDRBLK
  1

  9
$DIMLUNIT
 70
     2
  9
$DIMLWD
 70
    -2
  9
$DIMLWE
 70
    -2
  9
$DIMTMOVE
 70
     0
  9
$DIMFXL
 40
1.0
  9
$DIMFXLON
 70
     0
  9
$DIMJOGANG
 40
0.7853981633974483
  9
$DIMTFILL
 70
     0
  9
$DIMTFILLCLR
 70
     0
  9
$DIMARCSYM
 70
     0
  9
$DIMLTYPE
  6

  9
$DIMLTEX1
  6

  9
$DIMLTEX2
  6

  9
$DIMTXTDIRECTION
 70
     0
  9
$LUNITS
 70
     2
  9
$LUPREC
 70
     4
  9
$SKETCHINC
 40
1.0
  9
$FILLETRAD
 40
10.0
  9
$AUNITS
 70
     0
  9
$AUPREC
 70
     0
  9
$MENU
  1
.
  9
$ELEVATION
 40
0.0
  9
$PELEVATION
 40
0.0
  9
$THICKNESS
 40
0.0
  9
$LIMCHECK
 70
     0
  9
$CHAMFERA
 40
10.0
  9
$CHAMFERB
 40
10.0
  9
$CHAMFERC
 40
20.0
  9
$CHAMFERD
 40
0.0
  9
$SKPOLY
 70
     0
  9
$TDCREATE
 40
2459480.389995023
  9
$TDUCREATE
 40
2459480.014995023
  9
$TDUPDATE
 40
2459480.389995035
  9
$TDUUPDATE
 40
2459480.014995035
  9
$TDINDWG
 40
0.0000000116
  9
$TDUSRTIMER
 40
0.0000000116
  9
$USRTIMER
 70
     1
  9
$ANGBASE
 50
0.0
  9
$ANGDIR
 70
     0
  9
$PDMODE
 70
     0
  9
$PDSIZE
 40
0.0
  9
$PLINEWID
 40
0.0
  9
$SPLFRAME
 70
     0
  9
$SPLINETYPE
 70
     6
  9
$SPLINESEGS
 70
     8
  9
$HANDSEED
  5
4B4
  9
$SURFTAB1
 70
     6
  9
$SURFTAB2
 70
     6
  9
$SURFTYPE
 70
     6
  9
$SURFU
 70
     6
  9
$SURFV
 70
     6
  9
$UCSBASE
  2

  9
$UCSNAME
  2

  9
$UCSORG
 10
0.0
 20
0.0
 30
0.0
  9
$UCSXDIR
 10
1.0
 20
0.0
 30
0.0
  9
$UCSYDIR
 10
0.0
 20
1.0
 30
0.0
  9
$UCSORTHOREF
  2

  9
$UCSORTHOVIEW
 70
     0
  9
$UCSORGTOP
 10
0.0
 20
0.0
 30
0.0
  9
$UCSORGBOTTOM
 10
0.0
 20
0.0
 30
0.0
  9
$UCSORGLEFT
 10
0.0
 20
0.0
 30
0.0
  9
$UCSORGRIGHT
 10
0.0
 20
0.0
 30
0.0
  9
$UCSORGFRONT
 10
0.0
 20
0.0
 30
0.0
  9
$UCSORGBACK
 10
0.0
 20
0.0
 30
0.0
  9
$PUCSBASE
  2

  9
$PUCSNAME
  2

  9
$PUCSORG
 10
0.0
 20
0.0
 30
0.0
  9
$PUCSXDIR
 10
1.0
 20
0.0
 30
0.0
  9
$PUCSYDIR
 10
0.0
 20
1.0
 30
0.0
  9
$PUCSORTHOREF
  2

  9
$PUCSORTHOVIEW
 70
     0
  9
$PUCSORGTOP
 10
0.0
 20
0.0
 30
0.0
  9
$PUCSORGBOTTOM
 10
0.0
 20
0.0
 30
0.0
  9
$PUCSORGLEFT
 10
0.0
 20
0.0
 30
0.0
  9
$PUCSORGRIGHT
 10
0.0
 20
0.0
 30
0.0
  9
$PUCSORGFRONT
 10
0.0
 20
0.0
 30
0.0
  9
$PUCSORGBACK
 10
0.0
 20
0.0
 30
0.0
  9
$USERI1
 70
     0
  9
$USERI2
 70
     0
  9
$USERI3
 70
     0
  9
$USERI4
 70
     0
  9
$USERI5
 70
     0
  9
$USERR1
 40
0.0
  9
$USERR2
 40
0.0
  9
$USERR3
 40
0.0
  9
$USERR4
 40
0.0
  9
$USERR5
 40
0.0
  9
$WORLDVIEW
 70
     1
  9
$SHADEDGE
 70
     3
  9
$SHADEDIF
 70
    70
  9
$TILEMODE
 70
     1
  9
$MAXACTVP
 70
    64
  9
$PINSBASE
 10
0.0
 20
0.0
 30
0.0
  9
$PLIMCHECK
 70
     0
  9
$PEXTMIN
 10
1.000000000000000E+20
 20
1.000000000000000E+20
 30
1.000000000000000E+20
  9
$PEXTMAX
 10
-1.000000000000000E+20
 20
-1.000000000000000E+20
 30
-1.000000000000000E+20
  9
$PLIMMIN
 10
0.0
 20
0.0
  9
$PLIMMAX
 10
420.0
 20
297.0
  9
$UNITMODE
 70
     0
  9
$VISRETAIN
 70
     1
  9
$PLINEGEN
 70
     0
  9
$PSLTSCALE
 70
     1
  9
$TREEDEPTH
 70
  3020
  9
$CMLSTYLE
  2
Standard
  9
$CMLJUST
 70
     0
  9
$CMLSCALE
 40
20.0
  9
$PROXYGRAPHICS
 70
     1
  9
$MEASUREMENT
 70
     1
  9
$CELWEIGHT
370
    -1
  9
$ENDCAPS
280
     0
  9
$JOINSTYLE
280
     0
  9
$LWDISPLAY
290
     0
  9
$INSUNITS
 70
     4
  9
$HYPERLINKBASE
  1

  9
$STYLESHEET
  1

  9
$XEDIT
290
     1
  9
$CEPSNTYPE
380
     0
  9
$PSTYLEMODE
290
     1
  9
$FINGERPRINTGUID
  2
{027D2DD4-B302-4E6E-BD53-E24355833E86}
  9
$VERSIONGUID
  2
{FAEB1C32-E019-11D5-929B-00C0DF256EC4}
  9
$EXTNAMES
290
     1
  9
$PSVPSCALE
 40
0.0
  9
$OLESTARTUP
290
     0
  9
$SORTENTS
280
   127
  9
$INDEXCTL
280
     0
  9
$HIDETEXT
280
     1
  9
$XCLIPFRAME
280
     2
  9
$HALOGAP
280
     0
  9
$OBSCOLOR
 70
   257
  9
$OBSLTYPE
280
     0
  9
$INTERSECTIONDISPLAY
280
     0
  9
$INTERSECTIONCOLOR
 70
   257
  9
$DIMASSOC
280
     2
  9
$PROJECTNAME
  1

  9
$CAMERADISPLAY
290
     0
  9
$LENSLENGTH
 40
50.0
  9
$CAMERAHEIGHT
 40
0.0
  9
$STEPSPERSEC
 40
2.0
  9
$STEPSIZE
 40
6.0
  9
$3DDWFPREC
 40
2.0
  9
$PSOLWIDTH
 40
5.0
  9
$PSOLHEIGHT
 40
80.0
  9
$LOFTANG1
 40
1.570796326794897
  9
$LOFTANG2
 40
1.570796326794897
  9
$LOFTMAG1
 40
0.0
  9
$LOFTMAG2
 40
0.0
  9
$LOFTPARAM
 70
     7
  9
$LOFTNORMALS
280
     1
  9
$LATITUDE
 40
37.795
  9
$LONGITUDE
 40
-122.394
  9
$NORTHDIRECTION
 40
0.0
  9
$TIMEZONE
 70
 -8000
  9
$LIGHTGLYPHDISPLAY
280
     1
  9
$TILEMODELIGHTSYNCH
280
     1
  9
$SOLIDHIST
280
     1
  9
$SHOWHIST
280
     1
  9
$DWFFRAME
280
     2
  9
$DGNFRAME
280
     2
  9
$REALWORLDSCALE
290
     1
  9
$INTERFERECOLOR
 62
   256
  9
$CSHADOW
280
     0
  9
$SHADOWPLANELOCATION
 40
0.0
  0
ENDSEC
  0
SECTION
  2
CLASSES
  0
CLASS
  1
ACDBDICTIONARYWDFLT
  2
AcDbDictionaryWithDefault
  3
ObjectDBX Classes
 90
        0
 91
        4
280
     0
281
     0
  0
CLASS
  1
VISUALSTYLE
  2
AcDbVisualStyle
  3
ObjectDBX Classes
 90
     4095
 91
        4
280
     0
281
     0
  0
CLASS
  1
MATERIAL
  2
AcDbMaterial
  3
ObjectDBX Classes
 90
     1153
 91
        4
280
     0
281
     0
  0
ENDSEC
  0
SECTION
  2
TABLES
  0
TABLE
  2
VPORT
  5
8
330
0
100
AcDbSymbolTable
 70
     1
  0
VPORT
  5
29
330
8
100
AcDbSymbolTableRecord
100
AcDbViewportTableRecord
  2
*Active
 70
     0
 10
0.0
 20
0.0
 11
1.0
 21
1.0
 12
0.0
 22
0.0
 13
0.0
 23
0.0
 14
10.0
 24
10.0
 15
10.0
 25
10.0
 16
0.0
 26
0.0
 36
1.0
 17
0.0
 27
0.0
 37
0.0
 40
9801.0
 41
1.414141414141414
 42
50.0
 43
0.0
 44
0.0
 50
0.0
 51
0.0
 71
     0
 72
 10000
 73
     1
 74
     3
 75
     0
 76
     0
 77
     0
 78
     0
281
     0
 65
     1
110
0.0
120
0.0
130
0.0
111
1.0
121
0.0
131
0.0
112
0.0
122
1.0
132
0.0
 79
     0
146
0.0
 60
     3
 61
     5
292
     1
282
     1
141
0.0
142
0.0
 63
   250
  0
ENDTAB
  0
TABLE
  2
LTYPE
  5
5
330
0
100
AcDbSymbolTable
 70
     3
  0
LTYPE
  5
14
330
5
100
AcDbSymbolTableRecord
100
AcDbLinetypeTableRecord
  2
ByBlock
 70
     0
  3

 72
    65
 73
     0
 40
0.0
  0
LTYPE
  5
15
330
5
100
AcDbSymbolTableRecord
100
AcDbLinetypeTableRecord
  2
ByLayer
 70
     0
  3

 72
    65
 73
     0
 40
0.0
  0
LTYPE
  5
16
330
5
100
AcDbSymbolTableRecord
100
AcDbLinetypeTableRecord
  2
Continuous
 70
     0
  3
Solid line
 72
    65
 73
     0
 40
0.0
  0
LTYPE
  5
3F
330
5
100
AcDbSymbolTableRecord
100
AcDbLinetypeTableRecord
  2
JWW_HOJO
 70
     0
  3
  -   -   -   -   -   -   -   - 
 72
    65
 73
     2
 40
1.693333333333333
 49
-1.27
 74
     0
 49
0.4233333333333333
 74
     0
  0
LTYPE
  5
40
330
5
100
AcDbSymbolTableRecord
100
AcDbLinetypeTableRecord
  2
JWW_DASHED1
 70
     0
  3
-  --  --  --  --  --  --  --  -
 72
    65
 73
     2
 40
0.3386666666666667
 49
0.1693333333333333
 74
     0
 49
-0.1693333333333333
 74
     0
  0
ENDTAB
  0
TABLE
  2
LAYER
  5
2
330
0
100
AcDbSymbolTable
 70
    12
  0
LAYER
  5
10
330
2
100
AcDbSymbolTableRecord
100
AcDbLayerTableRecord
  2
0
 70
     0
 62
     7
  6
Continuous
370
    -3
390
F
347
3E
  0
LAYER
  5
41
330
2
100
AcDbSymbolTableRecord
100
AcDbLayerTableRecord
  2
0-0_補助線
 70
     0
 62
     7
  6
Continuous
370
    -3
390
F
347
3E
  0
LAYER
  5
42
330
2
100
AcDbSymbolTableRecord
100
AcDbLayerTableRecord
  2
0-3_仕上げ
 70
     0
 62
     7
  6
Continuous
370
    -3
390
F
347
3E
  0
LAYER
  5
43
330
2
100
AcDbSymbolTableRecord
100
AcDbLayerTableRecord
  2
0-C_ハッチ
 70
     0
 62
     7
  6
Continuous
370
    -3
390
F
347
3E
  0
LAYER
  5
44
330
2
100
AcDbSymbolTableRecord
100
AcDbLayerTableRecord
  2
0-4_枠
 70
     0
 62
     7
  6
Continuous
370
    -3
390
F
347
3E
  0
LAYER
  5
45
330
2
100
AcDbSymbolTableRecord
100
AcDbLayerTableRecord
  2
0-B_寸法
 70
     0
 62
     7
  6
Continuous
370
    -3
390
F
347
3E
  0
LAYER
  5
46
330
2
100
AcDbSymbolTableRecord
100
AcDbLayerTableRecord
  2
F-0_補助線
 70
     0
 62
     7
  6
Continuous
370
    -3
390
F
347
3E
  0
LAYER
  5
47
330
2
100
AcDbSymbolTableRecord
100
AcDbLayerTableRecord
  2
F-1_枠
 70
     0
 62
     7
  6
Continuous
370
    -3
390
F
347
3E
  0
LAYER
  5
48
330
2
100
AcDbSymbolTableRecord
100
AcDbLayerTableRecord
  2
0-2_扉
 70
     0
 62
     7
  6
Continuous
370
    -3
390
F
347
3E
  0
LAYER
  5
49
330
2
100
AcDbSymbolTableRecord
100
AcDbLayerTableRecord
  2
F-A_文字
 70
     0
 62
     7
  6
Continuous
370
    -3
390
F
347
3E
  0
LAYER
  5
4A
330
2
100
AcDbSymbolTableRecord
100
AcDbLayerTableRecord
  2
0-A_文字
 70
     0
 62
     7
  6
Continuous
370
    -3
390
F
347
3E
  0
LAYER
  5
4B
330
2
100
AcDbSymbolTableRecord
100
AcDbLayerTableRecord
  2
0-8_取手W
 70
     0
 62
     7
  6
Continuous
370
    -3
390
F
347
3E
  0
ENDTAB
  0
TABLE
  2
STYLE
  5
3
330
0
100
AcDbSymbolTable
 70
     1
  0
STYLE
  5
11
330
3
100
AcDbSymbolTableRecord
100
AcDbTextStyleTableRecord
  2
Standard
 70
     0
 40
0.0
 41
1.0
 50
0.0
 71
     0
 42
2.5
  3
txt
  4

  0
ENDTAB
  0
TABLE
  2
VIEW
  5
6
330
0
100
AcDbSymbolTable
 70
     0
  0
ENDTAB
  0
TABLE
  2
UCS
  5
7
330
0
100
AcDbSymbolTable
 70
     0
  0
ENDTAB
  0
TABLE
  2
APPID
  5
9
330
0
100
AcDbSymbolTable
 70
     1
  0
APPID
  5
12
330
9
100
AcDbSymbolTableRecord
100
AcDbRegAppTableRecord
  2
ACAD
 70
     0
  0
ENDTAB
  0
TABLE
  2
DIMSTYLE
  5
A
330
0
100
AcDbSymbolTable
 70
     1
100
AcDbDimStyleTable
  0
DIMSTYLE
105
27
330
A
100
AcDbSymbolTableRecord
100
AcDbDimStyleTableRecord
  2
ISO-25
 70
     0
 41
2.5
 42
0.625
 43
3.75
 44
1.25
 73
     0
 74
     0
 77
     1
 78
     8
140
2.5
141
2.5
143
0.03937007874016
147
0.625
171
     3
172
     1
178
     0
271
     2
272
     2
274
     3
278
    44
283
     0
284
     8
340
11
  0
ENDTAB
  0
TABLE
  2
BLOCK_RECORD
  5
1
330
0
100
AcDbSymbolTable
 70
     1
  0
BLOCK_RECORD
  5
1F
330
1
100
AcDbSymbolTableRecord
100
AcDbBlockTableRecord
  2
*Model_Space
340
22
 70
     0
280
     1
281
     0
  0
BLOCK_RECORD
  5
1B
330
1
100
AcDbSymbolTableRecord
100
AcDbBlockTableRecord
  2
*Paper_Space
340
1E
 70
     0
280
     1
281
     0
  0
BLOCK_RECORD
  5
23
330
1
100
AcDbSymbolTableRecord
100
AcDbBlockTableRecord
  2
*Paper_Space0
340
26
 70
     0
280
     1
281
     0
  0
ENDTAB
  0
ENDSEC
  0
SECTION
  2
BLOCKS
  0
BLOCK
  5
20
330
1F
100
AcDbEntity
  8
0
100
AcDbBlockBegin
  2
*Model_Space
 70
     0
 10
0.0
 20
0.0
 30
0.0
  3
*Model_Space
  1

  0
ENDBLK
  5
21
330
1F
100
AcDbEntity
  8
0
100
AcDbBlockEnd
  0
BLOCK
  5
1C
330
1B
100
AcDbEntity
 67
     1
  8
0
100
AcDbBlockBegin
  2
*Paper_Space
 70
     0
 10
0.0
 20
0.0
 30
0.0
  3
*Paper_Space
  1

  0
ENDBLK
  5
1D
330
1B
100
AcDbEntity
 67
     1
  8
0
100
AcDbBlockEnd
  0
BLOCK
  5
24
330
23
100
AcDbEntity
  8
0
100
AcDbBlockBegin
  2
*Paper_Space0
 70
     0
 10
0.0
 20
0.0
 30
0.0
  3
*Paper_Space0
  1

  0
ENDBLK
  5
25
330
23
100
AcDbEntity
  8
0
100
AcDbBlockEnd
  0
ENDSEC
  0
SECTION
  2
ENTITIES
  0
LINE
  5
4C
330
1F
100
AcDbEntity
  8
0-0_補助線
  6
JWW_HOJO
 62
   120
370
     5
100
AcDbLine
 10
-3258.399798419024
 20
2151.000148463894
 30
0.0
 11
5699.998762800888
 21
2151.000148463894
 31
0.0
  0
LINE
  5
4D
330
1F
100
AcDbEntity
  8
0-3_仕上げ
  6
JWW_DASHED1
 62
     7
370
     9
100
AcDbLine
 10
4862.000339817357
 20
2197.000148463892
 30
0.0
 11
4666.000339817358
 21
2197.000148463892
 31
0.0
  0
LINE
  5
4E
330
1F
100
AcDbEntity
  8
0-3_仕上げ
  6
JWW_DASHED1
 62
     7
370
     9
100
AcDbLine
 10
4862.000339817357
 20
2127.000148463893
 30
0.0
 11
4666.000339817358
 21
2127.000148463893
 31
0.0
  0
LINE
  5
4F
330
1F
100
AcDbEntity
  8
0-C_ハッチ
  6
Continuous
 62
     7
370
     9
100
AcDbLine
 10
4666.000339817358
 20
2128.535230396467
 30
0.0
 11
4862.000339817357
 21
2128.535230396467
 31
0.0
  0
LINE
  5
50
330
1F
100
AcDbEntity
  8
0-C_ハッチ
  6
Continuous
 62
     7
370
     9
100
AcDbLine
 10
4666.000339817358
 20
1355.465066531322
 30
0.0
 11
4862.000339817357
 21
1355.465066531322
 31
0.0
  0
LINE
  5
51
330
1F
100
AcDbEntity
  8
0-C_ハッチ
  6
Continuous
 62
     7
370
     9
100
AcDbLine
 10
4666.000339817358
 20
1388.965066531322
 30
0.0
 11
4862.000339817357
 21
1388.965066531322
 31
0.0
  0
LINE
  5
52
330
1F
100
AcDbEntity
  8
0-C_ハッチ
  6
Continuous
 62
     7
370
     9
100
AcDbLine
 10
4666.000339817358
 20
1422.465066531323
 30
0.0
 11
4862.000339817357
 21
1422.465066531323
 31
0.0
  0
LINE
  5
53
330
1F
100
AcDbEntity
  8
0-C_ハッチ
  6
Continuous
 62
     7
370
     9
100
AcDbLine
 10
4666.000339817358
 20
1455.965066531322
 30
0.0
 11
4862.000339817357
 21
1455.965066531322
 31
0.0
  0
LINE
  5
54
330
1F
100
AcDbEntity
  8
0-C_ハッチ
  6
Continuous
 62
     7
370
     9
100
AcDbLine
 10
4666.000339817358
 20
1489.465066531322
 30
0.0
 11
4862.000339817357
 21
1489.465066531322
 31
0.0
  0
LINE
  5
55
330
1F
100
AcDbEntity
  8
0-C_ハッチ
  6
Continuous
 62
     7
370
     9
100
AcDbLine
 10
4666.000339817358
 20
1522.965066531322
 30
0.0
 11
4862.000339817357
 21
1522.965066531322
 31
0.0
  0
LINE
  5
56
330
1F
100
AcDbEntity
  8
0-C_ハッチ
  6
Continuous
 62
     7
370
     9
100
AcDbLine
 10
4666.000339817358
 20
1556.465066531322
 30
0.0
 11
4862.000339817357
 21
1556.465066531322
 31
0.0
  0
LINE
  5
57
330
1F
100
AcDbEntity
  8
0-C_ハッチ
  6
Continuous
 62
     7
370
     9
100
AcDbLine
 10
4666.000339817358
 20
1589.965066531321
 30
0.0
 11
4862.000339817357
 21
1589.965066531321
 31
0.0
  0
LINE
  5
58
330
1F
100
AcDbEntity
  8
0-C_ハッチ
  6
Continuous
 62
     7
370
     9
100
AcDbLine
 10
4666.000339817358
 20
1623.465066531321
 30
0.0
 11
4862.000339817357
 21
1623.465066531321
 31
0.0
  0
LINE
  5
59
330
1F
100
AcDbEntity
  8
0-C_ハッチ
  6
Continuous
 62
     7
370
     9
100
AcDbLine
 10
4666.000339817358
 20
1656.965066531321
 30
0.0
 11
4862.000339817357
 21
1656.965066531321
 31
0.0
  0
LINE
  5
5A
330
1F
100
AcDbEntity
  8
0-C_ハッチ
  6
Continuous
 62
     7
370
     9
100
AcDbLine
 10
4666.000339817358
 20
1690.465066531321
 30
0.0
 11
4862.000339817357
 21
1690.465066531321
 31
0.0
  0
LINE
  5
5B
330
1F
100
AcDbEntity
  8
0-C_ハッチ
  6
Continuous
 62
     7
370
     9
100
AcDbLine
 10
4666.000339817358
 20
1723.965066531321
 30
0.0
 11
4862.000339817357
 21
1723.965066531321
 31
0.0
  0
LINE
  5
5C
330
1F
100
AcDbEntity
  8
0-C_ハッチ
  6
Continuous
 62
     7
370
     9
100
AcDbLine
 10
4666.000339817358
 20
1757.46506653132
 30
0.0
 11
4862.000339817357
 21
1757.46506653132
 31
0.0
  0
LINE
  5
5D
330
1F
100
AcDbEntity
  8
0-C_ハッチ
  6
Continuous
 62
     7
370
     9
100
AcDbLine
 10
4666.000339817358
 20
1790.96506653132
 30
0.0
 11
4862.000339817357
 21
1790.96506653132
 31
0.0
  0
LINE
  5
5E
330
1F
100
AcDbEntity
  8
0-C_ハッチ
  6
Continuous
 62
     7
370
     9
100
AcDbLine
 10
4666.000339817358
 20
1824.46506653132
 30
0.0
 11
4862.000339817357
 21
1824.46506653132
 31
0.0
  0
LINE
  5
5F
330
1F
100
AcDbEntity
  8
0-C_ハッチ
  6
Continuous
 62
     7
370
     9
100
AcDbLine
 10
4666.000339817358
 20
1857.96506653132
 30
0.0
 11
4862.000339817357
 21
1857.96506653132
 31
0.0
  0
LINE
  5
60
330
1F
100
AcDbEntity
  8
0-C_ハッチ
  6
Continuous
 62
     7
370
     9
100
AcDbLine
 10
4666.000339817358
 20
1891.465066531319
 30
0.0
 11
4862.000339817357
 21
1891.465066531319
 31
0.0
  0
LINE
  5
61
330
1F
100
AcDbEntity
  8
0-C_ハッチ
  6
Continuous
 62
     7
370
     9
100
AcDbLine
 10
4666.000339817358
 20
1924.965066531319
 30
0.0
 11
4862.000339817357
 21
1924.965066531319
 31
0.0
  0
LINE
  5
62
330
1F
100
AcDbEntity
  8
0-C_ハッチ
  6
Continuous
 62
     7
370
     9
100
AcDbLine
 10
4666.000339817358
 20
1958.465066531319
 30
0.0
 11
4862.000339817357
 21
1958.465066531319
 31
0.0
  0
LINE
  5
63
330
1F
100
AcDbEntity
  8
0-C_ハッチ
  6
Continuous
 62
     7
370
     9
100
AcDbLine
 10
4666.000339817358
 20
1991.965066531319
 30
0.0
 11
4862.000339817357
 21
1991.965066531319
 31
0.0
  0
LINE
  5
64
330
1F
100
AcDbEntity
  8
0-C_ハッチ
  6
Continuous
 62
     7
370
     9
100
AcDbLine
 10
4666.000339817358
 20
2025.465066531318
 30
0.0
 11
4862.000339817357
 21
2025.465066531318
 31
0.0
  0
LINE
  5
65
330
1F
100
AcDbEntity
  8
0-C_ハッチ
  6
Continuous
 62
     7
370
     9
100
AcDbLine
 10
4666.000339817358
 20
2058.965066531318
 30
0.0
 11
4862.000339817357
 21
2058.965066531318
 31
0.0
  0
LINE
  5
66
330
1F
100
AcDbEntity
  8
0-C_ハッチ
  6
Continuous
 62
     7
370
     9
100
AcDbLine
 10
4666.000339817358
 20
2092.465066531318
 30
0.0
 11
4862.000339817357
 21
2092.465066531318
 31
0.0
  0
LINE
  5
67
330
1F
100
AcDbEntity
  8
0-C_ハッチ
  6
Continuous
 62
     7
370
     9
100
AcDbLine
 10
4666.000339817358
 20
1321.965066531323
 30
0.0
 11
4862.000339817357
 21
1321.965066531323
 31
0.0
  0
LINE
  5
68
330
1F
100
AcDbEntity
  8
0-3_仕上げ
  6
Continuous
 62
     7
370
     9
100
AcDbLine
 10
4666.000339817358
 20
2137.587145251196
 30
0.0
 11
4862.000339817357
 21
2137.587145251196
 31
0.0
  0
LINE
  5
69
330
1F
100
AcDbEntity
  8
0-3_仕上げ
  6
Continuous
 62
     7
370
     9
100
AcDbLine
 10
4666.000339817358
 20
2187.000148463893
 30
0.0
 11
4862.000339817357
 21
2187.000148463893
 31
0.0
  0
LINE
  5
6A
330
1F
100
AcDbEntity
  8
0-3_仕上げ
  6
Continuous
 62
     7
370
     9
100
AcDbLine
 10
4862.000339817357
 20
1320.000148463894
 30
0.0
 11
4666.000339817358
 21
1320.000148463894
 31
0.0
  0
LINE
  5
6B
330
1F
100
AcDbEntity
  8
0-C_ハッチ
  6
Continuous
 62
     7
370
     9
100
AcDbLine
 10
4666.000339817358
 20
2226.465066531318
 30
0.0
 11
4862.000339817357
 21
2226.465066531318
 31
0.0
  0
LINE
  5
6C
330
1F
100
AcDbEntity
  8
0-C_ハッチ
  6
Continuous
 62
     7
370
     9
100
AcDbLine
 10
4666.000339817358
 20
2259.965066531318
 30
0.0
 11
4862.000339817357
 21
2259.965066531318
 31
0.0
  0
LINE
  5
6D
330
1F
100
AcDbEntity
  8
0-C_ハッチ
  6
Continuous
 62
     7
370
     9
100
AcDbLine
 10
4666.000339817358
 20
2293.465066531318
 30
0.0
 11
4862.000339817357
 21
2293.465066531318
 31
0.0
  0
LINE
  5
6E
330
1F
100
AcDbEntity
  8
0-C_ハッチ
  6
Continuous
 62
     7
370
     9
100
AcDbLine
 10
4666.000339817358
 20
2326.965066531317
 30
0.0
 11
4862.000339817357
 21
2326.965066531317
 31
0.0
  0
LINE
  5
6F
330
1F
100
AcDbEntity
  8
0-C_ハッチ
  6
Continuous
 62
     7
370
     9
100
AcDbLine
 10
4666.000339817358
 20
2360.465066531318
 30
0.0
 11
4862.000339817357
 21
2360.465066531318
 31
0.0
  0
LINE
  5
70
330
1F
100
AcDbEntity
  8
0-C_ハッチ
  6
Continuous
 62
     7
370
     9
100
AcDbLine
 10
4666.000339817358
 20
2393.965066531317
 30
0.0
 11
4862.000339817357
 21
2393.965066531317
 31
0.0
  0
LINE
  5
71
330
1F
100
AcDbEntity
  8
0-C_ハッチ
  6
Continuous
 62
     7
370
     9
100
AcDbLine
 10
4666.000339817358
 20
2427.465066531317
 30
0.0
 11
4862.000339817357
 21
2427.465066531317
 31
0.0
  0
LINE
  5
72
330
1F
100
AcDbEntity
  8
0-C_ハッチ
  6
Continuous
 62
     7
370
     9
100
AcDbLine
 10
4666.000339817358
 20
2460.965066531317
 30
0.0
 11
4862.000339817357
 21
2460.965066531317
 31
0.0
  0
LINE
  5
73
330
1F
100
AcDbEntity
  8
0-C_ハッチ
  6
Continuous
 62
     7
370
     9
100
AcDbLine
 10
4666.000339817358
 20
2494.465066531318
 30
0.0
 11
4862.000339817357
 21
2494.465066531318
 31
0.0
  0
LINE
  5
74
330
1F
100
AcDbEntity
  8
0-C_ハッチ
  6
Continuous
 62
     7
370
     9
100
AcDbLine
 10
4666.000339817358
 20
2527.965066531318
 30
0.0
 11
4862.000339817357
 21
2527.965066531318
 31
0.0
  0
LINE
  5
75
330
1F
100
AcDbEntity
  8
0-C_ハッチ
  6
Continuous
 62
     7
370
     9
100
AcDbLine
 10
4666.000339817358
 20
2561.465066531318
 30
0.0
 11
4862.000339817357
 21
2561.465066531318
 31
0.0
  0
LINE
  5
76
330
1F
100
AcDbEntity
  8
0-C_ハッチ
  6
Continuous
 62
     7
370
     9
100
AcDbLine
 10
4666.000339817358
 20
2594.965066531318
 30
0.0
 11
4862.000339817357
 21
2594.965066531318
 31
0.0
  0
LINE
  5
77
330
1F
100
AcDbEntity
  8
0-C_ハッチ
  6
Continuous
 62
     7
370
     9
100
AcDbLine
 10
4666.000339817358
 20
2628.465066531317
 30
0.0
 11
4862.000339817357
 21
2628.465066531317
 31
0.0
  0
LINE
  5
78
330
1F
100
AcDbEntity
  8
0-C_ハッチ
  6
Continuous
 62
     7
370
     9
100
AcDbLine
 10
4666.000339817358
 20
2661.965066531317
 30
0.0
 11
4862.000339817357
 21
2661.965066531317
 31
0.0
  0
LINE
  5
79
330
1F
100
AcDbEntity
  8
0-C_ハッチ
  6
Continuous
 62
     7
370
     9
100
AcDbLine
 10
4666.000339817358
 20
2695.465066531317
 30
0.0
 11
4862.000339817357
 21
2695.465066531317
 31
0.0
  0
LINE
  5
7A
330
1F
100
AcDbEntity
  8
0-C_ハッチ
  6
Continuous
 62
     7
370
     9
100
AcDbLine
 10
4666.000339817358
 20
2728.965066531318
 30
0.0
 11
4862.000339817357
 21
2728.965066531318
 31
0.0
  0
LINE
  5
7B
330
1F
100
AcDbEntity
  8
0-C_ハッチ
  6
Continuous
 62
     7
370
     9
100
AcDbLine
 10
4666.000339817358
 20
2762.465066531318
 30
0.0
 11
4862.000339817357
 21
2762.465066531318
 31
0.0
  0
LINE
  5
7C
330
1F
100
AcDbEntity
  8
0-C_ハッチ
  6
Continuous
 62
     7
370
     9
100
AcDbLine
 10
4666.000339817358
 20
2795.965066531318
 30
0.0
 11
4862.000339817357
 21
2795.965066531318
 31
0.0
  0
LINE
  5
7D
330
1F
100
AcDbEntity
  8
0-C_ハッチ
  6
Continuous
 62
     7
370
     9
100
AcDbLine
 10
4666.000339817358
 20
2829.465066531318
 30
0.0
 11
4862.000339817357
 21
2829.465066531318
 31
0.0
  0
LINE
  5
7E
330
1F
100
AcDbEntity
  8
0-C_ハッチ
  6
Continuous
 62
     7
370
     9
100
AcDbLine
 10
4666.000339817358
 20
2862.965066531319
 30
0.0
 11
4862.000339817357
 21
2862.965066531319
 31
0.0
  0
LINE
  5
7F
330
1F
100
AcDbEntity
  8
0-C_ハッチ
  6
Continuous
 62
     7
370
     9
100
AcDbLine
 10
4666.000339817358
 20
2896.465066531319
 30
0.0
 11
4862.000339817357
 21
2896.465066531319
 31
0.0
  0
LINE
  5
80
330
1F
100
AcDbEntity
  8
0-C_ハッチ
  6
Continuous
 62
     7
370
     9
100
AcDbLine
 10
4666.000339817358
 20
2929.965066531317
 30
0.0
 11
4862.000339817357
 21
2929.965066531317
 31
0.0
  0
LINE
  5
81
330
1F
100
AcDbEntity
  8
0-C_ハッチ
  6
Continuous
 62
     7
370
     9
100
AcDbLine
 10
4666.000339817358
 20
2963.465066531317
 30
0.0
 11
4862.000339817357
 21
2963.465066531317
 31
0.0
  0
LINE
  5
82
330
1F
100
AcDbEntity
  8
0-C_ハッチ
  6
Continuous
 62
     7
370
     9
100
AcDbLine
 10
4666.000339817358
 20
2996.965066531318
 30
0.0
 11
4862.000339817357
 21
2996.965066531318
 31
0.0
  0
LINE
  5
83
330
1F
100
AcDbEntity
  8
0-C_ハッチ
  6
Continuous
 62
     7
370
     9
100
AcDbLine
 10
4666.000339817358
 20
3030.465066531318
 30
0.0
 11
4862.000339817357
 21
3030.465066531318
 31
0.0
  0
LINE
  5
84
330
1F
100
AcDbEntity
  8
0-C_ハッチ
  6
Continuous
 62
     7
370
     9
100
AcDbLine
 10
4666.000339817358
 20
3063.965066531318
 30
0.0
 11
4862.000339817357
 21
3063.965066531318
 31
0.0
  0
LINE
  5
85
330
1F
100
AcDbEntity
  8
0-C_ハッチ
  6
Continuous
 62
     7
370
     9
100
AcDbLine
 10
4666.000339817358
 20
3097.465066531318
 30
0.0
 11
4862.000339817357
 21
3097.465066531318
 31
0.0
  0
LINE
  5
86
330
1F
100
AcDbEntity
  8
0-C_ハッチ
  6
Continuous
 62
     7
370
     9
100
AcDbLine
 10
4666.000339817358
 20
3130.965066531317
 30
0.0
 11
4862.000339817357
 21
3130.965066531317
 31
0.0
  0
LINE
  5
87
330
1F
100
AcDbEntity
  8
0-C_ハッチ
  6
Continuous
 62
     7
370
     9
100
AcDbLine
 10
4666.000339817358
 20
3164.465066531317
 30
0.0
 11
4862.000339817357
 21
3164.465066531317
 31
0.0
  0
LINE
  5
88
330
1F
100
AcDbEntity
  8
0-C_ハッチ
  6
Continuous
 62
     7
370
     9
100
AcDbLine
 10
4666.000339817358
 20
3197.965066531317
 30
0.0
 11
4862.000339817357
 21
3197.965066531317
 31
0.0
  0
LINE
  5
89
330
1F
100
AcDbEntity
  8
0-C_ハッチ
  6
Continuous
 62
     7
370
     9
100
AcDbLine
 10
4666.000339817358
 20
3231.465066531318
 30
0.0
 11
4862.000339817357
 21
3231.465066531318
 31
0.0
  0
LINE
  5
8A
330
1F
100
AcDbEntity
  8
0-C_ハッチ
  6
Continuous
 62
     7
370
     9
100
AcDbLine
 10
4666.000339817358
 20
3264.965066531318
 30
0.0
 11
4862.000339817357
 21
3264.965066531318
 31
0.0
  0
LINE
  5
8B
330
1F
100
AcDbEntity
  8
0-C_ハッチ
  6
Continuous
 62
     7
370
     9
100
AcDbLine
 10
4666.000339817358
 20
3298.465066531318
 30
0.0
 11
4862.000339817357
 21
3298.465066531318
 31
0.0
  0
LINE
  5
8C
330
1F
100
AcDbEntity
  8
0-C_ハッチ
  6
Continuous
 62
     7
370
     9
100
AcDbLine
 10
4666.000339817358
 20
3331.965066531318
 30
0.0
 11
4862.000339817357
 21
3331.965066531318
 31
0.0
  0
LINE
  5
8D
330
1F
100
AcDbEntity
  8
0-C_ハッチ
  6
Continuous
 62
     7
370
     9
100
AcDbLine
 10
4666.000339817358
 20
3398.965066531319
 30
0.0
 11
4862.000339817357
 21
3398.965066531319
 31
0.0
  0
LINE
  5
8E
330
1F
100
AcDbEntity
  8
0-C_ハッチ
  6
Continuous
 62
     7
370
     9
100
AcDbLine
 10
4666.000339817358
 20
3365.465066531319
 30
0.0
 11
4862.000339817357
 21
3365.465066531319
 31
0.0
  0
LINE
  5
8F
330
1F
100
AcDbEntity
  8
0-C_ハッチ
  6
Continuous
 62
     7
370
     9
100
AcDbLine
 10
4666.000339817358
 20
2192.965066531317
 30
0.0
 11
4862.000339817357
 21
2192.965066531317
 31
0.0
  0
LINE
  5
90
330
1F
100
AcDbEntity
  8
0-C_ハッチ
  6
Continuous
 62
     7
370
     9
100
AcDbLine
 10
4666.000339817358
 20
3435.035230396467
 30
0.0
 11
4862.000339817357
 21
3435.035230396467
 31
0.0
  0
LINE
  5
91
330
1F
100
AcDbEntity
  8
0-3_仕上げ
  6
Continuous
 62
     7
370
     9
100
AcDbLine
 10
4666.000339817358
 20
3441.000148463893
 30
0.0
 11
4862.000339817357
 21
3441.000148463893
 31
0.0
  0
LINE
  5
92
330
1F
100
AcDbEntity
  8
0-3_仕上げ
  6
Continuous
 62
     7
370
     9
100
AcDbLine
 10
4665.000339817357
 20
3521.000148463894
 30
0.0
 11
4665.000339817357
 21
1237.000148463894
 31
0.0
  0
LINE
  5
93
330
1F
100
AcDbEntity
  8
0-3_仕上げ
  6
Continuous
 62
     7
370
     9
100
AcDbLine
 10
4600.000339817359
 20
3521.000148463894
 30
0.0
 11
4600.000339817359
 21
1237.000148463894
 31
0.0
  0
LINE
  5
94
330
1F
100
AcDbEntity
  8
0-3_仕上げ
  6
Continuous
 62
     7
370
     9
100
AcDbLine
 10
4862.000339817357
 20
3438.000148463893
 30
0.0
 11
4666.000339817358
 21
3438.000148463893
 31
0.0
  0
LINE
  5
95
330
1F
100
AcDbEntity
  8
0-3_仕上げ
  6
Continuous
 62
     7
370
     9
100
AcDbLine
 10
4666.000339817358
 20
1237.000148463894
 30
0.0
 11
4666.000339817358
 21
3521.000148463894
 31
0.0
  0
LINE
  5
96
330
1F
100
AcDbEntity
  8
0-3_仕上げ
  6
Continuous
 62
     7
370
     9
100
AcDbLine
 10
4862.000339817357
 20
1237.000148463894
 30
0.0
 11
4862.000339817357
 21
3521.000148463894
 31
0.0
  0
LINE
  5
97
330
1F
100
AcDbEntity
  8
0-3_仕上げ
  6
Continuous
 62
     7
370
     9
100
AcDbLine
 10
4928.000339817357
 20
3521.000148463894
 30
0.0
 11
4928.000339817357
 21
1237.000148463894
 31
0.0
  0
LINE
  5
98
330
1F
100
AcDbEntity
  8
0-3_仕上げ
  6
Continuous
 62
     7
370
     9
100
AcDbLine
 10
4863.000339817358
 20
3521.000148463894
 30
0.0
 11
4863.000339817358
 21
1237.000148463894
 31
0.0
  0
LINE
  5
99
330
1F
100
AcDbEntity
  8
0-3_仕上げ
  6
JWW_DASHED1
 62
     7
370
     9
100
AcDbLine
 10
4526.000339817357
 20
2197.000148463892
 30
0.0
 11
4330.000339817358
 21
2197.000148463892
 31
0.0
  0
LINE
  5
9A
330
1F
100
AcDbEntity
  8
0-3_仕上げ
  6
JWW_DASHED1
 62
     7
370
     9
100
AcDbLine
 10
4526.000339817357
 20
2127.000148463893
 30
0.0
 11
4330.000339817358
 21
2127.000148463893
 31
0.0
  0
LINE
  5
9B
330
1F
100
AcDbEntity
  8
0-C_ハッチ
  6
Continuous
 62
     7
370
     9
100
AcDbLine
 10
4330.000339817358
 20
2128.535230396467
 30
0.0
 11
4526.000339817357
 21
2128.535230396467
 31
0.0
  0
LINE
  5
9C
330
1F
100
AcDbEntity
  8
0-C_ハッチ
  6
Continuous
 62
     7
370
     9
100
AcDbLine
 10
4330.000339817358
 20
1355.465066531322
 30
0.0
 11
4526.000339817357
 21
1355.465066531322
 31
0.0
  0
LINE
  5
9D
330
1F
100
AcDbEntity
  8
0-C_ハッチ
  6
Continuous
 62
     7
370
     9
100
AcDbLine
 10
4330.000339817358
 20
1388.965066531322
 30
0.0
 11
4526.000339817357
 21
1388.965066531322
 31
0.0
  0
LINE
  5
9E
330
1F
100
AcDbEntity
  8
0-C_ハッチ
  6
Continuous
 62
     7
370
     9
100
AcDbLine
 10
4330.000339817358
 20
1422.465066531323
 30
0.0
 11
4526.000339817357
 21
1422.465066531323
 31
0.0
  0
LINE
  5
9F
330
1F
100
AcDbEntity
  8
0-C_ハッチ
  6
Continuous
 62
     7
370
     9
100
AcDbLine
 10
4330.000339817358
 20
1455.965066531322
 30
0.0
 11
4526.000339817357
 21
1455.965066531322
 31
0.0
  0
LINE
  5
A0
330
1F
100
AcDbEntity
  8
0-C_ハッチ
  6
Continuous
 62
     7
370
     9
100
AcDbLine
 10
4330.000339817358
 20
1489.465066531322
 30
0.0
 11
4526.000339817357
 21
1489.465066531322
 31
0.0
  0
LINE
  5
A1
330
1F
100
AcDbEntity
  8
0-C_ハッチ
  6
Continuous
 62
     7
370
     9
100
AcDbLine
 10
4330.000339817358
 20
1522.965066531322
 30
0.0
 11
4526.000339817357
 21
1522.965066531322
 31
0.0
  0
LINE
  5
A2
330
1F
100
AcDbEntity
  8
0-C_ハッチ
  6
Continuous
 62
     7
370
     9
100
AcDbLine
 10
4330.000339817358
 20
1556.465066531322
 30
0.0
 11
4526.000339817357
 21
1556.465066531322
 31
0.0
  0
LINE
  5
A3
330
1F
100
AcDbEntity
  8
0-C_ハッチ
  6
Continuous
 62
     7
370
     9
100
AcDbLine
 10
4330.000339817358
 20
1589.965066531321
 30
0.0
 11
4526.000339817357
 21
1589.965066531321
 31
0.0
  0
LINE
  5
A4
330
1F
100
AcDbEntity
  8
0-C_ハッチ
  6
Continuous
 62
     7
370
     9
100
AcDbLine
 10
4330.000339817358
 20
1623.465066531321
 30
0.0
 11
4526.000339817357
 21
1623.465066531321
 31
0.0
  0
LINE
  5
A5
330
1F
100
AcDbEntity
  8
0-C_ハッチ
  6
Continuous
 62
     7
370
     9
100
AcDbLine
 10
4330.000339817358
 20
1656.965066531321
 30
0.0
 11
4526.000339817357
 21
1656.965066531321
 31
0.0
  0
LINE
  5
A6
330
1F
100
AcDbEntity
  8
0-C_ハッチ
  6
Continuous
 62
     7
370
     9
100
AcDbLine
 10
4330.000339817358
 20
1690.465066531321
 30
0.0
 11
4526.000339817357
 21
1690.465066531321
 31
0.0
  0
LINE
  5
A7
330
1F
100
AcDbEntity
  8
0-C_ハッチ
  6
Continuous
 62
     7
370
     9
100
AcDbLine
 10
4330.000339817358
 20
1723.965066531321
 30
0.0
 11
4526.000339817357
 21
1723.965066531321
 31
0.0
  0
LINE
  5
A8
330
1F
100
AcDbEntity
  8
0-C_ハッチ
  6
Continuous
 62
     7
370
     9
100
AcDbLine
 10
4330.000339817358
 20
1757.46506653132
 30
0.0
 11
4526.000339817357
 21
1757.46506653132
 31
0.0
  0
LINE
  5
A9
330
1F
100
AcDbEntity
  8
0-C_ハッチ
  6
Continuous
 62
     7
370
     9
100
AcDbLine
 10
4330.000339817358
 20
1790.96506653132
 30
0.0
 11
4526.000339817357
 21
1790.96506653132
 31
0.0
  0
LINE
  5
AA
330
1F
100
AcDbEntity
  8
0-C_ハッチ
  6
Continuous
 62
     7
370
     9
100
AcDbLine
 10
4330.000339817358
 20
1824.46506653132
 30
0.0
 11
4526.000339817357
 21
1824.46506653132
 31
0.0
  0
LINE
  5
AB
330
1F
100
AcDbEntity
  8
0-C_ハッチ
  6
Continuous
 62
     7
370
     9
100
AcDbLine
 10
4330.000339817358
 20
1857.96506653132
 30
0.0
 11
4526.000339817357
 21
1857.96506653132
 31
0.0
  0
LINE
  5
AC
330
1F
100
AcDbEntity
  8
0-C_ハッチ
  6
Continuous
 62
     7
370
     9
100
AcDbLine
 10
4330.000339817358
 20
1891.465066531319
 30
0.0
 11
4526.000339817357
 21
1891.465066531319
 31
0.0
  0
LINE
  5
AD
330
1F
100
AcDbEntity
  8
0-C_ハッチ
  6
Continuous
 62
     7
370
     9
100
AcDbLine
 10
4330.000339817358
 20
1924.965066531319
 30
0.0
 11
4526.000339817357
 21
1924.965066531319
 31
0.0
  0
LINE
  5
AE
330
1F
100
AcDbEntity
  8
0-C_ハッチ
  6
Continuous
 62
     7
370
     9
100
AcDbLine
 10
4330.000339817358
 20
1958.465066531319
 30
0.0
 11
4526.000339817357
 21
1958.465066531319
 31
0.0
  0
LINE
  5
AF
330
1F
100
AcDbEntity
  8
0-C_ハッチ
  6
Continuous
 62
     7
370
     9
100
AcDbLine
 10
4330.000339817358
 20
1991.965066531319
 30
0.0
 11
4526.000339817357
 21
1991.965066531319
 31
0.0
  0
LINE
  5
B0
330
1F
100
AcDbEntity
  8
0-C_ハッチ
  6
Continuous
 62
     7
370
     9
100
AcDbLine
 10
4330.000339817358
 20
2025.465066531318
 30
0.0
 11
4526.000339817357
 21
2025.465066531318
 31
0.0
  0
LINE
  5
B1
330
1F
100
AcDbEntity
  8
0-C_ハッチ
  6
Continuous
 62
     7
370
     9
100
AcDbLine
 10
4330.000339817358
 20
2058.965066531318
 30
0.0
 11
4526.000339817357
 21
2058.965066531318
 31
0.0
  0
LINE
  5
B2
330
1F
100
AcDbEntity
  8
0-C_ハッチ
  6
Continuous
 62
     7
370
     9
100
AcDbLine
 10
4330.000339817358
 20
2092.465066531318
 30
0.0
 11
4526.000339817357
 21
2092.465066531318
 31
0.0
  0
LINE
  5
B3
330
1F
100
AcDbEntity
  8
0-C_ハッチ
  6
Continuous
 62
     7
370
     9
100
AcDbLine
 10
4330.000339817358
 20
1321.965066531323
 30
0.0
 11
4526.000339817357
 21
1321.965066531323
 31
0.0
  0
LINE
  5
B4
330
1F
100
AcDbEntity
  8
0-3_仕上げ
  6
Continuous
 62
     7
370
     9
100
AcDbLine
 10
4330.000339817358
 20
2137.587145251196
 30
0.0
 11
4526.000339817357
 21
2137.587145251196
 31
0.0
  0
LINE
  5
B5
330
1F
100
AcDbEntity
  8
0-3_仕上げ
  6
Continuous
 62
     7
370
     9
100
AcDbLine
 10
4330.000339817358
 20
2187.000148463893
 30
0.0
 11
4526.000339817357
 21
2187.000148463893
 31
0.0
  0
LINE
  5
B6
330
1F
100
AcDbEntity
  8
0-3_仕上げ
  6
Continuous
 62
     7
370
     9
100
AcDbLine
 10
4526.000339817357
 20
1320.000148463894
 30
0.0
 11
4330.000339817358
 21
1320.000148463894
 31
0.0
  0
LINE
  5
B7
330
1F
100
AcDbEntity
  8
0-C_ハッチ
  6
Continuous
 62
     7
370
     9
100
AcDbLine
 10
4330.000339817358
 20
2226.465066531318
 30
0.0
 11
4526.000339817357
 21
2226.465066531318
 31
0.0
  0
LINE
  5
B8
330
1F
100
AcDbEntity
  8
0-C_ハッチ
  6
Continuous
 62
     7
370
     9
100
AcDbLine
 10
4330.000339817358
 20
2259.965066531318
 30
0.0
 11
4526.000339817357
 21
2259.965066531318
 31
0.0
  0
LINE
  5
B9
330
1F
100
AcDbEntity
  8
0-C_ハッチ
  6
Continuous
 62
     7
370
     9
100
AcDbLine
 10
4330.000339817358
 20
2293.465066531318
 30
0.0
 11
4526.000339817357
 21
2293.465066531318
 31
0.0
  0
LINE
  5
BA
330
1F
100
AcDbEntity
  8
0-C_ハッチ
  6
Continuous
 62
     7
370
     9
100
AcDbLine
 10
4330.000339817358
 20
2326.965066531317
 30
0.0
 11
4526.000339817357
 21
2326.965066531317
 31
0.0
  0
LINE
  5
BB
330
1F
100
AcDbEntity
  8
0-C_ハッチ
  6
Continuous
 62
     7
370
     9
100
AcDbLine
 10
4330.000339817358
 20
2360.465066531318
 30
0.0
 11
4526.000339817357
 21
2360.465066531318
 31
0.0
  0
LINE
  5
BC
330
1F
100
AcDbEntity
  8
0-C_ハッチ
  6
Continuous
 62
     7
370
     9
100
AcDbLine
 10
4330.000339817358
 20
2393.965066531317
 30
0.0
 11
4526.000339817357
 21
2393.965066531317
 31
0.0
  0
LINE
  5
BD
330
1F
100
AcDbEntity
  8
0-C_ハッチ
  6
Continuous
 62
     7
370
     9
100
AcDbLine
 10
4330.000339817358
 20
2427.465066531317
 30
0.0
 11
4526.000339817357
 21
2427.465066531317
 31
0.0
  0
LINE
  5
BE
330
1F
100
AcDbEntity
  8
0-C_ハッチ
  6
Continuous
 62
     7
370
     9
100
AcDbLine
 10
4330.000339817358
 20
2460.965066531317
 30
0.0
 11
4526.000339817357
 21
2460.965066531317
 31
0.0
  0
LINE
  5
BF
330
1F
100
AcDbEntity
  8
0-C_ハッチ
  6
Continuous
 62
     7
370
     9
100
AcDbLine
 10
4330.000339817358
 20
2494.465066531318
 30
0.0
 11
4526.000339817357
 21
2494.465066531318
 31
0.0
  0
LINE
  5
C0
330
1F
100
AcDbEntity
  8
0-C_ハッチ
  6
Continuous
 62
     7
370
     9
100
AcDbLine
 10
4330.000339817358
 20
2527.965066531318
 30
0.0
 11
4526.000339817357
 21
2527.965066531318
 31
0.0
  0
LINE
  5
C1
330
1F
100
AcDbEntity
  8
0-C_ハッチ
  6
Continuous
 62
     7
370
     9
100
AcDbLine
 10
4330.000339817358
 20
2561.465066531318
 30
0.0
 11
4526.000339817357
 21
2561.465066531318
 31
0.0
  0
LINE
  5
C2
330
1F
100
AcDbEntity
  8
0-C_ハッチ
  6
Continuous
 62
     7
370
     9
100
AcDbLine
 10
4330.000339817358
 20
2594.965066531318
 30
0.0
 11
4526.000339817357
 21
2594.965066531318
 31
0.0
  0
LINE
  5
C3
330
1F
100
AcDbEntity
  8
0-C_ハッチ
  6
Continuous
 62
     7
370
     9
100
AcDbLine
 10
4330.000339817358
 20
2628.465066531317
 30
0.0
 11
4526.000339817357
 21
2628.465066531317
 31
0.0
  0
LINE
  5
C4
330
1F
100
AcDbEntity
  8
0-C_ハッチ
  6
Continuous
 62
     7
370
     9
100
AcDbLine
 10
4330.000339817358
 20
2661.965066531317
 30
0.0
 11
4526.000339817357
 21
2661.965066531317
 31
0.0
  0
LINE
  5
C5
330
1F
100
AcDbEntity
  8
0-C_ハッチ
  6
Continuous
 62
     7
370
     9
100
AcDbLine
 10
4330.000339817358
 20
2695.465066531317
 30
0.0
 11
4526.000339817357
 21
2695.465066531317
 31
0.0
  0
LINE
  5
C6
330
1F
100
AcDbEntity
  8
0-C_ハッチ
  6
Continuous
 62
     7
370
     9
100
AcDbLine
 10
4330.000339817358
 20
2728.965066531318
 30
0.0
 11
4526.000339817357
 21
2728.965066531318
 31
0.0
  0
LINE
  5
C7
330
1F
100
AcDbEntity
  8
0-C_ハッチ
  6
Continuous
 62
     7
370
     9
100
AcDbLine
 10
4330.000339817358
 20
2762.465066531318
 30
0.0
 11
4526.000339817357
 21
2762.465066531318
 31
0.0
  0
LINE
  5
C8
330
1F
100
AcDbEntity
  8
0-C_ハッチ
  6
Continuous
 62
     7
370
     9
100
AcDbLine
 10
4330.000339817358
 20
2795.965066531318
 30
0.0
 11
4526.000339817357
 21
2795.965066531318
 31
0.0
  0
LINE
  5
C9
330
1F
100
AcDbEntity
  8
0-C_ハッチ
  6
Continuous
 62
     7
370
     9
100
AcDbLine
 10
4330.000339817358
 20
2829.465066531318
 30
0.0
 11
4526.000339817357
 21
2829.465066531318
 31
0.0
  0
LINE
  5
CA
330
1F
100
AcDbEntity
  8
0-C_ハッチ
  6
Continuous
 62
     7
370
     9
100
AcDbLine
 10
4330.000339817358
 20
2862.965066531319
 30
0.0
 11
4526.000339817357
 21
2862.965066531319
 31
0.0
  0
LINE
  5
CB
330
1F
100
AcDbEntity
  8
0-C_ハッチ
  6
Continuous
 62
     7
370
     9
100
AcDbLine
 10
4330.000339817358
 20
2896.465066531319
 30
0.0
 11
4526.000339817357
 21
2896.465066531319
 31
0.0
  0
LINE
  5
CC
330
1F
100
AcDbEntity
  8
0-C_ハッチ
  6
Continuous
 62
     7
370
     9
100
AcDbLine
 10
4330.000339817358
 20
2929.965066531317
 30
0.0
 11
4526.000339817357
 21
2929.965066531317
 31
0.0
  0
LINE
  5
CD
330
1F
100
AcDbEntity
  8
0-C_ハッチ
  6
Continuous
 62
     7
370
     9
100
AcDbLine
 10
4330.000339817358
 20
2963.465066531317
 30
0.0
 11
4526.000339817357
 21
2963.465066531317
 31
0.0
  0
LINE
  5
CE
330
1F
100
AcDbEntity
  8
0-C_ハッチ
  6
Continuous
 62
     7
370
     9
100
AcDbLine
 10
4330.000339817358
 20
2996.965066531318
 30
0.0
 11
4526.000339817357
 21
2996.965066531318
 31
0.0
  0
LINE
  5
CF
330
1F
100
AcDbEntity
  8
0-C_ハッチ
  6
Continuous
 62
     7
370
     9
100
AcDbLine
 10
4330.000339817358
 20
3030.465066531318
 30
0.0
 11
4526.000339817357
 21
3030.465066531318
 31
0.0
  0
LINE
  5
D0
330
1F
100
AcDbEntity
  8
0-C_ハッチ
  6
Continuous
 62
     7
370
     9
100
AcDbLine
 10
4330.000339817358
 20
3063.965066531318
 30
0.0
 11
4526.000339817357
 21
3063.965066531318
 31
0.0
  0
LINE
  5
D1
330
1F
100
AcDbEntity
  8
0-C_ハッチ
  6
Continuous
 62
     7
370
     9
100
AcDbLine
 10
4330.000339817358
 20
3097.465066531318
 30
0.0
 11
4526.000339817357
 21
3097.465066531318
 31
0.0
  0
LINE
  5
D2
330
1F
100
AcDbEntity
  8
0-C_ハッチ
  6
Continuous
 62
     7
370
     9
100
AcDbLine
 10
4330.000339817358
 20
3130.965066531317
 30
0.0
 11
4526.000339817357
 21
3130.965066531317
 31
0.0
  0
LINE
  5
D3
330
1F
100
AcDbEntity
  8
0-C_ハッチ
  6
Continuous
 62
     7
370
     9
100
AcDbLine
 10
4330.000339817358
 20
3164.465066531317
 30
0.0
 11
4526.000339817357
 21
3164.465066531317
 31
0.0
  0
LINE
  5
D4
330
1F
100
AcDbEntity
  8
0-C_ハッチ
  6
Continuous
 62
     7
370
     9
100
AcDbLine
 10
4330.000339817358
 20
3197.965066531317
 30
0.0
 11
4526.000339817357
 21
3197.965066531317
 31
0.0
  0
LINE
  5
D5
330
1F
100
AcDbEntity
  8
0-C_ハッチ
  6
Continuous
 62
     7
370
     9
100
AcDbLine
 10
4330.000339817358
 20
3231.465066531318
 30
0.0
 11
4526.000339817357
 21
3231.465066531318
 31
0.0
  0
LINE
  5
D6
330
1F
100
AcDbEntity
  8
0-C_ハッチ
  6
Continuous
 62
     7
370
     9
100
AcDbLine
 10
4330.000339817358
 20
3264.965066531318
 30
0.0
 11
4526.000339817357
 21
3264.965066531318
 31
0.0
  0
LINE
  5
D7
330
1F
100
AcDbEntity
  8
0-C_ハッチ
  6
Continuous
 62
     7
370
     9
100
AcDbLine
 10
4330.000339817358
 20
3298.465066531318
 30
0.0
 11
4526.000339817357
 21
3298.465066531318
 31
0.0
  0
LINE
  5
D8
330
1F
100
AcDbEntity
  8
0-C_ハッチ
  6
Continuous
 62
     7
370
     9
100
AcDbLine
 10
4330.000339817358
 20
3331.965066531318
 30
0.0
 11
4526.000339817357
 21
3331.965066531318
 31
0.0
  0
LINE
  5
D9
330
1F
100
AcDbEntity
  8
0-C_ハッチ
  6
Continuous
 62
     7
370
     9
100
AcDbLine
 10
4330.000339817358
 20
3398.965066531319
 30
0.0
 11
4526.000339817357
 21
3398.965066531319
 31
0.0
  0
LINE
  5
DA
330
1F
100
AcDbEntity
  8
0-C_ハッチ
  6
Continuous
 62
     7
370
     9
100
AcDbLine
 10
4330.000339817358
 20
3365.465066531319
 30
0.0
 11
4526.000339817357
 21
3365.465066531319
 31
0.0
  0
LINE
  5
DB
330
1F
100
AcDbEntity
  8
0-C_ハッチ
  6
Continuous
 62
     7
370
     9
100
AcDbLine
 10
4330.000339817358
 20
2192.965066531317
 30
0.0
 11
4526.000339817357
 21
2192.965066531317
 31
0.0
  0
LINE
  5
DC
330
1F
100
AcDbEntity
  8
0-C_ハッチ
  6
Continuous
 62
     7
370
     9
100
AcDbLine
 10
4330.000339817358
 20
3435.035230396467
 30
0.0
 11
4526.000339817357
 21
3435.035230396467
 31
0.0
  0
LINE
  5
DD
330
1F
100
AcDbEntity
  8
0-3_仕上げ
  6
Continuous
 62
     7
370
     9
100
AcDbLine
 10
4330.000339817358
 20
3441.000148463893
 30
0.0
 11
4526.000339817357
 21
3441.000148463893
 31
0.0
  0
LINE
  5
DE
330
1F
100
AcDbEntity
  8
0-3_仕上げ
  6
Continuous
 62
     7
370
     9
100
AcDbLine
 10
4329.000339817357
 20
3521.000148463894
 30
0.0
 11
4329.000339817357
 21
1237.000148463894
 31
0.0
  0
LINE
  5
DF
330
1F
100
AcDbEntity
  8
0-3_仕上げ
  6
Continuous
 62
     7
370
     9
100
AcDbLine
 10
4264.000339817358
 20
3521.000148463894
 30
0.0
 11
4264.000339817358
 21
1237.000148463894
 31
0.0
  0
LINE
  5
E0
330
1F
100
AcDbEntity
  8
0-3_仕上げ
  6
Continuous
 62
     7
370
     9
100
AcDbLine
 10
4526.000339817357
 20
3438.000148463893
 30
0.0
 11
4330.000339817358
 21
3438.000148463893
 31
0.0
  0
LINE
  5
E1
330
1F
100
AcDbEntity
  8
0-3_仕上げ
  6
Continuous
 62
     7
370
     9
100
AcDbLine
 10
4330.000339817358
 20
1237.000148463894
 30
0.0
 11
4330.000339817358
 21
3521.000148463894
 31
0.0
  0
LINE
  5
E2
330
1F
100
AcDbEntity
  8
0-3_仕上げ
  6
Continuous
 62
     7
370
     9
100
AcDbLine
 10
4526.000339817357
 20
1237.000148463894
 30
0.0
 11
4526.000339817357
 21
3521.000148463894
 31
0.0
  0
LINE
  5
E3
330
1F
100
AcDbEntity
  8
0-3_仕上げ
  6
Continuous
 62
     7
370
     9
100
AcDbLine
 10
4592.000339817356
 20
3521.000148463894
 30
0.0
 11
4592.000339817356
 21
1237.000148463894
 31
0.0
  0
LINE
  5
E4
330
1F
100
AcDbEntity
  8
0-3_仕上げ
  6
Continuous
 62
     7
370
     9
100
AcDbLine
 10
4527.000339817358
 20
3521.000148463894
 30
0.0
 11
4527.000339817358
 21
1237.000148463894
 31
0.0
  0
LINE
  5
E5
330
1F
100
AcDbEntity
  8
0-3_仕上げ
  6
JWW_DASHED1
 62
     7
370
     9
100
AcDbLine
 10
2630.400212468328
 20
2197.000148463892
 30
0.0
 11
2434.400212468329
 21
2197.000148463892
 31
0.0
  0
LINE
  5
E6
330
1F
100
AcDbEntity
  8
0-3_仕上げ
  6
JWW_DASHED1
 62
     7
370
     9
100
AcDbLine
 10
2630.400212468328
 20
2127.000148463893
 30
0.0
 11
2434.400212468329
 21
2127.000148463893
 31
0.0
  0
LINE
  5
E7
330
1F
100
AcDbEntity
  8
0-C_ハッチ
  6
Continuous
 62
     7
370
     9
100
AcDbLine
 10
2434.400212468329
 20
2128.535230396467
 30
0.0
 11
2630.400212468328
 21
2128.535230396467
 31
0.0
  0
LINE
  5
E8
330
1F
100
AcDbEntity
  8
0-C_ハッチ
  6
Continuous
 62
     7
370
     9
100
AcDbLine
 10
2434.400212468329
 20
1355.465066531322
 30
0.0
 11
2630.400212468328
 21
1355.465066531322
 31
0.0
  0
LINE
  5
E9
330
1F
100
AcDbEntity
  8
0-C_ハッチ
  6
Continuous
 62
     7
370
     9
100
AcDbLine
 10
2434.400212468329
 20
1388.965066531322
 30
0.0
 11
2630.400212468328
 21
1388.965066531322
 31
0.0
  0
LINE
  5
EA
330
1F
100
AcDbEntity
  8
0-C_ハッチ
  6
Continuous
 62
     7
370
     9
100
AcDbLine
 10
2434.400212468329
 20
1422.465066531323
 30
0.0
 11
2630.400212468328
 21
1422.465066531323
 31
0.0
  0
LINE
  5
EB
330
1F
100
AcDbEntity
  8
0-C_ハッチ
  6
Continuous
 62
     7
370
     9
100
AcDbLine
 10
2434.400212468329
 20
1455.965066531322
 30
0.0
 11
2630.400212468328
 21
1455.965066531322
 31
0.0
  0
LINE
  5
EC
330
1F
100
AcDbEntity
  8
0-C_ハッチ
  6
Continuous
 62
     7
370
     9
100
AcDbLine
 10
2434.400212468329
 20
1489.465066531322
 30
0.0
 11
2630.400212468328
 21
1489.465066531322
 31
0.0
  0
LINE
  5
ED
330
1F
100
AcDbEntity
  8
0-C_ハッチ
  6
Continuous
 62
     7
370
     9
100
AcDbLine
 10
2434.400212468329
 20
1522.965066531322
 30
0.0
 11
2630.400212468328
 21
1522.965066531322
 31
0.0
  0
LINE
  5
EE
330
1F
100
AcDbEntity
  8
0-C_ハッチ
  6
Continuous
 62
     7
370
     9
100
AcDbLine
 10
2434.400212468329
 20
1556.465066531322
 30
0.0
 11
2630.400212468328
 21
1556.465066531322
 31
0.0
  0
LINE
  5
EF
330
1F
100
AcDbEntity
  8
0-C_ハッチ
  6
Continuous
 62
     7
370
     9
100
AcDbLine
 10
2434.400212468329
 20
1589.965066531321
 30
0.0
 11
2630.400212468328
 21
1589.965066531321
 31
0.0
  0
LINE
  5
F0
330
1F
100
AcDbEntity
  8
0-C_ハッチ
  6
Continuous
 62
     7
370
     9
100
AcDbLine
 10
2434.400212468329
 20
1623.465066531321
 30
0.0
 11
2630.400212468328
 21
1623.465066531321
 31
0.0
  0
LINE
  5
F1
330
1F
100
AcDbEntity
  8
0-C_ハッチ
  6
Continuous
 62
     7
370
     9
100
AcDbLine
 10
2434.400212468329
 20
1656.965066531321
 30
0.0
 11
2630.400212468328
 21
1656.965066531321
 31
0.0
  0
LINE
  5
F2
330
1F
100
AcDbEntity
  8
0-C_ハッチ
  6
Continuous
 62
     7
370
     9
100
AcDbLine
 10
2434.400212468329
 20
1690.465066531321
 30
0.0
 11
2630.400212468328
 21
1690.465066531321
 31
0.0
  0
LINE
  5
F3
330
1F
100
AcDbEntity
  8
0-C_ハッチ
  6
Continuous
 62
     7
370
     9
100
AcDbLine
 10
2434.400212468329
 20
1723.965066531321
 30
0.0
 11
2630.400212468328
 21
1723.965066531321
 31
0.0
  0
LINE
  5
F4
330
1F
100
AcDbEntity
  8
0-C_ハッチ
  6
Continuous
 62
     7
370
     9
100
AcDbLine
 10
2434.400212468329
 20
1757.46506653132
 30
0.0
 11
2630.400212468328
 21
1757.46506653132
 31
0.0
  0
LINE
  5
F5
330
1F
100
AcDbEntity
  8
0-C_ハッチ
  6
Continuous
 62
     7
370
     9
100
AcDbLine
 10
2434.400212468329
 20
1790.96506653132
 30
0.0
 11
2630.400212468328
 21
1790.96506653132
 31
0.0
  0
LINE
  5
F6
330
1F
100
AcDbEntity
  8
0-C_ハッチ
  6
Continuous
 62
     7
370
     9
100
AcDbLine
 10
2434.400212468329
 20
1824.46506653132
 30
0.0
 11
2630.400212468328
 21
1824.46506653132
 31
0.0
  0
LINE
  5
F7
330
1F
100
AcDbEntity
  8
0-C_ハッチ
  6
Continuous
 62
     7
370
     9
100
AcDbLine
 10
2434.400212468329
 20
1857.96506653132
 30
0.0
 11
2630.400212468328
 21
1857.96506653132
 31
0.0
  0
LINE
  5
F8
330
1F
100
AcDbEntity
  8
0-C_ハッチ
  6
Continuous
 62
     7
370
     9
100
AcDbLine
 10
2434.400212468329
 20
1891.465066531319
 30
0.0
 11
2630.400212468328
 21
1891.465066531319
 31
0.0
  0
LINE
  5
F9
330
1F
100
AcDbEntity
  8
0-C_ハッチ
  6
Continuous
 62
     7
370
     9
100
AcDbLine
 10
2434.400212468329
 20
1924.965066531319
 30
0.0
 11
2630.400212468328
 21
1924.965066531319
 31
0.0
  0
LINE
  5
FA
330
1F
100
AcDbEntity
  8
0-C_ハッチ
  6
Continuous
 62
     7
370
     9
100
AcDbLine
 10
2434.400212468329
 20
1958.465066531319
 30
0.0
 11
2630.400212468328
 21
1958.465066531319
 31
0.0
  0
LINE
  5
FB
330
1F
100
AcDbEntity
  8
0-C_ハッチ
  6
Continuous
 62
     7
370
     9
100
AcDbLine
 10
2434.400212468329
 20
1991.965066531319
 30
0.0
 11
2630.400212468328
 21
1991.965066531319
 31
0.0
  0
LINE
  5
FC
330
1F
100
AcDbEntity
  8
0-C_ハッチ
  6
Continuous
 62
     7
370
     9
100
AcDbLine
 10
2434.400212468329
 20
2025.465066531318
 30
0.0
 11
2630.400212468328
 21
2025.465066531318
 31
0.0
  0
LINE
  5
FD
330
1F
100
AcDbEntity
  8
0-C_ハッチ
  6
Continuous
 62
     7
370
     9
100
AcDbLine
 10
2434.400212468329
 20
2058.965066531318
 30
0.0
 11
2630.400212468328
 21
2058.965066531318
 31
0.0
  0
LINE
  5
FE
330
1F
100
AcDbEntity
  8
0-C_ハッチ
  6
Continuous
 62
     7
370
     9
100
AcDbLine
 10
2434.400212468329
 20
2092.465066531318
 30
0.0
 11
2630.400212468328
 21
2092.465066531318
 31
0.0
  0
LINE
  5
FF
330
1F
100
AcDbEntity
  8
0-C_ハッチ
  6
Continuous
 62
     7
370
     9
100
AcDbLine
 10
2434.400212468329
 20
1321.965066531323
 30
0.0
 11
2630.400212468328
 21
1321.965066531323
 31
0.0
  0
LINE
  5
100
330
1F
100
AcDbEntity
  8
0-3_仕上げ
  6
Continuous
 62
     7
370
     9
100
AcDbLine
 10
2434.400212468329
 20
2137.587145251196
 30
0.0
 11
2630.400212468328
 21
2137.587145251196
 31
0.0
  0
LINE
  5
101
330
1F
100
AcDbEntity
  8
0-3_仕上げ
  6
Continuous
 62
     7
370
     9
100
AcDbLine
 10
2434.400212468329
 20
2187.000148463893
 30
0.0
 11
2630.400212468328
 21
2187.000148463893
 31
0.0
  0
LINE
  5
102
330
1F
100
AcDbEntity
  8
0-3_仕上げ
  6
Continuous
 62
     7
370
     9
100
AcDbLine
 10
2630.400212468328
 20
1320.000148463894
 30
0.0
 11
2434.400212468329
 21
1320.000148463894
 31
0.0
  0
LINE
  5
103
330
1F
100
AcDbEntity
  8
0-3_仕上げ
  6
JWW_DASHED1
 62
     7
370
     9
100
AcDbLine
 10
2294.400212468327
 20
2197.000148463892
 30
0.0
 11
2098.400212468328
 21
2197.000148463892
 31
0.0
  0
LINE
  5
104
330
1F
100
AcDbEntity
  8
0-3_仕上げ
  6
JWW_DASHED1
 62
     7
370
     9
100
AcDbLine
 10
2294.400212468327
 20
2127.000148463893
 30
0.0
 11
2098.400212468328
 21
2127.000148463893
 31
0.0
  0
LINE
  5
105
330
1F
100
AcDbEntity
  8
0-C_ハッチ
  6
Continuous
 62
     7
370
     9
100
AcDbLine
 10
2098.400212468328
 20
2128.535230396467
 30
0.0
 11
2294.400212468327
 21
2128.535230396467
 31
0.0
  0
LINE
  5
106
330
1F
100
AcDbEntity
  8
0-C_ハッチ
  6
Continuous
 62
     7
370
     9
100
AcDbLine
 10
2098.400212468328
 20
1355.465066531322
 30
0.0
 11
2294.400212468327
 21
1355.465066531322
 31
0.0
  0
LINE
  5
107
330
1F
100
AcDbEntity
  8
0-C_ハッチ
  6
Continuous
 62
     7
370
     9
100
AcDbLine
 10
2098.400212468328
 20
1388.965066531322
 30
0.0
 11
2294.400212468327
 21
1388.965066531322
 31
0.0
  0
LINE
  5
108
330
1F
100
AcDbEntity
  8
0-C_ハッチ
  6
Continuous
 62
     7
370
     9
100
AcDbLine
 10
2098.400212468328
 20
1422.465066531323
 30
0.0
 11
2294.400212468327
 21
1422.465066531323
 31
0.0
  0
LINE
  5
109
330
1F
100
AcDbEntity
  8
0-C_ハッチ
  6
Continuous
 62
     7
370
     9
100
AcDbLine
 10
2098.400212468328
 20
1455.965066531322
 30
0.0
 11
2294.400212468327
 21
1455.965066531322
 31
0.0
  0
LINE
  5
10A
330
1F
100
AcDbEntity
  8
0-C_ハッチ
  6
Continuous
 62
     7
370
     9
100
AcDbLine
 10
2098.400212468328
 20
1489.465066531322
 30
0.0
 11
2294.400212468327
 21
1489.465066531322
 31
0.0
  0
LINE
  5
10B
330
1F
100
AcDbEntity
  8
0-C_ハッチ
  6
Continuous
 62
     7
370
     9
100
AcDbLine
 10
2098.400212468328
 20
1522.965066531322
 30
0.0
 11
2294.400212468327
 21
1522.965066531322
 31
0.0
  0
LINE
  5
10C
330
1F
100
AcDbEntity
  8
0-C_ハッチ
  6
Continuous
 62
     7
370
     9
100
AcDbLine
 10
2098.400212468328
 20
1556.465066531322
 30
0.0
 11
2294.400212468327
 21
1556.465066531322
 31
0.0
  0
LINE
  5
10D
330
1F
100
AcDbEntity
  8
0-C_ハッチ
  6
Continuous
 62
     7
370
     9
100
AcDbLine
 10
2098.400212468328
 20
1589.965066531321
 30
0.0
 11
2294.400212468327
 21
1589.965066531321
 31
0.0
  0
LINE
  5
10E
330
1F
100
AcDbEntity
  8
0-C_ハッチ
  6
Continuous
 62
     7
370
     9
100
AcDbLine
 10
2098.400212468328
 20
1623.465066531321
 30
0.0
 11
2294.400212468327
 21
1623.465066531321
 31
0.0
  0
LINE
  5
10F
330
1F
100
AcDbEntity
  8
0-C_ハッチ
  6
Continuous
 62
     7
370
     9
100
AcDbLine
 10
2098.400212468328
 20
1656.965066531321
 30
0.0
 11
2294.400212468327
 21
1656.965066531321
 31
0.0
  0
LINE
  5
110
330
1F
100
AcDbEntity
  8
0-C_ハッチ
  6
Continuous
 62
     7
370
     9
100
AcDbLine
 10
2098.400212468328
 20
1690.465066531321
 30
0.0
 11
2294.400212468327
 21
1690.465066531321
 31
0.0
  0
LINE
  5
111
330
1F
100
AcDbEntity
  8
0-C_ハッチ
  6
Continuous
 62
     7
370
     9
100
AcDbLine
 10
2098.400212468328
 20
1723.965066531321
 30
0.0
 11
2294.400212468327
 21
1723.965066531321
 31
0.0
  0
LINE
  5
112
330
1F
100
AcDbEntity
  8
0-C_ハッチ
  6
Continuous
 62
     7
370
     9
100
AcDbLine
 10
2098.400212468328
 20
1757.46506653132
 30
0.0
 11
2294.400212468327
 21
1757.46506653132
 31
0.0
  0
LINE
  5
113
330
1F
100
AcDbEntity
  8
0-C_ハッチ
  6
Continuous
 62
     7
370
     9
100
AcDbLine
 10
2098.400212468328
 20
1790.96506653132
 30
0.0
 11
2294.400212468327
 21
1790.96506653132
 31
0.0
  0
LINE
  5
114
330
1F
100
AcDbEntity
  8
0-C_ハッチ
  6
Continuous
 62
     7
370
     9
100
AcDbLine
 10
2098.400212468328
 20
1824.46506653132
 30
0.0
 11
2294.400212468327
 21
1824.46506653132
 31
0.0
  0
LINE
  5
115
330
1F
100
AcDbEntity
  8
0-C_ハッチ
  6
Continuous
 62
     7
370
     9
100
AcDbLine
 10
2098.400212468328
 20
1857.96506653132
 30
0.0
 11
2294.400212468327
 21
1857.96506653132
 31
0.0
  0
LINE
  5
116
330
1F
100
AcDbEntity
  8
0-C_ハッチ
  6
Continuous
 62
     7
370
     9
100
AcDbLine
 10
2098.400212468328
 20
1891.465066531319
 30
0.0
 11
2294.400212468327
 21
1891.465066531319
 31
0.0
  0
LINE
  5
117
330
1F
100
AcDbEntity
  8
0-C_ハッチ
  6
Continuous
 62
     7
370
     9
100
AcDbLine
 10
2098.400212468328
 20
1924.965066531319
 30
0.0
 11
2294.400212468327
 21
1924.965066531319
 31
0.0
  0
LINE
  5
118
330
1F
100
AcDbEntity
  8
0-C_ハッチ
  6
Continuous
 62
     7
370
     9
100
AcDbLine
 10
2098.400212468328
 20
1958.465066531319
 30
0.0
 11
2294.400212468327
 21
1958.465066531319
 31
0.0
  0
LINE
  5
119
330
1F
100
AcDbEntity
  8
0-C_ハッチ
  6
Continuous
 62
     7
370
     9
100
AcDbLine
 10
2098.400212468328
 20
1991.965066531319
 30
0.0
 11
2294.400212468327
 21
1991.965066531319
 31
0.0
  0
LINE
  5
11A
330
1F
100
AcDbEntity
  8
0-C_ハッチ
  6
Continuous
 62
     7
370
     9
100
AcDbLine
 10
2098.400212468328
 20
2025.465066531318
 30
0.0
 11
2294.400212468327
 21
2025.465066531318
 31
0.0
  0
LINE
  5
11B
330
1F
100
AcDbEntity
  8
0-C_ハッチ
  6
Continuous
 62
     7
370
     9
100
AcDbLine
 10
2098.400212468328
 20
2058.965066531318
 30
0.0
 11
2294.400212468327
 21
2058.965066531318
 31
0.0
  0
LINE
  5
11C
330
1F
100
AcDbEntity
  8
0-C_ハッチ
  6
Continuous
 62
     7
370
     9
100
AcDbLine
 10
2098.400212468328
 20
2092.465066531318
 30
0.0
 11
2294.400212468327
 21
2092.465066531318
 31
0.0
  0
LINE
  5
11D
330
1F
100
AcDbEntity
  8
0-C_ハッチ
  6
Continuous
 62
     7
370
     9
100
AcDbLine
 10
2098.400212468328
 20
1321.965066531323
 30
0.0
 11
2294.400212468327
 21
1321.965066531323
 31
0.0
  0
LINE
  5
11E
330
1F
100
AcDbEntity
  8
0-3_仕上げ
  6
Continuous
 62
     7
370
     9
100
AcDbLine
 10
2098.400212468328
 20
2137.587145251196
 30
0.0
 11
2294.400212468327
 21
2137.587145251196
 31
0.0
  0
LINE
  5
11F
330
1F
100
AcDbEntity
  8
0-3_仕上げ
  6
Continuous
 62
     7
370
     9
100
AcDbLine
 10
2098.400212468328
 20
2187.000148463893
 30
0.0
 11
2294.400212468327
 21
2187.000148463893
 31
0.0
  0
LINE
  5
120
330
1F
100
AcDbEntity
  8
0-3_仕上げ
  6
Continuous
 62
     7
370
     9
100
AcDbLine
 10
2294.400212468327
 20
1320.000148463894
 30
0.0
 11
2098.400212468328
 21
1320.000148463894
 31
0.0
  0
LINE
  5
121
330
1F
100
AcDbEntity
  8
0-C_ハッチ
  6
Continuous
 62
     7
370
     9
100
AcDbLine
 10
2434.400212468329
 20
2193.465066531317
 30
0.0
 11
2630.400212468328
 21
2193.465066531317
 31
0.0
  0
LINE
  5
122
330
1F
100
AcDbEntity
  8
0-C_ハッチ
  6
Continuous
 62
     7
370
     9
100
AcDbLine
 10
2434.400212468329
 20
2226.965066531317
 30
0.0
 11
2630.400212468328
 21
2226.965066531317
 31
0.0
  0
LINE
  5
123
330
1F
100
AcDbEntity
  8
0-C_ハッチ
  6
Continuous
 62
     7
370
     9
100
AcDbLine
 10
2434.400212468329
 20
2260.465066531317
 30
0.0
 11
2630.400212468328
 21
2260.465066531317
 31
0.0
  0
LINE
  5
124
330
1F
100
AcDbEntity
  8
0-C_ハッチ
  6
Continuous
 62
     7
370
     9
100
AcDbLine
 10
2434.400212468329
 20
2293.965066531317
 30
0.0
 11
2630.400212468328
 21
2293.965066531317
 31
0.0
  0
LINE
  5
125
330
1F
100
AcDbEntity
  8
0-C_ハッチ
  6
Continuous
 62
     7
370
     9
100
AcDbLine
 10
2434.400212468329
 20
2327.465066531317
 30
0.0
 11
2630.400212468328
 21
2327.465066531317
 31
0.0
  0
LINE
  5
126
330
1F
100
AcDbEntity
  8
0-C_ハッチ
  6
Continuous
 62
     7
370
     9
100
AcDbLine
 10
2434.400212468329
 20
2360.965066531317
 30
0.0
 11
2630.400212468328
 21
2360.965066531317
 31
0.0
  0
LINE
  5
127
330
1F
100
AcDbEntity
  8
0-C_ハッチ
  6
Continuous
 62
     7
370
     9
100
AcDbLine
 10
2434.400212468329
 20
2394.465066531317
 30
0.0
 11
2630.400212468328
 21
2394.465066531317
 31
0.0
  0
LINE
  5
128
330
1F
100
AcDbEntity
  8
0-C_ハッチ
  6
Continuous
 62
     7
370
     9
100
AcDbLine
 10
2434.400212468329
 20
2427.965066531317
 30
0.0
 11
2630.400212468328
 21
2427.965066531317
 31
0.0
  0
LINE
  5
129
330
1F
100
AcDbEntity
  8
0-C_ハッチ
  6
Continuous
 62
     7
370
     9
100
AcDbLine
 10
2434.400212468329
 20
2461.465066531317
 30
0.0
 11
2630.400212468328
 21
2461.465066531317
 31
0.0
  0
LINE
  5
12A
330
1F
100
AcDbEntity
  8
0-C_ハッチ
  6
Continuous
 62
     7
370
     9
100
AcDbLine
 10
2434.400212468329
 20
2494.965066531317
 30
0.0
 11
2630.400212468328
 21
2494.965066531317
 31
0.0
  0
LINE
  5
12B
330
1F
100
AcDbEntity
  8
0-C_ハッチ
  6
Continuous
 62
     7
370
     9
100
AcDbLine
 10
2434.400212468329
 20
2528.465066531317
 30
0.0
 11
2630.400212468328
 21
2528.465066531317
 31
0.0
  0
LINE
  5
12C
330
1F
100
AcDbEntity
  8
0-C_ハッチ
  6
Continuous
 62
     7
370
     9
100
AcDbLine
 10
2434.400212468329
 20
2561.965066531318
 30
0.0
 11
2630.400212468328
 21
2561.965066531318
 31
0.0
  0
LINE
  5
12D
330
1F
100
AcDbEntity
  8
0-C_ハッチ
  6
Continuous
 62
     7
370
     9
100
AcDbLine
 10
2434.400212468329
 20
2595.465066531318
 30
0.0
 11
2630.400212468328
 21
2595.465066531318
 31
0.0
  0
LINE
  5
12E
330
1F
100
AcDbEntity
  8
0-C_ハッチ
  6
Continuous
 62
     7
370
     9
100
AcDbLine
 10
2434.400212468329
 20
2628.965066531317
 30
0.0
 11
2630.400212468328
 21
2628.965066531317
 31
0.0
  0
LINE
  5
12F
330
1F
100
AcDbEntity
  8
0-C_ハッチ
  6
Continuous
 62
     7
370
     9
100
AcDbLine
 10
2434.400212468329
 20
2662.465066531317
 30
0.0
 11
2630.400212468328
 21
2662.465066531317
 31
0.0
  0
LINE
  5
130
330
1F
100
AcDbEntity
  8
0-C_ハッチ
  6
Continuous
 62
     7
370
     9
100
AcDbLine
 10
2434.400212468329
 20
2695.965066531317
 30
0.0
 11
2630.400212468328
 21
2695.965066531317
 31
0.0
  0
LINE
  5
131
330
1F
100
AcDbEntity
  8
0-C_ハッチ
  6
Continuous
 62
     7
370
     9
100
AcDbLine
 10
2434.400212468329
 20
2729.465066531317
 30
0.0
 11
2630.400212468328
 21
2729.465066531317
 31
0.0
  0
LINE
  5
132
330
1F
100
AcDbEntity
  8
0-C_ハッチ
  6
Continuous
 62
     7
370
     9
100
AcDbLine
 10
2434.400212468329
 20
2762.965066531317
 30
0.0
 11
2630.400212468328
 21
2762.965066531317
 31
0.0
  0
LINE
  5
133
330
1F
100
AcDbEntity
  8
0-C_ハッチ
  6
Continuous
 62
     7
370
     9
100
AcDbLine
 10
2434.400212468329
 20
2796.465066531318
 30
0.0
 11
2630.400212468328
 21
2796.465066531318
 31
0.0
  0
LINE
  5
134
330
1F
100
AcDbEntity
  8
0-C_ハッチ
  6
Continuous
 62
     7
370
     9
100
AcDbLine
 10
2434.400212468329
 20
2829.965066531317
 30
0.0
 11
2630.400212468328
 21
2829.965066531317
 31
0.0
  0
LINE
  5
135
330
1F
100
AcDbEntity
  8
0-C_ハッチ
  6
Continuous
 62
     7
370
     9
100
AcDbLine
 10
2434.400212468329
 20
2863.465066531317
 30
0.0
 11
2630.400212468328
 21
2863.465066531317
 31
0.0
  0
LINE
  5
136
330
1F
100
AcDbEntity
  8
0-C_ハッチ
  6
Continuous
 62
     7
370
     9
100
AcDbLine
 10
2434.400212468329
 20
2896.965066531317
 30
0.0
 11
2630.400212468328
 21
2896.965066531317
 31
0.0
  0
LINE
  5
137
330
1F
100
AcDbEntity
  8
0-C_ハッチ
  6
Continuous
 62
     7
370
     9
100
AcDbLine
 10
2434.400212468329
 20
2930.465066531317
 30
0.0
 11
2630.400212468328
 21
2930.465066531317
 31
0.0
  0
LINE
  5
138
330
1F
100
AcDbEntity
  8
0-C_ハッチ
  6
Continuous
 62
     7
370
     9
100
AcDbLine
 10
2434.400212468329
 20
2963.965066531317
 30
0.0
 11
2630.400212468328
 21
2963.965066531317
 31
0.0
  0
LINE
  5
139
330
1F
100
AcDbEntity
  8
0-C_ハッチ
  6
Continuous
 62
     7
370
     9
100
AcDbLine
 10
2434.400212468329
 20
2997.465066531317
 30
0.0
 11
2630.400212468328
 21
2997.465066531317
 31
0.0
  0
LINE
  5
13A
330
1F
100
AcDbEntity
  8
0-C_ハッチ
  6
Continuous
 62
     7
370
     9
100
AcDbLine
 10
2434.400212468329
 20
3030.965066531317
 30
0.0
 11
2630.400212468328
 21
3030.965066531317
 31
0.0
  0
LINE
  5
13B
330
1F
100
AcDbEntity
  8
0-C_ハッチ
  6
Continuous
 62
     7
370
     9
100
AcDbLine
 10
2434.400212468329
 20
3097.965066531318
 30
0.0
 11
2630.400212468328
 21
3097.965066531318
 31
0.0
  0
LINE
  5
13C
330
1F
100
AcDbEntity
  8
0-C_ハッチ
  6
Continuous
 62
     7
370
     9
100
AcDbLine
 10
2434.400212468329
 20
3064.465066531318
 30
0.0
 11
2630.400212468328
 21
3064.465066531318
 31
0.0
  0
LINE
  5
13D
330
1F
100
AcDbEntity
  8
0-C_ハッチ
  6
Continuous
 62
     7
370
     9
100
AcDbLine
 10
2434.400212468329
 20
3134.035230396466
 30
0.0
 11
2630.400212468328
 21
3134.035230396466
 31
0.0
  0
LINE
  5
13E
330
1F
100
AcDbEntity
  8
0-3_仕上げ
  6
Continuous
 62
     7
370
     9
100
AcDbLine
 10
2434.400212468329
 20
3140.000148463892
 30
0.0
 11
2630.400212468328
 21
3140.000148463892
 31
0.0
  0
LINE
  5
13F
330
1F
100
AcDbEntity
  8
0-3_仕上げ
  6
Continuous
 62
     7
370
     9
100
AcDbLine
 10
2433.400212468328
 20
3220.000148463893
 30
0.0
 11
2433.400212468328
 21
1237.000148463894
 31
0.0
  0
LINE
  5
140
330
1F
100
AcDbEntity
  8
0-3_仕上げ
  6
Continuous
 62
     7
370
     9
100
AcDbLine
 10
2368.400212468329
 20
3220.000148463893
 30
0.0
 11
2368.400212468329
 21
1237.000148463894
 31
0.0
  0
LINE
  5
141
330
1F
100
AcDbEntity
  8
0-3_仕上げ
  6
Continuous
 62
     7
370
     9
100
AcDbLine
 10
2630.400212468328
 20
3137.000148463892
 30
0.0
 11
2434.400212468329
 21
3137.000148463892
 31
0.0
  0
LINE
  5
142
330
1F
100
AcDbEntity
  8
0-3_仕上げ
  6
Continuous
 62
     7
370
     9
100
AcDbLine
 10
2434.400212468329
 20
1237.000148463894
 30
0.0
 11
2434.400212468329
 21
3220.000148463893
 31
0.0
  0
LINE
  5
143
330
1F
100
AcDbEntity
  8
0-3_仕上げ
  6
Continuous
 62
     7
370
     9
100
AcDbLine
 10
2630.400212468328
 20
1237.000148463894
 30
0.0
 11
2630.400212468328
 21
3220.000148463893
 31
0.0
  0
LINE
  5
144
330
1F
100
AcDbEntity
  8
0-3_仕上げ
  6
Continuous
 62
     7
370
     9
100
AcDbLine
 10
2631.400212468329
 20
3220.000148463893
 30
0.0
 11
2631.400212468329
 21
1237.000148463894
 31
0.0
  0
LINE
  5
145
330
1F
100
AcDbEntity
  8
0-C_ハッチ
  6
Continuous
 62
     7
370
     9
100
AcDbLine
 10
2098.400212468328
 20
2193.465066531317
 30
0.0
 11
2294.400212468327
 21
2193.465066531317
 31
0.0
  0
LINE
  5
146
330
1F
100
AcDbEntity
  8
0-C_ハッチ
  6
Continuous
 62
     7
370
     9
100
AcDbLine
 10
2098.400212468328
 20
2226.965066531317
 30
0.0
 11
2294.400212468327
 21
2226.965066531317
 31
0.0
  0
LINE
  5
147
330
1F
100
AcDbEntity
  8
0-C_ハッチ
  6
Continuous
 62
     7
370
     9
100
AcDbLine
 10
2098.400212468328
 20
2260.465066531317
 30
0.0
 11
2294.400212468327
 21
2260.465066531317
 31
0.0
  0
LINE
  5
148
330
1F
100
AcDbEntity
  8
0-C_ハッチ
  6
Continuous
 62
     7
370
     9
100
AcDbLine
 10
2098.400212468328
 20
2293.965066531317
 30
0.0
 11
2294.400212468327
 21
2293.965066531317
 31
0.0
  0
LINE
  5
149
330
1F
100
AcDbEntity
  8
0-C_ハッチ
  6
Continuous
 62
     7
370
     9
100
AcDbLine
 10
2098.400212468328
 20
2327.465066531317
 30
0.0
 11
2294.400212468327
 21
2327.465066531317
 31
0.0
  0
LINE
  5
14A
330
1F
100
AcDbEntity
  8
0-C_ハッチ
  6
Continuous
 62
     7
370
     9
100
AcDbLine
 10
2098.400212468328
 20
2360.965066531317
 30
0.0
 11
2294.400212468327
 21
2360.965066531317
 31
0.0
  0
LINE
  5
14B
330
1F
100
AcDbEntity
  8
0-C_ハッチ
  6
Continuous
 62
     7
370
     9
100
AcDbLine
 10
2098.400212468328
 20
2394.465066531317
 30
0.0
 11
2294.400212468327
 21
2394.465066531317
 31
0.0
  0
LINE
  5
14C
330
1F
100
AcDbEntity
  8
0-C_ハッチ
  6
Continuous
 62
     7
370
     9
100
AcDbLine
 10
2098.400212468328
 20
2427.965066531317
 30
0.0
 11
2294.400212468327
 21
2427.965066531317
 31
0.0
  0
LINE
  5
14D
330
1F
100
AcDbEntity
  8
0-C_ハッチ
  6
Continuous
 62
     7
370
     9
100
AcDbLine
 10
2098.400212468328
 20
2461.465066531317
 30
0.0
 11
2294.400212468327
 21
2461.465066531317
 31
0.0
  0
LINE
  5
14E
330
1F
100
AcDbEntity
  8
0-C_ハッチ
  6
Continuous
 62
     7
370
     9
100
AcDbLine
 10
2098.400212468328
 20
2494.965066531317
 30
0.0
 11
2294.400212468327
 21
2494.965066531317
 31
0.0
  0
LINE
  5
14F
330
1F
100
AcDbEntity
  8
0-C_ハッチ
  6
Continuous
 62
     7
370
     9
100
AcDbLine
 10
2098.400212468328
 20
2528.465066531317
 30
0.0
 11
2294.400212468327
 21
2528.465066531317
 31
0.0
  0
LINE
  5
150
330
1F
100
AcDbEntity
  8
0-C_ハッチ
  6
Continuous
 62
     7
370
     9
100
AcDbLine
 10
2098.400212468328
 20
2561.965066531318
 30
0.0
 11
2294.400212468327
 21
2561.965066531318
 31
0.0
  0
LINE
  5
151
330
1F
100
AcDbEntity
  8
0-C_ハッチ
  6
Continuous
 62
     7
370
     9
100
AcDbLine
 10
2098.400212468328
 20
2595.465066531318
 30
0.0
 11
2294.400212468327
 21
2595.465066531318
 31
0.0
  0
LINE
  5
152
330
1F
100
AcDbEntity
  8
0-C_ハッチ
  6
Continuous
 62
     7
370
     9
100
AcDbLine
 10
2098.400212468328
 20
2628.965066531317
 30
0.0
 11
2294.400212468327
 21
2628.965066531317
 31
0.0
  0
LINE
  5
153
330
1F
100
AcDbEntity
  8
0-C_ハッチ
  6
Continuous
 62
     7
370
     9
100
AcDbLine
 10
2098.400212468328
 20
2662.465066531317
 30
0.0
 11
2294.400212468327
 21
2662.465066531317
 31
0.0
  0
LINE
  5
154
330
1F
100
AcDbEntity
  8
0-C_ハッチ
  6
Continuous
 62
     7
370
     9
100
AcDbLine
 10
2098.400212468328
 20
2695.965066531317
 30
0.0
 11
2294.400212468327
 21
2695.965066531317
 31
0.0
  0
LINE
  5
155
330
1F
100
AcDbEntity
  8
0-C_ハッチ
  6
Continuous
 62
     7
370
     9
100
AcDbLine
 10
2098.400212468328
 20
2729.465066531317
 30
0.0
 11
2294.400212468327
 21
2729.465066531317
 31
0.0
  0
LINE
  5
156
330
1F
100
AcDbEntity
  8
0-C_ハッチ
  6
Continuous
 62
     7
370
     9
100
AcDbLine
 10
2098.400212468328
 20
2762.965066531317
 30
0.0
 11
2294.400212468327
 21
2762.965066531317
 31
0.0
  0
LINE
  5
157
330
1F
100
AcDbEntity
  8
0-C_ハッチ
  6
Continuous
 62
     7
370
     9
100
AcDbLine
 10
2098.400212468328
 20
2796.465066531318
 30
0.0
 11
2294.400212468327
 21
2796.465066531318
 31
0.0
  0
LINE
  5
158
330
1F
100
AcDbEntity
  8
0-C_ハッチ
  6
Continuous
 62
     7
370
     9
100
AcDbLine
 10
2098.400212468328
 20
2829.965066531317
 30
0.0
 11
2294.400212468327
 21
2829.965066531317
 31
0.0
  0
LINE
  5
159
330
1F
100
AcDbEntity
  8
0-C_ハッチ
  6
Continuous
 62
     7
370
     9
100
AcDbLine
 10
2098.400212468328
 20
2863.465066531317
 30
0.0
 11
2294.400212468327
 21
2863.465066531317
 31
0.0
  0
LINE
  5
15A
330
1F
100
AcDbEntity
  8
0-C_ハッチ
  6
Continuous
 62
     7
370
     9
100
AcDbLine
 10
2098.400212468328
 20
2896.965066531317
 30
0.0
 11
2294.400212468327
 21
2896.965066531317
 31
0.0
  0
LINE
  5
15B
330
1F
100
AcDbEntity
  8
0-C_ハッチ
  6
Continuous
 62
     7
370
     9
100
AcDbLine
 10
2098.400212468328
 20
2930.465066531317
 30
0.0
 11
2294.400212468327
 21
2930.465066531317
 31
0.0
  0
LINE
  5
15C
330
1F
100
AcDbEntity
  8
0-C_ハッチ
  6
Continuous
 62
     7
370
     9
100
AcDbLine
 10
2098.400212468328
 20
2963.965066531317
 30
0.0
 11
2294.400212468327
 21
2963.965066531317
 31
0.0
  0
LINE
  5
15D
330
1F
100
AcDbEntity
  8
0-C_ハッチ
  6
Continuous
 62
     7
370
     9
100
AcDbLine
 10
2098.400212468328
 20
2997.465066531317
 30
0.0
 11
2294.400212468327
 21
2997.465066531317
 31
0.0
  0
LINE
  5
15E
330
1F
100
AcDbEntity
  8
0-C_ハッチ
  6
Continuous
 62
     7
370
     9
100
AcDbLine
 10
2098.400212468328
 20
3030.965066531317
 30
0.0
 11
2294.400212468327
 21
3030.965066531317
 31
0.0
  0
LINE
  5
15F
330
1F
100
AcDbEntity
  8
0-C_ハッチ
  6
Continuous
 62
     7
370
     9
100
AcDbLine
 10
2098.400212468328
 20
3097.965066531318
 30
0.0
 11
2294.400212468327
 21
3097.965066531318
 31
0.0
  0
LINE
  5
160
330
1F
100
AcDbEntity
  8
0-C_ハッチ
  6
Continuous
 62
     7
370
     9
100
AcDbLine
 10
2098.400212468328
 20
3064.465066531318
 30
0.0
 11
2294.400212468327
 21
3064.465066531318
 31
0.0
  0
LINE
  5
161
330
1F
100
AcDbEntity
  8
0-C_ハッチ
  6
Continuous
 62
     7
370
     9
100
AcDbLine
 10
2098.400212468328
 20
3134.035230396466
 30
0.0
 11
2294.400212468327
 21
3134.035230396466
 31
0.0
  0
LINE
  5
162
330
1F
100
AcDbEntity
  8
0-3_仕上げ
  6
Continuous
 62
     7
370
     9
100
AcDbLine
 10
2098.400212468328
 20
3140.000148463892
 30
0.0
 11
2294.400212468327
 21
3140.000148463892
 31
0.0
  0
LINE
  5
163
330
1F
100
AcDbEntity
  8
0-3_仕上げ
  6
Continuous
 62
     7
370
     9
100
AcDbLine
 10
2097.400212468327
 20
3220.000148463893
 30
0.0
 11
2097.400212468327
 21
1237.000148463894
 31
0.0
  0
LINE
  5
164
330
1F
100
AcDbEntity
  8
0-3_仕上げ
  6
Continuous
 62
     7
370
     9
100
AcDbLine
 10
2032.400212468329
 20
3220.000148463893
 30
0.0
 11
2032.400212468329
 21
1237.000148463894
 31
0.0
  0
LINE
  5
165
330
1F
100
AcDbEntity
  8
0-3_仕上げ
  6
Continuous
 62
     7
370
     9
100
AcDbLine
 10
2294.400212468327
 20
3137.000148463892
 30
0.0
 11
2098.400212468328
 21
3137.000148463892
 31
0.0
  0
LINE
  5
166
330
1F
100
AcDbEntity
  8
0-3_仕上げ
  6
Continuous
 62
     7
370
     9
100
AcDbLine
 10
2098.400212468328
 20
1237.000148463894
 30
0.0
 11
2098.400212468328
 21
3220.000148463893
 31
0.0
  0
LINE
  5
167
330
1F
100
AcDbEntity
  8
0-3_仕上げ
  6
Continuous
 62
     7
370
     9
100
AcDbLine
 10
2294.400212468327
 20
1237.000148463894
 30
0.0
 11
2294.400212468327
 21
3220.000148463893
 31
0.0
  0
LINE
  5
168
330
1F
100
AcDbEntity
  8
0-3_仕上げ
  6
Continuous
 62
     7
370
     9
100
AcDbLine
 10
2360.400212468327
 20
3220.000148463893
 30
0.0
 11
2360.400212468327
 21
1237.000148463894
 31
0.0
  0
LINE
  5
169
330
1F
100
AcDbEntity
  8
0-3_仕上げ
  6
Continuous
 62
     7
370
     9
100
AcDbLine
 10
2295.400212468328
 20
3220.000148463893
 30
0.0
 11
2295.400212468328
 21
1237.000148463894
 31
0.0
  0
LINE
  5
16A
330
1F
100
AcDbEntity
  8
0-3_仕上げ
  6
Continuous
 62
     7
370
     9
100
AcDbLine
 10
2696.400212468327
 20
3220.000148463893
 30
0.0
 11
2696.400212468327
 21
1237.000148463894
 31
0.0
  0
LINE
  5
16B
330
1F
100
AcDbEntity
  8
0-0_補助線
  6
JWW_HOJO
 62
     7
370
     9
100
AcDbLine
 10
-5490.000018557987
 20
1218.000148463894
 30
0.0
 11
5699.998762800888
 21
1218.000148463894
 31
0.0
  0
LINE
  5
16C
330
1F
100
AcDbEntity
  8
0-4_枠
  6
Continuous
 62
    92
370
    13
100
AcDbLine
 10
-4697.399798419024
 20
1218.000148463894
 30
0.0
 11
-3963.399798419023
 21
1218.000148463894
 31
0.0
  0
LINE
  5
16D
330
1F
100
AcDbEntity
  8
0-4_枠
  6
Continuous
 62
    92
370
    13
100
AcDbLine
 10
-4667.399798419024
 20
1233.000148463894
 30
0.0
 11
-3993.399798419023
 21
1233.000148463894
 31
0.0
  0
LINE
  5
16E
330
1F
100
AcDbEntity
  8
0-B_寸法
  6
Continuous
 62
   120
370
     5
100
AcDbLine
 10
-4665.399798419024
 20
918.0001484638937
 30
0.0
 11
-4331.399798419024
 21
918.0001484638937
 31
0.0
  0
LINE
  5
16F
330
1F
100
AcDbEntity
  8
0-B_寸法
  6
Continuous
 62
   120
370
     5
100
AcDbLine
 10
-4665.399798419024
 20
918.0001484638937
 30
0.0
 11
-4665.399798419024
 21
1168.000148463894
 31
0.0
  0
LINE
  5
170
330
1F
100
AcDbEntity
  8
0-B_寸法
  6
Continuous
 62
   120
370
     5
100
AcDbLine
 10
-4331.399798419024
 20
918.0001484638937
 30
0.0
 11
-4331.399798419024
 21
1168.000148463894
 31
0.0
  0
LINE
  5
171
330
1F
100
AcDbEntity
  8
0-B_寸法
  6
Continuous
 62
   120
370
     5
100
AcDbLine
 10
-4331.399798419024
 20
918.0001484638937
 30
0.0
 11
-4329.399798419023
 21
918.0001484638937
 31
0.0
  0
LINE
  5
172
330
1F
100
AcDbEntity
  8
0-B_寸法
  6
Continuous
 62
   120
370
     5
100
AcDbLine
 10
-4329.399798419023
 20
918.0001484638937
 30
0.0
 11
-4329.399798419023
 21
1168.000148463894
 31
0.0
  0
LINE
  5
173
330
1F
100
AcDbEntity
  8
0-B_寸法
  6
Continuous
 62
   120
370
     5
100
AcDbLine
 10
-4329.399798419023
 20
918.0001484638937
 30
0.0
 11
-3995.399798419023
 21
918.0001484638937
 31
0.0
  0
LINE
  5
174
330
1F
100
AcDbEntity
  8
0-B_寸法
  6
Continuous
 62
   120
370
     5
100
AcDbLine
 10
-3995.399798419023
 20
918.0001484638937
 30
0.0
 11
-3995.399798419023
 21
1168.000148463894
 31
0.0
  0
LINE
  5
175
330
1F
100
AcDbEntity
  8
0-B_寸法
  6
Continuous
 62
   120
370
     5
100
AcDbLine
 10
-4330.399798419024
 20
918.0001484638937
 30
0.0
 11
-4291.426300679595
 21
1063.451222176111
 31
0.0
  0
LINE
  5
176
330
1F
100
AcDbEntity
  8
0-B_寸法
  6
Continuous
 62
   120
370
     5
100
AcDbLine
 10
-4291.426300679595
 20
1063.451222176111
 30
0.0
 11
-4239.488936942846
 21
1063.451222176111
 31
0.0
  0
LWPOLYLINE
  5
177
330
1F
100
AcDbEntity
  8
0-B_寸法
  6
Continuous
 62
     7
370
     9
100
AcDbPolyline
 90
        4
 70
     1
 43
3.0
 10
-4663.899798419023
 20
918.0001484638937
 42
0.4142135623731
 10
-4665.399798419024
 20
919.5001484638938
 42
0.4142135623731
 10
-4666.899798419024
 20
918.0001484638937
 42
0.4142135623731
 10
-4665.399798419024
 20
916.5001484638937
 42
0.4142135623731
  0
LWPOLYLINE
  5
178
330
1F
100
AcDbEntity
  8
0-B_寸法
  6
Continuous
 62
     7
370
     9
100
AcDbPolyline
 90
        4
 70
     1
 43
3.0
 10
-4329.899798419024
 20
918.0001484638937
 42
0.4142135623731
 10
-4331.399798419024
 20
919.5001484638938
 42
0.4142135623731
 10
-4332.899798419024
 20
918.0001484638937
 42
0.4142135623731
 10
-4331.399798419024
 20
916.5001484638937
 42
0.4142135623731
  0
LWPOLYLINE
  5
179
330
1F
100
AcDbEntity
  8
0-B_寸法
  6
Continuous
 62
     7
370
     9
100
AcDbPolyline
 90
        4
 70
     1
 43
3.0
 10
-4327.899798419023
 20
918.0001484638937
 42
0.4142135623731
 10
-4329.399798419023
 20
919.5001484638938
 42
0.4142135623731
 10
-4330.899798419024
 20
918.0001484638937
 42
0.4142135623731
 10
-4329.399798419023
 20
916.5001484638937
 42
0.4142135623731
  0
LWPOLYLINE
  5
17A
330
1F
100
AcDbEntity
  8
0-B_寸法
  6
Continuous
 62
     7
370
     9
100
AcDbPolyline
 90
        4
 70
     1
 43
3.0
 10
-3993.899798419023
 20
918.0001484638937
 42
0.4142135623731
 10
-3995.399798419023
 20
919.5001484638938
 42
0.4142135623731
 10
-3996.899798419024
 20
918.0001484638937
 42
0.4142135623731
 10
-3995.399798419023
 20
916.5001484638937
 42
0.4142135623731
  0
LINE
  5
17B
330
1F
100
AcDbEntity
  8
0-0_補助線
  6
JWW_HOJO
 62
     7
370
     9
100
AcDbLine
 10
-3258.399798419024
 20
3964.999818544131
 30
0.0
 11
-3258.399798419024
 21
-3790.000179909372
 31
0.0
  0
LINE
  5
17C
330
1F
100
AcDbEntity
  8
F-0_補助線
  6
JWW_HOJO
 62
   120
370
     5
100
AcDbLine
 10
-6300.0
 20
-4455.0
 30
0.0
 11
-6300.0
 21
4424.999604096284
 31
0.0
  0
LINE
  5
17D
330
1F
100
AcDbEntity
  8
F-0_補助線
  6
JWW_HOJO
 62
   120
370
     5
100
AcDbLine
 10
-6300.0
 20
4424.999604096284
 30
0.0
 11
5999.999010240709
 21
4424.999604096284
 31
0.0
  0
LINE
  5
17E
330
1F
100
AcDbEntity
  8
F-0_補助線
  6
JWW_HOJO
 62
   120
370
     5
100
AcDbLine
 10
5999.999010240709
 20
4424.999604096284
 30
0.0
 11
5999.999010240709
 21
-4455.0
 31
0.0
  0
LINE
  5
17F
330
1F
100
AcDbEntity
  8
F-0_補助線
  6
JWW_HOJO
 62
   120
370
     5
100
AcDbLine
 10
5999.999010240709
 20
-4455.0
 30
0.0
 11
-6300.0
 21
-4455.0
 31
0.0
  0
LINE
  5
180
330
1F
100
AcDbEntity
  8
F-1_枠
  6
Continuous
 62
   200
370
    20
100
AcDbLine
 10
-5999.999752560178
 20
4164.999983504013
 30
0.0
 11
5699.998762800888
 21
4164.999983504013
 31
0.0
  0
LINE
  5
181
330
1F
100
AcDbEntity
  8
F-1_枠
  6
Continuous
 62
   200
370
    20
100
AcDbLine
 10
-5999.999752560178
 20
4169.999505120355
 30
0.0
 11
5699.998762800888
 21
4169.999505120355
 31
0.0
  0
LINE
  5
182
330
1F
100
AcDbEntity
  8
F-1_枠
  6
Continuous
 62
   200
370
    20
100
AcDbLine
 10
-5999.999752560178
 20
4174.999769056166
 30
0.0
 11
5699.998762800888
 21
4174.999769056166
 31
0.0
  0
LINE
  5
183
330
1F
100
AcDbEntity
  8
F-1_枠
  6
Continuous
 62
   200
370
    20
100
AcDbLine
 10
5689.998977248734
 20
4174.999769056166
 30
0.0
 11
5689.998977248734
 21
-4205.000164959882
 31
0.0
  0
LINE
  5
184
330
1F
100
AcDbEntity
  8
F-1_枠
  6
Continuous
 62
   200
370
    20
100
AcDbLine
 10
5694.998498865077
 20
4174.999769056166
 30
0.0
 11
5694.998498865077
 21
-4205.000164959882
 31
0.0
  0
LINE
  5
185
330
1F
100
AcDbEntity
  8
F-1_枠
  6
Continuous
 62
   200
370
    20
100
AcDbLine
 10
5699.998762800888
 20
4174.999769056166
 30
0.0
 11
5699.998762800888
 21
-4205.000164959882
 31
0.0
  0
LINE
  5
186
330
1F
100
AcDbEntity
  8
F-1_枠
  6
Continuous
 62
   200
370
    20
100
AcDbLine
 10
-5989.999990205507
 20
4174.999769056166
 30
0.0
 11
-5989.999990205507
 21
-4205.000164959882
 31
0.0
  0
LINE
  5
187
330
1F
100
AcDbEntity
  8
F-1_枠
  6
Continuous
 62
   200
370
    20
100
AcDbLine
 10
-5994.999975771518
 20
4174.999769056166
 30
0.0
 11
-5994.999975771518
 21
-4205.000164959882
 31
0.0
  0
LINE
  5
188
330
1F
100
AcDbEntity
  8
F-1_枠
  6
Continuous
 62
   200
370
    20
100
AcDbLine
 10
-5999.999984535011
 20
4174.999769056166
 30
0.0
 11
-5999.999984535011
 21
-4205.000164959882
 31
0.0
  0
LINE
  5
189
330
1F
100
AcDbEntity
  8
F-1_枠
  6
Continuous
 62
   200
370
    20
100
AcDbLine
 10
-5999.999752560178
 20
3964.999818544131
 30
0.0
 11
5699.998762800888
 21
3964.999818544131
 31
0.0
  0
LINE
  5
18A
330
1F
100
AcDbEntity
  8
F-1_枠
  6
Continuous
 62
   200
370
    20
100
AcDbLine
 10
-5989.999990205507
 20
-15.50015011349217
 30
0.0
 11
5689.998977248734
 21
-15.50015011349217
 31
0.0
  0
LINE
  5
18B
330
1F
100
AcDbEntity
  8
F-1_枠
  6
Continuous
 62
   200
370
    20
100
AcDbLine
 10
-5989.999990205507
 20
190.5001831054688
 30
0.0
 11
5689.998977248734
 21
190.5001831054688
 31
0.0
  0
LINE
  5
18C
330
1F
100
AcDbEntity
  8
F-1_枠
  6
Continuous
 62
   200
370
    20
100
AcDbLine
 10
-5989.999990205507
 20
184.5000148463899
 30
0.0
 11
5689.998977248734
 21
184.5000148463899
 31
0.0
  0
LINE
  5
18D
330
1F
100
AcDbEntity
  8
F-1_枠
  6
Continuous
 62
   200
370
    20
100
AcDbLine
 10
-5490.000018557987
 20
4174.999769056166
 30
0.0
 11
-5490.000018557987
 21
-3790.000179909372
 31
0.0
  0
LINE
  5
18E
330
1F
100
AcDbEntity
  8
F-1_枠
  6
Continuous
 62
   200
370
    20
100
AcDbLine
 10
-3258.399798419024
 20
4174.999769056166
 30
0.0
 11
-3258.399798419024
 21
-3790.000179909372
 31
0.0
  0
LINE
  5
18F
330
1F
100
AcDbEntity
  8
F-0_補助線
  6
JWW_HOJO
 62
   200
370
    20
100
AcDbLine
 10
-5989.999990205507
 20
84.49993236644843
 30
0.0
 11
5689.998977248734
 21
84.49993236644843
 31
0.0
  0
LINE
  5
190
330
1F
100
AcDbEntity
  8
F-1_枠
  6
Continuous
 62
   200
370
    20
100
AcDbLine
 10
-5989.999990205507
 20
187.5000989759289
 30
0.0
 11
5689.998977248734
 21
187.5000989759289
 31
0.0
  0
LINE
  5
191
330
1F
100
AcDbEntity
  8
0-4_枠
  6
Continuous
 62
    92
370
    13
100
AcDbLine
 10
-2465.799671069995
 20
1218.000148463894
 30
0.0
 11
-1731.799671069995
 21
1218.000148463894
 31
0.0
  0
LINE
  5
192
330
1F
100
AcDbEntity
  8
0-4_枠
  6
Continuous
 62
    92
370
    13
100
AcDbLine
 10
-2435.799671069995
 20
1233.000148463894
 30
0.0
 11
-1761.799671069995
 21
1233.000148463894
 31
0.0
  0
LINE
  5
193
330
1F
100
AcDbEntity
  8
0-4_枠
  6
Continuous
 62
    92
370
    13
100
AcDbLine
 10
-234.1999148807008
 20
1218.000148463894
 30
0.0
 11
499.8000851192992
 21
1218.000148463894
 31
0.0
  0
LINE
  5
194
330
1F
100
AcDbEntity
  8
0-4_枠
  6
Continuous
 62
    92
370
    13
100
AcDbLine
 10
-204.1999148807008
 20
1233.000148463894
 30
0.0
 11
469.8000851192992
 21
1233.000148463894
 31
0.0
  0
LINE
  5
195
330
1F
100
AcDbEntity
  8
0-4_枠
  6
Continuous
 62
    92
370
    13
100
AcDbLine
 10
1997.400212468328
 20
1218.000148463894
 30
0.0
 11
2731.400212468328
 21
1218.000148463894
 31
0.0
  0
LINE
  5
196
330
1F
100
AcDbEntity
  8
0-4_枠
  6
Continuous
 62
    92
370
    13
100
AcDbLine
 10
2027.400212468328
 20
1233.000148463894
 30
0.0
 11
2701.400212468328
 21
1233.000148463894
 31
0.0
  0
LINE
  5
197
330
1F
100
AcDbEntity
  8
0-4_枠
  6
Continuous
 62
    92
370
    13
100
AcDbLine
 10
4229.000339817357
 20
1218.000148463894
 30
0.0
 11
4963.000339817357
 21
1218.000148463894
 31
0.0
  0
LINE
  5
198
330
1F
100
AcDbEntity
  8
0-4_枠
  6
Continuous
 62
    92
370
    13
100
AcDbLine
 10
4259.000339817357
 20
1233.000148463894
 30
0.0
 11
4933.000339817357
 21
1233.000148463894
 31
0.0
  0
LINE
  5
199
330
1F
100
AcDbEntity
  8
0-0_補助線
  6
JWW_HOJO
 62
     7
370
     9
100
AcDbLine
 10
3436.400212468328
 20
4164.999983504013
 30
0.0
 11
3436.400212468328
 21
-3790.000179909372
 31
0.0
  0
LINE
  5
19A
330
1F
100
AcDbEntity
  8
0-0_補助線
  6
JWW_HOJO
 62
     7
370
     9
100
AcDbLine
 10
-1026.799671069995
 20
4164.999983504013
 30
0.0
 11
-1026.799671069995
 21
-3790.000179909372
 31
0.0
  0
LINE
  5
19B
330
1F
100
AcDbEntity
  8
0-0_補助線
  6
JWW_HOJO
 62
     7
370
     9
100
AcDbLine
 10
1204.800085119299
 20
4164.999983504013
 30
0.0
 11
1204.800085119299
 21
-3790.000179909372
 31
0.0
  0
LINE
  5
19C
330
1F
100
AcDbEntity
  8
F-1_枠
  6
Continuous
 62
   200
370
    20
100
AcDbLine
 10
-1026.799671069995
 20
4164.999983504013
 30
0.0
 11
-1026.799671069995
 21
-3790.000179909372
 31
0.0
  0
LINE
  5
19D
330
1F
100
AcDbEntity
  8
F-1_枠
  6
Continuous
 62
   200
370
    20
100
AcDbLine
 10
1204.800085119299
 20
4164.999983504013
 30
0.0
 11
1204.800085119299
 21
-3790.000179909372
 31
0.0
  0
LINE
  5
19E
330
1F
100
AcDbEntity
  8
F-1_枠
  6
Continuous
 62
   200
370
    20
100
AcDbLine
 10
3436.400212468328
 20
4164.999983504013
 30
0.0
 11
3436.400212468328
 21
-3790.000179909372
 31
0.0
  0
LINE
  5
19F
330
1F
100
AcDbEntity
  8
0-0_補助線
  6
JWW_HOJO
 62
   120
370
     5
100
AcDbLine
 10
-5490.000018557987
 20
1168.000148463894
 30
0.0
 11
5699.998762800888
 21
1168.000148463894
 31
0.0
  0
LINE
  5
1A0
330
1F
100
AcDbEntity
  8
0-B_寸法
  6
Continuous
 62
   120
370
     5
100
AcDbLine
 10
-2433.799671069995
 20
918.0001484638937
 30
0.0
 11
-2099.799671069996
 21
918.0001484638937
 31
0.0
  0
LINE
  5
1A1
330
1F
100
AcDbEntity
  8
0-B_寸法
  6
Continuous
 62
   120
370
     5
100
AcDbLine
 10
-2433.799671069995
 20
918.0001484638937
 30
0.0
 11
-2433.799671069995
 21
1168.000148463894
 31
0.0
  0
LINE
  5
1A2
330
1F
100
AcDbEntity
  8
0-B_寸法
  6
Continuous
 62
   120
370
     5
100
AcDbLine
 10
-2099.799671069996
 20
918.0001484638937
 30
0.0
 11
-2099.799671069996
 21
1168.000148463894
 31
0.0
  0
LINE
  5
1A3
330
1F
100
AcDbEntity
  8
0-B_寸法
  6
Continuous
 62
   120
370
     5
100
AcDbLine
 10
-2099.799671069996
 20
918.0001484638937
 30
0.0
 11
-2097.799671069995
 21
918.0001484638937
 31
0.0
  0
LINE
  5
1A4
330
1F
100
AcDbEntity
  8
0-B_寸法
  6
Continuous
 62
   120
370
     5
100
AcDbLine
 10
-2097.799671069995
 20
918.0001484638937
 30
0.0
 11
-2097.799671069995
 21
1168.000148463894
 31
0.0
  0
LINE
  5
1A5
330
1F
100
AcDbEntity
  8
0-B_寸法
  6
Continuous
 62
   120
370
     5
100
AcDbLine
 10
-2097.799671069995
 20
918.0001484638937
 30
0.0
 11
-1763.799671069995
 21
918.0001484638937
 31
0.0
  0
LINE
  5
1A6
330
1F
100
AcDbEntity
  8
0-B_寸法
  6
Continuous
 62
   120
370
     5
100
AcDbLine
 10
-1763.799671069995
 20
918.0001484638937
 30
0.0
 11
-1763.799671069995
 21
1168.000148463894
 31
0.0
  0
LINE
  5
1A7
330
1F
100
AcDbEntity
  8
0-B_寸法
  6
Continuous
 62
   120
370
     5
100
AcDbLine
 10
-202.1999148807009
 20
918.0001484638937
 30
0.0
 11
131.8000851192988
 21
918.0001484638937
 31
0.0
  0
LINE
  5
1A8
330
1F
100
AcDbEntity
  8
0-B_寸法
  6
Continuous
 62
   120
370
     5
100
AcDbLine
 10
-202.1999148807009
 20
918.0001484638937
 30
0.0
 11
-202.1999148807009
 21
1168.000148463894
 31
0.0
  0
LINE
  5
1A9
330
1F
100
AcDbEntity
  8
0-B_寸法
  6
Continuous
 62
   120
370
     5
100
AcDbLine
 10
131.8000851192988
 20
918.0001484638937
 30
0.0
 11
131.8000851192988
 21
1168.000148463894
 31
0.0
  0
LINE
  5
1AA
330
1F
100
AcDbEntity
  8
0-B_寸法
  6
Continuous
 62
   120
370
     5
100
AcDbLine
 10
131.8000851192988
 20
918.0001484638937
 30
0.0
 11
133.8000851192996
 21
918.0001484638937
 31
0.0
  0
LINE
  5
1AB
330
1F
100
AcDbEntity
  8
0-B_寸法
  6
Continuous
 62
   120
370
     5
100
AcDbLine
 10
133.8000851192996
 20
918.0001484638937
 30
0.0
 11
133.8000851192996
 21
1168.000148463894
 31
0.0
  0
LINE
  5
1AC
330
1F
100
AcDbEntity
  8
0-B_寸法
  6
Continuous
 62
   120
370
     5
100
AcDbLine
 10
133.8000851192996
 20
918.0001484638937
 30
0.0
 11
467.8000851192994
 21
918.0001484638937
 31
0.0
  0
LINE
  5
1AD
330
1F
100
AcDbEntity
  8
0-B_寸法
  6
Continuous
 62
   120
370
     5
100
AcDbLine
 10
467.8000851192994
 20
918.0001484638937
 30
0.0
 11
467.8000851192994
 21
1168.000148463894
 31
0.0
  0
LINE
  5
1AE
330
1F
100
AcDbEntity
  8
0-B_寸法
  6
Continuous
 62
   120
370
     5
100
AcDbLine
 10
2029.400212468328
 20
918.0001484638937
 30
0.0
 11
2363.400212468328
 21
918.0001484638937
 31
0.0
  0
LINE
  5
1AF
330
1F
100
AcDbEntity
  8
0-B_寸法
  6
Continuous
 62
   120
370
     5
100
AcDbLine
 10
2029.400212468328
 20
918.0001484638937
 30
0.0
 11
2029.400212468328
 21
1168.000148463894
 31
0.0
  0
LINE
  5
1B0
330
1F
100
AcDbEntity
  8
0-B_寸法
  6
Continuous
 62
   120
370
     5
100
AcDbLine
 10
2363.400212468328
 20
918.0001484638937
 30
0.0
 11
2363.400212468328
 21
1168.000148463894
 31
0.0
  0
LINE
  5
1B1
330
1F
100
AcDbEntity
  8
0-B_寸法
  6
Continuous
 62
   120
370
     5
100
AcDbLine
 10
2363.400212468328
 20
918.0001484638937
 30
0.0
 11
2365.400212468328
 21
918.0001484638937
 31
0.0
  0
LINE
  5
1B2
330
1F
100
AcDbEntity
  8
0-B_寸法
  6
Continuous
 62
   120
370
     5
100
AcDbLine
 10
2365.400212468328
 20
918.0001484638937
 30
0.0
 11
2365.400212468328
 21
1168.000148463894
 31
0.0
  0
LINE
  5
1B3
330
1F
100
AcDbEntity
  8
0-B_寸法
  6
Continuous
 62
   120
370
     5
100
AcDbLine
 10
2365.400212468328
 20
918.0001484638937
 30
0.0
 11
2699.400212468328
 21
918.0001484638937
 31
0.0
  0
LINE
  5
1B4
330
1F
100
AcDbEntity
  8
0-B_寸法
  6
Continuous
 62
   120
370
     5
100
AcDbLine
 10
2699.400212468328
 20
918.0001484638937
 30
0.0
 11
2699.400212468328
 21
1168.000148463894
 31
0.0
  0
LINE
  5
1B5
330
1F
100
AcDbEntity
  8
0-B_寸法
  6
Continuous
 62
   120
370
     5
100
AcDbLine
 10
-2098.799671069996
 20
918.0001484638937
 30
0.0
 11
-2059.826173330567
 21
1063.451222176111
 31
0.0
  0
LINE
  5
1B6
330
1F
100
AcDbEntity
  8
0-B_寸法
  6
Continuous
 62
   120
370
     5
100
AcDbLine
 10
-2059.826173330567
 20
1063.451222176111
 30
0.0
 11
-2007.888809593818
 21
1063.451222176111
 31
0.0
  0
LINE
  5
1B7
330
1F
100
AcDbEntity
  8
0-B_寸法
  6
Continuous
 62
   120
370
     5
100
AcDbLine
 10
132.8000851192988
 20
918.0001484638937
 30
0.0
 11
171.7735828587274
 21
1063.451222176111
 31
0.0
  0
LINE
  5
1B8
330
1F
100
AcDbEntity
  8
0-B_寸法
  6
Continuous
 62
   120
370
     5
100
AcDbLine
 10
171.7735828587274
 20
1063.451222176111
 30
0.0
 11
223.7109465954768
 21
1063.451222176111
 31
0.0
  0
LINE
  5
1B9
330
1F
100
AcDbEntity
  8
0-B_寸法
  6
Continuous
 62
   120
370
     5
100
AcDbLine
 10
2364.400212468327
 20
918.0001484638937
 30
0.0
 11
2403.373710207756
 21
1063.451222176111
 31
0.0
  0
LINE
  5
1BA
330
1F
100
AcDbEntity
  8
0-B_寸法
  6
Continuous
 62
   120
370
     5
100
AcDbLine
 10
2403.373710207756
 20
1063.451222176111
 30
0.0
 11
2455.311073944506
 21
1063.451222176111
 31
0.0
  0
LINE
  5
1BB
330
1F
100
AcDbEntity
  8
0-B_寸法
  6
Continuous
 62
   120
370
     5
100
AcDbLine
 10
4261.000339817357
 20
918.0001484638937
 30
0.0
 11
4595.000339817357
 21
918.0001484638937
 31
0.0
  0
LINE
  5
1BC
330
1F
100
AcDbEntity
  8
0-B_寸法
  6
Continuous
 62
   120
370
     5
100
AcDbLine
 10
4261.000339817357
 20
918.0001484638937
 30
0.0
 11
4261.000339817357
 21
1168.000148463894
 31
0.0
  0
LINE
  5
1BD
330
1F
100
AcDbEntity
  8
0-B_寸法
  6
Continuous
 62
   120
370
     5
100
AcDbLine
 10
4595.000339817357
 20
918.0001484638937
 30
0.0
 11
4595.000339817357
 21
1168.000148463894
 31
0.0
  0
LINE
  5
1BE
330
1F
100
AcDbEntity
  8
0-B_寸法
  6
Continuous
 62
   120
370
     5
100
AcDbLine
 10
4595.000339817357
 20
918.0001484638937
 30
0.0
 11
4597.000339817358
 21
918.0001484638937
 31
0.0
  0
LINE
  5
1BF
330
1F
100
AcDbEntity
  8
0-B_寸法
  6
Continuous
 62
   120
370
     5
100
AcDbLine
 10
4597.000339817358
 20
918.0001484638937
 30
0.0
 11
4597.000339817358
 21
1168.000148463894
 31
0.0
  0
LINE
  5
1C0
330
1F
100
AcDbEntity
  8
0-B_寸法
  6
Continuous
 62
   120
370
     5
100
AcDbLine
 10
4597.000339817358
 20
918.0001484638937
 30
0.0
 11
4931.000339817358
 21
918.0001484638937
 31
0.0
  0
LINE
  5
1C1
330
1F
100
AcDbEntity
  8
0-B_寸法
  6
Continuous
 62
   120
370
     5
100
AcDbLine
 10
4931.000339817358
 20
918.0001484638937
 30
0.0
 11
4931.000339817358
 21
1168.000148463894
 31
0.0
  0
LINE
  5
1C2
330
1F
100
AcDbEntity
  8
0-B_寸法
  6
Continuous
 62
   120
370
     5
100
AcDbLine
 10
4596.000339817357
 20
918.0001484638937
 30
0.0
 11
4634.973837556785
 21
1063.451222176111
 31
0.0
  0
LINE
  5
1C3
330
1F
100
AcDbEntity
  8
0-B_寸法
  6
Continuous
 62
   120
370
     5
100
AcDbLine
 10
4634.973837556785
 20
1063.451222176111
 30
0.0
 11
4686.911201293535
 21
1063.451222176111
 31
0.0
  0
LWPOLYLINE
  5
1C4
330
1F
100
AcDbEntity
  8
0-B_寸法
  6
Continuous
 62
     7
370
     9
100
AcDbPolyline
 90
        4
 70
     1
 43
3.0
 10
-2432.299671069995
 20
918.0001484638937
 42
0.4142135623731
 10
-2433.799671069995
 20
919.5001484638938
 42
0.4142135623731
 10
-2435.299671069995
 20
918.0001484638937
 42
0.4142135623731
 10
-2433.799671069995
 20
916.5001484638937
 42
0.4142135623731
  0
LWPOLYLINE
  5
1C5
330
1F
100
AcDbEntity
  8
0-B_寸法
  6
Continuous
 62
     7
370
     9
100
AcDbPolyline
 90
        4
 70
     1
 43
3.0
 10
-2098.299671069996
 20
918.0001484638937
 42
0.4142135623731
 10
-2099.799671069996
 20
919.5001484638938
 42
0.4142135623731
 10
-2101.299671069995
 20
918.0001484638937
 42
0.4142135623731
 10
-2099.799671069996
 20
916.5001484638937
 42
0.4142135623731
  0
LWPOLYLINE
  5
1C6
330
1F
100
AcDbEntity
  8
0-B_寸法
  6
Continuous
 62
     7
370
     9
100
AcDbPolyline
 90
        4
 70
     1
 43
3.0
 10
-2096.299671069995
 20
918.0001484638937
 42
0.4142135623731
 10
-2097.799671069995
 20
919.5001484638938
 42
0.4142135623731
 10
-2099.299671069995
 20
918.0001484638937
 42
0.4142135623731
 10
-2097.799671069995
 20
916.5001484638937
 42
0.4142135623731
  0
LWPOLYLINE
  5
1C7
330
1F
100
AcDbEntity
  8
0-B_寸法
  6
Continuous
 62
     7
370
     9
100
AcDbPolyline
 90
        4
 70
     1
 43
3.0
 10
-1762.299671069995
 20
918.0001484638937
 42
0.4142135623731
 10
-1763.799671069995
 20
919.5001484638938
 42
0.4142135623731
 10
-1765.299671069995
 20
918.0001484638937
 42
0.4142135623731
 10
-1763.799671069995
 20
916.5001484638937
 42
0.4142135623731
  0
LWPOLYLINE
  5
1C8
330
1F
100
AcDbEntity
  8
0-B_寸法
  6
Continuous
 62
     7
370
     9
100
AcDbPolyline
 90
        4
 70
     1
 43
3.0
 10
-200.6999148807009
 20
918.0001484638937
 42
0.4142135623731
 10
-202.1999148807009
 20
919.5001484638938
 42
0.4142135623731
 10
-203.6999148807009
 20
918.0001484638937
 42
0.4142135623731
 10
-202.1999148807009
 20
916.5001484638937
 42
0.4142135623731
  0
LWPOLYLINE
  5
1C9
330
1F
100
AcDbEntity
  8
0-B_寸法
  6
Continuous
 62
     7
370
     9
100
AcDbPolyline
 90
        4
 70
     1
 43
3.0
 10
133.3000851192988
 20
918.0001484638937
 42
0.4142135623731
 10
131.8000851192988
 20
919.5001484638938
 42
0.4142135623731
 10
130.3000851192988
 20
918.0001484638937
 42
0.4142135623731
 10
131.8000851192988
 20
916.5001484638937
 42
0.4142135623731
  0
LWPOLYLINE
  5
1CA
330
1F
100
AcDbEntity
  8
0-B_寸法
  6
Continuous
 62
     7
370
     9
100
AcDbPolyline
 90
        4
 70
     1
 43
3.0
 10
135.3000851192996
 20
918.0001484638937
 42
0.4142135623731
 10
133.8000851192996
 20
919.5001484638938
 42
0.4142135623731
 10
132.3000851192996
 20
918.0001484638937
 42
0.4142135623731
 10
133.8000851192996
 20
916.5001484638937
 42
0.4142135623731
  0
LWPOLYLINE
  5
1CB
330
1F
100
AcDbEntity
  8
0-B_寸法
  6
Continuous
 62
     7
370
     9
100
AcDbPolyline
 90
        4
 70
     1
 43
3.0
 10
469.3000851192994
 20
918.0001484638937
 42
0.4142135623731
 10
467.8000851192994
 20
919.5001484638938
 42
0.4142135623731
 10
466.3000851192994
 20
918.0001484638937
 42
0.4142135623731
 10
467.8000851192994
 20
916.5001484638937
 42
0.4142135623731
  0
LWPOLYLINE
  5
1CC
330
1F
100
AcDbEntity
  8
0-B_寸法
  6
Continuous
 62
     7
370
     9
100
AcDbPolyline
 90
        4
 70
     1
 43
3.0
 10
2030.900212468328
 20
918.0001484638937
 42
0.4142135623731
 10
2029.400212468328
 20
919.5001484638938
 42
0.4142135623731
 10
2027.900212468328
 20
918.0001484638937
 42
0.4142135623731
 10
2029.400212468328
 20
916.5001484638937
 42
0.4142135623731
  0
LWPOLYLINE
  5
1CD
330
1F
100
AcDbEntity
  8
0-B_寸法
  6
Continuous
 62
     7
370
     9
100
AcDbPolyline
 90
        4
 70
     1
 43
3.0
 10
2364.900212468327
 20
918.0001484638937
 42
0.4142135623731
 10
2363.400212468328
 20
919.5001484638938
 42
0.4142135623731
 10
2361.900212468328
 20
918.0001484638937
 42
0.4142135623731
 10
2363.400212468328
 20
916.5001484638937
 42
0.4142135623731
  0
LWPOLYLINE
  5
1CE
330
1F
100
AcDbEntity
  8
0-B_寸法
  6
Continuous
 62
     7
370
     9
100
AcDbPolyline
 90
        4
 70
     1
 43
3.0
 10
2366.900212468328
 20
918.0001484638937
 42
0.4142135623731
 10
2365.400212468328
 20
919.5001484638938
 42
0.4142135623731
 10
2363.900212468328
 20
918.0001484638937
 42
0.4142135623731
 10
2365.400212468328
 20
916.5001484638937
 42
0.4142135623731
  0
LWPOLYLINE
  5
1CF
330
1F
100
AcDbEntity
  8
0-B_寸法
  6
Continuous
 62
     7
370
     9
100
AcDbPolyline
 90
        4
 70
     1
 43
3.0
 10
2700.900212468328
 20
918.0001484638937
 42
0.4142135623731
 10
2699.400212468328
 20
919.5001484638938
 42
0.4142135623731
 10
2697.900212468328
 20
918.0001484638937
 42
0.4142135623731
 10
2699.400212468328
 20
916.5001484638937
 42
0.4142135623731
  0
LWPOLYLINE
  5
1D0
330
1F
100
AcDbEntity
  8
0-B_寸法
  6
Continuous
 62
     7
370
     9
100
AcDbPolyline
 90
        4
 70
     1
 43
3.0
 10
4262.500339817358
 20
918.0001484638937
 42
0.4142135623731
 10
4261.000339817357
 20
919.5001484638938
 42
0.4142135623731
 10
4259.500339817357
 20
918.0001484638937
 42
0.4142135623731
 10
4261.000339817357
 20
916.5001484638937
 42
0.4142135623731
  0
LWPOLYLINE
  5
1D1
330
1F
100
AcDbEntity
  8
0-B_寸法
  6
Continuous
 62
     7
370
     9
100
AcDbPolyline
 90
        4
 70
     1
 43
3.0
 10
4596.500339817357
 20
918.0001484638937
 42
0.4142135623731
 10
4595.000339817357
 20
919.5001484638938
 42
0.4142135623731
 10
4593.500339817357
 20
918.0001484638937
 42
0.4142135623731
 10
4595.000339817357
 20
916.5001484638937
 42
0.4142135623731
  0
LWPOLYLINE
  5
1D2
330
1F
100
AcDbEntity
  8
0-B_寸法
  6
Continuous
 62
     7
370
     9
100
AcDbPolyline
 90
        4
 70
     1
 43
3.0
 10
4598.500339817358
 20
918.0001484638937
 42
0.4142135623731
 10
4597.000339817358
 20
919.5001484638938
 42
0.4142135623731
 10
4595.500339817357
 20
918.0001484638937
 42
0.4142135623731
 10
4597.000339817358
 20
916.5001484638937
 42
0.4142135623731
  0
LWPOLYLINE
  5
1D3
330
1F
100
AcDbEntity
  8
0-B_寸法
  6
Continuous
 62
     7
370
     9
100
AcDbPolyline
 90
        4
 70
     1
 43
3.0
 10
4932.500339817358
 20
918.0001484638937
 42
0.4142135623731
 10
4931.000339817358
 20
919.5001484638938
 42
0.4142135623731
 10
4929.500339817357
 20
918.0001484638937
 42
0.4142135623731
 10
4931.000339817358
 20
916.5001484638937
 42
0.4142135623731
  0
LINE
  5
1D4
330
1F
100
AcDbEntity
  8
0-0_補助線
  6
JWW_HOJO
 62
   120
370
     5
100
AcDbLine
 10
-5490.000018557987
 20
1948.000148463894
 30
0.0
 11
-3258.399798419024
 21
1948.000148463894
 31
0.0
  0
LINE
  5
1D5
330
1F
100
AcDbEntity
  8
0-0_補助線
  6
JWW_HOJO
 62
     7
370
     9
100
AcDbLine
 10
-5490.000018557987
 20
2051.000148463894
 30
0.0
 11
-3258.399798419024
 21
2051.000148463894
 31
0.0
  0
LINE
  5
1D6
330
1F
100
AcDbEntity
  8
0-0_補助線
  6
JWW_HOJO
 62
     7
370
     9
100
AcDbLine
 10
3436.400212468327
 20
3555.000148463894
 30
0.0
 11
5699.998762800888
 21
3555.000148463894
 31
0.0
  0
LINE
  5
1D7
330
1F
100
AcDbEntity
  8
F-0_補助線
  6
JWW_HOJO
 62
   200
370
    20
100
AcDbLine
 10
-5989.999990205507
 20
4064.999901024072
 30
0.0
 11
5689.998977248734
 21
4064.999901024072
 31
0.0
  0
LINE
  5
1D8
330
1F
100
AcDbEntity
  8
0-4_枠
  6
Continuous
 62
    92
370
    13
100
AcDbLine
 10
-4667.399798419024
 20
-2296.750165011432
 30
0.0
 11
-3993.399798419023
 21
-2296.750165011432
 31
0.0
  0
LINE
  5
1D9
330
1F
100
AcDbEntity
  8
0-4_枠
  6
Continuous
 62
    92
370
    13
100
AcDbLine
 10
-2435.799671069995
 20
-2296.750165011432
 30
0.0
 11
-1761.799671069995
 21
-2296.750165011432
 31
0.0
  0
LINE
  5
1DA
330
1F
100
AcDbEntity
  8
0-4_枠
  6
Continuous
 62
    92
370
    13
100
AcDbLine
 10
-4697.399798419024
 20
-2326.750165011432
 30
0.0
 11
-3963.399798419023
 21
-2326.750165011432
 31
0.0
  0
LINE
  5
1DB
330
1F
100
AcDbEntity
  8
0-4_枠
  6
Continuous
 62
    92
370
    13
100
AcDbLine
 10
-2465.799671069995
 20
-2326.750165011432
 30
0.0
 11
-1731.799671069995
 21
-2326.750165011432
 31
0.0
  0
LINE
  5
1DC
330
1F
100
AcDbEntity
  8
0-B_寸法
  6
Continuous
 62
   120
370
     5
100
AcDbLine
 10
-4665.399798419024
 20
-2626.750165011432
 30
0.0
 11
-4331.399798419024
 21
-2626.750165011432
 31
0.0
  0
LINE
  5
1DD
330
1F
100
AcDbEntity
  8
0-B_寸法
  6
Continuous
 62
   120
370
     5
100
AcDbLine
 10
-4665.399798419024
 20
-2626.750165011432
 30
0.0
 11
-4665.399798419024
 21
-2376.750165011432
 31
0.0
  0
LINE
  5
1DE
330
1F
100
AcDbEntity
  8
0-B_寸法
  6
Continuous
 62
   120
370
     5
100
AcDbLine
 10
-4331.399798419024
 20
-2626.750165011432
 30
0.0
 11
-4331.399798419024
 21
-2376.750165011432
 31
0.0
  0
LINE
  5
1DF
330
1F
100
AcDbEntity
  8
0-B_寸法
  6
Continuous
 62
   120
370
     5
100
AcDbLine
 10
-4331.399798419024
 20
-2626.750165011432
 30
0.0
 11
-4329.399798419023
 21
-2626.750165011432
 31
0.0
  0
LINE
  5
1E0
330
1F
100
AcDbEntity
  8
0-B_寸法
  6
Continuous
 62
   120
370
     5
100
AcDbLine
 10
-4329.399798419023
 20
-2626.750165011432
 30
0.0
 11
-4329.399798419023
 21
-2376.750165011432
 31
0.0
  0
LINE
  5
1E1
330
1F
100
AcDbEntity
  8
0-B_寸法
  6
Continuous
 62
   120
370
     5
100
AcDbLine
 10
-4329.399798419023
 20
-2626.750165011432
 30
0.0
 11
-3995.399798419023
 21
-2626.750165011432
 31
0.0
  0
LINE
  5
1E2
330
1F
100
AcDbEntity
  8
0-B_寸法
  6
Continuous
 62
   120
370
     5
100
AcDbLine
 10
-3995.399798419023
 20
-2626.750165011432
 30
0.0
 11
-3995.399798419023
 21
-2376.750165011432
 31
0.0
  0
LINE
  5
1E3
330
1F
100
AcDbEntity
  8
0-B_寸法
  6
Continuous
 62
   120
370
     5
100
AcDbLine
 10
-2433.799671069995
 20
-2626.750165011432
 30
0.0
 11
-2099.799671069996
 21
-2626.750165011432
 31
0.0
  0
LINE
  5
1E4
330
1F
100
AcDbEntity
  8
0-B_寸法
  6
Continuous
 62
   120
370
     5
100
AcDbLine
 10
-2433.799671069995
 20
-2626.750165011432
 30
0.0
 11
-2433.799671069995
 21
-2376.750165011432
 31
0.0
  0
LINE
  5
1E5
330
1F
100
AcDbEntity
  8
0-B_寸法
  6
Continuous
 62
   120
370
     5
100
AcDbLine
 10
-2099.799671069996
 20
-2626.750165011432
 30
0.0
 11
-2099.799671069996
 21
-2376.750165011432
 31
0.0
  0
LINE
  5
1E6
330
1F
100
AcDbEntity
  8
0-B_寸法
  6
Continuous
 62
   120
370
     5
100
AcDbLine
 10
-2099.799671069996
 20
-2626.750165011432
 30
0.0
 11
-2097.799671069995
 21
-2626.750165011432
 31
0.0
  0
LINE
  5
1E7
330
1F
100
AcDbEntity
  8
0-B_寸法
  6
Continuous
 62
   120
370
     5
100
AcDbLine
 10
-2097.799671069995
 20
-2626.750165011432
 30
0.0
 11
-2097.799671069995
 21
-2376.750165011432
 31
0.0
  0
LINE
  5
1E8
330
1F
100
AcDbEntity
  8
0-B_寸法
  6
Continuous
 62
   120
370
     5
100
AcDbLine
 10
-2097.799671069995
 20
-2626.750165011432
 30
0.0
 11
-1763.799671069995
 21
-2626.750165011432
 31
0.0
  0
LINE
  5
1E9
330
1F
100
AcDbEntity
  8
0-B_寸法
  6
Continuous
 62
   120
370
     5
100
AcDbLine
 10
-1763.799671069995
 20
-2626.750165011432
 30
0.0
 11
-1763.799671069995
 21
-2376.750165011432
 31
0.0
  0
LINE
  5
1EA
330
1F
100
AcDbEntity
  8
0-B_寸法
  6
Continuous
 62
   120
370
     5
100
AcDbLine
 10
-4330.399798419024
 20
-2626.750165011432
 30
0.0
 11
-4291.426300679595
 21
-2481.299091299215
 31
0.0
  0
LINE
  5
1EB
330
1F
100
AcDbEntity
  8
0-B_寸法
  6
Continuous
 62
   120
370
     5
100
AcDbLine
 10
-4291.426300679595
 20
-2481.299091299215
 30
0.0
 11
-4239.488936942846
 21
-2481.299091299215
 31
0.0
  0
LINE
  5
1EC
330
1F
100
AcDbEntity
  8
0-B_寸法
  6
Continuous
 62
   120
370
     5
100
AcDbLine
 10
-2098.799671069996
 20
-2626.750165011432
 30
0.0
 11
-2059.826173330567
 21
-2481.299091299215
 31
0.0
  0
LINE
  5
1ED
330
1F
100
AcDbEntity
  8
0-B_寸法
  6
Continuous
 62
   120
370
     5
100
AcDbLine
 10
-2059.826173330567
 20
-2481.299091299215
 30
0.0
 11
-2007.888809593818
 21
-2481.299091299215
 31
0.0
  0
LWPOLYLINE
  5
1EE
330
1F
100
AcDbEntity
  8
0-B_寸法
  6
Continuous
 62
     7
370
     9
100
AcDbPolyline
 90
        4
 70
     1
 43
3.0
 10
-4663.899798419023
 20
-2626.750165011432
 42
0.4142135623731
 10
-4665.399798419024
 20
-2625.250165011432
 42
0.4142135623731
 10
-4666.899798419024
 20
-2626.750165011432
 42
0.4142135623731
 10
-4665.399798419024
 20
-2628.250165011432
 42
0.4142135623731
  0
LWPOLYLINE
  5
1EF
330
1F
100
AcDbEntity
  8
0-B_寸法
  6
Continuous
 62
     7
370
     9
100
AcDbPolyline
 90
        4
 70
     1
 43
3.0
 10
-4329.899798419024
 20
-2626.750165011432
 42
0.4142135623731
 10
-4331.399798419024
 20
-2625.250165011432
 42
0.4142135623731
 10
-4332.899798419024
 20
-2626.750165011432
 42
0.4142135623731
 10
-4331.399798419024
 20
-2628.250165011432
 42
0.4142135623731
  0
LWPOLYLINE
  5
1F0
330
1F
100
AcDbEntity
  8
0-B_寸法
  6
Continuous
 62
     7
370
     9
100
AcDbPolyline
 90
        4
 70
     1
 43
3.0
 10
-4327.899798419023
 20
-2626.750165011432
 42
0.4142135623731
 10
-4329.399798419023
 20
-2625.250165011432
 42
0.4142135623731
 10
-4330.899798419024
 20
-2626.750165011432
 42
0.4142135623731
 10
-4329.399798419023
 20
-2628.250165011432
 42
0.4142135623731
  0
LWPOLYLINE
  5
1F1
330
1F
100
AcDbEntity
  8
0-B_寸法
  6
Continuous
 62
     7
370
     9
100
AcDbPolyline
 90
        4
 70
     1
 43
3.0
 10
-3993.899798419023
 20
-2626.750165011432
 42
0.4142135623731
 10
-3995.399798419023
 20
-2625.250165011432
 42
0.4142135623731
 10
-3996.899798419024
 20
-2626.750165011432
 42
0.4142135623731
 10
-3995.399798419023
 20
-2628.250165011432
 42
0.4142135623731
  0
LWPOLYLINE
  5
1F2
330
1F
100
AcDbEntity
  8
0-B_寸法
  6
Continuous
 62
     7
370
     9
100
AcDbPolyline
 90
        4
 70
     1
 43
3.0
 10
-2432.299671069995
 20
-2626.750165011432
 42
0.4142135623731
 10
-2433.799671069995
 20
-2625.250165011432
 42
0.4142135623731
 10
-2435.299671069995
 20
-2626.750165011432
 42
0.4142135623731
 10
-2433.799671069995
 20
-2628.250165011432
 42
0.4142135623731
  0
LWPOLYLINE
  5
1F3
330
1F
100
AcDbEntity
  8
0-B_寸法
  6
Continuous
 62
     7
370
     9
100
AcDbPolyline
 90
        4
 70
     1
 43
3.0
 10
-2098.299671069996
 20
-2626.750165011432
 42
0.4142135623731
 10
-2099.799671069996
 20
-2625.250165011432
 42
0.4142135623731
 10
-2101.299671069995
 20
-2626.750165011432
 42
0.4142135623731
 10
-2099.799671069996
 20
-2628.250165011432
 42
0.4142135623731
  0
LWPOLYLINE
  5
1F4
330
1F
100
AcDbEntity
  8
0-B_寸法
  6
Continuous
 62
     7
370
     9
100
AcDbPolyline
 90
        4
 70
     1
 43
3.0
 10
-2096.299671069995
 20
-2626.750165011432
 42
0.4142135623731
 10
-2097.799671069995
 20
-2625.250165011432
 42
0.4142135623731
 10
-2099.299671069995
 20
-2626.750165011432
 42
0.4142135623731
 10
-2097.799671069995
 20
-2628.250165011432
 42
0.4142135623731
  0
LWPOLYLINE
  5
1F5
330
1F
100
AcDbEntity
  8
0-B_寸法
  6
Continuous
 62
     7
370
     9
100
AcDbPolyline
 90
        4
 70
     1
 43
3.0
 10
-1762.299671069995
 20
-2626.750165011432
 42
0.4142135623731
 10
-1763.799671069995
 20
-2625.250165011432
 42
0.4142135623731
 10
-1765.299671069995
 20
-2626.750165011432
 42
0.4142135623731
 10
-1763.799671069995
 20
-2628.250165011432
 42
0.4142135623731
  0
LINE
  5
1F6
330
1F
100
AcDbEntity
  8
0-0_補助線
  6
JWW_HOJO
 62
     7
370
     9
100
AcDbLine
 10
-5490.000018557987
 20
-2326.750165011432
 30
0.0
 11
-1026.799671069995
 21
-2326.750165011432
 31
0.0
  0
LINE
  5
1F7
330
1F
100
AcDbEntity
  8
0-0_補助線
  6
JWW_HOJO
 62
   120
370
     5
100
AcDbLine
 10
-5490.000018557987
 20
-2376.750165011432
 30
0.0
 11
-1026.799671069995
 21
-2376.750165011432
 31
0.0
  0
LINE
  5
1F8
330
1F
100
AcDbEntity
  8
0-4_枠
  6
Continuous
 62
    92
370
    13
100
AcDbLine
 10
-4697.399798419024
 20
1218.000148463894
 30
0.0
 11
-4697.399798419024
 21
2050.000148463893
 31
0.0
  0
LINE
  5
1F9
330
1F
100
AcDbEntity
  8
0-4_枠
  6
Continuous
 62
    92
370
    13
100
AcDbLine
 10
-3963.399798419023
 20
1218.000148463894
 30
0.0
 11
-3963.399798419023
 21
2050.000148463893
 31
0.0
  0
LINE
  5
1FA
330
1F
100
AcDbEntity
  8
0-4_枠
  6
Continuous
 62
    92
370
    13
100
AcDbLine
 10
-4697.399798419024
 20
2050.000148463893
 30
0.0
 11
-3963.399798419023
 21
2050.000148463893
 31
0.0
  0
LINE
  5
1FB
330
1F
100
AcDbEntity
  8
0-4_枠
  6
Continuous
 62
    92
370
    13
100
AcDbLine
 10
-4667.399798419024
 20
2020.000148463893
 30
0.0
 11
-3993.399798419023
 21
2020.000148463893
 31
0.0
  0
LINE
  5
1FC
330
1F
100
AcDbEntity
  8
0-2_扉
  6
Continuous
 62
    92
370
    13
100
AcDbLine
 10
-4329.399798419023
 20
2017.000148463893
 30
0.0
 11
-4329.399798419023
 21
1237.000148463894
 31
0.0
  0
LINE
  5
1FD
330
1F
100
AcDbEntity
  8
0-2_扉
  6
Continuous
 62
    92
370
    13
100
AcDbLine
 10
-4331.399798419024
 20
2017.000148463893
 30
0.0
 11
-4331.399798419024
 21
1237.000148463894
 31
0.0
  0
LINE
  5
1FE
330
1F
100
AcDbEntity
  8
0-2_扉
  6
Continuous
 62
    92
370
    13
100
AcDbLine
 10
-4329.399798419023
 20
1237.000148463894
 30
0.0
 11
-3995.399798419023
 21
1237.000148463894
 31
0.0
  0
LINE
  5
1FF
330
1F
100
AcDbEntity
  8
0-2_扉
  6
Continuous
 62
    92
370
    13
100
AcDbLine
 10
-4329.399798419023
 20
2017.000148463893
 30
0.0
 11
-3995.399798419023
 21
2017.000148463893
 31
0.0
  0
LINE
  5
200
330
1F
100
AcDbEntity
  8
0-2_扉
  6
Continuous
 62
    92
370
    13
100
AcDbLine
 10
-3995.399798419023
 20
1237.000148463894
 30
0.0
 11
-3995.399798419023
 21
2017.000148463893
 31
0.0
  0
LINE
  5
201
330
1F
100
AcDbEntity
  8
0-2_扉
  6
Continuous
 62
    92
370
    13
100
AcDbLine
 10
-4331.399798419024
 20
2017.000148463893
 30
0.0
 11
-4665.399798419024
 21
2017.000148463893
 31
0.0
  0
LINE
  5
202
330
1F
100
AcDbEntity
  8
0-2_扉
  6
Continuous
 62
    92
370
    13
100
AcDbLine
 10
-4331.399798419024
 20
1237.000148463894
 30
0.0
 11
-4665.399798419024
 21
1237.000148463894
 31
0.0
  0
LINE
  5
203
330
1F
100
AcDbEntity
  8
0-2_扉
  6
Continuous
 62
    92
370
    13
100
AcDbLine
 10
-4665.399798419024
 20
2017.000148463893
 30
0.0
 11
-4665.399798419024
 21
1237.000148463894
 31
0.0
  0
LINE
  5
204
330
1F
100
AcDbEntity
  8
0-B_寸法
  6
Continuous
 62
   120
370
     5
100
AcDbLine
 10
-4997.399798419024
 20
2017.000148463893
 30
0.0
 11
-4997.399798419024
 21
1237.000148463894
 31
0.0
  0
LINE
  5
205
330
1F
100
AcDbEntity
  8
0-B_寸法
  6
Continuous
 62
   120
370
     5
100
AcDbLine
 10
-4997.399798419024
 20
2017.000148463893
 30
0.0
 11
-4747.399798419024
 21
2017.000148463893
 31
0.0
  0
LINE
  5
206
330
1F
100
AcDbEntity
  8
0-B_寸法
  6
Continuous
 62
   120
370
     5
100
AcDbLine
 10
-4997.399798419024
 20
1237.000148463894
 30
0.0
 11
-4747.399798419024
 21
1237.000148463894
 31
0.0
  0
LWPOLYLINE
  5
207
330
1F
100
AcDbEntity
  8
0-B_寸法
  6
Continuous
 62
     7
370
     9
100
AcDbPolyline
 90
        4
 70
     1
 43
3.0
 10
-4995.899798419023
 20
2017.000148463893
 42
0.4142135623731
 10
-4997.399798419024
 20
2018.500148463893
 42
0.4142135623731
 10
-4998.899798419024
 20
2017.000148463893
 42
0.4142135623731
 10
-4997.399798419024
 20
2015.500148463894
 42
0.4142135623731
  0
LWPOLYLINE
  5
208
330
1F
100
AcDbEntity
  8
0-B_寸法
  6
Continuous
 62
     7
370
     9
100
AcDbPolyline
 90
        4
 70
     1
 43
3.0
 10
-4995.899798419023
 20
1237.000148463894
 42
0.4142135623731
 10
-4997.399798419024
 20
1238.500148463894
 42
0.4142135623731
 10
-4998.899798419024
 20
1237.000148463894
 42
0.4142135623731
 10
-4997.399798419024
 20
1235.500148463894
 42
0.4142135623731
  0
LINE
  5
209
330
1F
100
AcDbEntity
  8
0-4_枠
  6
Continuous
 62
    92
370
    13
100
AcDbLine
 10
-4667.399798419024
 20
1218.000148463894
 30
0.0
 11
-4667.399798419024
 21
2050.000148463893
 31
0.0
  0
LINE
  5
20A
330
1F
100
AcDbEntity
  8
0-4_枠
  6
Continuous
 62
    92
370
    13
100
AcDbLine
 10
-3993.399798419023
 20
1218.000148463894
 30
0.0
 11
-3993.399798419023
 21
2050.000148463893
 31
0.0
  0
LINE
  5
20B
330
1F
100
AcDbEntity
  8
0-4_枠
  6
Continuous
 62
    92
370
    13
100
AcDbLine
 10
-2465.799671069995
 20
1218.000148463894
 30
0.0
 11
-2465.799671069995
 21
2405.000148463893
 31
0.0
  0
LINE
  5
20C
330
1F
100
AcDbEntity
  8
0-4_枠
  6
Continuous
 62
    92
370
    13
100
AcDbLine
 10
-1731.799671069995
 20
1218.000148463894
 30
0.0
 11
-1731.799671069995
 21
2405.000148463893
 31
0.0
  0
LINE
  5
20D
330
1F
100
AcDbEntity
  8
0-4_枠
  6
Continuous
 62
    92
370
    13
100
AcDbLine
 10
-2465.799671069995
 20
2405.000148463893
 30
0.0
 11
-1731.799671069995
 21
2405.000148463893
 31
0.0
  0
LINE
  5
20E
330
1F
100
AcDbEntity
  8
0-4_枠
  6
Continuous
 62
    92
370
    13
100
AcDbLine
 10
-2435.799671069995
 20
2375.000148463893
 30
0.0
 11
-1761.799671069995
 21
2375.000148463893
 31
0.0
  0
LINE
  5
20F
330
1F
100
AcDbEntity
  8
0-2_扉
  6
Continuous
 62
    92
370
    13
100
AcDbLine
 10
-2097.799671069995
 20
1237.000148463894
 30
0.0
 11
-1763.799671069995
 21
1237.000148463894
 31
0.0
  0
LINE
  5
210
330
1F
100
AcDbEntity
  8
0-2_扉
  6
Continuous
 62
    92
370
    13
100
AcDbLine
 10
-2099.799671069996
 20
1237.000148463894
 30
0.0
 11
-2433.799671069995
 21
1237.000148463894
 31
0.0
  0
LINE
  5
211
330
1F
100
AcDbEntity
  8
0-2_扉
  6
Continuous
 62
    92
370
    13
100
AcDbLine
 10
-2097.799671069995
 20
2372.000148463894
 30
0.0
 11
-2097.799671069995
 21
1237.000148463894
 31
0.0
  0
LINE
  5
212
330
1F
100
AcDbEntity
  8
0-2_扉
  6
Continuous
 62
    92
370
    13
100
AcDbLine
 10
-2099.799671069996
 20
2372.000148463894
 30
0.0
 11
-2099.799671069996
 21
1237.000148463894
 31
0.0
  0
LINE
  5
213
330
1F
100
AcDbEntity
  8
0-2_扉
  6
Continuous
 62
    92
370
    13
100
AcDbLine
 10
-2097.799671069995
 20
2372.000148463894
 30
0.0
 11
-1763.799671069995
 21
2372.000148463894
 31
0.0
  0
LINE
  5
214
330
1F
100
AcDbEntity
  8
0-2_扉
  6
Continuous
 62
    92
370
    13
100
AcDbLine
 10
-1763.799671069995
 20
1237.000148463894
 30
0.0
 11
-1763.799671069995
 21
2372.000148463894
 31
0.0
  0
LINE
  5
215
330
1F
100
AcDbEntity
  8
0-2_扉
  6
Continuous
 62
    92
370
    13
100
AcDbLine
 10
-2099.799671069996
 20
2372.000148463894
 30
0.0
 11
-2433.799671069995
 21
2372.000148463894
 31
0.0
  0
LINE
  5
216
330
1F
100
AcDbEntity
  8
0-2_扉
  6
Continuous
 62
    92
370
    13
100
AcDbLine
 10
-2433.799671069995
 20
2372.000148463894
 30
0.0
 11
-2433.799671069995
 21
1237.000148463894
 31
0.0
  0
LINE
  5
217
330
1F
100
AcDbEntity
  8
0-B_寸法
  6
Continuous
 62
   120
370
     5
100
AcDbLine
 10
-2765.799671069995
 20
1237.000148463894
 30
0.0
 11
-2515.799671069996
 21
1237.000148463894
 31
0.0
  0
LINE
  5
218
330
1F
100
AcDbEntity
  8
0-B_寸法
  6
Continuous
 62
   120
370
     5
100
AcDbLine
 10
-2765.799671069995
 20
2372.000148463894
 30
0.0
 11
-2765.799671069995
 21
1237.000148463894
 31
0.0
  0
LINE
  5
219
330
1F
100
AcDbEntity
  8
0-B_寸法
  6
Continuous
 62
   120
370
     5
100
AcDbLine
 10
-2765.799671069995
 20
2372.000148463894
 30
0.0
 11
-2515.799671069996
 21
2372.000148463894
 31
0.0
  0
LWPOLYLINE
  5
21A
330
1F
100
AcDbEntity
  8
0-B_寸法
  6
Continuous
 62
     7
370
     9
100
AcDbPolyline
 90
        4
 70
     1
 43
3.0
 10
-2764.299671069995
 20
1237.000148463894
 42
0.4142135623731
 10
-2765.799671069995
 20
1238.500148463894
 42
0.4142135623731
 10
-2767.299671069995
 20
1237.000148463894
 42
0.4142135623731
 10
-2765.799671069995
 20
1235.500148463894
 42
0.4142135623731
  0
LWPOLYLINE
  5
21B
330
1F
100
AcDbEntity
  8
0-B_寸法
  6
Continuous
 62
     7
370
     9
100
AcDbPolyline
 90
        4
 70
     1
 43
3.0
 10
-2764.299671069995
 20
2372.000148463894
 42
0.4142135623731
 10
-2765.799671069995
 20
2373.500148463894
 42
0.4142135623731
 10
-2767.299671069995
 20
2372.000148463894
 42
0.4142135623731
 10
-2765.799671069995
 20
2370.500148463894
 42
0.4142135623731
  0
LINE
  5
21C
330
1F
100
AcDbEntity
  8
0-4_枠
  6
Continuous
 62
    92
370
    13
100
AcDbLine
 10
-2435.799671069995
 20
1218.000148463894
 30
0.0
 11
-2435.799671069995
 21
2405.000148463893
 31
0.0
  0
LINE
  5
21D
330
1F
100
AcDbEntity
  8
0-4_枠
  6
Continuous
 62
    92
370
    13
100
AcDbLine
 10
-1761.799671069995
 20
1218.000148463894
 30
0.0
 11
-1761.799671069995
 21
2405.000148463893
 31
0.0
  0
LINE
  5
21E
330
1F
100
AcDbEntity
  8
0-4_枠
  6
Continuous
 62
    92
370
    13
100
AcDbLine
 10
-234.1999148807008
 20
1218.000148463894
 30
0.0
 11
-234.1999148807008
 21
3003.000148463894
 31
0.0
  0
LINE
  5
21F
330
1F
100
AcDbEntity
  8
0-4_枠
  6
Continuous
 62
    92
370
    13
100
AcDbLine
 10
499.8000851192992
 20
1218.000148463894
 30
0.0
 11
499.8000851192992
 21
3003.000148463894
 31
0.0
  0
LINE
  5
220
330
1F
100
AcDbEntity
  8
0-4_枠
  6
Continuous
 62
    92
370
    13
100
AcDbLine
 10
-234.1999148807008
 20
3003.000148463894
 30
0.0
 11
499.8000851192992
 21
3003.000148463894
 31
0.0
  0
LINE
  5
221
330
1F
100
AcDbEntity
  8
0-4_枠
  6
Continuous
 62
    92
370
    13
100
AcDbLine
 10
-204.1999148807008
 20
2973.000148463894
 30
0.0
 11
469.8000851192992
 21
2973.000148463894
 31
0.0
  0
LINE
  5
222
330
1F
100
AcDbEntity
  8
0-2_扉
  6
Continuous
 62
    92
370
    13
100
AcDbLine
 10
133.8000851192996
 20
1237.000148463894
 30
0.0
 11
467.8000851192994
 21
1237.000148463894
 31
0.0
  0
LINE
  5
223
330
1F
100
AcDbEntity
  8
0-2_扉
  6
Continuous
 62
    92
370
    13
100
AcDbLine
 10
131.8000851192988
 20
1237.000148463894
 30
0.0
 11
-202.1999148807009
 21
1237.000148463894
 31
0.0
  0
LINE
  5
224
330
1F
100
AcDbEntity
  8
0-2_扉
  6
Continuous
 62
    92
370
    13
100
AcDbLine
 10
133.8000851192996
 20
2970.000148463894
 30
0.0
 11
133.8000851192996
 21
1237.000148463894
 31
0.0
  0
LINE
  5
225
330
1F
100
AcDbEntity
  8
0-2_扉
  6
Continuous
 62
    92
370
    13
100
AcDbLine
 10
131.8000851192988
 20
2970.000148463894
 30
0.0
 11
131.8000851192988
 21
1237.000148463894
 31
0.0
  0
LINE
  5
226
330
1F
100
AcDbEntity
  8
0-2_扉
  6
Continuous
 62
    92
370
    13
100
AcDbLine
 10
133.8000851192996
 20
2970.000148463894
 30
0.0
 11
467.8000851192994
 21
2970.000148463894
 31
0.0
  0
LINE
  5
227
330
1F
100
AcDbEntity
  8
0-2_扉
  6
Continuous
 62
    92
370
    13
100
AcDbLine
 10
467.8000851192994
 20
1237.000148463894
 30
0.0
 11
467.8000851192994
 21
2970.000148463894
 31
0.0
  0
LINE
  5
228
330
1F
100
AcDbEntity
  8
0-2_扉
  6
Continuous
 62
    92
370
    13
100
AcDbLine
 10
131.8000851192988
 20
2970.000148463894
 30
0.0
 11
-202.1999148807009
 21
2970.000148463894
 31
0.0
  0
LINE
  5
229
330
1F
100
AcDbEntity
  8
0-2_扉
  6
Continuous
 62
    92
370
    13
100
AcDbLine
 10
-202.1999148807009
 20
2970.000148463894
 30
0.0
 11
-202.1999148807009
 21
1237.000148463894
 31
0.0
  0
LINE
  5
22A
330
1F
100
AcDbEntity
  8
0-B_寸法
  6
Continuous
 62
   120
370
     5
100
AcDbLine
 10
-534.1999148807008
 20
1237.000148463894
 30
0.0
 11
-284.1999148807014
 21
1237.000148463894
 31
0.0
  0
LINE
  5
22B
330
1F
100
AcDbEntity
  8
0-B_寸法
  6
Continuous
 62
   120
370
     5
100
AcDbLine
 10
-534.1999148807008
 20
2970.000148463894
 30
0.0
 11
-534.1999148807008
 21
1237.000148463894
 31
0.0
  0
LINE
  5
22C
330
1F
100
AcDbEntity
  8
0-B_寸法
  6
Continuous
 62
   120
370
     5
100
AcDbLine
 10
-534.1999148807008
 20
2970.000148463894
 30
0.0
 11
-284.1999148807014
 21
2970.000148463894
 31
0.0
  0
LWPOLYLINE
  5
22D
330
1F
100
AcDbEntity
  8
0-B_寸法
  6
Continuous
 62
     7
370
     9
100
AcDbPolyline
 90
        4
 70
     1
 43
3.0
 10
-532.6999148807008
 20
1237.000148463894
 42
0.4142135623731
 10
-534.1999148807008
 20
1238.500148463894
 42
0.4142135623731
 10
-535.6999148807008
 20
1237.000148463894
 42
0.4142135623731
 10
-534.1999148807008
 20
1235.500148463894
 42
0.4142135623731
  0
LWPOLYLINE
  5
22E
330
1F
100
AcDbEntity
  8
0-B_寸法
  6
Continuous
 62
     7
370
     9
100
AcDbPolyline
 90
        4
 70
     1
 43
3.0
 10
-532.6999148807008
 20
2970.000148463894
 42
0.4142135623731
 10
-534.1999148807008
 20
2971.500148463894
 42
0.4142135623731
 10
-535.6999148807008
 20
2970.000148463894
 42
0.4142135623731
 10
-534.1999148807008
 20
2968.500148463894
 42
0.4142135623731
  0
LINE
  5
22F
330
1F
100
AcDbEntity
  8
0-4_枠
  6
Continuous
 62
    92
370
    13
100
AcDbLine
 10
-204.1999148807008
 20
1218.000148463894
 30
0.0
 11
-204.1999148807008
 21
3003.000148463894
 31
0.0
  0
LINE
  5
230
330
1F
100
AcDbEntity
  8
0-4_枠
  6
Continuous
 62
    92
370
    13
100
AcDbLine
 10
469.8000851192992
 20
1218.000148463894
 30
0.0
 11
469.8000851192992
 21
3003.000148463894
 31
0.0
  0
LINE
  5
231
330
1F
100
AcDbEntity
  8
0-2_扉
  6
Continuous
 62
    92
370
    13
100
AcDbLine
 10
2365.400212468328
 20
1237.000148463894
 30
0.0
 11
2699.400212468328
 21
1237.000148463894
 31
0.0
  0
LINE
  5
232
330
1F
100
AcDbEntity
  8
0-2_扉
  6
Continuous
 62
    92
370
    13
100
AcDbLine
 10
2363.400212468328
 20
1237.000148463894
 30
0.0
 11
2029.400212468328
 21
1237.000148463894
 31
0.0
  0
LINE
  5
233
330
1F
100
AcDbEntity
  8
0-B_寸法
  6
Continuous
 62
   120
370
     5
100
AcDbLine
 10
1697.400212468328
 20
1237.000148463894
 30
0.0
 11
1947.400212468327
 21
1237.000148463894
 31
0.0
  0
LWPOLYLINE
  5
234
330
1F
100
AcDbEntity
  8
0-B_寸法
  6
Continuous
 62
     7
370
     9
100
AcDbPolyline
 90
        4
 70
     1
 43
3.0
 10
1698.900212468328
 20
1237.000148463894
 42
0.4142135623731
 10
1697.400212468328
 20
1238.500148463894
 42
0.4142135623731
 10
1695.900212468328
 20
1237.000148463894
 42
0.4142135623731
 10
1697.400212468328
 20
1235.500148463894
 42
0.4142135623731
  0
LINE
  5
235
330
1F
100
AcDbEntity
  8
0-4_枠
  6
Continuous
 62
    92
370
    13
100
AcDbLine
 10
4229.000339817357
 20
1218.000148463894
 30
0.0
 11
4229.000339817357
 21
3554.000148463894
 31
0.0
  0
LINE
  5
236
330
1F
100
AcDbEntity
  8
0-4_枠
  6
Continuous
 62
    92
370
    13
100
AcDbLine
 10
4963.000339817357
 20
1218.000148463894
 30
0.0
 11
4963.000339817357
 21
3554.000148463894
 31
0.0
  0
LINE
  5
237
330
1F
100
AcDbEntity
  8
0-4_枠
  6
Continuous
 62
    92
370
    13
100
AcDbLine
 10
4229.000339817357
 20
3554.000148463894
 30
0.0
 11
4963.000339817357
 21
3554.000148463894
 31
0.0
  0
LINE
  5
238
330
1F
100
AcDbEntity
  8
0-4_枠
  6
Continuous
 62
    92
370
    13
100
AcDbLine
 10
4259.000339817357
 20
3524.000148463894
 30
0.0
 11
4933.000339817357
 21
3524.000148463894
 31
0.0
  0
LINE
  5
239
330
1F
100
AcDbEntity
  8
0-2_扉
  6
Continuous
 62
    92
370
    13
100
AcDbLine
 10
4597.000339817358
 20
1237.000148463894
 30
0.0
 11
4931.000339817358
 21
1237.000148463894
 31
0.0
  0
LINE
  5
23A
330
1F
100
AcDbEntity
  8
0-2_扉
  6
Continuous
 62
    92
370
    13
100
AcDbLine
 10
4595.000339817357
 20
1237.000148463894
 30
0.0
 11
4261.000339817357
 21
1237.000148463894
 31
0.0
  0
LINE
  5
23B
330
1F
100
AcDbEntity
  8
0-2_扉
  6
Continuous
 62
    92
370
    13
100
AcDbLine
 10
4597.000339817358
 20
3521.000148463894
 30
0.0
 11
4597.000339817358
 21
1237.000148463894
 31
0.0
  0
LINE
  5
23C
330
1F
100
AcDbEntity
  8
0-2_扉
  6
Continuous
 62
    92
370
    13
100
AcDbLine
 10
4595.000339817357
 20
3521.000148463894
 30
0.0
 11
4595.000339817357
 21
1237.000148463894
 31
0.0
  0
LINE
  5
23D
330
1F
100
AcDbEntity
  8
0-2_扉
  6
Continuous
 62
    92
370
    13
100
AcDbLine
 10
4597.000339817358
 20
3521.000148463894
 30
0.0
 11
4931.000339817358
 21
3521.000148463894
 31
0.0
  0
LINE
  5
23E
330
1F
100
AcDbEntity
  8
0-2_扉
  6
Continuous
 62
    92
370
    13
100
AcDbLine
 10
4931.000339817358
 20
1237.000148463894
 30
0.0
 11
4931.000339817358
 21
3521.000148463894
 31
0.0
  0
LINE
  5
23F
330
1F
100
AcDbEntity
  8
0-2_扉
  6
Continuous
 62
    92
370
    13
100
AcDbLine
 10
4595.000339817357
 20
3521.000148463894
 30
0.0
 11
4261.000339817357
 21
3521.000148463894
 31
0.0
  0
LINE
  5
240
330
1F
100
AcDbEntity
  8
0-2_扉
  6
Continuous
 62
    92
370
    13
100
AcDbLine
 10
4261.000339817357
 20
3521.000148463894
 30
0.0
 11
4261.000339817357
 21
1237.000148463894
 31
0.0
  0
LINE
  5
241
330
1F
100
AcDbEntity
  8
0-B_寸法
  6
Continuous
 62
   120
370
     5
100
AcDbLine
 10
3929.000339817357
 20
1237.000148463894
 30
0.0
 11
4179.000339817357
 21
1237.000148463894
 31
0.0
  0
LINE
  5
242
330
1F
100
AcDbEntity
  8
0-B_寸法
  6
Continuous
 62
   120
370
     5
100
AcDbLine
 10
3929.000339817357
 20
3521.000148463894
 30
0.0
 11
3929.000339817357
 21
1237.000148463894
 31
0.0
  0
LINE
  5
243
330
1F
100
AcDbEntity
  8
0-B_寸法
  6
Continuous
 62
   120
370
     5
100
AcDbLine
 10
3929.000339817357
 20
3521.000148463894
 30
0.0
 11
4179.000339817357
 21
3521.000148463894
 31
0.0
  0
LWPOLYLINE
  5
244
330
1F
100
AcDbEntity
  8
0-B_寸法
  6
Continuous
 62
     7
370
     9
100
AcDbPolyline
 90
        4
 70
     1
 43
3.0
 10
3930.500339817358
 20
1237.000148463894
 42
0.4142135623731
 10
3929.000339817357
 20
1238.500148463894
 42
0.4142135623731
 10
3927.500339817357
 20
1237.000148463894
 42
0.4142135623731
 10
3929.000339817357
 20
1235.500148463894
 42
0.4142135623731
  0
LWPOLYLINE
  5
245
330
1F
100
AcDbEntity
  8
0-B_寸法
  6
Continuous
 62
     7
370
     9
100
AcDbPolyline
 90
        4
 70
     1
 43
3.0
 10
3930.500339817358
 20
3521.000148463894
 42
0.4142135623731
 10
3929.000339817357
 20
3522.500148463894
 42
0.4142135623731
 10
3927.500339817357
 20
3521.000148463894
 42
0.4142135623731
 10
3929.000339817357
 20
3519.500148463894
 42
0.4142135623731
  0
LINE
  5
246
330
1F
100
AcDbEntity
  8
0-4_枠
  6
Continuous
 62
    92
370
    13
100
AcDbLine
 10
4259.000339817357
 20
1218.000148463894
 30
0.0
 11
4259.000339817357
 21
3554.000148463894
 31
0.0
  0
LINE
  5
247
330
1F
100
AcDbEntity
  8
0-4_枠
  6
Continuous
 62
    92
370
    13
100
AcDbLine
 10
4933.000339817357
 20
1218.000148463894
 30
0.0
 11
4933.000339817357
 21
3554.000148463894
 31
0.0
  0
LINE
  5
248
330
1F
100
AcDbEntity
  8
0-4_枠
  6
Continuous
 62
    92
370
    13
100
AcDbLine
 10
1997.400212468328
 20
1218.000148463894
 30
0.0
 11
1997.400212468328
 21
3253.000148463893
 31
0.0
  0
LINE
  5
249
330
1F
100
AcDbEntity
  8
0-4_枠
  6
Continuous
 62
    92
370
    13
100
AcDbLine
 10
2731.400212468328
 20
1218.000148463894
 30
0.0
 11
2731.400212468328
 21
3253.000148463893
 31
0.0
  0
LINE
  5
24A
330
1F
100
AcDbEntity
  8
0-4_枠
  6
Continuous
 62
    92
370
    13
100
AcDbLine
 10
1997.400212468328
 20
3253.000148463893
 30
0.0
 11
2731.400212468328
 21
3253.000148463893
 31
0.0
  0
LINE
  5
24B
330
1F
100
AcDbEntity
  8
0-4_枠
  6
Continuous
 62
    92
370
    13
100
AcDbLine
 10
2027.400212468328
 20
3223.000148463893
 30
0.0
 11
2701.400212468328
 21
3223.000148463893
 31
0.0
  0
LINE
  5
24C
330
1F
100
AcDbEntity
  8
0-2_扉
  6
Continuous
 62
    92
370
    13
100
AcDbLine
 10
2365.400212468328
 20
3220.000148463893
 30
0.0
 11
2365.400212468328
 21
1237.000148463894
 31
0.0
  0
LINE
  5
24D
330
1F
100
AcDbEntity
  8
0-2_扉
  6
Continuous
 62
    92
370
    13
100
AcDbLine
 10
2363.400212468328
 20
3220.000148463893
 30
0.0
 11
2363.400212468328
 21
1237.000148463894
 31
0.0
  0
LINE
  5
24E
330
1F
100
AcDbEntity
  8
0-2_扉
  6
Continuous
 62
    92
370
    13
100
AcDbLine
 10
2699.400212468328
 20
1237.000148463894
 30
0.0
 11
2699.400212468328
 21
3220.000148463893
 31
0.0
  0
LINE
  5
24F
330
1F
100
AcDbEntity
  8
0-2_扉
  6
Continuous
 62
    92
370
    13
100
AcDbLine
 10
2029.400212468328
 20
3220.000148463893
 30
0.0
 11
2029.400212468328
 21
1237.000148463894
 31
0.0
  0
LINE
  5
250
330
1F
100
AcDbEntity
  8
0-2_扉
  6
Continuous
 62
    92
370
    13
100
AcDbLine
 10
2365.400212468328
 20
3220.000148463893
 30
0.0
 11
2699.400212468328
 21
3220.000148463893
 31
0.0
  0
LINE
  5
251
330
1F
100
AcDbEntity
  8
0-2_扉
  6
Continuous
 62
    92
370
    13
100
AcDbLine
 10
2363.400212468328
 20
3220.000148463893
 30
0.0
 11
2029.400212468328
 21
3220.000148463893
 31
0.0
  0
LINE
  5
252
330
1F
100
AcDbEntity
  8
0-B_寸法
  6
Continuous
 62
   120
370
     5
100
AcDbLine
 10
1697.400212468328
 20
3220.000148463893
 30
0.0
 11
1697.400212468328
 21
1237.000148463894
 31
0.0
  0
LINE
  5
253
330
1F
100
AcDbEntity
  8
0-B_寸法
  6
Continuous
 62
   120
370
     5
100
AcDbLine
 10
1697.400212468328
 20
3220.000148463893
 30
0.0
 11
1947.400212468327
 21
3220.000148463893
 31
0.0
  0
LWPOLYLINE
  5
254
330
1F
100
AcDbEntity
  8
0-B_寸法
  6
Continuous
 62
     7
370
     9
100
AcDbPolyline
 90
        4
 70
     1
 43
3.0
 10
1698.900212468328
 20
3220.000148463893
 42
0.4142135623731
 10
1697.400212468328
 20
3221.500148463893
 42
0.4142135623731
 10
1695.900212468328
 20
3220.000148463893
 42
0.4142135623731
 10
1697.400212468328
 20
3218.500148463893
 42
0.4142135623731
  0
LINE
  5
255
330
1F
100
AcDbEntity
  8
0-4_枠
  6
Continuous
 62
    92
370
    13
100
AcDbLine
 10
2027.400212468328
 20
1218.000148463894
 30
0.0
 11
2027.400212468328
 21
3253.000148463893
 31
0.0
  0
LINE
  5
256
330
1F
100
AcDbEntity
  8
0-4_枠
  6
Continuous
 62
    92
370
    13
100
AcDbLine
 10
2701.400212468328
 20
1218.000148463894
 30
0.0
 11
2701.400212468328
 21
3253.000148463893
 31
0.0
  0
MTEXT
  5
257
330
1F
100
AcDbEntity
  8
0-B_寸法
  6
Continuous
 62
     7
370
    70
100
AcDbMText
 10
3914.000339817357
 20
2163.825148463894
 30
0.0
 40
57.14999999999999
 41
412.5
 46
0.0
 71
     7
 72
     1
  1
{\fＭＳ ゴシック|b0|i0|c128|p49;ＤＨ＝2,284}
 11
6.123031769111886E-17
 21
1.0
 31
0.0
 73
     1
 44
1.0
  0
MTEXT
  5
258
330
1F
100
AcDbEntity
  8
0-B_寸法
  6
Continuous
 62
     7
370
    70
100
AcDbMText
 10
1682.400212468328
 20
2003.325148463893
 30
0.0
 40
57.14999999999999
 41
412.5
 46
0.0
 71
     7
 72
     1
  1
{\fＭＳ ゴシック|b0|i0|c128|p49;ＤＨ＝1,983}
 11
6.123031769111886E-17
 21
1.0
 31
0.0
 73
     1
 44
1.0
  0
MTEXT
  5
259
330
1F
100
AcDbEntity
  8
0-B_寸法
  6
Continuous
 62
     7
370
    70
100
AcDbMText
 10
-549.1999148807008
 20
1888.325148463894
 30
0.0
 40
57.14999999999999
 41
412.5
 46
0.0
 71
     7
 72
     1
  1
{\fＭＳ ゴシック|b0|i0|c128|p49;ＤＨ＝1,733}
 11
6.123031769111886E-17
 21
1.0
 31
0.0
 73
     1
 44
1.0
  0
MTEXT
  5
25A
330
1F
100
AcDbEntity
  8
0-B_寸法
  6
Continuous
 62
     7
370
    70
100
AcDbMText
 10
-2780.799671069995
 20
1589.325148463894
 30
0.0
 40
57.14999999999997
 41
412.4999999999998
 46
0.0
 71
     7
 72
     1
  1
{\fＭＳ ゴシック|b0|i0|c128|p49;ＤＨ＝1,135}
 11
6.123031769111886E-17
 21
1.0
 31
0.0
 73
     1
 44
1.0
  0
MTEXT
  5
25B
330
1F
100
AcDbEntity
  8
0-B_寸法
  6
Continuous
 62
     7
370
    70
100
AcDbMText
 10
-5012.399798419024
 20
1449.325148463894
 30
0.0
 40
57.15
 41
337.5
 46
0.0
 71
     7
 72
     1
  1
{\fＭＳ ゴシック|b0|i0|c128|p49;ＤＨ＝780}
 11
6.123031769111886E-17
 21
1.0
 31
0.0
 73
     1
 44
1.0
  0
MTEXT
  5
25C
330
1F
100
AcDbEntity
  8
0-B_寸法
  6
Continuous
 62
     7
370
    70
100
AcDbMText
 10
-4291.426300679595
 20
1054.526222176111
 30
0.0
 40
57.15
 41
37.5
 46
0.0
 71
     7
 72
     1
  1
{\fＭＳ ゴシック|b0|i0|c128|p49;2}
 73
     1
 44
1.0
  0
MTEXT
  5
25D
330
1F
100
AcDbEntity
  8
0-B_寸法
  6
Continuous
 62
     7
370
    70
100
AcDbMText
 10
-2059.826173330567
 20
1054.526222176111
 30
0.0
 40
57.15
 41
37.5
 46
0.0
 71
     7
 72
     1
  1
{\fＭＳ ゴシック|b0|i0|c128|p49;2}
 73
     1
 44
1.0
  0
MTEXT
  5
25E
330
1F
100
AcDbEntity
  8
0-B_寸法
  6
Continuous
 62
     7
370
    70
100
AcDbMText
 10
171.7735828587274
 20
1054.526222176111
 30
0.0
 40
57.15
 41
37.5
 46
0.0
 71
     7
 72
     1
  1
{\fＭＳ ゴシック|b0|i0|c128|p49;2}
 73
     1
 44
1.0
  0
MTEXT
  5
25F
330
1F
100
AcDbEntity
  8
0-B_寸法
  6
Continuous
 62
     7
370
    70
100
AcDbMText
 10
2403.373710207756
 20
1054.526222176111
 30
0.0
 40
57.15
 41
37.5
 46
0.0
 71
     7
 72
     1
  1
{\fＭＳ ゴシック|b0|i0|c128|p49;2}
 73
     1
 44
1.0
  0
MTEXT
  5
260
330
1F
100
AcDbEntity
  8
0-B_寸法
  6
Continuous
 62
     7
370
    70
100
AcDbMText
 10
4634.973837556785
 20
1054.526222176111
 30
0.0
 40
57.15
 41
37.5
 46
0.0
 71
     7
 72
     1
  1
{\fＭＳ ゴシック|b0|i0|c128|p49;2}
 73
     1
 44
1.0
  0
MTEXT
  5
261
330
1F
100
AcDbEntity
  8
0-B_寸法
  6
Continuous
 62
     7
370
    70
100
AcDbMText
 10
-4610.899798419024
 20
924.0751484638936
 30
0.0
 40
57.15
 41
225.0
 46
0.0
 71
     7
 72
     1
  1
{\fＭＳ ゴシック|b0|i0|c128|p49;DW=334}
 73
     1
 44
1.0
  0
MTEXT
  5
262
330
1F
100
AcDbEntity
  8
0-B_寸法
  6
Continuous
 62
     7
370
    70
100
AcDbMText
 10
-4274.899798419023
 20
924.0751484638936
 30
0.0
 40
57.15
 41
225.0
 46
0.0
 71
     7
 72
     1
  1
{\fＭＳ ゴシック|b0|i0|c128|p49;DW=334}
 73
     1
 44
1.0
  0
MTEXT
  5
263
330
1F
100
AcDbEntity
  8
0-B_寸法
  6
Continuous
 62
     7
370
    70
100
AcDbMText
 10
-2379.299671069995
 20
924.0751484638936
 30
0.0
 40
57.15
 41
225.0
 46
0.0
 71
     7
 72
     1
  1
{\fＭＳ ゴシック|b0|i0|c128|p49;DW=334}
 73
     1
 44
1.0
  0
MTEXT
  5
264
330
1F
100
AcDbEntity
  8
0-B_寸法
  6
Continuous
 62
     7
370
    70
100
AcDbMText
 10
-2043.299671069995
 20
924.0751484638936
 30
0.0
 40
57.15
 41
225.0
 46
0.0
 71
     7
 72
     1
  1
{\fＭＳ ゴシック|b0|i0|c128|p49;DW=334}
 73
     1
 44
1.0
  0
MTEXT
  5
265
330
1F
100
AcDbEntity
  8
0-B_寸法
  6
Continuous
 62
     7
370
    70
100
AcDbMText
 10
-147.699914880701
 20
924.0751484638936
 30
0.0
 40
57.15
 41
225.0
 46
0.0
 71
     7
 72
     1
  1
{\fＭＳ ゴシック|b0|i0|c128|p49;DW=334}
 73
     1
 44
1.0
  0
MTEXT
  5
266
330
1F
100
AcDbEntity
  8
0-B_寸法
  6
Continuous
 62
     7
370
    70
100
AcDbMText
 10
188.3000851192995
 20
924.0751484638936
 30
0.0
 40
57.15
 41
225.0
 46
0.0
 71
     7
 72
     1
  1
{\fＭＳ ゴシック|b0|i0|c128|p49;DW=334}
 73
     1
 44
1.0
  0
MTEXT
  5
267
330
1F
100
AcDbEntity
  8
0-B_寸法
  6
Continuous
 62
     7
370
    70
100
AcDbMText
 10
2083.900212468328
 20
924.0751484638936
 30
0.0
 40
57.15
 41
225.0
 46
0.0
 71
     7
 72
     1
  1
{\fＭＳ ゴシック|b0|i0|c128|p49;DW=334}
 73
     1
 44
1.0
  0
MTEXT
  5
268
330
1F
100
AcDbEntity
  8
0-B_寸法
  6
Continuous
 62
     7
370
    70
100
AcDbMText
 10
2419.900212468328
 20
924.0751484638936
 30
0.0
 40
57.15
 41
225.0
 46
0.0
 71
     7
 72
     1
  1
{\fＭＳ ゴシック|b0|i0|c128|p49;DW=334}
 73
     1
 44
1.0
  0
MTEXT
  5
269
330
1F
100
AcDbEntity
  8
0-B_寸法
  6
Continuous
 62
     7
370
    70
100
AcDbMText
 10
4315.500339817357
 20
924.0751484638936
 30
0.0
 40
57.15
 41
225.0
 46
0.0
 71
     7
 72
     1
  1
{\fＭＳ ゴシック|b0|i0|c128|p49;DW=334}
 73
     1
 44
1.0
  0
MTEXT
  5
26A
330
1F
100
AcDbEntity
  8
0-B_寸法
  6
Continuous
 62
     7
370
    70
100
AcDbMText
 10
4651.500339817358
 20
924.0751484638936
 30
0.0
 40
57.15
 41
225.0
 46
0.0
 71
     7
 72
     1
  1
{\fＭＳ ゴシック|b0|i0|c128|p49;DW=334}
 73
     1
 44
1.0
  0
MTEXT
  5
26B
330
1F
100
AcDbEntity
  8
0-B_寸法
  6
Continuous
 62
     7
370
    70
100
AcDbMText
 10
-4291.426300679595
 20
-2490.224091299215
 30
0.0
 40
57.15
 41
37.5
 46
0.0
 71
     7
 72
     1
  1
{\fＭＳ ゴシック|b0|i0|c128|p49;2}
 73
     1
 44
1.0
  0
MTEXT
  5
26C
330
1F
100
AcDbEntity
  8
0-B_寸法
  6
Continuous
 62
     7
370
    70
100
AcDbMText
 10
-2059.826173330567
 20
-2490.224091299215
 30
0.0
 40
57.15
 41
37.5
 46
0.0
 71
     7
 72
     1
  1
{\fＭＳ ゴシック|b0|i0|c128|p49;2}
 73
     1
 44
1.0
  0
MTEXT
  5
26D
330
1F
100
AcDbEntity
  8
0-B_寸法
  6
Continuous
 62
     7
370
    70
100
AcDbMText
 10
-4610.899798419024
 20
-2620.675165011432
 30
0.0
 40
57.15
 41
225.0
 46
0.0
 71
     7
 72
     1
  1
{\fＭＳ ゴシック|b0|i0|c128|p49;DW=334}
 73
     1
 44
1.0
  0
MTEXT
  5
26E
330
1F
100
AcDbEntity
  8
0-B_寸法
  6
Continuous
 62
     7
370
    70
100
AcDbMText
 10
-4274.899798419023
 20
-2620.675165011432
 30
0.0
 40
57.15
 41
225.0
 46
0.0
 71
     7
 72
     1
  1
{\fＭＳ ゴシック|b0|i0|c128|p49;DW=334}
 73
     1
 44
1.0
  0
MTEXT
  5
26F
330
1F
100
AcDbEntity
  8
0-B_寸法
  6
Continuous
 62
     7
370
    70
100
AcDbMText
 10
-2379.299671069995
 20
-2620.675165011432
 30
0.0
 40
57.15
 41
225.0
 46
0.0
 71
     7
 72
     1
  1
{\fＭＳ ゴシック|b0|i0|c128|p49;DW=334}
 73
     1
 44
1.0
  0
MTEXT
  5
270
330
1F
100
AcDbEntity
  8
0-B_寸法
  6
Continuous
 62
     7
370
    70
100
AcDbMText
 10
-2043.299671069995
 20
-2620.675165011432
 30
0.0
 40
57.15
 41
225.0
 46
0.0
 71
     7
 72
     1
  1
{\fＭＳ ゴシック|b0|i0|c128|p49;DW=334}
 73
     1
 44
1.0
  0
MTEXT
  5
271
330
1F
100
AcDbEntity
  8
F-A_文字
  6
Continuous
 62
     7
370
     9
100
AcDbMText
 10
-5890.000039177972
 20
4018.575148463894
 30
0.0
 40
57.15
 41
300.0
 46
0.0
 71
     7
 72
     1
  1
{\fＭＳ ゴシック|b0|i0|c128|p49;デザイン}
 73
     1
 44
1.0
  0
MTEXT
  5
272
330
1F
100
AcDbEntity
  8
F-A_文字
  6
Continuous
 62
     7
370
     9
100
AcDbMText
 10
-5852.500004381747
 20
2031.3250008248
 30
0.0
 40
57.15
 41
225.0
 46
0.0
 71
     7
 72
     1
  1
{\fＭＳ ゴシック|b0|i0|c128|p49;姿　図}
 73
     1
 44
1.0
  0
MTEXT
  5
273
330
1F
100
AcDbEntity
  8
F-A_文字
  6
Continuous
 62
     7
370
     9
100
AcDbMText
 10
-5890.000004381747
 20
38.07493236644844
 30
0.0
 40
57.15
 41
300.0
 46
0.0
 71
     7
 72
     1
  1
{\fＭＳ ゴシック|b0|i0|c128|p49;デザイン}
 73
     1
 44
1.0
  0
MTEXT
  5
274
330
1F
100
AcDbEntity
  8
F-A_文字
  6
Continuous
 62
     7
370
     9
100
AcDbMText
 10
-5852.500120369163
 20
-1949.175165011432
 30
0.0
 40
57.15
 41
225.0
 46
0.0
 71
     7
 72
     1
  1
{\fＭＳ ゴシック|b0|i0|c128|p49;姿　図}
 73
     1
 44
1.0
  0
LINE
  5
275
330
1F
100
AcDbEntity
  8
0-0_補助線
  6
JWW_HOJO
 62
     7
370
     9
100
AcDbLine
 10
5699.998762800888
 20
3964.999818544131
 30
0.0
 11
5699.998762800888
 21
-3790.000179909371
 31
0.0
  0
LINE
  5
276
330
1F
100
AcDbEntity
  8
F-0_補助線
  6
JWW_HOJO
 62
     7
370
     9
100
AcDbLine
 10
849.9995876002961
 20
-3795.000003092998
 30
0.0
 11
849.9995876002961
 21
-4195.000008247994
 31
0.0
  0
LINE
  5
277
330
1F
100
AcDbEntity
  8
F-0_補助線
  6
JWW_HOJO
 62
     7
370
     9
100
AcDbLine
 10
349.9999175200594
 20
-3795.000003092998
 30
0.0
 11
349.9999175200594
 21
-4195.000008247994
 31
0.0
  0
LINE
  5
278
330
1F
100
AcDbEntity
  8
F-1_枠
  6
Continuous
 62
   200
370
    20
100
AcDbLine
 10
5699.998762800888
 20
-4205.000002577498
 30
0.0
 11
-5999.999752560178
 21
-4205.000002577498
 31
0.0
  0
LINE
  5
279
330
1F
100
AcDbEntity
  8
F-1_枠
  6
Continuous
 62
   200
370
    20
100
AcDbLine
 10
5699.998762800888
 20
-4199.999993814004
 30
0.0
 11
-5999.999752560178
 21
-4199.999993814004
 31
0.0
  0
LINE
  5
27A
330
1F
100
AcDbEntity
  8
F-1_枠
  6
Continuous
 62
   200
370
    20
100
AcDbLine
 10
5699.998762800888
 20
-4195.000008247994
 30
0.0
 11
-5999.999752560178
 21
-4195.000008247994
 31
0.0
  0
LINE
  5
27B
330
1F
100
AcDbEntity
  8
F-1_枠
  6
Continuous
 62
   200
370
    20
100
AcDbLine
 10
4189.999224688556
 20
-3795.000003092998
 30
0.0
 11
4189.999224688556
 21
-4195.000008247994
 31
0.0
  0
LINE
  5
27C
330
1F
100
AcDbEntity
  8
F-1_枠
  6
Continuous
 62
   200
370
    20
100
AcDbLine
 10
2689.998729808911
 20
-3795.000003092998
 30
0.0
 11
2689.998729808911
 21
-4195.000008247994
 31
0.0
  0
LINE
  5
27D
330
1F
100
AcDbEntity
  8
F-1_枠
  6
Continuous
 62
   200
370
    20
100
AcDbLine
 10
-150.0001237199109
 20
-3795.000003092998
 30
0.0
 11
-150.0001237199109
 21
-4195.000008247994
 31
0.0
  0
LINE
  5
27E
330
1F
100
AcDbEntity
  8
F-1_枠
  6
Continuous
 62
   200
370
    20
100
AcDbLine
 10
-150.0001237199109
 20
-3994.999936078046
 30
0.0
 11
5689.998977248734
 21
-3995.005364289155
 31
0.0
  0
LINE
  5
27F
330
1F
100
AcDbEntity
  8
F-0_補助線
  6
JWW_HOJO
 62
     7
370
     9
100
AcDbLine
 10
-5989.999990205507
 20
-3994.99993607839
 30
0.0
 11
-150.0001237199109
 21
-3994.99993607839
 31
0.0
  0
LINE
  5
280
330
1F
100
AcDbEntity
  8
F-0_補助線
  6
JWW_HOJO
 62
     7
370
     9
100
AcDbLine
 10
-5989.999990205507
 20
-3904.99993607839
 30
0.0
 11
-150.0001237199109
 21
-3904.99993607839
 31
0.0
  0
LINE
  5
281
330
1F
100
AcDbEntity
  8
F-0_補助線
  6
JWW_HOJO
 62
     7
370
     9
100
AcDbLine
 10
-5989.999990205507
 20
-4084.99993607839
 30
0.0
 11
-150.0001237199109
 21
-4084.99993607839
 31
0.0
  0
LINE
  5
282
330
1F
100
AcDbEntity
  8
F-0_補助線
  6
JWW_HOJO
 62
     7
370
     9
100
AcDbLine
 10
-150.0002584955388
 20
-4139.999739777983
 30
0.0
 11
5689.998842473105
 21
-4140.005167989091
 31
0.0
  0
LINE
  5
283
330
1F
100
AcDbEntity
  8
F-0_補助線
  6
JWW_HOJO
 62
     7
370
     9
100
AcDbLine
 10
-150.0001748415872
 20
-4049.999739778022
 30
0.0
 11
5689.998926127057
 21
-4050.005167989131
 31
0.0
  0
LINE
  5
284
330
1F
100
AcDbEntity
  8
F-0_補助線
  6
JWW_HOJO
 62
     7
370
     9
100
AcDbLine
 10
-150.0000725978671
 20
-3939.99973721807
 30
0.0
 11
5689.999028370777
 21
-3940.005165429179
 31
0.0
  0
LINE
  5
285
330
1F
100
AcDbEntity
  8
F-0_補助線
  6
JWW_HOJO
 62
     7
370
     9
100
AcDbLine
 10
-149.9999889439155
 20
-3849.999737218109
 30
0.0
 11
5689.999112024728
 21
-3850.005165429218
 31
0.0
  0
LINE
  5
286
330
1F
100
AcDbEntity
  8
F-0_補助線
  6
JWW_HOJO
 62
     7
370
     9
100
AcDbLine
 10
2779.998729808911
 20
-3795.000003092998
 30
0.0
 11
2779.998729808911
 21
-4195.000008247994
 31
0.0
  0
LINE
  5
287
330
1F
100
AcDbEntity
  8
F-0_補助線
  6
JWW_HOJO
 62
     7
370
     9
100
AcDbLine
 10
-60.0001237199109
 20
-3795.000003092998
 30
0.0
 11
-60.0001237199109
 21
-4195.000008247994
 31
0.0
  0
LINE
  5
288
330
1F
100
AcDbEntity
  8
F-0_補助線
  6
JWW_HOJO
 62
     7
370
     9
100
AcDbLine
 10
4279.999224688556
 20
-3795.000003092998
 30
0.0
 11
4279.999224688556
 21
-4195.000008247994
 31
0.0
  0
LINE
  5
289
330
1F
100
AcDbEntity
  8
F-0_補助線
  6
JWW_HOJO
 62
     7
370
     9
100
AcDbLine
 10
-5247.547376752838
 20
-3795.000003092999
 30
0.0
 11
-5247.547376752838
 21
-4205.000164959882
 31
0.0
  0
LINE
  5
28A
330
1F
100
AcDbEntity
  8
F-0_補助線
  6
JWW_HOJO
 62
     7
370
     9
100
AcDbLine
 10
-210.0001237199109
 20
-3795.000003092998
 30
0.0
 11
-210.0001237199109
 21
-4195.000008247994
 31
0.0
  0
LINE
  5
28B
330
1F
100
AcDbEntity
  8
F-1_枠
  6
Continuous
 62
   200
370
    20
100
AcDbLine
 10
5699.998762800888
 20
-3795.000003092998
 30
0.0
 11
-5999.99998453501
 21
-3795.000003092998
 31
0.0
  0
LINE
  5
28C
330
1F
100
AcDbEntity
  8
F-1_枠
  6
Continuous
 62
   200
370
    20
100
AcDbLine
 10
5699.998762800888
 20
-3790.000017526987
 30
0.0
 11
-5999.99998453501
 21
-3790.000017526987
 31
0.0
  0
MTEXT
  5
28D
330
1F
100
AcDbEntity
  8
F-A_文字
  6
Continuous
 62
     7
370
     0
100
AcDbMText
 10
-60.0001237199109
 20
-3887.139820871936
 30
0.0
 40
45.72
 41
180.0
 46
0.0
 71
     7
 72
     1
  1
{\fＭＳ ゴシック|b0|i0|c128|p49;図面名}
 73
     1
 44
1.0
  0
MTEXT
  5
28E
330
1F
100
AcDbEntity
  8
F-A_文字
  6
Continuous
 62
     7
370
     0
100
AcDbMText
 10
2779.998729808911
 20
-3887.142460617774
 30
0.0
 40
45.72
 41
300.0
 46
0.0
 71
     7
 72
     1
  1
{\fＭＳ ゴシック|b0|i0|c128|p49;ＳＣＡＬＥ}
 73
     1
 44
1.0
  0
MTEXT
  5
28F
330
1F
100
AcDbEntity
  8
F-A_文字
  6
Continuous
 62
     7
370
     0
100
AcDbMText
 10
4279.999224688556
 20
-3887.143854850754
 30
0.0
 40
45.72
 41
240.0
 46
0.0
 71
     7
 72
     1
  1
{\fＭＳ ゴシック|b0|i0|c128|p49;ＤＡＴＥ}
 73
     1
 44
1.0
  0
MTEXT
  5
290
330
1F
100
AcDbEntity
  8
F-A_文字
  6
Continuous
 62
     7
370
     0
100
AcDbMText
 10
1180.417701903719
 20
-3946.423911599839
 30
0.0
 40
77.15249999999999
 41
405.0
 46
0.0
 71
     7
 72
     1
  1
{\fＭＳ ゴシック|b0|i0|c128|p49;建具姿図}
 73
     1
 44
1.0
  0
MTEXT
  5
291
330
1F
100
AcDbEntity
  8
F-A_文字
  6
Continuous
 62
     7
370
     0
100
AcDbMText
 10
3383.748977248734
 20
-3946.426865907308
 30
0.0
 40
77.15249999999999
 41
202.5
 46
0.0
 71
     7
 72
     1
  1
{\fＭＳ ゴシック|b0|i0|c128|p49;1/30}
 73
     1
 44
1.0
  0
MTEXT
  5
292
330
1F
100
AcDbEntity
  8
F-A_文字
  6
Continuous
 62
     7
370
     0
100
AcDbMText
 10
2779.998729808911
 20
-4087.14246317786
 30
0.0
 40
45.72
 41
240.0
 46
0.0
 71
     7
 72
     1
  1
{\fＭＳ ゴシック|b0|i0|c128|p49;ＦＩＬＥ}
 73
     1
 44
1.0
  0
MTEXT
  5
293
330
1F
100
AcDbEntity
  8
F-A_文字
  6
Continuous
 62
     7
370
     0
100
AcDbMText
 10
4279.999224688556
 20
-4087.143857410839
 30
0.0
 40
45.72
 41
180.0
 46
0.0
 71
     7
 72
     1
  1
{\fＭＳ ゴシック|b0|i0|c128|p49;ＮＯ．}
 73
     1
 44
1.0
  0
MTEXT
  5
294
330
1F
100
AcDbEntity
  8
F-A_文字
  6
Continuous
 62
     7
370
     0
100
AcDbMText
 10
1234.998729808911
 20
-4096.140669266149
 30
0.0
 40
45.72
 41
120.0
 46
0.0
 71
     7
 72
     1
  1
{\fＭＳ ゴシック|b0|i0|c128|p49;株式}
 73
     1
 44
1.0
  0
MTEXT
  5
295
330
1F
100
AcDbEntity
  8
F-A_文字
  6
Continuous
 62
     7
370
     0
100
AcDbMText
 10
1444.998729808911
 20
-4164.281754523929
 30
0.0
 40
101.44125
 41
1065.0
 46
0.0
 71
     7
 72
     1
  1
{\fＭＳ ゴシック|b0|i0|c128|p49;ウッドワン・・・}
 73
     1
 44
1.0
  0
MTEXT
  5
296
330
1F
100
AcDbEntity
  8
F-A_文字
  6
Continuous
 62
     7
370
     0
100
AcDbMText
 10
1234.998729808911
 20
-4168.140669266187
 30
0.0
 40
45.72
 41
120.0
 46
0.0
 71
     7
 72
     1
  1
{\fＭＳ ゴシック|b0|i0|c128|p49;会社}
 73
     1
 44
1.0
  0
MTEXT
  5
297
330
1F
100
AcDbEntity
  8
F-A_文字
  6
Continuous
 62
     7
370
     0
100
AcDbMText
 10
5608.403311109712
 20
-4314.841419020919
 30
0.0
 40
68.58
 41
90.0
 46
0.0
 71
     7
 72
     1
  1
{\fＭＳ ゴシック|b0|i0|c128|p49;）}
 73
     1
 44
1.0
  0
MTEXT
  5
298
330
1F
100
AcDbEntity
  8
F-A_文字
  6
Continuous
 62
     7
370
     0
100
AcDbMText
 10
5190.195950842071
 20
-4316.235443869856
 30
0.0
 40
68.58
 41
45.0
 46
0.0
 71
     7
 72
     1
  1
{\fＭＳ ゴシック|b0|i0|c128|p49;,}
 73
     1
 44
1.0
  0
MTEXT
  5
299
330
1F
100
AcDbEntity
  8
F-A_文字
  6
Continuous
 62
     7
370
     0
100
AcDbMText
 10
4923.937261915373
 20
-4314.771967288282
 30
0.0
 40
74.295
 41
97.5
 46
0.0
 71
     7
 72
     1
  1
{\fＭＳ ゴシック|b0|i0|c128|p49;$y}
 73
     1
 44
1.0
  0
MTEXT
  5
29A
330
1F
100
AcDbEntity
  8
F-A_文字
  6
Continuous
 62
     7
370
     0
100
AcDbMText
 10
5078.673982954195
 20
-4314.771967288282
 30
0.0
 40
74.295
 41
97.5
 46
0.0
 71
     7
 72
     1
  1
{\fＭＳ ゴシック|b0|i0|c128|p49;$m}
 73
     1
 44
1.0
  0
MTEXT
  5
29B
330
1F
100
AcDbEntity
  8
F-A_文字
  6
Continuous
 62
     7
370
     0
100
AcDbMText
 10
5233.410715437103
 20
-4314.771967288282
 30
0.0
 40
74.295
 41
97.5
 46
0.0
 71
     7
 72
     1
  1
{\fＭＳ ゴシック|b0|i0|c128|p49;$d}
 73
     1
 44
1.0
  0
MTEXT
  5
29C
330
1F
100
AcDbEntity
  8
F-A_文字
  6
Continuous
 62
     7
370
     0
100
AcDbMText
 10
5388.147447920011
 20
-4314.771967288282
 30
0.0
 40
74.295
 41
195.0
 46
0.0
 71
     7
 72
     1
  1
{\fＭＳ ゴシック|b0|i0|c128|p49;印刷}
 73
     1
 44
1.0
  0
MTEXT
  5
29D
330
1F
100
AcDbEntity
  8
F-A_文字
  6
Continuous
 62
     7
370
     0
100
AcDbMText
 10
4784.033374252999
 20
-4319.023493567732
 30
0.0
 40
68.58
 41
90.0
 46
0.0
 71
     7
 72
     1
  1
{\fＭＳ ゴシック|b0|i0|c128|p49;（}
 73
     1
 44
1.0
  0
MTEXT
  5
29E
330
1F
100
AcDbEntity
  8
F-A_文字
  6
Continuous
 62
     7
370
     0
100
AcDbMText
 10
5031.277143812345
 20
-4319.023493567732
 30
0.0
 40
68.58
 41
45.0
 46
0.0
 71
     7
 72
     1
  1
{\fＭＳ ゴシック|b0|i0|c128|p49;,}
 73
     1
 44
1.0
  0
MTEXT
  5
29F
330
1F
100
AcDbEntity
  8
F-A_文字
  6
Continuous
 62
     7
370
     9
100
AcDbMText
 10
4936.249033580831
 20
-4147.857012699985
 30
0.0
 40
74.295
 41
97.5
 46
0.0
 71
     7
 72
     1
  1
{\fＭＳ ゴシック|b0|i0|c128|p49;01}
 73
     1
 44
1.0
  0
LINE
  5
2A0
330
1F
100
AcDbEntity
  8
F-A_文字
  6
Continuous
 62
     7
370
     9
100
AcDbLine
 10
1204.800085119299
 20
184.5000148463899
 30
0.0
 11
-1026.799671069995
 21
-3790.000017526987
 31
0.0
  0
LINE
  5
2A1
330
1F
100
AcDbEntity
  8
F-A_文字
  6
Continuous
 62
     7
370
     9
100
AcDbLine
 10
3436.399841308594
 20
184.5000148463899
 30
0.0
 11
1204.800085119299
 21
-3790.000017526987
 31
0.0
  0
LINE
  5
2A2
330
1F
100
AcDbEntity
  8
F-A_文字
  6
Continuous
 62
     7
370
     9
100
AcDbLine
 10
5689.998977248734
 20
184.5000148463899
 30
0.0
 11
3436.400212468328
 21
-3790.000017526987
 31
0.0
  0
LINE
  5
2A3
330
1F
100
AcDbEntity
  8
0-3_仕上げ
  6
Continuous
 62
     7
370
     9
100
AcDbLine
 10
-1832.799671069995
 20
1237.000148463894
 30
0.0
 11
-1832.799671069995
 21
2372.000148463894
 31
0.0
  0
LINE
  5
2A4
330
1F
100
AcDbEntity
  8
0-3_仕上げ
  6
Continuous
 62
     7
370
     9
100
AcDbLine
 10
-1831.799671069995
 20
2372.000148463894
 30
0.0
 11
-1831.799671069995
 21
1237.000148463894
 31
0.0
  0
LINE
  5
2A5
330
1F
100
AcDbEntity
  8
0-3_仕上げ
  6
Continuous
 62
     7
370
     9
100
AcDbLine
 10
-2028.799671069994
 20
1237.000148463894
 30
0.0
 11
-2028.799671069994
 21
2372.000148463894
 31
0.0
  0
LINE
  5
2A6
330
1F
100
AcDbEntity
  8
0-3_仕上げ
  6
Continuous
 62
     7
370
     9
100
AcDbLine
 10
-2029.799671069995
 20
2372.000148463894
 30
0.0
 11
-2029.799671069995
 21
1237.000148463894
 31
0.0
  0
LINE
  5
2A7
330
1F
100
AcDbEntity
  8
0-3_仕上げ
  6
Continuous
 62
     7
370
     9
100
AcDbLine
 10
-1766.799671069996
 20
2372.000148463894
 30
0.0
 11
-1766.799671069996
 21
1237.000148463894
 31
0.0
  0
LINE
  5
2A8
330
1F
100
AcDbEntity
  8
0-3_仕上げ
  6
Continuous
 62
     7
370
     9
100
AcDbLine
 10
-1832.799671069995
 20
2289.000148463894
 30
0.0
 11
-2028.799671069994
 21
2289.000148463894
 31
0.0
  0
LINE
  5
2A9
330
1F
100
AcDbEntity
  8
0-3_仕上げ
  6
Continuous
 62
     7
370
     9
100
AcDbLine
 10
-2094.799671069994
 20
2372.000148463894
 30
0.0
 11
-2094.799671069994
 21
1237.000148463894
 31
0.0
  0
LINE
  5
2AA
330
1F
100
AcDbEntity
  8
0-3_仕上げ
  6
Continuous
 62
     7
370
     9
100
AcDbLine
 10
-2028.799671069994
 20
2292.000148463893
 30
0.0
 11
-1832.799671069995
 21
2292.000148463893
 31
0.0
  0
LINE
  5
2AB
330
1F
100
AcDbEntity
  8
0-3_仕上げ
  6
Continuous
 62
     7
370
     9
100
AcDbLine
 10
202.8000851192999
 20
1237.000148463893
 30
0.0
 11
202.8000851192999
 21
2970.000148463894
 31
0.0
  0
LINE
  5
2AC
330
1F
100
AcDbEntity
  8
0-3_仕上げ
  6
Continuous
 62
     7
370
     9
100
AcDbLine
 10
201.8000851192991
 20
2970.000148463894
 30
0.0
 11
201.8000851192991
 21
1237.000148463893
 31
0.0
  0
LINE
  5
2AD
330
1F
100
AcDbEntity
  8
0-3_仕上げ
  6
Continuous
 62
     7
370
     9
100
AcDbLine
 10
136.8000851193003
 20
1237.000148463893
 30
0.0
 11
136.8000851193003
 21
2970.000148463894
 31
0.0
  0
LINE
  5
2AE
330
1F
100
AcDbEntity
  8
0-3_仕上げ
  6
Continuous
 62
     7
370
     9
100
AcDbLine
 10
398.800085119299
 20
1320.000148463894
 30
0.0
 11
202.8000851192999
 21
1320.000148463894
 31
0.0
  0
LINE
  5
2AF
330
1F
100
AcDbEntity
  8
0-3_仕上げ
  6
Continuous
 62
     7
370
     9
100
AcDbLine
 10
202.8000851192999
 20
2187.000148463893
 30
0.0
 11
398.800085119299
 21
2187.000148463893
 31
0.0
  0
LINE
  5
2B0
330
1F
100
AcDbEntity
  8
0-3_仕上げ
  6
Continuous
 62
     7
370
     9
100
AcDbLine
 10
202.8000851192999
 20
2137.587145251196
 30
0.0
 11
398.800085119299
 21
2137.587145251196
 31
0.0
  0
LINE
  5
2B1
330
1F
100
AcDbEntity
  8
0-3_仕上げ
  6
JWW_DASHED1
 62
     7
370
     9
100
AcDbLine
 10
398.800085119299
 20
2127.000148463893
 30
0.0
 11
202.8000851192999
 21
2127.000148463893
 31
0.0
  0
LINE
  5
2B2
330
1F
100
AcDbEntity
  8
0-3_仕上げ
  6
Continuous
 62
     7
370
     9
100
AcDbLine
 10
398.800085119299
 20
1237.000148463893
 30
0.0
 11
398.800085119299
 21
2970.000148463894
 31
0.0
  0
LINE
  5
2B3
330
1F
100
AcDbEntity
  8
0-3_仕上げ
  6
Continuous
 62
     7
370
     9
100
AcDbLine
 10
398.800085119299
 20
2887.000148463892
 30
0.0
 11
202.8000851192999
 21
2887.000148463892
 31
0.0
  0
LINE
  5
2B4
330
1F
100
AcDbEntity
  8
0-3_仕上げ
  6
Continuous
 62
     7
370
     9
100
AcDbLine
 10
202.8000851192999
 20
2890.000148463893
 30
0.0
 11
398.800085119299
 21
2890.000148463893
 31
0.0
  0
LINE
  5
2B5
330
1F
100
AcDbEntity
  8
0-3_仕上げ
  6
Continuous
 62
     7
370
     9
100
AcDbLine
 10
464.8000851192987
 20
2970.000148463894
 30
0.0
 11
464.8000851192987
 21
1237.000148463893
 31
0.0
  0
LINE
  5
2B6
330
1F
100
AcDbEntity
  8
0-3_仕上げ
  6
Continuous
 62
     7
370
     9
100
AcDbLine
 10
399.8000851192998
 20
2970.000148463894
 30
0.0
 11
399.8000851192998
 21
1237.000148463893
 31
0.0
  0
LINE
  5
2B7
330
1F
100
AcDbEntity
  8
0-3_仕上げ
  6
Continuous
 62
     7
370
     9
100
AcDbLine
 10
398.800085119299
 20
2197.000148463892
 30
0.0
 11
202.8000851192999
 21
2197.000148463892
 31
0.0
  0
LINE
  5
2B8
330
1F
100
AcDbEntity
  8
0-C_ハッチ
  6
Continuous
 62
     7
370
     9
100
AcDbLine
 10
202.8000851192999
 20
1321.965066531323
 30
0.0
 11
398.800085119299
 21
1321.965066531323
 31
0.0
  0
LINE
  5
2B9
330
1F
100
AcDbEntity
  8
0-C_ハッチ
  6
Continuous
 62
     7
370
     9
100
AcDbLine
 10
202.8000851192999
 20
2092.465066531318
 30
0.0
 11
398.800085119299
 21
2092.465066531318
 31
0.0
  0
LINE
  5
2BA
330
1F
100
AcDbEntity
  8
0-C_ハッチ
  6
Continuous
 62
     7
370
     9
100
AcDbLine
 10
202.8000851192999
 20
2058.965066531318
 30
0.0
 11
398.800085119299
 21
2058.965066531318
 31
0.0
  0
LINE
  5
2BB
330
1F
100
AcDbEntity
  8
0-C_ハッチ
  6
Continuous
 62
     7
370
     9
100
AcDbLine
 10
202.8000851192999
 20
2025.465066531318
 30
0.0
 11
398.800085119299
 21
2025.465066531318
 31
0.0
  0
LINE
  5
2BC
330
1F
100
AcDbEntity
  8
0-C_ハッチ
  6
Continuous
 62
     7
370
     9
100
AcDbLine
 10
202.8000851192999
 20
1991.965066531319
 30
0.0
 11
398.800085119299
 21
1991.965066531319
 31
0.0
  0
LINE
  5
2BD
330
1F
100
AcDbEntity
  8
0-C_ハッチ
  6
Continuous
 62
     7
370
     9
100
AcDbLine
 10
202.8000851192999
 20
1958.465066531319
 30
0.0
 11
398.800085119299
 21
1958.465066531319
 31
0.0
  0
LINE
  5
2BE
330
1F
100
AcDbEntity
  8
0-C_ハッチ
  6
Continuous
 62
     7
370
     9
100
AcDbLine
 10
202.8000851192999
 20
1924.965066531319
 30
0.0
 11
398.800085119299
 21
1924.965066531319
 31
0.0
  0
LINE
  5
2BF
330
1F
100
AcDbEntity
  8
0-C_ハッチ
  6
Continuous
 62
     7
370
     9
100
AcDbLine
 10
202.8000851192999
 20
1891.465066531319
 30
0.0
 11
398.800085119299
 21
1891.465066531319
 31
0.0
  0
LINE
  5
2C0
330
1F
100
AcDbEntity
  8
0-C_ハッチ
  6
Continuous
 62
     7
370
     9
100
AcDbLine
 10
202.8000851192999
 20
1857.96506653132
 30
0.0
 11
398.800085119299
 21
1857.96506653132
 31
0.0
  0
LINE
  5
2C1
330
1F
100
AcDbEntity
  8
0-C_ハッチ
  6
Continuous
 62
     7
370
     9
100
AcDbLine
 10
202.8000851192999
 20
1824.46506653132
 30
0.0
 11
398.800085119299
 21
1824.46506653132
 31
0.0
  0
LINE
  5
2C2
330
1F
100
AcDbEntity
  8
0-C_ハッチ
  6
Continuous
 62
     7
370
     9
100
AcDbLine
 10
202.8000851192999
 20
1790.96506653132
 30
0.0
 11
398.800085119299
 21
1790.96506653132
 31
0.0
  0
LINE
  5
2C3
330
1F
100
AcDbEntity
  8
0-C_ハッチ
  6
Continuous
 62
     7
370
     9
100
AcDbLine
 10
202.8000851192999
 20
1757.46506653132
 30
0.0
 11
398.800085119299
 21
1757.46506653132
 31
0.0
  0
LINE
  5
2C4
330
1F
100
AcDbEntity
  8
0-C_ハッチ
  6
Continuous
 62
     7
370
     9
100
AcDbLine
 10
202.8000851192999
 20
1723.96506653132
 30
0.0
 11
398.800085119299
 21
1723.96506653132
 31
0.0
  0
LINE
  5
2C5
330
1F
100
AcDbEntity
  8
0-C_ハッチ
  6
Continuous
 62
     7
370
     9
100
AcDbLine
 10
202.8000851192999
 20
1690.465066531321
 30
0.0
 11
398.800085119299
 21
1690.465066531321
 31
0.0
  0
LINE
  5
2C6
330
1F
100
AcDbEntity
  8
0-C_ハッチ
  6
Continuous
 62
     7
370
     9
100
AcDbLine
 10
202.8000851192999
 20
1656.965066531321
 30
0.0
 11
398.800085119299
 21
1656.965066531321
 31
0.0
  0
LINE
  5
2C7
330
1F
100
AcDbEntity
  8
0-C_ハッチ
  6
Continuous
 62
     7
370
     9
100
AcDbLine
 10
202.8000851192999
 20
1623.465066531321
 30
0.0
 11
398.800085119299
 21
1623.465066531321
 31
0.0
  0
LINE
  5
2C8
330
1F
100
AcDbEntity
  8
0-C_ハッチ
  6
Continuous
 62
     7
370
     9
100
AcDbLine
 10
202.8000851192999
 20
1589.965066531321
 30
0.0
 11
398.800085119299
 21
1589.965066531321
 31
0.0
  0
LINE
  5
2C9
330
1F
100
AcDbEntity
  8
0-C_ハッチ
  6
Continuous
 62
     7
370
     9
100
AcDbLine
 10
202.8000851192999
 20
1556.465066531322
 30
0.0
 11
398.800085119299
 21
1556.465066531322
 31
0.0
  0
LINE
  5
2CA
330
1F
100
AcDbEntity
  8
0-C_ハッチ
  6
Continuous
 62
     7
370
     9
100
AcDbLine
 10
202.8000851192999
 20
1522.965066531322
 30
0.0
 11
398.800085119299
 21
1522.965066531322
 31
0.0
  0
LINE
  5
2CB
330
1F
100
AcDbEntity
  8
0-C_ハッチ
  6
Continuous
 62
     7
370
     9
100
AcDbLine
 10
202.8000851192999
 20
1489.465066531321
 30
0.0
 11
398.800085119299
 21
1489.465066531321
 31
0.0
  0
LINE
  5
2CC
330
1F
100
AcDbEntity
  8
0-C_ハッチ
  6
Continuous
 62
     7
370
     9
100
AcDbLine
 10
202.8000851192999
 20
1455.965066531322
 30
0.0
 11
398.800085119299
 21
1455.965066531322
 31
0.0
  0
LINE
  5
2CD
330
1F
100
AcDbEntity
  8
0-C_ハッチ
  6
Continuous
 62
     7
370
     9
100
AcDbLine
 10
202.8000851192999
 20
1422.465066531322
 30
0.0
 11
398.800085119299
 21
1422.465066531322
 31
0.0
  0
LINE
  5
2CE
330
1F
100
AcDbEntity
  8
0-C_ハッチ
  6
Continuous
 62
     7
370
     9
100
AcDbLine
 10
202.8000851192999
 20
1388.965066531322
 30
0.0
 11
398.800085119299
 21
1388.965066531322
 31
0.0
  0
LINE
  5
2CF
330
1F
100
AcDbEntity
  8
0-C_ハッチ
  6
Continuous
 62
     7
370
     9
100
AcDbLine
 10
202.8000851192999
 20
1355.465066531322
 30
0.0
 11
398.800085119299
 21
1355.465066531322
 31
0.0
  0
LINE
  5
2D0
330
1F
100
AcDbEntity
  8
0-C_ハッチ
  6
Continuous
 62
     7
370
     9
100
AcDbLine
 10
202.8000851192999
 20
2128.535230396467
 30
0.0
 11
398.800085119299
 21
2128.535230396467
 31
0.0
  0
LINE
  5
2D1
330
1F
100
AcDbEntity
  8
0-C_ハッチ
  6
Continuous
 62
     7
370
     9
100
AcDbLine
 10
202.8000851192999
 20
2879.447923573558
 30
0.0
 11
398.800085119299
 21
2879.447923573558
 31
0.0
  0
LINE
  5
2D2
330
1F
100
AcDbEntity
  8
0-C_ハッチ
  6
Continuous
 62
     7
370
     9
100
AcDbLine
 10
202.8000851192999
 20
2809.87775970841
 30
0.0
 11
398.800085119299
 21
2809.87775970841
 31
0.0
  0
LINE
  5
2D3
330
1F
100
AcDbEntity
  8
0-C_ハッチ
  6
Continuous
 62
     7
370
     9
100
AcDbLine
 10
202.8000851192999
 20
2843.37775970841
 30
0.0
 11
398.800085119299
 21
2843.37775970841
 31
0.0
  0
LINE
  5
2D4
330
1F
100
AcDbEntity
  8
0-C_ハッチ
  6
Continuous
 62
     7
370
     9
100
AcDbLine
 10
202.8000851192999
 20
2776.37775970841
 30
0.0
 11
398.800085119299
 21
2776.37775970841
 31
0.0
  0
LINE
  5
2D5
330
1F
100
AcDbEntity
  8
0-C_ハッチ
  6
Continuous
 62
     7
370
     9
100
AcDbLine
 10
202.8000851192999
 20
2742.877759708409
 30
0.0
 11
398.800085119299
 21
2742.877759708409
 31
0.0
  0
LINE
  5
2D6
330
1F
100
AcDbEntity
  8
0-C_ハッチ
  6
Continuous
 62
     7
370
     9
100
AcDbLine
 10
202.8000851192999
 20
2709.377759708409
 30
0.0
 11
398.800085119299
 21
2709.377759708409
 31
0.0
  0
LINE
  5
2D7
330
1F
100
AcDbEntity
  8
0-C_ハッチ
  6
Continuous
 62
     7
370
     9
100
AcDbLine
 10
202.8000851192999
 20
2675.877759708409
 30
0.0
 11
398.800085119299
 21
2675.877759708409
 31
0.0
  0
LINE
  5
2D8
330
1F
100
AcDbEntity
  8
0-C_ハッチ
  6
Continuous
 62
     7
370
     9
100
AcDbLine
 10
202.8000851192999
 20
2642.377759708409
 30
0.0
 11
398.800085119299
 21
2642.377759708409
 31
0.0
  0
LINE
  5
2D9
330
1F
100
AcDbEntity
  8
0-C_ハッチ
  6
Continuous
 62
     7
370
     9
100
AcDbLine
 10
202.8000851192999
 20
2608.877759708409
 30
0.0
 11
398.800085119299
 21
2608.877759708409
 31
0.0
  0
LINE
  5
2DA
330
1F
100
AcDbEntity
  8
0-C_ハッチ
  6
Continuous
 62
     7
370
     9
100
AcDbLine
 10
202.8000851192999
 20
2575.377759708409
 30
0.0
 11
398.800085119299
 21
2575.377759708409
 31
0.0
  0
LINE
  5
2DB
330
1F
100
AcDbEntity
  8
0-C_ハッチ
  6
Continuous
 62
     7
370
     9
100
AcDbLine
 10
202.8000851192999
 20
2541.87775970841
 30
0.0
 11
398.800085119299
 21
2541.87775970841
 31
0.0
  0
LINE
  5
2DC
330
1F
100
AcDbEntity
  8
0-C_ハッチ
  6
Continuous
 62
     7
370
     9
100
AcDbLine
 10
202.8000851192999
 20
2508.377759708409
 30
0.0
 11
398.800085119299
 21
2508.377759708409
 31
0.0
  0
LINE
  5
2DD
330
1F
100
AcDbEntity
  8
0-C_ハッチ
  6
Continuous
 62
     7
370
     9
100
AcDbLine
 10
202.8000851192999
 20
2474.877759708409
 30
0.0
 11
398.800085119299
 21
2474.877759708409
 31
0.0
  0
LINE
  5
2DE
330
1F
100
AcDbEntity
  8
0-C_ハッチ
  6
Continuous
 62
     7
370
     9
100
AcDbLine
 10
202.8000851192999
 20
2441.377759708409
 30
0.0
 11
398.800085119299
 21
2441.377759708409
 31
0.0
  0
LINE
  5
2DF
330
1F
100
AcDbEntity
  8
0-C_ハッチ
  6
Continuous
 62
     7
370
     9
100
AcDbLine
 10
202.8000851192999
 20
2407.877759708409
 30
0.0
 11
398.800085119299
 21
2407.877759708409
 31
0.0
  0
LINE
  5
2E0
330
1F
100
AcDbEntity
  8
0-C_ハッチ
  6
Continuous
 62
     7
370
     9
100
AcDbLine
 10
202.8000851192999
 20
2374.377759708409
 30
0.0
 11
398.800085119299
 21
2374.377759708409
 31
0.0
  0
LINE
  5
2E1
330
1F
100
AcDbEntity
  8
0-C_ハッチ
  6
Continuous
 62
     7
370
     9
100
AcDbLine
 10
202.8000851192999
 20
2340.87775970841
 30
0.0
 11
398.800085119299
 21
2340.87775970841
 31
0.0
  0
LINE
  5
2E2
330
1F
100
AcDbEntity
  8
0-C_ハッチ
  6
Continuous
 62
     7
370
     9
100
AcDbLine
 10
202.8000851192999
 20
2307.37775970841
 30
0.0
 11
398.800085119299
 21
2307.37775970841
 31
0.0
  0
LINE
  5
2E3
330
1F
100
AcDbEntity
  8
0-C_ハッチ
  6
Continuous
 62
     7
370
     9
100
AcDbLine
 10
202.8000851192999
 20
2273.87775970841
 30
0.0
 11
398.800085119299
 21
2273.87775970841
 31
0.0
  0
LINE
  5
2E4
330
1F
100
AcDbEntity
  8
0-C_ハッチ
  6
Continuous
 62
     7
370
     9
100
AcDbLine
 10
202.8000851192999
 20
2240.377759708409
 30
0.0
 11
398.800085119299
 21
2240.377759708409
 31
0.0
  0
LINE
  5
2E5
330
1F
100
AcDbEntity
  8
0-C_ハッチ
  6
Continuous
 62
     7
370
     9
100
AcDbLine
 10
202.8000851192999
 20
2206.877759708409
 30
0.0
 11
398.800085119299
 21
2206.877759708409
 31
0.0
  0
LINE
  5
2E6
330
1F
100
AcDbEntity
  8
0-3_仕上げ
  6
Continuous
 62
     7
370
     9
100
AcDbLine
 10
-133.1999148807006
 20
1237.000148463893
 30
0.0
 11
-133.1999148807006
 21
2970.000148463894
 31
0.0
  0
LINE
  5
2E7
330
1F
100
AcDbEntity
  8
0-3_仕上げ
  6
Continuous
 62
     7
370
     9
100
AcDbLine
 10
-134.1999148807014
 20
2970.000148463894
 30
0.0
 11
-134.1999148807014
 21
1237.000148463893
 31
0.0
  0
LINE
  5
2E8
330
1F
100
AcDbEntity
  8
0-3_仕上げ
  6
Continuous
 62
     7
370
     9
100
AcDbLine
 10
-199.1999148807002
 20
1237.000148463893
 30
0.0
 11
-199.1999148807002
 21
2970.000148463894
 31
0.0
  0
LINE
  5
2E9
330
1F
100
AcDbEntity
  8
0-3_仕上げ
  6
Continuous
 62
     7
370
     9
100
AcDbLine
 10
62.8000851192985
 20
1320.000148463894
 30
0.0
 11
-133.1999148807006
 21
1320.000148463894
 31
0.0
  0
LINE
  5
2EA
330
1F
100
AcDbEntity
  8
0-3_仕上げ
  6
Continuous
 62
     7
370
     9
100
AcDbLine
 10
-133.1999148807006
 20
2187.000148463893
 30
0.0
 11
62.8000851192985
 21
2187.000148463893
 31
0.0
  0
LINE
  5
2EB
330
1F
100
AcDbEntity
  8
0-3_仕上げ
  6
Continuous
 62
     7
370
     9
100
AcDbLine
 10
-133.1999148807006
 20
2137.587145251196
 30
0.0
 11
62.8000851192985
 21
2137.587145251196
 31
0.0
  0
LINE
  5
2EC
330
1F
100
AcDbEntity
  8
0-3_仕上げ
  6
JWW_DASHED1
 62
     7
370
     9
100
AcDbLine
 10
62.8000851192985
 20
2127.000148463893
 30
0.0
 11
-133.1999148807006
 21
2127.000148463893
 31
0.0
  0
LINE
  5
2ED
330
1F
100
AcDbEntity
  8
0-3_仕上げ
  6
Continuous
 62
     7
370
     9
100
AcDbLine
 10
62.8000851192985
 20
1237.000148463893
 30
0.0
 11
62.8000851192985
 21
2970.000148463894
 31
0.0
  0
LINE
  5
2EE
330
1F
100
AcDbEntity
  8
0-3_仕上げ
  6
Continuous
 62
     7
370
     9
100
AcDbLine
 10
62.8000851192985
 20
2887.000148463892
 30
0.0
 11
-133.1999148807006
 21
2887.000148463892
 31
0.0
  0
LINE
  5
2EF
330
1F
100
AcDbEntity
  8
0-3_仕上げ
  6
Continuous
 62
     7
370
     9
100
AcDbLine
 10
-133.1999148807006
 20
2890.000148463893
 30
0.0
 11
62.8000851192985
 21
2890.000148463893
 31
0.0
  0
LINE
  5
2F0
330
1F
100
AcDbEntity
  8
0-3_仕上げ
  6
Continuous
 62
     7
370
     9
100
AcDbLine
 10
128.8000851192982
 20
2970.000148463894
 30
0.0
 11
128.8000851192982
 21
1237.000148463893
 31
0.0
  0
LINE
  5
2F1
330
1F
100
AcDbEntity
  8
0-3_仕上げ
  6
Continuous
 62
     7
370
     9
100
AcDbLine
 10
63.8000851192993
 20
2970.000148463894
 30
0.0
 11
63.8000851192993
 21
1237.000148463893
 31
0.0
  0
LINE
  5
2F2
330
1F
100
AcDbEntity
  8
0-3_仕上げ
  6
Continuous
 62
     7
370
     9
100
AcDbLine
 10
62.8000851192985
 20
2197.000148463892
 30
0.0
 11
-133.1999148807006
 21
2197.000148463892
 31
0.0
  0
LINE
  5
2F3
330
1F
100
AcDbEntity
  8
0-C_ハッチ
  6
Continuous
 62
     7
370
     9
100
AcDbLine
 10
-133.1999148807006
 20
1321.965066531323
 30
0.0
 11
62.8000851192985
 21
1321.965066531323
 31
0.0
  0
LINE
  5
2F4
330
1F
100
AcDbEntity
  8
0-C_ハッチ
  6
Continuous
 62
     7
370
     9
100
AcDbLine
 10
-133.1999148807006
 20
2092.465066531318
 30
0.0
 11
62.8000851192985
 21
2092.465066531318
 31
0.0
  0
LINE
  5
2F5
330
1F
100
AcDbEntity
  8
0-C_ハッチ
  6
Continuous
 62
     7
370
     9
100
AcDbLine
 10
-133.1999148807006
 20
2058.965066531318
 30
0.0
 11
62.8000851192985
 21
2058.965066531318
 31
0.0
  0
LINE
  5
2F6
330
1F
100
AcDbEntity
  8
0-C_ハッチ
  6
Continuous
 62
     7
370
     9
100
AcDbLine
 10
-133.1999148807006
 20
2025.465066531318
 30
0.0
 11
62.8000851192985
 21
2025.465066531318
 31
0.0
  0
LINE
  5
2F7
330
1F
100
AcDbEntity
  8
0-C_ハッチ
  6
Continuous
 62
     7
370
     9
100
AcDbLine
 10
-133.1999148807006
 20
1991.965066531319
 30
0.0
 11
62.8000851192985
 21
1991.965066531319
 31
0.0
  0
LINE
  5
2F8
330
1F
100
AcDbEntity
  8
0-C_ハッチ
  6
Continuous
 62
     7
370
     9
100
AcDbLine
 10
-133.1999148807006
 20
1958.465066531319
 30
0.0
 11
62.8000851192985
 21
1958.465066531319
 31
0.0
  0
LINE
  5
2F9
330
1F
100
AcDbEntity
  8
0-C_ハッチ
  6
Continuous
 62
     7
370
     9
100
AcDbLine
 10
-133.1999148807006
 20
1924.965066531319
 30
0.0
 11
62.8000851192985
 21
1924.965066531319
 31
0.0
  0
LINE
  5
2FA
330
1F
100
AcDbEntity
  8
0-C_ハッチ
  6
Continuous
 62
     7
370
     9
100
AcDbLine
 10
-133.1999148807006
 20
1891.465066531319
 30
0.0
 11
62.8000851192985
 21
1891.465066531319
 31
0.0
  0
LINE
  5
2FB
330
1F
100
AcDbEntity
  8
0-C_ハッチ
  6
Continuous
 62
     7
370
     9
100
AcDbLine
 10
-133.1999148807006
 20
1857.96506653132
 30
0.0
 11
62.8000851192985
 21
1857.96506653132
 31
0.0
  0
LINE
  5
2FC
330
1F
100
AcDbEntity
  8
0-C_ハッチ
  6
Continuous
 62
     7
370
     9
100
AcDbLine
 10
-133.1999148807006
 20
1824.46506653132
 30
0.0
 11
62.8000851192985
 21
1824.46506653132
 31
0.0
  0
LINE
  5
2FD
330
1F
100
AcDbEntity
  8
0-C_ハッチ
  6
Continuous
 62
     7
370
     9
100
AcDbLine
 10
-133.1999148807006
 20
1790.96506653132
 30
0.0
 11
62.8000851192985
 21
1790.96506653132
 31
0.0
  0
LINE
  5
2FE
330
1F
100
AcDbEntity
  8
0-C_ハッチ
  6
Continuous
 62
     7
370
     9
100
AcDbLine
 10
-133.1999148807006
 20
1757.46506653132
 30
0.0
 11
62.8000851192985
 21
1757.46506653132
 31
0.0
  0
LINE
  5
2FF
330
1F
100
AcDbEntity
  8
0-C_ハッチ
  6
Continuous
 62
     7
370
     9
100
AcDbLine
 10
-133.1999148807006
 20
1723.96506653132
 30
0.0
 11
62.8000851192985
 21
1723.96506653132
 31
0.0
  0
LINE
  5
300
330
1F
100
AcDbEntity
  8
0-C_ハッチ
  6
Continuous
 62
     7
370
     9
100
AcDbLine
 10
-133.1999148807006
 20
1690.465066531321
 30
0.0
 11
62.8000851192985
 21
1690.465066531321
 31
0.0
  0
LINE
  5
301
330
1F
100
AcDbEntity
  8
0-C_ハッチ
  6
Continuous
 62
     7
370
     9
100
AcDbLine
 10
-133.1999148807006
 20
1656.965066531321
 30
0.0
 11
62.8000851192985
 21
1656.965066531321
 31
0.0
  0
LINE
  5
302
330
1F
100
AcDbEntity
  8
0-C_ハッチ
  6
Continuous
 62
     7
370
     9
100
AcDbLine
 10
-133.1999148807006
 20
1623.465066531321
 30
0.0
 11
62.8000851192985
 21
1623.465066531321
 31
0.0
  0
LINE
  5
303
330
1F
100
AcDbEntity
  8
0-C_ハッチ
  6
Continuous
 62
     7
370
     9
100
AcDbLine
 10
-133.1999148807006
 20
1589.965066531321
 30
0.0
 11
62.8000851192985
 21
1589.965066531321
 31
0.0
  0
LINE
  5
304
330
1F
100
AcDbEntity
  8
0-C_ハッチ
  6
Continuous
 62
     7
370
     9
100
AcDbLine
 10
-133.1999148807006
 20
1556.465066531322
 30
0.0
 11
62.8000851192985
 21
1556.465066531322
 31
0.0
  0
LINE
  5
305
330
1F
100
AcDbEntity
  8
0-C_ハッチ
  6
Continuous
 62
     7
370
     9
100
AcDbLine
 10
-133.1999148807006
 20
1522.965066531322
 30
0.0
 11
62.8000851192985
 21
1522.965066531322
 31
0.0
  0
LINE
  5
306
330
1F
100
AcDbEntity
  8
0-C_ハッチ
  6
Continuous
 62
     7
370
     9
100
AcDbLine
 10
-133.1999148807006
 20
1489.465066531321
 30
0.0
 11
62.8000851192985
 21
1489.465066531321
 31
0.0
  0
LINE
  5
307
330
1F
100
AcDbEntity
  8
0-C_ハッチ
  6
Continuous
 62
     7
370
     9
100
AcDbLine
 10
-133.1999148807006
 20
1455.965066531322
 30
0.0
 11
62.8000851192985
 21
1455.965066531322
 31
0.0
  0
LINE
  5
308
330
1F
100
AcDbEntity
  8
0-C_ハッチ
  6
Continuous
 62
     7
370
     9
100
AcDbLine
 10
-133.1999148807006
 20
1422.465066531322
 30
0.0
 11
62.8000851192985
 21
1422.465066531322
 31
0.0
  0
LINE
  5
309
330
1F
100
AcDbEntity
  8
0-C_ハッチ
  6
Continuous
 62
     7
370
     9
100
AcDbLine
 10
-133.1999148807006
 20
1388.965066531322
 30
0.0
 11
62.8000851192985
 21
1388.965066531322
 31
0.0
  0
LINE
  5
30A
330
1F
100
AcDbEntity
  8
0-C_ハッチ
  6
Continuous
 62
     7
370
     9
100
AcDbLine
 10
-133.1999148807006
 20
1355.465066531322
 30
0.0
 11
62.8000851192985
 21
1355.465066531322
 31
0.0
  0
LINE
  5
30B
330
1F
100
AcDbEntity
  8
0-C_ハッチ
  6
Continuous
 62
     7
370
     9
100
AcDbLine
 10
-133.1999148807006
 20
2128.535230396467
 30
0.0
 11
62.8000851192985
 21
2128.535230396467
 31
0.0
  0
LINE
  5
30C
330
1F
100
AcDbEntity
  8
0-C_ハッチ
  6
Continuous
 62
     7
370
     9
100
AcDbLine
 10
-133.1999148807006
 20
2879.447923573558
 30
0.0
 11
62.8000851192985
 21
2879.447923573558
 31
0.0
  0
LINE
  5
30D
330
1F
100
AcDbEntity
  8
0-C_ハッチ
  6
Continuous
 62
     7
370
     9
100
AcDbLine
 10
-133.1999148807006
 20
2809.87775970841
 30
0.0
 11
62.8000851192985
 21
2809.87775970841
 31
0.0
  0
LINE
  5
30E
330
1F
100
AcDbEntity
  8
0-C_ハッチ
  6
Continuous
 62
     7
370
     9
100
AcDbLine
 10
-133.1999148807006
 20
2843.37775970841
 30
0.0
 11
62.8000851192985
 21
2843.37775970841
 31
0.0
  0
LINE
  5
30F
330
1F
100
AcDbEntity
  8
0-C_ハッチ
  6
Continuous
 62
     7
370
     9
100
AcDbLine
 10
-133.1999148807006
 20
2776.37775970841
 30
0.0
 11
62.8000851192985
 21
2776.37775970841
 31
0.0
  0
LINE
  5
310
330
1F
100
AcDbEntity
  8
0-C_ハッチ
  6
Continuous
 62
     7
370
     9
100
AcDbLine
 10
-133.1999148807006
 20
2742.877759708409
 30
0.0
 11
62.8000851192985
 21
2742.877759708409
 31
0.0
  0
LINE
  5
311
330
1F
100
AcDbEntity
  8
0-C_ハッチ
  6
Continuous
 62
     7
370
     9
100
AcDbLine
 10
-133.1999148807006
 20
2709.377759708409
 30
0.0
 11
62.8000851192985
 21
2709.377759708409
 31
0.0
  0
LINE
  5
312
330
1F
100
AcDbEntity
  8
0-C_ハッチ
  6
Continuous
 62
     7
370
     9
100
AcDbLine
 10
-133.1999148807006
 20
2675.877759708409
 30
0.0
 11
62.8000851192985
 21
2675.877759708409
 31
0.0
  0
LINE
  5
313
330
1F
100
AcDbEntity
  8
0-C_ハッチ
  6
Continuous
 62
     7
370
     9
100
AcDbLine
 10
-133.1999148807006
 20
2642.377759708409
 30
0.0
 11
62.8000851192985
 21
2642.377759708409
 31
0.0
  0
LINE
  5
314
330
1F
100
AcDbEntity
  8
0-C_ハッチ
  6
Continuous
 62
     7
370
     9
100
AcDbLine
 10
-133.1999148807006
 20
2608.877759708409
 30
0.0
 11
62.8000851192985
 21
2608.877759708409
 31
0.0
  0
LINE
  5
315
330
1F
100
AcDbEntity
  8
0-C_ハッチ
  6
Continuous
 62
     7
370
     9
100
AcDbLine
 10
-133.1999148807006
 20
2575.377759708409
 30
0.0
 11
62.8000851192985
 21
2575.377759708409
 31
0.0
  0
LINE
  5
316
330
1F
100
AcDbEntity
  8
0-C_ハッチ
  6
Continuous
 62
     7
370
     9
100
AcDbLine
 10
-133.1999148807006
 20
2541.87775970841
 30
0.0
 11
62.8000851192985
 21
2541.87775970841
 31
0.0
  0
LINE
  5
317
330
1F
100
AcDbEntity
  8
0-C_ハッチ
  6
Continuous
 62
     7
370
     9
100
AcDbLine
 10
-133.1999148807006
 20
2508.377759708409
 30
0.0
 11
62.8000851192985
 21
2508.377759708409
 31
0.0
  0
LINE
  5
318
330
1F
100
AcDbEntity
  8
0-C_ハッチ
  6
Continuous
 62
     7
370
     9
100
AcDbLine
 10
-133.1999148807006
 20
2474.877759708409
 30
0.0
 11
62.8000851192985
 21
2474.877759708409
 31
0.0
  0
LINE
  5
319
330
1F
100
AcDbEntity
  8
0-C_ハッチ
  6
Continuous
 62
     7
370
     9
100
AcDbLine
 10
-133.1999148807006
 20
2441.377759708409
 30
0.0
 11
62.8000851192985
 21
2441.377759708409
 31
0.0
  0
LINE
  5
31A
330
1F
100
AcDbEntity
  8
0-C_ハッチ
  6
Continuous
 62
     7
370
     9
100
AcDbLine
 10
-133.1999148807006
 20
2407.877759708409
 30
0.0
 11
62.8000851192985
 21
2407.877759708409
 31
0.0
  0
LINE
  5
31B
330
1F
100
AcDbEntity
  8
0-C_ハッチ
  6
Continuous
 62
     7
370
     9
100
AcDbLine
 10
-133.1999148807006
 20
2374.377759708409
 30
0.0
 11
62.8000851192985
 21
2374.377759708409
 31
0.0
  0
LINE
  5
31C
330
1F
100
AcDbEntity
  8
0-C_ハッチ
  6
Continuous
 62
     7
370
     9
100
AcDbLine
 10
-133.1999148807006
 20
2340.87775970841
 30
0.0
 11
62.8000851192985
 21
2340.87775970841
 31
0.0
  0
LINE
  5
31D
330
1F
100
AcDbEntity
  8
0-C_ハッチ
  6
Continuous
 62
     7
370
     9
100
AcDbLine
 10
-133.1999148807006
 20
2307.37775970841
 30
0.0
 11
62.8000851192985
 21
2307.37775970841
 31
0.0
  0
LINE
  5
31E
330
1F
100
AcDbEntity
  8
0-C_ハッチ
  6
Continuous
 62
     7
370
     9
100
AcDbLine
 10
-133.1999148807006
 20
2273.87775970841
 30
0.0
 11
62.8000851192985
 21
2273.87775970841
 31
0.0
  0
LINE
  5
31F
330
1F
100
AcDbEntity
  8
0-C_ハッチ
  6
Continuous
 62
     7
370
     9
100
AcDbLine
 10
-133.1999148807006
 20
2240.377759708409
 30
0.0
 11
62.8000851192985
 21
2240.377759708409
 31
0.0
  0
LINE
  5
320
330
1F
100
AcDbEntity
  8
0-C_ハッチ
  6
Continuous
 62
     7
370
     9
100
AcDbLine
 10
-133.1999148807006
 20
2206.877759708409
 30
0.0
 11
62.8000851192985
 21
2206.877759708409
 31
0.0
  0
LINE
  5
321
330
1F
100
AcDbEntity
  8
0-C_ハッチ
  6
Continuous
 62
     7
370
     9
100
AcDbLine
 10
-2028.799671069994
 20
2274.785230396469
 30
0.0
 11
-1832.799671069995
 21
2274.785230396469
 31
0.0
  0
LINE
  5
322
330
1F
100
AcDbEntity
  8
0-C_ハッチ
  6
Continuous
 62
     7
370
     9
100
AcDbLine
 10
-2028.799671069994
 20
2238.715066531318
 30
0.0
 11
-1832.799671069995
 21
2238.715066531318
 31
0.0
  0
LINE
  5
323
330
1F
100
AcDbEntity
  8
0-C_ハッチ
  6
Continuous
 62
     7
370
     9
100
AcDbLine
 10
-2028.799671069994
 20
2171.71506653132
 30
0.0
 11
-1832.799671069995
 21
2171.71506653132
 31
0.0
  0
LINE
  5
324
330
1F
100
AcDbEntity
  8
0-C_ハッチ
  6
Continuous
 62
     7
370
     9
100
AcDbLine
 10
-2028.799671069994
 20
2205.21506653132
 30
0.0
 11
-1832.799671069995
 21
2205.21506653132
 31
0.0
  0
LINE
  5
325
330
1F
100
AcDbEntity
  8
0-C_ハッチ
  6
Continuous
 62
     7
370
     9
100
AcDbLine
 10
-2028.799671069994
 20
2138.21506653132
 30
0.0
 11
-1832.799671069995
 21
2138.21506653132
 31
0.0
  0
LINE
  5
326
330
1F
100
AcDbEntity
  8
0-C_ハッチ
  6
Continuous
 62
     7
370
     9
100
AcDbLine
 10
-2028.799671069994
 20
2104.715066531319
 30
0.0
 11
-1832.799671069995
 21
2104.715066531319
 31
0.0
  0
LINE
  5
327
330
1F
100
AcDbEntity
  8
0-C_ハッチ
  6
Continuous
 62
     7
370
     9
100
AcDbLine
 10
-2028.799671069994
 20
2071.215066531319
 30
0.0
 11
-1832.799671069995
 21
2071.215066531319
 31
0.0
  0
LINE
  5
328
330
1F
100
AcDbEntity
  8
0-C_ハッチ
  6
Continuous
 62
     7
370
     9
100
AcDbLine
 10
-2028.799671069994
 20
2037.715066531319
 30
0.0
 11
-1832.799671069995
 21
2037.715066531319
 31
0.0
  0
LINE
  5
329
330
1F
100
AcDbEntity
  8
0-C_ハッチ
  6
Continuous
 62
     7
370
     9
100
AcDbLine
 10
-2028.799671069994
 20
2004.215066531319
 30
0.0
 11
-1832.799671069995
 21
2004.215066531319
 31
0.0
  0
LINE
  5
32A
330
1F
100
AcDbEntity
  8
0-C_ハッチ
  6
Continuous
 62
     7
370
     9
100
AcDbLine
 10
-2028.799671069994
 20
1970.715066531318
 30
0.0
 11
-1832.799671069995
 21
1970.715066531318
 31
0.0
  0
LINE
  5
32B
330
1F
100
AcDbEntity
  8
0-C_ハッチ
  6
Continuous
 62
     7
370
     9
100
AcDbLine
 10
-2028.799671069994
 20
1937.215066531318
 30
0.0
 11
-1832.799671069995
 21
1937.215066531318
 31
0.0
  0
LINE
  5
32C
330
1F
100
AcDbEntity
  8
0-C_ハッチ
  6
Continuous
 62
     7
370
     9
100
AcDbLine
 10
-2028.799671069994
 20
1903.715066531318
 30
0.0
 11
-1832.799671069995
 21
1903.715066531318
 31
0.0
  0
LINE
  5
32D
330
1F
100
AcDbEntity
  8
0-C_ハッチ
  6
Continuous
 62
     7
370
     9
100
AcDbLine
 10
-2028.799671069994
 20
1870.215066531318
 30
0.0
 11
-1832.799671069995
 21
1870.215066531318
 31
0.0
  0
LINE
  5
32E
330
1F
100
AcDbEntity
  8
0-C_ハッチ
  6
Continuous
 62
     7
370
     9
100
AcDbLine
 10
-2028.799671069994
 20
1836.715066531317
 30
0.0
 11
-1832.799671069995
 21
1836.715066531317
 31
0.0
  0
LINE
  5
32F
330
1F
100
AcDbEntity
  8
0-C_ハッチ
  6
Continuous
 62
     7
370
     9
100
AcDbLine
 10
-2028.799671069994
 20
1803.215066531317
 30
0.0
 11
-1832.799671069995
 21
1803.215066531317
 31
0.0
  0
LINE
  5
330
330
1F
100
AcDbEntity
  8
0-C_ハッチ
  6
Continuous
 62
     7
370
     9
100
AcDbLine
 10
-2028.799671069994
 20
1769.715066531317
 30
0.0
 11
-1832.799671069995
 21
1769.715066531317
 31
0.0
  0
LINE
  5
331
330
1F
100
AcDbEntity
  8
0-C_ハッチ
  6
Continuous
 62
     7
370
     9
100
AcDbLine
 10
-2028.799671069994
 20
1736.215066531317
 30
0.0
 11
-1832.799671069995
 21
1736.215066531317
 31
0.0
  0
LINE
  5
332
330
1F
100
AcDbEntity
  8
0-C_ハッチ
  6
Continuous
 62
     7
370
     9
100
AcDbLine
 10
-2028.799671069994
 20
1702.715066531317
 30
0.0
 11
-1832.799671069995
 21
1702.715066531317
 31
0.0
  0
LINE
  5
333
330
1F
100
AcDbEntity
  8
0-C_ハッチ
  6
Continuous
 62
     7
370
     9
100
AcDbLine
 10
-2028.799671069994
 20
1669.215066531317
 30
0.0
 11
-1832.799671069995
 21
1669.215066531317
 31
0.0
  0
LINE
  5
334
330
1F
100
AcDbEntity
  8
0-C_ハッチ
  6
Continuous
 62
     7
370
     9
100
AcDbLine
 10
-2028.799671069994
 20
1635.715066531316
 30
0.0
 11
-1832.799671069995
 21
1635.715066531316
 31
0.0
  0
LINE
  5
335
330
1F
100
AcDbEntity
  8
0-C_ハッチ
  6
Continuous
 62
     7
370
     9
100
AcDbLine
 10
-2028.799671069994
 20
1602.215066531316
 30
0.0
 11
-1832.799671069995
 21
1602.215066531316
 31
0.0
  0
LINE
  5
336
330
1F
100
AcDbEntity
  8
0-C_ハッチ
  6
Continuous
 62
     7
370
     9
100
AcDbLine
 10
-2028.799671069994
 20
1568.715066531316
 30
0.0
 11
-1832.799671069995
 21
1568.715066531316
 31
0.0
  0
LINE
  5
337
330
1F
100
AcDbEntity
  8
0-C_ハッチ
  6
Continuous
 62
     7
370
     9
100
AcDbLine
 10
-2028.799671069994
 20
1535.215066531316
 30
0.0
 11
-1832.799671069995
 21
1535.215066531316
 31
0.0
  0
LINE
  5
338
330
1F
100
AcDbEntity
  8
0-C_ハッチ
  6
Continuous
 62
     7
370
     9
100
AcDbLine
 10
-2028.799671069994
 20
1501.715066531315
 30
0.0
 11
-1832.799671069995
 21
1501.715066531315
 31
0.0
  0
LINE
  5
339
330
1F
100
AcDbEntity
  8
0-C_ハッチ
  6
Continuous
 62
     7
370
     9
100
AcDbLine
 10
-2028.799671069994
 20
1468.215066531315
 30
0.0
 11
-1832.799671069995
 21
1468.215066531315
 31
0.0
  0
LINE
  5
33A
330
1F
100
AcDbEntity
  8
0-C_ハッチ
  6
Continuous
 62
     7
370
     9
100
AcDbLine
 10
-2028.799671069994
 20
1434.715066531315
 30
0.0
 11
-1832.799671069995
 21
1434.715066531315
 31
0.0
  0
LINE
  5
33B
330
1F
100
AcDbEntity
  8
0-C_ハッチ
  6
Continuous
 62
     7
370
     9
100
AcDbLine
 10
-2028.799671069994
 20
1401.215066531315
 30
0.0
 11
-1832.799671069995
 21
1401.215066531315
 31
0.0
  0
LINE
  5
33C
330
1F
100
AcDbEntity
  8
0-C_ハッチ
  6
Continuous
 62
     7
370
     9
100
AcDbLine
 10
-2028.799671069994
 20
1367.715066531314
 30
0.0
 11
-1832.799671069995
 21
1367.715066531314
 31
0.0
  0
LINE
  5
33D
330
1F
100
AcDbEntity
  8
0-C_ハッチ
  6
Continuous
 62
     7
370
     9
100
AcDbLine
 10
-2028.799671069994
 20
1334.215066531314
 30
0.0
 11
-1832.799671069995
 21
1334.215066531314
 31
0.0
  0
LINE
  5
33E
330
1F
100
AcDbEntity
  8
0-3_仕上げ
  6
Continuous
 62
     7
370
     9
100
AcDbLine
 10
-2364.799671069995
 20
1237.000148463894
 30
0.0
 11
-2364.799671069995
 21
2372.000148463894
 31
0.0
  0
LINE
  5
33F
330
1F
100
AcDbEntity
  8
0-3_仕上げ
  6
Continuous
 62
     7
370
     9
100
AcDbLine
 10
-2365.799671069996
 20
2372.000148463894
 30
0.0
 11
-2365.799671069996
 21
1237.000148463894
 31
0.0
  0
LINE
  5
340
330
1F
100
AcDbEntity
  8
0-3_仕上げ
  6
Continuous
 62
     7
370
     9
100
AcDbLine
 10
-2168.799671069996
 20
1237.000148463894
 30
0.0
 11
-2168.799671069996
 21
2372.000148463894
 31
0.0
  0
LINE
  5
341
330
1F
100
AcDbEntity
  8
0-3_仕上げ
  6
Continuous
 62
     7
370
     9
100
AcDbLine
 10
-2167.799671069995
 20
2372.000148463894
 30
0.0
 11
-2167.799671069995
 21
1237.000148463894
 31
0.0
  0
LINE
  5
342
330
1F
100
AcDbEntity
  8
0-3_仕上げ
  6
Continuous
 62
     7
370
     9
100
AcDbLine
 10
-2430.799671069995
 20
2372.000148463894
 30
0.0
 11
-2430.799671069995
 21
1237.000148463894
 31
0.0
  0
LINE
  5
343
330
1F
100
AcDbEntity
  8
0-3_仕上げ
  6
Continuous
 62
     7
370
     9
100
AcDbLine
 10
-2364.799671069995
 20
2289.000148463894
 30
0.0
 11
-2168.799671069996
 21
2289.000148463894
 31
0.0
  0
LINE
  5
344
330
1F
100
AcDbEntity
  8
0-3_仕上げ
  6
Continuous
 62
     7
370
     9
100
AcDbLine
 10
-2168.799671069996
 20
2292.000148463893
 30
0.0
 11
-2364.799671069995
 21
2292.000148463893
 31
0.0
  0
LINE
  5
345
330
1F
100
AcDbEntity
  8
0-C_ハッチ
  6
Continuous
 62
     7
370
     9
100
AcDbLine
 10
-2168.799671069996
 20
2274.785230396469
 30
0.0
 11
-2364.799671069995
 21
2274.785230396469
 31
0.0
  0
LINE
  5
346
330
1F
100
AcDbEntity
  8
0-C_ハッチ
  6
Continuous
 62
     7
370
     9
100
AcDbLine
 10
-2168.799671069996
 20
2238.715066531318
 30
0.0
 11
-2364.799671069995
 21
2238.715066531318
 31
0.0
  0
LINE
  5
347
330
1F
100
AcDbEntity
  8
0-C_ハッチ
  6
Continuous
 62
     7
370
     9
100
AcDbLine
 10
-2168.799671069996
 20
2171.71506653132
 30
0.0
 11
-2364.799671069995
 21
2171.71506653132
 31
0.0
  0
LINE
  5
348
330
1F
100
AcDbEntity
  8
0-C_ハッチ
  6
Continuous
 62
     7
370
     9
100
AcDbLine
 10
-2168.799671069996
 20
2205.21506653132
 30
0.0
 11
-2364.799671069995
 21
2205.21506653132
 31
0.0
  0
LINE
  5
349
330
1F
100
AcDbEntity
  8
0-C_ハッチ
  6
Continuous
 62
     7
370
     9
100
AcDbLine
 10
-2168.799671069996
 20
2138.21506653132
 30
0.0
 11
-2364.799671069995
 21
2138.21506653132
 31
0.0
  0
LINE
  5
34A
330
1F
100
AcDbEntity
  8
0-C_ハッチ
  6
Continuous
 62
     7
370
     9
100
AcDbLine
 10
-2168.799671069996
 20
2104.715066531319
 30
0.0
 11
-2364.799671069995
 21
2104.715066531319
 31
0.0
  0
LINE
  5
34B
330
1F
100
AcDbEntity
  8
0-C_ハッチ
  6
Continuous
 62
     7
370
     9
100
AcDbLine
 10
-2168.799671069996
 20
2071.215066531319
 30
0.0
 11
-2364.799671069995
 21
2071.215066531319
 31
0.0
  0
LINE
  5
34C
330
1F
100
AcDbEntity
  8
0-C_ハッチ
  6
Continuous
 62
     7
370
     9
100
AcDbLine
 10
-2168.799671069996
 20
2037.715066531319
 30
0.0
 11
-2364.799671069995
 21
2037.715066531319
 31
0.0
  0
LINE
  5
34D
330
1F
100
AcDbEntity
  8
0-C_ハッチ
  6
Continuous
 62
     7
370
     9
100
AcDbLine
 10
-2168.799671069996
 20
2004.215066531319
 30
0.0
 11
-2364.799671069995
 21
2004.215066531319
 31
0.0
  0
LINE
  5
34E
330
1F
100
AcDbEntity
  8
0-C_ハッチ
  6
Continuous
 62
     7
370
     9
100
AcDbLine
 10
-2168.799671069996
 20
1970.715066531318
 30
0.0
 11
-2364.799671069995
 21
1970.715066531318
 31
0.0
  0
LINE
  5
34F
330
1F
100
AcDbEntity
  8
0-C_ハッチ
  6
Continuous
 62
     7
370
     9
100
AcDbLine
 10
-2168.799671069996
 20
1937.215066531318
 30
0.0
 11
-2364.799671069995
 21
1937.215066531318
 31
0.0
  0
LINE
  5
350
330
1F
100
AcDbEntity
  8
0-C_ハッチ
  6
Continuous
 62
     7
370
     9
100
AcDbLine
 10
-2168.799671069996
 20
1903.715066531318
 30
0.0
 11
-2364.799671069995
 21
1903.715066531318
 31
0.0
  0
LINE
  5
351
330
1F
100
AcDbEntity
  8
0-C_ハッチ
  6
Continuous
 62
     7
370
     9
100
AcDbLine
 10
-2168.799671069996
 20
1870.215066531318
 30
0.0
 11
-2364.799671069995
 21
1870.215066531318
 31
0.0
  0
LINE
  5
352
330
1F
100
AcDbEntity
  8
0-C_ハッチ
  6
Continuous
 62
     7
370
     9
100
AcDbLine
 10
-2168.799671069996
 20
1836.715066531317
 30
0.0
 11
-2364.799671069995
 21
1836.715066531317
 31
0.0
  0
LINE
  5
353
330
1F
100
AcDbEntity
  8
0-C_ハッチ
  6
Continuous
 62
     7
370
     9
100
AcDbLine
 10
-2168.799671069996
 20
1803.215066531317
 30
0.0
 11
-2364.799671069995
 21
1803.215066531317
 31
0.0
  0
LINE
  5
354
330
1F
100
AcDbEntity
  8
0-C_ハッチ
  6
Continuous
 62
     7
370
     9
100
AcDbLine
 10
-2168.799671069996
 20
1769.715066531317
 30
0.0
 11
-2364.799671069995
 21
1769.715066531317
 31
0.0
  0
LINE
  5
355
330
1F
100
AcDbEntity
  8
0-C_ハッチ
  6
Continuous
 62
     7
370
     9
100
AcDbLine
 10
-2168.799671069996
 20
1736.215066531317
 30
0.0
 11
-2364.799671069995
 21
1736.215066531317
 31
0.0
  0
LINE
  5
356
330
1F
100
AcDbEntity
  8
0-C_ハッチ
  6
Continuous
 62
     7
370
     9
100
AcDbLine
 10
-2168.799671069996
 20
1702.715066531317
 30
0.0
 11
-2364.799671069995
 21
1702.715066531317
 31
0.0
  0
LINE
  5
357
330
1F
100
AcDbEntity
  8
0-C_ハッチ
  6
Continuous
 62
     7
370
     9
100
AcDbLine
 10
-2168.799671069996
 20
1669.215066531317
 30
0.0
 11
-2364.799671069995
 21
1669.215066531317
 31
0.0
  0
LINE
  5
358
330
1F
100
AcDbEntity
  8
0-C_ハッチ
  6
Continuous
 62
     7
370
     9
100
AcDbLine
 10
-2168.799671069996
 20
1635.715066531316
 30
0.0
 11
-2364.799671069995
 21
1635.715066531316
 31
0.0
  0
LINE
  5
359
330
1F
100
AcDbEntity
  8
0-C_ハッチ
  6
Continuous
 62
     7
370
     9
100
AcDbLine
 10
-2168.799671069996
 20
1602.215066531316
 30
0.0
 11
-2364.799671069995
 21
1602.215066531316
 31
0.0
  0
LINE
  5
35A
330
1F
100
AcDbEntity
  8
0-C_ハッチ
  6
Continuous
 62
     7
370
     9
100
AcDbLine
 10
-2168.799671069996
 20
1568.715066531316
 30
0.0
 11
-2364.799671069995
 21
1568.715066531316
 31
0.0
  0
LINE
  5
35B
330
1F
100
AcDbEntity
  8
0-C_ハッチ
  6
Continuous
 62
     7
370
     9
100
AcDbLine
 10
-2168.799671069996
 20
1535.215066531316
 30
0.0
 11
-2364.799671069995
 21
1535.215066531316
 31
0.0
  0
LINE
  5
35C
330
1F
100
AcDbEntity
  8
0-C_ハッチ
  6
Continuous
 62
     7
370
     9
100
AcDbLine
 10
-2168.799671069996
 20
1501.715066531315
 30
0.0
 11
-2364.799671069995
 21
1501.715066531315
 31
0.0
  0
LINE
  5
35D
330
1F
100
AcDbEntity
  8
0-C_ハッチ
  6
Continuous
 62
     7
370
     9
100
AcDbLine
 10
-2168.799671069996
 20
1468.215066531315
 30
0.0
 11
-2364.799671069995
 21
1468.215066531315
 31
0.0
  0
LINE
  5
35E
330
1F
100
AcDbEntity
  8
0-C_ハッチ
  6
Continuous
 62
     7
370
     9
100
AcDbLine
 10
-2168.799671069996
 20
1434.715066531315
 30
0.0
 11
-2364.799671069995
 21
1434.715066531315
 31
0.0
  0
LINE
  5
35F
330
1F
100
AcDbEntity
  8
0-C_ハッチ
  6
Continuous
 62
     7
370
     9
100
AcDbLine
 10
-2168.799671069996
 20
1401.215066531315
 30
0.0
 11
-2364.799671069995
 21
1401.215066531315
 31
0.0
  0
LINE
  5
360
330
1F
100
AcDbEntity
  8
0-C_ハッチ
  6
Continuous
 62
     7
370
     9
100
AcDbLine
 10
-2168.799671069996
 20
1367.715066531314
 30
0.0
 11
-2364.799671069995
 21
1367.715066531314
 31
0.0
  0
LINE
  5
361
330
1F
100
AcDbEntity
  8
0-C_ハッチ
  6
Continuous
 62
     7
370
     9
100
AcDbLine
 10
-2168.799671069996
 20
1334.215066531314
 30
0.0
 11
-2364.799671069995
 21
1334.215066531314
 31
0.0
  0
LINE
  5
362
330
1F
100
AcDbEntity
  8
0-3_仕上げ
  6
Continuous
 62
     7
370
     9
100
AcDbLine
 10
-2102.799671069996
 20
2372.000148463894
 30
0.0
 11
-2102.799671069996
 21
1237.000148463894
 31
0.0
  0
LINE
  5
363
330
1F
100
AcDbEntity
  8
0-3_仕上げ
  6
Continuous
 62
     7
370
     9
100
AcDbLine
 10
-4064.399798419024
 20
1934.000148463894
 30
0.0
 11
-4260.399798419023
 21
1934.000148463894
 31
0.0
  0
LINE
  5
364
330
1F
100
AcDbEntity
  8
0-3_仕上げ
  6
Continuous
 62
     7
370
     9
100
AcDbLine
 10
-4260.399798419023
 20
1937.000148463893
 30
0.0
 11
-4064.399798419024
 21
1937.000148463893
 31
0.0
  0
LINE
  5
365
330
1F
100
AcDbEntity
  8
0-3_仕上げ
  6
Continuous
 62
     7
370
     9
100
AcDbLine
 10
-4064.399798419024
 20
1237.000148463894
 30
0.0
 11
-4064.399798419024
 21
2017.000148463893
 31
0.0
  0
LINE
  5
366
330
1F
100
AcDbEntity
  8
0-3_仕上げ
  6
Continuous
 62
     7
370
     9
100
AcDbLine
 10
-4063.399798419023
 20
2017.000148463893
 30
0.0
 11
-4063.399798419023
 21
1237.000148463894
 31
0.0
  0
LINE
  5
367
330
1F
100
AcDbEntity
  8
0-3_仕上げ
  6
Continuous
 62
     7
370
     9
100
AcDbLine
 10
-4260.399798419023
 20
1237.000148463894
 30
0.0
 11
-4260.399798419023
 21
2017.000148463893
 31
0.0
  0
LINE
  5
368
330
1F
100
AcDbEntity
  8
0-3_仕上げ
  6
Continuous
 62
     7
370
     9
100
AcDbLine
 10
-4261.399798419024
 20
2017.000148463893
 30
0.0
 11
-4261.399798419024
 21
1237.000148463894
 31
0.0
  0
LINE
  5
369
330
1F
100
AcDbEntity
  8
0-3_仕上げ
  6
Continuous
 62
     7
370
     9
100
AcDbLine
 10
-3998.399798419024
 20
2017.000148463893
 30
0.0
 11
-3998.399798419024
 21
1237.000148463894
 31
0.0
  0
LINE
  5
36A
330
1F
100
AcDbEntity
  8
0-3_仕上げ
  6
Continuous
 62
     7
370
     9
100
AcDbLine
 10
-4326.399798419023
 20
2017.000148463893
 30
0.0
 11
-4326.399798419023
 21
1237.000148463894
 31
0.0
  0
LINE
  5
36B
330
1F
100
AcDbEntity
  8
0-3_仕上げ
  6
Continuous
 62
     7
370
     9
100
AcDbLine
 10
4862.000339817357
 20
1317.000148463893
 30
0.0
 11
4666.000339817358
 21
1317.000148463893
 31
0.0
  0
LINE
  5
36C
330
1F
100
AcDbEntity
  8
0-3_仕上げ
  6
Continuous
 62
     7
370
     9
100
AcDbLine
 10
4526.000339817357
 20
1317.000148463893
 30
0.0
 11
4330.000339817358
 21
1317.000148463893
 31
0.0
  0
LINE
  5
36D
330
1F
100
AcDbEntity
  8
0-3_仕上げ
  6
Continuous
 62
     7
370
     9
100
AcDbLine
 10
2630.400212468328
 20
1317.000148463893
 30
0.0
 11
2434.400212468329
 21
1317.000148463893
 31
0.0
  0
LINE
  5
36E
330
1F
100
AcDbEntity
  8
0-3_仕上げ
  6
Continuous
 62
     7
370
     9
100
AcDbLine
 10
2294.400212468327
 20
1317.000148463893
 30
0.0
 11
2098.400212468328
 21
1317.000148463893
 31
0.0
  0
LINE
  5
36F
330
1F
100
AcDbEntity
  8
0-3_仕上げ
  6
Continuous
 62
     7
370
     9
100
AcDbLine
 10
398.800085119299
 20
1317.000148463893
 30
0.0
 11
202.8000851192999
 21
1317.000148463893
 31
0.0
  0
LINE
  5
370
330
1F
100
AcDbEntity
  8
0-3_仕上げ
  6
Continuous
 62
     7
370
     9
100
AcDbLine
 10
62.8000851192985
 20
1317.000148463893
 30
0.0
 11
-133.1999148807006
 21
1317.000148463893
 31
0.0
  0
LINE
  5
371
330
1F
100
AcDbEntity
  8
0-C_ハッチ
  6
Continuous
 62
     7
370
     9
100
AcDbLine
 10
-4260.399798419023
 20
1929.785230396467
 30
0.0
 11
-4064.399798419024
 21
1929.785230396467
 31
0.0
  0
LINE
  5
372
330
1F
100
AcDbEntity
  8
0-C_ハッチ
  6
Continuous
 62
     7
370
     9
100
AcDbLine
 10
-4260.399798419023
 20
1893.715066531317
 30
0.0
 11
-4064.399798419024
 21
1893.715066531317
 31
0.0
  0
LINE
  5
373
330
1F
100
AcDbEntity
  8
0-C_ハッチ
  6
Continuous
 62
     7
370
     9
100
AcDbLine
 10
-4260.399798419023
 20
1826.715066531319
 30
0.0
 11
-4064.399798419024
 21
1826.715066531319
 31
0.0
  0
LINE
  5
374
330
1F
100
AcDbEntity
  8
0-C_ハッチ
  6
Continuous
 62
     7
370
     9
100
AcDbLine
 10
-4260.399798419023
 20
1860.215066531319
 30
0.0
 11
-4064.399798419024
 21
1860.215066531319
 31
0.0
  0
LINE
  5
375
330
1F
100
AcDbEntity
  8
0-C_ハッチ
  6
Continuous
 62
     7
370
     9
100
AcDbLine
 10
-4260.399798419023
 20
1793.215066531318
 30
0.0
 11
-4064.399798419024
 21
1793.215066531318
 31
0.0
  0
LINE
  5
376
330
1F
100
AcDbEntity
  8
0-C_ハッチ
  6
Continuous
 62
     7
370
     9
100
AcDbLine
 10
-4260.399798419023
 20
1759.715066531318
 30
0.0
 11
-4064.399798419024
 21
1759.715066531318
 31
0.0
  0
LINE
  5
377
330
1F
100
AcDbEntity
  8
0-C_ハッチ
  6
Continuous
 62
     7
370
     9
100
AcDbLine
 10
-4260.399798419023
 20
1726.215066531318
 30
0.0
 11
-4064.399798419024
 21
1726.215066531318
 31
0.0
  0
LINE
  5
378
330
1F
100
AcDbEntity
  8
0-C_ハッチ
  6
Continuous
 62
     7
370
     9
100
AcDbLine
 10
-4260.399798419023
 20
1692.715066531318
 30
0.0
 11
-4064.399798419024
 21
1692.715066531318
 31
0.0
  0
LINE
  5
379
330
1F
100
AcDbEntity
  8
0-C_ハッチ
  6
Continuous
 62
     7
370
     9
100
AcDbLine
 10
-4260.399798419023
 20
1659.215066531317
 30
0.0
 11
-4064.399798419024
 21
1659.215066531317
 31
0.0
  0
LINE
  5
37A
330
1F
100
AcDbEntity
  8
0-C_ハッチ
  6
Continuous
 62
     7
370
     9
100
AcDbLine
 10
-4260.399798419023
 20
1625.715066531317
 30
0.0
 11
-4064.399798419024
 21
1625.715066531317
 31
0.0
  0
LINE
  5
37B
330
1F
100
AcDbEntity
  8
0-C_ハッチ
  6
Continuous
 62
     7
370
     9
100
AcDbLine
 10
-4260.399798419023
 20
1592.215066531317
 30
0.0
 11
-4064.399798419024
 21
1592.215066531317
 31
0.0
  0
LINE
  5
37C
330
1F
100
AcDbEntity
  8
0-C_ハッチ
  6
Continuous
 62
     7
370
     9
100
AcDbLine
 10
-4260.399798419023
 20
1558.715066531317
 30
0.0
 11
-4064.399798419024
 21
1558.715066531317
 31
0.0
  0
LINE
  5
37D
330
1F
100
AcDbEntity
  8
0-C_ハッチ
  6
Continuous
 62
     7
370
     9
100
AcDbLine
 10
-4260.399798419023
 20
1525.215066531317
 30
0.0
 11
-4064.399798419024
 21
1525.215066531317
 31
0.0
  0
LINE
  5
37E
330
1F
100
AcDbEntity
  8
0-C_ハッチ
  6
Continuous
 62
     7
370
     9
100
AcDbLine
 10
-4260.399798419023
 20
1491.715066531316
 30
0.0
 11
-4064.399798419024
 21
1491.715066531316
 31
0.0
  0
LINE
  5
37F
330
1F
100
AcDbEntity
  8
0-C_ハッチ
  6
Continuous
 62
     7
370
     9
100
AcDbLine
 10
-4260.399798419023
 20
1458.215066531316
 30
0.0
 11
-4064.399798419024
 21
1458.215066531316
 31
0.0
  0
LINE
  5
380
330
1F
100
AcDbEntity
  8
0-C_ハッチ
  6
Continuous
 62
     7
370
     9
100
AcDbLine
 10
-4260.399798419023
 20
1424.715066531316
 30
0.0
 11
-4064.399798419024
 21
1424.715066531316
 31
0.0
  0
LINE
  5
381
330
1F
100
AcDbEntity
  8
0-C_ハッチ
  6
Continuous
 62
     7
370
     9
100
AcDbLine
 10
-4260.399798419023
 20
1391.215066531316
 30
0.0
 11
-4064.399798419024
 21
1391.215066531316
 31
0.0
  0
LINE
  5
382
330
1F
100
AcDbEntity
  8
0-C_ハッチ
  6
Continuous
 62
     7
370
     9
100
AcDbLine
 10
-4260.399798419023
 20
1357.715066531315
 30
0.0
 11
-4064.399798419024
 21
1357.715066531315
 31
0.0
  0
LINE
  5
383
330
1F
100
AcDbEntity
  8
0-C_ハッチ
  6
Continuous
 62
     7
370
     9
100
AcDbLine
 10
-4260.399798419023
 20
1324.215066531315
 30
0.0
 11
-4064.399798419024
 21
1324.215066531315
 31
0.0
  0
LINE
  5
384
330
1F
100
AcDbEntity
  8
0-3_仕上げ
  6
Continuous
 62
     7
370
     9
100
AcDbLine
 10
-4260.399798419023
 20
1320.000148463894
 30
0.0
 11
-4064.399798419024
 21
1320.000148463894
 31
0.0
  0
LINE
  5
385
330
1F
100
AcDbEntity
  8
0-3_仕上げ
  6
Continuous
 62
     7
370
     9
100
AcDbLine
 10
-4260.399798419023
 20
1317.000148463893
 30
0.0
 11
-4064.399798419024
 21
1317.000148463893
 31
0.0
  0
LINE
  5
386
330
1F
100
AcDbEntity
  8
0-3_仕上げ
  6
Continuous
 62
     7
370
     9
100
AcDbLine
 10
-2028.799671069994
 20
1320.000148463894
 30
0.0
 11
-1832.799671069995
 21
1320.000148463894
 31
0.0
  0
LINE
  5
387
330
1F
100
AcDbEntity
  8
0-3_仕上げ
  6
Continuous
 62
     7
370
     9
100
AcDbLine
 10
-2168.799671069996
 20
1320.000148463894
 30
0.0
 11
-2364.799671069995
 21
1320.000148463894
 31
0.0
  0
LINE
  5
388
330
1F
100
AcDbEntity
  8
0-3_仕上げ
  6
Continuous
 62
     7
370
     9
100
AcDbLine
 10
-1832.799671069995
 20
1317.000148463893
 30
0.0
 11
-2028.799671069994
 21
1317.000148463893
 31
0.0
  0
LINE
  5
389
330
1F
100
AcDbEntity
  8
0-3_仕上げ
  6
Continuous
 62
     7
370
     9
100
AcDbLine
 10
-2168.799671069996
 20
1317.000148463893
 30
0.0
 11
-2364.799671069995
 21
1317.000148463893
 31
0.0
  0
LINE
  5
38A
330
1F
100
AcDbEntity
  8
0-3_仕上げ
  6
Continuous
 62
     7
370
     9
100
AcDbLine
 10
-4596.399798419024
 20
1934.000148463894
 30
0.0
 11
-4400.399798419025
 21
1934.000148463894
 31
0.0
  0
LINE
  5
38B
330
1F
100
AcDbEntity
  8
0-3_仕上げ
  6
Continuous
 62
     7
370
     9
100
AcDbLine
 10
-4400.399798419025
 20
1937.000148463893
 30
0.0
 11
-4596.399798419024
 21
1937.000148463893
 31
0.0
  0
LINE
  5
38C
330
1F
100
AcDbEntity
  8
0-3_仕上げ
  6
Continuous
 62
     7
370
     9
100
AcDbLine
 10
-4596.399798419024
 20
1237.000148463894
 30
0.0
 11
-4596.399798419024
 21
2017.000148463893
 31
0.0
  0
LINE
  5
38D
330
1F
100
AcDbEntity
  8
0-3_仕上げ
  6
Continuous
 62
     7
370
     9
100
AcDbLine
 10
-4597.399798419025
 20
2017.000148463893
 30
0.0
 11
-4597.399798419025
 21
1237.000148463894
 31
0.0
  0
LINE
  5
38E
330
1F
100
AcDbEntity
  8
0-3_仕上げ
  6
Continuous
 62
     7
370
     9
100
AcDbLine
 10
-4400.399798419025
 20
1237.000148463894
 30
0.0
 11
-4400.399798419025
 21
2017.000148463893
 31
0.0
  0
LINE
  5
38F
330
1F
100
AcDbEntity
  8
0-3_仕上げ
  6
Continuous
 62
     7
370
     9
100
AcDbLine
 10
-4399.399798419025
 20
2017.000148463893
 30
0.0
 11
-4399.399798419025
 21
1237.000148463894
 31
0.0
  0
LINE
  5
390
330
1F
100
AcDbEntity
  8
0-C_ハッチ
  6
Continuous
 62
     7
370
     9
100
AcDbLine
 10
-4400.399798419025
 20
1929.785230396467
 30
0.0
 11
-4596.399798419024
 21
1929.785230396467
 31
0.0
  0
LINE
  5
391
330
1F
100
AcDbEntity
  8
0-C_ハッチ
  6
Continuous
 62
     7
370
     9
100
AcDbLine
 10
-4400.399798419025
 20
1893.715066531317
 30
0.0
 11
-4596.399798419024
 21
1893.715066531317
 31
0.0
  0
LINE
  5
392
330
1F
100
AcDbEntity
  8
0-C_ハッチ
  6
Continuous
 62
     7
370
     9
100
AcDbLine
 10
-4400.399798419025
 20
1826.715066531319
 30
0.0
 11
-4596.399798419024
 21
1826.715066531319
 31
0.0
  0
LINE
  5
393
330
1F
100
AcDbEntity
  8
0-C_ハッチ
  6
Continuous
 62
     7
370
     9
100
AcDbLine
 10
-4400.399798419025
 20
1860.215066531319
 30
0.0
 11
-4596.399798419024
 21
1860.215066531319
 31
0.0
  0
LINE
  5
394
330
1F
100
AcDbEntity
  8
0-C_ハッチ
  6
Continuous
 62
     7
370
     9
100
AcDbLine
 10
-4400.399798419025
 20
1793.215066531318
 30
0.0
 11
-4596.399798419024
 21
1793.215066531318
 31
0.0
  0
LINE
  5
395
330
1F
100
AcDbEntity
  8
0-C_ハッチ
  6
Continuous
 62
     7
370
     9
100
AcDbLine
 10
-4400.399798419025
 20
1759.715066531318
 30
0.0
 11
-4596.399798419024
 21
1759.715066531318
 31
0.0
  0
LINE
  5
396
330
1F
100
AcDbEntity
  8
0-C_ハッチ
  6
Continuous
 62
     7
370
     9
100
AcDbLine
 10
-4400.399798419025
 20
1726.215066531318
 30
0.0
 11
-4596.399798419024
 21
1726.215066531318
 31
0.0
  0
LINE
  5
397
330
1F
100
AcDbEntity
  8
0-C_ハッチ
  6
Continuous
 62
     7
370
     9
100
AcDbLine
 10
-4400.399798419025
 20
1692.715066531318
 30
0.0
 11
-4596.399798419024
 21
1692.715066531318
 31
0.0
  0
LINE
  5
398
330
1F
100
AcDbEntity
  8
0-C_ハッチ
  6
Continuous
 62
     7
370
     9
100
AcDbLine
 10
-4400.399798419025
 20
1659.215066531317
 30
0.0
 11
-4596.399798419024
 21
1659.215066531317
 31
0.0
  0
LINE
  5
399
330
1F
100
AcDbEntity
  8
0-C_ハッチ
  6
Continuous
 62
     7
370
     9
100
AcDbLine
 10
-4400.399798419025
 20
1625.715066531317
 30
0.0
 11
-4596.399798419024
 21
1625.715066531317
 31
0.0
  0
LINE
  5
39A
330
1F
100
AcDbEntity
  8
0-C_ハッチ
  6
Continuous
 62
     7
370
     9
100
AcDbLine
 10
-4400.399798419025
 20
1592.215066531317
 30
0.0
 11
-4596.399798419024
 21
1592.215066531317
 31
0.0
  0
LINE
  5
39B
330
1F
100
AcDbEntity
  8
0-C_ハッチ
  6
Continuous
 62
     7
370
     9
100
AcDbLine
 10
-4400.399798419025
 20
1558.715066531317
 30
0.0
 11
-4596.399798419024
 21
1558.715066531317
 31
0.0
  0
LINE
  5
39C
330
1F
100
AcDbEntity
  8
0-C_ハッチ
  6
Continuous
 62
     7
370
     9
100
AcDbLine
 10
-4400.399798419025
 20
1525.215066531317
 30
0.0
 11
-4596.399798419024
 21
1525.215066531317
 31
0.0
  0
LINE
  5
39D
330
1F
100
AcDbEntity
  8
0-C_ハッチ
  6
Continuous
 62
     7
370
     9
100
AcDbLine
 10
-4400.399798419025
 20
1491.715066531316
 30
0.0
 11
-4596.399798419024
 21
1491.715066531316
 31
0.0
  0
LINE
  5
39E
330
1F
100
AcDbEntity
  8
0-C_ハッチ
  6
Continuous
 62
     7
370
     9
100
AcDbLine
 10
-4400.399798419025
 20
1458.215066531316
 30
0.0
 11
-4596.399798419024
 21
1458.215066531316
 31
0.0
  0
LINE
  5
39F
330
1F
100
AcDbEntity
  8
0-C_ハッチ
  6
Continuous
 62
     7
370
     9
100
AcDbLine
 10
-4400.399798419025
 20
1424.715066531316
 30
0.0
 11
-4596.399798419024
 21
1424.715066531316
 31
0.0
  0
LINE
  5
3A0
330
1F
100
AcDbEntity
  8
0-C_ハッチ
  6
Continuous
 62
     7
370
     9
100
AcDbLine
 10
-4400.399798419025
 20
1391.215066531316
 30
0.0
 11
-4596.399798419024
 21
1391.215066531316
 31
0.0
  0
LINE
  5
3A1
330
1F
100
AcDbEntity
  8
0-C_ハッチ
  6
Continuous
 62
     7
370
     9
100
AcDbLine
 10
-4400.399798419025
 20
1357.715066531315
 30
0.0
 11
-4596.399798419024
 21
1357.715066531315
 31
0.0
  0
LINE
  5
3A2
330
1F
100
AcDbEntity
  8
0-C_ハッチ
  6
Continuous
 62
     7
370
     9
100
AcDbLine
 10
-4400.399798419025
 20
1324.215066531315
 30
0.0
 11
-4596.399798419024
 21
1324.215066531315
 31
0.0
  0
LINE
  5
3A3
330
1F
100
AcDbEntity
  8
0-3_仕上げ
  6
Continuous
 62
     7
370
     9
100
AcDbLine
 10
-4400.399798419025
 20
1320.000148463894
 30
0.0
 11
-4596.399798419024
 21
1320.000148463894
 31
0.0
  0
LINE
  5
3A4
330
1F
100
AcDbEntity
  8
0-3_仕上げ
  6
Continuous
 62
     7
370
     9
100
AcDbLine
 10
-4400.399798419025
 20
1317.000148463893
 30
0.0
 11
-4596.399798419024
 21
1317.000148463893
 31
0.0
  0
LINE
  5
3A5
330
1F
100
AcDbEntity
  8
0-3_仕上げ
  6
Continuous
 62
     7
370
     9
100
AcDbLine
 10
-4334.399798419025
 20
2017.000148463893
 30
0.0
 11
-4334.399798419025
 21
1237.000148463894
 31
0.0
  0
LINE
  5
3A6
330
1F
100
AcDbEntity
  8
0-3_仕上げ
  6
Continuous
 62
     7
370
     9
100
AcDbLine
 10
-4662.399798419023
 20
2017.000148463893
 30
0.0
 11
-4662.399798419023
 21
1237.000148463894
 31
0.0
  0
LINE
  5
3A7
330
1F
100
AcDbEntity
  8
0-3_仕上げ
  6
Continuous
 62
     7
370
     9
100
AcDbLine
 10
-4662.399798419023
 20
-1512.750165011432
 30
0.0
 11
-4662.399798419023
 21
-2292.750165011431
 31
0.0
  0
LINE
  5
3A8
330
1F
100
AcDbEntity
  8
0-3_仕上げ
  6
Continuous
 62
     7
370
     9
100
AcDbLine
 10
-4334.399798419025
 20
-1512.750165011432
 30
0.0
 11
-4334.399798419025
 21
-2292.750165011431
 31
0.0
  0
LINE
  5
3A9
330
1F
100
AcDbEntity
  8
0-3_仕上げ
  6
Continuous
 62
     7
370
     9
100
AcDbLine
 10
-4400.399798419025
 20
-2212.750165011432
 30
0.0
 11
-4596.399798419024
 21
-2212.750165011432
 31
0.0
  0
LINE
  5
3AA
330
1F
100
AcDbEntity
  8
0-3_仕上げ
  6
Continuous
 62
     7
370
     9
100
AcDbLine
 10
-4400.399798419025
 20
-2209.750165011431
 30
0.0
 11
-4596.399798419024
 21
-2209.750165011431
 31
0.0
  0
LINE
  5
3AB
330
1F
100
AcDbEntity
  8
0-C_ハッチ
  6
Continuous
 62
     7
370
     9
100
AcDbLine
 10
-4400.399798419025
 20
-2205.53524694401
 30
0.0
 11
-4596.399798419024
 21
-2205.53524694401
 31
0.0
  0
LINE
  5
3AC
330
1F
100
AcDbEntity
  8
0-C_ハッチ
  6
Continuous
 62
     7
370
     9
100
AcDbLine
 10
-4400.399798419025
 20
-2172.03524694401
 30
0.0
 11
-4596.399798419024
 21
-2172.03524694401
 31
0.0
  0
LINE
  5
3AD
330
1F
100
AcDbEntity
  8
0-C_ハッチ
  6
Continuous
 62
     7
370
     9
100
AcDbLine
 10
-4400.399798419025
 20
-2138.535246944009
 30
0.0
 11
-4596.399798419024
 21
-2138.535246944009
 31
0.0
  0
LINE
  5
3AE
330
1F
100
AcDbEntity
  8
0-C_ハッチ
  6
Continuous
 62
     7
370
     9
100
AcDbLine
 10
-4400.399798419025
 20
-2105.035246944009
 30
0.0
 11
-4596.399798419024
 21
-2105.035246944009
 31
0.0
  0
LINE
  5
3AF
330
1F
100
AcDbEntity
  8
0-C_ハッチ
  6
Continuous
 62
     7
370
     9
100
AcDbLine
 10
-4400.399798419025
 20
-2071.535246944009
 30
0.0
 11
-4596.399798419024
 21
-2071.535246944009
 31
0.0
  0
LINE
  5
3B0
330
1F
100
AcDbEntity
  8
0-C_ハッチ
  6
Continuous
 62
     7
370
     9
100
AcDbLine
 10
-4400.399798419025
 20
-2038.035246944009
 30
0.0
 11
-4596.399798419024
 21
-2038.035246944009
 31
0.0
  0
LINE
  5
3B1
330
1F
100
AcDbEntity
  8
0-C_ハッチ
  6
Continuous
 62
     7
370
     9
100
AcDbLine
 10
-4400.399798419025
 20
-2004.535246944009
 30
0.0
 11
-4596.399798419024
 21
-2004.535246944009
 31
0.0
  0
LINE
  5
3B2
330
1F
100
AcDbEntity
  8
0-C_ハッチ
  6
Continuous
 62
     7
370
     9
100
AcDbLine
 10
-4400.399798419025
 20
-1971.035246944009
 30
0.0
 11
-4596.399798419024
 21
-1971.035246944009
 31
0.0
  0
LINE
  5
3B3
330
1F
100
AcDbEntity
  8
0-C_ハッチ
  6
Continuous
 62
     7
370
     9
100
AcDbLine
 10
-4400.399798419025
 20
-1937.535246944008
 30
0.0
 11
-4596.399798419024
 21
-1937.535246944008
 31
0.0
  0
LINE
  5
3B4
330
1F
100
AcDbEntity
  8
0-C_ハッチ
  6
Continuous
 62
     7
370
     9
100
AcDbLine
 10
-4400.399798419025
 20
-1904.035246944008
 30
0.0
 11
-4596.399798419024
 21
-1904.035246944008
 31
0.0
  0
LINE
  5
3B5
330
1F
100
AcDbEntity
  8
0-C_ハッチ
  6
Continuous
 62
     7
370
     9
100
AcDbLine
 10
-4400.399798419025
 20
-1870.535246944008
 30
0.0
 11
-4596.399798419024
 21
-1870.535246944008
 31
0.0
  0
LINE
  5
3B6
330
1F
100
AcDbEntity
  8
0-C_ハッチ
  6
Continuous
 62
     7
370
     9
100
AcDbLine
 10
-4400.399798419025
 20
-1837.035246944008
 30
0.0
 11
-4596.399798419024
 21
-1837.035246944008
 31
0.0
  0
LINE
  5
3B7
330
1F
100
AcDbEntity
  8
0-C_ハッチ
  6
Continuous
 62
     7
370
     9
100
AcDbLine
 10
-4400.399798419025
 20
-1803.535246944007
 30
0.0
 11
-4596.399798419024
 21
-1803.535246944007
 31
0.0
  0
LINE
  5
3B8
330
1F
100
AcDbEntity
  8
0-C_ハッチ
  6
Continuous
 62
     7
370
     9
100
AcDbLine
 10
-4400.399798419025
 20
-1770.035246944007
 30
0.0
 11
-4596.399798419024
 21
-1770.035246944007
 31
0.0
  0
LINE
  5
3B9
330
1F
100
AcDbEntity
  8
0-C_ハッチ
  6
Continuous
 62
     7
370
     9
100
AcDbLine
 10
-4400.399798419025
 20
-1736.535246944007
 30
0.0
 11
-4596.399798419024
 21
-1736.535246944007
 31
0.0
  0
LINE
  5
3BA
330
1F
100
AcDbEntity
  8
0-C_ハッチ
  6
Continuous
 62
     7
370
     9
100
AcDbLine
 10
-4400.399798419025
 20
-1669.535246944006
 30
0.0
 11
-4596.399798419024
 21
-1669.535246944006
 31
0.0
  0
LINE
  5
3BB
330
1F
100
AcDbEntity
  8
0-C_ハッチ
  6
Continuous
 62
     7
370
     9
100
AcDbLine
 10
-4400.399798419025
 20
-1703.035246944007
 30
0.0
 11
-4596.399798419024
 21
-1703.035246944007
 31
0.0
  0
LINE
  5
3BC
330
1F
100
AcDbEntity
  8
0-C_ハッチ
  6
Continuous
 62
     7
370
     9
100
AcDbLine
 10
-4400.399798419025
 20
-1636.035246944008
 30
0.0
 11
-4596.399798419024
 21
-1636.035246944008
 31
0.0
  0
LINE
  5
3BD
330
1F
100
AcDbEntity
  8
0-C_ハッチ
  6
Continuous
 62
     7
370
     9
100
AcDbLine
 10
-4400.399798419025
 20
-1599.965083078858
 30
0.0
 11
-4596.399798419024
 21
-1599.965083078858
 31
0.0
  0
LINE
  5
3BE
330
1F
100
AcDbEntity
  8
0-3_仕上げ
  6
Continuous
 62
     7
370
     9
100
AcDbLine
 10
-4399.399798419025
 20
-1512.750165011432
 30
0.0
 11
-4399.399798419025
 21
-2292.750165011431
 31
0.0
  0
LINE
  5
3BF
330
1F
100
AcDbEntity
  8
0-3_仕上げ
  6
Continuous
 62
     7
370
     9
100
AcDbLine
 10
-4400.399798419025
 20
-2292.750165011431
 30
0.0
 11
-4400.399798419025
 21
-1512.750165011432
 31
0.0
  0
LINE
  5
3C0
330
1F
100
AcDbEntity
  8
0-3_仕上げ
  6
Continuous
 62
     7
370
     9
100
AcDbLine
 10
-4597.399798419025
 20
-1512.750165011432
 30
0.0
 11
-4597.399798419025
 21
-2292.750165011431
 31
0.0
  0
LINE
  5
3C1
330
1F
100
AcDbEntity
  8
0-3_仕上げ
  6
Continuous
 62
     7
370
     9
100
AcDbLine
 10
-4596.399798419024
 20
-2292.750165011431
 30
0.0
 11
-4596.399798419024
 21
-1512.750165011432
 31
0.0
  0
LINE
  5
3C2
330
1F
100
AcDbEntity
  8
0-3_仕上げ
  6
Continuous
 62
     7
370
     9
100
AcDbLine
 10
-4400.399798419025
 20
-1592.750165011433
 30
0.0
 11
-4596.399798419024
 21
-1592.750165011433
 31
0.0
  0
LINE
  5
3C3
330
1F
100
AcDbEntity
  8
0-3_仕上げ
  6
Continuous
 62
     7
370
     9
100
AcDbLine
 10
-4596.399798419024
 20
-1595.750165011431
 30
0.0
 11
-4400.399798419025
 21
-1595.750165011431
 31
0.0
  0
LINE
  5
3C4
330
1F
100
AcDbEntity
  8
0-3_仕上げ
  6
Continuous
 62
     7
370
     9
100
AcDbLine
 10
-4260.399798419023
 20
-2212.750165011432
 30
0.0
 11
-4064.399798419024
 21
-2212.750165011432
 31
0.0
  0
LINE
  5
3C5
330
1F
100
AcDbEntity
  8
0-3_仕上げ
  6
Continuous
 62
     7
370
     9
100
AcDbLine
 10
-4260.399798419023
 20
-2209.750165011431
 30
0.0
 11
-4064.399798419024
 21
-2209.750165011431
 31
0.0
  0
LINE
  5
3C6
330
1F
100
AcDbEntity
  8
0-C_ハッチ
  6
Continuous
 62
     7
370
     9
100
AcDbLine
 10
-4260.399798419023
 20
-2205.53524694401
 30
0.0
 11
-4064.399798419024
 21
-2205.53524694401
 31
0.0
  0
LINE
  5
3C7
330
1F
100
AcDbEntity
  8
0-C_ハッチ
  6
Continuous
 62
     7
370
     9
100
AcDbLine
 10
-4260.399798419023
 20
-2172.03524694401
 30
0.0
 11
-4064.399798419024
 21
-2172.03524694401
 31
0.0
  0
LINE
  5
3C8
330
1F
100
AcDbEntity
  8
0-C_ハッチ
  6
Continuous
 62
     7
370
     9
100
AcDbLine
 10
-4260.399798419023
 20
-2138.535246944009
 30
0.0
 11
-4064.399798419024
 21
-2138.535246944009
 31
0.0
  0
LINE
  5
3C9
330
1F
100
AcDbEntity
  8
0-C_ハッチ
  6
Continuous
 62
     7
370
     9
100
AcDbLine
 10
-4260.399798419023
 20
-2105.035246944009
 30
0.0
 11
-4064.399798419024
 21
-2105.035246944009
 31
0.0
  0
LINE
  5
3CA
330
1F
100
AcDbEntity
  8
0-C_ハッチ
  6
Continuous
 62
     7
370
     9
100
AcDbLine
 10
-4260.399798419023
 20
-2071.535246944009
 30
0.0
 11
-4064.399798419024
 21
-2071.535246944009
 31
0.0
  0
LINE
  5
3CB
330
1F
100
AcDbEntity
  8
0-C_ハッチ
  6
Continuous
 62
     7
370
     9
100
AcDbLine
 10
-4260.399798419023
 20
-2038.035246944009
 30
0.0
 11
-4064.399798419024
 21
-2038.035246944009
 31
0.0
  0
LINE
  5
3CC
330
1F
100
AcDbEntity
  8
0-C_ハッチ
  6
Continuous
 62
     7
370
     9
100
AcDbLine
 10
-4260.399798419023
 20
-2004.535246944009
 30
0.0
 11
-4064.399798419024
 21
-2004.535246944009
 31
0.0
  0
LINE
  5
3CD
330
1F
100
AcDbEntity
  8
0-C_ハッチ
  6
Continuous
 62
     7
370
     9
100
AcDbLine
 10
-4260.399798419023
 20
-1971.035246944009
 30
0.0
 11
-4064.399798419024
 21
-1971.035246944009
 31
0.0
  0
LINE
  5
3CE
330
1F
100
AcDbEntity
  8
0-C_ハッチ
  6
Continuous
 62
     7
370
     9
100
AcDbLine
 10
-4260.399798419023
 20
-1937.535246944008
 30
0.0
 11
-4064.399798419024
 21
-1937.535246944008
 31
0.0
  0
LINE
  5
3CF
330
1F
100
AcDbEntity
  8
0-C_ハッチ
  6
Continuous
 62
     7
370
     9
100
AcDbLine
 10
-4260.399798419023
 20
-1904.035246944008
 30
0.0
 11
-4064.399798419024
 21
-1904.035246944008
 31
0.0
  0
LINE
  5
3D0
330
1F
100
AcDbEntity
  8
0-C_ハッチ
  6
Continuous
 62
     7
370
     9
100
AcDbLine
 10
-4260.399798419023
 20
-1870.535246944008
 30
0.0
 11
-4064.399798419024
 21
-1870.535246944008
 31
0.0
  0
LINE
  5
3D1
330
1F
100
AcDbEntity
  8
0-C_ハッチ
  6
Continuous
 62
     7
370
     9
100
AcDbLine
 10
-4260.399798419023
 20
-1837.035246944008
 30
0.0
 11
-4064.399798419024
 21
-1837.035246944008
 31
0.0
  0
LINE
  5
3D2
330
1F
100
AcDbEntity
  8
0-C_ハッチ
  6
Continuous
 62
     7
370
     9
100
AcDbLine
 10
-4260.399798419023
 20
-1803.535246944007
 30
0.0
 11
-4064.399798419024
 21
-1803.535246944007
 31
0.0
  0
LINE
  5
3D3
330
1F
100
AcDbEntity
  8
0-C_ハッチ
  6
Continuous
 62
     7
370
     9
100
AcDbLine
 10
-4260.399798419023
 20
-1770.035246944007
 30
0.0
 11
-4064.399798419024
 21
-1770.035246944007
 31
0.0
  0
LINE
  5
3D4
330
1F
100
AcDbEntity
  8
0-C_ハッチ
  6
Continuous
 62
     7
370
     9
100
AcDbLine
 10
-4260.399798419023
 20
-1736.535246944007
 30
0.0
 11
-4064.399798419024
 21
-1736.535246944007
 31
0.0
  0
LINE
  5
3D5
330
1F
100
AcDbEntity
  8
0-C_ハッチ
  6
Continuous
 62
     7
370
     9
100
AcDbLine
 10
-4260.399798419023
 20
-1669.535246944006
 30
0.0
 11
-4064.399798419024
 21
-1669.535246944006
 31
0.0
  0
LINE
  5
3D6
330
1F
100
AcDbEntity
  8
0-C_ハッチ
  6
Continuous
 62
     7
370
     9
100
AcDbLine
 10
-4260.399798419023
 20
-1703.035246944007
 30
0.0
 11
-4064.399798419024
 21
-1703.035246944007
 31
0.0
  0
LINE
  5
3D7
330
1F
100
AcDbEntity
  8
0-C_ハッチ
  6
Continuous
 62
     7
370
     9
100
AcDbLine
 10
-4260.399798419023
 20
-1636.035246944008
 30
0.0
 11
-4064.399798419024
 21
-1636.035246944008
 31
0.0
  0
LINE
  5
3D8
330
1F
100
AcDbEntity
  8
0-C_ハッチ
  6
Continuous
 62
     7
370
     9
100
AcDbLine
 10
-4260.399798419023
 20
-1599.965083078858
 30
0.0
 11
-4064.399798419024
 21
-1599.965083078858
 31
0.0
  0
LINE
  5
3D9
330
1F
100
AcDbEntity
  8
0-3_仕上げ
  6
Continuous
 62
     7
370
     9
100
AcDbLine
 10
-4326.399798419023
 20
-1512.750165011432
 30
0.0
 11
-4326.399798419023
 21
-2292.750165011431
 31
0.0
  0
LINE
  5
3DA
330
1F
100
AcDbEntity
  8
0-3_仕上げ
  6
Continuous
 62
     7
370
     9
100
AcDbLine
 10
-3998.399798419024
 20
-1512.750165011432
 30
0.0
 11
-3998.399798419024
 21
-2292.750165011431
 31
0.0
  0
LINE
  5
3DB
330
1F
100
AcDbEntity
  8
0-3_仕上げ
  6
Continuous
 62
     7
370
     9
100
AcDbLine
 10
-4261.399798419024
 20
-1512.750165011432
 30
0.0
 11
-4261.399798419024
 21
-2292.750165011431
 31
0.0
  0
LINE
  5
3DC
330
1F
100
AcDbEntity
  8
0-3_仕上げ
  6
Continuous
 62
     7
370
     9
100
AcDbLine
 10
-4260.399798419023
 20
-2292.750165011431
 30
0.0
 11
-4260.399798419023
 21
-1512.750165011432
 31
0.0
  0
LINE
  5
3DD
330
1F
100
AcDbEntity
  8
0-3_仕上げ
  6
Continuous
 62
     7
370
     9
100
AcDbLine
 10
-4063.399798419023
 20
-1512.750165011432
 30
0.0
 11
-4063.399798419023
 21
-2292.750165011431
 31
0.0
  0
LINE
  5
3DE
330
1F
100
AcDbEntity
  8
0-3_仕上げ
  6
Continuous
 62
     7
370
     9
100
AcDbLine
 10
-4064.399798419024
 20
-2292.750165011431
 30
0.0
 11
-4064.399798419024
 21
-1512.750165011432
 31
0.0
  0
LINE
  5
3DF
330
1F
100
AcDbEntity
  8
0-3_仕上げ
  6
Continuous
 62
     7
370
     9
100
AcDbLine
 10
-4260.399798419023
 20
-1592.750165011433
 30
0.0
 11
-4064.399798419024
 21
-1592.750165011433
 31
0.0
  0
LINE
  5
3E0
330
1F
100
AcDbEntity
  8
0-3_仕上げ
  6
Continuous
 62
     7
370
     9
100
AcDbLine
 10
-4064.399798419024
 20
-1595.750165011431
 30
0.0
 11
-4260.399798419023
 21
-1595.750165011431
 31
0.0
  0
LINE
  5
3E1
330
1F
100
AcDbEntity
  8
0-4_枠
  6
Continuous
 62
    92
370
    13
100
AcDbLine
 10
-4697.399798419024
 20
-1479.750165011432
 30
0.0
 11
-3963.399798419023
 21
-1479.750165011432
 31
0.0
  0
LINE
  5
3E2
330
1F
100
AcDbEntity
  8
0-4_枠
  6
Continuous
 62
    92
370
    13
100
AcDbLine
 10
-4667.399798419024
 20
-1509.750165011432
 30
0.0
 11
-3993.399798419023
 21
-1509.750165011432
 31
0.0
  0
LINE
  5
3E3
330
1F
100
AcDbEntity
  8
0-4_枠
  6
Continuous
 62
    92
370
    13
100
AcDbLine
 10
-2465.799671069995
 20
-1124.750165011432
 30
0.0
 11
-1731.799671069995
 21
-1124.750165011432
 31
0.0
  0
LINE
  5
3E4
330
1F
100
AcDbEntity
  8
0-4_枠
  6
Continuous
 62
    92
370
    13
100
AcDbLine
 10
-2435.799671069995
 20
-1154.750165011432
 30
0.0
 11
-1761.799671069995
 21
-1154.750165011432
 31
0.0
  0
LINE
  5
3E5
330
1F
100
AcDbEntity
  8
0-2_扉
  6
Continuous
 62
    92
370
    13
100
AcDbLine
 10
-4329.399798419023
 20
-1512.750165011432
 30
0.0
 11
-4329.399798419023
 21
-2292.750165011432
 31
0.0
  0
LINE
  5
3E6
330
1F
100
AcDbEntity
  8
0-2_扉
  6
Continuous
 62
    92
370
    13
100
AcDbLine
 10
-4331.399798419024
 20
-1512.750165011432
 30
0.0
 11
-4331.399798419024
 21
-2292.750165011432
 31
0.0
  0
LINE
  5
3E7
330
1F
100
AcDbEntity
  8
0-2_扉
  6
Continuous
 62
    92
370
    13
100
AcDbLine
 10
-4329.399798419023
 20
-2292.750165011432
 30
0.0
 11
-3995.399798419023
 21
-2292.750165011432
 31
0.0
  0
LINE
  5
3E8
330
1F
100
AcDbEntity
  8
0-2_扉
  6
Continuous
 62
    92
370
    13
100
AcDbLine
 10
-4329.399798419023
 20
-1512.750165011432
 30
0.0
 11
-3995.399798419023
 21
-1512.750165011432
 31
0.0
  0
LINE
  5
3E9
330
1F
100
AcDbEntity
  8
0-2_扉
  6
Continuous
 62
    92
370
    13
100
AcDbLine
 10
-3995.399798419023
 20
-2292.750165011432
 30
0.0
 11
-3995.399798419023
 21
-1512.750165011432
 31
0.0
  0
LINE
  5
3EA
330
1F
100
AcDbEntity
  8
0-2_扉
  6
Continuous
 62
    92
370
    13
100
AcDbLine
 10
-4331.399798419024
 20
-1512.750165011432
 30
0.0
 11
-4665.399798419024
 21
-1512.750165011432
 31
0.0
  0
LINE
  5
3EB
330
1F
100
AcDbEntity
  8
0-2_扉
  6
Continuous
 62
    92
370
    13
100
AcDbLine
 10
-4331.399798419024
 20
-2292.750165011432
 30
0.0
 11
-4665.399798419024
 21
-2292.750165011432
 31
0.0
  0
LINE
  5
3EC
330
1F
100
AcDbEntity
  8
0-2_扉
  6
Continuous
 62
    92
370
    13
100
AcDbLine
 10
-4665.399798419024
 20
-1512.750165011432
 30
0.0
 11
-4665.399798419024
 21
-2292.750165011432
 31
0.0
  0
LINE
  5
3ED
330
1F
100
AcDbEntity
  8
0-2_扉
  6
Continuous
 62
    92
370
    13
100
AcDbLine
 10
-2097.799671069995
 20
-2292.750165011432
 30
0.0
 11
-1763.799671069995
 21
-2292.750165011432
 31
0.0
  0
LINE
  5
3EE
330
1F
100
AcDbEntity
  8
0-2_扉
  6
Continuous
 62
    92
370
    13
100
AcDbLine
 10
-2099.799671069996
 20
-2292.750165011432
 30
0.0
 11
-2433.799671069995
 21
-2292.750165011432
 31
0.0
  0
LINE
  5
3EF
330
1F
100
AcDbEntity
  8
0-2_扉
  6
Continuous
 62
    92
370
    13
100
AcDbLine
 10
-2097.799671069995
 20
-1157.750165011432
 30
0.0
 11
-2097.799671069995
 21
-2292.750165011432
 31
0.0
  0
LINE
  5
3F0
330
1F
100
AcDbEntity
  8
0-2_扉
  6
Continuous
 62
    92
370
    13
100
AcDbLine
 10
-2099.799671069996
 20
-1157.750165011432
 30
0.0
 11
-2099.799671069996
 21
-2292.750165011432
 31
0.0
  0
LINE
  5
3F1
330
1F
100
AcDbEntity
  8
0-2_扉
  6
Continuous
 62
    92
370
    13
100
AcDbLine
 10
-2097.799671069995
 20
-1157.750165011432
 30
0.0
 11
-1763.799671069995
 21
-1157.750165011432
 31
0.0
  0
LINE
  5
3F2
330
1F
100
AcDbEntity
  8
0-2_扉
  6
Continuous
 62
    92
370
    13
100
AcDbLine
 10
-1763.799671069995
 20
-2292.750165011432
 30
0.0
 11
-1763.799671069995
 21
-1157.750165011432
 31
0.0
  0
LINE
  5
3F3
330
1F
100
AcDbEntity
  8
0-2_扉
  6
Continuous
 62
    92
370
    13
100
AcDbLine
 10
-2099.799671069996
 20
-1157.750165011432
 30
0.0
 11
-2433.799671069995
 21
-1157.750165011432
 31
0.0
  0
LINE
  5
3F4
330
1F
100
AcDbEntity
  8
0-2_扉
  6
Continuous
 62
    92
370
    13
100
AcDbLine
 10
-2433.799671069995
 20
-1157.750165011432
 30
0.0
 11
-2433.799671069995
 21
-2292.750165011432
 31
0.0
  0
LINE
  5
3F5
330
1F
100
AcDbEntity
  8
0-B_寸法
  6
Continuous
 62
   120
370
     5
100
AcDbLine
 10
-4997.399798419024
 20
-1512.750165011432
 30
0.0
 11
-4997.399798419024
 21
-2292.750165011432
 31
0.0
  0
LINE
  5
3F6
330
1F
100
AcDbEntity
  8
0-B_寸法
  6
Continuous
 62
   120
370
     5
100
AcDbLine
 10
-4997.399798419024
 20
-1512.750165011432
 30
0.0
 11
-4747.399798419024
 21
-1512.750165011432
 31
0.0
  0
LINE
  5
3F7
330
1F
100
AcDbEntity
  8
0-B_寸法
  6
Continuous
 62
   120
370
     5
100
AcDbLine
 10
-4997.399798419024
 20
-2292.750165011432
 30
0.0
 11
-4747.399798419024
 21
-2292.750165011432
 31
0.0
  0
LINE
  5
3F8
330
1F
100
AcDbEntity
  8
0-B_寸法
  6
Continuous
 62
   120
370
     5
100
AcDbLine
 10
-2765.799671069995
 20
-2292.750165011432
 30
0.0
 11
-2515.799671069996
 21
-2292.750165011432
 31
0.0
  0
LINE
  5
3F9
330
1F
100
AcDbEntity
  8
0-B_寸法
  6
Continuous
 62
   120
370
     5
100
AcDbLine
 10
-2765.799671069995
 20
-1157.750165011432
 30
0.0
 11
-2765.799671069995
 21
-2292.750165011432
 31
0.0
  0
LINE
  5
3FA
330
1F
100
AcDbEntity
  8
0-B_寸法
  6
Continuous
 62
   120
370
     5
100
AcDbLine
 10
-2765.799671069995
 20
-1157.750165011432
 30
0.0
 11
-2515.799671069996
 21
-1157.750165011432
 31
0.0
  0
LWPOLYLINE
  5
3FB
330
1F
100
AcDbEntity
  8
0-B_寸法
  6
Continuous
 62
     7
370
     9
100
AcDbPolyline
 90
        4
 70
     1
 43
3.0
 10
-4995.899798419023
 20
-1512.750165011432
 42
0.4142135623731
 10
-4997.399798419024
 20
-1511.250165011432
 42
0.4142135623731
 10
-4998.899798419024
 20
-1512.750165011432
 42
0.4142135623731
 10
-4997.399798419024
 20
-1514.250165011432
 42
0.4142135623731
  0
LWPOLYLINE
  5
3FC
330
1F
100
AcDbEntity
  8
0-B_寸法
  6
Continuous
 62
     7
370
     9
100
AcDbPolyline
 90
        4
 70
     1
 43
3.0
 10
-4995.899798419023
 20
-2292.750165011432
 42
0.4142135623731
 10
-4997.399798419024
 20
-2291.250165011432
 42
0.4142135623731
 10
-4998.899798419024
 20
-2292.750165011432
 42
0.4142135623731
 10
-4997.399798419024
 20
-2294.250165011432
 42
0.4142135623731
  0
LWPOLYLINE
  5
3FD
330
1F
100
AcDbEntity
  8
0-B_寸法
  6
Continuous
 62
     7
370
     9
100
AcDbPolyline
 90
        4
 70
     1
 43
3.0
 10
-2764.299671069995
 20
-2292.750165011432
 42
0.4142135623731
 10
-2765.799671069995
 20
-2291.250165011432
 42
0.4142135623731
 10
-2767.299671069995
 20
-2292.750165011432
 42
0.4142135623731
 10
-2765.799671069995
 20
-2294.250165011432
 42
0.4142135623731
  0
LWPOLYLINE
  5
3FE
330
1F
100
AcDbEntity
  8
0-B_寸法
  6
Continuous
 62
     7
370
     9
100
AcDbPolyline
 90
        4
 70
     1
 43
3.0
 10
-2764.299671069995
 20
-1157.750165011432
 42
0.4142135623731
 10
-2765.799671069995
 20
-1156.250165011432
 42
0.4142135623731
 10
-2767.299671069995
 20
-1157.750165011432
 42
0.4142135623731
 10
-2765.799671069995
 20
-1159.250165011432
 42
0.4142135623731
  0
LINE
  5
3FF
330
1F
100
AcDbEntity
  8
0-0_補助線
  6
JWW_HOJO
 62
     7
370
     9
100
AcDbLine
 10
-5490.000018557987
 20
-1479.750165011432
 30
0.0
 11
-3258.399798419024
 21
-1479.750165011432
 31
0.0
  0
LINE
  5
400
330
1F
100
AcDbEntity
  8
0-4_枠
  6
Continuous
 62
    92
370
    13
100
AcDbLine
 10
-4697.399798419024
 20
-2326.750165011432
 30
0.0
 11
-4697.399798419024
 21
-1479.750165011432
 31
0.0
  0
LINE
  5
401
330
1F
100
AcDbEntity
  8
0-4_枠
  6
Continuous
 62
    92
370
    13
100
AcDbLine
 10
-3963.399798419023
 20
-2326.750165011432
 30
0.0
 11
-3963.399798419023
 21
-1479.750165011432
 31
0.0
  0
LINE
  5
402
330
1F
100
AcDbEntity
  8
0-4_枠
  6
Continuous
 62
    92
370
    13
100
AcDbLine
 10
-2465.799671069995
 20
-2326.750165011432
 30
0.0
 11
-2465.799671069995
 21
-1124.750165011432
 31
0.0
  0
LINE
  5
403
330
1F
100
AcDbEntity
  8
0-4_枠
  6
Continuous
 62
    92
370
    13
100
AcDbLine
 10
-1731.799671069995
 20
-2326.750165011432
 30
0.0
 11
-1731.799671069995
 21
-1124.750165011432
 31
0.0
  0
LINE
  5
404
330
1F
100
AcDbEntity
  8
0-4_枠
  6
Continuous
 62
    92
370
    13
100
AcDbLine
 10
-4667.399798419024
 20
-2326.750165011432
 30
0.0
 11
-4667.399798419024
 21
-1479.750165011432
 31
0.0
  0
LINE
  5
405
330
1F
100
AcDbEntity
  8
0-4_枠
  6
Continuous
 62
    92
370
    13
100
AcDbLine
 10
-3993.399798419023
 20
-2326.750165011432
 30
0.0
 11
-3993.399798419023
 21
-1479.750165011432
 31
0.0
  0
LINE
  5
406
330
1F
100
AcDbEntity
  8
0-4_枠
  6
Continuous
 62
    92
370
    13
100
AcDbLine
 10
-2435.799671069995
 20
-2326.750165011432
 30
0.0
 11
-2435.799671069995
 21
-1124.750165011432
 31
0.0
  0
LINE
  5
407
330
1F
100
AcDbEntity
  8
0-4_枠
  6
Continuous
 62
    92
370
    13
100
AcDbLine
 10
-1761.799671069995
 20
-2326.750165011432
 30
0.0
 11
-1761.799671069995
 21
-1124.750165011432
 31
0.0
  0
LINE
  5
408
330
1F
100
AcDbEntity
  8
0-0_補助線
  6
JWW_HOJO
 62
   120
370
     5
100
AcDbLine
 10
-5490.000018557987
 20
-2222.750165011432
 30
0.0
 11
-1026.799671069995
 21
-2222.750165011432
 31
0.0
  0
MTEXT
  5
409
330
1F
100
AcDbEntity
  8
0-B_寸法
  6
Continuous
 62
     7
370
    70
100
AcDbMText
 10
-2780.799671069995
 20
-1940.425165011432
 30
0.0
 40
57.14999999999999
 41
412.5
 46
0.0
 71
     7
 72
     1
  1
{\fＭＳ ゴシック|b0|i0|c128|p49;ＤＨ＝1,135}
 11
6.123031769111886E-17
 21
1.0
 31
0.0
 73
     1
 44
1.0
  0
MTEXT
  5
40A
330
1F
100
AcDbEntity
  8
0-B_寸法
  6
Continuous
 62
     7
370
    70
100
AcDbMText
 10
-5012.399798419024
 20
-2080.425165011432
 30
0.0
 40
57.15
 41
337.5
 46
0.0
 71
     7
 72
     1
  1
{\fＭＳ ゴシック|b0|i0|c128|p49;ＤＨ＝780}
 11
6.123031769111886E-17
 21
1.0
 31
0.0
 73
     1
 44
1.0
  0
LINE
  5
40B
330
1F
100
AcDbEntity
  8
0-3_仕上げ
  6
Continuous
 62
     7
370
     9
100
AcDbLine
 10
-1832.799671069995
 20
-2292.750165011432
 30
0.0
 11
-1832.799671069995
 21
-1157.750165011432
 31
0.0
  0
LINE
  5
40C
330
1F
100
AcDbEntity
  8
0-3_仕上げ
  6
Continuous
 62
     7
370
     9
100
AcDbLine
 10
-1831.799671069995
 20
-1157.750165011432
 30
0.0
 11
-1831.799671069995
 21
-2292.750165011432
 31
0.0
  0
LINE
  5
40D
330
1F
100
AcDbEntity
  8
0-3_仕上げ
  6
Continuous
 62
     7
370
     9
100
AcDbLine
 10
-2028.799671069994
 20
-2292.750165011432
 30
0.0
 11
-2028.799671069994
 21
-1157.750165011432
 31
0.0
  0
LINE
  5
40E
330
1F
100
AcDbEntity
  8
0-3_仕上げ
  6
Continuous
 62
     7
370
     9
100
AcDbLine
 10
-2029.799671069995
 20
-1157.750165011432
 30
0.0
 11
-2029.799671069995
 21
-2292.750165011432
 31
0.0
  0
LINE
  5
40F
330
1F
100
AcDbEntity
  8
0-3_仕上げ
  6
Continuous
 62
     7
370
     9
100
AcDbLine
 10
-1766.799671069996
 20
-1157.750165011432
 30
0.0
 11
-1766.799671069996
 21
-2292.750165011432
 31
0.0
  0
LINE
  5
410
330
1F
100
AcDbEntity
  8
0-3_仕上げ
  6
Continuous
 62
     7
370
     9
100
AcDbLine
 10
-1832.799671069995
 20
-1240.750165011431
 30
0.0
 11
-2028.799671069994
 21
-1240.750165011431
 31
0.0
  0
LINE
  5
411
330
1F
100
AcDbEntity
  8
0-3_仕上げ
  6
Continuous
 62
     7
370
     9
100
AcDbLine
 10
-2094.799671069994
 20
-1157.750165011432
 30
0.0
 11
-2094.799671069994
 21
-2292.750165011432
 31
0.0
  0
LINE
  5
412
330
1F
100
AcDbEntity
  8
0-3_仕上げ
  6
Continuous
 62
     7
370
     9
100
AcDbLine
 10
-2028.799671069994
 20
-1237.750165011432
 30
0.0
 11
-1832.799671069995
 21
-1237.750165011432
 31
0.0
  0
LINE
  5
413
330
1F
100
AcDbEntity
  8
0-C_ハッチ
  6
Continuous
 62
     7
370
     9
100
AcDbLine
 10
-2028.799671069994
 20
-1254.965083078857
 30
0.0
 11
-1832.799671069995
 21
-1254.965083078857
 31
0.0
  0
LINE
  5
414
330
1F
100
AcDbEntity
  8
0-C_ハッチ
  6
Continuous
 62
     7
370
     9
100
AcDbLine
 10
-2028.799671069994
 20
-1291.035246944007
 30
0.0
 11
-1832.799671069995
 21
-1291.035246944007
 31
0.0
  0
LINE
  5
415
330
1F
100
AcDbEntity
  8
0-C_ハッチ
  6
Continuous
 62
     7
370
     9
100
AcDbLine
 10
-2028.799671069994
 20
-1358.035246944005
 30
0.0
 11
-1832.799671069995
 21
-1358.035246944005
 31
0.0
  0
LINE
  5
416
330
1F
100
AcDbEntity
  8
0-C_ハッチ
  6
Continuous
 62
     7
370
     9
100
AcDbLine
 10
-2028.799671069994
 20
-1324.535246944005
 30
0.0
 11
-1832.799671069995
 21
-1324.535246944005
 31
0.0
  0
LINE
  5
417
330
1F
100
AcDbEntity
  8
0-C_ハッチ
  6
Continuous
 62
     7
370
     9
100
AcDbLine
 10
-2028.799671069994
 20
-1391.535246944006
 30
0.0
 11
-1832.799671069995
 21
-1391.535246944006
 31
0.0
  0
LINE
  5
418
330
1F
100
AcDbEntity
  8
0-C_ハッチ
  6
Continuous
 62
     7
370
     9
100
AcDbLine
 10
-2028.799671069994
 20
-1425.035246944006
 30
0.0
 11
-1832.799671069995
 21
-1425.035246944006
 31
0.0
  0
LINE
  5
419
330
1F
100
AcDbEntity
  8
0-C_ハッチ
  6
Continuous
 62
     7
370
     9
100
AcDbLine
 10
-2028.799671069994
 20
-1458.535246944006
 30
0.0
 11
-1832.799671069995
 21
-1458.535246944006
 31
0.0
  0
LINE
  5
41A
330
1F
100
AcDbEntity
  8
0-C_ハッチ
  6
Continuous
 62
     7
370
     9
100
AcDbLine
 10
-2028.799671069994
 20
-1492.035246944006
 30
0.0
 11
-1832.799671069995
 21
-1492.035246944006
 31
0.0
  0
LINE
  5
41B
330
1F
100
AcDbEntity
  8
0-C_ハッチ
  6
Continuous
 62
     7
370
     9
100
AcDbLine
 10
-2028.799671069994
 20
-1525.535246944007
 30
0.0
 11
-1832.799671069995
 21
-1525.535246944007
 31
0.0
  0
LINE
  5
41C
330
1F
100
AcDbEntity
  8
0-C_ハッチ
  6
Continuous
 62
     7
370
     9
100
AcDbLine
 10
-2028.799671069994
 20
-1559.035246944007
 30
0.0
 11
-1832.799671069995
 21
-1559.035246944007
 31
0.0
  0
LINE
  5
41D
330
1F
100
AcDbEntity
  8
0-C_ハッチ
  6
Continuous
 62
     7
370
     9
100
AcDbLine
 10
-2028.799671069994
 20
-1592.535246944007
 30
0.0
 11
-1832.799671069995
 21
-1592.535246944007
 31
0.0
  0
LINE
  5
41E
330
1F
100
AcDbEntity
  8
0-C_ハッチ
  6
Continuous
 62
     7
370
     9
100
AcDbLine
 10
-2028.799671069994
 20
-1626.035246944007
 30
0.0
 11
-1832.799671069995
 21
-1626.035246944007
 31
0.0
  0
LINE
  5
41F
330
1F
100
AcDbEntity
  8
0-C_ハッチ
  6
Continuous
 62
     7
370
     9
100
AcDbLine
 10
-2028.799671069994
 20
-1659.535246944007
 30
0.0
 11
-1832.799671069995
 21
-1659.535246944007
 31
0.0
  0
LINE
  5
420
330
1F
100
AcDbEntity
  8
0-C_ハッチ
  6
Continuous
 62
     7
370
     9
100
AcDbLine
 10
-2028.799671069994
 20
-1693.035246944008
 30
0.0
 11
-1832.799671069995
 21
-1693.035246944008
 31
0.0
  0
LINE
  5
421
330
1F
100
AcDbEntity
  8
0-C_ハッチ
  6
Continuous
 62
     7
370
     9
100
AcDbLine
 10
-2028.799671069994
 20
-1726.535246944008
 30
0.0
 11
-1832.799671069995
 21
-1726.535246944008
 31
0.0
  0
LINE
  5
422
330
1F
100
AcDbEntity
  8
0-C_ハッチ
  6
Continuous
 62
     7
370
     9
100
AcDbLine
 10
-2028.799671069994
 20
-1760.035246944008
 30
0.0
 11
-1832.799671069995
 21
-1760.035246944008
 31
0.0
  0
LINE
  5
423
330
1F
100
AcDbEntity
  8
0-C_ハッチ
  6
Continuous
 62
     7
370
     9
100
AcDbLine
 10
-2028.799671069994
 20
-1793.535246944008
 30
0.0
 11
-1832.799671069995
 21
-1793.535246944008
 31
0.0
  0
LINE
  5
424
330
1F
100
AcDbEntity
  8
0-C_ハッチ
  6
Continuous
 62
     7
370
     9
100
AcDbLine
 10
-2028.799671069994
 20
-1827.035246944009
 30
0.0
 11
-1832.799671069995
 21
-1827.035246944009
 31
0.0
  0
LINE
  5
425
330
1F
100
AcDbEntity
  8
0-C_ハッチ
  6
Continuous
 62
     7
370
     9
100
AcDbLine
 10
-2028.799671069994
 20
-1860.535246944009
 30
0.0
 11
-1832.799671069995
 21
-1860.535246944009
 31
0.0
  0
LINE
  5
426
330
1F
100
AcDbEntity
  8
0-C_ハッチ
  6
Continuous
 62
     7
370
     9
100
AcDbLine
 10
-2028.799671069994
 20
-1894.035246944009
 30
0.0
 11
-1832.799671069995
 21
-1894.035246944009
 31
0.0
  0
LINE
  5
427
330
1F
100
AcDbEntity
  8
0-C_ハッチ
  6
Continuous
 62
     7
370
     9
100
AcDbLine
 10
-2028.799671069994
 20
-1927.535246944009
 30
0.0
 11
-1832.799671069995
 21
-1927.535246944009
 31
0.0
  0
LINE
  5
428
330
1F
100
AcDbEntity
  8
0-C_ハッチ
  6
Continuous
 62
     7
370
     9
100
AcDbLine
 10
-2028.799671069994
 20
-1961.035246944009
 30
0.0
 11
-1832.799671069995
 21
-1961.035246944009
 31
0.0
  0
LINE
  5
429
330
1F
100
AcDbEntity
  8
0-C_ハッチ
  6
Continuous
 62
     7
370
     9
100
AcDbLine
 10
-2028.799671069994
 20
-1994.53524694401
 30
0.0
 11
-1832.799671069995
 21
-1994.53524694401
 31
0.0
  0
LINE
  5
42A
330
1F
100
AcDbEntity
  8
0-C_ハッチ
  6
Continuous
 62
     7
370
     9
100
AcDbLine
 10
-2028.799671069994
 20
-2028.03524694401
 30
0.0
 11
-1832.799671069995
 21
-2028.03524694401
 31
0.0
  0
LINE
  5
42B
330
1F
100
AcDbEntity
  8
0-C_ハッチ
  6
Continuous
 62
     7
370
     9
100
AcDbLine
 10
-2028.799671069994
 20
-2061.53524694401
 30
0.0
 11
-1832.799671069995
 21
-2061.53524694401
 31
0.0
  0
LINE
  5
42C
330
1F
100
AcDbEntity
  8
0-C_ハッチ
  6
Continuous
 62
     7
370
     9
100
AcDbLine
 10
-2028.799671069994
 20
-2095.03524694401
 30
0.0
 11
-1832.799671069995
 21
-2095.03524694401
 31
0.0
  0
LINE
  5
42D
330
1F
100
AcDbEntity
  8
0-C_ハッチ
  6
Continuous
 62
     7
370
     9
100
AcDbLine
 10
-2028.799671069994
 20
-2128.53524694401
 30
0.0
 11
-1832.799671069995
 21
-2128.53524694401
 31
0.0
  0
LINE
  5
42E
330
1F
100
AcDbEntity
  8
0-C_ハッチ
  6
Continuous
 62
     7
370
     9
100
AcDbLine
 10
-2028.799671069994
 20
-2162.035246944011
 30
0.0
 11
-1832.799671069995
 21
-2162.035246944011
 31
0.0
  0
LINE
  5
42F
330
1F
100
AcDbEntity
  8
0-C_ハッチ
  6
Continuous
 62
     7
370
     9
100
AcDbLine
 10
-2028.799671069994
 20
-2195.535246944011
 30
0.0
 11
-1832.799671069995
 21
-2195.535246944011
 31
0.0
  0
LINE
  5
430
330
1F
100
AcDbEntity
  8
0-3_仕上げ
  6
Continuous
 62
     7
370
     9
100
AcDbLine
 10
-2364.799671069995
 20
-2292.750165011432
 30
0.0
 11
-2364.799671069995
 21
-1157.750165011432
 31
0.0
  0
LINE
  5
431
330
1F
100
AcDbEntity
  8
0-3_仕上げ
  6
Continuous
 62
     7
370
     9
100
AcDbLine
 10
-2365.799671069996
 20
-1157.750165011432
 30
0.0
 11
-2365.799671069996
 21
-2292.750165011432
 31
0.0
  0
LINE
  5
432
330
1F
100
AcDbEntity
  8
0-3_仕上げ
  6
Continuous
 62
     7
370
     9
100
AcDbLine
 10
-2168.799671069996
 20
-2292.750165011432
 30
0.0
 11
-2168.799671069996
 21
-1157.750165011432
 31
0.0
  0
LINE
  5
433
330
1F
100
AcDbEntity
  8
0-3_仕上げ
  6
Continuous
 62
     7
370
     9
100
AcDbLine
 10
-2167.799671069995
 20
-1157.750165011432
 30
0.0
 11
-2167.799671069995
 21
-2292.750165011432
 31
0.0
  0
LINE
  5
434
330
1F
100
AcDbEntity
  8
0-3_仕上げ
  6
Continuous
 62
     7
370
     9
100
AcDbLine
 10
-2430.799671069995
 20
-1157.750165011432
 30
0.0
 11
-2430.799671069995
 21
-2292.750165011432
 31
0.0
  0
LINE
  5
435
330
1F
100
AcDbEntity
  8
0-3_仕上げ
  6
Continuous
 62
     7
370
     9
100
AcDbLine
 10
-2364.799671069995
 20
-1240.750165011431
 30
0.0
 11
-2168.799671069996
 21
-1240.750165011431
 31
0.0
  0
LINE
  5
436
330
1F
100
AcDbEntity
  8
0-3_仕上げ
  6
Continuous
 62
     7
370
     9
100
AcDbLine
 10
-2168.799671069996
 20
-1237.750165011432
 30
0.0
 11
-2364.799671069995
 21
-1237.750165011432
 31
0.0
  0
LINE
  5
437
330
1F
100
AcDbEntity
  8
0-C_ハッチ
  6
Continuous
 62
     7
370
     9
100
AcDbLine
 10
-2168.799671069996
 20
-1254.965083078857
 30
0.0
 11
-2364.799671069995
 21
-1254.965083078857
 31
0.0
  0
LINE
  5
438
330
1F
100
AcDbEntity
  8
0-C_ハッチ
  6
Continuous
 62
     7
370
     9
100
AcDbLine
 10
-2168.799671069996
 20
-1291.035246944007
 30
0.0
 11
-2364.799671069995
 21
-1291.035246944007
 31
0.0
  0
LINE
  5
439
330
1F
100
AcDbEntity
  8
0-C_ハッチ
  6
Continuous
 62
     7
370
     9
100
AcDbLine
 10
-2168.799671069996
 20
-1358.035246944005
 30
0.0
 11
-2364.799671069995
 21
-1358.035246944005
 31
0.0
  0
LINE
  5
43A
330
1F
100
AcDbEntity
  8
0-C_ハッチ
  6
Continuous
 62
     7
370
     9
100
AcDbLine
 10
-2168.799671069996
 20
-1324.535246944005
 30
0.0
 11
-2364.799671069995
 21
-1324.535246944005
 31
0.0
  0
LINE
  5
43B
330
1F
100
AcDbEntity
  8
0-C_ハッチ
  6
Continuous
 62
     7
370
     9
100
AcDbLine
 10
-2168.799671069996
 20
-1391.535246944006
 30
0.0
 11
-2364.799671069995
 21
-1391.535246944006
 31
0.0
  0
LINE
  5
43C
330
1F
100
AcDbEntity
  8
0-C_ハッチ
  6
Continuous
 62
     7
370
     9
100
AcDbLine
 10
-2168.799671069996
 20
-1425.035246944006
 30
0.0
 11
-2364.799671069995
 21
-1425.035246944006
 31
0.0
  0
LINE
  5
43D
330
1F
100
AcDbEntity
  8
0-C_ハッチ
  6
Continuous
 62
     7
370
     9
100
AcDbLine
 10
-2168.799671069996
 20
-1458.535246944006
 30
0.0
 11
-2364.799671069995
 21
-1458.535246944006
 31
0.0
  0
LINE
  5
43E
330
1F
100
AcDbEntity
  8
0-C_ハッチ
  6
Continuous
 62
     7
370
     9
100
AcDbLine
 10
-2168.799671069996
 20
-1492.035246944006
 30
0.0
 11
-2364.799671069995
 21
-1492.035246944006
 31
0.0
  0
LINE
  5
43F
330
1F
100
AcDbEntity
  8
0-C_ハッチ
  6
Continuous
 62
     7
370
     9
100
AcDbLine
 10
-2168.799671069996
 20
-1525.535246944007
 30
0.0
 11
-2364.799671069995
 21
-1525.535246944007
 31
0.0
  0
LINE
  5
440
330
1F
100
AcDbEntity
  8
0-C_ハッチ
  6
Continuous
 62
     7
370
     9
100
AcDbLine
 10
-2168.799671069996
 20
-1559.035246944007
 30
0.0
 11
-2364.799671069995
 21
-1559.035246944007
 31
0.0
  0
LINE
  5
441
330
1F
100
AcDbEntity
  8
0-C_ハッチ
  6
Continuous
 62
     7
370
     9
100
AcDbLine
 10
-2168.799671069996
 20
-1592.535246944007
 30
0.0
 11
-2364.799671069995
 21
-1592.535246944007
 31
0.0
  0
LINE
  5
442
330
1F
100
AcDbEntity
  8
0-C_ハッチ
  6
Continuous
 62
     7
370
     9
100
AcDbLine
 10
-2168.799671069996
 20
-1626.035246944007
 30
0.0
 11
-2364.799671069995
 21
-1626.035246944007
 31
0.0
  0
LINE
  5
443
330
1F
100
AcDbEntity
  8
0-C_ハッチ
  6
Continuous
 62
     7
370
     9
100
AcDbLine
 10
-2168.799671069996
 20
-1659.535246944007
 30
0.0
 11
-2364.799671069995
 21
-1659.535246944007
 31
0.0
  0
LINE
  5
444
330
1F
100
AcDbEntity
  8
0-C_ハッチ
  6
Continuous
 62
     7
370
     9
100
AcDbLine
 10
-2168.799671069996
 20
-1693.035246944008
 30
0.0
 11
-2364.799671069995
 21
-1693.035246944008
 31
0.0
  0
LINE
  5
445
330
1F
100
AcDbEntity
  8
0-C_ハッチ
  6
Continuous
 62
     7
370
     9
100
AcDbLine
 10
-2168.799671069996
 20
-1726.535246944008
 30
0.0
 11
-2364.799671069995
 21
-1726.535246944008
 31
0.0
  0
LINE
  5
446
330
1F
100
AcDbEntity
  8
0-C_ハッチ
  6
Continuous
 62
     7
370
     9
100
AcDbLine
 10
-2168.799671069996
 20
-1760.035246944008
 30
0.0
 11
-2364.799671069995
 21
-1760.035246944008
 31
0.0
  0
LINE
  5
447
330
1F
100
AcDbEntity
  8
0-C_ハッチ
  6
Continuous
 62
     7
370
     9
100
AcDbLine
 10
-2168.799671069996
 20
-1793.535246944008
 30
0.0
 11
-2364.799671069995
 21
-1793.535246944008
 31
0.0
  0
LINE
  5
448
330
1F
100
AcDbEntity
  8
0-C_ハッチ
  6
Continuous
 62
     7
370
     9
100
AcDbLine
 10
-2168.799671069996
 20
-1827.035246944009
 30
0.0
 11
-2364.799671069995
 21
-1827.035246944009
 31
0.0
  0
LINE
  5
449
330
1F
100
AcDbEntity
  8
0-C_ハッチ
  6
Continuous
 62
     7
370
     9
100
AcDbLine
 10
-2168.799671069996
 20
-1860.535246944009
 30
0.0
 11
-2364.799671069995
 21
-1860.535246944009
 31
0.0
  0
LINE
  5
44A
330
1F
100
AcDbEntity
  8
0-C_ハッチ
  6
Continuous
 62
     7
370
     9
100
AcDbLine
 10
-2168.799671069996
 20
-1894.035246944009
 30
0.0
 11
-2364.799671069995
 21
-1894.035246944009
 31
0.0
  0
LINE
  5
44B
330
1F
100
AcDbEntity
  8
0-C_ハッチ
  6
Continuous
 62
     7
370
     9
100
AcDbLine
 10
-2168.799671069996
 20
-1927.535246944009
 30
0.0
 11
-2364.799671069995
 21
-1927.535246944009
 31
0.0
  0
LINE
  5
44C
330
1F
100
AcDbEntity
  8
0-C_ハッチ
  6
Continuous
 62
     7
370
     9
100
AcDbLine
 10
-2168.799671069996
 20
-1961.035246944009
 30
0.0
 11
-2364.799671069995
 21
-1961.035246944009
 31
0.0
  0
LINE
  5
44D
330
1F
100
AcDbEntity
  8
0-C_ハッチ
  6
Continuous
 62
     7
370
     9
100
AcDbLine
 10
-2168.799671069996
 20
-1994.53524694401
 30
0.0
 11
-2364.799671069995
 21
-1994.53524694401
 31
0.0
  0
LINE
  5
44E
330
1F
100
AcDbEntity
  8
0-C_ハッチ
  6
Continuous
 62
     7
370
     9
100
AcDbLine
 10
-2168.799671069996
 20
-2028.03524694401
 30
0.0
 11
-2364.799671069995
 21
-2028.03524694401
 31
0.0
  0
LINE
  5
44F
330
1F
100
AcDbEntity
  8
0-C_ハッチ
  6
Continuous
 62
     7
370
     9
100
AcDbLine
 10
-2168.799671069996
 20
-2061.53524694401
 30
0.0
 11
-2364.799671069995
 21
-2061.53524694401
 31
0.0
  0
LINE
  5
450
330
1F
100
AcDbEntity
  8
0-C_ハッチ
  6
Continuous
 62
     7
370
     9
100
AcDbLine
 10
-2168.799671069996
 20
-2095.03524694401
 30
0.0
 11
-2364.799671069995
 21
-2095.03524694401
 31
0.0
  0
LINE
  5
451
330
1F
100
AcDbEntity
  8
0-C_ハッチ
  6
Continuous
 62
     7
370
     9
100
AcDbLine
 10
-2168.799671069996
 20
-2128.53524694401
 30
0.0
 11
-2364.799671069995
 21
-2128.53524694401
 31
0.0
  0
LINE
  5
452
330
1F
100
AcDbEntity
  8
0-C_ハッチ
  6
Continuous
 62
     7
370
     9
100
AcDbLine
 10
-2168.799671069996
 20
-2162.035246944011
 30
0.0
 11
-2364.799671069995
 21
-2162.035246944011
 31
0.0
  0
LINE
  5
453
330
1F
100
AcDbEntity
  8
0-C_ハッチ
  6
Continuous
 62
     7
370
     9
100
AcDbLine
 10
-2168.799671069996
 20
-2195.535246944011
 30
0.0
 11
-2364.799671069995
 21
-2195.535246944011
 31
0.0
  0
LINE
  5
454
330
1F
100
AcDbEntity
  8
0-3_仕上げ
  6
Continuous
 62
     7
370
     9
100
AcDbLine
 10
-2102.799671069996
 20
-1157.750165011432
 30
0.0
 11
-2102.799671069996
 21
-2292.750165011432
 31
0.0
  0
LINE
  5
455
330
1F
100
AcDbEntity
  8
0-3_仕上げ
  6
Continuous
 62
     7
370
     9
100
AcDbLine
 10
-2028.799671069994
 20
-2209.750165011431
 30
0.0
 11
-1832.799671069995
 21
-2209.750165011431
 31
0.0
  0
LINE
  5
456
330
1F
100
AcDbEntity
  8
0-3_仕上げ
  6
Continuous
 62
     7
370
     9
100
AcDbLine
 10
-2168.799671069996
 20
-2209.750165011431
 30
0.0
 11
-2364.799671069995
 21
-2209.750165011431
 31
0.0
  0
LINE
  5
457
330
1F
100
AcDbEntity
  8
0-3_仕上げ
  6
Continuous
 62
     7
370
     9
100
AcDbLine
 10
-1832.799671069995
 20
-2212.750165011432
 30
0.0
 11
-2028.799671069994
 21
-2212.750165011432
 31
0.0
  0
LINE
  5
458
330
1F
100
AcDbEntity
  8
0-3_仕上げ
  6
Continuous
 62
     7
370
     9
100
AcDbLine
 10
-2168.799671069996
 20
-2212.750165011432
 30
0.0
 11
-2364.799671069995
 21
-2212.750165011432
 31
0.0
  0
MTEXT
  5
459
330
1F
100
AcDbEntity
  8
F-A_文字
  6
Continuous
 62
     7
370
     0
100
AcDbMText
 10
349.9999175200594
 20
-3947.211041872502
 30
0.0
 40
77.15249999999999
 41
405.0
 46
0.0
 71
     7
 72
     1
  1
{\fＭＳ ゴシック|b0|i0|c128|p49;からっ戸}
 73
     1
 44
1.0
  0
MTEXT
  5
45A
330
1F
100
AcDbEntity
  8
F-A_文字
  6
Continuous
 62
     7
370
     0
100
AcDbMText
 10
4778.749126529666
 20
-3938.071010139966
 30
0.0
 40
78.86699999999999
 41
517.5
 46
0.0
 71
     7
 72
     1
  1
{\fＭＳ ゴシック|b0|i0|c128|p49;2021.04.01}
 73
     1
 44
1.0
  0
MTEXT
  5
45B
330
1F
100
AcDbEntity
  8
F-A_文字
  6
Continuous
 62
     7
370
     0
100
AcDbMText
 10
-5247.547376752837
 20
-4045.35212357839
 30
0.0
 40
79.295625
 41
1665.0
 46
0.0
 71
     7
 72
     1
  1
{\fＭＳ ゴシック|b0|i0|c128|p49;からっ戸　収納両開き戸　Ｎ－ＬＸ}
 73
     1
 44
1.0
  0
MTEXT
  5
45C
330
1F
100
AcDbEntity
  8
0-A_文字
  6
Continuous
 62
     7
370
     9
100
AcDbMText
 10
-4795.399798419024
 20
4014.369901024072
 30
0.0
 40
78.74000000000001
 41
930.0
 46
0.0
 71
     7
 72
     1
  1
{\fＭＳ ゴシック|b0|i0|c128|p49;Ｎ－ＬＸ　Ｈ＝３尺}
 73
     1
 44
1.0
  0
MTEXT
  5
45D
330
1F
100
AcDbEntity
  8
0-A_文字
  6
Continuous
 62
     7
370
     9
100
AcDbMText
 10
-2563.799671069996
 20
4014.369901024072
 30
0.0
 40
78.74000000000001
 41
930.0
 46
0.0
 71
     7
 72
     1
  1
{\fＭＳ ゴシック|b0|i0|c128|p49;Ｎ－ＬＸ　Ｈ＝４尺}
 73
     1
 44
1.0
  0
MTEXT
  5
45E
330
1F
100
AcDbEntity
  8
0-A_文字
  6
Continuous
 62
     7
370
     9
100
AcDbMText
 10
-332.1999148807004
 20
4014.369901024072
 30
0.0
 40
78.74000000000001
 41
930.0
 46
0.0
 71
     7
 72
     1
  1
{\fＭＳ ゴシック|b0|i0|c128|p49;Ｎ－ＬＸ　Ｈ＝６尺}
 73
     1
 44
1.0
  0
MTEXT
  5
45F
330
1F
100
AcDbEntity
  8
0-A_文字
  6
Continuous
 62
     7
370
     9
100
AcDbMText
 10
1899.400212468329
 20
4014.369901024072
 30
0.0
 40
78.74000000000001
 41
930.0
 46
0.0
 71
     7
 72
     1
  1
{\fＭＳ ゴシック|b0|i0|c128|p49;Ｎ－ＬＸ　Ｈ＝７尺}
 73
     1
 44
1.0
  0
MTEXT
  5
460
330
1F
100
AcDbEntity
  8
0-A_文字
  6
Continuous
 62
     7
370
     9
100
AcDbMText
 10
4131.000339817358
 20
4014.369901024072
 30
0.0
 40
78.74000000000001
 41
930.0
 46
0.0
 71
     7
 72
     1
  1
{\fＭＳ ゴシック|b0|i0|c128|p49;Ｎ－ＬＸ　Ｈ＝８尺}
 73
     1
 44
1.0
  0
MTEXT
  5
461
330
1F
100
AcDbEntity
  8
0-A_文字
  6
Continuous
 62
     7
370
     9
100
AcDbMText
 10
-5162.899798419024
 20
34.14774486644843
 30
0.0
 40
79.295625
 41
1665.0
 46
0.0
 71
     7
 72
     1
  1
{\fＭＳ ゴシック|b0|i0|c128|p49;Ｎ－ＬＸ（中連タイプ）　Ｈ＝３尺}
 73
     1
 44
1.0
  0
MTEXT
  5
462
330
1F
100
AcDbEntity
  8
0-A_文字
  6
Continuous
 62
     7
370
     9
100
AcDbMText
 10
-2931.299671069995
 20
34.14774486644843
 30
0.0
 40
79.295625
 41
1665.0
 46
0.0
 71
     7
 72
     1
  1
{\fＭＳ ゴシック|b0|i0|c128|p49;Ｎ－ＬＸ（中連タイプ）　Ｈ＝４尺}
 73
     1
 44
1.0
  0
LINE
  5
463
330
1F
100
AcDbEntity
  8
0-A_文字
  6
Continuous
 62
     7
370
     9
100
AcDbLine
 10
-5450.000018557987
 20
-55.50015011349245
 30
0.0
 11
-5450.000018557987
 21
-205.500150113492
 31
0.0
  0
LINE
  5
464
330
1F
100
AcDbEntity
  8
0-A_文字
  6
Continuous
 62
     7
370
     9
100
AcDbLine
 10
-5440.000018557987
 20
-65.50015011349188
 30
0.0
 11
-5440.000018557987
 21
-195.5001501134922
 31
0.0
  0
LINE
  5
465
330
1F
100
AcDbEntity
  8
0-A_文字
  6
Continuous
 62
     7
370
     9
100
AcDbLine
 10
-5450.000018557987
 20
-55.50015011349245
 30
0.0
 11
-4818.966380964437
 21
-55.50015011349245
 31
0.0
  0
LINE
  5
466
330
1F
100
AcDbEntity
  8
0-A_文字
  6
Continuous
 62
     7
370
     9
100
AcDbLine
 10
-4818.966380964437
 20
-55.50015011349245
 30
0.0
 11
-4818.966380964437
 21
-205.500150113492
 31
0.0
  0
LINE
  5
467
330
1F
100
AcDbEntity
  8
0-A_文字
  6
Continuous
 62
     7
370
     9
100
AcDbLine
 10
-5450.000018557987
 20
-205.500150113492
 30
0.0
 11
-4818.966380964437
 21
-205.500150113492
 31
0.0
  0
LINE
  5
468
330
1F
100
AcDbEntity
  8
0-A_文字
  6
Continuous
 62
     7
370
     9
100
AcDbLine
 10
-5440.000018557987
 20
-195.5001501134922
 30
0.0
 11
-4828.966380964438
 21
-195.5001501134922
 31
0.0
  0
LINE
  5
469
330
1F
100
AcDbEntity
  8
0-A_文字
  6
Continuous
 62
     7
370
     9
100
AcDbLine
 10
-4828.966380964438
 20
-65.50015011349188
 30
0.0
 11
-4828.966380964438
 21
-195.5001501134922
 31
0.0
  0
LINE
  5
46A
330
1F
100
AcDbEntity
  8
0-A_文字
  6
Continuous
 62
     7
370
     9
100
AcDbLine
 10
-5440.000018557987
 20
-65.50015011349188
 30
0.0
 11
-4828.966380964438
 21
-65.50015011349188
 31
0.0
  0
MTEXT
  5
46B
330
1F
100
AcDbEntity
  8
0-A_文字
  6
Continuous
 62
     7
370
     9
100
AcDbMText
 10
-5389.483199761207
 20
-181.638150113493
 30
0.0
 40
77.72399999999818
 41
509.9999999999881
 46
0.0
 71
     7
 72
     1
  1
{\fＭＳ ゴシック|b0|i0|c128|p49;中連タイプ}
 73
     1
 44
1.0
  0
LINE
  5
46C
330
1F
100
AcDbEntity
  8
0-A_文字
  6
Continuous
 62
     7
370
     9
100
AcDbLine
 10
-3218.399798419024
 20
-55.50015011349245
 30
0.0
 11
-3218.399798419024
 21
-205.500150113492
 31
0.0
  0
LINE
  5
46D
330
1F
100
AcDbEntity
  8
0-A_文字
  6
Continuous
 62
     7
370
     9
100
AcDbLine
 10
-3208.399798419024
 20
-65.50015011349188
 30
0.0
 11
-3208.399798419024
 21
-195.5001501134922
 31
0.0
  0
LINE
  5
46E
330
1F
100
AcDbEntity
  8
0-A_文字
  6
Continuous
 62
     7
370
     9
100
AcDbLine
 10
-3218.399798419024
 20
-55.50015011349245
 30
0.0
 11
-2587.366160825475
 21
-55.50015011349245
 31
0.0
  0
LINE
  5
46F
330
1F
100
AcDbEntity
  8
0-A_文字
  6
Continuous
 62
     7
370
     9
100
AcDbLine
 10
-2587.366160825475
 20
-55.50015011349245
 30
0.0
 11
-2587.366160825475
 21
-205.500150113492
 31
0.0
  0
LINE
  5
470
330
1F
100
AcDbEntity
  8
0-A_文字
  6
Continuous
 62
     7
370
     9
100
AcDbLine
 10
-3218.399798419024
 20
-205.500150113492
 30
0.0
 11
-2587.366160825475
 21
-205.500150113492
 31
0.0
  0
LINE
  5
471
330
1F
100
AcDbEntity
  8
0-A_文字
  6
Continuous
 62
     7
370
     9
100
AcDbLine
 10
-3208.399798419024
 20
-195.5001501134922
 30
0.0
 11
-2597.366160825475
 21
-195.5001501134922
 31
0.0
  0
LINE
  5
472
330
1F
100
AcDbEntity
  8
0-A_文字
  6
Continuous
 62
     7
370
     9
100
AcDbLine
 10
-2597.366160825475
 20
-65.50015011349188
 30
0.0
 11
-2597.366160825475
 21
-195.5001501134922
 31
0.0
  0
LINE
  5
473
330
1F
100
AcDbEntity
  8
0-A_文字
  6
Continuous
 62
     7
370
     9
100
AcDbLine
 10
-3208.399798419024
 20
-65.50015011349188
 30
0.0
 11
-2597.366160825475
 21
-65.50015011349188
 31
0.0
  0
MTEXT
  5
474
330
1F
100
AcDbEntity
  8
0-A_文字
  6
Continuous
 62
     7
370
     9
100
AcDbMText
 10
-3157.882979622245
 20
-181.6381501134929
 30
0.0
 40
77.72399999999831
 41
509.9999999999889
 46
0.0
 71
     7
 72
     1
  1
{\fＭＳ ゴシック|b0|i0|c128|p49;中連タイプ}
 73
     1
 44
1.0
  0
LINE
  5
475
330
1F
100
AcDbEntity
  8
0-0_補助線
  6
JWW_HOJO
 62
   120
370
     5
100
AcDbLine
 10
-5370.000018557987
 20
4174.999769056166
 30
0.0
 11
-5370.000018557987
 21
-3790.000179909371
 31
0.0
  0
LINE
  5
476
330
1F
100
AcDbEntity
  8
0-0_補助線
  6
JWW_HOJO
 62
   120
370
     5
100
AcDbLine
 10
-3138.399798419024
 20
3964.999818544131
 30
0.0
 11
-3138.399798419024
 21
-3790.000179909371
 31
0.0
  0
LINE
  5
477
330
1F
100
AcDbEntity
  8
0-0_補助線
  6
JWW_HOJO
 62
   120
370
     5
100
AcDbLine
 10
-906.7996710699953
 20
4164.999983504013
 30
0.0
 11
-906.7996710699953
 21
-3790.000179909371
 31
0.0
  0
LINE
  5
478
330
1F
100
AcDbEntity
  8
0-0_補助線
  6
JWW_HOJO
 62
   120
370
     5
100
AcDbLine
 10
1324.800085119299
 20
4164.999983504013
 30
0.0
 11
1324.800085119299
 21
-3790.000179909371
 31
0.0
  0
LINE
  5
479
330
1F
100
AcDbEntity
  8
0-0_補助線
  6
JWW_HOJO
 62
   120
370
     5
100
AcDbLine
 10
3556.400212468328
 20
4164.999983504013
 30
0.0
 11
3556.400212468328
 21
310.5001831054688
 31
0.0
  0
LINE
  5
47A
330
1F
100
AcDbEntity
  8
0-0_補助線
  6
JWW_HOJO
 62
   120
370
     5
100
AcDbLine
 10
-5989.999990205507
 20
430.5001831054688
 30
0.0
 11
5689.998977248734
 21
430.5001831054688
 31
0.0
  0
LINE
  5
47B
330
1F
100
AcDbEntity
  8
0-0_補助線
  6
JWW_HOJO
 62
   120
370
     5
100
AcDbLine
 10
-5989.999990205507
 20
550.5001831054688
 30
0.0
 11
5689.998977248734
 21
550.5001831054688
 31
0.0
  0
LINE
  5
47C
330
1F
100
AcDbEntity
  8
0-0_補助線
  6
JWW_HOJO
 62
   120
370
     5
100
AcDbLine
 10
-5989.999990205507
 20
670.5001831054688
 30
0.0
 11
5689.998977248734
 21
670.5001831054688
 31
0.0
  0
LINE
  5
47D
330
1F
100
AcDbEntity
  8
0-0_補助線
  6
JWW_HOJO
 62
   120
370
     5
100
AcDbLine
 10
-5989.999990205507
 20
790.5001831054688
 30
0.0
 11
5689.998977248734
 21
790.5001831054688
 31
0.0
  0
LINE
  5
47E
330
1F
100
AcDbEntity
  8
0-0_補助線
  6
JWW_HOJO
 62
   120
370
     5
100
AcDbLine
 10
5699.998762800888
 20
-3670.000017526987
 30
0.0
 11
-5999.99998453501
 21
-3670.000017526987
 31
0.0
  0
LINE
  5
47F
330
1F
100
AcDbEntity
  8
0-0_補助線
  6
JWW_HOJO
 62
   120
370
     5
100
AcDbLine
 10
5699.998762800888
 20
-3550.000017526987
 30
0.0
 11
-5999.99998453501
 21
-3550.000017526987
 31
0.0
  0
LINE
  5
480
330
1F
100
AcDbEntity
  8
0-0_補助線
  6
JWW_HOJO
 62
   120
370
     5
100
AcDbLine
 10
5699.998762800888
 20
-3430.000017526987
 30
0.0
 11
-5999.99998453501
 21
-3430.000017526987
 31
0.0
  0
LINE
  5
481
330
1F
100
AcDbEntity
  8
0-0_補助線
  6
JWW_HOJO
 62
   120
370
     5
100
AcDbLine
 10
5699.998762800888
 20
-3310.000017526987
 30
0.0
 11
-5999.99998453501
 21
-3310.000017526987
 31
0.0
  0
LINE
  5
482
330
1F
100
AcDbEntity
  8
0-0_補助線
  6
JWW_HOJO
 62
   120
370
     5
100
AcDbLine
 10
5699.998762800888
 20
-3190.000017526987
 30
0.0
 11
-5999.99998453501
 21
-3190.000017526987
 31
0.0
  0
MTEXT
  5
483
330
1F
100
AcDbEntity
  8
0-A_文字
  6
Continuous
 62
     7
370
     9
100
AcDbMText
 10
-5370.000018557986
 20
661.5754150803014
 30
0.0
 40
57.15000000000013
 41
900.0000000000025
 46
0.0
 71
     7
 72
     1
  1
{\fＭＳ ゴシック|b0|i0|c128|p49;枠外幅 734mm（DW=334mm）}
 73
     1
 44
1.0
  0
MTEXT
  5
484
330
1F
100
AcDbEntity
  8
0-A_文字
  6
Continuous
 62
     7
370
     9
100
AcDbMText
 10
-5370.000018557987
 20
541.5751831054652
 30
0.0
 40
57.15
 41
525.0
 46
0.0
 71
     7
 72
     1
  1
{\fＭＳ ゴシック|b0|i0|c128|p49;ルーバータイプ}
 73
     1
 44
1.0
  0
MTEXT
  5
485
330
1F
100
AcDbEntity
  8
0-A_文字
  6
Continuous
 62
     7
370
     9
100
AcDbMText
 10
-3138.399798419023
 20
661.5754150803014
 30
0.0
 40
57.15000000000013
 41
900.0000000000025
 46
0.0
 71
     7
 72
     1
  1
{\fＭＳ ゴシック|b0|i0|c128|p49;枠外幅 734mm（DW=334mm）}
 73
     1
 44
1.0
  0
MTEXT
  5
486
330
1F
100
AcDbEntity
  8
0-A_文字
  6
Continuous
 62
     7
370
     9
100
AcDbMText
 10
-3138.399798419024
 20
541.5751831054652
 30
0.0
 40
57.15
 41
525.0
 46
0.0
 71
     7
 72
     1
  1
{\fＭＳ ゴシック|b0|i0|c128|p49;ルーバータイプ}
 73
     1
 44
1.0
  0
MTEXT
  5
487
330
1F
100
AcDbEntity
  8
0-A_文字
  6
Continuous
 62
     7
370
     9
100
AcDbMText
 10
-906.7996710699945
 20
661.5754150803014
 30
0.0
 40
57.15000000000013
 41
900.0000000000025
 46
0.0
 71
     7
 72
     1
  1
{\fＭＳ ゴシック|b0|i0|c128|p49;枠外幅 734mm（DW=334mm）}
 73
     1
 44
1.0
  0
MTEXT
  5
488
330
1F
100
AcDbEntity
  8
0-A_文字
  6
Continuous
 62
     7
370
     9
100
AcDbMText
 10
-906.7996710699953
 20
541.5751831054652
 30
0.0
 40
57.15
 41
525.0
 46
0.0
 71
     7
 72
     1
  1
{\fＭＳ ゴシック|b0|i0|c128|p49;ルーバータイプ}
 73
     1
 44
1.0
  0
MTEXT
  5
489
330
1F
100
AcDbEntity
  8
0-A_文字
  6
Continuous
 62
     7
370
     9
100
AcDbMText
 10
1324.8000851193
 20
661.5754150803014
 30
0.0
 40
57.15000000000013
 41
900.0000000000025
 46
0.0
 71
     7
 72
     1
  1
{\fＭＳ ゴシック|b0|i0|c128|p49;枠外幅 734mm（DW=334mm）}
 73
     1
 44
1.0
  0
MTEXT
  5
48A
330
1F
100
AcDbEntity
  8
0-A_文字
  6
Continuous
 62
     7
370
     9
100
AcDbMText
 10
1324.800085119299
 20
541.5751831054652
 30
0.0
 40
57.15
 41
525.0
 46
0.0
 71
     7
 72
     1
  1
{\fＭＳ ゴシック|b0|i0|c128|p49;ルーバータイプ}
 73
     1
 44
1.0
  0
MTEXT
  5
48B
330
1F
100
AcDbEntity
  8
0-A_文字
  6
Continuous
 62
     7
370
     9
100
AcDbMText
 10
3556.400212468328
 20
661.5754150803014
 30
0.0
 40
57.15000000000013
 41
900.0000000000025
 46
0.0
 71
     7
 72
     1
  1
{\fＭＳ ゴシック|b0|i0|c128|p49;枠外幅 734mm（DW=334mm）}
 73
     1
 44
1.0
  0
MTEXT
  5
48C
330
1F
100
AcDbEntity
  8
0-A_文字
  6
Continuous
 62
     7
370
     9
100
AcDbMText
 10
3556.400212468327
 20
541.5751831054652
 30
0.0
 40
57.15
 41
525.0
 46
0.0
 71
     7
 72
     1
  1
{\fＭＳ ゴシック|b0|i0|c128|p49;ルーバータイプ}
 73
     1
 44
1.0
  0
MTEXT
  5
48D
330
1F
100
AcDbEntity
  8
0-A_文字
  6
Continuous
 62
     7
370
     9
100
AcDbMText
 10
-5370.000018557986
 20
-3318.924785552155
 30
0.0
 40
57.15000000000013
 41
900.0000000000025
 46
0.0
 71
     7
 72
     1
  1
{\fＭＳ ゴシック|b0|i0|c128|p49;枠外幅 734mm（DW=334mm）}
 73
     1
 44
1.0
  0
MTEXT
  5
48E
330
1F
100
AcDbEntity
  8
0-A_文字
  6
Continuous
 62
     7
370
     9
100
AcDbMText
 10
-5370.000018557987
 20
-3438.925017526991
 30
0.0
 40
57.15
 41
525.0
 46
0.0
 71
     7
 72
     1
  1
{\fＭＳ ゴシック|b0|i0|c128|p49;ルーバータイプ}
 73
     1
 44
1.0
  0
MTEXT
  5
48F
330
1F
100
AcDbEntity
  8
0-A_文字
  6
Continuous
 62
     7
370
     9
100
AcDbMText
 10
-3138.399798419023
 20
-3318.924785552155
 30
0.0
 40
57.15000000000013
 41
900.0000000000025
 46
0.0
 71
     7
 72
     1
  1
{\fＭＳ ゴシック|b0|i0|c128|p49;枠外幅 734mm（DW=334mm）}
 73
     1
 44
1.0
  0
MTEXT
  5
490
330
1F
100
AcDbEntity
  8
0-A_文字
  6
Continuous
 62
     7
370
     9
100
AcDbMText
 10
-3138.399798419024
 20
-3438.925017526991
 30
0.0
 40
57.15
 41
525.0
 46
0.0
 71
     7
 72
     1
  1
{\fＭＳ ゴシック|b0|i0|c128|p49;ルーバータイプ}
 73
     1
 44
1.0
  0
LINE
  5
491
330
1F
100
AcDbEntity
  8
0-0_補助線
  6
JWW_HOJO
 62
   120
370
     5
100
AcDbLine
 10
-5989.999990205507
 20
310.5001831054688
 30
0.0
 11
5689.998977248734
 21
310.5001831054688
 31
0.0
  0
LINE
  5
492
330
1F
100
AcDbEntity
  8
0-8_取手W
  6
JWW_DASHED1
 62
    92
370
    13
100
AcDbLine
 10
-4361.287073197762
 20
1901.400175099242
 30
0.0
 11
-4382.42806609579
 21
1922.684012543881
 31
0.0
  0
LINE
  5
493
330
1F
100
AcDbEntity
  8
0-8_取手W
  6
JWW_DASHED1
 62
    92
370
    13
100
AcDbLine
 10
-4278.287073197761
 20
1901.400175099242
 30
0.0
 11
-4299.42806609579
 21
1922.684012543881
 31
0.0
  0
CIRCLE
  5
494
330
1F
100
AcDbEntity
  8
0-8_取手W
  6
Continuous
 62
    92
370
    13
100
AcDbCircle
 10
-4371.942027191271
 20
1911.958203106225
 30
0.0
 40
14.9999999999979
  0
CIRCLE
  5
495
330
1F
100
AcDbEntity
  8
0-8_取手W
  6
Continuous
 62
    92
370
    13
100
AcDbCircle
 10
-4288.942027191271
 20
1911.958203106225
 30
0.0
 40
14.9999999999979
  0
LINE
  5
496
330
1F
100
AcDbEntity
  8
0-8_取手W
  6
JWW_HOJO
 62
   120
370
     5
100
AcDbLine
 10
-4371.899798419024
 20
1927.000148463893
 30
0.0
 11
-4371.899798419024
 21
1897.000148463893
 31
0.0
  0
LINE
  5
497
330
1F
100
AcDbEntity
  8
0-8_取手W
  6
JWW_HOJO
 62
   120
370
     5
100
AcDbLine
 10
-4356.899798419024
 20
1912.000148463893
 30
0.0
 11
-4386.899798419024
 21
1912.000148463893
 31
0.0
  0
LINE
  5
498
330
1F
100
AcDbEntity
  8
0-8_取手W
  6
JWW_HOJO
 62
   120
370
     5
100
AcDbLine
 10
-4288.899798419023
 20
1927.000148463893
 30
0.0
 11
-4288.899798419023
 21
1897.000148463893
 31
0.0
  0
LINE
  5
499
330
1F
100
AcDbEntity
  8
0-8_取手W
  6
JWW_HOJO
 62
   120
370
     5
100
AcDbLine
 10
-4273.899798419023
 20
1912.000148463893
 30
0.0
 11
-4303.899798419023
 21
1912.000148463893
 31
0.0
  0
LINE
  5
49A
330
1F
100
AcDbEntity
  8
0-8_取手W
  6
JWW_DASHED1
 62
    92
370
    13
100
AcDbLine
 10
-2046.686945848732
 20
2256.400175099242
 30
0.0
 11
-2067.827938746761
 21
2277.684012543882
 31
0.0
  0
LINE
  5
49B
330
1F
100
AcDbEntity
  8
0-8_取手W
  6
JWW_DASHED1
 62
    92
370
    13
100
AcDbLine
 10
-2129.686945848733
 20
2256.400175099242
 30
0.0
 11
-2150.827938746761
 21
2277.684012543882
 31
0.0
  0
CIRCLE
  5
49C
330
1F
100
AcDbEntity
  8
0-8_取手W
  6
Continuous
 62
    92
370
    13
100
AcDbCircle
 10
-2140.341899842243
 20
2266.958203106225
 30
0.0
 40
14.9999999999979
  0
CIRCLE
  5
49D
330
1F
100
AcDbEntity
  8
0-8_取手W
  6
Continuous
 62
    92
370
    13
100
AcDbCircle
 10
-2057.341899842242
 20
2266.958203106225
 30
0.0
 40
14.9999999999979
  0
LINE
  5
49E
330
1F
100
AcDbEntity
  8
0-8_取手W
  6
JWW_HOJO
 62
   120
370
     5
100
AcDbLine
 10
-2125.299671069994
 20
2267.000148463894
 30
0.0
 11
-2155.299671069994
 21
2267.000148463894
 31
0.0
  0
LINE
  5
49F
330
1F
100
AcDbEntity
  8
0-8_取手W
  6
JWW_HOJO
 62
   120
370
     5
100
AcDbLine
 10
-2140.299671069994
 20
2282.000148463894
 30
0.0
 11
-2140.299671069994
 21
2252.000148463894
 31
0.0
  0
LINE
  5
4A0
330
1F
100
AcDbEntity
  8
0-8_取手W
  6
JWW_HOJO
 62
   120
370
     5
100
AcDbLine
 10
-2057.299671069994
 20
2282.000148463894
 30
0.0
 11
-2057.299671069994
 21
2252.000148463894
 31
0.0
  0
LINE
  5
4A1
330
1F
100
AcDbEntity
  8
0-8_取手W
  6
JWW_HOJO
 62
   120
370
     5
100
AcDbLine
 10
-2042.299671069994
 20
2267.000148463894
 30
0.0
 11
-2072.299671069994
 21
2267.000148463894
 31
0.0
  0
LINE
  5
4A2
330
1F
100
AcDbEntity
  8
0-8_取手W
  6
JWW_DASHED1
 62
    92
370
    13
100
AcDbLine
 10
-4361.287073197762
 20
-2198.350138376083
 30
0.0
 11
-4382.42806609579
 21
-2177.066300931443
 31
0.0
  0
LINE
  5
4A3
330
1F
100
AcDbEntity
  8
0-8_取手W
  6
JWW_DASHED1
 62
    92
370
    13
100
AcDbLine
 10
-4278.287073197761
 20
-2198.350138376083
 30
0.0
 11
-4299.42806609579
 21
-2177.066300931443
 31
0.0
  0
CIRCLE
  5
4A4
330
1F
100
AcDbEntity
  8
0-8_取手W
  6
Continuous
 62
    92
370
    13
100
AcDbCircle
 10
-4371.942027191271
 20
-2187.7921103691
 30
0.0
 40
14.9999999999979
  0
CIRCLE
  5
4A5
330
1F
100
AcDbEntity
  8
0-8_取手W
  6
Continuous
 62
    92
370
    13
100
AcDbCircle
 10
-4288.942027191271
 20
-2187.7921103691
 30
0.0
 40
14.9999999999979
  0
LINE
  5
4A6
330
1F
100
AcDbEntity
  8
0-8_取手W
  6
JWW_HOJO
 62
   120
370
     5
100
AcDbLine
 10
-4371.899798419024
 20
-2172.750165011431
 30
0.0
 11
-4371.899798419024
 21
-2202.750165011431
 31
0.0
  0
LINE
  5
4A7
330
1F
100
AcDbEntity
  8
0-8_取手W
  6
JWW_HOJO
 62
   120
370
     5
100
AcDbLine
 10
-4356.899798419024
 20
-2187.750165011431
 30
0.0
 11
-4386.899798419024
 21
-2187.750165011431
 31
0.0
  0
LINE
  5
4A8
330
1F
100
AcDbEntity
  8
0-8_取手W
  6
JWW_HOJO
 62
   120
370
     5
100
AcDbLine
 10
-4288.899798419023
 20
-2172.750165011431
 30
0.0
 11
-4288.899798419023
 21
-2202.750165011431
 31
0.0
  0
LINE
  5
4A9
330
1F
100
AcDbEntity
  8
0-8_取手W
  6
JWW_HOJO
 62
   120
370
     5
100
AcDbLine
 10
-4273.899798419023
 20
-2187.750165011431
 30
0.0
 11
-4303.899798419023
 21
-2187.750165011431
 31
0.0
  0
LINE
  5
4AA
330
1F
100
AcDbEntity
  8
0-8_取手W
  6
JWW_DASHED1
 62
    92
370
    13
100
AcDbLine
 10
-2046.686945848732
 20
-2198.350138376084
 30
0.0
 11
-2067.827938746761
 21
-2177.066300931444
 31
0.0
  0
LINE
  5
4AB
330
1F
100
AcDbEntity
  8
0-8_取手W
  6
JWW_DASHED1
 62
    92
370
    13
100
AcDbLine
 10
-2129.686945848733
 20
-2198.350138376084
 30
0.0
 11
-2150.827938746761
 21
-2177.066300931444
 31
0.0
  0
CIRCLE
  5
4AC
330
1F
100
AcDbEntity
  8
0-8_取手W
  6
Continuous
 62
    92
370
    13
100
AcDbCircle
 10
-2140.341899842243
 20
-2187.792110369101
 30
0.0
 40
14.9999999999979
  0
CIRCLE
  5
4AD
330
1F
100
AcDbEntity
  8
0-8_取手W
  6
Continuous
 62
    92
370
    13
100
AcDbCircle
 10
-2057.341899842242
 20
-2187.792110369101
 30
0.0
 40
14.9999999999979
  0
LINE
  5
4AE
330
1F
100
AcDbEntity
  8
0-8_取手W
  6
JWW_HOJO
 62
   120
370
     5
100
AcDbLine
 10
-2125.299671069994
 20
-2187.750165011432
 30
0.0
 11
-2155.299671069994
 21
-2187.750165011432
 31
0.0
  0
LINE
  5
4AF
330
1F
100
AcDbEntity
  8
0-8_取手W
  6
JWW_HOJO
 62
   120
370
     5
100
AcDbLine
 10
-2140.299671069994
 20
-2172.750165011432
 30
0.0
 11
-2140.299671069994
 21
-2202.750165011432
 31
0.0
  0
LINE
  5
4B0
330
1F
100
AcDbEntity
  8
0-8_取手W
  6
JWW_HOJO
 62
   120
370
     5
100
AcDbLine
 10
-2057.299671069994
 20
-2172.750165011432
 30
0.0
 11
-2057.299671069994
 21
-2202.750165011432
 31
0.0
  0
LINE
  5
4B1
330
1F
100
AcDbEntity
  8
0-8_取手W
  6
JWW_HOJO
 62
   120
370
     5
100
AcDbLine
 10
-2042.299671069994
 20
-2187.750165011432
 30
0.0
 11
-2072.299671069994
 21
-2187.750165011432
 31
0.0
  0
ENDSEC
  0
SECTION
  2
OBJECTS
  0
DICTIONARY
  5
C
330
0
100
AcDbDictionary
281
     1
  3
ACAD_GROUP
350
D
  3
ACAD_LAYOUT
350
1A
  3
ACAD_MATERIAL
350
3B
  3
ACAD_MLEADERSTYLE
350
4B3
  3
ACAD_MLINESTYLE
350
17
  3
ACAD_PLOTSETTINGS
350
19
  3
ACAD_PLOTSTYLENAME
350
E
  3
ACAD_TABLESTYLE
350
4B2
  3
ACAD_VISUALSTYLE
350
2A
  0
DICTIONARY
  5
D
102
{ACAD_REACTORS
330
C
102
}
330
C
100
AcDbDictionary
281
     1
  0
DICTIONARY
  5
1A
102
{ACAD_REACTORS
330
C
102
}
330
C
100
AcDbDictionary
281
     1
  3
Layout1
350
1E
  3
Layout2
350
26
  3
Model
350
22
  0
DICTIONARY
  5
3B
102
{ACAD_REACTORS
330
C
102
}
330
C
100
AcDbDictionary
281
     1
  3
ByBlock
350
3D
  3
ByLayer
350
3C
  3
Global
350
3E
  0
DICTIONARY
  5
4B3
102
{ACAD_REACTORS
330
C
102
}
330
C
100
AcDbDictionary
281
     1
  0
DICTIONARY
  5
17
102
{ACAD_REACTORS
330
C
102
}
330
C
100
AcDbDictionary
281
     1
  3
Standard
350
18
  0
DICTIONARY
  5
19
102
{ACAD_REACTORS
330
C
102
}
330
C
100
AcDbDictionary
281
     1
  0
ACDBDICTIONARYWDFLT
  5
E
102
{ACAD_REACTORS
330
C
102
}
330
C
100
AcDbDictionary
281
     1
  3
Normal
350
F
100
AcDbDictionaryWithDefault
340
F
  0
DICTIONARY
  5
4B2
102
{ACAD_REACTORS
330
C
102
}
330
C
100
AcDbDictionary
281
     1
  0
DICTIONARY
  5
2A
102
{ACAD_REACTORS
330
C
102
}
330
C
100
AcDbDictionary
281
     1
  3
2dWireframe
350
2F
  3
3D Hidden
350
31
  3
3dWireframe
350
30
  3
Basic
350
32
  3
Brighten
350
36
  3
ColorChange
350
3A
  3
Conceptual
350
34
  3
Dim
350
35
  3
Facepattern
350
39
  3
Flat
350
2B
  3
FlatWithEdges
350
2C
  3
Gouraud
350
2D
  3
GouraudWithEdges
350
2E
  3
Linepattern
350
38
  3
Realistic
350
33
  3
Thicken
350
37
  0
LAYOUT
  5
1E
102
{ACAD_REACTORS
330
1A
102
}
330
1A
100
AcDbPlotSettings
  1

  2
none_device
  4

  6

 40
0.0
 41
0.0
 42
0.0
 43
0.0
 44
0.0
 45
0.0
 46
0.0
 47
0.0
 48
0.0
 49
0.0
140
0.0
141
0.0
142
1.0
143
1.0
 70
   688
 72
     0
 73
     0
 74
     5
  7

 75
    16
 76
     0
 77
     5
 78
   300
147
1.0
148
0.0
149
0.0
100
AcDbLayout
  1
Layout1
 70
     1
 71
     1
 10
0.0
 20
0.0
 11
420.0
 21
297.0
 12
0.0
 22
0.0
 32
0.0
 14
1.000000000000000E+20
 24
1.000000000000000E+20
 34
1.000000000000000E+20
 15
-1.000000000000000E+20
 25
-1.000000000000000E+20
 35
-1.000000000000000E+20
146
0.0
 13
0.0
 23
0.0
 33
0.0
 16
1.0
 26
0.0
 36
0.0
 17
0.0
 27
1.0
 37
0.0
 76
     0
330
1B
  0
LAYOUT
  5
26
102
{ACAD_REACTORS
330
1A
102
}
330
1A
100
AcDbPlotSettings
  1

  2
none_device
  4

  6

 40
0.0
 41
0.0
 42
0.0
 43
0.0
 44
0.0
 45
0.0
 46
0.0
 47
0.0
 48
0.0
 49
0.0
140
0.0
141
0.0
142
1.0
143
1.0
 70
   688
 72
     0
 73
     0
 74
     5
  7

 75
    16
 76
     0
 77
     5
 78
   300
147
1.0
148
0.0
149
0.0
100
AcDbLayout
  1
Layout2
 70
     1
 71
     2
 10
0.0
 20
0.0
 11
0.0
 21
0.0
 12
0.0
 22
0.0
 32
0.0
 14
0.0
 24
0.0
 34
0.0
 15
0.0
 25
0.0
 35
0.0
146
0.0
 13
0.0
 23
0.0
 33
0.0
 16
1.0
 26
0.0
 36
0.0
 17
0.0
 27
1.0
 37
0.0
 76
     0
330
23
  0
LAYOUT
  5
22
102
{ACAD_REACTORS
330
1A
102
}
330
1A
100
AcDbPlotSettings
  1

  2
none_device
  4

  6

 40
0.0
 41
0.0
 42
0.0
 43
0.0
 44
0.0
 45
0.0
 46
0.0
 47
0.0
 48
0.0
 49
0.0
140
0.0
141
0.0
142
1.0
143
1.0
 70
  1712
 72
     0
 73
     0
 74
     0
  7

 75
     0
 76
     0
 77
     5
 78
   300
147
1.0
148
0.0
149
0.0
100
AcDbLayout
  1
Model
 70
     1
 71
     0
 10
-6300.0
 20
-4455.0
 11
6300.0
 21
4455.0
 12
0.0
 22
0.0
 32
0.0
 14
-6300.0
 24
-4455.0
 34
0.0
 15
6300.0
 25
4455.0
 35
0.0
146
0.0
 13
0.0
 23
0.0
 33
0.0
 16
1.0
 26
0.0
 36
0.0
 17
0.0
 27
1.0
 37
0.0
 76
     0
330
1F
331
29
  0
MATERIAL
  5
3D
102
{ACAD_REACTORS
330
3B
102
}
330
3B
100
AcDbMaterial
  1
ByBlock
 72
     1
 94
      127
  0
MATERIAL
  5
3C
102
{ACAD_REACTORS
330
3B
102
}
330
3B
100
AcDbMaterial
  1
ByLayer
 72
     1
 94
      127
  0
MATERIAL
  5
3E
102
{ACAD_REACTORS
330
3B
102
}
330
3B
100
AcDbMaterial
  1
Global
 72
     1
 94
      127
  0
MLINESTYLE
  5
18
102
{ACAD_REACTORS
330
17
102
}
330
17
100
AcDbMlineStyle
  2
Standard
 70
     0
  3

 62
   256
 51
90.0
 52
90.0
 71
     2
 49
0.5
 62
   256
  6
BYLAYER
 49
-0.5
 62
   256
  6
BYLAYER
  0
ACDBPLACEHOLDER
  5
F
102
{ACAD_REACTORS
330
E
102
}
330
E
  0
VISUALSTYLE
  5
2F
102
{ACAD_REACTORS
330
2A
102
}
330
2A
100
AcDbVisualStyle
  2
2dWireframe
 70
     4
177
     2
291
     0
 71
     0
176
     1
 72
     2
176
     1
 73
     0
176
     1
 90
        0
176
     1
 40
-0.6
176
     1
 41
-30.0
176
     1
 62
     5
 63
     7
421
 16777215
176
     1
 74
     1
176
     1
 91
        4
176
     1
 64
     7
176
     1
 65
   257
176
     1
 75
     1
176
     1
175
     1
176
     1
 42
1.0
176
     1
 92
        0
176
     1
 66
   257
176
     1
 43
1.0
176
     1
 76
     1
176
     1
 77
     6
176
     1
 78
     2
176
     1
 67
     7
176
     1
 79
     5
176
     1
170
     0
176
     1
171
     0
176
     1
290
     0
176
     1
 93
        1
176
     1
 44
0.0
176
     1
173
     0
176
     1
  0
VISUALSTYLE
  5
31
102
{ACAD_REACTORS
330
2A
102
}
330
2A
100
AcDbVisualStyle
  2
3D Hidden
 70
     6
177
     2
291
     0
 71
     1
176
     1
 72
     2
176
     1
 73
     2
176
     1
 90
        0
176
     1
 40
-0.6
176
     1
 41
-30.0
176
     1
 62
     5
 63
     7
421
 16777215
176
     1
 74
     2
176
     1
 91
        2
176
     1
 64
     7
176
     1
 65
   257
176
     1
 75
     2
176
     1
175
     1
176
     1
 42
40.0
176
     1
 92
        0
176
     1
 66
   257
176
     1
 43
1.0
176
     1
 76
     1
176
     1
 77
     6
176
     1
 78
     2
176
     1
 67
     7
176
     1
 79
     3
176
     1
170
     0
176
     1
171
     0
176
     1
290
     0
176
     1
 93
        1
176
     1
 44
0.0
176
     1
173
     0
176
     1
  0
VISUALSTYLE
  5
30
102
{ACAD_REACTORS
330
2A
102
}
330
2A
100
AcDbVisualStyle
  2
3dWireframe
 70
     5
177
     2
291
     0
 71
     0
176
     1
 72
     2
176
     1
 73
     0
176
     1
 90
        0
176
     1
 40
-0.6
176
     1
 41
-30.0
176
     1
 62
     5
 63
     7
421
 16777215
176
     1
 74
     1
176
     1
 91
        4
176
     1
 64
     7
176
     1
 65
   257
176
     1
 75
     1
176
     1
175
     1
176
     1
 42
1.0
176
     1
 92
        0
176
     1
 66
   257
176
     1
 43
1.0
176
     1
 76
     1
176
     1
 77
     6
176
     1
 78
     2
176
     1
 67
     7
176
     1
 79
     5
176
     1
170
     0
176
     1
171
     0
176
     1
290
     0
176
     1
 93
        1
176
     1
 44
0.0
176
     1
173
     0
176
     1
  0
VISUALSTYLE
  5
32
102
{ACAD_REACTORS
330
2A
102
}
330
2A
100
AcDbVisualStyle
  2
Basic
 70
     7
177
     2
291
     1
 71
     1
176
     1
 72
     0
176
     1
 73
     1
176
     1
 90
        0
176
     1
 40
-0.6
176
     1
 41
-30.0
176
     1
 62
     5
 63
     7
421
 16777215
176
     1
 74
     0
176
     1
 91
        4
176
     1
 64
     7
176
     1
 65
   257
176
     1
 75
     1
176
     1
175
     1
176
     1
 42
1.0
176
     1
 92
        8
176
     1
 66
     7
176
     1
 43
1.0
176
     1
 76
     1
176
     1
 77
     6
176
     1
 78
     2
176
     1
 67
     7
176
     1
 79
     5
176
     1
170
     0
176
     1
171
     0
176
     1
290
     0
176
     1
 93
        1
176
     1
 44
0.0
176
     1
173
     0
176
     1
  0
VISUALSTYLE
  5
36
102
{ACAD_REACTORS
330
2A
102
}
330
2A
100
AcDbVisualStyle
  2
Brighten
 70
    12
177
     2
291
     1
 71
     2
176
     1
 72
     2
176
     1
 73
     0
176
     1
 90
        0
176
     1
 40
-0.6
176
     1
 41
-30.0
176
     1
 62
     5
 63
     7
421
 16777215
176
     1
 74
     1
176
     1
 91
        4
176
     1
 64
     7
176
     1
 65
   257
176
     1
 75
     1
176
     1
175
     1
176
     1
 42
1.0
176
     1
 92
        8
176
     1
 66
     7
176
     1
 43
1.0
176
     1
 76
     1
176
     1
 77
     6
176
     1
 78
     2
176
     1
 67
     7
176
     1
 79
     5
176
     1
170
     0
176
     1
171
     0
176
     1
290
     0
176
     1
 93
        1
176
     1
 44
50.0
176
     1
173
     0
176
     1
  0
VISUALSTYLE
  5
3A
102
{ACAD_REACTORS
330
2A
102
}
330
2A
100
AcDbVisualStyle
  2
ColorChange
 70
    16
177
     2
291
     1
 71
     2
176
     1
 72
     2
176
     1
 73
     3
176
     1
 90
        0
176
     1
 40
-0.6
176
     1
 41
-30.0
176
     1
 62
     5
 63
     8
421
  8421504
176
     1
 74
     1
176
     1
 91
        4
176
     1
 64
     7
176
     1
 65
   257
176
     1
 75
     1
176
     1
175
     1
176
     1
 42
1.0
176
     1
 92
        8
176
     1
 66
     8
424
  8421504
176
     1
 43
1.0
176
     1
 76
     1
176
     1
 77
     6
176
     1
 78
     2
176
     1
 67
     7
176
     1
 79
     5
176
     1
170
     0
176
     1
171
     0
176
     1
290
     0
176
     1
 93
        1
176
     1
 44
0.0
176
     1
173
     0
176
     1
  0
VISUALSTYLE
  5
34
102
{ACAD_REACTORS
330
2A
102
}
330
2A
100
AcDbVisualStyle
  2
Conceptual
 70
     9
177
     2
291
     0
 71
     3
176
     1
 72
     2
176
     1
 73
     0
176
     1
 90
        0
176
     1
 40
-0.6
176
     1
 41
-30.0
176
     1
 62
     5
 63
     7
421
 16777215
176
     1
 74
     2
176
     1
 91
        2
176
     1
 64
     7
176
     1
 65
   257
176
     1
 75
     1
176
     1
175
     1
176
     1
 42
40.0
176
     1
 92
        8
176
     1
 66
     7
176
     1
 43
1.0
176
     1
 76
     1
176
     1
 77
     6
176
     1
 78
     2
176
     1
 67
     7
176
     1
 79
     3
176
     1
170
     0
176
     1
171
     0
176
     1
290
     0
176
     1
 93
        1
176
     1
 44
0.0
176
     1
173
     0
176
     1
  0
VISUALSTYLE
  5
35
102
{ACAD_REACTORS
330
2A
102
}
330
2A
100
AcDbVisualStyle
  2
Dim
 70
    11
177
     2
291
     1
 71
     2
176
     1
 72
     2
176
     1
 73
     0
176
     1
 90
        0
176
     1
 40
-0.6
176
     1
 41
-30.0
176
     1
 62
     5
 63
     7
421
 16777215
176
     1
 74
     1
176
     1
 91
        4
176
     1
 64
     7
176
     1
 65
   257
176
     1
 75
     1
176
     1
175
     1
176
     1
 42
1.0
176
     1
 92
        8
176
     1
 66
     7
176
     1
 43
1.0
176
     1
 76
     1
176
     1
 77
     6
176
     1
 78
     2
176
     1
 67
     7
176
     1
 79
     5
176
     1
170
     0
176
     1
171
     0
176
     1
290
     0
176
     1
 93
        1
176
     1
 44
-50.0
176
     1
173
     0
176
     1
  0
VISUALSTYLE
  5
39
102
{ACAD_REACTORS
330
2A
102
}
330
2A
100
AcDbVisualStyle
  2
Facepattern
 70
    15
177
     2
291
     1
 71
     2
176
     1
 72
     2
176
     1
 73
     0
176
     1
 90
        0
176
     1
 40
-0.6
176
     1
 41
-30.0
176
     1
 62
     5
 63
     7
421
 16777215
176
     1
 74
     1
176
     1
 91
        4
176
     1
 64
     7
176
     1
 65
   257
176
     1
 75
     1
176
     1
175
     1
176
     1
 42
1.0
176
     1
 92
        8
176
     1
 66
     7
176
     1
 43
1.0
176
     1
 76
     1
176
     1
 77
     6
176
     1
 78
     2
176
     1
 67
     7
176
     1
 79
     5
176
     1
170
     0
176
     1
171
     0
176
     1
290
     0
176
     1
 93
        1
176
     1
 44
0.0
176
     1
173
     0
176
     1
  0
VISUALSTYLE
  5
2B
102
{ACAD_REACTORS
330
2A
102
}
330
2A
100
AcDbVisualStyle
  2
Flat
 70
     0
177
     2
291
     1
 71
     2
176
     1
 72
     1
176
     1
 73
     1
176
     1
 90
        2
176
     1
 40
-0.6
176
     1
 41
30.0
176
     1
 62
     5
 63
     7
421
 16777215
176
     1
 74
     0
176
     1
 91
        4
176
     1
 64
     7
176
     1
 65
   257
176
     1
 75
     1
176
     1
175
     1
176
     1
 42
1.0
176
     1
 92
        8
176
     1
 66
     7
176
     1
 43
1.0
176
     1
 76
     1
176
     1
 77
     6
176
     1
 78
     2
176
     1
 67
     7
176
     1
 79
     5
176
     1
170
     0
176
     1
171
     0
176
     1
290
     0
176
     1
 93
       13
176
     1
 44
0.0
176
     1
173
     0
176
     1
  0
VISUALSTYLE
  5
2C
102
{ACAD_REACTORS
330
2A
102
}
330
2A
100
AcDbVisualStyle
  2
FlatWithEdges
 70
     1
177
     2
291
     1
 71
     2
176
     1
 72
     1
176
     1
 73
     1
176
     1
 90
        2
176
     1
 40
-0.6
176
     1
 41
30.0
176
     1
 62
     5
 63
     7
421
 16777215
176
     1
 74
     1
176
     1
 91
        4
176
     1
 64
     7
176
     1
 65
   257
176
     1
 75
     1
176
     1
175
     1
176
     1
 42
1.0
176
     1
 92
        0
176
     1
 66
   257
176
     1
 43
1.0
176
     1
 76
     1
176
     1
 77
     6
176
     1
 78
     2
176
     1
 67
     7
176
     1
 79
     5
176
     1
170
     0
176
     1
171
     0
176
     1
290
     0
176
     1
 93
       13
176
     1
 44
0.0
176
     1
173
     0
176
     1
  0
VISUALSTYLE
  5
2D
102
{ACAD_REACTORS
330
2A
102
}
330
2A
100
AcDbVisualStyle
  2
Gouraud
 70
     2
177
     2
291
     1
 71
     2
176
     1
 72
     2
176
     1
 73
     1
176
     1
 90
        2
176
     1
 40
-0.6
176
     1
 41
30.0
176
     1
 62
     5
 63
     7
421
 16777215
176
     1
 74
     0
176
     1
 91
        4
176
     1
 64
     7
176
     1
 65
   257
176
     1
 75
     1
176
     1
175
     1
176
     1
 42
1.0
176
     1
 92
        0
176
     1
 66
     7
176
     1
 43
1.0
176
     1
 76
     1
176
     1
 77
     6
176
     1
 78
     2
176
     1
 67
     7
176
     1
 79
     5
176
     1
170
     0
176
     1
171
     0
176
     1
290
     0
176
     1
 93
       13
176
     1
 44
0.0
176
     1
173
     0
176
     1
  0
VISUALSTYLE
  5
2E
102
{ACAD_REACTORS
330
2A
102
}
330
2A
100
AcDbVisualStyle
  2
GouraudWithEdges
 70
     3
177
     2
291
     1
 71
     2
176
     1
 72
     2
176
     1
 73
     1
176
     1
 90
        2
176
     1
 40
-0.6
176
     1
 41
30.0
176
     1
 62
     5
 63
     7
421
 16777215
176
     1
 74
     1
176
     1
 91
        4
176
     1
 64
     7
176
     1
 65
   257
176
     1
 75
     1
176
     1
175
     1
176
     1
 42
1.0
176
     1
 92
        0
176
     1
 66
   257
176
     1
 43
1.0
176
     1
 76
     1
176
     1
 77
     6
176
     1
 78
     2
176
     1
 67
     7
176
     1
 79
     5
176
     1
170
     0
176
     1
171
     0
176
     1
290
     0
176
     1
 93
       13
176
     1
 44
0.0
176
     1
173
     0
176
     1
  0
VISUALSTYLE
  5
38
102
{ACAD_REACTORS
330
2A
102
}
330
2A
100
AcDbVisualStyle
  2
Linepattern
 70
    14
177
     2
291
     1
 71
     2
176
     1
 72
     2
176
     1
 73
     0
176
     1
 90
        0
176
     1
 40
-0.6
176
     1
 41
-30.0
176
     1
 62
     5
 63
     7
421
 16777215
176
     1
 74
     1
176
     1
 91
        4
176
     1
 64
     7
176
     1
 65
   257
176
     1
 75
     7
176
     1
175
     7
176
     1
 42
1.0
176
     1
 92
        8
176
     1
 66
     7
176
     1
 43
1.0
176
     1
 76
     1
176
     1
 77
     6
176
     1
 78
     2
176
     1
 67
     7
176
     1
 79
     5
176
     1
170
     0
176
     1
171
     0
176
     1
290
     0
176
     1
 93
        1
176
     1
 44
0.0
176
     1
173
     0
176
     1
  0
VISUALSTYLE
  5
33
102
{ACAD_REACTORS
330
2A
102
}
330
2A
100
AcDbVisualStyle
  2
Realistic
 70
     8
177
     2
291
     0
 71
     2
176
     1
 72
     2
176
     1
 73
     0
176
     1
 90
        0
176
     1
 40
-0.6
176
     1
 41
-30.0
176
     1
 62
     5
 63
     7
421
 16777215
176
     1
 74
     1
176
     1
 91
        0
176
     1
 64
     7
176
     1
 65
   257
176
     1
 75
     1
176
     1
175
     1
176
     1
 42
1.0
176
     1
 92
        8
176
     1
 66
     8
424
  7895160
176
     1
 43
1.0
176
     1
 76
     1
176
     1
 77
     6
176
     1
 78
     2
176
     1
 67
     7
176
     1
 79
     5
176
     1
170
     0
176
     1
171
     0
176
     1
290
     0
176
     1
 93
       13
176
     1
 44
0.0
176
     1
173
     0
176
     1
  0
VISUALSTYLE
  5
37
102
{ACAD_REACTORS
330
2A
102
}
330
2A
100
AcDbVisualStyle
  2
Thicken
 70
    13
177
     2
291
     1
 71
     2
176
     1
 72
     2
176
     1
 73
     0
176
     1
 90
        0
176
     1
 40
-0.6
176
     1
 41
-30.0
176
     1
 62
     5
 63
     7
421
 16777215
176
     1
 74
     1
176
     1
 91
        4
176
     1
 64
     7
176
     1
 65
   257
176
     1
 75
     1
176
     1
175
     1
176
     1
 42
1.0
176
     1
 92
       12
176
     1
 66
     7
176
     1
 43
1.0
176
     1
 76
     1
176
     1
 77
     6
176
     1
 78
     2
176
     1
 67
     7
176
     1
 79
     5
176
     1
170
     0
176
     1
171
     0
176
     1
290
     0
176
     1
 93
        1
176
     1
 44
0.0
176
     1
173
     0
176
     1
  0
ENDSEC
  0
EOF
