  0
SECTION
  2
HEADER
  9
$ACADVER
  1
AC1024
  9
$ACADMAINTVER
 70
     6
  9
$DWGCODEPAGE
  3
ANSI_932
  9
$INSBASE
 10
0.0
 20
0.0
 30
0.0
  9
$EXTMIN
 10
-6300.0
 20
-4455.0
 30
0.0
  9
$EXTMAX
 10
6300.0
 20
4455.0
 30
0.0
  9
$LIMMIN
 10
-6300.0
 20
-4455.0
  9
$LIMMAX
 10
6300.0
 20
4455.0
  9
$ORTHOMODE
 70
     0
  9
$REGENMODE
 70
     1
  9
$FILLMODE
 70
     1
  9
$QTEXTMODE
 70
     0
  9
$MIRRTEXT
 70
     1
  9
$LTSCALE
 40
30.0
  9
$ATTMODE
 70
     1
  9
$TEXTSIZE
 40
2.5
  9
$TRACEWID
 40
1.0
  9
$TEXTSTYLE
  7
Standard
  9
$CLAYER
  8
0
  9
$CELTYPE
  6
ByLayer
  9
$CECOLOR
 62
   256
  9
$CELTSCALE
 40
1.0
  9
$DISPSILH
 70
     0
  9
$DIMSCALE
 40
1.0
  9
$DIMASZ
 40
2.5
  9
$DIMEXO
 40
0.625
  9
$DIMDLI
 40
3.75
  9
$DIMRND
 40
0.0
  9
$DIMDLE
 40
0.0
  9
$DIMEXE
 40
1.25
  9
$DIMTP
 40
0.0
  9
$DIMTM
 40
0.0
  9
$DIMTXT
 40
2.5
  9
$DIMCEN
 40
2.5
  9
$DIMTSZ
 40
0.0
  9
$DIMTOL
 70
     0
  9
$DIMLIM
 70
     0
  9
$DIMTIH
 70
     0
  9
$DIMTOH
 70
     0
  9
$DIMSE1
 70
     0
  9
$DIMSE2
 70
     0
  9
$DIMTAD
 70
     1
  9
$DIMZIN
 70
     8
  9
$DIMBLK
  1

  9
$DIMASO
 70
     1
  9
$DIMSHO
 70
     1
  9
$DIMPOST
  1

  9
$DIMAPOST
  1

  9
$DIMALT
 70
     0
  9
$DIMALTD
 70
     3
  9
$DIMALTF
 40
0.03937007874016
  9
$DIMLFAC
 40
1.0
  9
$DIMTOFL
 70
     1
  9
$DIMTVP
 40
0.0
  9
$DIMTIX
 70
     0
  9
$DIMSOXD
 70
     0
  9
$DIMSAH
 70
     0
  9
$DIMBLK1
  1

  9
$DIMBLK2
  1

  9
$DIMSTYLE
  2
ISO-25
  9
$DIMCLRD
 70
     0
  9
$DIMCLRE
 70
     0
  9
$DIMCLRT
 70
     0
  9
$DIMTFAC
 40
1.0
  9
$DIMGAP
 40
0.625
  9
$DIMJUST
 70
     0
  9
$DIMSD1
 70
     0
  9
$DIMSD2
 70
     0
  9
$DIMTOLJ
 70
     0
  9
$DIMTZIN
 70
     8
  9
$DIMALTZ
 70
     0
  9
$DIMALTTZ
 70
     0
  9
$DIMUPT
 70
     0
  9
$DIMDEC
 70
     2
  9
$DIMTDEC
 70
     2
  9
$DIMALTU
 70
     2
  9
$DIMALTTD
 70
     3
  9
$DIMTXSTY
  7
Standard
  9
$DIMAUNIT
 70
     0
  9
$DIMADEC
 70
     0
  9
$DIMALTRND
 40
0.0
  9
$DIMAZIN
 70
     0
  9
$DIMDSEP
 70
    44
  9
$DIMATFIT
 70
     3
  9
$DIMFRAC
 70
     0
  9
$DIMLDRBLK
  1

  9
$DIMLUNIT
 70
     2
  9
$DIMLWD
 70
    -2
  9
$DIMLWE
 70
    -2
  9
$DIMTMOVE
 70
     0
  9
$DIMFXL
 40
1.0
  9
$DIMFXLON
 70
     0
  9
$DIMJOGANG
 40
0.7853981633974483
  9
$DIMTFILL
 70
     0
  9
$DIMTFILLCLR
 70
     0
  9
$DIMARCSYM
 70
     0
  9
$DIMLTYPE
  6

  9
$DIMLTEX1
  6

  9
$DIMLTEX2
  6

  9
$DIMTXTDIRECTION
 70
     0
  9
$LUNITS
 70
     2
  9
$LUPREC
 70
     4
  9
$SKETCHINC
 40
1.0
  9
$FILLETRAD
 40
10.0
  9
$AUNITS
 70
     0
  9
$AUPREC
 70
     0
  9
$MENU
  1
.
  9
$ELEVATION
 40
0.0
  9
$PELEVATION
 40
0.0
  9
$THICKNESS
 40
0.0
  9
$LIMCHECK
 70
     0
  9
$CHAMFERA
 40
10.0
  9
$CHAMFERB
 40
10.0
  9
$CHAMFERC
 40
20.0
  9
$CHAMFERD
 40
0.0
  9
$SKPOLY
 70
     0
  9
$TDCREATE
 40
2459432.543779028
  9
$TDUCREATE
 40
2459432.168779028
  9
$TDUPDATE
 40
2459432.543779039
  9
$TDUUPDATE
 40
2459432.168779039
  9
$TDINDWG
 40
0.0000000116
  9
$TDUSRTIMER
 40
0.0000000116
  9
$USRTIMER
 70
     1
  9
$ANGBASE
 50
0.0
  9
$ANGDIR
 70
     0
  9
$PDMODE
 70
     0
  9
$PDSIZE
 40
0.0
  9
$PLINEWID
 40
0.0
  9
$SPLFRAME
 70
     0
  9
$SPLINETYPE
 70
     6
  9
$SPLINESEGS
 70
     8
  9
$HANDSEED
  5
478
  9
$SURFTAB1
 70
     6
  9
$SURFTAB2
 70
     6
  9
$SURFTYPE
 70
     6
  9
$SURFU
 70
     6
  9
$SURFV
 70
     6
  9
$UCSBASE
  2

  9
$UCSNAME
  2

  9
$UCSORG
 10
0.0
 20
0.0
 30
0.0
  9
$UCSXDIR
 10
1.0
 20
0.0
 30
0.0
  9
$UCSYDIR
 10
0.0
 20
1.0
 30
0.0
  9
$UCSORTHOREF
  2

  9
$UCSORTHOVIEW
 70
     0
  9
$UCSORGTOP
 10
0.0
 20
0.0
 30
0.0
  9
$UCSORGBOTTOM
 10
0.0
 20
0.0
 30
0.0
  9
$UCSORGLEFT
 10
0.0
 20
0.0
 30
0.0
  9
$UCSORGRIGHT
 10
0.0
 20
0.0
 30
0.0
  9
$UCSORGFRONT
 10
0.0
 20
0.0
 30
0.0
  9
$UCSORGBACK
 10
0.0
 20
0.0
 30
0.0
  9
$PUCSBASE
  2

  9
$PUCSNAME
  2

  9
$PUCSORG
 10
0.0
 20
0.0
 30
0.0
  9
$PUCSXDIR
 10
1.0
 20
0.0
 30
0.0
  9
$PUCSYDIR
 10
0.0
 20
1.0
 30
0.0
  9
$PUCSORTHOREF
  2

  9
$PUCSORTHOVIEW
 70
     0
  9
$PUCSORGTOP
 10
0.0
 20
0.0
 30
0.0
  9
$PUCSORGBOTTOM
 10
0.0
 20
0.0
 30
0.0
  9
$PUCSORGLEFT
 10
0.0
 20
0.0
 30
0.0
  9
$PUCSORGRIGHT
 10
0.0
 20
0.0
 30
0.0
  9
$PUCSORGFRONT
 10
0.0
 20
0.0
 30
0.0
  9
$PUCSORGBACK
 10
0.0
 20
0.0
 30
0.0
  9
$USERI1
 70
     0
  9
$USERI2
 70
     0
  9
$USERI3
 70
     0
  9
$USERI4
 70
     0
  9
$USERI5
 70
     0
  9
$USERR1
 40
0.0
  9
$USERR2
 40
0.0
  9
$USERR3
 40
0.0
  9
$USERR4
 40
0.0
  9
$USERR5
 40
0.0
  9
$WORLDVIEW
 70
     1
  9
$SHADEDGE
 70
     3
  9
$SHADEDIF
 70
    70
  9
$TILEMODE
 70
     1
  9
$MAXACTVP
 70
    64
  9
$PINSBASE
 10
0.0
 20
0.0
 30
0.0
  9
$PLIMCHECK
 70
     0
  9
$PEXTMIN
 10
1.000000000000000E+20
 20
1.000000000000000E+20
 30
1.000000000000000E+20
  9
$PEXTMAX
 10
-1.000000000000000E+20
 20
-1.000000000000000E+20
 30
-1.000000000000000E+20
  9
$PLIMMIN
 10
0.0
 20
0.0
  9
$PLIMMAX
 10
420.0
 20
297.0
  9
$UNITMODE
 70
     0
  9
$VISRETAIN
 70
     1
  9
$PLINEGEN
 70
     0
  9
$PSLTSCALE
 70
     1
  9
$TREEDEPTH
 70
  3020
  9
$CMLSTYLE
  2
Standard
  9
$CMLJUST
 70
     0
  9
$CMLSCALE
 40
20.0
  9
$PROXYGRAPHICS
 70
     1
  9
$MEASUREMENT
 70
     1
  9
$CELWEIGHT
370
    -1
  9
$ENDCAPS
280
     0
  9
$JOINSTYLE
280
     0
  9
$LWDISPLAY
290
     0
  9
$INSUNITS
 70
     4
  9
$HYPERLINKBASE
  1

  9
$STYLESHEET
  1

  9
$XEDIT
290
     1
  9
$CEPSNTYPE
380
     0
  9
$PSTYLEMODE
290
     1
  9
$FINGERPRINTGUID
  2
{FF6635DC-4C75-4DFF-B4B9-DC15FC52B212}
  9
$VERSIONGUID
  2
{FAEB1C32-E019-11D5-929B-00C0DF256EC4}
  9
$EXTNAMES
290
     1
  9
$PSVPSCALE
 40
0.0
  9
$OLESTARTUP
290
     0
  9
$SORTENTS
280
   127
  9
$INDEXCTL
280
     0
  9
$HIDETEXT
280
     1
  9
$XCLIPFRAME
280
     2
  9
$HALOGAP
280
     0
  9
$OBSCOLOR
 70
   257
  9
$OBSLTYPE
280
     0
  9
$INTERSECTIONDISPLAY
280
     0
  9
$INTERSECTIONCOLOR
 70
   257
  9
$DIMASSOC
280
     2
  9
$PROJECTNAME
  1

  9
$CAMERADISPLAY
290
     0
  9
$LENSLENGTH
 40
50.0
  9
$CAMERAHEIGHT
 40
0.0
  9
$STEPSPERSEC
 40
2.0
  9
$STEPSIZE
 40
6.0
  9
$3DDWFPREC
 40
2.0
  9
$PSOLWIDTH
 40
5.0
  9
$PSOLHEIGHT
 40
80.0
  9
$LOFTANG1
 40
1.570796326794897
  9
$LOFTANG2
 40
1.570796326794897
  9
$LOFTMAG1
 40
0.0
  9
$LOFTMAG2
 40
0.0
  9
$LOFTPARAM
 70
     7
  9
$LOFTNORMALS
280
     1
  9
$LATITUDE
 40
37.795
  9
$LONGITUDE
 40
-122.394
  9
$NORTHDIRECTION
 40
0.0
  9
$TIMEZONE
 70
 -8000
  9
$LIGHTGLYPHDISPLAY
280
     1
  9
$TILEMODELIGHTSYNCH
280
     1
  9
$SOLIDHIST
280
     1
  9
$SHOWHIST
280
     1
  9
$DWFFRAME
280
     2
  9
$DGNFRAME
280
     2
  9
$REALWORLDSCALE
290
     1
  9
$INTERFERECOLOR
 62
   256
  9
$CSHADOW
280
     0
  9
$SHADOWPLANELOCATION
 40
0.0
  0
ENDSEC
  0
SECTION
  2
CLASSES
  0
CLASS
  1
ACDBDICTIONARYWDFLT
  2
AcDbDictionaryWithDefault
  3
ObjectDBX Classes
 90
        0
 91
        4
280
     0
281
     0
  0
CLASS
  1
VISUALSTYLE
  2
AcDbVisualStyle
  3
ObjectDBX Classes
 90
     4095
 91
        4
280
     0
281
     0
  0
CLASS
  1
MATERIAL
  2
AcDbMaterial
  3
ObjectDBX Classes
 90
     1153
 91
        4
280
     0
281
     0
  0
ENDSEC
  0
SECTION
  2
TABLES
  0
TABLE
  2
VPORT
  5
8
330
0
100
AcDbSymbolTable
 70
     1
  0
VPORT
  5
29
330
8
100
AcDbSymbolTableRecord
100
AcDbViewportTableRecord
  2
*Active
 70
     0
 10
0.0
 20
0.0
 11
1.0
 21
1.0
 12
0.0
 22
0.0
 13
0.0
 23
0.0
 14
10.0
 24
10.0
 15
10.0
 25
10.0
 16
0.0
 26
0.0
 36
1.0
 17
0.0
 27
0.0
 37
0.0
 40
9801.0
 41
1.414141414141414
 42
50.0
 43
0.0
 44
0.0
 50
0.0
 51
0.0
 71
     0
 72
 10000
 73
     1
 74
     3
 75
     0
 76
     0
 77
     0
 78
     0
281
     0
 65
     1
110
0.0
120
0.0
130
0.0
111
1.0
121
0.0
131
0.0
112
0.0
122
1.0
132
0.0
 79
     0
146
0.0
 60
     3
 61
     5
292
     1
282
     1
141
0.0
142
0.0
 63
   250
  0
ENDTAB
  0
TABLE
  2
LTYPE
  5
5
330
0
100
AcDbSymbolTable
 70
     3
  0
LTYPE
  5
14
330
5
100
AcDbSymbolTableRecord
100
AcDbLinetypeTableRecord
  2
ByBlock
 70
     0
  3

 72
    65
 73
     0
 40
0.0
  0
LTYPE
  5
15
330
5
100
AcDbSymbolTableRecord
100
AcDbLinetypeTableRecord
  2
ByLayer
 70
     0
  3

 72
    65
 73
     0
 40
0.0
  0
LTYPE
  5
16
330
5
100
AcDbSymbolTableRecord
100
AcDbLinetypeTableRecord
  2
Continuous
 70
     0
  3
Solid line
 72
    65
 73
     0
 40
0.0
  0
LTYPE
  5
3F
330
5
100
AcDbSymbolTableRecord
100
AcDbLinetypeTableRecord
  2
JWW_HOJO
 70
     0
  3
  -   -   -   -   -   -   -   - 
 72
    65
 73
     2
 40
1.693333333333333
 49
-1.27
 74
     0
 49
0.4233333333333333
 74
     0
  0
LTYPE
  5
40
330
5
100
AcDbSymbolTableRecord
100
AcDbLinetypeTableRecord
  2
JWW_DASHED1
 70
     0
  3
-  --  --  --  --  --  --  --  -
 72
    65
 73
     2
 40
1.693333333333333
 49
0.8466666666666667
 74
     0
 49
-0.8466666666666667
 74
     0
  0
ENDTAB
  0
TABLE
  2
LAYER
  5
2
330
0
100
AcDbSymbolTable
 70
     9
  0
LAYER
  5
10
330
2
100
AcDbSymbolTableRecord
100
AcDbLayerTableRecord
  2
0
 70
     0
 62
     7
  6
Continuous
370
    -3
390
F
347
3E
  0
LAYER
  5
41
330
2
100
AcDbSymbolTableRecord
100
AcDbLayerTableRecord
  2
F-1
 70
     0
 62
     7
  6
Continuous
370
    -3
390
F
347
3E
  0
LAYER
  5
42
330
2
100
AcDbSymbolTableRecord
100
AcDbLayerTableRecord
  2
F-0
 70
     0
 62
     7
  6
Continuous
370
    -3
390
F
347
3E
  0
LAYER
  5
43
330
2
100
AcDbSymbolTableRecord
100
AcDbLayerTableRecord
  2
0-B
 70
     0
 62
     7
  6
Continuous
370
    -3
390
F
347
3E
  0
LAYER
  5
44
330
2
100
AcDbSymbolTableRecord
100
AcDbLayerTableRecord
  2
0-4
 70
     0
 62
     7
  6
Continuous
370
    -3
390
F
347
3E
  0
LAYER
  5
45
330
2
100
AcDbSymbolTableRecord
100
AcDbLayerTableRecord
  2
0-7
 70
     0
 62
     7
  6
Continuous
370
    -3
390
F
347
3E
  0
LAYER
  5
46
330
2
100
AcDbSymbolTableRecord
100
AcDbLayerTableRecord
  2
0-0
 70
     0
 62
     7
  6
Continuous
370
    -3
390
F
347
3E
  0
LAYER
  5
47
330
2
100
AcDbSymbolTableRecord
100
AcDbLayerTableRecord
  2
0-A
 70
     0
 62
     7
  6
Continuous
370
    -3
390
F
347
3E
  0
LAYER
  5
48
330
2
100
AcDbSymbolTableRecord
100
AcDbLayerTableRecord
  2
F-A
 70
     0
 62
     7
  6
Continuous
370
    -3
390
F
347
3E
  0
ENDTAB
  0
TABLE
  2
STYLE
  5
3
330
0
100
AcDbSymbolTable
 70
     1
  0
STYLE
  5
11
330
3
100
AcDbSymbolTableRecord
100
AcDbTextStyleTableRecord
  2
Standard
 70
     0
 40
0.0
 41
1.0
 50
0.0
 71
     0
 42
2.5
  3
txt
  4

  0
ENDTAB
  0
TABLE
  2
VIEW
  5
6
330
0
100
AcDbSymbolTable
 70
     0
  0
ENDTAB
  0
TABLE
  2
UCS
  5
7
330
0
100
AcDbSymbolTable
 70
     0
  0
ENDTAB
  0
TABLE
  2
APPID
  5
9
330
0
100
AcDbSymbolTable
 70
     1
  0
APPID
  5
12
330
9
100
AcDbSymbolTableRecord
100
AcDbRegAppTableRecord
  2
ACAD
 70
     0
  0
ENDTAB
  0
TABLE
  2
DIMSTYLE
  5
A
330
0
100
AcDbSymbolTable
 70
     1
100
AcDbDimStyleTable
  0
DIMSTYLE
105
27
330
A
100
AcDbSymbolTableRecord
100
AcDbDimStyleTableRecord
  2
ISO-25
 70
     0
 41
2.5
 42
0.625
 43
3.75
 44
1.25
 73
     0
 74
     0
 77
     1
 78
     8
140
2.5
141
2.5
143
0.03937007874016
147
0.625
171
     3
172
     1
178
     0
271
     2
272
     2
274
     3
278
    44
283
     0
284
     8
340
11
  0
ENDTAB
  0
TABLE
  2
BLOCK_RECORD
  5
1
330
0
100
AcDbSymbolTable
 70
     1
  0
BLOCK_RECORD
  5
1F
330
1
100
AcDbSymbolTableRecord
100
AcDbBlockTableRecord
  2
*Model_Space
340
22
 70
     0
280
     1
281
     0
  0
BLOCK_RECORD
  5
1B
330
1
100
AcDbSymbolTableRecord
100
AcDbBlockTableRecord
  2
*Paper_Space
340
1E
 70
     0
280
     1
281
     0
  0
BLOCK_RECORD
  5
23
330
1
100
AcDbSymbolTableRecord
100
AcDbBlockTableRecord
  2
*Paper_Space0
340
26
 70
     0
280
     1
281
     0
  0
ENDTAB
  0
ENDSEC
  0
SECTION
  2
BLOCKS
  0
BLOCK
  5
20
330
1F
100
AcDbEntity
  8
0
100
AcDbBlockBegin
  2
*Model_Space
 70
     0
 10
0.0
 20
0.0
 30
0.0
  3
*Model_Space
  1

  0
ENDBLK
  5
21
330
1F
100
AcDbEntity
  8
0
100
AcDbBlockEnd
  0
BLOCK
  5
1C
330
1B
100
AcDbEntity
 67
     1
  8
0
100
AcDbBlockBegin
  2
*Paper_Space
 70
     0
 10
0.0
 20
0.0
 30
0.0
  3
*Paper_Space
  1

  0
ENDBLK
  5
1D
330
1B
100
AcDbEntity
 67
     1
  8
0
100
AcDbBlockEnd
  0
BLOCK
  5
24
330
23
100
AcDbEntity
  8
0
100
AcDbBlockBegin
  2
*Paper_Space0
 70
     0
 10
0.0
 20
0.0
 30
0.0
  3
*Paper_Space0
  1

  0
ENDBLK
  5
25
330
23
100
AcDbEntity
  8
0
100
AcDbBlockEnd
  0
ENDSEC
  0
SECTION
  2
ENTITIES
  0
LINE
  5
49
330
1F
100
AcDbEntity
  8
F-1
  6
Continuous
 62
     7
370
     9
100
AcDbLine
 10
1114.999521616338
 20
3710.000461887669
 30
0.0
 11
1114.999521616338
 21
-3795.000211870349
 31
0.0
  0
LINE
  5
4A
330
1F
100
AcDbEntity
  8
F-1
  6
Continuous
 62
     7
370
     9
100
AcDbLine
 10
904.9995216163379
 20
4175.047857439195
 30
0.0
 11
904.9995216163379
 21
-3795.000211870348
 31
0.0
  0
LINE
  5
4B
330
1F
100
AcDbEntity
  8
F-0
  6
JWW_HOJO
 62
     7
370
     9
100
AcDbLine
 10
-210.0001237199109
 20
-3795.000003092998
 30
0.0
 11
-210.0001237199109
 21
-4195.000008247994
 31
0.0
  0
LINE
  5
4C
330
1F
100
AcDbEntity
  8
F-0
  6
JWW_HOJO
 62
     7
370
     9
100
AcDbLine
 10
-5247.547376752838
 20
-3795.000003092999
 30
0.0
 11
-5247.547376752838
 21
-4205.000164959882
 31
0.0
  0
LINE
  5
4D
330
1F
100
AcDbEntity
  8
F-1
  6
Continuous
 62
   200
370
    20
100
AcDbLine
 10
5699.998762800888
 20
-3790.000017526987
 30
0.0
 11
-5999.999752560178
 21
-3790.000017526987
 31
0.0
  0
LINE
  5
4E
330
1F
100
AcDbEntity
  8
F-1
  6
Continuous
 62
   200
370
    20
100
AcDbLine
 10
5699.998762800888
 20
-3795.000003092998
 30
0.0
 11
-5999.999752560178
 21
-3795.000003092998
 31
0.0
  0
LINE
  5
4F
330
1F
100
AcDbEntity
  8
F-0
  6
JWW_HOJO
 62
     7
370
     9
100
AcDbLine
 10
4279.999224688556
 20
-3795.000003092998
 30
0.0
 11
4279.999224688556
 21
-4195.000008247994
 31
0.0
  0
LINE
  5
50
330
1F
100
AcDbEntity
  8
F-0
  6
JWW_HOJO
 62
     7
370
     9
100
AcDbLine
 10
-60.0001237199109
 20
-3795.000003092998
 30
0.0
 11
-60.0001237199109
 21
-4195.000008247994
 31
0.0
  0
LINE
  5
51
330
1F
100
AcDbEntity
  8
F-0
  6
JWW_HOJO
 62
     7
370
     9
100
AcDbLine
 10
2779.998729808911
 20
-3795.000003092998
 30
0.0
 11
2779.998729808911
 21
-4195.000008247994
 31
0.0
  0
LINE
  5
52
330
1F
100
AcDbEntity
  8
F-0
  6
JWW_HOJO
 62
     7
370
     9
100
AcDbLine
 10
-149.9999889439155
 20
-3849.999737218109
 30
0.0
 11
5689.999112024728
 21
-3850.005165429218
 31
0.0
  0
LINE
  5
53
330
1F
100
AcDbEntity
  8
F-0
  6
JWW_HOJO
 62
     7
370
     9
100
AcDbLine
 10
-150.0000725978671
 20
-3939.99973721807
 30
0.0
 11
5689.999028370777
 21
-3940.005165429179
 31
0.0
  0
LINE
  5
54
330
1F
100
AcDbEntity
  8
F-0
  6
JWW_HOJO
 62
     7
370
     9
100
AcDbLine
 10
-150.0001748415872
 20
-4049.999739778022
 30
0.0
 11
5689.998926127057
 21
-4050.005167989131
 31
0.0
  0
LINE
  5
55
330
1F
100
AcDbEntity
  8
F-0
  6
JWW_HOJO
 62
     7
370
     9
100
AcDbLine
 10
-150.0002584955388
 20
-4139.999739777983
 30
0.0
 11
5689.998842473105
 21
-4140.005167989091
 31
0.0
  0
LINE
  5
56
330
1F
100
AcDbEntity
  8
F-0
  6
JWW_HOJO
 62
     7
370
     9
100
AcDbLine
 10
-5989.999990205507
 20
-4084.99993607839
 30
0.0
 11
-150.0001237199109
 21
-4084.99993607839
 31
0.0
  0
LINE
  5
57
330
1F
100
AcDbEntity
  8
F-0
  6
JWW_HOJO
 62
     7
370
     9
100
AcDbLine
 10
-5989.999990205507
 20
-3904.99993607839
 30
0.0
 11
-150.0001237199109
 21
-3904.99993607839
 31
0.0
  0
LINE
  5
58
330
1F
100
AcDbEntity
  8
F-0
  6
JWW_HOJO
 62
     7
370
     9
100
AcDbLine
 10
-5989.999990205507
 20
-3994.99993607839
 30
0.0
 11
-150.0001237199109
 21
-3994.99993607839
 31
0.0
  0
LINE
  5
59
330
1F
100
AcDbEntity
  8
F-1
  6
Continuous
 62
   200
370
    20
100
AcDbLine
 10
-150.0001237199109
 20
-3994.999936078046
 30
0.0
 11
5689.998977248734
 21
-3995.005364289155
 31
0.0
  0
LINE
  5
5A
330
1F
100
AcDbEntity
  8
F-1
  6
Continuous
 62
   200
370
    20
100
AcDbLine
 10
-150.0001237199109
 20
-3795.000003092998
 30
0.0
 11
-150.0001237199109
 21
-4195.000008247994
 31
0.0
  0
LINE
  5
5B
330
1F
100
AcDbEntity
  8
F-1
  6
Continuous
 62
   200
370
    20
100
AcDbLine
 10
2689.998729808911
 20
-3795.000003092998
 30
0.0
 11
2689.998729808911
 21
-4195.000008247994
 31
0.0
  0
LINE
  5
5C
330
1F
100
AcDbEntity
  8
F-1
  6
Continuous
 62
   200
370
    20
100
AcDbLine
 10
4189.999224688556
 20
-3795.000003092998
 30
0.0
 11
4189.999224688556
 21
-4195.000008247994
 31
0.0
  0
LINE
  5
5D
330
1F
100
AcDbEntity
  8
F-1
  6
Continuous
 62
   200
370
    20
100
AcDbLine
 10
5699.998762800888
 20
-4195.000008247994
 30
0.0
 11
-5999.999752560178
 21
-4195.000008247994
 31
0.0
  0
LINE
  5
5E
330
1F
100
AcDbEntity
  8
F-1
  6
Continuous
 62
   200
370
    20
100
AcDbLine
 10
5699.998762800888
 20
-4199.999993814004
 30
0.0
 11
-5999.999752560178
 21
-4199.999993814004
 31
0.0
  0
LINE
  5
5F
330
1F
100
AcDbEntity
  8
F-1
  6
Continuous
 62
   200
370
    20
100
AcDbLine
 10
5699.998762800888
 20
-4205.000002577498
 30
0.0
 11
-5999.999752560178
 21
-4205.000002577498
 31
0.0
  0
LINE
  5
60
330
1F
100
AcDbEntity
  8
F-0
  6
JWW_HOJO
 62
     7
370
     9
100
AcDbLine
 10
349.9999175200594
 20
-3795.000003092998
 30
0.0
 11
349.9999175200594
 21
-4195.000008247994
 31
0.0
  0
LINE
  5
61
330
1F
100
AcDbEntity
  8
F-0
  6
JWW_HOJO
 62
     7
370
     9
100
AcDbLine
 10
849.9995876002961
 20
-3795.000003092998
 30
0.0
 11
849.9995876002961
 21
-4195.000008247994
 31
0.0
  0
LINE
  5
62
330
1F
100
AcDbEntity
  8
0-B
  6
Continuous
 62
   120
370
     5
100
AcDbLine
 10
-3302.500393841723
 20
926.4286997143353
 30
0.0
 11
-3248.500393841724
 21
926.4286997143353
 31
0.0
  0
LINE
  5
63
330
1F
100
AcDbEntity
  8
0-B
  6
Continuous
 62
   120
370
     5
100
AcDbLine
 10
-3302.500393841723
 20
1086.428699714336
 30
0.0
 11
-3248.500393841724
 21
1086.428699714336
 31
0.0
  0
LWPOLYLINE
  5
64
330
1F
100
AcDbEntity
  8
0-B
  6
Continuous
 62
     7
370
     9
100
AcDbPolyline
 90
        4
 70
     1
 43
3.0
 10
-3301.000393841723
 20
926.4286997143353
 42
0.4142135623731
 10
-3302.500393841723
 20
927.9286997143353
 42
0.4142135623731
 10
-3304.000393841723
 20
926.4286997143353
 42
0.4142135623731
 10
-3302.500393841723
 20
924.9286997143353
 42
0.4142135623731
  0
LWPOLYLINE
  5
65
330
1F
100
AcDbEntity
  8
0-B
  6
Continuous
 62
     7
370
     9
100
AcDbPolyline
 90
        4
 70
     1
 43
3.0
 10
-3301.000393841723
 20
1086.428699714336
 42
0.4142135623731
 10
-3302.500393841723
 20
1087.928699714335
 42
0.4142135623731
 10
-3304.000393841723
 20
1086.428699714336
 42
0.4142135623731
 10
-3302.500393841723
 20
1084.928699714336
 42
0.4142135623731
  0
LINE
  5
66
330
1F
100
AcDbEntity
  8
0-B
  6
Continuous
 62
   120
370
     5
100
AcDbLine
 10
-3302.500393841723
 20
1086.428699714336
 30
0.0
 11
-3302.500393841723
 21
926.4286997143353
 31
0.0
  0
LINE
  5
67
330
1F
100
AcDbEntity
  8
0-B
  6
Continuous
 62
   120
370
     5
100
AcDbLine
 10
-4302.500393841724
 20
676.4286997143333
 30
0.0
 11
-4302.500393841724
 21
876.4286997143356
 31
0.0
  0
LINE
  5
68
330
1F
100
AcDbEntity
  8
0-B
  6
Continuous
 62
   120
370
     5
100
AcDbLine
 10
-2682.500393841724
 20
676.4286997143333
 30
0.0
 11
-2682.500393841724
 21
876.4286997143356
 31
0.0
  0
LWPOLYLINE
  5
69
330
1F
100
AcDbEntity
  8
0-B
  6
Continuous
 62
     7
370
     9
100
AcDbPolyline
 90
        4
 70
     1
 43
3.0
 10
-4301.000393841724
 20
676.4286997143333
 42
0.4142135623731
 10
-4302.500393841724
 20
677.9286997143333
 42
0.4142135623731
 10
-4304.000393841724
 20
676.4286997143333
 42
0.4142135623731
 10
-4302.500393841724
 20
674.9286997143332
 42
0.4142135623731
  0
LWPOLYLINE
  5
6A
330
1F
100
AcDbEntity
  8
0-B
  6
Continuous
 62
     7
370
     9
100
AcDbPolyline
 90
        4
 70
     1
 43
3.0
 10
-2681.000393841724
 20
676.4286997143333
 42
0.4142135623731
 10
-2682.500393841724
 20
677.9286997143333
 42
0.4142135623731
 10
-2684.000393841724
 20
676.4286997143333
 42
0.4142135623731
 10
-2682.500393841724
 20
674.9286997143332
 42
0.4142135623731
  0
LINE
  5
6B
330
1F
100
AcDbEntity
  8
0-B
  6
Continuous
 62
   120
370
     5
100
AcDbLine
 10
-2682.500393841724
 20
676.4286997143333
 30
0.0
 11
-4302.500393841724
 21
676.4286997143333
 31
0.0
  0
LWPOLYLINE
  5
6C
330
1F
100
AcDbEntity
  8
0-B
  6
Continuous
 62
     7
370
     9
100
AcDbPolyline
 90
        4
 70
     1
 43
3.0
 10
-2681.000393841724
 20
776.4286997143353
 42
0.4142135623731
 10
-2682.500393841724
 20
777.9286997143353
 42
0.4142135623731
 10
-2684.000393841724
 20
776.4286997143353
 42
0.4142135623731
 10
-2682.500393841724
 20
774.9286997143353
 42
0.4142135623731
  0
LINE
  5
6D
330
1F
100
AcDbEntity
  8
0-B
  6
Continuous
 62
   120
370
     5
100
AcDbLine
 10
-3158.500393841724
 20
776.4286997143353
 30
0.0
 11
-2682.500393841724
 21
776.4286997143353
 31
0.0
  0
LINE
  5
6E
330
1F
100
AcDbEntity
  8
0-B
  6
Continuous
 62
   120
370
     5
100
AcDbLine
 10
-3158.500393841724
 20
776.4286997143353
 30
0.0
 11
-3158.500393841724
 21
876.4286997143356
 31
0.0
  0
LWPOLYLINE
  5
6F
330
1F
100
AcDbEntity
  8
0-B
  6
Continuous
 62
     7
370
     9
100
AcDbPolyline
 90
        4
 70
     1
 43
3.0
 10
-3157.000393841724
 20
776.4286997143353
 42
0.4142135623731
 10
-3158.500393841724
 20
777.9286997143353
 42
0.4142135623731
 10
-3160.000393841724
 20
776.4286997143353
 42
0.4142135623731
 10
-3158.500393841724
 20
774.9286997143353
 42
0.4142135623731
  0
LINE
  5
70
330
1F
100
AcDbEntity
  8
0-B
  6
Continuous
 62
   120
370
     5
100
AcDbLine
 10
-3446.500393841721
 20
776.4286997143353
 30
0.0
 11
-3158.500393841724
 21
776.4286997143353
 31
0.0
  0
LINE
  5
71
330
1F
100
AcDbEntity
  8
0-B
  6
Continuous
 62
   120
370
     5
100
AcDbLine
 10
-3446.500393841721
 20
776.4286997143353
 30
0.0
 11
-3446.500393841721
 21
876.4286997143356
 31
0.0
  0
LWPOLYLINE
  5
72
330
1F
100
AcDbEntity
  8
0-B
  6
Continuous
 62
     7
370
     9
100
AcDbPolyline
 90
        4
 70
     1
 43
3.0
 10
-3445.000393841722
 20
776.4286997143353
 42
0.4142135623731
 10
-3446.500393841721
 20
777.9286997143353
 42
0.4142135623731
 10
-3448.000393841721
 20
776.4286997143353
 42
0.4142135623731
 10
-3446.500393841721
 20
774.9286997143353
 42
0.4142135623731
  0
LWPOLYLINE
  5
73
330
1F
100
AcDbEntity
  8
0-B
  6
Continuous
 62
     7
370
     9
100
AcDbPolyline
 90
        4
 70
     1
 43
3.0
 10
-4301.000393841724
 20
776.4286997143353
 42
0.4142135623731
 10
-4302.500393841724
 20
777.9286997143353
 42
0.4142135623731
 10
-4304.000393841724
 20
776.4286997143353
 42
0.4142135623731
 10
-4302.500393841724
 20
774.9286997143353
 42
0.4142135623731
  0
LINE
  5
74
330
1F
100
AcDbEntity
  8
0-B
  6
Continuous
 62
   120
370
     5
100
AcDbLine
 10
-4302.500393841724
 20
776.4286997143353
 30
0.0
 11
-3446.500393841721
 21
776.4286997143353
 31
0.0
  0
LINE
  5
75
330
1F
100
AcDbEntity
  8
0-B
  6
Continuous
 62
   120
370
     5
100
AcDbLine
 10
-4452.500393841724
 20
1226.428699714335
 30
0.0
 11
-4352.500393841723
 21
1226.428699714335
 31
0.0
  0
LINE
  5
76
330
1F
100
AcDbEntity
  8
0-B
  6
Continuous
 62
   120
370
     5
100
AcDbLine
 10
-4452.500393841724
 20
926.4286997143353
 30
0.0
 11
-4352.500393841723
 21
926.4286997143353
 31
0.0
  0
LWPOLYLINE
  5
77
330
1F
100
AcDbEntity
  8
0-B
  6
Continuous
 62
     7
370
     9
100
AcDbPolyline
 90
        4
 70
     1
 43
3.0
 10
-4451.000393841724
 20
1226.428699714335
 42
0.4142135623731
 10
-4452.500393841724
 20
1227.928699714335
 42
0.4142135623731
 10
-4454.000393841724
 20
1226.428699714335
 42
0.4142135623731
 10
-4452.500393841724
 20
1224.928699714335
 42
0.4142135623731
  0
LWPOLYLINE
  5
78
330
1F
100
AcDbEntity
  8
0-B
  6
Continuous
 62
     7
370
     9
100
AcDbPolyline
 90
        4
 70
     1
 43
3.0
 10
-4451.000393841724
 20
926.4286997143353
 42
0.4142135623731
 10
-4452.500393841724
 20
927.9286997143353
 42
0.4142135623731
 10
-4454.000393841724
 20
926.4286997143353
 42
0.4142135623731
 10
-4452.500393841724
 20
924.9286997143353
 42
0.4142135623731
  0
LINE
  5
79
330
1F
100
AcDbEntity
  8
0-B
  6
Continuous
 62
   120
370
     5
100
AcDbLine
 10
-4452.500393841724
 20
926.4286997143353
 30
0.0
 11
-4452.500393841724
 21
1226.428699714335
 31
0.0
  0
LINE
  5
7A
330
1F
100
AcDbEntity
  8
0-B
  6
Continuous
 62
   120
370
     5
100
AcDbLine
 10
2511.499954378278
 20
235.0000597979567
 30
0.0
 11
2874.999620592268
 21
235.0000597979567
 31
0.0
  0
LINE
  5
7B
330
1F
100
AcDbEntity
  8
0-B
  6
Continuous
 62
   120
370
     5
100
AcDbLine
 10
1679.999620592268
 20
235.0000597979567
 30
0.0
 11
2043.499286806255
 21
235.0000597979567
 31
0.0
  0
LINE
  5
7C
330
1F
100
AcDbEntity
  8
0-B
  6
Continuous
 62
   120
370
     5
100
AcDbLine
 10
-4017.500393841719
 20
3512.955168505914
 30
0.0
 11
-4017.500393841719
 21
3412.955168505913
 31
0.0
  0
LINE
  5
7D
330
1F
100
AcDbEntity
  8
0-B
  6
Continuous
 62
   120
370
     5
100
AcDbLine
 10
-4117.500393841721
 20
3512.955168505914
 30
0.0
 11
-4117.500393841721
 21
3412.955168505913
 31
0.0
  0
LWPOLYLINE
  5
7E
330
1F
100
AcDbEntity
  8
0-B
  6
Continuous
 62
     7
370
     9
100
AcDbPolyline
 90
        4
 70
     1
 43
3.0
 10
-4016.000393841719
 20
3512.955168505914
 42
0.4142135623731
 10
-4017.500393841719
 20
3514.455168505914
 42
0.4142135623731
 10
-4019.000393841719
 20
3512.955168505914
 42
0.4142135623731
 10
-4017.500393841719
 20
3511.455168505914
 42
0.4142135623731
  0
LWPOLYLINE
  5
7F
330
1F
100
AcDbEntity
  8
0-B
  6
Continuous
 62
     7
370
     9
100
AcDbPolyline
 90
        4
 70
     1
 43
3.0
 10
-4116.000393841721
 20
3512.955168505914
 42
0.4142135623731
 10
-4117.500393841721
 20
3514.455168505914
 42
0.4142135623731
 10
-4119.000393841722
 20
3512.955168505914
 42
0.4142135623731
 10
-4117.500393841721
 20
3511.455168505914
 42
0.4142135623731
  0
LINE
  5
80
330
1F
100
AcDbEntity
  8
0-B
  6
Continuous
 62
   120
370
     5
100
AcDbLine
 10
-4117.500393841721
 20
3512.955168505914
 30
0.0
 11
-4017.500393841719
 21
3512.955168505914
 31
0.0
  0
LINE
  5
81
330
1F
100
AcDbEntity
  8
0-B
  6
Continuous
 62
   120
370
     5
100
AcDbLine
 10
-4367.500393841723
 20
3062.955168505914
 30
0.0
 11
-4167.500393841719
 21
3062.955168505914
 31
0.0
  0
LINE
  5
82
330
1F
100
AcDbEntity
  8
0-B
  6
Continuous
 62
   120
370
     5
100
AcDbLine
 10
-4367.500393841723
 20
3362.955168505914
 30
0.0
 11
-4167.500393841719
 21
3362.955168505914
 31
0.0
  0
LWPOLYLINE
  5
83
330
1F
100
AcDbEntity
  8
0-B
  6
Continuous
 62
     7
370
     9
100
AcDbPolyline
 90
        4
 70
     1
 43
3.0
 10
-4366.000393841722
 20
3062.955168505914
 42
0.4142135623731
 10
-4367.500393841723
 20
3064.455168505914
 42
0.4142135623731
 10
-4369.000393841723
 20
3062.955168505914
 42
0.4142135623731
 10
-4367.500393841723
 20
3061.455168505914
 42
0.4142135623731
  0
LWPOLYLINE
  5
84
330
1F
100
AcDbEntity
  8
0-B
  6
Continuous
 62
     7
370
     9
100
AcDbPolyline
 90
        4
 70
     1
 43
3.0
 10
-4366.000393841722
 20
3362.955168505914
 42
0.4142135623731
 10
-4367.500393841723
 20
3364.455168505914
 42
0.4142135623731
 10
-4369.000393841723
 20
3362.955168505914
 42
0.4142135623731
 10
-4367.500393841723
 20
3361.455168505914
 42
0.4142135623731
  0
LINE
  5
85
330
1F
100
AcDbEntity
  8
0-B
  6
Continuous
 62
   120
370
     5
100
AcDbLine
 10
-4367.500393841723
 20
3362.955168505914
 30
0.0
 11
-4367.500393841723
 21
3062.955168505914
 31
0.0
  0
LWPOLYLINE
  5
86
330
1F
100
AcDbEntity
  8
0-B
  6
Continuous
 62
     7
370
     9
100
AcDbPolyline
 90
        4
 70
     1
 43
3.0
 10
-4266.000393841721
 20
3062.955168505914
 42
0.4142135623731
 10
-4267.500393841721
 20
3064.455168505914
 42
0.4142135623731
 10
-4269.000393841722
 20
3062.955168505914
 42
0.4142135623731
 10
-4267.500393841721
 20
3061.455168505914
 42
0.4142135623731
  0
LINE
  5
87
330
1F
100
AcDbEntity
  8
0-B
  6
Continuous
 62
   120
370
     5
100
AcDbLine
 10
-4267.500393841721
 20
3222.955168505914
 30
0.0
 11
-4267.500393841721
 21
3062.955168505914
 31
0.0
  0
LINE
  5
88
330
1F
100
AcDbEntity
  8
0-B
  6
Continuous
 62
   120
370
     5
100
AcDbLine
 10
-4267.500393841721
 20
3222.955168505914
 30
0.0
 11
-4167.500393841719
 21
3222.955168505914
 31
0.0
  0
LWPOLYLINE
  5
89
330
1F
100
AcDbEntity
  8
0-B
  6
Continuous
 62
     7
370
     9
100
AcDbPolyline
 90
        4
 70
     1
 43
3.0
 10
-4266.000393841721
 20
3222.955168505914
 42
0.4142135623731
 10
-4267.500393841721
 20
3224.455168505914
 42
0.4142135623731
 10
-4269.000393841722
 20
3222.955168505914
 42
0.4142135623731
 10
-4267.500393841721
 20
3221.455168505914
 42
0.4142135623731
  0
LINE
  5
8A
330
1F
100
AcDbEntity
  8
0-B
  6
Continuous
 62
   120
370
     5
100
AcDbLine
 10
-4267.500393841721
 20
3312.955168505914
 30
0.0
 11
-4267.500393841721
 21
3222.955168505914
 31
0.0
  0
LINE
  5
8B
330
1F
100
AcDbEntity
  8
0-B
  6
Continuous
 62
   120
370
     5
100
AcDbLine
 10
-4267.500393841721
 20
3312.955168505914
 30
0.0
 11
-4167.500393841719
 21
3312.955168505914
 31
0.0
  0
LWPOLYLINE
  5
8C
330
1F
100
AcDbEntity
  8
0-B
  6
Continuous
 62
     7
370
     9
100
AcDbPolyline
 90
        4
 70
     1
 43
3.0
 10
-4266.000393841721
 20
3312.955168505914
 42
0.4142135623731
 10
-4267.500393841721
 20
3314.455168505914
 42
0.4142135623731
 10
-4269.000393841722
 20
3312.955168505914
 42
0.4142135623731
 10
-4267.500393841721
 20
3311.455168505914
 42
0.4142135623731
  0
LWPOLYLINE
  5
8D
330
1F
100
AcDbEntity
  8
0-B
  6
Continuous
 62
     7
370
     9
100
AcDbPolyline
 90
        4
 70
     1
 43
3.0
 10
-4266.000393841721
 20
3362.955168505914
 42
0.4142135623731
 10
-4267.500393841721
 20
3364.455168505914
 42
0.4142135623731
 10
-4269.000393841722
 20
3362.955168505914
 42
0.4142135623731
 10
-4267.500393841721
 20
3361.455168505914
 42
0.4142135623731
  0
LINE
  5
8E
330
1F
100
AcDbEntity
  8
0-B
  6
Continuous
 62
   120
370
     5
100
AcDbLine
 10
-4267.500393841721
 20
3362.955168505914
 30
0.0
 11
-4267.500393841721
 21
3312.955168505914
 31
0.0
  0
LINE
  5
8F
330
1F
100
AcDbEntity
  8
0-4
  6
Continuous
 62
    92
370
    13
100
AcDbLine
 10
-3017.500393841723
 20
3062.955168505914
 30
0.0
 11
-3017.500393841723
 21
3222.955168505914
 31
0.0
  0
LINE
  5
90
330
1F
100
AcDbEntity
  8
0-4
  6
Continuous
 62
    92
370
    13
100
AcDbLine
 10
-3017.500393841723
 20
3362.955168505914
 30
0.0
 11
-3017.500393841723
 21
3312.955168505914
 31
0.0
  0
LINE
  5
91
330
1F
100
AcDbEntity
  8
0-4
  6
Continuous
 62
    92
370
    13
100
AcDbLine
 10
-3117.500393841724
 20
3222.955168505914
 30
0.0
 11
-3017.500393841723
 21
3222.955168505914
 31
0.0
  0
LINE
  5
92
330
1F
100
AcDbEntity
  8
0-4
  6
Continuous
 62
    92
370
    13
100
AcDbLine
 10
-3117.500393841724
 20
3312.955168505914
 30
0.0
 11
-3017.500393841723
 21
3312.955168505914
 31
0.0
  0
LINE
  5
93
330
1F
100
AcDbEntity
  8
0-4
  6
Continuous
 62
    92
370
    13
100
AcDbLine
 10
-3117.500393841724
 20
3312.955168505914
 30
0.0
 11
-3117.500393841724
 21
3222.955168505914
 31
0.0
  0
LINE
  5
94
330
1F
100
AcDbEntity
  8
0-4
  6
Continuous
 62
    92
370
    13
100
AcDbLine
 10
-4117.500393841721
 20
3222.955168505914
 30
0.0
 11
-4117.500393841721
 21
3062.955168505914
 31
0.0
  0
LINE
  5
95
330
1F
100
AcDbEntity
  8
0-4
  6
Continuous
 62
    92
370
    13
100
AcDbLine
 10
-4017.500393841719
 20
3222.955168505914
 30
0.0
 11
-4117.500393841721
 21
3222.955168505914
 31
0.0
  0
LINE
  5
96
330
1F
100
AcDbEntity
  8
0-4
  6
Continuous
 62
    92
370
    13
100
AcDbLine
 10
-4117.500393841721
 20
3362.955168505914
 30
0.0
 11
-4117.500393841721
 21
3312.955168505914
 31
0.0
  0
LINE
  5
97
330
1F
100
AcDbEntity
  8
0-4
  6
Continuous
 62
    92
370
    13
100
AcDbLine
 10
-4017.500393841719
 20
3312.955168505914
 30
0.0
 11
-4117.500393841721
 21
3312.955168505914
 31
0.0
  0
LINE
  5
98
330
1F
100
AcDbEntity
  8
0-4
  6
Continuous
 62
    92
370
    13
100
AcDbLine
 10
-4017.500393841719
 20
3312.955168505914
 30
0.0
 11
-4017.500393841719
 21
3222.955168505914
 31
0.0
  0
LINE
  5
99
330
1F
100
AcDbEntity
  8
0-B
  6
Continuous
 62
   120
370
     5
100
AcDbLine
 10
2652.499620592268
 20
235.0000597979567
 30
0.0
 11
2652.499620592268
 21
135.0000597979565
 31
0.0
  0
LWPOLYLINE
  5
9A
330
1F
100
AcDbEntity
  8
0-B
  6
Continuous
 62
     7
370
     9
100
AcDbPolyline
 90
        4
 70
     1
 43
3.0
 10
2653.999620592268
 20
235.0000597979567
 42
0.4142135623731
 10
2652.499620592268
 20
236.5000597979567
 42
0.4142135623731
 10
2650.999620592268
 20
235.0000597979567
 42
0.4142135623731
 10
2652.499620592268
 20
233.5000597979567
 42
0.4142135623731
  0
LINE
  5
9B
330
1F
100
AcDbEntity
  8
0-B
  6
Continuous
 62
   120
370
     5
100
AcDbLine
 10
2511.499954378278
 20
235.0000597979567
 30
0.0
 11
2511.499954378278
 21
135.0000597979565
 31
0.0
  0
LWPOLYLINE
  5
9C
330
1F
100
AcDbEntity
  8
0-B
  6
Continuous
 62
     7
370
     9
100
AcDbPolyline
 90
        4
 70
     1
 43
3.0
 10
2512.999954378278
 20
235.0000597979567
 42
0.4142135623731
 10
2511.499954378278
 20
236.5000597979567
 42
0.4142135623731
 10
2509.999954378278
 20
235.0000597979567
 42
0.4142135623731
 10
2511.499954378278
 20
233.5000597979567
 42
0.4142135623731
  0
LINE
  5
9D
330
1F
100
AcDbEntity
  8
0-B
  6
Continuous
 62
   120
370
     5
100
AcDbLine
 10
2423.499620592267
 20
235.0000597979567
 30
0.0
 11
2511.499954378278
 21
235.0000597979567
 31
0.0
  0
LINE
  5
9E
330
1F
100
AcDbEntity
  8
0-B
  6
Continuous
 62
   120
370
     5
100
AcDbLine
 10
2423.499620592267
 20
235.0000597979567
 30
0.0
 11
2423.499620592267
 21
135.0000597979565
 31
0.0
  0
LWPOLYLINE
  5
9F
330
1F
100
AcDbEntity
  8
0-B
  6
Continuous
 62
     7
370
     9
100
AcDbPolyline
 90
        4
 70
     1
 43
3.0
 10
2424.999620592267
 20
235.0000597979567
 42
0.4142135623731
 10
2423.499620592267
 20
236.5000597979567
 42
0.4142135623731
 10
2421.999620592267
 20
235.0000597979567
 42
0.4142135623731
 10
2423.499620592267
 20
233.5000597979567
 42
0.4142135623731
  0
LINE
  5
A0
330
1F
100
AcDbEntity
  8
0-B
  6
Continuous
 62
   120
370
     5
100
AcDbLine
 10
2131.499620592267
 20
235.0000597979567
 30
0.0
 11
2423.499620592267
 21
235.0000597979567
 31
0.0
  0
LINE
  5
A1
330
1F
100
AcDbEntity
  8
0-B
  6
Continuous
 62
   120
370
     5
100
AcDbLine
 10
2131.499620592267
 20
235.0000597979567
 30
0.0
 11
2131.499620592267
 21
135.0000597979565
 31
0.0
  0
LWPOLYLINE
  5
A2
330
1F
100
AcDbEntity
  8
0-B
  6
Continuous
 62
     7
370
     9
100
AcDbPolyline
 90
        4
 70
     1
 43
3.0
 10
2132.999620592267
 20
235.0000597979567
 42
0.4142135623731
 10
2131.499620592267
 20
236.5000597979567
 42
0.4142135623731
 10
2129.999620592267
 20
235.0000597979567
 42
0.4142135623731
 10
2131.499620592267
 20
233.5000597979567
 42
0.4142135623731
  0
LINE
  5
A3
330
1F
100
AcDbEntity
  8
0-B
  6
Continuous
 62
   120
370
     5
100
AcDbLine
 10
2043.499286806255
 20
235.0000597979567
 30
0.0
 11
2131.499620592267
 21
235.0000597979567
 31
0.0
  0
LINE
  5
A4
330
1F
100
AcDbEntity
  8
0-B
  6
Continuous
 62
   120
370
     5
100
AcDbLine
 10
2043.499286806255
 20
235.0000597979567
 30
0.0
 11
2043.499286806255
 21
135.0000597979565
 31
0.0
  0
LINE
  5
A5
330
1F
100
AcDbEntity
  8
0-B
  6
Continuous
 62
   120
370
     5
100
AcDbLine
 10
1902.499620592267
 20
235.0000597979567
 30
0.0
 11
1902.499620592267
 21
135.0000597979565
 31
0.0
  0
LWPOLYLINE
  5
A6
330
1F
100
AcDbEntity
  8
0-B
  6
Continuous
 62
     7
370
     9
100
AcDbPolyline
 90
        4
 70
     1
 43
3.0
 10
2044.999286806255
 20
235.0000597979567
 42
0.4142135623731
 10
2043.499286806255
 20
236.5000597979567
 42
0.4142135623731
 10
2041.999286806255
 20
235.0000597979567
 42
0.4142135623731
 10
2043.499286806255
 20
233.5000597979567
 42
0.4142135623731
  0
LWPOLYLINE
  5
A7
330
1F
100
AcDbEntity
  8
0-B
  6
Continuous
 62
     7
370
     9
100
AcDbPolyline
 90
        4
 70
     1
 43
3.0
 10
1903.999620592267
 20
235.0000597979567
 42
0.4142135623731
 10
1902.499620592267
 20
236.5000597979567
 42
0.4142135623731
 10
1900.999620592267
 20
235.0000597979567
 42
0.4142135623731
 10
1902.499620592267
 20
233.5000597979567
 42
0.4142135623731
  0
LINE
  5
A8
330
1F
100
AcDbEntity
  8
0-4
  6
Continuous
 62
    92
370
    13
100
AcDbLine
 10
2511.499620592267
 20
25.00005979795674
 30
0.0
 11
2511.499620592267
 21
85.00005979795674
 31
0.0
  0
LINE
  5
A9
330
1F
100
AcDbEntity
  8
0-4
  6
Continuous
 62
    92
370
    13
100
AcDbLine
 10
2511.499954378278
 20
25.00005979795674
 30
0.0
 11
2511.499954378278
 21
80.00053663511238
 31
0.0
  0
LINE
  5
AA
330
1F
100
AcDbEntity
  8
0-4
  6
Continuous
 62
    92
370
    13
100
AcDbLine
 10
2622.499620592267
 20
85.00005979795674
 30
0.0
 11
2511.499620592267
 21
85.00005979795674
 31
0.0
  0
LINE
  5
AB
330
1F
100
AcDbEntity
  8
0-4
  6
Continuous
 62
    92
370
    13
100
AcDbLine
 10
2622.500040208961
 20
80.00053663511238
 30
0.0
 11
2511.499954378278
 21
80.00053663511238
 31
0.0
  0
LINE
  5
AC
330
1F
100
AcDbEntity
  8
0-4
  6
Continuous
 62
    92
370
    13
100
AcDbLine
 10
2423.499954378278
 20
25.00005979795674
 30
0.0
 11
2423.499954378278
 21
85.00005979795674
 31
0.0
  0
LINE
  5
AD
330
1F
100
AcDbEntity
  8
0-4
  6
Continuous
 62
    92
370
    13
100
AcDbLine
 10
2423.499620592267
 20
25.00005979795674
 30
0.0
 11
2423.499620592267
 21
80.00053663511238
 31
0.0
  0
LINE
  5
AE
330
1F
100
AcDbEntity
  8
0-4
  6
Continuous
 62
    92
370
    13
100
AcDbLine
 10
2511.499954378278
 20
25.00005979795674
 30
0.0
 11
2423.499620592267
 21
25.00005979795674
 31
0.0
  0
ARC
  5
AF
330
1F
100
AcDbEntity
  8
0-7
  6
Continuous
 62
     7
370
     9
100
AcDbCircle
 10
2427.928787485271
 20
79.99905979795528
 30
0.0
 40
5.000000000000142
100
AcDbArc
 50
44.99999999999995
 51
89.99999999999996
  0
ARC
  5
B0
330
1F
100
AcDbEntity
  8
0-7
  6
Continuous
 62
     7
370
     9
100
AcDbCircle
 10
2446.242787485276
 20
72.99905979795483
 30
0.0
 40
3.000000000000085
100
AcDbArc
 50
224.9999999999999
 51
269.9999999999999
  0
ARC
  5
B1
330
1F
100
AcDbEntity
  8
0-7
  6
Continuous
 62
     7
370
     9
100
AcDbCircle
 10
2449.499787485272
 20
67.99905979795511
 30
0.0
 40
2.000000000000057
100
AcDbArc
 50
359.9999999999999
 51
89.99999999999997
  0
ARC
  5
B2
330
1F
100
AcDbEntity
  8
0-7
  6
Continuous
 62
     7
370
     9
100
AcDbCircle
 10
2485.499787485273
 20
67.99905979795511
 30
0.0
 40
2.000000000000057
100
AcDbArc
 50
89.99999999999997
 51
180.0
  0
ARC
  5
B3
330
1F
100
AcDbEntity
  8
0-7
  6
Continuous
 62
     7
370
     9
100
AcDbCircle
 10
2507.070787485274
 20
79.99905979795528
 30
0.0
 40
5.000000000000142
100
AcDbArc
 50
89.99999999999996
 51
135.0
  0
ARC
  5
B4
330
1F
100
AcDbEntity
  8
0-7
  6
Continuous
 62
     7
370
     9
100
AcDbCircle
 10
2488.75678748527
 20
72.99905979795483
 30
0.0
 40
3.000000000000085
100
AcDbArc
 50
270.0
 51
315.0
  0
ARC
  5
B5
330
1F
100
AcDbEntity
  8
0-7
  6
Continuous
 62
     7
370
     9
100
AcDbCircle
 10
2426.499787485271
 20
38.000059797956
 30
0.0
 40
2.000000000000057
100
AcDbArc
 50
89.99999999999987
 51
201.6159999999999
  0
ARC
  5
B6
330
1F
100
AcDbEntity
  8
0-7
  6
Continuous
 62
     7
370
     9
100
AcDbCircle
 10
2454.499787485272
 20
43.00005979795571
 30
0.0
 40
3.000000000000085
100
AcDbArc
 50
179.9999999999999
 51
269.9999999999999
  0
ARC
  5
B7
330
1F
100
AcDbEntity
  8
0-7
  6
Continuous
 62
     7
370
     9
100
AcDbCircle
 10
2480.499787485273
 20
43.00005979795571
 30
0.0
 40
3.000000000000085
100
AcDbArc
 50
269.9999999999999
 51
359.9999999999999
  0
ARC
  5
B8
330
1F
100
AcDbEntity
  8
0-7
  6
Continuous
 62
     7
370
     9
100
AcDbCircle
 10
2508.499787485275
 20
38.000059797956
 30
0.0
 40
2.000000000000057
100
AcDbArc
 50
338.384
 51
89.99999999999997
  0
ARC
  5
B9
330
1F
100
AcDbEntity
  8
0-7
  6
Continuous
 62
     7
370
     9
100
AcDbCircle
 10
2402.500787485273
 20
52.63905979795595
 30
0.0
 40
30.00000000000085
100
AcDbArc
 50
0.0
 51
48.18999999999998
  0
ARC
  5
BA
330
1F
100
AcDbEntity
  8
0-7
  6
Continuous
 62
     7
370
     9
100
AcDbCircle
 10
2532.49978748527
 20
52.63905979795595
 30
0.0
 40
30.00000000000085
100
AcDbArc
 50
131.81
 51
180.0
  0
LINE
  5
BB
330
1F
100
AcDbEntity
  8
0-7
  6
Continuous
 62
     7
370
     9
100
AcDbLine
 10
2422.499787485274
 20
84.99905979795585
 30
0.0
 11
2427.928787485271
 21
84.99905979795585
 31
0.0
  0
LINE
  5
BC
330
1F
100
AcDbEntity
  8
0-7
  6
Continuous
 62
     7
370
     9
100
AcDbLine
 10
2422.499787485274
 20
74.99905979795642
 30
0.0
 11
2422.499787485274
 21
84.99905979795585
 31
0.0
  0
LINE
  5
BD
330
1F
100
AcDbEntity
  8
0-7
  6
Continuous
 62
     7
370
     9
100
AcDbLine
 10
2446.242787485276
 20
69.9990597979567
 30
0.0
 11
2449.499787485272
 21
69.9990597979567
 31
0.0
  0
LINE
  5
BE
330
1F
100
AcDbEntity
  8
0-7
  6
Continuous
 62
     7
370
     9
100
AcDbLine
 10
2444.121787485271
 20
70.87805979795519
 30
0.0
 11
2431.464787485274
 21
83.53505979795585
 31
0.0
  0
LINE
  5
BF
330
1F
100
AcDbEntity
  8
0-7
  6
Continuous
 62
     7
370
     9
100
AcDbLine
 10
2488.75678748527
 20
69.9990597979567
 30
0.0
 11
2485.499787485273
 21
69.9990597979567
 31
0.0
  0
LINE
  5
C0
330
1F
100
AcDbEntity
  8
0-7
  6
Continuous
 62
     7
370
     9
100
AcDbLine
 10
2490.878787485272
 20
70.87805979795519
 30
0.0
 11
2503.534787485271
 21
83.53505979795585
 31
0.0
  0
LINE
  5
C1
330
1F
100
AcDbEntity
  8
0-7
  6
Continuous
 62
     7
370
     9
100
AcDbLine
 10
2432.499787485271
 20
40.00005979795503
 30
0.0
 11
2426.499787485271
 21
40.00005979795503
 31
0.0
  0
LINE
  5
C2
330
1F
100
AcDbEntity
  8
0-7
  6
Continuous
 62
     7
370
     9
100
AcDbLine
 10
2432.499787485271
 20
40.00005979795503
 30
0.0
 11
2432.499787485271
 21
52.63905979795595
 31
0.0
  0
LINE
  5
C3
330
1F
100
AcDbEntity
  8
0-7
  6
Continuous
 62
     7
370
     9
100
AcDbLine
 10
2464.49978748527
 20
40.00005979795503
 30
0.0
 11
2454.499787485272
 21
40.00005979795503
 31
0.0
  0
LINE
  5
C4
330
1F
100
AcDbEntity
  8
0-7
  6
Continuous
 62
     7
370
     9
100
AcDbLine
 10
2440.499787485275
 20
25.00005979795674
 30
0.0
 11
2442.499787485273
 21
27.00005979795492
 31
0.0
  0
LINE
  5
C5
330
1F
100
AcDbEntity
  8
0-7
  6
Continuous
 62
     7
370
     9
100
AcDbLine
 10
2440.499787485275
 20
25.00005979795674
 30
0.0
 11
2429.499787485273
 21
25.00005979795674
 31
0.0
  0
LINE
  5
C6
330
1F
100
AcDbEntity
  8
0-7
  6
Continuous
 62
     7
370
     9
100
AcDbLine
 10
2442.499787485273
 20
27.00005979795492
 30
0.0
 11
2444.499787485272
 21
25.00005979795674
 31
0.0
  0
LINE
  5
C7
330
1F
100
AcDbEntity
  8
0-7
  6
Continuous
 62
     7
370
     9
100
AcDbLine
 10
2429.499787485273
 20
25.00005979795674
 30
0.0
 11
2424.640787485275
 21
37.26305979795541
 31
0.0
  0
LINE
  5
C8
330
1F
100
AcDbEntity
  8
0-7
  6
Continuous
 62
     7
370
     9
100
AcDbLine
 10
2470.499787485275
 20
40.00005979795503
 30
0.0
 11
2467.499787485272
 21
37.00005979795435
 31
0.0
  0
LINE
  5
C9
330
1F
100
AcDbEntity
  8
0-7
  6
Continuous
 62
     7
370
     9
100
AcDbLine
 10
2480.499787485273
 20
40.00005979795503
 30
0.0
 11
2470.499787485275
 21
40.00005979795503
 31
0.0
  0
LINE
  5
CA
330
1F
100
AcDbEntity
  8
0-7
  6
Continuous
 62
     7
370
     9
100
AcDbLine
 10
2502.49978748527
 20
40.00005979795503
 30
0.0
 11
2508.499787485275
 21
40.00005979795503
 31
0.0
  0
LINE
  5
CB
330
1F
100
AcDbEntity
  8
0-7
  6
Continuous
 62
     7
370
     9
100
AcDbLine
 10
2502.49978748527
 20
40.00005979795503
 30
0.0
 11
2502.49978748527
 21
52.63905979795595
 31
0.0
  0
LINE
  5
CC
330
1F
100
AcDbEntity
  8
0-7
  6
Continuous
 62
     7
370
     9
100
AcDbLine
 10
2494.49978748527
 20
25.00005979795674
 30
0.0
 11
2492.499787485272
 21
27.00005979795492
 31
0.0
  0
LINE
  5
CD
330
1F
100
AcDbEntity
  8
0-7
  6
Continuous
 62
     7
370
     9
100
AcDbLine
 10
2492.499787485272
 20
27.00005979795492
 30
0.0
 11
2490.499787485274
 21
25.00005979795674
 31
0.0
  0
LINE
  5
CE
330
1F
100
AcDbEntity
  8
0-7
  6
Continuous
 62
     7
370
     9
100
AcDbLine
 10
2494.49978748527
 20
25.00005979795674
 30
0.0
 11
2505.499787485272
 21
25.00005979795674
 31
0.0
  0
LINE
  5
CF
330
1F
100
AcDbEntity
  8
0-7
  6
Continuous
 62
     7
370
     9
100
AcDbLine
 10
2505.499787485272
 20
25.00005979795674
 30
0.0
 11
2510.358787485271
 21
37.26305979795541
 31
0.0
  0
LINE
  5
D0
330
1F
100
AcDbEntity
  8
0-7
  6
Continuous
 62
     7
370
     9
100
AcDbLine
 10
2467.499787485272
 20
37.00005979795435
 30
0.0
 11
2464.49978748527
 21
40.00005979795503
 31
0.0
  0
LINE
  5
D1
330
1F
100
AcDbEntity
  8
0-7
  6
Continuous
 62
     7
370
     9
100
AcDbLine
 10
2444.499787485272
 20
25.00005979795674
 30
0.0
 11
2490.499787485274
 21
25.00005979795674
 31
0.0
  0
LINE
  5
D2
330
1F
100
AcDbEntity
  8
0-7
  6
Continuous
 62
     7
370
     9
100
AcDbLine
 10
2483.499787485275
 20
43.00005979795571
 30
0.0
 11
2483.499787485275
 21
67.99905979795511
 31
0.0
  0
LINE
  5
D3
330
1F
100
AcDbEntity
  8
0-7
  6
Continuous
 62
     7
370
     9
100
AcDbLine
 10
2451.49978748527
 20
43.00005979795571
 30
0.0
 11
2451.49978748527
 21
67.99905979795511
 31
0.0
  0
LINE
  5
D4
330
1F
100
AcDbEntity
  8
0-7
  6
Continuous
 62
     7
370
     9
100
AcDbLine
 10
2512.499787485271
 20
74.99905979795642
 30
0.0
 11
2512.499787485271
 21
84.99905979795585
 31
0.0
  0
LINE
  5
D5
330
1F
100
AcDbEntity
  8
0-7
  6
Continuous
 62
     7
370
     9
100
AcDbLine
 10
2512.499787485271
 20
84.99905979795585
 30
0.0
 11
2507.070787485274
 21
84.99905979795585
 31
0.0
  0
ARC
  5
D6
330
1F
100
AcDbEntity
  8
0-7
  6
Continuous
 62
     7
370
     9
100
AcDbCircle
 10
2127.070453699262
 20
79.99905979795528
 30
0.0
 40
5.000000000000142
100
AcDbArc
 50
90.00000000000006
 51
135.0000000000001
  0
ARC
  5
D7
330
1F
100
AcDbEntity
  8
0-7
  6
Continuous
 62
     7
370
     9
100
AcDbCircle
 10
2108.756453699258
 20
72.99905979795483
 30
0.0
 40
3.000000000000085
100
AcDbArc
 50
270.0000000000001
 51
315.0000000000001
  0
ARC
  5
D8
330
1F
100
AcDbEntity
  8
0-7
  6
Continuous
 62
     7
370
     9
100
AcDbCircle
 10
2105.499453699262
 20
67.99905979795511
 30
0.0
 40
2.000000000000057
100
AcDbArc
 50
90.00000000000001
 51
180.0
  0
ARC
  5
D9
330
1F
100
AcDbEntity
  8
0-7
  6
Continuous
 62
     7
370
     9
100
AcDbCircle
 10
2069.49945369926
 20
67.99905979795511
 30
0.0
 40
2.000000000000057
100
AcDbArc
 50
0.0000000000000127
 51
90.00000000000004
  0
ARC
  5
DA
330
1F
100
AcDbEntity
  8
0-7
  6
Continuous
 62
     7
370
     9
100
AcDbCircle
 10
2047.92845369926
 20
79.99905979795528
 30
0.0
 40
5.000000000000142
100
AcDbArc
 50
45.00000000000003
 51
90.00000000000004
  0
ARC
  5
DB
330
1F
100
AcDbEntity
  8
0-7
  6
Continuous
 62
     7
370
     9
100
AcDbCircle
 10
2066.242453699264
 20
72.99905979795483
 30
0.0
 40
3.000000000000085
100
AcDbArc
 50
225.0
 51
270.0000000000001
  0
ARC
  5
DC
330
1F
100
AcDbEntity
  8
0-7
  6
Continuous
 62
     7
370
     9
100
AcDbCircle
 10
2128.499453699263
 20
38.000059797956
 30
0.0
 40
2.000000000000057
100
AcDbArc
 50
338.3840000000001
 51
90.00000000000011
  0
ARC
  5
DD
330
1F
100
AcDbEntity
  8
0-7
  6
Continuous
 62
     7
370
     9
100
AcDbCircle
 10
2100.499453699261
 20
43.00005979795571
 30
0.0
 40
3.000000000000085
100
AcDbArc
 50
270.0000000000001
 51
0.0000000000000763
  0
ARC
  5
DE
330
1F
100
AcDbEntity
  8
0-7
  6
Continuous
 62
     7
370
     9
100
AcDbCircle
 10
2074.499453699261
 20
43.00005979795571
 30
0.0
 40
3.000000000000085
100
AcDbArc
 50
180.0
 51
270.0000000000001
  0
ARC
  5
DF
330
1F
100
AcDbEntity
  8
0-7
  6
Continuous
 62
     7
370
     9
100
AcDbCircle
 10
2046.499453699259
 20
38.000059797956
 30
0.0
 40
2.000000000000057
100
AcDbArc
 50
90.00000000000001
 51
201.6160000000001
  0
ARC
  5
E0
330
1F
100
AcDbEntity
  8
0-7
  6
Continuous
 62
     7
370
     9
100
AcDbCircle
 10
2152.498453699261
 20
52.63905979795595
 30
0.0
 40
30.00000000000085
100
AcDbArc
 50
131.81
 51
180.0
  0
ARC
  5
E1
330
1F
100
AcDbEntity
  8
0-7
  6
Continuous
 62
     7
370
     9
100
AcDbCircle
 10
2022.499453699264
 20
52.63905979795595
 30
0.0
 40
30.00000000000085
100
AcDbArc
 50
0.0000000000000127
 51
48.19000000000003
  0
LINE
  5
E2
330
1F
100
AcDbEntity
  8
0-4
  6
Continuous
 62
    92
370
    13
100
AcDbLine
 10
2612.499620592268
 20
-64.99994020204326
 30
0.0
 11
1942.499620592266
 21
-64.99994020204326
 31
0.0
  0
LINE
  5
E3
330
1F
100
AcDbEntity
  8
0-B
  6
Continuous
 62
   120
370
     5
100
AcDbLine
 10
1942.499620592266
 20
-214.9999402020433
 30
0.0
 11
2612.499620592268
 21
-214.9999402020433
 31
0.0
  0
LINE
  5
E4
330
1F
100
AcDbEntity
  8
0-4
  6
Continuous
 62
    92
370
    13
100
AcDbLine
 10
2612.499773180169
 20
-64.99994020204326
 30
0.0
 11
2612.499773180169
 21
54.99921102781627
 31
0.0
  0
LINE
  5
E5
330
1F
100
AcDbEntity
  8
0-4
  6
Continuous
 62
    92
370
    13
100
AcDbLine
 10
2652.499620592268
 20
55.00005979795418
 30
0.0
 11
2612.499773180169
 21
55.00005979795418
 31
0.0
  0
LWPOLYLINE
  5
E6
330
1F
100
AcDbEntity
  8
0-B
  6
Continuous
 62
     7
370
     9
100
AcDbPolyline
 90
        4
 70
     1
 43
3.0
 10
2613.999620592268
 20
-214.9999402020433
 42
0.4142135623731
 10
2612.499620592268
 20
-213.4999402020433
 42
0.4142135623731
 10
2610.999620592269
 20
-214.9999402020433
 42
0.4142135623731
 10
2612.499620592268
 20
-216.4999402020433
 42
0.4142135623731
  0
LINE
  5
E7
330
1F
100
AcDbEntity
  8
0-B
  6
Continuous
 62
   120
370
     5
100
AcDbLine
 10
2612.499620592268
 20
-214.9999402020433
 30
0.0
 11
2612.499620592268
 21
-114.9999402020438
 31
0.0
  0
LINE
  5
E8
330
1F
100
AcDbEntity
  8
0-B
  6
Continuous
 62
   120
370
     5
100
AcDbLine
 10
2612.499620592268
 20
-214.9999402020433
 30
0.0
 11
2652.499620592268
 21
-214.9999402020433
 31
0.0
  0
LINE
  5
E9
330
1F
100
AcDbEntity
  8
0-4
  6
Continuous
 62
    92
370
    13
100
AcDbLine
 10
1942.499620592266
 20
-64.99994020204326
 30
0.0
 11
1942.499620592266
 21
54.99921102781627
 31
0.0
  0
LINE
  5
EA
330
1F
100
AcDbEntity
  8
0-4
  6
Continuous
 62
    92
370
    13
100
AcDbLine
 10
1942.499620592266
 20
55.00005979795418
 30
0.0
 11
1902.499620592267
 21
55.00005979795418
 31
0.0
  0
LINE
  5
EB
330
1F
100
AcDbEntity
  8
0-B
  6
Continuous
 62
   120
370
     5
100
AcDbLine
 10
1902.499620592267
 20
-214.9999402020433
 30
0.0
 11
1942.499620592266
 21
-214.9999402020433
 31
0.0
  0
LWPOLYLINE
  5
EC
330
1F
100
AcDbEntity
  8
0-B
  6
Continuous
 62
     7
370
     9
100
AcDbPolyline
 90
        4
 70
     1
 43
3.0
 10
1943.999620592266
 20
-214.9999402020433
 42
0.4142135623731
 10
1942.499620592266
 20
-213.4999402020433
 42
0.4142135623731
 10
1940.999620592266
 20
-214.9999402020433
 42
0.4142135623731
 10
1942.499620592266
 20
-216.4999402020433
 42
0.4142135623731
  0
LINE
  5
ED
330
1F
100
AcDbEntity
  8
0-B
  6
Continuous
 62
   120
370
     5
100
AcDbLine
 10
1942.499620592266
 20
-214.9999402020433
 30
0.0
 11
1942.499620592266
 21
-114.9999402020438
 31
0.0
  0
LINE
  5
EE
330
1F
100
AcDbEntity
  8
0-4
  6
Continuous
 62
    92
370
    13
100
AcDbLine
 10
-3133.500393841723
 20
931.4286997143333
 30
0.0
 11
-3133.500393841723
 21
926.4286997143353
 31
0.0
  0
LINE
  5
EF
330
1F
100
AcDbEntity
  8
0-4
  6
Continuous
 62
    92
370
    13
100
AcDbLine
 10
-3153.500393841722
 20
931.4286997143333
 30
0.0
 11
-3133.500393841723
 21
931.4286997143333
 31
0.0
  0
LINE
  5
F0
330
1F
100
AcDbEntity
  8
0-4
  6
Continuous
 62
    92
370
    13
100
AcDbLine
 10
-3451.500393841724
 20
1091.428699714335
 30
0.0
 11
-3451.500393841724
 21
931.4286997143333
 31
0.0
  0
LINE
  5
F1
330
1F
100
AcDbEntity
  8
0-4
  6
Continuous
 62
    92
370
    13
100
AcDbLine
 10
-3471.500393841723
 20
931.4286997143333
 30
0.0
 11
-3451.500393841724
 21
931.4286997143333
 31
0.0
  0
LINE
  5
F2
330
1F
100
AcDbEntity
  8
0-4
  6
Continuous
 62
    92
370
    13
100
AcDbLine
 10
-3471.500393841723
 20
931.4286997143333
 30
0.0
 11
-3471.500393841723
 21
926.4286997143353
 31
0.0
  0
LINE
  5
F3
330
1F
100
AcDbEntity
  8
0-4
  6
Continuous
 62
    92
370
    13
100
AcDbLine
 10
-3451.500393841724
 20
1091.428699714335
 30
0.0
 11
-3153.500393841722
 21
1091.428699714335
 31
0.0
  0
LINE
  5
F4
330
1F
100
AcDbEntity
  8
0-4
  6
Continuous
 62
    92
370
    13
100
AcDbLine
 10
-3153.500393841722
 20
1091.428699714335
 30
0.0
 11
-3153.500393841722
 21
931.4286997143333
 31
0.0
  0
LINE
  5
F5
330
1F
100
AcDbEntity
  8
0-4
  6
Continuous
 62
    92
370
    13
100
AcDbLine
 10
-3158.500393841724
 20
926.4286997143353
 30
0.0
 11
-2682.500393841724
 21
926.4286997143353
 31
0.0
  0
LINE
  5
F6
330
1F
100
AcDbEntity
  8
0-4
  6
Continuous
 62
    92
370
    13
100
AcDbLine
 10
-3158.500393841724
 20
1086.428699714336
 30
0.0
 11
-3158.500393841724
 21
926.4286997143353
 31
0.0
  0
LINE
  5
F7
330
1F
100
AcDbEntity
  8
0-4
  6
Continuous
 62
    92
370
    13
100
AcDbLine
 10
-4302.500393841724
 20
926.4286997143353
 30
0.0
 11
-3446.500393841721
 21
926.4286997143353
 31
0.0
  0
LINE
  5
F8
330
1F
100
AcDbEntity
  8
0-4
  6
Continuous
 62
    92
370
    13
100
AcDbLine
 10
-3446.500393841721
 20
1086.428699714336
 30
0.0
 11
-3446.500393841721
 21
926.4286997143353
 31
0.0
  0
LINE
  5
F9
330
1F
100
AcDbEntity
  8
0-4
  6
Continuous
 62
    92
370
    13
100
AcDbLine
 10
-3446.500393841721
 20
1086.428699714336
 30
0.0
 11
-3158.500393841724
 21
1086.428699714336
 31
0.0
  0
LINE
  5
FA
330
1F
100
AcDbEntity
  8
0-4
  6
Continuous
 62
    92
370
    13
100
AcDbLine
 10
-4302.500393841724
 20
1226.428699714335
 30
0.0
 11
-4302.500393841724
 21
926.4286997143353
 31
0.0
  0
LINE
  5
FB
330
1F
100
AcDbEntity
  8
0-4
  6
Continuous
 62
    92
370
    13
100
AcDbLine
 10
-2682.500393841724
 20
1226.428699714335
 30
0.0
 11
-4302.500393841724
 21
1226.428699714335
 31
0.0
  0
LINE
  5
FC
330
1F
100
AcDbEntity
  8
0-4
  6
Continuous
 62
    92
370
    13
100
AcDbLine
 10
-2682.500393841724
 20
926.4286997143353
 30
0.0
 11
-2682.500393841724
 21
1226.428699714335
 31
0.0
  0
LINE
  5
FD
330
1F
100
AcDbEntity
  8
0-0
  6
JWW_HOJO
 62
   120
370
     5
100
AcDbLine
 10
-2532.50039384172
 20
1326.428699714336
 30
0.0
 11
-4552.500393841723
 21
1326.428699714336
 31
0.0
  0
LINE
  5
FE
330
1F
100
AcDbEntity
  8
0-0
  6
JWW_HOJO
 62
   120
370
     5
100
AcDbLine
 10
-4552.500393841723
 20
1326.428699714336
 30
0.0
 11
-4552.500393841723
 21
676.4286997143333
 31
0.0
  0
LINE
  5
FF
330
1F
100
AcDbEntity
  8
0-0
  6
JWW_HOJO
 62
   120
370
     5
100
AcDbLine
 10
-2532.50039384172
 20
1326.428699714336
 30
0.0
 11
-2532.50039384172
 21
676.4286997143333
 31
0.0
  0
LINE
  5
100
330
1F
100
AcDbEntity
  8
0-0
  6
JWW_HOJO
 62
   120
370
     5
100
AcDbLine
 10
-2632.500393841722
 20
1276.428699714333
 30
0.0
 11
-4352.500393841723
 21
1276.428699714333
 31
0.0
  0
LINE
  5
101
330
1F
100
AcDbEntity
  8
0-0
  6
JWW_HOJO
 62
   120
370
     5
100
AcDbLine
 10
-4452.500393841724
 20
1326.428699714336
 30
0.0
 11
-4452.500393841724
 21
676.4286997143333
 31
0.0
  0
LINE
  5
102
330
1F
100
AcDbEntity
  8
0-0
  6
JWW_HOJO
 62
   120
370
     5
100
AcDbLine
 10
-4352.500393841723
 20
1326.428699714336
 30
0.0
 11
-4352.500393841723
 21
676.4286997143333
 31
0.0
  0
LINE
  5
103
330
1F
100
AcDbEntity
  8
0-0
  6
JWW_HOJO
 62
   120
370
     5
100
AcDbLine
 10
-2632.500393841722
 20
876.4286997143356
 30
0.0
 11
-2632.500393841722
 21
1276.428699714333
 31
0.0
  0
LINE
  5
104
330
1F
100
AcDbEntity
  8
0-B
  6
Continuous
 62
   120
370
     5
100
AcDbLine
 10
-4227.500393841724
 20
1747.857339630713
 30
0.0
 11
-4227.500393841724
 21
1947.857339630714
 31
0.0
  0
LINE
  5
105
330
1F
100
AcDbEntity
  8
0-B
  6
Continuous
 62
   120
370
     5
100
AcDbLine
 10
-2757.500393841724
 20
1747.857339630713
 30
0.0
 11
-2757.500393841724
 21
1947.857339630714
 31
0.0
  0
LWPOLYLINE
  5
106
330
1F
100
AcDbEntity
  8
0-B
  6
Continuous
 62
     7
370
     9
100
AcDbPolyline
 90
        4
 70
     1
 43
3.0
 10
-4226.000393841724
 20
1747.857339630713
 42
0.4142135623731
 10
-4227.500393841724
 20
1749.357339630713
 42
0.4142135623731
 10
-4229.000393841724
 20
1747.857339630713
 42
0.4142135623731
 10
-4227.500393841724
 20
1746.357339630713
 42
0.4142135623731
  0
LWPOLYLINE
  5
107
330
1F
100
AcDbEntity
  8
0-B
  6
Continuous
 62
     7
370
     9
100
AcDbPolyline
 90
        4
 70
     1
 43
3.0
 10
-2756.000393841724
 20
1747.857339630713
 42
0.4142135623731
 10
-2757.500393841724
 20
1749.357339630713
 42
0.4142135623731
 10
-2759.000393841724
 20
1747.857339630713
 42
0.4142135623731
 10
-2757.500393841724
 20
1746.357339630713
 42
0.4142135623731
  0
LINE
  5
108
330
1F
100
AcDbEntity
  8
0-B
  6
Continuous
 62
   120
370
     5
100
AcDbLine
 10
-2757.500393841724
 20
1747.857339630713
 30
0.0
 11
-4227.500393841724
 21
1747.857339630713
 31
0.0
  0
LWPOLYLINE
  5
109
330
1F
100
AcDbEntity
  8
0-B
  6
Continuous
 62
     7
370
     9
100
AcDbPolyline
 90
        4
 70
     1
 43
3.0
 10
-2756.000393841724
 20
1847.857339630714
 42
0.4142135623731
 10
-2757.500393841724
 20
1849.357339630713
 42
0.4142135623731
 10
-2759.000393841724
 20
1847.857339630714
 42
0.4142135623731
 10
-2757.500393841724
 20
1846.357339630714
 42
0.4142135623731
  0
LINE
  5
10A
330
1F
100
AcDbEntity
  8
0-B
  6
Continuous
 62
   120
370
     5
100
AcDbLine
 10
-3158.500393841724
 20
1847.857339630714
 30
0.0
 11
-2757.500393841724
 21
1847.857339630714
 31
0.0
  0
LINE
  5
10B
330
1F
100
AcDbEntity
  8
0-B
  6
Continuous
 62
   120
370
     5
100
AcDbLine
 10
-3158.500393841724
 20
1847.857339630714
 30
0.0
 11
-3158.500393841724
 21
1947.857339630714
 31
0.0
  0
LWPOLYLINE
  5
10C
330
1F
100
AcDbEntity
  8
0-B
  6
Continuous
 62
     7
370
     9
100
AcDbPolyline
 90
        4
 70
     1
 43
3.0
 10
-3157.000393841724
 20
1847.857339630714
 42
0.4142135623731
 10
-3158.500393841724
 20
1849.357339630713
 42
0.4142135623731
 10
-3160.000393841724
 20
1847.857339630714
 42
0.4142135623731
 10
-3158.500393841724
 20
1846.357339630714
 42
0.4142135623731
  0
LINE
  5
10D
330
1F
100
AcDbEntity
  8
0-B
  6
Continuous
 62
   120
370
     5
100
AcDbLine
 10
-3446.500393841721
 20
1847.857339630714
 30
0.0
 11
-3158.500393841724
 21
1847.857339630714
 31
0.0
  0
LINE
  5
10E
330
1F
100
AcDbEntity
  8
0-B
  6
Continuous
 62
   120
370
     5
100
AcDbLine
 10
-3446.500393841721
 20
1847.857339630714
 30
0.0
 11
-3446.500393841721
 21
1947.857339630714
 31
0.0
  0
LWPOLYLINE
  5
10F
330
1F
100
AcDbEntity
  8
0-B
  6
Continuous
 62
     7
370
     9
100
AcDbPolyline
 90
        4
 70
     1
 43
3.0
 10
-3445.000393841722
 20
1847.857339630714
 42
0.4142135623731
 10
-3446.500393841721
 20
1849.357339630713
 42
0.4142135623731
 10
-3448.000393841721
 20
1847.857339630714
 42
0.4142135623731
 10
-3446.500393841721
 20
1846.357339630714
 42
0.4142135623731
  0
LWPOLYLINE
  5
110
330
1F
100
AcDbEntity
  8
0-B
  6
Continuous
 62
     7
370
     9
100
AcDbPolyline
 90
        4
 70
     1
 43
3.0
 10
-4226.000393841724
 20
1847.857339630714
 42
0.4142135623731
 10
-4227.500393841724
 20
1849.357339630713
 42
0.4142135623731
 10
-4229.000393841724
 20
1847.857339630714
 42
0.4142135623731
 10
-4227.500393841724
 20
1846.357339630714
 42
0.4142135623731
  0
LINE
  5
111
330
1F
100
AcDbEntity
  8
0-B
  6
Continuous
 62
   120
370
     5
100
AcDbLine
 10
-4227.500393841724
 20
1847.857339630714
 30
0.0
 11
-3446.500393841721
 21
1847.857339630714
 31
0.0
  0
LINE
  5
112
330
1F
100
AcDbEntity
  8
0-B
  6
Continuous
 62
   120
370
     5
100
AcDbLine
 10
-4377.500393841724
 20
1997.857339630714
 30
0.0
 11
-4277.500393841723
 21
1997.857339630714
 31
0.0
  0
LINE
  5
113
330
1F
100
AcDbEntity
  8
0-B
  6
Continuous
 62
   120
370
     5
100
AcDbLine
 10
-4377.500393841724
 20
2297.857339630713
 30
0.0
 11
-4277.500393841723
 21
2297.857339630713
 31
0.0
  0
LWPOLYLINE
  5
114
330
1F
100
AcDbEntity
  8
0-B
  6
Continuous
 62
     7
370
     9
100
AcDbPolyline
 90
        4
 70
     1
 43
3.0
 10
-4376.000393841724
 20
1997.857339630714
 42
0.4142135623731
 10
-4377.500393841724
 20
1999.357339630713
 42
0.4142135623731
 10
-4379.000393841724
 20
1997.857339630714
 42
0.4142135623731
 10
-4377.500393841724
 20
1996.357339630714
 42
0.4142135623731
  0
LWPOLYLINE
  5
115
330
1F
100
AcDbEntity
  8
0-B
  6
Continuous
 62
     7
370
     9
100
AcDbPolyline
 90
        4
 70
     1
 43
3.0
 10
-4376.000393841724
 20
2297.857339630713
 42
0.4142135623731
 10
-4377.500393841724
 20
2299.357339630713
 42
0.4142135623731
 10
-4379.000393841724
 20
2297.857339630713
 42
0.4142135623731
 10
-4377.500393841724
 20
2296.357339630714
 42
0.4142135623731
  0
LINE
  5
116
330
1F
100
AcDbEntity
  8
0-B
  6
Continuous
 62
   120
370
     5
100
AcDbLine
 10
-4377.500393841724
 20
2297.857339630713
 30
0.0
 11
-4377.500393841724
 21
1997.857339630714
 31
0.0
  0
LINE
  5
117
330
1F
100
AcDbEntity
  8
0-B
  6
Continuous
 62
   120
370
     5
100
AcDbLine
 10
-3302.500393841723
 20
1997.857339630714
 30
0.0
 11
-3248.500393841724
 21
1997.857339630714
 31
0.0
  0
LINE
  5
118
330
1F
100
AcDbEntity
  8
0-B
  6
Continuous
 62
   120
370
     5
100
AcDbLine
 10
-3302.500393841723
 20
2157.857339630714
 30
0.0
 11
-3248.500393841724
 21
2157.857339630714
 31
0.0
  0
LWPOLYLINE
  5
119
330
1F
100
AcDbEntity
  8
0-B
  6
Continuous
 62
     7
370
     9
100
AcDbPolyline
 90
        4
 70
     1
 43
3.0
 10
-3301.000393841723
 20
1997.857339630714
 42
0.4142135623731
 10
-3302.500393841723
 20
1999.357339630713
 42
0.4142135623731
 10
-3304.000393841723
 20
1997.857339630714
 42
0.4142135623731
 10
-3302.500393841723
 20
1996.357339630714
 42
0.4142135623731
  0
LWPOLYLINE
  5
11A
330
1F
100
AcDbEntity
  8
0-B
  6
Continuous
 62
     7
370
     9
100
AcDbPolyline
 90
        4
 70
     1
 43
3.0
 10
-3301.000393841723
 20
2157.857339630714
 42
0.4142135623731
 10
-3302.500393841723
 20
2159.357339630714
 42
0.4142135623731
 10
-3304.000393841723
 20
2157.857339630714
 42
0.4142135623731
 10
-3302.500393841723
 20
2156.357339630714
 42
0.4142135623731
  0
LINE
  5
11B
330
1F
100
AcDbEntity
  8
0-B
  6
Continuous
 62
   120
370
     5
100
AcDbLine
 10
-3302.500393841723
 20
2157.857339630714
 30
0.0
 11
-3302.500393841723
 21
1997.857339630714
 31
0.0
  0
LINE
  5
11C
330
1F
100
AcDbEntity
  8
0-4
  6
Continuous
 62
    92
370
    13
100
AcDbLine
 10
-3153.500393841722
 20
2002.857339630713
 30
0.0
 11
-3133.500393841723
 21
2002.857339630713
 31
0.0
  0
LINE
  5
11D
330
1F
100
AcDbEntity
  8
0-4
  6
Continuous
 62
    92
370
    13
100
AcDbLine
 10
-3133.500393841723
 20
2002.857339630713
 30
0.0
 11
-3133.500393841723
 21
1997.857339630714
 31
0.0
  0
LINE
  5
11E
330
1F
100
AcDbEntity
  8
0-4
  6
Continuous
 62
    92
370
    13
100
AcDbLine
 10
-3471.500393841723
 20
2002.857339630713
 30
0.0
 11
-3451.500393841724
 21
2002.857339630713
 31
0.0
  0
LINE
  5
11F
330
1F
100
AcDbEntity
  8
0-4
  6
Continuous
 62
    92
370
    13
100
AcDbLine
 10
-3471.500393841723
 20
2002.857339630713
 30
0.0
 11
-3471.500393841723
 21
1997.857339630714
 31
0.0
  0
LINE
  5
120
330
1F
100
AcDbEntity
  8
0-4
  6
Continuous
 62
    92
370
    13
100
AcDbLine
 10
-3153.500393841722
 20
2162.857339630713
 30
0.0
 11
-3153.500393841722
 21
2002.857339630713
 31
0.0
  0
LINE
  5
121
330
1F
100
AcDbEntity
  8
0-4
  6
Continuous
 62
    92
370
    13
100
AcDbLine
 10
-3451.500393841724
 20
2162.857339630713
 30
0.0
 11
-3153.500393841722
 21
2162.857339630713
 31
0.0
  0
LINE
  5
122
330
1F
100
AcDbEntity
  8
0-4
  6
Continuous
 62
    92
370
    13
100
AcDbLine
 10
-3451.500393841724
 20
2162.857339630713
 30
0.0
 11
-3451.500393841724
 21
2002.857339630713
 31
0.0
  0
LINE
  5
123
330
1F
100
AcDbEntity
  8
0-4
  6
Continuous
 62
    92
370
    13
100
AcDbLine
 10
-4227.500393841724
 20
1997.857339630714
 30
0.0
 11
-3446.500393841721
 21
1997.857339630714
 31
0.0
  0
LINE
  5
124
330
1F
100
AcDbEntity
  8
0-4
  6
Continuous
 62
    92
370
    13
100
AcDbLine
 10
-3446.500393841721
 20
2157.857339630714
 30
0.0
 11
-3446.500393841721
 21
1997.857339630714
 31
0.0
  0
LINE
  5
125
330
1F
100
AcDbEntity
  8
0-4
  6
Continuous
 62
    92
370
    13
100
AcDbLine
 10
-3158.500393841724
 20
2157.857339630714
 30
0.0
 11
-3158.500393841724
 21
1997.857339630714
 31
0.0
  0
LINE
  5
126
330
1F
100
AcDbEntity
  8
0-4
  6
Continuous
 62
    92
370
    13
100
AcDbLine
 10
-3158.500393841724
 20
1997.857339630714
 30
0.0
 11
-2757.500393841724
 21
1997.857339630714
 31
0.0
  0
LINE
  5
127
330
1F
100
AcDbEntity
  8
0-4
  6
Continuous
 62
    92
370
    13
100
AcDbLine
 10
-3446.500393841721
 20
2157.857339630714
 30
0.0
 11
-3158.500393841724
 21
2157.857339630714
 31
0.0
  0
LINE
  5
128
330
1F
100
AcDbEntity
  8
0-4
  6
Continuous
 62
    92
370
    13
100
AcDbLine
 10
-4227.500393841724
 20
2297.857339630713
 30
0.0
 11
-4227.500393841724
 21
1997.857339630714
 31
0.0
  0
LINE
  5
129
330
1F
100
AcDbEntity
  8
0-4
  6
Continuous
 62
    92
370
    13
100
AcDbLine
 10
-2757.500393841724
 20
2297.857339630713
 30
0.0
 11
-4227.500393841724
 21
2297.857339630713
 31
0.0
  0
LINE
  5
12A
330
1F
100
AcDbEntity
  8
0-4
  6
Continuous
 62
    92
370
    13
100
AcDbLine
 10
-2757.500393841724
 20
1997.857339630714
 30
0.0
 11
-2757.500393841724
 21
2297.857339630713
 31
0.0
  0
LINE
  5
12B
330
1F
100
AcDbEntity
  8
0-B
  6
Continuous
 62
   120
370
     5
100
AcDbLine
 10
-4117.500393841721
 20
2812.955168505914
 30
0.0
 11
-4117.500393841721
 21
3012.955168505914
 31
0.0
  0
LINE
  5
12C
330
1F
100
AcDbEntity
  8
0-B
  6
Continuous
 62
   120
370
     5
100
AcDbLine
 10
-3017.500393841723
 20
2812.955168505914
 30
0.0
 11
-3017.500393841723
 21
3012.955168505914
 31
0.0
  0
LWPOLYLINE
  5
12D
330
1F
100
AcDbEntity
  8
0-B
  6
Continuous
 62
     7
370
     9
100
AcDbPolyline
 90
        4
 70
     1
 43
3.0
 10
-4116.000393841721
 20
2812.955168505914
 42
0.4142135623731
 10
-4117.500393841721
 20
2814.455168505914
 42
0.4142135623731
 10
-4119.000393841722
 20
2812.955168505914
 42
0.4142135623731
 10
-4117.500393841721
 20
2811.455168505914
 42
0.4142135623731
  0
LWPOLYLINE
  5
12E
330
1F
100
AcDbEntity
  8
0-B
  6
Continuous
 62
     7
370
     9
100
AcDbPolyline
 90
        4
 70
     1
 43
3.0
 10
-3016.000393841723
 20
2812.955168505914
 42
0.4142135623731
 10
-3017.500393841723
 20
2814.455168505914
 42
0.4142135623731
 10
-3019.000393841723
 20
2812.955168505914
 42
0.4142135623731
 10
-3017.500393841723
 20
2811.455168505914
 42
0.4142135623731
  0
LINE
  5
12F
330
1F
100
AcDbEntity
  8
0-B
  6
Continuous
 62
   120
370
     5
100
AcDbLine
 10
-3017.500393841723
 20
2812.955168505914
 30
0.0
 11
-4117.500393841721
 21
2812.955168505914
 31
0.0
  0
LWPOLYLINE
  5
130
330
1F
100
AcDbEntity
  8
0-B
  6
Continuous
 62
     7
370
     9
100
AcDbPolyline
 90
        4
 70
     1
 43
3.0
 10
-3016.000393841723
 20
2912.955168505914
 42
0.4142135623731
 10
-3017.500393841723
 20
2914.455168505914
 42
0.4142135623731
 10
-3019.000393841723
 20
2912.955168505914
 42
0.4142135623731
 10
-3017.500393841723
 20
2911.455168505914
 42
0.4142135623731
  0
LINE
  5
131
330
1F
100
AcDbEntity
  8
0-B
  6
Continuous
 62
   120
370
     5
100
AcDbLine
 10
-3233.500393841723
 20
2912.955168505914
 30
0.0
 11
-3017.500393841723
 21
2912.955168505914
 31
0.0
  0
LINE
  5
132
330
1F
100
AcDbEntity
  8
0-B
  6
Continuous
 62
   120
370
     5
100
AcDbLine
 10
-3233.500393841723
 20
2912.955168505914
 30
0.0
 11
-3233.500393841723
 21
3012.955168505914
 31
0.0
  0
LWPOLYLINE
  5
133
330
1F
100
AcDbEntity
  8
0-B
  6
Continuous
 62
     7
370
     9
100
AcDbPolyline
 90
        4
 70
     1
 43
3.0
 10
-3232.000393841723
 20
2912.955168505914
 42
0.4142135623731
 10
-3233.500393841723
 20
2914.455168505914
 42
0.4142135623731
 10
-3235.000393841723
 20
2912.955168505914
 42
0.4142135623731
 10
-3233.500393841723
 20
2911.455168505914
 42
0.4142135623731
  0
LINE
  5
134
330
1F
100
AcDbEntity
  8
0-B
  6
Continuous
 62
   120
370
     5
100
AcDbLine
 10
-3521.500393841721
 20
2912.955168505914
 30
0.0
 11
-3233.500393841723
 21
2912.955168505914
 31
0.0
  0
LINE
  5
135
330
1F
100
AcDbEntity
  8
0-B
  6
Continuous
 62
   120
370
     5
100
AcDbLine
 10
-3521.500393841721
 20
2912.955168505914
 30
0.0
 11
-3521.500393841721
 21
3012.955168505914
 31
0.0
  0
LWPOLYLINE
  5
136
330
1F
100
AcDbEntity
  8
0-B
  6
Continuous
 62
     7
370
     9
100
AcDbPolyline
 90
        4
 70
     1
 43
3.0
 10
-3520.000393841722
 20
2912.955168505914
 42
0.4142135623731
 10
-3521.500393841721
 20
2914.455168505914
 42
0.4142135623731
 10
-3523.000393841721
 20
2912.955168505914
 42
0.4142135623731
 10
-3521.500393841721
 20
2911.455168505914
 42
0.4142135623731
  0
LWPOLYLINE
  5
137
330
1F
100
AcDbEntity
  8
0-B
  6
Continuous
 62
     7
370
     9
100
AcDbPolyline
 90
        4
 70
     1
 43
3.0
 10
-4116.000393841721
 20
2912.955168505914
 42
0.4142135623731
 10
-4117.500393841721
 20
2914.455168505914
 42
0.4142135623731
 10
-4119.000393841722
 20
2912.955168505914
 42
0.4142135623731
 10
-4117.500393841721
 20
2911.455168505914
 42
0.4142135623731
  0
LINE
  5
138
330
1F
100
AcDbEntity
  8
0-B
  6
Continuous
 62
   120
370
     5
100
AcDbLine
 10
-4117.500393841721
 20
2912.955168505914
 30
0.0
 11
-3521.500393841721
 21
2912.955168505914
 31
0.0
  0
LINE
  5
139
330
1F
100
AcDbEntity
  8
0-0
  6
JWW_HOJO
 62
   120
370
     5
100
AcDbLine
 10
-2607.50039384172
 20
2397.857339630714
 30
0.0
 11
-2607.50039384172
 21
1747.857339630713
 31
0.0
  0
LINE
  5
13A
330
1F
100
AcDbEntity
  8
0-0
  6
JWW_HOJO
 62
   120
370
     5
100
AcDbLine
 10
-2607.50039384172
 20
2397.857339630714
 30
0.0
 11
-4477.500393841723
 21
2397.857339630714
 31
0.0
  0
LINE
  5
13B
330
1F
100
AcDbEntity
  8
0-0
  6
JWW_HOJO
 62
   120
370
     5
100
AcDbLine
 10
-4377.500393841724
 20
2397.857339630714
 30
0.0
 11
-4377.500393841724
 21
1747.857339630713
 31
0.0
  0
LINE
  5
13C
330
1F
100
AcDbEntity
  8
0-0
  6
JWW_HOJO
 62
   120
370
     5
100
AcDbLine
 10
-4477.500393841723
 20
2397.857339630714
 30
0.0
 11
-4477.500393841723
 21
1747.857339630713
 31
0.0
  0
LINE
  5
13D
330
1F
100
AcDbEntity
  8
0-0
  6
JWW_HOJO
 62
   120
370
     5
100
AcDbLine
 10
-4277.500393841723
 20
2397.857339630714
 30
0.0
 11
-4277.500393841723
 21
1747.857339630713
 31
0.0
  0
LINE
  5
13E
330
1F
100
AcDbEntity
  8
0-0
  6
JWW_HOJO
 62
   120
370
     5
100
AcDbLine
 10
-2707.500393841722
 20
2347.857339630713
 30
0.0
 11
-4277.500393841723
 21
2347.857339630713
 31
0.0
  0
LINE
  5
13F
330
1F
100
AcDbEntity
  8
0-0
  6
JWW_HOJO
 62
   120
370
     5
100
AcDbLine
 10
-2707.500393841722
 20
1947.857339630714
 30
0.0
 11
-2707.500393841722
 21
2347.857339630713
 31
0.0
  0
LINE
  5
140
330
1F
100
AcDbEntity
  8
0-4
  6
Continuous
 62
    92
370
    13
100
AcDbLine
 10
-3228.500393841722
 20
3067.955168505914
 30
0.0
 11
-3208.500393841723
 21
3067.955168505914
 31
0.0
  0
LINE
  5
141
330
1F
100
AcDbEntity
  8
0-4
  6
Continuous
 62
    92
370
    13
100
AcDbLine
 10
-3208.500393841723
 20
3062.955168505914
 30
0.0
 11
-3208.500393841723
 21
3067.955168505914
 31
0.0
  0
LINE
  5
142
330
1F
100
AcDbEntity
  8
0-4
  6
Continuous
 62
    92
370
    13
100
AcDbLine
 10
-3546.500393841723
 20
3067.955168505914
 30
0.0
 11
-3526.500393841722
 21
3067.955168505914
 31
0.0
  0
LINE
  5
143
330
1F
100
AcDbEntity
  8
0-4
  6
Continuous
 62
    92
370
    13
100
AcDbLine
 10
-3546.500393841723
 20
3067.955168505914
 30
0.0
 11
-3546.500393841723
 21
3062.955168505914
 31
0.0
  0
LINE
  5
144
330
1F
100
AcDbEntity
  8
0-4
  6
Continuous
 62
    92
370
    13
100
AcDbLine
 10
-3526.500393841722
 20
3227.955168505914
 30
0.0
 11
-3526.500393841722
 21
3067.955168505914
 31
0.0
  0
LINE
  5
145
330
1F
100
AcDbEntity
  8
0-4
  6
Continuous
 62
    92
370
    13
100
AcDbLine
 10
-3526.500393841722
 20
3227.955168505914
 30
0.0
 11
-3228.500393841722
 21
3227.955168505914
 31
0.0
  0
LINE
  5
146
330
1F
100
AcDbEntity
  8
0-4
  6
Continuous
 62
    92
370
    13
100
AcDbLine
 10
-3228.500393841722
 20
3067.955168505914
 30
0.0
 11
-3228.500393841722
 21
3227.955168505914
 31
0.0
  0
LINE
  5
147
330
1F
100
AcDbEntity
  8
0-4
  6
Continuous
 62
    92
370
    13
100
AcDbLine
 10
-4117.500393841721
 20
3062.955168505914
 30
0.0
 11
-3521.500393841721
 21
3062.955168505914
 31
0.0
  0
LINE
  5
148
330
1F
100
AcDbEntity
  8
0-4
  6
Continuous
 62
    92
370
    13
100
AcDbLine
 10
-3521.500393841721
 20
3222.955168505914
 30
0.0
 11
-3521.500393841721
 21
3062.955168505914
 31
0.0
  0
LINE
  5
149
330
1F
100
AcDbEntity
  8
0-4
  6
Continuous
 62
    92
370
    13
100
AcDbLine
 10
-3233.500393841723
 20
3062.955168505914
 30
0.0
 11
-3233.500393841723
 21
3222.955168505914
 31
0.0
  0
LINE
  5
14A
330
1F
100
AcDbEntity
  8
0-4
  6
Continuous
 62
    92
370
    13
100
AcDbLine
 10
-3233.500393841723
 20
3062.955168505914
 30
0.0
 11
-3017.500393841723
 21
3062.955168505914
 31
0.0
  0
LINE
  5
14B
330
1F
100
AcDbEntity
  8
0-4
  6
Continuous
 62
    92
370
    13
100
AcDbLine
 10
-3521.500393841721
 20
3222.955168505914
 30
0.0
 11
-3233.500393841723
 21
3222.955168505914
 31
0.0
  0
LINE
  5
14C
330
1F
100
AcDbEntity
  8
0-4
  6
Continuous
 62
    92
370
    13
100
AcDbLine
 10
-3017.500393841723
 20
3362.955168505914
 30
0.0
 11
-4117.500393841721
 21
3362.955168505914
 31
0.0
  0
LINE
  5
14D
330
1F
100
AcDbEntity
  8
0-0
  6
JWW_HOJO
 62
   120
370
     5
100
AcDbLine
 10
-2767.500393841724
 20
3612.955168505914
 30
0.0
 11
-2767.500393841724
 21
2812.955168505914
 31
0.0
  0
LINE
  5
14E
330
1F
100
AcDbEntity
  8
0-0
  6
JWW_HOJO
 62
   120
370
     5
100
AcDbLine
 10
-4367.500393841723
 20
3612.955168505914
 30
0.0
 11
-2767.500393841724
 21
3612.955168505914
 31
0.0
  0
LINE
  5
14F
330
1F
100
AcDbEntity
  8
0-0
  6
JWW_HOJO
 62
   120
370
     5
100
AcDbLine
 10
-4367.500393841723
 20
2812.955168505914
 30
0.0
 11
-4367.500393841723
 21
3612.955168505914
 31
0.0
  0
LINE
  5
150
330
1F
100
AcDbEntity
  8
0-0
  6
JWW_HOJO
 62
   120
370
     5
100
AcDbLine
 10
-4267.500393841721
 20
3512.955168505914
 30
0.0
 11
-2867.500393841723
 21
3512.955168505914
 31
0.0
  0
LINE
  5
151
330
1F
100
AcDbEntity
  8
0-0
  6
JWW_HOJO
 62
   120
370
     5
100
AcDbLine
 10
-2867.500393841723
 20
3512.955168505914
 30
0.0
 11
-2867.500393841723
 21
2912.955168505914
 31
0.0
  0
LINE
  5
152
330
1F
100
AcDbEntity
  8
0-0
  6
JWW_HOJO
 62
   120
370
     5
100
AcDbLine
 10
-4267.500393841721
 20
2912.955168505914
 30
0.0
 11
-4267.500393841721
 21
3512.955168505914
 31
0.0
  0
LINE
  5
153
330
1F
100
AcDbEntity
  8
0-0
  6
JWW_HOJO
 62
   120
370
     5
100
AcDbLine
 10
-4167.500393841719
 20
3412.955168505913
 30
0.0
 11
-4167.500393841719
 21
3012.955168505914
 31
0.0
  0
LINE
  5
154
330
1F
100
AcDbEntity
  8
0-0
  6
JWW_HOJO
 62
   120
370
     5
100
AcDbLine
 10
-2967.500393841724
 20
3412.955168505913
 30
0.0
 11
-4167.500393841719
 21
3412.955168505913
 31
0.0
  0
LINE
  5
155
330
1F
100
AcDbEntity
  8
0-0
  6
JWW_HOJO
 62
   120
370
     5
100
AcDbLine
 10
-2967.500393841724
 20
3012.955168505914
 30
0.0
 11
-2967.500393841724
 21
3412.955168505913
 31
0.0
  0
ARC
  5
156
330
1F
100
AcDbEntity
  8
0-4
  6
Continuous
 62
    92
370
    13
100
AcDbCircle
 10
2622.499620592267
 20
55.00005979795418
 30
0.0
 40
30.0
100
AcDbArc
 50
0.0
 51
90.0
  0
ARC
  5
157
330
1F
100
AcDbEntity
  8
0-4
  6
Continuous
 62
    92
370
    13
100
AcDbCircle
 10
2622.499620592267
 20
55.00005979795418
 30
0.0
 40
25.0
100
AcDbArc
 50
0.0
 51
90.0
  0
LINE
  5
158
330
1F
100
AcDbEntity
  8
0-0
  6
JWW_HOJO
 62
   120
370
     5
100
AcDbLine
 10
2652.499620592267
 20
-114.9999402020438
 30
0.0
 11
2652.499620592267
 21
135.0000597979565
 31
0.0
  0
ARC
  5
159
330
1F
100
AcDbEntity
  8
0-4
  6
Continuous
 62
    92
370
    13
100
AcDbCircle
 10
1932.499620592268
 20
55.00005979795418
 30
0.0
 40
30.0
100
AcDbArc
 50
90.0
 51
180.0
  0
ARC
  5
15A
330
1F
100
AcDbEntity
  8
0-4
  6
Continuous
 62
    92
370
    13
100
AcDbCircle
 10
1932.499620592268
 20
55.00005979795418
 30
0.0
 40
25.0
100
AcDbArc
 50
90.0
 51
180.0
  0
LINE
  5
15B
330
1F
100
AcDbEntity
  8
0-0
  6
JWW_HOJO
 62
   120
370
     5
100
AcDbLine
 10
1902.499620592267
 20
135.0000597979565
 30
0.0
 11
1902.499620592267
 21
-114.9999402020438
 31
0.0
  0
LINE
  5
15C
330
1F
100
AcDbEntity
  8
0-0
  6
JWW_HOJO
 62
   120
370
     5
100
AcDbLine
 10
1902.499620592267
 20
135.0000597979565
 30
0.0
 11
2652.499620592267
 21
135.0000597979565
 31
0.0
  0
LINE
  5
15D
330
1F
100
AcDbEntity
  8
0-0
  6
JWW_HOJO
 62
   120
370
     5
100
AcDbLine
 10
2652.499620592267
 20
-114.9999402020438
 30
0.0
 11
1902.499620592267
 21
-114.9999402020438
 31
0.0
  0
LINE
  5
15E
330
1F
100
AcDbEntity
  8
0-B
  6
Continuous
 62
   120
370
     5
100
AcDbLine
 10
1752.499620592267
 20
-64.99994020204326
 30
0.0
 11
1752.499620592267
 21
54.99921102781627
 31
0.0
  0
LWPOLYLINE
  5
15F
330
1F
100
AcDbEntity
  8
0-B
  6
Continuous
 62
     7
370
     9
100
AcDbPolyline
 90
        4
 70
     1
 43
3.0
 10
1753.999620592267
 20
-64.99994020204326
 42
0.4142135623731
 10
1752.499620592267
 20
-63.49994020204327
 42
0.4142135623731
 10
1750.999620592267
 20
-64.99994020204326
 42
0.4142135623731
 10
1752.499620592267
 20
-66.49994020204326
 42
0.4142135623731
  0
LWPOLYLINE
  5
160
330
1F
100
AcDbEntity
  8
0-B
  6
Continuous
 62
     7
370
     9
100
AcDbPolyline
 90
        4
 70
     1
 43
3.0
 10
1753.999620592267
 20
54.99921102781627
 42
0.4142135623731
 10
1752.499620592267
 20
56.49921102781627
 42
0.4142135623731
 10
1750.999620592267
 20
54.99921102781627
 42
0.4142135623731
 10
1752.499620592267
 20
53.49921102781627
 42
0.4142135623731
  0
LINE
  5
161
330
1F
100
AcDbEntity
  8
0-B
  6
Continuous
 62
   120
370
     5
100
AcDbLine
 10
1652.499620592266
 20
-64.99994020204326
 30
0.0
 11
1852.499620592268
 21
-64.99994020204326
 31
0.0
  0
LINE
  5
162
330
1F
100
AcDbEntity
  8
0-B
  6
Continuous
 62
   120
370
     5
100
AcDbLine
 10
1752.499620592267
 20
54.99921102781627
 30
0.0
 11
1852.499620592268
 21
54.99921102781627
 31
0.0
  0
LINE
  5
163
330
1F
100
AcDbEntity
  8
0-B
  6
Continuous
 62
   120
370
     5
100
AcDbLine
 10
1752.499620592267
 20
54.99921102781627
 30
0.0
 11
1752.499620592267
 21
85.00005979795674
 31
0.0
  0
LWPOLYLINE
  5
164
330
1F
100
AcDbEntity
  8
0-B
  6
Continuous
 62
     7
370
     9
100
AcDbPolyline
 90
        4
 70
     1
 43
3.0
 10
1753.999620592267
 20
85.00005979795674
 42
0.4142135623731
 10
1752.499620592267
 20
86.50005979795674
 42
0.4142135623731
 10
1750.999620592267
 20
85.00005979795674
 42
0.4142135623731
 10
1752.499620592267
 20
83.50005979795674
 42
0.4142135623731
  0
LINE
  5
165
330
1F
100
AcDbEntity
  8
0-B
  6
Continuous
 62
   120
370
     5
100
AcDbLine
 10
1652.499620592266
 20
85.00005979795674
 30
0.0
 11
1852.499620592268
 21
85.00005979795674
 31
0.0
  0
LINE
  5
166
330
1F
100
AcDbEntity
  8
0-B
  6
Continuous
 62
   120
370
     5
100
AcDbLine
 10
1652.499620592266
 20
-64.99994020204326
 30
0.0
 11
1652.499620592266
 21
85.00005979795674
 31
0.0
  0
LWPOLYLINE
  5
167
330
1F
100
AcDbEntity
  8
0-B
  6
Continuous
 62
     7
370
     9
100
AcDbPolyline
 90
        4
 70
     1
 43
3.0
 10
1653.999620592266
 20
-64.99994020204326
 42
0.4142135623731
 10
1652.499620592266
 20
-63.49994020204327
 42
0.4142135623731
 10
1650.999620592267
 20
-64.99994020204326
 42
0.4142135623731
 10
1652.499620592266
 20
-66.49994020204326
 42
0.4142135623731
  0
LWPOLYLINE
  5
168
330
1F
100
AcDbEntity
  8
0-B
  6
Continuous
 62
     7
370
     9
100
AcDbPolyline
 90
        4
 70
     1
 43
3.0
 10
1653.999620592266
 20
85.00005979795674
 42
0.4142135623731
 10
1652.499620592266
 20
86.50005979795674
 42
0.4142135623731
 10
1650.999620592267
 20
85.00005979795674
 42
0.4142135623731
 10
1652.499620592266
 20
83.50005979795674
 42
0.4142135623731
  0
LINE
  5
169
330
1F
100
AcDbEntity
  8
0-0
  6
JWW_HOJO
 62
   120
370
     5
100
AcDbLine
 10
2702.499620592267
 20
-214.9999402020433
 30
0.0
 11
1852.499620592268
 21
-214.9999402020433
 31
0.0
  0
LWPOLYLINE
  5
16A
330
1F
100
AcDbEntity
  8
0-B
  6
Continuous
 62
     7
370
     9
100
AcDbPolyline
 90
        4
 70
     1
 43
3.0
 10
1903.999620592267
 20
-214.9999402020433
 42
0.4142135623731
 10
1902.499620592267
 20
-213.4999402020433
 42
0.4142135623731
 10
1900.999620592267
 20
-214.9999402020433
 42
0.4142135623731
 10
1902.499620592267
 20
-216.4999402020433
 42
0.4142135623731
  0
LINE
  5
16B
330
1F
100
AcDbEntity
  8
0-B
  6
Continuous
 62
   120
370
     5
100
AcDbLine
 10
1902.499620592267
 20
-314.9999402020435
 30
0.0
 11
1902.499620592267
 21
-114.9999402020438
 31
0.0
  0
LWPOLYLINE
  5
16C
330
1F
100
AcDbEntity
  8
0-B
  6
Continuous
 62
     7
370
     9
100
AcDbPolyline
 90
        4
 70
     1
 43
3.0
 10
2653.999620592268
 20
-214.9999402020433
 42
0.4142135623731
 10
2652.499620592268
 20
-213.4999402020433
 42
0.4142135623731
 10
2650.999620592268
 20
-214.9999402020433
 42
0.4142135623731
 10
2652.499620592268
 20
-216.4999402020433
 42
0.4142135623731
  0
LINE
  5
16D
330
1F
100
AcDbEntity
  8
0-B
  6
Continuous
 62
   120
370
     5
100
AcDbLine
 10
2652.499620592268
 20
-314.9999402020435
 30
0.0
 11
2652.499620592268
 21
-114.9999402020438
 31
0.0
  0
LINE
  5
16E
330
1F
100
AcDbEntity
  8
0-B
  6
Continuous
 62
   120
370
     5
100
AcDbLine
 10
1902.499620592267
 20
-314.9999402020435
 30
0.0
 11
2652.499620592268
 21
-314.9999402020435
 31
0.0
  0
LWPOLYLINE
  5
16F
330
1F
100
AcDbEntity
  8
0-B
  6
Continuous
 62
     7
370
     9
100
AcDbPolyline
 90
        4
 70
     1
 43
3.0
 10
1903.999620592267
 20
-314.9999402020435
 42
0.4142135623731
 10
1902.499620592267
 20
-313.4999402020435
 42
0.4142135623731
 10
1900.999620592267
 20
-314.9999402020435
 42
0.4142135623731
 10
1902.499620592267
 20
-316.4999402020435
 42
0.4142135623731
  0
LWPOLYLINE
  5
170
330
1F
100
AcDbEntity
  8
0-B
  6
Continuous
 62
     7
370
     9
100
AcDbPolyline
 90
        4
 70
     1
 43
3.0
 10
2653.999620592268
 20
-314.9999402020435
 42
0.4142135623731
 10
2652.499620592268
 20
-313.4999402020435
 42
0.4142135623731
 10
2650.999620592268
 20
-314.9999402020435
 42
0.4142135623731
 10
2652.499620592268
 20
-316.4999402020435
 42
0.4142135623731
  0
LINE
  5
171
330
1F
100
AcDbEntity
  8
0-0
  6
JWW_HOJO
 62
   120
370
     5
100
AcDbLine
 10
2702.499620592267
 20
-314.9999402020435
 30
0.0
 11
1652.499620592266
 21
-314.9999402020435
 31
0.0
  0
LINE
  5
172
330
1F
100
AcDbEntity
  8
0-0
  6
JWW_HOJO
 62
   120
370
     5
100
AcDbLine
 10
1652.499620592266
 20
235.0000597979567
 30
0.0
 11
2702.499620592267
 21
235.0000597979567
 31
0.0
  0
LINE
  5
173
330
1F
100
AcDbEntity
  8
0-0
  6
JWW_HOJO
 62
   120
370
     5
100
AcDbLine
 10
1852.499620592268
 20
235.0000597979567
 30
0.0
 11
1852.499620592268
 21
-214.9999402020433
 31
0.0
  0
LINE
  5
174
330
1F
100
AcDbEntity
  8
0-0
  6
JWW_HOJO
 62
   120
370
     5
100
AcDbLine
 10
2702.499620592267
 20
-314.9999402020435
 30
0.0
 11
2702.499620592267
 21
235.0000597979567
 31
0.0
  0
LINE
  5
175
330
1F
100
AcDbEntity
  8
0-0
  6
JWW_HOJO
 62
   120
370
     5
100
AcDbLine
 10
1652.499620592266
 20
235.0000597979567
 30
0.0
 11
1652.499620592266
 21
-314.9999402020435
 31
0.0
  0
LINE
  5
176
330
1F
100
AcDbEntity
  8
0-0
  6
JWW_HOJO
 62
   120
370
     5
100
AcDbLine
 10
1752.499620592267
 20
235.0000597979567
 30
0.0
 11
1752.499620592267
 21
-314.9999402020435
 31
0.0
  0
LINE
  5
177
330
1F
100
AcDbEntity
  8
0-B
  6
Continuous
 62
   120
370
     5
100
AcDbLine
 10
2262.500288164289
 20
85.00005979795674
 30
0.0
 11
2262.500288164289
 21
25.00005979795674
 31
0.0
  0
LWPOLYLINE
  5
178
330
1F
100
AcDbEntity
  8
0-B
  6
Continuous
 62
     7
370
     9
100
AcDbPolyline
 90
        4
 70
     1
 43
3.0
 10
2264.000288164289
 20
85.00005979795674
 42
0.4142135623731
 10
2262.500288164289
 20
86.50005979795674
 42
0.4142135623731
 10
2261.000288164289
 20
85.00005979795674
 42
0.4142135623731
 10
2262.500288164289
 20
83.50005979795674
 42
0.4142135623731
  0
LWPOLYLINE
  5
179
330
1F
100
AcDbEntity
  8
0-B
  6
Continuous
 62
     7
370
     9
100
AcDbPolyline
 90
        4
 70
     1
 43
3.0
 10
2264.000288164289
 20
25.00005979795674
 42
0.4142135623731
 10
2262.500288164289
 20
26.50005979795674
 42
0.4142135623731
 10
2261.000288164289
 20
25.00005979795674
 42
0.4142135623731
 10
2262.500288164289
 20
23.50005979795674
 42
0.4142135623731
  0
LINE
  5
17A
330
1F
100
AcDbEntity
  8
0-B
  6
Continuous
 62
   120
370
     5
100
AcDbLine
 10
2262.500288164289
 20
85.00005979795674
 30
0.0
 11
2212.500288164289
 21
85.00005979795674
 31
0.0
  0
LINE
  5
17B
330
1F
100
AcDbEntity
  8
0-B
  6
Continuous
 62
   120
370
     5
100
AcDbLine
 10
2262.500288164289
 20
25.00005979795674
 30
0.0
 11
2212.500288164289
 21
25.00005979795674
 31
0.0
  0
LINE
  5
17C
330
1F
100
AcDbEntity
  8
0-0
  6
JWW_HOJO
 62
   120
370
     5
100
AcDbLine
 10
-4477.500393841723
 20
1747.857339630713
 30
0.0
 11
-2607.50039384172
 21
1747.857339630713
 31
0.0
  0
LINE
  5
17D
330
1F
100
AcDbEntity
  8
0-0
  6
JWW_HOJO
 62
   120
370
     5
100
AcDbLine
 10
-4477.500393841723
 20
1847.857339630714
 30
0.0
 11
-2607.50039384172
 21
1847.857339630714
 31
0.0
  0
LINE
  5
17E
330
1F
100
AcDbEntity
  8
0-0
  6
JWW_HOJO
 62
   120
370
     5
100
AcDbLine
 10
-4277.500393841723
 20
1947.857339630714
 30
0.0
 11
-2707.500393841722
 21
1947.857339630714
 31
0.0
  0
LINE
  5
17F
330
1F
100
AcDbEntity
  8
0-0
  6
JWW_HOJO
 62
   120
370
     5
100
AcDbLine
 10
-4552.500393841723
 20
676.4286997143333
 30
0.0
 11
-2532.50039384172
 21
676.4286997143333
 31
0.0
  0
LINE
  5
180
330
1F
100
AcDbEntity
  8
0-0
  6
JWW_HOJO
 62
   120
370
     5
100
AcDbLine
 10
-4552.500393841723
 20
776.4286997143353
 30
0.0
 11
-2532.50039384172
 21
776.4286997143353
 31
0.0
  0
LINE
  5
181
330
1F
100
AcDbEntity
  8
0-0
  6
JWW_HOJO
 62
   120
370
     5
100
AcDbLine
 10
-4352.500393841723
 20
876.4286997143356
 30
0.0
 11
-2632.500393841722
 21
876.4286997143356
 31
0.0
  0
LINE
  5
182
330
1F
100
AcDbEntity
  8
0-0
  6
JWW_HOJO
 62
   120
370
     5
100
AcDbLine
 10
-2767.500393841724
 20
2812.955168505914
 30
0.0
 11
-4367.500393841723
 21
2812.955168505914
 31
0.0
  0
LINE
  5
183
330
1F
100
AcDbEntity
  8
0-0
  6
JWW_HOJO
 62
   120
370
     5
100
AcDbLine
 10
-2867.500393841723
 20
2912.955168505914
 30
0.0
 11
-4267.500393841721
 21
2912.955168505914
 31
0.0
  0
LINE
  5
184
330
1F
100
AcDbEntity
  8
0-0
  6
JWW_HOJO
 62
   120
370
     5
100
AcDbLine
 10
-2967.500393841724
 20
3012.955168505914
 30
0.0
 11
-4167.500393841719
 21
3012.955168505914
 31
0.0
  0
LINE
  5
185
330
1F
100
AcDbEntity
  8
F-1
  6
JWW_DASHED1
 62
     7
370
     9
100
AcDbLine
 10
1114.999521616338
 20
2638.571659588903
 30
0.0
 11
5689.998791668862
 21
2638.571659588903
 31
0.0
  0
LINE
  5
186
330
1F
100
AcDbEntity
  8
F-1
  6
JWW_DASHED1
 62
     7
370
     9
100
AcDbLine
 10
1114.999521616338
 20
1567.143019672524
 30
0.0
 11
5689.998791668862
 21
1567.143019672524
 31
0.0
  0
LINE
  5
187
330
1F
100
AcDbEntity
  8
F-1
  6
Continuous
 62
     7
370
     9
100
AcDbLine
 10
-4940.000028867985
 20
-2718.571539992992
 30
0.0
 11
-155.0007588154605
 21
-2718.571539992992
 31
0.0
  0
LINE
  5
188
330
1F
100
AcDbEntity
  8
F-0
  6
JWW_HOJO
 62
   120
370
     5
100
AcDbLine
 10
-3567.500393841724
 20
-3790.000179909372
 30
0.0
 11
-3567.500393841724
 21
3710.000461887669
 31
0.0
  0
LINE
  5
189
330
1F
100
AcDbEntity
  8
F-1
  6
Continuous
 62
     7
370
     9
100
AcDbLine
 10
-4940.000028867985
 20
495.7143797561466
 30
0.0
 11
-155.0007588154605
 21
495.7143797561466
 31
0.0
  0
LINE
  5
18A
330
1F
100
AcDbEntity
  8
F-1
  6
Continuous
 62
     7
370
     9
100
AcDbLine
 10
904.9995216163379
 20
495.7143797561466
 30
0.0
 11
5689.99897724873
 21
495.7143797561466
 31
0.0
  0
LINE
  5
18B
330
1F
100
AcDbEntity
  8
F-0
  6
JWW_HOJO
 62
   120
370
     5
100
AcDbLine
 10
2277.500084541935
 20
-3790.000179909372
 30
0.0
 11
2277.500084541935
 21
4174.999769056166
 31
0.0
  0
LINE
  5
18C
330
1F
100
AcDbEntity
  8
F-1
  6
JWW_DASHED1
 62
     7
370
     9
100
AcDbLine
 10
-4730.000028867985
 20
2638.571659588903
 30
0.0
 11
-155.0007588154605
 21
2638.571659588903
 31
0.0
  0
LINE
  5
18D
330
1F
100
AcDbEntity
  8
F-1
  6
JWW_DASHED1
 62
     7
370
     9
100
AcDbLine
 10
-4730.000028867985
 20
1567.143019672524
 30
0.0
 11
-155.0007588154605
 21
1567.143019672524
 31
0.0
  0
LINE
  5
18E
330
1F
100
AcDbEntity
  8
F-1
  6
Continuous
 62
     7
370
     9
100
AcDbLine
 10
-4730.000028867985
 20
3710.000461887669
 30
0.0
 11
-4730.000028867985
 21
-3790.000179909372
 31
0.0
  0
LINE
  5
18F
330
1F
100
AcDbEntity
  8
F-1
  6
JWW_DASHED1
 62
     7
370
     9
100
AcDbLine
 10
3439.999719568196
 20
-3075.714419965117
 30
0.0
 11
5689.999719568197
 21
-3075.714419965117
 31
0.0
  0
LINE
  5
190
330
1F
100
AcDbEntity
  8
F-1
  6
JWW_DASHED1
 62
     7
370
     9
100
AcDbLine
 10
3439.999719568196
 20
-2897.142979979054
 30
0.0
 11
5689.999719568197
 21
-2897.142979979054
 31
0.0
  0
LINE
  5
191
330
1F
100
AcDbEntity
  8
F-1
  6
JWW_DASHED1
 62
     7
370
     9
100
AcDbLine
 10
3439.999719568196
 20
-2004.285780048739
 30
0.0
 11
5689.999719568197
 21
-2004.285780048739
 31
0.0
  0
LINE
  5
192
330
1F
100
AcDbEntity
  8
F-1
  6
JWW_DASHED1
 62
     7
370
     9
100
AcDbLine
 10
3439.999719568196
 20
-2182.857220034802
 30
0.0
 11
5689.999719568197
 21
-2182.857220034802
 31
0.0
  0
LINE
  5
193
330
1F
100
AcDbEntity
  8
F-1
  6
JWW_DASHED1
 62
     7
370
     9
100
AcDbLine
 10
3439.999719568196
 20
-2361.428660020866
 30
0.0
 11
5689.999719568197
 21
-2361.428660020866
 31
0.0
  0
LINE
  5
194
330
1F
100
AcDbEntity
  8
F-1
  6
JWW_DASHED1
 62
     7
370
     9
100
AcDbLine
 10
3439.999719568196
 20
-2540.000100006929
 30
0.0
 11
5689.999719568197
 21
-2540.000100006929
 31
0.0
  0
LINE
  5
195
330
1F
100
AcDbEntity
  8
F-1
  6
JWW_DASHED1
 62
     7
370
     9
100
AcDbLine
 10
3439.999719568196
 20
-1825.714340062675
 30
0.0
 11
5689.999719568197
 21
-1825.714340062675
 31
0.0
  0
LINE
  5
196
330
1F
100
AcDbEntity
  8
F-1
  6
JWW_DASHED1
 62
     7
370
     9
100
AcDbLine
 10
3439.999719568196
 20
-3254.285859951181
 30
0.0
 11
5689.999719568197
 21
-3254.285859951181
 31
0.0
  0
LINE
  5
197
330
1F
100
AcDbEntity
  8
F-1
  6
JWW_DASHED1
 62
     7
370
     9
100
AcDbLine
 10
3439.999719568196
 20
-3432.857299937245
 30
0.0
 11
5689.999719568197
 21
-3432.857299937245
 31
0.0
  0
LINE
  5
198
330
1F
100
AcDbEntity
  8
F-1
  6
JWW_DASHED1
 62
     7
370
     9
100
AcDbLine
 10
3439.999719568196
 20
-3611.428739923308
 30
0.0
 11
5689.999719568197
 21
-3611.428739923308
 31
0.0
  0
LINE
  5
199
330
1F
100
AcDbEntity
  8
F-1
  6
JWW_DASHED1
 62
     7
370
     9
100
AcDbLine
 10
3439.999719568196
 20
-932.8571401323595
 30
0.0
 11
5689.999719568197
 21
-932.8571401323595
 31
0.0
  0
LINE
  5
19A
330
1F
100
AcDbEntity
  8
F-1
  6
JWW_DASHED1
 62
     7
370
     9
100
AcDbLine
 10
3439.999719568196
 20
-1111.428580118423
 30
0.0
 11
5689.999719568197
 21
-1111.428580118423
 31
0.0
  0
LINE
  5
19B
330
1F
100
AcDbEntity
  8
F-1
  6
JWW_DASHED1
 62
     7
370
     9
100
AcDbLine
 10
3439.999719568196
 20
-1290.000020104486
 30
0.0
 11
5689.999719568197
 21
-1290.000020104486
 31
0.0
  0
LINE
  5
19C
330
1F
100
AcDbEntity
  8
F-1
  6
JWW_DASHED1
 62
     7
370
     9
100
AcDbLine
 10
3439.999719568196
 20
-1468.57146009055
 30
0.0
 11
5689.999719568197
 21
-1468.57146009055
 31
0.0
  0
LINE
  5
19D
330
1F
100
AcDbEntity
  8
F-1
  6
JWW_DASHED1
 62
     7
370
     9
100
AcDbLine
 10
3439.999719568196
 20
-754.285700146296
 30
0.0
 11
5689.999719568197
 21
-754.285700146296
 31
0.0
  0
LINE
  5
19E
330
1F
100
AcDbEntity
  8
F-1
  6
JWW_DASHED1
 62
     7
370
     9
100
AcDbLine
 10
3439.999719568196
 20
138.5714997840196
 30
0.0
 11
5689.999719568197
 21
138.5714997840196
 31
0.0
  0
LINE
  5
19F
330
1F
100
AcDbEntity
  8
F-1
  6
JWW_DASHED1
 62
     7
370
     9
100
AcDbLine
 10
3439.999719568196
 20
-39.99994020204383
 30
0.0
 11
5689.999719568197
 21
-39.99994020204383
 31
0.0
  0
LINE
  5
1A0
330
1F
100
AcDbEntity
  8
F-1
  6
JWW_DASHED1
 62
     7
370
     9
100
AcDbLine
 10
3439.999719568196
 20
-218.5713801881064
 30
0.0
 11
5689.999719568197
 21
-218.5713801881064
 31
0.0
  0
LINE
  5
1A1
330
1F
100
AcDbEntity
  8
F-1
  6
JWW_DASHED1
 62
     7
370
     9
100
AcDbLine
 10
3439.999719568196
 20
-397.1428201741708
 30
0.0
 11
5689.999719568197
 21
-397.1428201741708
 31
0.0
  0
LINE
  5
1A2
330
1F
100
AcDbEntity
  8
F-1
  6
JWW_DASHED1
 62
     7
370
     9
100
AcDbLine
 10
3439.999719568196
 20
317.142939770084
 30
0.0
 11
5689.999719568197
 21
317.142939770084
 31
0.0
  0
LINE
  5
1A3
330
1F
100
AcDbEntity
  8
F-1
  6
JWW_DASHED1
 62
     7
370
     9
100
AcDbLine
 10
3439.999719568196
 20
1210.0001397004
 30
0.0
 11
5689.999719568197
 21
1210.0001397004
 31
0.0
  0
LINE
  5
1A4
330
1F
100
AcDbEntity
  8
F-1
  6
JWW_DASHED1
 62
     7
370
     9
100
AcDbLine
 10
3439.999719568196
 20
1031.428699714336
 30
0.0
 11
5689.999719568197
 21
1031.428699714336
 31
0.0
  0
LINE
  5
1A5
330
1F
100
AcDbEntity
  8
F-1
  6
JWW_DASHED1
 62
     7
370
     9
100
AcDbLine
 10
3439.999719568196
 20
852.8572597282727
 30
0.0
 11
5689.999719568197
 21
852.8572597282727
 31
0.0
  0
LINE
  5
1A6
330
1F
100
AcDbEntity
  8
F-1
  6
JWW_DASHED1
 62
     7
370
     9
100
AcDbLine
 10
3439.999719568196
 20
674.2858197422092
 30
0.0
 11
5689.999719568197
 21
674.2858197422092
 31
0.0
  0
LINE
  5
1A7
330
1F
100
AcDbEntity
  8
F-1
  6
JWW_DASHED1
 62
     7
370
     9
100
AcDbLine
 10
3439.999719568196
 20
1388.571579686463
 30
0.0
 11
5689.999719568197
 21
1388.571579686463
 31
0.0
  0
LINE
  5
1A8
330
1F
100
AcDbEntity
  8
F-1
  6
JWW_DASHED1
 62
     7
370
     9
100
AcDbLine
 10
3439.999719568196
 20
2281.42877961678
 30
0.0
 11
5689.999719568197
 21
2281.42877961678
 31
0.0
  0
LINE
  5
1A9
330
1F
100
AcDbEntity
  8
F-1
  6
JWW_DASHED1
 62
     7
370
     9
100
AcDbLine
 10
3439.999719568196
 20
2102.857339630715
 30
0.0
 11
5689.999719568197
 21
2102.857339630715
 31
0.0
  0
LINE
  5
1AA
330
1F
100
AcDbEntity
  8
F-1
  6
JWW_DASHED1
 62
     7
370
     9
100
AcDbLine
 10
3439.999719568196
 20
1924.285899644653
 30
0.0
 11
5689.999719568197
 21
1924.285899644653
 31
0.0
  0
LINE
  5
1AB
330
1F
100
AcDbEntity
  8
F-1
  6
JWW_DASHED1
 62
     7
370
     9
100
AcDbLine
 10
3439.999719568196
 20
1745.714459658588
 30
0.0
 11
5689.999719568197
 21
1745.714459658588
 31
0.0
  0
LINE
  5
1AC
330
1F
100
AcDbEntity
  8
F-1
  6
JWW_DASHED1
 62
     7
370
     9
100
AcDbLine
 10
3439.999719568196
 20
2460.000219602842
 30
0.0
 11
5689.999719568197
 21
2460.000219602842
 31
0.0
  0
LINE
  5
1AD
330
1F
100
AcDbEntity
  8
F-1
  6
JWW_DASHED1
 62
     7
370
     9
100
AcDbLine
 10
3439.999719568196
 20
3352.857419533158
 30
0.0
 11
5689.999719568197
 21
3352.857419533158
 31
0.0
  0
LINE
  5
1AE
330
1F
100
AcDbEntity
  8
F-1
  6
JWW_DASHED1
 62
     7
370
     9
100
AcDbLine
 10
3439.999719568196
 20
3174.285979547095
 30
0.0
 11
5689.999719568197
 21
3174.285979547095
 31
0.0
  0
LINE
  5
1AF
330
1F
100
AcDbEntity
  8
F-1
  6
JWW_DASHED1
 62
     7
370
     9
100
AcDbLine
 10
3439.999719568196
 20
2995.714539561032
 30
0.0
 11
5689.999719568197
 21
2995.714539561032
 31
0.0
  0
LINE
  5
1B0
330
1F
100
AcDbEntity
  8
F-1
  6
JWW_DASHED1
 62
     7
370
     9
100
AcDbLine
 10
3439.999719568196
 20
2817.143099574968
 30
0.0
 11
5689.999719568197
 21
2817.143099574968
 31
0.0
  0
LINE
  5
1B1
330
1F
100
AcDbEntity
  8
F-1
  6
JWW_DASHED1
 62
     7
370
     9
100
AcDbLine
 10
3439.999719568196
 20
3531.428859519222
 30
0.0
 11
5689.999719568197
 21
3531.428859519222
 31
0.0
  0
LINE
  5
1B2
330
1F
100
AcDbEntity
  8
F-1
  6
JWW_DASHED1
 62
     7
370
     9
100
AcDbLine
 10
-2405.000758815461
 20
-3075.714419965117
 30
0.0
 11
-155.0007588154605
 21
-3075.714419965117
 31
0.0
  0
LINE
  5
1B3
330
1F
100
AcDbEntity
  8
F-1
  6
JWW_DASHED1
 62
     7
370
     9
100
AcDbLine
 10
-2405.000758815461
 20
-3254.285859951181
 30
0.0
 11
-155.0007588154605
 21
-3254.285859951181
 31
0.0
  0
LINE
  5
1B4
330
1F
100
AcDbEntity
  8
F-1
  6
JWW_DASHED1
 62
     7
370
     9
100
AcDbLine
 10
-2405.000758815461
 20
-3432.857299937245
 30
0.0
 11
-155.0007588154605
 21
-3432.857299937245
 31
0.0
  0
LINE
  5
1B5
330
1F
100
AcDbEntity
  8
F-1
  6
JWW_DASHED1
 62
     7
370
     9
100
AcDbLine
 10
-2405.000758815461
 20
-3611.428739923308
 30
0.0
 11
-155.0007588154605
 21
-3611.428739923308
 31
0.0
  0
LINE
  5
1B6
330
1F
100
AcDbEntity
  8
F-1
  6
JWW_DASHED1
 62
     7
370
     9
100
AcDbLine
 10
-2405.000758815461
 20
-2897.142979979054
 30
0.0
 11
-155.0007588154605
 21
-2897.142979979054
 31
0.0
  0
LINE
  5
1B7
330
1F
100
AcDbEntity
  8
F-1
  6
JWW_DASHED1
 62
     7
370
     9
100
AcDbLine
 10
-2405.000758815461
 20
-2004.285780048739
 30
0.0
 11
-155.0007588154605
 21
-2004.285780048739
 31
0.0
  0
LINE
  5
1B8
330
1F
100
AcDbEntity
  8
F-1
  6
JWW_DASHED1
 62
     7
370
     9
100
AcDbLine
 10
-2405.000758815461
 20
-2182.857220034802
 30
0.0
 11
-155.0007588154605
 21
-2182.857220034802
 31
0.0
  0
LINE
  5
1B9
330
1F
100
AcDbEntity
  8
F-1
  6
JWW_DASHED1
 62
     7
370
     9
100
AcDbLine
 10
-2405.000758815461
 20
-2361.428660020866
 30
0.0
 11
-155.0007588154605
 21
-2361.428660020866
 31
0.0
  0
LINE
  5
1BA
330
1F
100
AcDbEntity
  8
F-1
  6
JWW_DASHED1
 62
     7
370
     9
100
AcDbLine
 10
-2405.000758815461
 20
-2540.000100006929
 30
0.0
 11
-155.0007588154605
 21
-2540.000100006929
 31
0.0
  0
LINE
  5
1BB
330
1F
100
AcDbEntity
  8
F-1
  6
JWW_DASHED1
 62
     7
370
     9
100
AcDbLine
 10
-2405.000758815461
 20
-1825.714340062675
 30
0.0
 11
-155.0007588154605
 21
-1825.714340062675
 31
0.0
  0
LINE
  5
1BC
330
1F
100
AcDbEntity
  8
F-1
  6
JWW_DASHED1
 62
     7
370
     9
100
AcDbLine
 10
-2405.000758815461
 20
-932.8571401323595
 30
0.0
 11
-155.0007588154605
 21
-932.8571401323595
 31
0.0
  0
LINE
  5
1BD
330
1F
100
AcDbEntity
  8
F-1
  6
JWW_DASHED1
 62
     7
370
     9
100
AcDbLine
 10
-2405.000758815461
 20
-1111.428580118423
 30
0.0
 11
-155.0007588154605
 21
-1111.428580118423
 31
0.0
  0
LINE
  5
1BE
330
1F
100
AcDbEntity
  8
F-1
  6
JWW_DASHED1
 62
     7
370
     9
100
AcDbLine
 10
-2405.000758815461
 20
-1290.000020104486
 30
0.0
 11
-155.0007588154605
 21
-1290.000020104486
 31
0.0
  0
LINE
  5
1BF
330
1F
100
AcDbEntity
  8
F-1
  6
JWW_DASHED1
 62
     7
370
     9
100
AcDbLine
 10
-2405.000758815461
 20
-1468.57146009055
 30
0.0
 11
-155.0007588154605
 21
-1468.57146009055
 31
0.0
  0
LINE
  5
1C0
330
1F
100
AcDbEntity
  8
F-1
  6
JWW_DASHED1
 62
     7
370
     9
100
AcDbLine
 10
-2405.000758815461
 20
-754.285700146296
 30
0.0
 11
-155.0007588154605
 21
-754.285700146296
 31
0.0
  0
LINE
  5
1C1
330
1F
100
AcDbEntity
  8
F-1
  6
JWW_DASHED1
 62
     7
370
     9
100
AcDbLine
 10
-2405.000758815461
 20
138.5714997840196
 30
0.0
 11
-155.0007588154605
 21
138.5714997840196
 31
0.0
  0
LINE
  5
1C2
330
1F
100
AcDbEntity
  8
F-1
  6
JWW_DASHED1
 62
     7
370
     9
100
AcDbLine
 10
-2405.000758815461
 20
-39.99994020204383
 30
0.0
 11
-155.0007588154605
 21
-39.99994020204383
 31
0.0
  0
LINE
  5
1C3
330
1F
100
AcDbEntity
  8
F-1
  6
JWW_DASHED1
 62
     7
370
     9
100
AcDbLine
 10
-2405.000758815461
 20
-218.5713801881064
 30
0.0
 11
-155.0007588154605
 21
-218.5713801881064
 31
0.0
  0
LINE
  5
1C4
330
1F
100
AcDbEntity
  8
F-1
  6
JWW_DASHED1
 62
     7
370
     9
100
AcDbLine
 10
-2405.000758815461
 20
-397.1428201741708
 30
0.0
 11
-155.0007588154605
 21
-397.1428201741708
 31
0.0
  0
LINE
  5
1C5
330
1F
100
AcDbEntity
  8
F-1
  6
JWW_DASHED1
 62
     7
370
     9
100
AcDbLine
 10
-2405.000758815461
 20
317.142939770084
 30
0.0
 11
-155.0007588154605
 21
317.142939770084
 31
0.0
  0
LINE
  5
1C6
330
1F
100
AcDbEntity
  8
F-1
  6
JWW_DASHED1
 62
     7
370
     9
100
AcDbLine
 10
-2405.000758815461
 20
1210.0001397004
 30
0.0
 11
-155.0007588154605
 21
1210.0001397004
 31
0.0
  0
LINE
  5
1C7
330
1F
100
AcDbEntity
  8
F-1
  6
JWW_DASHED1
 62
     7
370
     9
100
AcDbLine
 10
-2405.000758815461
 20
1031.428699714336
 30
0.0
 11
-155.0007588154605
 21
1031.428699714336
 31
0.0
  0
LINE
  5
1C8
330
1F
100
AcDbEntity
  8
F-1
  6
JWW_DASHED1
 62
     7
370
     9
100
AcDbLine
 10
-2405.000758815461
 20
852.8572597282727
 30
0.0
 11
-155.0007588154605
 21
852.8572597282727
 31
0.0
  0
LINE
  5
1C9
330
1F
100
AcDbEntity
  8
F-1
  6
JWW_DASHED1
 62
     7
370
     9
100
AcDbLine
 10
-2405.000758815461
 20
674.2858197422092
 30
0.0
 11
-155.0007588154605
 21
674.2858197422092
 31
0.0
  0
LINE
  5
1CA
330
1F
100
AcDbEntity
  8
F-1
  6
JWW_DASHED1
 62
     7
370
     9
100
AcDbLine
 10
-2405.000758815461
 20
1388.571579686463
 30
0.0
 11
-155.0007588154605
 21
1388.571579686463
 31
0.0
  0
LINE
  5
1CB
330
1F
100
AcDbEntity
  8
F-1
  6
JWW_DASHED1
 62
     7
370
     9
100
AcDbLine
 10
-2405.000758815461
 20
2281.42877961678
 30
0.0
 11
-155.0007588154605
 21
2281.42877961678
 31
0.0
  0
LINE
  5
1CC
330
1F
100
AcDbEntity
  8
F-1
  6
JWW_DASHED1
 62
     7
370
     9
100
AcDbLine
 10
-2405.000758815461
 20
2102.857339630715
 30
0.0
 11
-155.0007588154605
 21
2102.857339630715
 31
0.0
  0
LINE
  5
1CD
330
1F
100
AcDbEntity
  8
F-1
  6
JWW_DASHED1
 62
     7
370
     9
100
AcDbLine
 10
-2405.000758815461
 20
1924.285899644653
 30
0.0
 11
-155.0007588154605
 21
1924.285899644653
 31
0.0
  0
LINE
  5
1CE
330
1F
100
AcDbEntity
  8
F-1
  6
JWW_DASHED1
 62
     7
370
     9
100
AcDbLine
 10
-2405.000758815461
 20
1745.714459658588
 30
0.0
 11
-155.0007588154605
 21
1745.714459658588
 31
0.0
  0
LINE
  5
1CF
330
1F
100
AcDbEntity
  8
F-1
  6
JWW_DASHED1
 62
     7
370
     9
100
AcDbLine
 10
-2405.000758815461
 20
2460.000219602842
 30
0.0
 11
-155.0007588154605
 21
2460.000219602842
 31
0.0
  0
LINE
  5
1D0
330
1F
100
AcDbEntity
  8
F-1
  6
JWW_DASHED1
 62
     7
370
     9
100
AcDbLine
 10
-2405.000758815461
 20
3352.857419533158
 30
0.0
 11
-155.0007588154605
 21
3352.857419533158
 31
0.0
  0
LINE
  5
1D1
330
1F
100
AcDbEntity
  8
F-1
  6
JWW_DASHED1
 62
     7
370
     9
100
AcDbLine
 10
-2405.000758815461
 20
3174.285979547095
 30
0.0
 11
-155.0007588154605
 21
3174.285979547095
 31
0.0
  0
LINE
  5
1D2
330
1F
100
AcDbEntity
  8
F-1
  6
JWW_DASHED1
 62
     7
370
     9
100
AcDbLine
 10
-2405.000758815461
 20
2995.714539561032
 30
0.0
 11
-155.0007588154605
 21
2995.714539561032
 31
0.0
  0
LINE
  5
1D3
330
1F
100
AcDbEntity
  8
F-1
  6
JWW_DASHED1
 62
     7
370
     9
100
AcDbLine
 10
-2405.000758815461
 20
2817.143099574968
 30
0.0
 11
-155.0007588154605
 21
2817.143099574968
 31
0.0
  0
LINE
  5
1D4
330
1F
100
AcDbEntity
  8
F-1
  6
JWW_DASHED1
 62
     7
370
     9
100
AcDbLine
 10
-2405.000758815461
 20
3531.428859519222
 30
0.0
 11
-155.0007588154605
 21
3531.428859519222
 31
0.0
  0
LINE
  5
1D5
330
1F
100
AcDbEntity
  8
F-1
  6
Continuous
 62
     7
370
     9
100
AcDbLine
 10
5209.999719568197
 20
4174.99960667378
 30
0.0
 11
5209.999719568197
 21
-3795.048462635764
 31
0.0
  0
LINE
  5
1D6
330
1F
100
AcDbEntity
  8
F-1
  6
Continuous
 62
     7
370
     9
100
AcDbLine
 10
4339.999719568196
 20
4174.99960667378
 30
0.0
 11
4339.999719568196
 21
-3795.048462635764
 31
0.0
  0
LINE
  5
1D7
330
1F
100
AcDbEntity
  8
F-1
  6
Continuous
 62
     7
370
     9
100
AcDbLine
 10
-635.0007588154606
 20
4175.047857439193
 30
0.0
 11
-635.0007588154606
 21
-3795.00021187035
 31
0.0
  0
LINE
  5
1D8
330
1F
100
AcDbEntity
  8
F-1
  6
JWW_HOJO
 62
     7
370
     9
100
AcDbLine
 10
-1445.000758815461
 20
4175.047857439193
 30
0.0
 11
-1445.000758815461
 21
-3795.00021187035
 31
0.0
  0
LINE
  5
1D9
330
1F
100
AcDbEntity
  8
F-1
  6
Continuous
 62
     7
370
     9
100
AcDbLine
 10
-1505.000758815461
 20
4175.047857439193
 30
0.0
 11
-1505.000758815461
 21
-3795.00021187035
 31
0.0
  0
LINE
  5
1DA
330
1F
100
AcDbEntity
  8
F-1
  6
Continuous
 62
     7
370
     9
100
AcDbLine
 10
-2405.000758815461
 20
4175.047857439195
 30
0.0
 11
-2405.000758815461
 21
-3795.000211870348
 31
0.0
  0
LINE
  5
1DB
330
1F
100
AcDbEntity
  8
F-1
  6
Continuous
 62
     7
370
     9
100
AcDbLine
 10
3439.999719568196
 20
4174.99960667378
 30
0.0
 11
3439.999719568196
 21
-3790.000179909372
 31
0.0
  0
LINE
  5
1DC
330
1F
100
AcDbEntity
  8
F-1
  6
Continuous
 62
     7
370
     9
100
AcDbLine
 10
-4940.000028867985
 20
4174.99960667378
 30
0.0
 11
-4940.000028867985
 21
-3790.000179909372
 31
0.0
  0
LINE
  5
1DD
330
1F
100
AcDbEntity
  8
F-1
  6
Continuous
 62
   200
370
    20
100
AcDbLine
 10
-155.0007588154605
 20
4175.047857439195
 30
0.0
 11
-155.0007588154605
 21
-3795.000211870348
 31
0.0
  0
LINE
  5
1DE
330
1F
100
AcDbEntity
  8
F-1
  6
Continuous
 62
   200
370
    20
100
AcDbLine
 10
-145.0009732633075
 20
4175.047857439195
 30
0.0
 11
-145.0009732633075
 21
-3795.000211870348
 31
0.0
  0
LINE
  5
1DF
330
1F
100
AcDbEntity
  8
F-1
  6
Continuous
 62
   200
370
    20
100
AcDbLine
 10
-150.000866039384
 20
4174.99960667378
 30
0.0
 11
-150.000866039384
 21
-3795.000211870348
 31
0.0
  0
LINE
  5
1E0
330
1F
100
AcDbEntity
  8
F-0
  6
JWW_HOJO
 62
   120
370
     5
100
AcDbLine
 10
2.499389648432384
 20
4164.999821121627
 30
0.0
 11
2.499389648432384
 21
-3790.08086075654
 31
0.0
  0
LINE
  5
1E1
330
1F
100
AcDbEntity
  8
F-1
  6
JWW_HOJO
 62
     7
370
     9
100
AcDbLine
 10
4399.999719568196
 20
4174.99960667378
 30
0.0
 11
4399.999719568196
 21
-3795.048462635764
 31
0.0
  0
LINE
  5
1E2
330
1F
100
AcDbEntity
  8
F-1
  6
Continuous
 62
   200
370
    20
100
AcDbLine
 10
5699.998762800888
 20
3720.000247440669
 30
0.0
 11
-5999.999752560178
 21
3720.000247440669
 31
0.0
  0
LINE
  5
1E3
330
1F
100
AcDbEntity
  8
F-0
  6
JWW_HOJO
 62
     7
370
     9
100
AcDbLine
 10
-5839.999982473011
 20
4164.999983504013
 30
0.0
 11
-5839.999982473011
 21
-3785.470894478463
 31
0.0
  0
LINE
  5
1E4
330
1F
100
AcDbEntity
  8
F-1
  6
Continuous
 62
     7
370
     9
100
AcDbLine
 10
3439.999719568202
 20
3947.452128642314
 30
0.0
 11
4339.999719568202
 21
3947.452128642314
 31
0.0
  0
LINE
  5
1E5
330
1F
100
AcDbEntity
  8
F-1
  6
Continuous
 62
     7
370
     9
100
AcDbLine
 10
-2405.000758815456
 20
3947.500379407728
 30
0.0
 11
-1505.000758815456
 21
3947.500379407728
 31
0.0
  0
LINE
  5
1E6
330
1F
100
AcDbEntity
  8
F-1
  6
Continuous
 62
   200
370
    20
100
AcDbLine
 10
5699.998762800888
 20
3710.000461887669
 30
0.0
 11
-5999.999752560178
 21
3710.000461887669
 31
0.0
  0
LINE
  5
1E7
330
1F
100
AcDbEntity
  8
F-1
  6
Continuous
 62
   200
370
    20
100
AcDbLine
 10
5689.998977248734
 20
4174.999769056166
 30
0.0
 11
5689.998977248734
 21
-4205.000164959882
 31
0.0
  0
LINE
  5
1E8
330
1F
100
AcDbEntity
  8
F-1
  6
Continuous
 62
   200
370
    20
100
AcDbLine
 10
5694.998498865077
 20
4174.999769056166
 30
0.0
 11
5694.998498865077
 21
-4205.000164959882
 31
0.0
  0
LINE
  5
1E9
330
1F
100
AcDbEntity
  8
F-1
  6
Continuous
 62
   200
370
    20
100
AcDbLine
 10
-5994.999975771518
 20
4174.999769056166
 30
0.0
 11
-5994.999975771518
 21
-4205.000164959882
 31
0.0
  0
LINE
  5
1EA
330
1F
100
AcDbEntity
  8
F-1
  6
Continuous
 62
   200
370
    20
100
AcDbLine
 10
-5999.999752560178
 20
4169.999505120355
 30
0.0
 11
5699.998762800888
 21
4169.999505120355
 31
0.0
  0
LINE
  5
1EB
330
1F
100
AcDbEntity
  8
F-1
  6
Continuous
 62
   200
370
    20
100
AcDbLine
 10
-5999.999752560178
 20
4164.999983504013
 30
0.0
 11
5699.998762800888
 21
4164.999983504013
 31
0.0
  0
LINE
  5
1EC
330
1F
100
AcDbEntity
  8
F-1
  6
Continuous
 62
   200
370
    20
100
AcDbLine
 10
-5989.999990205507
 20
4174.999769056166
 30
0.0
 11
-5989.999990205507
 21
-4205.000164959882
 31
0.0
  0
LINE
  5
1ED
330
1F
100
AcDbEntity
  8
F-1
  6
Continuous
 62
   200
370
    20
100
AcDbLine
 10
-5999.99998453501
 20
4174.999769056166
 30
0.0
 11
-5999.99998453501
 21
-4205.000164959882
 31
0.0
  0
LINE
  5
1EE
330
1F
100
AcDbEntity
  8
F-1
  6
Continuous
 62
   200
370
    20
100
AcDbLine
 10
5699.998762800888
 20
4174.999769056166
 30
0.0
 11
5699.998762800888
 21
-4205.000164959882
 31
0.0
  0
LINE
  5
1EF
330
1F
100
AcDbEntity
  8
F-1
  6
Continuous
 62
   200
370
    20
100
AcDbLine
 10
-5999.999752560178
 20
4174.999769056166
 30
0.0
 11
5699.998762800888
 21
4174.999769056166
 31
0.0
  0
LINE
  5
1F0
330
1F
100
AcDbEntity
  8
F-0
  6
JWW_HOJO
 62
   120
370
     5
100
AcDbLine
 10
5999.999010240709
 20
-4455.0
 30
0.0
 11
-6300.0
 21
-4455.0
 31
0.0
  0
LINE
  5
1F1
330
1F
100
AcDbEntity
  8
F-0
  6
JWW_HOJO
 62
   120
370
     5
100
AcDbLine
 10
5999.999010240709
 20
4424.999604096284
 30
0.0
 11
5999.999010240709
 21
-4455.0
 31
0.0
  0
LINE
  5
1F2
330
1F
100
AcDbEntity
  8
F-0
  6
JWW_HOJO
 62
   120
370
     5
100
AcDbLine
 10
-6300.0
 20
-4455.0
 30
0.0
 11
-6300.0
 21
4424.999604096284
 31
0.0
  0
LINE
  5
1F3
330
1F
100
AcDbEntity
  8
F-0
  6
JWW_HOJO
 62
   120
370
     5
100
AcDbLine
 10
-6300.0
 20
4424.999604096284
 30
0.0
 11
5999.999010240709
 21
4424.999604096284
 31
0.0
  0
LINE
  5
1F4
330
1F
100
AcDbEntity
  8
F-0
  6
JWW_HOJO
 62
   120
370
     5
100
AcDbLine
 10
-5989.99959584829
 20
3947.500379407728
 30
0.0
 11
5690.337474926098
 21
3947.500379407728
 31
0.0
  0
LINE
  5
1F5
330
1F
100
AcDbEntity
  8
0-B
  6
Continuous
 62
   120
370
     5
100
AcDbLine
 10
-3377.500393841723
 20
3222.955168505914
 30
0.0
 11
-3323.500393841723
 21
3222.955168505914
 31
0.0
  0
LINE
  5
1F6
330
1F
100
AcDbEntity
  8
0-B
  6
Continuous
 62
   120
370
     5
100
AcDbLine
 10
-3377.500393841723
 20
3062.955168505914
 30
0.0
 11
-3323.500393841723
 21
3062.955168505914
 31
0.0
  0
LWPOLYLINE
  5
1F7
330
1F
100
AcDbEntity
  8
0-B
  6
Continuous
 62
     7
370
     9
100
AcDbPolyline
 90
        4
 70
     1
 43
3.0
 10
-3376.000393841723
 20
3222.955168505914
 42
0.4142135623731
 10
-3377.500393841723
 20
3224.455168505914
 42
0.4142135623731
 10
-3379.000393841723
 20
3222.955168505914
 42
0.4142135623731
 10
-3377.500393841723
 20
3221.455168505914
 42
0.4142135623731
  0
LWPOLYLINE
  5
1F8
330
1F
100
AcDbEntity
  8
0-B
  6
Continuous
 62
     7
370
     9
100
AcDbPolyline
 90
        4
 70
     1
 43
3.0
 10
-3376.000393841723
 20
3062.955168505914
 42
0.4142135623731
 10
-3377.500393841723
 20
3064.455168505914
 42
0.4142135623731
 10
-3379.000393841723
 20
3062.955168505914
 42
0.4142135623731
 10
-3377.500393841723
 20
3061.455168505914
 42
0.4142135623731
  0
LINE
  5
1F9
330
1F
100
AcDbEntity
  8
0-B
  6
Continuous
 62
   120
370
     5
100
AcDbLine
 10
-3377.500393841723
 20
3062.955168505914
 30
0.0
 11
-3377.500393841723
 21
3222.955168505914
 31
0.0
  0
LINE
  5
1FA
330
1F
100
AcDbEntity
  8
0-4
  6
Continuous
 62
    92
370
    13
100
AcDbLine
 10
2131.499286806255
 20
85.00005979795674
 30
0.0
 11
2423.499954378278
 21
85.00005979795674
 31
0.0
  0
LINE
  5
1FB
330
1F
100
AcDbEntity
  8
0-4
  6
Continuous
 62
    92
370
    13
100
AcDbLine
 10
2131.499620592267
 20
80.00053663511238
 30
0.0
 11
2423.499620592267
 21
80.00053663511238
 31
0.0
  0
LINE
  5
1FC
330
1F
100
AcDbEntity
  8
0-4
  6
Continuous
 62
    92
370
    13
100
AcDbLine
 10
2131.499286806255
 20
25.00005979795674
 30
0.0
 11
2131.499286806255
 21
85.00005979795674
 31
0.0
  0
LINE
  5
1FD
330
1F
100
AcDbEntity
  8
0-4
  6
Continuous
 62
    92
370
    13
100
AcDbLine
 10
2131.499620592267
 20
25.00005979795674
 30
0.0
 11
2131.499620592267
 21
80.00053663511238
 31
0.0
  0
LINE
  5
1FE
330
1F
100
AcDbEntity
  8
0-4
  6
Continuous
 62
    92
370
    13
100
AcDbLine
 10
2043.499620592266
 20
25.00005979795674
 30
0.0
 11
2043.499620592266
 21
85.00005979795674
 31
0.0
  0
LINE
  5
1FF
330
1F
100
AcDbEntity
  8
0-4
  6
Continuous
 62
    92
370
    13
100
AcDbLine
 10
2043.499286806255
 20
25.00005979795674
 30
0.0
 11
2043.499286806255
 21
80.00053663511238
 31
0.0
  0
LINE
  5
200
330
1F
100
AcDbEntity
  8
0-4
  6
Continuous
 62
    92
370
    13
100
AcDbLine
 10
1932.499200975563
 20
80.00053663511238
 30
0.0
 11
2043.499286806255
 21
80.00053663511238
 31
0.0
  0
LINE
  5
201
330
1F
100
AcDbEntity
  8
0-4
  6
Continuous
 62
    92
370
    13
100
AcDbLine
 10
1932.499620592268
 20
85.00005979795674
 30
0.0
 11
2043.499620592266
 21
85.00005979795674
 31
0.0
  0
LINE
  5
202
330
1F
100
AcDbEntity
  8
0-4
  6
Continuous
 62
    92
370
    13
100
AcDbLine
 10
2043.499286806255
 20
25.00005979795674
 30
0.0
 11
2131.499620592267
 21
25.00005979795674
 31
0.0
  0
LINE
  5
203
330
1F
100
AcDbEntity
  8
0-7
  6
Continuous
 62
     7
370
     9
100
AcDbLine
 10
2132.499453699259
 20
84.99905979795585
 30
0.0
 11
2127.070453699262
 21
84.99905979795585
 31
0.0
  0
LINE
  5
204
330
1F
100
AcDbEntity
  8
0-7
  6
Continuous
 62
     7
370
     9
100
AcDbLine
 10
2132.499453699259
 20
74.99905979795642
 30
0.0
 11
2132.499453699259
 21
84.99905979795585
 31
0.0
  0
LINE
  5
205
330
1F
100
AcDbEntity
  8
0-7
  6
Continuous
 62
     7
370
     9
100
AcDbLine
 10
2108.756453699258
 20
69.9990597979567
 30
0.0
 11
2105.499453699262
 21
69.9990597979567
 31
0.0
  0
LINE
  5
206
330
1F
100
AcDbEntity
  8
0-7
  6
Continuous
 62
     7
370
     9
100
AcDbLine
 10
2110.877453699263
 20
70.87805979795519
 30
0.0
 11
2123.534453699259
 21
83.53505979795585
 31
0.0
  0
LINE
  5
207
330
1F
100
AcDbEntity
  8
0-7
  6
Continuous
 62
     7
370
     9
100
AcDbLine
 10
2066.242453699264
 20
69.9990597979567
 30
0.0
 11
2069.49945369926
 21
69.9990597979567
 31
0.0
  0
LINE
  5
208
330
1F
100
AcDbEntity
  8
0-7
  6
Continuous
 62
     7
370
     9
100
AcDbLine
 10
2064.120453699261
 20
70.87805979795519
 30
0.0
 11
2051.464453699263
 21
83.53505979795585
 31
0.0
  0
LINE
  5
209
330
1F
100
AcDbEntity
  8
0-7
  6
Continuous
 62
     7
370
     9
100
AcDbLine
 10
2122.499453699263
 20
40.00005979795503
 30
0.0
 11
2128.499453699263
 21
40.00005979795503
 31
0.0
  0
LINE
  5
20A
330
1F
100
AcDbEntity
  8
0-7
  6
Continuous
 62
     7
370
     9
100
AcDbLine
 10
2122.499453699263
 20
40.00005979795503
 30
0.0
 11
2122.499453699263
 21
52.63905979795595
 31
0.0
  0
LINE
  5
20B
330
1F
100
AcDbEntity
  8
0-7
  6
Continuous
 62
     7
370
     9
100
AcDbLine
 10
2090.499453699263
 20
40.00005979795503
 30
0.0
 11
2100.499453699261
 21
40.00005979795503
 31
0.0
  0
LINE
  5
20C
330
1F
100
AcDbEntity
  8
0-7
  6
Continuous
 62
     7
370
     9
100
AcDbLine
 10
2114.499453699259
 20
25.00005979795674
 30
0.0
 11
2112.49945369926
 21
27.00005979795492
 31
0.0
  0
LINE
  5
20D
330
1F
100
AcDbEntity
  8
0-7
  6
Continuous
 62
     7
370
     9
100
AcDbLine
 10
2114.499453699259
 20
25.00005979795674
 30
0.0
 11
2125.49945369926
 21
25.00005979795674
 31
0.0
  0
LINE
  5
20E
330
1F
100
AcDbEntity
  8
0-7
  6
Continuous
 62
     7
370
     9
100
AcDbLine
 10
2112.49945369926
 20
27.00005979795492
 30
0.0
 11
2110.499453699262
 21
25.00005979795674
 31
0.0
  0
LINE
  5
20F
330
1F
100
AcDbEntity
  8
0-7
  6
Continuous
 62
     7
370
     9
100
AcDbLine
 10
2125.49945369926
 20
25.00005979795674
 30
0.0
 11
2130.358453699259
 21
37.26305979795541
 31
0.0
  0
LINE
  5
210
330
1F
100
AcDbEntity
  8
0-7
  6
Continuous
 62
     7
370
     9
100
AcDbLine
 10
2084.499453699259
 20
40.00005979795503
 30
0.0
 11
2087.499453699261
 21
37.00005979795435
 31
0.0
  0
LINE
  5
211
330
1F
100
AcDbEntity
  8
0-7
  6
Continuous
 62
     7
370
     9
100
AcDbLine
 10
2074.499453699261
 20
40.00005979795503
 30
0.0
 11
2084.499453699259
 21
40.00005979795503
 31
0.0
  0
LINE
  5
212
330
1F
100
AcDbEntity
  8
0-7
  6
Continuous
 62
     7
370
     9
100
AcDbLine
 10
2052.499453699264
 20
40.00005979795503
 30
0.0
 11
2046.499453699259
 21
40.00005979795503
 31
0.0
  0
LINE
  5
213
330
1F
100
AcDbEntity
  8
0-7
  6
Continuous
 62
     7
370
     9
100
AcDbLine
 10
2052.499453699264
 20
40.00005979795503
 30
0.0
 11
2052.499453699264
 21
52.63905979795595
 31
0.0
  0
LINE
  5
214
330
1F
100
AcDbEntity
  8
0-7
  6
Continuous
 62
     7
370
     9
100
AcDbLine
 10
2060.499453699263
 20
25.00005979795674
 30
0.0
 11
2062.499453699261
 21
27.00005979795492
 31
0.0
  0
LINE
  5
215
330
1F
100
AcDbEntity
  8
0-7
  6
Continuous
 62
     7
370
     9
100
AcDbLine
 10
2062.499453699261
 20
27.00005979795492
 30
0.0
 11
2064.499453699259
 21
25.00005979795674
 31
0.0
  0
LINE
  5
216
330
1F
100
AcDbEntity
  8
0-7
  6
Continuous
 62
     7
370
     9
100
AcDbLine
 10
2060.499453699263
 20
25.00005979795674
 30
0.0
 11
2049.499453699261
 21
25.00005979795674
 31
0.0
  0
LINE
  5
217
330
1F
100
AcDbEntity
  8
0-7
  6
Continuous
 62
     7
370
     9
100
AcDbLine
 10
2049.499453699261
 20
25.00005979795674
 30
0.0
 11
2044.640453699263
 21
37.26305979795541
 31
0.0
  0
LINE
  5
218
330
1F
100
AcDbEntity
  8
0-7
  6
Continuous
 62
     7
370
     9
100
AcDbLine
 10
2087.499453699261
 20
37.00005979795435
 30
0.0
 11
2090.499453699263
 21
40.00005979795503
 31
0.0
  0
LINE
  5
219
330
1F
100
AcDbEntity
  8
0-7
  6
Continuous
 62
     7
370
     9
100
AcDbLine
 10
2110.499453699262
 20
25.00005979795674
 30
0.0
 11
2064.499453699259
 21
25.00005979795674
 31
0.0
  0
LINE
  5
21A
330
1F
100
AcDbEntity
  8
0-7
  6
Continuous
 62
     7
370
     9
100
AcDbLine
 10
2071.499453699258
 20
43.00005979795571
 30
0.0
 11
2071.499453699258
 21
67.99905979795511
 31
0.0
  0
LINE
  5
21B
330
1F
100
AcDbEntity
  8
0-7
  6
Continuous
 62
     7
370
     9
100
AcDbLine
 10
2103.499453699264
 20
43.00005979795571
 30
0.0
 11
2103.499453699264
 21
67.99905979795511
 31
0.0
  0
LINE
  5
21C
330
1F
100
AcDbEntity
  8
0-7
  6
Continuous
 62
     7
370
     9
100
AcDbLine
 10
2042.499453699263
 20
74.99905979795642
 30
0.0
 11
2042.499453699263
 21
84.99905979795585
 31
0.0
  0
LINE
  5
21D
330
1F
100
AcDbEntity
  8
0-7
  6
Continuous
 62
     7
370
     9
100
AcDbLine
 10
2042.499453699263
 20
84.99905979795585
 30
0.0
 11
2047.92845369926
 21
84.99905979795585
 31
0.0
  0
MTEXT
  5
21E
330
1F
100
AcDbEntity
  8
0-A
  6
Continuous
 62
     7
370
     9
100
AcDbMText
 10
-2315.000758815459
 20
3553.843864519223
 30
0.0
 40
68.58000000000001
 41
720.0
 46
0.0
 71
     7
 72
     1
  1
{\fＭＳ ゴシック|b0|i0|c128|p49;3,560×110×30.0}
 73
     1
 44
1.0
  0
MTEXT
  5
21F
330
1F
100
AcDbEntity
  8
0-A
  6
Continuous
 62
     7
370
     9
100
AcDbMText
 10
-417.5007588154605
 20
3553.843864519223
 30
0.0
 40
68.58
 41
45.0
 46
0.0
 71
     7
 72
     1
  1
{\fＭＳ ゴシック|b0|i0|c128|p49;1}
 73
     1
 44
1.0
  0
MTEXT
  5
220
330
1F
100
AcDbEntity
  8
0-A
  6
Continuous
 62
     7
370
     9
100
AcDbMText
 10
3529.999719568196
 20
3553.843864519223
 30
0.0
 40
68.58000000000001
 41
720.0
 46
0.0
 71
     7
 72
     1
  1
{\fＭＳ ゴシック|b0|i0|c128|p49;3,560×110×30.0}
 73
     1
 44
1.0
  0
MTEXT
  5
221
330
1F
100
AcDbEntity
  8
0-A
  6
Continuous
 62
     7
370
     9
100
AcDbMText
 10
5427.499719568197
 20
3553.843864519223
 30
0.0
 40
68.58
 41
45.0
 46
0.0
 71
     7
 72
     1
  1
{\fＭＳ ゴシック|b0|i0|c128|p49;1}
 73
     1
 44
1.0
  0
MTEXT
  5
222
330
1F
100
AcDbEntity
  8
0-A
  6
Continuous
 62
     7
370
     9
100
AcDbMText
 10
-4700.000028867985
 20
3545.720461887669
 30
0.0
 40
91.44
 41
360.0
 46
0.0
 71
     7
 72
     1
  1
{\fＭＳ ゴシック|b0|i0|c128|p49;調整枠}
 73
     1
 44
1.0
  0
MTEXT
  5
223
330
1F
100
AcDbEntity
  8
0-A
  6
Continuous
 62
     7
370
     9
100
AcDbMText
 10
1144.99952161634
 20
3545.720461887669
 30
0.0
 40
91.44
 41
360.0
 46
0.0
 71
     7
 72
     1
  1
{\fＭＳ ゴシック|b0|i0|c128|p49;調整枠}
 73
     1
 44
1.0
  0
MTEXT
  5
224
330
1F
100
AcDbEntity
  8
0-A
  6
Continuous
 62
     7
370
     9
100
AcDbMText
 10
-2315.000758815459
 20
2482.415224602842
 30
0.0
 40
68.58000000000001
 41
720.0
 46
0.0
 71
     7
 72
     1
  1
{\fＭＳ ゴシック|b0|i0|c128|p49;3,560×147×30.0}
 73
     1
 44
1.0
  0
MTEXT
  5
225
330
1F
100
AcDbEntity
  8
0-A
  6
Continuous
 62
     7
370
     9
100
AcDbMText
 10
-417.5007588154605
 20
2482.415224602842
 30
0.0
 40
68.58
 41
45.0
 46
0.0
 71
     7
 72
     1
  1
{\fＭＳ ゴシック|b0|i0|c128|p49;1}
 73
     1
 44
1.0
  0
MTEXT
  5
226
330
1F
100
AcDbEntity
  8
0-A
  6
Continuous
 62
     7
370
     9
100
AcDbMText
 10
3529.999719568196
 20
2482.415224602842
 30
0.0
 40
68.58000000000001
 41
720.0
 46
0.0
 71
     7
 72
     1
  1
{\fＭＳ ゴシック|b0|i0|c128|p49;3,560×147×30.0}
 73
     1
 44
1.0
  0
MTEXT
  5
227
330
1F
100
AcDbEntity
  8
0-A
  6
Continuous
 62
     7
370
     9
100
AcDbMText
 10
5427.499719568197
 20
2482.415224602842
 30
0.0
 40
68.58
 41
45.0
 46
0.0
 71
     7
 72
     1
  1
{\fＭＳ ゴシック|b0|i0|c128|p49;1}
 73
     1
 44
1.0
  0
MTEXT
  5
228
330
1F
100
AcDbEntity
  8
0-A
  6
Continuous
 62
     7
370
     9
100
AcDbMText
 10
-4700.000028867985
 20
2474.29182197129
 30
0.0
 40
91.44
 41
960.0
 46
0.0
 71
     7
 72
     1
  1
{\fＭＳ ゴシック|b0|i0|c128|p49;固定枠１５５幅用}
 73
     1
 44
1.0
  0
MTEXT
  5
229
330
1F
100
AcDbEntity
  8
0-A
  6
Continuous
 62
     7
370
     9
100
AcDbMText
 10
1144.99952161634
 20
2474.29182197129
 30
0.0
 40
91.44
 41
960.0
 46
0.0
 71
     7
 72
     1
  1
{\fＭＳ ゴシック|b0|i0|c128|p49;固定枠１５５幅用}
 73
     1
 44
1.0
  0
MTEXT
  5
22A
330
1F
100
AcDbEntity
  8
0-A
  6
Continuous
 62
     7
370
     0
100
AcDbMText
 10
-4895.000028867985
 20
2328.577420821907
 30
0.0
 40
91.44
 41
480.0
 46
0.0
 71
     7
 72
     1
  1
{\f@ＭＳ ゴシック|b0|i0|c128|p49;鴨居・・}
 11
-1.836909530733566E-16
 21
-1.0
 31
0.0
 73
     1
 44
1.0
  0
MTEXT
  5
22B
330
1F
100
AcDbEntity
  8
0-A
  6
Continuous
 62
     7
370
     0
100
AcDbMText
 10
949.9995216163395
 20
2328.577420821907
 30
0.0
 40
91.44
 41
480.0
 46
0.0
 71
     7
 72
     1
  1
{\f@ＭＳ ゴシック|b0|i0|c128|p49;鴨居・・}
 11
-1.836909530733566E-16
 21
-1.0
 31
0.0
 73
     1
 44
1.0
  0
MTEXT
  5
22C
330
1F
100
AcDbEntity
  8
0-A
  6
Continuous
 62
     7
370
     9
100
AcDbMText
 10
-417.5007588154605
 20
1410.986584686463
 30
0.0
 40
68.58
 41
45.0
 46
0.0
 71
     7
 72
     1
  1
{\fＭＳ ゴシック|b0|i0|c128|p49;1}
 73
     1
 44
1.0
  0
MTEXT
  5
22D
330
1F
100
AcDbEntity
  8
0-A
  6
Continuous
 62
     7
370
     9
100
AcDbMText
 10
3529.999719568196
 20
1410.986584686463
 30
0.0
 40
68.58000000000001
 41
720.0
 46
0.0
 71
     7
 72
     1
  1
{\fＭＳ ゴシック|b0|i0|c128|p49;3,560×162×30.0}
 73
     1
 44
1.0
  0
MTEXT
  5
22E
330
1F
100
AcDbEntity
  8
0-A
  6
Continuous
 62
     7
370
     9
100
AcDbMText
 10
5427.499719568197
 20
1410.986584686463
 30
0.0
 40
68.58
 41
45.0
 46
0.0
 71
     7
 72
     1
  1
{\fＭＳ ゴシック|b0|i0|c128|p49;1}
 73
     1
 44
1.0
  0
MTEXT
  5
22F
330
1F
100
AcDbEntity
  8
0-A
  6
Continuous
 62
     7
370
     9
100
AcDbMText
 10
-4700.000028867985
 20
1402.863182054912
 30
0.0
 40
91.44
 41
960.0
 46
0.0
 71
     7
 72
     1
  1
{\fＭＳ ゴシック|b0|i0|c128|p49;固定枠１７０幅用}
 73
     1
 44
1.0
  0
MTEXT
  5
230
330
1F
100
AcDbEntity
  8
0-A
  6
Continuous
 62
     7
370
     9
100
AcDbMText
 10
1144.99952161634
 20
1402.863182054912
 30
0.0
 40
91.44
 41
960.0
 46
0.0
 71
     7
 72
     1
  1
{\fＭＳ ゴシック|b0|i0|c128|p49;固定枠１７０幅用}
 73
     1
 44
1.0
  0
MTEXT
  5
231
330
1F
100
AcDbEntity
  8
0-A
  6
Continuous
 62
     7
370
     9
100
AcDbMText
 10
-2292.500758815459
 20
339.5579447700854
 30
0.0
 40
68.58
 41
675.0
 46
0.0
 71
     7
 72
     1
  1
{\fＭＳ ゴシック|b0|i0|c128|p49;3,600×75×15.0}
 73
     1
 44
1.0
  0
MTEXT
  5
232
330
1F
100
AcDbEntity
  8
0-A
  6
Continuous
 62
     7
370
     9
100
AcDbMText
 10
-417.5007588154605
 20
339.5579447700854
 30
0.0
 40
68.58
 41
45.0
 46
0.0
 71
     7
 72
     1
  1
{\fＭＳ ゴシック|b0|i0|c128|p49;1}
 73
     1
 44
1.0
  0
MTEXT
  5
233
330
1F
100
AcDbEntity
  8
0-A
  6
Continuous
 62
     7
370
     9
100
AcDbMText
 10
3552.499719568196
 20
339.5579447700854
 30
0.0
 40
68.58
 41
675.0
 46
0.0
 71
     7
 72
     1
  1
{\fＭＳ ゴシック|b0|i0|c128|p49;3,600×75×15.0}
 73
     1
 44
1.0
  0
MTEXT
  5
234
330
1F
100
AcDbEntity
  8
0-A
  6
Continuous
 62
     7
370
     9
100
AcDbMText
 10
5427.499719568197
 20
339.5579447700854
 30
0.0
 40
68.58
 41
45.0
 46
0.0
 71
     7
 72
     1
  1
{\fＭＳ ゴシック|b0|i0|c128|p49;1}
 73
     1
 44
1.0
  0
MTEXT
  5
235
330
1F
100
AcDbEntity
  8
0-B
  6
Continuous
 62
     7
370
   211
100
AcDbMText
 10
-4116.250393841723
 20
3505.102668505914
 30
0.0
 40
74.295
 41
97.5
 46
0.0
 71
     7
 72
     1
  1
{\fＭＳ ゴシック|b0|i0|c128|p49;10}
 73
     1
 44
1.0
  0
MTEXT
  5
236
330
1F
100
AcDbEntity
  8
0-B
  6
Continuous
 62
     7
370
   211
100
AcDbMText
 10
-4267.500393841721
 20
3304.745168505913
 30
0.0
 40
68.58
 41
45.0
 46
0.0
 71
     7
 72
     1
  1
{\fＭＳ ゴシック|b0|i0|c128|p49;5}
 11
6.123031769111886E-17
 21
1.0
 31
0.0
 73
     1
 44
1.0
  0
MTEXT
  5
237
330
1F
100
AcDbEntity
  8
0-B
  6
Continuous
 62
     7
370
   211
100
AcDbMText
 10
-4267.500393841721
 20
3234.745168505914
 30
0.0
 40
68.58
 41
45.0
 46
0.0
 71
     7
 72
     1
  1
{\fＭＳ ゴシック|b0|i0|c128|p49;9}
 11
6.123031769111886E-17
 21
1.0
 31
0.0
 73
     1
 44
1.0
  0
MTEXT
  5
238
330
1F
100
AcDbEntity
  8
0-B
  6
Continuous
 62
     7
370
   211
100
AcDbMText
 10
-4367.500393841723
 20
3156.352668505912
 30
0.0
 40
74.2950000000026
 41
97.50000000000341
 46
0.0
 71
     7
 72
     1
  1
{\fＭＳ ゴシック|b0|i0|c128|p49;30}
 11
6.123031769111886E-17
 21
1.0
 31
0.0
 73
     1
 44
1.0
  0
MTEXT
  5
239
330
1F
100
AcDbEntity
  8
0-B
  6
Continuous
 62
     7
370
   211
100
AcDbMText
 10
-4267.500393841721
 20
3086.352668505914
 30
0.0
 40
74.295
 41
97.5
 46
0.0
 71
     7
 72
     1
  1
{\fＭＳ ゴシック|b0|i0|c128|p49;16}
 11
6.123031769111886E-17
 21
1.0
 31
0.0
 73
     1
 44
1.0
  0
MTEXT
  5
23A
330
1F
100
AcDbEntity
  8
0-B
  6
Continuous
 62
     7
370
   211
100
AcDbMText
 10
-3377.500393841723
 20
3086.352668505914
 30
0.0
 40
74.295
 41
97.5
 46
0.0
 71
     7
 72
     1
  1
{\fＭＳ ゴシック|b0|i0|c128|p49;16}
 11
6.123031769111886E-17
 21
1.0
 31
0.0
 73
     1
 44
1.0
  0
MTEXT
  5
23B
330
1F
100
AcDbEntity
  8
0-B
  6
Continuous
 62
     7
370
   211
100
AcDbMText
 10
-3920.750393841723
 20
2906.531418505914
 30
0.0
 40
77.15249999999999
 41
202.5
 46
0.0
 71
     7
 72
     1
  1
{\fＭＳ ゴシック|b0|i0|c128|p49;59.6}
 73
     1
 44
1.0
  0
MTEXT
  5
23C
330
1F
100
AcDbEntity
  8
0-B
  6
Continuous
 62
     7
370
   211
100
AcDbMText
 10
-3478.750393841723
 20
2906.531418505914
 30
0.0
 40
77.15249999999999
 41
202.5
 46
0.0
 71
     7
 72
     1
  1
{\fＭＳ ゴシック|b0|i0|c128|p49;28.8}
 73
     1
 44
1.0
  0
MTEXT
  5
23D
330
1F
100
AcDbEntity
  8
0-B
  6
Continuous
 62
     7
370
   211
100
AcDbMText
 10
-3226.750393841724
 20
2906.531418505914
 30
0.0
 40
77.15249999999999
 41
202.5
 46
0.0
 71
     7
 72
     1
  1
{\fＭＳ ゴシック|b0|i0|c128|p49;21.6}
 73
     1
 44
1.0
  0
MTEXT
  5
23E
330
1F
100
AcDbEntity
  8
0-B
  6
Continuous
 62
     7
370
   211
100
AcDbMText
 10
-3642.50039384172
 20
2806.055168505914
 30
0.0
 40
76.19999999999999
 41
150.0
 46
0.0
 71
     7
 72
     1
  1
{\fＭＳ ゴシック|b0|i0|c128|p49;110}
 73
     1
 44
1.0
  0
MTEXT
  5
23F
330
1F
100
AcDbEntity
  8
0-B
  6
Continuous
 62
     7
370
   211
100
AcDbMText
 10
-4377.500393841724
 20
2091.254839630713
 30
0.0
 40
74.295
 41
97.5
 46
0.0
 71
     7
 72
     1
  1
{\fＭＳ ゴシック|b0|i0|c128|p49;30}
 11
6.123031769111886E-17
 21
1.0
 31
0.0
 73
     1
 44
1.0
  0
MTEXT
  5
240
330
1F
100
AcDbEntity
  8
0-B
  6
Continuous
 62
     7
370
   211
100
AcDbMText
 10
-3302.500393841723
 20
2021.254839630713
 30
0.0
 40
74.295
 41
97.5
 46
0.0
 71
     7
 72
     1
  1
{\fＭＳ ゴシック|b0|i0|c128|p49;16}
 11
6.123031769111886E-17
 21
1.0
 31
0.0
 73
     1
 44
1.0
  0
MTEXT
  5
241
330
1F
100
AcDbEntity
  8
0-B
  6
Continuous
 62
     7
370
   211
100
AcDbMText
 10
-3938.250393841721
 20
1841.433589630714
 30
0.0
 40
77.15249999999999
 41
202.5
 46
0.0
 71
     7
 72
     1
  1
{\fＭＳ ゴシック|b0|i0|c128|p49;78.1}
 73
     1
 44
1.0
  0
MTEXT
  5
242
330
1F
100
AcDbEntity
  8
0-B
  6
Continuous
 62
     7
370
   211
100
AcDbMText
 10
-3403.750393841723
 20
1841.433589630714
 30
0.0
 40
77.15249999999999
 41
202.5
 46
0.0
 71
     7
 72
     1
  1
{\fＭＳ ゴシック|b0|i0|c128|p49;28.8}
 73
     1
 44
1.0
  0
MTEXT
  5
243
330
1F
100
AcDbEntity
  8
0-B
  6
Continuous
 62
     7
370
   211
100
AcDbMText
 10
-3059.250393841722
 20
1841.433589630714
 30
0.0
 40
77.15249999999999
 41
202.5
 46
0.0
 71
     7
 72
     1
  1
{\fＭＳ ゴシック|b0|i0|c128|p49;40.1}
 73
     1
 44
1.0
  0
MTEXT
  5
244
330
1F
100
AcDbEntity
  8
0-B
  6
Continuous
 62
     7
370
   211
100
AcDbMText
 10
-3567.500393841724
 20
1740.957339630713
 30
0.0
 40
76.19999999999999
 41
150.0
 46
0.0
 71
     7
 72
     1
  1
{\fＭＳ ゴシック|b0|i0|c128|p49;147}
 73
     1
 44
1.0
  0
MTEXT
  5
245
330
1F
100
AcDbEntity
  8
0-B
  6
Continuous
 62
     7
370
   211
100
AcDbMText
 10
-4452.500393841724
 20
1019.826199714335
 30
0.0
 40
74.295
 41
97.5
 46
0.0
 71
     7
 72
     1
  1
{\fＭＳ ゴシック|b0|i0|c128|p49;30}
 11
6.123031769111886E-17
 21
1.0
 31
0.0
 73
     1
 44
1.0
  0
MTEXT
  5
246
330
1F
100
AcDbEntity
  8
0-B
  6
Continuous
 62
     7
370
   211
100
AcDbMText
 10
-3302.500393841723
 20
949.8261997143359
 30
0.0
 40
74.295
 41
97.5
 46
0.0
 71
     7
 72
     1
  1
{\fＭＳ ゴシック|b0|i0|c128|p49;16}
 11
6.123031769111886E-17
 21
1.0
 31
0.0
 73
     1
 44
1.0
  0
MTEXT
  5
247
330
1F
100
AcDbEntity
  8
0-B
  6
Continuous
 62
     7
370
   211
100
AcDbMText
 10
-3975.750393841721
 20
770.0049497143352
 30
0.0
 40
77.15249999999999
 41
202.5
 46
0.0
 71
     7
 72
     1
  1
{\fＭＳ ゴシック|b0|i0|c128|p49;85.6}
 73
     1
 44
1.0
  0
MTEXT
  5
248
330
1F
100
AcDbEntity
  8
0-B
  6
Continuous
 62
     7
370
   211
100
AcDbMText
 10
-3403.750393841723
 20
770.0049497143352
 30
0.0
 40
77.15249999999999
 41
202.5
 46
0.0
 71
     7
 72
     1
  1
{\fＭＳ ゴシック|b0|i0|c128|p49;28.8}
 73
     1
 44
1.0
  0
MTEXT
  5
249
330
1F
100
AcDbEntity
  8
0-B
  6
Continuous
 62
     7
370
   211
100
AcDbMText
 10
-3021.750393841722
 20
770.0049497143352
 30
0.0
 40
77.15249999999999
 41
202.5
 46
0.0
 71
     7
 72
     1
  1
{\fＭＳ ゴシック|b0|i0|c128|p49;47.6}
 73
     1
 44
1.0
  0
MTEXT
  5
24A
330
1F
100
AcDbEntity
  8
0-B
  6
Continuous
 62
     7
370
   211
100
AcDbMText
 10
-3567.500393841724
 20
669.5286997143334
 30
0.0
 40
76.19999999999999
 41
150.0
 46
0.0
 71
     7
 72
     1
  1
{\fＭＳ ゴシック|b0|i0|c128|p49;162}
 73
     1
 44
1.0
  0
MTEXT
  5
24B
330
1F
100
AcDbEntity
  8
0-B
  6
Continuous
 62
     7
370
   211
100
AcDbMText
 10
1679.999620592268
 20
228.5763097979567
 30
0.0
 40
77.15249999999999
 41
202.5
 46
0.0
 71
     7
 72
     1
  1
{\fＭＳ ゴシック|b0|i0|c128|p49;14.1}
 73
     1
 44
1.0
  0
MTEXT
  5
24C
330
1F
100
AcDbEntity
  8
0-B
  6
Continuous
 62
     7
370
   211
100
AcDbMText
 10
2012.499453699261
 20
228.1000597979567
 30
0.0
 40
76.19999999999999
 41
150.0
 46
0.0
 71
     7
 72
     1
  1
{\fＭＳ ゴシック|b0|i0|c128|p49;8.8}
 73
     1
 44
1.0
  0
MTEXT
  5
24D
330
1F
100
AcDbEntity
  8
0-B
  6
Continuous
 62
     7
370
   211
100
AcDbMText
 10
2392.499787485272
 20
228.1000597979568
 30
0.0
 40
76.20000000000022
 41
150.0000000000004
 46
0.0
 71
     7
 72
     1
  1
{\fＭＳ ゴシック|b0|i0|c128|p49;8.8}
 73
     1
 44
1.0
  0
MTEXT
  5
24E
330
1F
100
AcDbEntity
  8
0-B
  6
Continuous
 62
     7
370
   211
100
AcDbMText
 10
2672.499620592268
 20
228.5763097979567
 30
0.0
 40
77.15249999999999
 41
202.5
 46
0.0
 71
     7
 72
     1
  1
{\fＭＳ ゴシック|b0|i0|c128|p49;14.1}
 73
     1
 44
1.0
  0
MTEXT
  5
24F
330
1F
100
AcDbEntity
  8
0-B
  6
Continuous
 62
     7
370
   211
100
AcDbMText
 10
2176.249620592267
 20
128.5763097979564
 30
0.0
 40
77.15249999999999
 41
202.5
 46
0.0
 71
     7
 72
     1
  1
{\fＭＳ ゴシック|b0|i0|c128|p49;29.2}
 73
     1
 44
1.0
  0
MTEXT
  5
250
330
1F
100
AcDbEntity
  8
0-B
  6
Continuous
 62
     7
370
   211
100
AcDbMText
 10
1757.499620592266
 20
79.64951110095481
 30
0.0
 40
68.58
 41
45.0
 46
0.0
 71
     7
 72
     1
  1
{\fＭＳ ゴシック|b0|i0|c128|p49;3}
 11
6.123031769111886E-17
 21
1.0
 31
0.0
 73
     1
 44
1.0
  0
MTEXT
  5
251
330
1F
100
AcDbEntity
  8
0-B
  6
Continuous
 62
     7
370
   211
100
AcDbMText
 10
2247.500288164289
 20
21.79005979795674
 30
0.0
 40
68.58
 41
45.0
 46
0.0
 71
     7
 72
     1
  1
{\fＭＳ ゴシック|b0|i0|c128|p49;6}
 11
6.123031769111886E-17
 21
1.0
 31
0.0
 73
     1
 44
1.0
  0
MTEXT
  5
252
330
1F
100
AcDbEntity
  8
0-B
  6
Continuous
 62
     7
370
   211
100
AcDbMText
 10
1657.499620592266
 20
-46.60244020204326
 30
0.0
 40
74.295
 41
97.5
 46
0.0
 71
     7
 72
     1
  1
{\fＭＳ ゴシック|b0|i0|c128|p49;15}
 11
6.123031769111886E-17
 21
1.0
 31
0.0
 73
     1
 44
1.0
  0
MTEXT
  5
253
330
1F
100
AcDbEntity
  8
0-B
  6
Continuous
 62
     7
370
   211
100
AcDbMText
 10
1757.499620592266
 20
-61.60286458711349
 30
0.0
 40
74.295
 41
97.5
 46
0.0
 71
     7
 72
     1
  1
{\fＭＳ ゴシック|b0|i0|c128|p49;12}
 11
6.123031769111886E-17
 21
1.0
 31
0.0
 73
     1
 44
1.0
  0
MTEXT
  5
254
330
1F
100
AcDbEntity
  8
0-B
  6
Continuous
 62
     7
370
   211
100
AcDbMText
 10
1904.999620592268
 20
-230.7099402020438
 30
0.0
 40
68.58
 41
45.0
 46
0.0
 71
     7
 72
     1
  1
{\fＭＳ ゴシック|b0|i0|c128|p49;4}
 73
     1
 44
1.0
  0
MTEXT
  5
255
330
1F
100
AcDbEntity
  8
0-B
  6
Continuous
 62
     7
370
   211
100
AcDbMText
 10
2228.749544298317
 20
-227.8524402020438
 30
0.0
 40
74.295
 41
97.5
 46
0.0
 71
     7
 72
     1
  1
{\fＭＳ ゴシック|b0|i0|c128|p49;67}
 73
     1
 44
1.0
  0
MTEXT
  5
256
330
1F
100
AcDbEntity
  8
0-B
  6
Continuous
 62
     7
370
   211
100
AcDbMText
 10
2604.999544298318
 20
-230.7099402020438
 30
0.0
 40
68.58
 41
45.0
 46
0.0
 71
     7
 72
     1
  1
{\fＭＳ ゴシック|b0|i0|c128|p49;4}
 73
     1
 44
1.0
  0
MTEXT
  5
257
330
1F
100
AcDbEntity
  8
0-B
  6
Continuous
 62
     7
370
   211
100
AcDbMText
 10
2228.749620592268
 20
-327.8524402020433
 30
0.0
 40
74.295
 41
97.5
 46
0.0
 71
     7
 72
     1
  1
{\fＭＳ ゴシック|b0|i0|c128|p49;75}
 73
     1
 44
1.0
  0
MTEXT
  5
258
330
1F
100
AcDbEntity
  8
F-1
  6
Continuous
 62
     7
370
     0
100
AcDbMText
 10
-2082.500758815456
 20
3984.827681455869
 30
0.0
 40
97.15499999999999
 41
255.0
 46
0.0
 71
     7
 72
     1
  1
{\fＭＳ ゴシック|b0|i0|c128|p49;寸法}
 73
     1
 44
1.0
  0
MTEXT
  5
259
330
1F
100
AcDbEntity
  8
F-1
  6
Continuous
 62
     7
370
     0
100
AcDbMText
 10
-522.5007588154554
 20
3984.827681455869
 30
0.0
 40
97.15499999999999
 41
255.0
 46
0.0
 71
     7
 72
     1
  1
{\fＭＳ ゴシック|b0|i0|c128|p49;発注}
 73
     1
 44
1.0
  0
MTEXT
  5
25A
330
1F
100
AcDbEntity
  8
F-1
  6
Continuous
 62
     7
370
     0
100
AcDbMText
 10
3762.499719568202
 20
3984.779430690454
 30
0.0
 40
97.15499999999999
 41
255.0
 46
0.0
 71
     7
 72
     1
  1
{\fＭＳ ゴシック|b0|i0|c128|p49;寸法}
 73
     1
 44
1.0
  0
MTEXT
  5
25B
330
1F
100
AcDbEntity
  8
F-1
  6
Continuous
 62
     7
370
     0
100
AcDbMText
 10
5322.499719568203
 20
3984.779430690454
 30
0.0
 40
97.15499999999999
 41
255.0
 46
0.0
 71
     7
 72
     1
  1
{\fＭＳ ゴシック|b0|i0|c128|p49;発注}
 73
     1
 44
1.0
  0
MTEXT
  5
25C
330
1F
100
AcDbEntity
  8
F-1
  6
Continuous
 62
     7
370
     0
100
AcDbMText
 10
-1197.500758815456
 20
3876.077879407728
 30
0.0
 40
97.15499999999999
 41
255.0
 46
0.0
 71
     7
 72
     1
  1
{\fＭＳ ゴシック|b0|i0|c128|p49;品番}
 73
     1
 44
1.0
  0
MTEXT
  5
25D
330
1F
100
AcDbEntity
  8
F-1
  6
Continuous
 62
     7
370
     0
100
AcDbMText
 10
4647.499719568202
 20
3876.029628642314
 30
0.0
 40
97.15499999999999
 41
255.0
 46
0.0
 71
     7
 72
     1
  1
{\fＭＳ ゴシック|b0|i0|c128|p49;品番}
 73
     1
 44
1.0
  0
MTEXT
  5
25E
330
1F
100
AcDbEntity
  8
F-1
  6
Continuous
 62
     7
370
     0
100
AcDbMText
 10
-2360.000758815456
 20
3753.040577359584
 30
0.0
 40
68.58
 41
810.0
 46
0.0
 71
     7
 72
     1
  1
{\fＭＳ ゴシック|b0|i0|c128|p49;長さ×幅×厚さ(㎜)}
 73
     1
 44
1.0
  0
MTEXT
  5
25F
330
1F
100
AcDbEntity
  8
F-1
  6
Continuous
 62
     7
370
     0
100
AcDbMText
 10
-522.5007588154554
 20
3767.328077359584
 30
0.0
 40
97.15499999999999
 41
255.0
 46
0.0
 71
     7
 72
     1
  1
{\fＭＳ ゴシック|b0|i0|c128|p49;単位}
 73
     1
 44
1.0
  0
MTEXT
  5
260
330
1F
100
AcDbEntity
  8
F-1
  6
Continuous
 62
     7
370
     0
100
AcDbMText
 10
3484.999719568202
 20
3753.040577359584
 30
0.0
 40
68.58
 41
810.0
 46
0.0
 71
     7
 72
     1
  1
{\fＭＳ ゴシック|b0|i0|c128|p49;長さ×幅×厚さ(㎜)}
 73
     1
 44
1.0
  0
MTEXT
  5
261
330
1F
100
AcDbEntity
  8
F-1
  6
Continuous
 62
     7
370
     0
100
AcDbMText
 10
5322.499719568203
 20
3767.27982659417
 30
0.0
 40
97.15499999999999
 41
255.0
 46
0.0
 71
     7
 72
     1
  1
{\fＭＳ ゴシック|b0|i0|c128|p49;単位}
 73
     1
 44
1.0
  0
MTEXT
  5
262
330
1F
100
AcDbEntity
  8
F-A
  6
Continuous
 62
     7
370
     0
100
AcDbMText
 10
-5659.999812358134
 20
3877.030379407729
 30
0.0
 40
99.06
 41
390.0
 46
0.0
 71
     7
 72
     1
  1
{\fＭＳ ゴシック|b0|i0|c128|p49;部材名}
 73
     1
 44
1.0
  0
MTEXT
  5
263
330
1F
100
AcDbEntity
  8
F-A
  6
Continuous
 62
     7
370
     0
100
AcDbMText
 10
179.9993814004438
 20
3877.030379407729
 30
0.0
 40
99.06
 41
390.0
 46
0.0
 71
     7
 72
     1
  1
{\fＭＳ ゴシック|b0|i0|c128|p49;部材名}
 73
     1
 44
1.0
  0
MTEXT
  5
264
330
1F
100
AcDbEntity
  8
F-A
  6
Continuous
 62
     7
370
     0
100
AcDbMText
 10
-3935.000393841724
 20
3877.50643145587
 30
0.0
 40
100.0125
 41
525.0
 46
0.0
 71
     7
 72
     1
  1
{\fＭＳ ゴシック|b0|i0|c128|p49;断面形状}
 73
     1
 44
1.0
  0
MTEXT
  5
265
330
1F
100
AcDbEntity
  8
F-A
  6
Continuous
 62
     7
370
     0
100
AcDbMText
 10
1909.999991752006
 20
3877.50643145587
 30
0.0
 40
100.0125
 41
525.0
 46
0.0
 71
     7
 72
     1
  1
{\fＭＳ ゴシック|b0|i0|c128|p49;断面形状}
 73
     1
 44
1.0
  0
MTEXT
  5
266
330
1F
100
AcDbEntity
  8
F-A
  6
Continuous
 62
     7
370
     0
100
AcDbMText
 10
-60.0001237199109
 20
-3887.139820871936
 30
0.0
 40
45.72
 41
180.0
 46
0.0
 71
     7
 72
     1
  1
{\fＭＳ ゴシック|b0|i0|c128|p49;図面名}
 73
     1
 44
1.0
  0
MTEXT
  5
267
330
1F
100
AcDbEntity
  8
F-A
  6
Continuous
 62
     7
370
     0
100
AcDbMText
 10
2779.998729808911
 20
-3887.142460617774
 30
0.0
 40
45.72
 41
300.0
 46
0.0
 71
     7
 72
     1
  1
{\fＭＳ ゴシック|b0|i0|c128|p49;ＳＣＡＬＥ}
 73
     1
 44
1.0
  0
MTEXT
  5
268
330
1F
100
AcDbEntity
  8
F-A
  6
Continuous
 62
     7
370
     0
100
AcDbMText
 10
4279.999224688556
 20
-3887.143854850754
 30
0.0
 40
45.72
 41
240.0
 46
0.0
 71
     7
 72
     1
  1
{\fＭＳ ゴシック|b0|i0|c128|p49;ＤＡＴＥ}
 73
     1
 44
1.0
  0
MTEXT
  5
269
330
1F
100
AcDbEntity
  8
F-A
  6
Continuous
 62
     7
370
     0
100
AcDbMText
 10
1180.417701903716
 20
-3946.138161599839
 30
0.0
 40
77.724
 41
510.0
 46
0.0
 71
     7
 72
     1
  1
{\fＭＳ ゴシック|b0|i0|c128|p49;洋風造作材}
 73
     1
 44
1.0
  0
MTEXT
  5
26A
330
1F
100
AcDbEntity
  8
F-A
  6
Continuous
 62
     7
370
     0
100
AcDbMText
 10
3409.998977248734
 20
-3946.903115907308
 30
0.0
 40
76.19999999999999
 41
150.0
 46
0.0
 71
     7
 72
     1
  1
{\fＭＳ ゴシック|b0|i0|c128|p49;1/3}
 73
     1
 44
1.0
  0
MTEXT
  5
26B
330
1F
100
AcDbEntity
  8
F-A
  6
Continuous
 62
     7
370
     0
100
AcDbMText
 10
349.999917520056
 20
-3946.496666872502
 30
0.0
 40
78.58125
 41
412.5
 46
0.0
 71
     7
 72
     1
  1
{\fＭＳ ゴシック|b0|i0|c128|p49;DOORETUS}
 73
     1
 44
1.0
  0
MTEXT
  5
26C
330
1F
100
AcDbEntity
  8
F-A
  6
Continuous
 62
     7
370
     0
100
AcDbMText
 10
2779.998729808911
 20
-4087.14246317786
 30
0.0
 40
45.72
 41
240.0
 46
0.0
 71
     7
 72
     1
  1
{\fＭＳ ゴシック|b0|i0|c128|p49;ＦＩＬＥ}
 73
     1
 44
1.0
  0
MTEXT
  5
26D
330
1F
100
AcDbEntity
  8
F-A
  6
Continuous
 62
     7
370
     0
100
AcDbMText
 10
4279.999224688556
 20
-4087.143857410839
 30
0.0
 40
45.72
 41
180.0
 46
0.0
 71
     7
 72
     1
  1
{\fＭＳ ゴシック|b0|i0|c128|p49;ＮＯ．}
 73
     1
 44
1.0
  0
MTEXT
  5
26E
330
1F
100
AcDbEntity
  8
F-A
  6
Continuous
 62
     7
370
     0
100
AcDbMText
 10
1234.998729808911
 20
-4096.140669266149
 30
0.0
 40
45.72
 41
120.0
 46
0.0
 71
     7
 72
     1
  1
{\fＭＳ ゴシック|b0|i0|c128|p49;株式}
 73
     1
 44
1.0
  0
MTEXT
  5
26F
330
1F
100
AcDbEntity
  8
F-A
  6
Continuous
 62
     7
370
     0
100
AcDbMText
 10
1444.998729808911
 20
-4164.281754523929
 30
0.0
 40
101.44125
 41
1065.0
 46
0.0
 71
     7
 72
     1
  1
{\fＭＳ ゴシック|b0|i0|c128|p49;ウッドワン・・・}
 73
     1
 44
1.0
  0
MTEXT
  5
270
330
1F
100
AcDbEntity
  8
F-A
  6
Continuous
 62
     7
370
     0
100
AcDbMText
 10
1234.998729808911
 20
-4168.140669266187
 30
0.0
 40
45.72
 41
120.0
 46
0.0
 71
     7
 72
     1
  1
{\fＭＳ ゴシック|b0|i0|c128|p49;会社}
 73
     1
 44
1.0
  0
MTEXT
  5
271
330
1F
100
AcDbEntity
  8
F-A
  6
Continuous
 62
     7
370
     0
100
AcDbMText
 10
5608.403311109712
 20
-4314.841256638534
 30
0.0
 40
68.58
 41
90.0
 46
0.0
 71
     7
 72
     1
  1
{\fＭＳ ゴシック|b0|i0|c128|p49;）}
 73
     1
 44
1.0
  0
MTEXT
  5
272
330
1F
100
AcDbEntity
  8
F-A
  6
Continuous
 62
     7
370
     0
100
AcDbMText
 10
5190.195950842071
 20
-4316.235281487472
 30
0.0
 40
68.58
 41
45.0
 46
0.0
 71
     7
 72
     1
  1
{\fＭＳ ゴシック|b0|i0|c128|p49;,}
 73
     1
 44
1.0
  0
MTEXT
  5
273
330
1F
100
AcDbEntity
  8
F-A
  6
Continuous
 62
     7
370
     0
100
AcDbMText
 10
4923.937261915373
 20
-4314.771804905898
 30
0.0
 40
74.295
 41
97.5
 46
0.0
 71
     7
 72
     1
  1
{\fＭＳ ゴシック|b0|i0|c128|p49;$y}
 73
     1
 44
1.0
  0
MTEXT
  5
274
330
1F
100
AcDbEntity
  8
F-A
  6
Continuous
 62
     7
370
     0
100
AcDbMText
 10
5078.673982954195
 20
-4314.771804905898
 30
0.0
 40
74.295
 41
97.5
 46
0.0
 71
     7
 72
     1
  1
{\fＭＳ ゴシック|b0|i0|c128|p49;$m}
 73
     1
 44
1.0
  0
MTEXT
  5
275
330
1F
100
AcDbEntity
  8
F-A
  6
Continuous
 62
     7
370
     0
100
AcDbMText
 10
5233.410715437103
 20
-4314.771804905898
 30
0.0
 40
74.295
 41
97.5
 46
0.0
 71
     7
 72
     1
  1
{\fＭＳ ゴシック|b0|i0|c128|p49;$d}
 73
     1
 44
1.0
  0
MTEXT
  5
276
330
1F
100
AcDbEntity
  8
F-A
  6
Continuous
 62
     7
370
     0
100
AcDbMText
 10
5388.147447920011
 20
-4314.771804905898
 30
0.0
 40
74.295
 41
195.0
 46
0.0
 71
     7
 72
     1
  1
{\fＭＳ ゴシック|b0|i0|c128|p49;印刷}
 73
     1
 44
1.0
  0
MTEXT
  5
277
330
1F
100
AcDbEntity
  8
F-A
  6
Continuous
 62
     7
370
     0
100
AcDbMText
 10
4784.033374252999
 20
-4319.023331185347
 30
0.0
 40
68.58
 41
90.0
 46
0.0
 71
     7
 72
     1
  1
{\fＭＳ ゴシック|b0|i0|c128|p49;（}
 73
     1
 44
1.0
  0
MTEXT
  5
278
330
1F
100
AcDbEntity
  8
F-A
  6
Continuous
 62
     7
370
     0
100
AcDbMText
 10
5031.277143812345
 20
-4319.023331185347
 30
0.0
 40
68.58
 41
45.0
 46
0.0
 71
     7
 72
     1
  1
{\fＭＳ ゴシック|b0|i0|c128|p49;,}
 73
     1
 44
1.0
  0
LINE
  5
279
330
1F
100
AcDbEntity
  8
0-B
  6
Continuous
 62
   120
370
     5
100
AcDbLine
 10
-4092.50039384172
 20
-114.9999402020438
 30
0.0
 11
-4092.50039384172
 21
4.999211027815704
 31
0.0
  0
LWPOLYLINE
  5
27A
330
1F
100
AcDbEntity
  8
0-B
  6
Continuous
 62
     7
370
     9
100
AcDbPolyline
 90
        4
 70
     1
 43
3.0
 10
-4091.00039384172
 20
-114.9999402020438
 42
0.4142135623731
 10
-4092.50039384172
 20
-113.4999402020438
 42
0.4142135623731
 10
-4094.000393841721
 20
-114.9999402020438
 42
0.4142135623731
 10
-4092.50039384172
 20
-116.4999402020438
 42
0.4142135623731
  0
LWPOLYLINE
  5
27B
330
1F
100
AcDbEntity
  8
0-B
  6
Continuous
 62
     7
370
     9
100
AcDbPolyline
 90
        4
 70
     1
 43
3.0
 10
-4091.00039384172
 20
4.999211027815704
 42
0.4142135623731
 10
-4092.50039384172
 20
6.499211027815704
 42
0.4142135623731
 10
-4094.000393841721
 20
4.999211027815704
 42
0.4142135623731
 10
-4092.50039384172
 20
3.499211027815704
 42
0.4142135623731
  0
LINE
  5
27C
330
1F
100
AcDbEntity
  8
0-B
  6
Continuous
 62
   120
370
     5
100
AcDbLine
 10
-4192.500393841723
 20
-114.9999402020438
 30
0.0
 11
-3992.500393841723
 21
-114.9999402020438
 31
0.0
  0
LINE
  5
27D
330
1F
100
AcDbEntity
  8
0-B
  6
Continuous
 62
   120
370
     5
100
AcDbLine
 10
-4092.50039384172
 20
4.999211027815704
 30
0.0
 11
-3992.500393841723
 21
4.999211027815704
 31
0.0
  0
LINE
  5
27E
330
1F
100
AcDbEntity
  8
0-B
  6
Continuous
 62
   120
370
     5
100
AcDbLine
 10
-4092.50039384172
 20
4.999211027815704
 30
0.0
 11
-4092.50039384172
 21
35.00005979795617
 31
0.0
  0
LWPOLYLINE
  5
27F
330
1F
100
AcDbEntity
  8
0-B
  6
Continuous
 62
     7
370
     9
100
AcDbPolyline
 90
        4
 70
     1
 43
3.0
 10
-4091.00039384172
 20
35.00005979795617
 42
0.4142135623731
 10
-4092.50039384172
 20
36.50005979795617
 42
0.4142135623731
 10
-4094.000393841721
 20
35.00005979795617
 42
0.4142135623731
 10
-4092.50039384172
 20
33.50005979795617
 42
0.4142135623731
  0
LINE
  5
280
330
1F
100
AcDbEntity
  8
0-B
  6
Continuous
 62
   120
370
     5
100
AcDbLine
 10
-4192.500393841723
 20
35.00005979795617
 30
0.0
 11
-3992.500393841723
 21
35.00005979795617
 31
0.0
  0
LINE
  5
281
330
1F
100
AcDbEntity
  8
0-B
  6
Continuous
 62
   120
370
     5
100
AcDbLine
 10
-4192.500393841723
 20
-114.9999402020438
 30
0.0
 11
-4192.500393841723
 21
35.00005979795617
 31
0.0
  0
LWPOLYLINE
  5
282
330
1F
100
AcDbEntity
  8
0-B
  6
Continuous
 62
     7
370
     9
100
AcDbPolyline
 90
        4
 70
     1
 43
3.0
 10
-4191.000393841723
 20
-114.9999402020438
 42
0.4142135623731
 10
-4192.500393841723
 20
-113.4999402020438
 42
0.4142135623731
 10
-4194.000393841724
 20
-114.9999402020438
 42
0.4142135623731
 10
-4192.500393841723
 20
-116.4999402020438
 42
0.4142135623731
  0
LWPOLYLINE
  5
283
330
1F
100
AcDbEntity
  8
0-B
  6
Continuous
 62
     7
370
     9
100
AcDbPolyline
 90
        4
 70
     1
 43
3.0
 10
-4191.000393841723
 20
35.00005979795617
 42
0.4142135623731
 10
-4192.500393841723
 20
36.50005979795617
 42
0.4142135623731
 10
-4194.000393841724
 20
35.00005979795617
 42
0.4142135623731
 10
-4192.500393841723
 20
33.50005979795617
 42
0.4142135623731
  0
LINE
  5
284
330
1F
100
AcDbEntity
  8
0-0
  6
JWW_HOJO
 62
   120
370
     5
100
AcDbLine
 10
-4192.500393841723
 20
185.0000597979562
 30
0.0
 11
-3142.500393841724
 21
185.0000597979562
 31
0.0
  0
LINE
  5
285
330
1F
100
AcDbEntity
  8
0-0
  6
JWW_HOJO
 62
   120
370
     5
100
AcDbLine
 10
-4192.500393841723
 20
285.0000597979565
 30
0.0
 11
-3142.500393841724
 21
285.0000597979565
 31
0.0
  0
LINE
  5
286
330
1F
100
AcDbEntity
  8
0-0
  6
JWW_HOJO
 62
   120
370
     5
100
AcDbLine
 10
-3142.500393841724
 20
-264.9999402020438
 30
0.0
 11
-3992.500393841723
 21
-264.9999402020438
 31
0.0
  0
LINE
  5
287
330
1F
100
AcDbEntity
  8
0-0
  6
JWW_HOJO
 62
   120
370
     5
100
AcDbLine
 10
-3992.500393841723
 20
185.0000597979562
 30
0.0
 11
-3992.500393841723
 21
-264.9999402020438
 31
0.0
  0
LINE
  5
288
330
1F
100
AcDbEntity
  8
0-0
  6
JWW_HOJO
 62
   120
370
     5
100
AcDbLine
 10
-3142.500393841724
 20
-364.9999402020433
 30
0.0
 11
-3142.500393841724
 21
285.0000597979565
 31
0.0
  0
LINE
  5
289
330
1F
100
AcDbEntity
  8
0-0
  6
JWW_HOJO
 62
   120
370
     5
100
AcDbLine
 10
-3142.500393841724
 20
-364.9999402020433
 30
0.0
 11
-4192.500393841723
 21
-364.9999402020433
 31
0.0
  0
LINE
  5
28A
330
1F
100
AcDbEntity
  8
0-0
  6
JWW_HOJO
 62
   120
370
     5
100
AcDbLine
 10
-4192.500393841723
 20
285.0000597979565
 30
0.0
 11
-4192.500393841723
 21
-364.9999402020433
 31
0.0
  0
LINE
  5
28B
330
1F
100
AcDbEntity
  8
0-0
  6
JWW_HOJO
 62
   120
370
     5
100
AcDbLine
 10
-4092.500393841724
 20
285.0000597979565
 30
0.0
 11
-4092.500393841724
 21
-364.9999402020433
 31
0.0
  0
MTEXT
  5
28C
330
1F
100
AcDbEntity
  8
0-B
  6
Continuous
 62
     7
370
   211
100
AcDbMText
 10
-4087.500393841724
 20
29.64951110095425
 30
0.0
 40
68.58
 41
45.0
 46
0.0
 71
     7
 72
     1
  1
{\fＭＳ ゴシック|b0|i0|c128|p49;3}
 11
6.123031769111886E-17
 21
1.0
 31
0.0
 73
     1
 44
1.0
  0
MTEXT
  5
28D
330
1F
100
AcDbEntity
  8
0-B
  6
Continuous
 62
     7
370
   211
100
AcDbMText
 10
-4187.500393841723
 20
-96.60244020204382
 30
0.0
 40
74.295
 41
97.5
 46
0.0
 71
     7
 72
     1
  1
{\fＭＳ ゴシック|b0|i0|c128|p49;15}
 11
6.123031769111886E-17
 21
1.0
 31
0.0
 73
     1
 44
1.0
  0
MTEXT
  5
28E
330
1F
100
AcDbEntity
  8
0-B
  6
Continuous
 62
     7
370
   211
100
AcDbMText
 10
-4087.500393841724
 20
-111.6028645871141
 30
0.0
 40
74.29500000000004
 41
97.50000000000006
 46
0.0
 71
     7
 72
     1
  1
{\fＭＳ ゴシック|b0|i0|c128|p49;12}
 11
6.123031769111886E-17
 21
1.0
 31
0.0
 73
     1
 44
1.0
  0
LINE
  5
28F
330
1F
100
AcDbEntity
  8
0-B
  6
Continuous
 62
   120
370
     5
100
AcDbLine
 10
-2970.000393841725
 20
185.0000597979562
 30
0.0
 11
-3333.500393841724
 21
185.0000597979562
 31
0.0
  0
LINE
  5
290
330
1F
100
AcDbEntity
  8
0-B
  6
Continuous
 62
   120
370
     5
100
AcDbLine
 10
-3232.500393841725
 20
-264.9999402020439
 30
0.0
 11
-3902.500241253824
 21
-264.9999402020439
 31
0.0
  0
LINE
  5
291
330
1F
100
AcDbEntity
  8
0-4
  6
Continuous
 62
    92
370
    13
100
AcDbLine
 10
-3902.500241253824
 20
-114.9999402020439
 30
0.0
 11
-3232.500393841725
 21
-114.9999402020439
 31
0.0
  0
LINE
  5
292
330
1F
100
AcDbEntity
  8
0-4
  6
Continuous
 62
    92
370
    13
100
AcDbLine
 10
-3902.500393841724
 20
-114.9999402020439
 30
0.0
 11
-3902.500393841724
 21
4.999211027815491
 31
0.0
  0
LINE
  5
293
330
1F
100
AcDbEntity
  8
0-4
  6
Continuous
 62
    92
370
    13
100
AcDbLine
 10
-3942.500393841728
 20
5.000059797952545
 30
0.0
 11
-3902.500393841724
 21
5.000059797952545
 31
0.0
  0
LWPOLYLINE
  5
294
330
1F
100
AcDbEntity
  8
0-B
  6
Continuous
 62
     7
370
     9
100
AcDbPolyline
 90
        4
 70
     1
 43
3.0
 10
-3901.000241253824
 20
-264.9999402020439
 42
0.4142135623731
 10
-3902.500241253824
 20
-263.4999402020439
 42
0.4142135623731
 10
-3904.000241253825
 20
-264.9999402020439
 42
0.4142135623731
 10
-3902.500241253824
 20
-266.4999402020439
 42
0.4142135623731
  0
LINE
  5
295
330
1F
100
AcDbEntity
  8
0-B
  6
Continuous
 62
   120
370
     5
100
AcDbLine
 10
-3902.500241253824
 20
-264.9999402020439
 30
0.0
 11
-3902.500241253824
 21
-164.9999402020437
 31
0.0
  0
LINE
  5
296
330
1F
100
AcDbEntity
  8
0-B
  6
Continuous
 62
   120
370
     5
100
AcDbLine
 10
-3902.500241253824
 20
-264.9999402020439
 30
0.0
 11
-3942.500393841728
 21
-264.9999402020439
 31
0.0
  0
LINE
  5
297
330
1F
100
AcDbEntity
  8
0-B
  6
Continuous
 62
   120
370
     5
100
AcDbLine
 10
-3232.500393841725
 20
-264.9999402020439
 30
0.0
 11
-3232.500393841725
 21
-164.9999402020437
 31
0.0
  0
LWPOLYLINE
  5
298
330
1F
100
AcDbEntity
  8
0-B
  6
Continuous
 62
     7
370
     9
100
AcDbPolyline
 90
        4
 70
     1
 43
3.0
 10
-3231.000393841725
 20
-264.9999402020439
 42
0.4142135623731
 10
-3232.500393841725
 20
-263.4999402020439
 42
0.4142135623731
 10
-3234.000393841725
 20
-264.9999402020439
 42
0.4142135623731
 10
-3232.500393841725
 20
-266.4999402020439
 42
0.4142135623731
  0
LINE
  5
299
330
1F
100
AcDbEntity
  8
0-B
  6
Continuous
 62
   120
370
     5
100
AcDbLine
 10
-3192.500393841724
 20
-264.9999402020439
 30
0.0
 11
-3232.500393841725
 21
-264.9999402020439
 31
0.0
  0
LINE
  5
29A
330
1F
100
AcDbEntity
  8
0-4
  6
Continuous
 62
    92
370
    13
100
AcDbLine
 10
-3232.500393841725
 20
5.000059797952545
 30
0.0
 11
-3192.500393841724
 21
5.000059797952545
 31
0.0
  0
LINE
  5
29B
330
1F
100
AcDbEntity
  8
0-4
  6
Continuous
 62
    92
370
    13
100
AcDbLine
 10
-3232.500393841725
 20
-114.9999402020439
 30
0.0
 11
-3232.500393841725
 21
4.999211027815491
 31
0.0
  0
LINE
  5
29C
330
1F
100
AcDbEntity
  8
0-4
  6
Continuous
 62
    92
370
    13
100
AcDbLine
 10
-3912.500813458419
 20
30.00053663511096
 30
0.0
 11
-3421.500060055712
 21
30.00053663511096
 31
0.0
  0
LINE
  5
29D
330
1F
100
AcDbEntity
  8
0-4
  6
Continuous
 62
    92
370
    13
100
AcDbLine
 10
-3912.500393841724
 20
35.00005979795617
 30
0.0
 11
-3421.500060055712
 21
35.00005979795617
 31
0.0
  0
LINE
  5
29E
330
1F
100
AcDbEntity
  8
0-4
  6
Continuous
 62
    92
370
    13
100
AcDbLine
 10
-3333.500060055712
 20
-24.99994020204404
 30
0.0
 11
-3421.500393841724
 21
-24.99994020204404
 31
0.0
  0
LINE
  5
29F
330
1F
100
AcDbEntity
  8
0-4
  6
Continuous
 62
    92
370
    13
100
AcDbLine
 10
-3421.500060055712
 20
-24.99994020204404
 30
0.0
 11
-3421.500060055712
 21
35.00005979795617
 31
0.0
  0
LINE
  5
2A0
330
1F
100
AcDbEntity
  8
0-4
  6
Continuous
 62
    92
370
    13
100
AcDbLine
 10
-3421.500393841724
 20
-24.99994020204404
 30
0.0
 11
-3421.500393841724
 21
30.58758993406371
 31
0.0
  0
LINE
  5
2A1
330
1F
100
AcDbEntity
  8
0-B
  6
Continuous
 62
   120
370
     5
100
AcDbLine
 10
-3333.500393841724
 20
185.0000597979562
 30
0.0
 11
-3421.500060055712
 21
185.0000597979562
 31
0.0
  0
LWPOLYLINE
  5
2A2
330
1F
100
AcDbEntity
  8
0-B
  6
Continuous
 62
     7
370
     9
100
AcDbPolyline
 90
        4
 70
     1
 43
3.0
 10
-3420.000060055712
 20
185.0000597979562
 42
0.4142135623731
 10
-3421.500060055712
 20
186.5000597979562
 42
0.4142135623731
 10
-3423.000060055712
 20
185.0000597979562
 42
0.4142135623731
 10
-3421.500060055712
 20
183.5000597979562
 42
0.4142135623731
  0
LINE
  5
2A3
330
1F
100
AcDbEntity
  8
0-B
  6
Continuous
 62
   120
370
     5
100
AcDbLine
 10
-3421.500060055712
 20
185.0000597979562
 30
0.0
 11
-3421.500060055712
 21
85.00005979795674
 31
0.0
  0
LINE
  5
2A4
330
1F
100
AcDbEntity
  8
0-B
  6
Continuous
 62
   120
370
     5
100
AcDbLine
 10
-3421.500060055712
 20
185.0000597979562
 30
0.0
 11
-3942.500393841728
 21
185.0000597979562
 31
0.0
  0
LINE
  5
2A5
330
1F
100
AcDbEntity
  8
0-4
  6
Continuous
 62
    92
370
    13
100
AcDbLine
 10
-3222.499974225019
 20
30.00053663511096
 30
0.0
 11
-3333.500393841724
 21
30.00053663511096
 31
0.0
  0
LINE
  5
2A6
330
1F
100
AcDbEntity
  8
0-4
  6
Continuous
 62
    92
370
    13
100
AcDbLine
 10
-3222.500393841728
 20
35.00005979795617
 30
0.0
 11
-3333.500393841724
 21
35.00005979795617
 31
0.0
  0
LINE
  5
2A7
330
1F
100
AcDbEntity
  8
0-4
  6
Continuous
 62
    92
370
    13
100
AcDbLine
 10
-3333.500393841724
 20
-24.99994020204404
 30
0.0
 11
-3333.500393841724
 21
35.00005979795617
 31
0.0
  0
LINE
  5
2A8
330
1F
100
AcDbEntity
  8
0-4
  6
Continuous
 62
    92
370
    13
100
AcDbLine
 10
-3333.500060055712
 20
30.58758993406371
 30
0.0
 11
-3333.500060055712
 21
-24.99994020204404
 31
0.0
  0
LWPOLYLINE
  5
2A9
330
1F
100
AcDbEntity
  8
0-B
  6
Continuous
 62
     7
370
     9
100
AcDbPolyline
 90
        4
 70
     1
 43
3.0
 10
-3332.000393841724
 20
185.0000597979562
 42
0.4142135623731
 10
-3333.500393841724
 20
186.5000597979562
 42
0.4142135623731
 10
-3335.000393841724
 20
185.0000597979562
 42
0.4142135623731
 10
-3333.500393841724
 20
183.5000597979562
 42
0.4142135623731
  0
LINE
  5
2AA
330
1F
100
AcDbEntity
  8
0-B
  6
Continuous
 62
   120
370
     5
100
AcDbLine
 10
-3333.500393841724
 20
185.0000597979562
 30
0.0
 11
-3333.500393841724
 21
85.00005979795674
 31
0.0
  0
ARC
  5
2AB
330
1F
100
AcDbEntity
  8
0-4
  6
Continuous
 62
    92
370
    13
100
AcDbCircle
 10
-3912.500393841724
 20
5.000059797952545
 30
0.0
 40
30.0
100
AcDbArc
 50
90.0
 51
180.0
  0
ARC
  5
2AC
330
1F
100
AcDbEntity
  8
0-4
  6
Continuous
 62
    92
370
    13
100
AcDbCircle
 10
-3912.500393841724
 20
5.000059797952545
 30
0.0
 40
25.0
100
AcDbArc
 50
90.0
 51
180.0
  0
LINE
  5
2AD
330
1F
100
AcDbEntity
  8
0-0
  6
JWW_HOJO
 62
   120
370
     5
100
AcDbLine
 10
-3942.500393841724
 20
-164.9999402020437
 30
0.0
 11
-3942.500393841724
 21
85.00005979795674
 31
0.0
  0
ARC
  5
2AE
330
1F
100
AcDbEntity
  8
0-4
  6
Continuous
 62
    92
370
    13
100
AcDbCircle
 10
-3222.500393841728
 20
5.000059797952545
 30
0.0
 40
30.0
100
AcDbArc
 50
0.0
 51
90.0
  0
ARC
  5
2AF
330
1F
100
AcDbEntity
  8
0-4
  6
Continuous
 62
    92
370
    13
100
AcDbCircle
 10
-3222.500393841728
 20
5.000059797952545
 30
0.0
 40
25.0
100
AcDbArc
 50
0.0
 51
90.0
  0
LINE
  5
2B0
330
1F
100
AcDbEntity
  8
0-0
  6
JWW_HOJO
 62
   120
370
     5
100
AcDbLine
 10
-3192.500393841724
 20
85.00005979795674
 30
0.0
 11
-3192.500393841724
 21
-164.9999402020437
 31
0.0
  0
LINE
  5
2B1
330
1F
100
AcDbEntity
  8
0-0
  6
JWW_HOJO
 62
   120
370
     5
100
AcDbLine
 10
-3192.500393841724
 20
85.00005979795674
 30
0.0
 11
-3942.500393841724
 21
85.00005979795674
 31
0.0
  0
LINE
  5
2B2
330
1F
100
AcDbEntity
  8
0-0
  6
JWW_HOJO
 62
   120
370
     5
100
AcDbLine
 10
-3942.500393841724
 20
-164.9999402020437
 30
0.0
 11
-3192.500393841724
 21
-164.9999402020437
 31
0.0
  0
LWPOLYLINE
  5
2B3
330
1F
100
AcDbEntity
  8
0-B
  6
Continuous
 62
     7
370
     9
100
AcDbPolyline
 90
        4
 70
     1
 43
3.0
 10
-3191.000393841724
 20
185.0000597979562
 42
0.4142135623731
 10
-3192.500393841724
 20
186.5000597979562
 42
0.4142135623731
 10
-3194.000393841724
 20
185.0000597979562
 42
0.4142135623731
 10
-3192.500393841724
 20
183.5000597979562
 42
0.4142135623731
  0
LINE
  5
2B4
330
1F
100
AcDbEntity
  8
0-B
  6
Continuous
 62
   120
370
     5
100
AcDbLine
 10
-3192.500393841724
 20
185.0000597979562
 30
0.0
 11
-3192.500393841724
 21
85.00005979795674
 31
0.0
  0
LWPOLYLINE
  5
2B5
330
1F
100
AcDbEntity
  8
0-B
  6
Continuous
 62
     7
370
     9
100
AcDbPolyline
 90
        4
 70
     1
 43
3.0
 10
-3941.000393841727
 20
185.0000597979562
 42
0.4142135623731
 10
-3942.500393841728
 20
186.5000597979562
 42
0.4142135623731
 10
-3944.000393841728
 20
185.0000597979562
 42
0.4142135623731
 10
-3942.500393841728
 20
183.5000597979562
 42
0.4142135623731
  0
LINE
  5
2B6
330
1F
100
AcDbEntity
  8
0-B
  6
Continuous
 62
   120
370
     5
100
AcDbLine
 10
-3942.500393841728
 20
185.0000597979562
 30
0.0
 11
-3942.500393841728
 21
85.00005979795674
 31
0.0
  0
LWPOLYLINE
  5
2B7
330
1F
100
AcDbEntity
  8
0-B
  6
Continuous
 62
     7
370
     9
100
AcDbPolyline
 90
        4
 70
     1
 43
3.0
 10
-3191.000393841724
 20
-264.9999402020439
 42
0.4142135623731
 10
-3192.500393841724
 20
-263.4999402020439
 42
0.4142135623731
 10
-3194.000393841724
 20
-264.9999402020439
 42
0.4142135623731
 10
-3192.500393841724
 20
-266.4999402020439
 42
0.4142135623731
  0
LINE
  5
2B8
330
1F
100
AcDbEntity
  8
0-B
  6
Continuous
 62
   120
370
     5
100
AcDbLine
 10
-3192.500393841724
 20
-364.9999402020434
 30
0.0
 11
-3192.500393841724
 21
-164.9999402020437
 31
0.0
  0
LWPOLYLINE
  5
2B9
330
1F
100
AcDbEntity
  8
0-B
  6
Continuous
 62
     7
370
     9
100
AcDbPolyline
 90
        4
 70
     1
 43
3.0
 10
-3941.000393841727
 20
-264.9999402020439
 42
0.4142135623731
 10
-3942.500393841728
 20
-263.4999402020439
 42
0.4142135623731
 10
-3944.000393841728
 20
-264.9999402020439
 42
0.4142135623731
 10
-3942.500393841728
 20
-266.4999402020439
 42
0.4142135623731
  0
LINE
  5
2BA
330
1F
100
AcDbEntity
  8
0-B
  6
Continuous
 62
   120
370
     5
100
AcDbLine
 10
-3942.500393841728
 20
-364.9999402020434
 30
0.0
 11
-3942.500393841728
 21
-164.9999402020437
 31
0.0
  0
LINE
  5
2BB
330
1F
100
AcDbEntity
  8
0-B
  6
Continuous
 62
   120
370
     5
100
AcDbLine
 10
-3192.500393841724
 20
-364.9999402020434
 30
0.0
 11
-3942.500393841728
 21
-364.9999402020434
 31
0.0
  0
LWPOLYLINE
  5
2BC
330
1F
100
AcDbEntity
  8
0-B
  6
Continuous
 62
     7
370
     9
100
AcDbPolyline
 90
        4
 70
     1
 43
3.0
 10
-3191.000393841724
 20
-364.9999402020434
 42
0.4142135623731
 10
-3192.500393841724
 20
-363.4999402020434
 42
0.4142135623731
 10
-3194.000393841724
 20
-364.9999402020434
 42
0.4142135623731
 10
-3192.500393841724
 20
-366.4999402020434
 42
0.4142135623731
  0
LWPOLYLINE
  5
2BD
330
1F
100
AcDbEntity
  8
0-B
  6
Continuous
 62
     7
370
     9
100
AcDbPolyline
 90
        4
 70
     1
 43
3.0
 10
-3941.000393841727
 20
-364.9999402020434
 42
0.4142135623731
 10
-3942.500393841728
 20
-363.4999402020434
 42
0.4142135623731
 10
-3944.000393841728
 20
-364.9999402020434
 42
0.4142135623731
 10
-3942.500393841728
 20
-366.4999402020434
 42
0.4142135623731
  0
ARC
  5
2BE
330
1F
100
AcDbEntity
  8
0-7
  6
Continuous
 62
     7
370
     9
100
AcDbCircle
 10
-3417.071226948719
 20
29.99905979795557
 30
0.0
 40
5.000000000000142
100
AcDbArc
 50
44.99999999999995
 51
89.99999999999996
  0
ARC
  5
2BF
330
1F
100
AcDbEntity
  8
0-7
  6
Continuous
 62
     7
370
     9
100
AcDbCircle
 10
-3398.757226948715
 20
22.99905979795511
 30
0.0
 40
3.000000000000085
100
AcDbArc
 50
224.9999999999999
 51
269.9999999999999
  0
ARC
  5
2C0
330
1F
100
AcDbEntity
  8
0-7
  6
Continuous
 62
     7
370
     9
100
AcDbCircle
 10
-3395.500226948719
 20
17.99905979795518
 30
0.0
 40
2.000000000000057
100
AcDbArc
 50
359.9999999999999
 51
89.99999999999997
  0
ARC
  5
2C1
330
1F
100
AcDbEntity
  8
0-7
  6
Continuous
 62
     7
370
     9
100
AcDbCircle
 10
-3359.500226948717
 20
17.99905979795518
 30
0.0
 40
2.000000000000057
100
AcDbArc
 50
89.99999999999997
 51
180.0
  0
ARC
  5
2C2
330
1F
100
AcDbEntity
  8
0-7
  6
Continuous
 62
     7
370
     9
100
AcDbCircle
 10
-3337.929226948717
 20
29.99905979795557
 30
0.0
 40
5.000000000000142
100
AcDbArc
 50
89.99999999999996
 51
135.0
  0
ARC
  5
2C3
330
1F
100
AcDbEntity
  8
0-7
  6
Continuous
 62
     7
370
     9
100
AcDbCircle
 10
-3356.243226948721
 20
22.99905979795511
 30
0.0
 40
3.000000000000085
100
AcDbArc
 50
270.0
 51
315.0
  0
ARC
  5
2C4
330
1F
100
AcDbEntity
  8
0-7
  6
Continuous
 62
     7
370
     9
100
AcDbCircle
 10
-3418.50022694872
 20
-11.99994020204393
 30
0.0
 40
2.000000000000057
100
AcDbArc
 50
89.99999999999987
 51
201.6159999999999
  0
ARC
  5
2C5
330
1F
100
AcDbEntity
  8
0-7
  6
Continuous
 62
     7
370
     9
100
AcDbCircle
 10
-3390.500226948718
 20
-6.999940202044215
 30
0.0
 40
3.000000000000085
100
AcDbArc
 50
179.9999999999999
 51
269.9999999999999
  0
ARC
  5
2C6
330
1F
100
AcDbEntity
  8
0-7
  6
Continuous
 62
     7
370
     9
100
AcDbCircle
 10
-3364.500226948718
 20
-6.999940202044215
 30
0.0
 40
3.000000000000085
100
AcDbArc
 50
269.9999999999999
 51
359.9999999999999
  0
ARC
  5
2C7
330
1F
100
AcDbEntity
  8
0-7
  6
Continuous
 62
     7
370
     9
100
AcDbCircle
 10
-3336.500226948716
 20
-11.99994020204393
 30
0.0
 40
2.000000000000057
100
AcDbArc
 50
338.384
 51
89.99999999999997
  0
ARC
  5
2C8
330
1F
100
AcDbEntity
  8
0-7
  6
Continuous
 62
     7
370
     9
100
AcDbCircle
 10
-3442.499226948717
 20
2.63905979795517
 30
0.0
 40
30.00000000000085
100
AcDbArc
 50
0.0
 51
48.18999999999998
  0
ARC
  5
2C9
330
1F
100
AcDbEntity
  8
0-7
  6
Continuous
 62
     7
370
     9
100
AcDbCircle
 10
-3312.500226948721
 20
2.63905979795517
 30
0.0
 40
30.00000000000085
100
AcDbArc
 50
131.81
 51
180.0
  0
LINE
  5
2CA
330
1F
100
AcDbEntity
  8
0-7
  6
Continuous
 62
     7
370
     9
100
AcDbLine
 10
-3422.500226948716
 20
34.99905979795528
 30
0.0
 11
-3417.071226948719
 21
34.99905979795528
 31
0.0
  0
LINE
  5
2CB
330
1F
100
AcDbEntity
  8
0-7
  6
Continuous
 62
     7
370
     9
100
AcDbLine
 10
-3422.500226948716
 20
24.99905979795585
 30
0.0
 11
-3422.500226948716
 21
34.99905979795528
 31
0.0
  0
LINE
  5
2CC
330
1F
100
AcDbEntity
  8
0-7
  6
Continuous
 62
     7
370
     9
100
AcDbLine
 10
-3398.757226948715
 20
19.99905979795507
 30
0.0
 11
-3395.500226948719
 21
19.99905979795507
 31
0.0
  0
LINE
  5
2CD
330
1F
100
AcDbEntity
  8
0-7
  6
Continuous
 62
     7
370
     9
100
AcDbLine
 10
-3400.87822694872
 20
20.87805979795526
 30
0.0
 11
-3413.535226948716
 21
33.53505979795443
 31
0.0
  0
LINE
  5
2CE
330
1F
100
AcDbEntity
  8
0-7
  6
Continuous
 62
     7
370
     9
100
AcDbLine
 10
-3356.243226948721
 20
19.99905979795507
 30
0.0
 11
-3359.500226948717
 21
19.99905979795507
 31
0.0
  0
LINE
  5
2CF
330
1F
100
AcDbEntity
  8
0-7
  6
Continuous
 62
     7
370
     9
100
AcDbLine
 10
-3354.121226948719
 20
20.87805979795526
 30
0.0
 11
-3341.46522694872
 21
33.53505979795443
 31
0.0
  0
LINE
  5
2D0
330
1F
100
AcDbEntity
  8
0-7
  6
Continuous
 62
     7
370
     9
100
AcDbLine
 10
-3412.500226948722
 20
-9.999940202044897
 30
0.0
 11
-3418.50022694872
 21
-9.999940202044897
 31
0.0
  0
LINE
  5
2D1
330
1F
100
AcDbEntity
  8
0-7
  6
Continuous
 62
     7
370
     9
100
AcDbLine
 10
-3412.500226948722
 20
-9.999940202044897
 30
0.0
 11
-3412.500226948722
 21
2.63905979795517
 31
0.0
  0
LINE
  5
2D2
330
1F
100
AcDbEntity
  8
0-7
  6
Continuous
 62
     7
370
     9
100
AcDbLine
 10
-3380.50022694872
 20
-9.999940202044897
 30
0.0
 11
-3390.500226948718
 21
-9.999940202044897
 31
0.0
  0
LINE
  5
2D3
330
1F
100
AcDbEntity
  8
0-7
  6
Continuous
 62
     7
370
     9
100
AcDbLine
 10
-3404.500226948716
 20
-24.99994020204404
 30
0.0
 11
-3402.500226948718
 21
-22.99994020204586
 31
0.0
  0
LINE
  5
2D4
330
1F
100
AcDbEntity
  8
0-7
  6
Continuous
 62
     7
370
     9
100
AcDbLine
 10
-3404.500226948716
 20
-24.99994020204404
 30
0.0
 11
-3415.50022694872
 21
-24.99994020204404
 31
0.0
  0
LINE
  5
2D5
330
1F
100
AcDbEntity
  8
0-7
  6
Continuous
 62
     7
370
     9
100
AcDbLine
 10
-3402.500226948718
 20
-22.99994020204586
 30
0.0
 11
-3400.50022694872
 21
-24.99994020204404
 31
0.0
  0
LINE
  5
2D6
330
1F
100
AcDbEntity
  8
0-7
  6
Continuous
 62
     7
370
     9
100
AcDbLine
 10
-3415.50022694872
 20
-24.99994020204404
 30
0.0
 11
-3420.359226948716
 21
-12.73694020204367
 31
0.0
  0
LINE
  5
2D7
330
1F
100
AcDbEntity
  8
0-7
  6
Continuous
 62
     7
370
     9
100
AcDbLine
 10
-3374.500226948716
 20
-9.999940202044897
 30
0.0
 11
-3377.50022694872
 21
-12.99994020204643
 31
0.0
  0
LINE
  5
2D8
330
1F
100
AcDbEntity
  8
0-7
  6
Continuous
 62
     7
370
     9
100
AcDbLine
 10
-3364.500226948718
 20
-9.999940202044897
 30
0.0
 11
-3374.500226948716
 21
-9.999940202044897
 31
0.0
  0
LINE
  5
2D9
330
1F
100
AcDbEntity
  8
0-7
  6
Continuous
 62
     7
370
     9
100
AcDbLine
 10
-3342.500226948721
 20
-9.999940202044897
 30
0.0
 11
-3336.500226948716
 21
-9.999940202044897
 31
0.0
  0
LINE
  5
2DA
330
1F
100
AcDbEntity
  8
0-7
  6
Continuous
 62
     7
370
     9
100
AcDbLine
 10
-3342.500226948721
 20
-9.999940202044897
 30
0.0
 11
-3342.500226948721
 21
2.63905979795517
 31
0.0
  0
LINE
  5
2DB
330
1F
100
AcDbEntity
  8
0-7
  6
Continuous
 62
     7
370
     9
100
AcDbLine
 10
-3350.50022694872
 20
-24.99994020204404
 30
0.0
 11
-3352.500226948719
 21
-22.99994020204586
 31
0.0
  0
LINE
  5
2DC
330
1F
100
AcDbEntity
  8
0-7
  6
Continuous
 62
     7
370
     9
100
AcDbLine
 10
-3352.500226948719
 20
-22.99994020204586
 30
0.0
 11
-3354.500226948717
 21
-24.99994020204404
 31
0.0
  0
LINE
  5
2DD
330
1F
100
AcDbEntity
  8
0-7
  6
Continuous
 62
     7
370
     9
100
AcDbLine
 10
-3350.50022694872
 20
-24.99994020204404
 30
0.0
 11
-3339.50022694872
 21
-24.99994020204404
 31
0.0
  0
LINE
  5
2DE
330
1F
100
AcDbEntity
  8
0-7
  6
Continuous
 62
     7
370
     9
100
AcDbLine
 10
-3339.50022694872
 20
-24.99994020204404
 30
0.0
 11
-3334.64122694872
 21
-12.73694020204367
 31
0.0
  0
LINE
  5
2DF
330
1F
100
AcDbEntity
  8
0-7
  6
Continuous
 62
     7
370
     9
100
AcDbLine
 10
-3377.50022694872
 20
-12.99994020204643
 30
0.0
 11
-3380.50022694872
 21
-9.999940202044897
 31
0.0
  0
LINE
  5
2E0
330
1F
100
AcDbEntity
  8
0-7
  6
Continuous
 62
     7
370
     9
100
AcDbLine
 10
-3400.50022694872
 20
-24.99994020204404
 30
0.0
 11
-3354.500226948717
 21
-24.99994020204404
 31
0.0
  0
LINE
  5
2E1
330
1F
100
AcDbEntity
  8
0-7
  6
Continuous
 62
     7
370
     9
100
AcDbLine
 10
-3361.500226948715
 20
-6.999940202044215
 30
0.0
 11
-3361.500226948715
 21
17.99905979795518
 31
0.0
  0
LINE
  5
2E2
330
1F
100
AcDbEntity
  8
0-7
  6
Continuous
 62
     7
370
     9
100
AcDbLine
 10
-3393.50022694872
 20
-6.999940202044215
 30
0.0
 11
-3393.50022694872
 21
17.99905979795518
 31
0.0
  0
LINE
  5
2E3
330
1F
100
AcDbEntity
  8
0-7
  6
Continuous
 62
     7
370
     9
100
AcDbLine
 10
-3332.50022694872
 20
24.99905979795585
 30
0.0
 11
-3332.50022694872
 21
34.99905979795528
 31
0.0
  0
LINE
  5
2E4
330
1F
100
AcDbEntity
  8
0-7
  6
Continuous
 62
     7
370
     9
100
AcDbLine
 10
-3332.50022694872
 20
34.99905979795528
 30
0.0
 11
-3337.929226948717
 21
34.99905979795528
 31
0.0
  0
MTEXT
  5
2E5
330
1F
100
AcDbEntity
  8
0-B
  6
Continuous
 62
     7
370
   211
100
AcDbMText
 10
-3172.500393841725
 20
173.5763097979564
 30
0.0
 40
77.15249999999999
 41
202.5
 46
0.0
 71
     7
 72
     1
  1
{\fＭＳ ゴシック|b0|i0|c128|p49;14.1}
 73
     1
 44
1.0
  0
MTEXT
  5
2E6
330
1F
100
AcDbEntity
  8
0-B
  6
Continuous
 62
     7
370
   211
100
AcDbMText
 10
-3462.000560734731
 20
173.1000597979564
 30
0.0
 40
76.19999999999999
 41
150.0
 46
0.0
 71
     7
 72
     1
  1
{\fＭＳ ゴシック|b0|i0|c128|p49;8.8}
 73
     1
 44
1.0
  0
MTEXT
  5
2E7
330
1F
100
AcDbEntity
  8
0-B
  6
Continuous
 62
     7
370
   211
100
AcDbMText
 10
-3783.250226948719
 20
173.5763097979564
 30
0.0
 40
77.15249999999999
 41
202.5
 46
0.0
 71
     7
 72
     1
  1
{\fＭＳ ゴシック|b0|i0|c128|p49;52.1}
 73
     1
 44
1.0
  0
MTEXT
  5
2E8
330
1F
100
AcDbEntity
  8
0-B
  6
Continuous
 62
     7
370
   211
100
AcDbMText
 10
-3240.000393841725
 20
-280.7099402020436
 30
0.0
 40
68.58
 41
45.0
 46
0.0
 71
     7
 72
     1
  1
{\fＭＳ ゴシック|b0|i0|c128|p49;4}
 73
     1
 44
1.0
  0
MTEXT
  5
2E9
330
1F
100
AcDbEntity
  8
0-B
  6
Continuous
 62
     7
370
   211
100
AcDbMText
 10
-3616.250317547775
 20
-277.8524402020437
 30
0.0
 40
74.295
 41
97.5
 46
0.0
 71
     7
 72
     1
  1
{\fＭＳ ゴシック|b0|i0|c128|p49;67}
 73
     1
 44
1.0
  0
MTEXT
  5
2EA
330
1F
100
AcDbEntity
  8
0-B
  6
Continuous
 62
     7
370
   211
100
AcDbMText
 10
-3940.000317547775
 20
-280.7099402020436
 30
0.0
 40
68.58
 41
45.0
 46
0.0
 71
     7
 72
     1
  1
{\fＭＳ ゴシック|b0|i0|c128|p49;4}
 73
     1
 44
1.0
  0
MTEXT
  5
2EB
330
1F
100
AcDbEntity
  8
0-B
  6
Continuous
 62
     7
370
   211
100
AcDbMText
 10
-3616.250393841724
 20
-377.852440202044
 30
0.0
 40
74.295
 41
97.5
 46
0.0
 71
     7
 72
     1
  1
{\fＭＳ ゴシック|b0|i0|c128|p49;75}
 73
     1
 44
1.0
  0
LINE
  5
2EC
330
1F
100
AcDbEntity
  8
0-B
  6
Continuous
 62
   120
370
     5
100
AcDbLine
 10
-3042.500393841724
 20
35.00005979795617
 30
0.0
 11
-3042.500393841724
 21
-24.99994020204404
 31
0.0
  0
LWPOLYLINE
  5
2ED
330
1F
100
AcDbEntity
  8
0-B
  6
Continuous
 62
     7
370
     9
100
AcDbPolyline
 90
        4
 70
     1
 43
3.0
 10
-3041.000393841724
 20
35.00005979795617
 42
0.4142135623731
 10
-3042.500393841724
 20
36.50005979795617
 42
0.4142135623731
 10
-3044.000393841724
 20
35.00005979795617
 42
0.4142135623731
 10
-3042.500393841724
 20
33.50005979795617
 42
0.4142135623731
  0
LWPOLYLINE
  5
2EE
330
1F
100
AcDbEntity
  8
0-B
  6
Continuous
 62
     7
370
     9
100
AcDbPolyline
 90
        4
 70
     1
 43
3.0
 10
-3041.000393841724
 20
-24.99994020204404
 42
0.4142135623731
 10
-3042.500393841724
 20
-23.49994020204404
 42
0.4142135623731
 10
-3044.000393841724
 20
-24.99994020204404
 42
0.4142135623731
 10
-3042.500393841724
 20
-26.49994020204404
 42
0.4142135623731
  0
LINE
  5
2EF
330
1F
100
AcDbEntity
  8
0-B
  6
Continuous
 62
   120
370
     5
100
AcDbLine
 10
-3042.500393841724
 20
35.00005979795617
 30
0.0
 11
-3142.500393841724
 21
35.00005979795617
 31
0.0
  0
LINE
  5
2F0
330
1F
100
AcDbEntity
  8
0-B
  6
Continuous
 62
   120
370
     5
100
AcDbLine
 10
-3042.500393841724
 20
-24.99994020204404
 30
0.0
 11
-3142.500393841724
 21
-24.99994020204404
 31
0.0
  0
MTEXT
  5
2F1
330
1F
100
AcDbEntity
  8
0-B
  6
Continuous
 62
     7
370
   211
100
AcDbMText
 10
-3057.500393841724
 20
-28.20994020204405
 30
0.0
 40
68.58
 41
45.0
 46
0.0
 71
     7
 72
     1
  1
{\fＭＳ ゴシック|b0|i0|c128|p49;6}
 11
6.123031769111886E-17
 21
1.0
 31
0.0
 73
     1
 44
1.0
  0
MTEXT
  5
2F2
330
1F
100
AcDbEntity
  8
F-A
  6
Continuous
 62
     7
370
     9
100
AcDbMText
 10
4936.249033580831
 20
-4147.857012699985
 30
0.0
 40
74.295
 41
97.5
 46
0.0
 71
     7
 72
     1
  1
{\fＭＳ ゴシック|b0|i0|c128|p49;01}
 73
     1
 44
1.0
  0
LINE
  5
2F3
330
1F
100
AcDbEntity
  8
0-0
  6
JWW_HOJO
 62
   120
370
     5
100
AcDbLine
 10
1367.500084541934
 20
1647.857339630713
 30
0.0
 11
3187.500084541934
 21
1647.857339630713
 31
0.0
  0
LINE
  5
2F4
330
1F
100
AcDbEntity
  8
0-B
  6
Continuous
 62
   120
370
     5
100
AcDbLine
 10
2542.500084541934
 20
2057.857339630713
 30
0.0
 11
2596.500084541934
 21
2057.857339630713
 31
0.0
  0
LINE
  5
2F5
330
1F
100
AcDbEntity
  8
0-B
  6
Continuous
 62
   120
370
     5
100
AcDbLine
 10
2542.500084541934
 20
1897.857339630713
 30
0.0
 11
2596.500084541934
 21
1897.857339630713
 31
0.0
  0
LWPOLYLINE
  5
2F6
330
1F
100
AcDbEntity
  8
0-B
  6
Continuous
 62
     7
370
     9
100
AcDbPolyline
 90
        4
 70
     1
 43
3.0
 10
2544.000084541934
 20
2057.857339630713
 42
0.4142135623731
 10
2542.500084541934
 20
2059.357339630713
 42
0.4142135623731
 10
2541.000084541934
 20
2057.857339630713
 42
0.4142135623731
 10
2542.500084541934
 20
2056.357339630714
 42
0.4142135623731
  0
LWPOLYLINE
  5
2F7
330
1F
100
AcDbEntity
  8
0-B
  6
Continuous
 62
     7
370
     9
100
AcDbPolyline
 90
        4
 70
     1
 43
3.0
 10
2544.000084541934
 20
1897.857339630713
 42
0.4142135623731
 10
2542.500084541934
 20
1899.357339630713
 42
0.4142135623731
 10
2541.000084541934
 20
1897.857339630713
 42
0.4142135623731
 10
2542.500084541934
 20
1896.357339630713
 42
0.4142135623731
  0
LINE
  5
2F8
330
1F
100
AcDbEntity
  8
0-B
  6
Continuous
 62
   120
370
     5
100
AcDbLine
 10
2542.500084541934
 20
1897.857339630713
 30
0.0
 11
2542.500084541934
 21
2057.857339630713
 31
0.0
  0
LINE
  5
2F9
330
1F
100
AcDbEntity
  8
0-B
  6
Continuous
 62
   120
370
     5
100
AcDbLine
 10
1467.500084541935
 20
1897.857339630713
 30
0.0
 11
1567.500084541935
 21
1897.857339630713
 31
0.0
  0
LINE
  5
2FA
330
1F
100
AcDbEntity
  8
0-B
  6
Continuous
 62
   120
370
     5
100
AcDbLine
 10
1467.500084541935
 20
2197.857339630713
 30
0.0
 11
1567.500084541935
 21
2197.857339630713
 31
0.0
  0
LWPOLYLINE
  5
2FB
330
1F
100
AcDbEntity
  8
0-B
  6
Continuous
 62
     7
370
     9
100
AcDbPolyline
 90
        4
 70
     1
 43
3.0
 10
1469.000084541935
 20
1897.857339630713
 42
0.4142135623731
 10
1467.500084541935
 20
1899.357339630713
 42
0.4142135623731
 10
1466.000084541935
 20
1897.857339630713
 42
0.4142135623731
 10
1467.500084541935
 20
1896.357339630713
 42
0.4142135623731
  0
LWPOLYLINE
  5
2FC
330
1F
100
AcDbEntity
  8
0-B
  6
Continuous
 62
     7
370
     9
100
AcDbPolyline
 90
        4
 70
     1
 43
3.0
 10
1469.000084541935
 20
2197.857339630713
 42
0.4142135623731
 10
1467.500084541935
 20
2199.357339630713
 42
0.4142135623731
 10
1466.000084541935
 20
2197.857339630713
 42
0.4142135623731
 10
1467.500084541935
 20
2196.357339630713
 42
0.4142135623731
  0
LINE
  5
2FD
330
1F
100
AcDbEntity
  8
0-B
  6
Continuous
 62
   120
370
     5
100
AcDbLine
 10
1467.500084541935
 20
2197.857339630713
 30
0.0
 11
1467.500084541935
 21
1897.857339630713
 31
0.0
  0
LWPOLYLINE
  5
2FE
330
1F
100
AcDbEntity
  8
0-B
  6
Continuous
 62
     7
370
     9
100
AcDbPolyline
 90
        4
 70
     1
 43
3.0
 10
3089.000084541934
 20
1747.857339630713
 42
0.4142135623731
 10
3087.500084541935
 20
1749.357339630713
 42
0.4142135623731
 10
3086.000084541935
 20
1747.857339630713
 42
0.4142135623731
 10
3087.500084541935
 20
1746.357339630713
 42
0.4142135623731
  0
LINE
  5
2FF
330
1F
100
AcDbEntity
  8
0-B
  6
Continuous
 62
   120
370
     5
100
AcDbLine
 10
2686.500084541934
 20
1747.857339630713
 30
0.0
 11
3087.500084541935
 21
1747.857339630713
 31
0.0
  0
LINE
  5
300
330
1F
100
AcDbEntity
  8
0-B
  6
Continuous
 62
   120
370
     5
100
AcDbLine
 10
2686.500084541934
 20
1747.857339630713
 30
0.0
 11
2686.500084541934
 21
1847.857339630714
 31
0.0
  0
LWPOLYLINE
  5
301
330
1F
100
AcDbEntity
  8
0-B
  6
Continuous
 62
     7
370
     9
100
AcDbPolyline
 90
        4
 70
     1
 43
3.0
 10
2688.000084541934
 20
1747.857339630713
 42
0.4142135623731
 10
2686.500084541934
 20
1749.357339630713
 42
0.4142135623731
 10
2685.000084541934
 20
1747.857339630713
 42
0.4142135623731
 10
2686.500084541934
 20
1746.357339630713
 42
0.4142135623731
  0
LINE
  5
302
330
1F
100
AcDbEntity
  8
0-B
  6
Continuous
 62
   120
370
     5
100
AcDbLine
 10
2398.500084541934
 20
1747.857339630713
 30
0.0
 11
2686.500084541934
 21
1747.857339630713
 31
0.0
  0
LINE
  5
303
330
1F
100
AcDbEntity
  8
0-B
  6
Continuous
 62
   120
370
     5
100
AcDbLine
 10
2398.500084541934
 20
1747.857339630713
 30
0.0
 11
2398.500084541934
 21
1847.857339630714
 31
0.0
  0
LWPOLYLINE
  5
304
330
1F
100
AcDbEntity
  8
0-B
  6
Continuous
 62
     7
370
     9
100
AcDbPolyline
 90
        4
 70
     1
 43
3.0
 10
2400.000084541934
 20
1747.857339630713
 42
0.4142135623731
 10
2398.500084541934
 20
1749.357339630713
 42
0.4142135623731
 10
2397.000084541935
 20
1747.857339630713
 42
0.4142135623731
 10
2398.500084541934
 20
1746.357339630713
 42
0.4142135623731
  0
LINE
  5
305
330
1F
100
AcDbEntity
  8
0-B
  6
Continuous
 62
   120
370
     5
100
AcDbLine
 10
2306.500084541935
 20
1747.857339630713
 30
0.0
 11
2398.500084541934
 21
1747.857339630713
 31
0.0
  0
LINE
  5
306
330
1F
100
AcDbEntity
  8
0-B
  6
Continuous
 62
   120
370
     5
100
AcDbLine
 10
2306.500084541935
 20
1747.857339630713
 30
0.0
 11
2306.500084541935
 21
1847.857339630714
 31
0.0
  0
LWPOLYLINE
  5
307
330
1F
100
AcDbEntity
  8
0-B
  6
Continuous
 62
     7
370
     9
100
AcDbPolyline
 90
        4
 70
     1
 43
3.0
 10
2308.000084541935
 20
1747.857339630713
 42
0.4142135623731
 10
2306.500084541935
 20
1749.357339630713
 42
0.4142135623731
 10
2305.000084541935
 20
1747.857339630713
 42
0.4142135623731
 10
2306.500084541935
 20
1746.357339630713
 42
0.4142135623731
  0
LINE
  5
308
330
1F
100
AcDbEntity
  8
0-B
  6
Continuous
 62
   120
370
     5
100
AcDbLine
 10
2018.500084541935
 20
1747.857339630713
 30
0.0
 11
2306.500084541935
 21
1747.857339630713
 31
0.0
  0
LINE
  5
309
330
1F
100
AcDbEntity
  8
0-B
  6
Continuous
 62
   120
370
     5
100
AcDbLine
 10
2018.500084541935
 20
1747.857339630713
 30
0.0
 11
2018.500084541935
 21
1847.857339630714
 31
0.0
  0
LWPOLYLINE
  5
30A
330
1F
100
AcDbEntity
  8
0-B
  6
Continuous
 62
     7
370
     9
100
AcDbPolyline
 90
        4
 70
     1
 43
3.0
 10
2020.000084541935
 20
1747.857339630713
 42
0.4142135623731
 10
2018.500084541935
 20
1749.357339630713
 42
0.4142135623731
 10
2017.000084541935
 20
1747.857339630713
 42
0.4142135623731
 10
2018.500084541935
 20
1746.357339630713
 42
0.4142135623731
  0
LWPOLYLINE
  5
30B
330
1F
100
AcDbEntity
  8
0-B
  6
Continuous
 62
     7
370
     9
100
AcDbPolyline
 90
        4
 70
     1
 43
3.0
 10
1619.000084541935
 20
1747.857339630713
 42
0.4142135623731
 10
1617.500084541935
 20
1749.357339630713
 42
0.4142135623731
 10
1616.000084541935
 20
1747.857339630713
 42
0.4142135623731
 10
1617.500084541935
 20
1746.357339630713
 42
0.4142135623731
  0
LINE
  5
30C
330
1F
100
AcDbEntity
  8
0-B
  6
Continuous
 62
   120
370
     5
100
AcDbLine
 10
1617.500084541935
 20
1747.857339630713
 30
0.0
 11
2018.500084541935
 21
1747.857339630713
 31
0.0
  0
LINE
  5
30D
330
1F
100
AcDbEntity
  8
0-4
  6
Continuous
 62
    92
370
    13
100
AcDbLine
 10
2711.500084541934
 20
1902.857339630713
 30
0.0
 11
2711.500084541934
 21
1897.857339630713
 31
0.0
  0
LINE
  5
30E
330
1F
100
AcDbEntity
  8
0-4
  6
Continuous
 62
    92
370
    13
100
AcDbLine
 10
2691.500084541935
 20
1902.857339630713
 30
0.0
 11
2711.500084541934
 21
1902.857339630713
 31
0.0
  0
LINE
  5
30F
330
1F
100
AcDbEntity
  8
0-4
  6
Continuous
 62
    92
370
    13
100
AcDbLine
 10
2013.500084541935
 20
2062.857339630713
 30
0.0
 11
2013.500084541935
 21
1902.857339630713
 31
0.0
  0
LINE
  5
310
330
1F
100
AcDbEntity
  8
0-4
  6
Continuous
 62
    92
370
    13
100
AcDbLine
 10
1993.500084541935
 20
1902.857339630713
 30
0.0
 11
2013.500084541935
 21
1902.857339630713
 31
0.0
  0
LINE
  5
311
330
1F
100
AcDbEntity
  8
0-4
  6
Continuous
 62
    92
370
    13
100
AcDbLine
 10
1993.500084541935
 20
1902.857339630713
 30
0.0
 11
1993.500084541935
 21
1897.857339630713
 31
0.0
  0
LINE
  5
312
330
1F
100
AcDbEntity
  8
0-4
  6
Continuous
 62
    92
370
    13
100
AcDbLine
 10
2013.500084541935
 20
2062.857339630713
 30
0.0
 11
2311.500084541935
 21
2062.857339630713
 31
0.0
  0
LINE
  5
313
330
1F
100
AcDbEntity
  8
0-4
  6
Continuous
 62
    92
370
    13
100
AcDbLine
 10
2311.500084541935
 20
2062.857339630713
 30
0.0
 11
2311.500084541935
 21
1902.857339630713
 31
0.0
  0
LINE
  5
314
330
1F
100
AcDbEntity
  8
0-4
  6
Continuous
 62
    92
370
    13
100
AcDbLine
 10
2311.500084541935
 20
1902.857339630713
 30
0.0
 11
2393.500084541934
 21
1902.857339630713
 31
0.0
  0
LINE
  5
315
330
1F
100
AcDbEntity
  8
0-4
  6
Continuous
 62
    92
370
    13
100
AcDbLine
 10
2393.500084541934
 20
2062.857339630713
 30
0.0
 11
2393.500084541934
 21
1902.857339630713
 31
0.0
  0
LINE
  5
316
330
1F
100
AcDbEntity
  8
0-4
  6
Continuous
 62
    92
370
    13
100
AcDbLine
 10
2393.500084541934
 20
2062.857339630713
 30
0.0
 11
2691.500084541935
 21
2062.857339630713
 31
0.0
  0
LINE
  5
317
330
1F
100
AcDbEntity
  8
0-4
  6
Continuous
 62
    92
370
    13
100
AcDbLine
 10
2691.500084541935
 20
2062.857339630713
 30
0.0
 11
2691.500084541935
 21
1902.857339630713
 31
0.0
  0
LINE
  5
318
330
1F
100
AcDbEntity
  8
0-4
  6
Continuous
 62
    92
370
    13
100
AcDbLine
 10
2686.500084541934
 20
1897.857339630713
 30
0.0
 11
3087.500084541935
 21
1897.857339630713
 31
0.0
  0
LINE
  5
319
330
1F
100
AcDbEntity
  8
0-4
  6
Continuous
 62
    92
370
    13
100
AcDbLine
 10
2686.500084541934
 20
2057.857339630713
 30
0.0
 11
2686.500084541934
 21
1897.857339630713
 31
0.0
  0
LINE
  5
31A
330
1F
100
AcDbEntity
  8
0-4
  6
Continuous
 62
    92
370
    13
100
AcDbLine
 10
2398.500084541934
 20
2057.857339630713
 30
0.0
 11
2398.500084541934
 21
1897.857339630713
 31
0.0
  0
LINE
  5
31B
330
1F
100
AcDbEntity
  8
0-4
  6
Continuous
 62
    92
370
    13
100
AcDbLine
 10
2306.500084541935
 20
1897.857339630713
 30
0.0
 11
2398.500084541934
 21
1897.857339630713
 31
0.0
  0
LINE
  5
31C
330
1F
100
AcDbEntity
  8
0-4
  6
Continuous
 62
    92
370
    13
100
AcDbLine
 10
2306.500084541935
 20
2057.857339630713
 30
0.0
 11
2306.500084541935
 21
1897.857339630713
 31
0.0
  0
LINE
  5
31D
330
1F
100
AcDbEntity
  8
0-4
  6
Continuous
 62
    92
370
    13
100
AcDbLine
 10
1617.500084541935
 20
1897.857339630713
 30
0.0
 11
2018.500084541935
 21
1897.857339630713
 31
0.0
  0
LINE
  5
31E
330
1F
100
AcDbEntity
  8
0-4
  6
Continuous
 62
    92
370
    13
100
AcDbLine
 10
2018.500084541935
 20
2057.857339630713
 30
0.0
 11
2018.500084541935
 21
1897.857339630713
 31
0.0
  0
LINE
  5
31F
330
1F
100
AcDbEntity
  8
0-4
  6
Continuous
 62
    92
370
    13
100
AcDbLine
 10
2398.500084541934
 20
2057.857339630713
 30
0.0
 11
2686.500084541934
 21
2057.857339630713
 31
0.0
  0
LINE
  5
320
330
1F
100
AcDbEntity
  8
0-4
  6
Continuous
 62
    92
370
    13
100
AcDbLine
 10
2018.500084541935
 20
2057.857339630713
 30
0.0
 11
2306.500084541935
 21
2057.857339630713
 31
0.0
  0
LINE
  5
321
330
1F
100
AcDbEntity
  8
0-4
  6
Continuous
 62
    92
370
    13
100
AcDbLine
 10
1617.500084541935
 20
2197.857339630713
 30
0.0
 11
1617.500084541935
 21
1897.857339630713
 31
0.0
  0
LINE
  5
322
330
1F
100
AcDbEntity
  8
0-4
  6
Continuous
 62
    92
370
    13
100
AcDbLine
 10
3087.500084541935
 20
2197.857339630713
 30
0.0
 11
1617.500084541935
 21
2197.857339630713
 31
0.0
  0
LINE
  5
323
330
1F
100
AcDbEntity
  8
0-4
  6
Continuous
 62
    92
370
    13
100
AcDbLine
 10
3087.500084541935
 20
1897.857339630713
 30
0.0
 11
3087.500084541935
 21
2197.857339630713
 31
0.0
  0
LINE
  5
324
330
1F
100
AcDbEntity
  8
0-0
  6
JWW_HOJO
 62
   120
370
     5
100
AcDbLine
 10
3137.500084541934
 20
1847.857339630714
 30
0.0
 11
3137.500084541934
 21
2247.857339630713
 31
0.0
  0
MTEXT
  5
325
330
1F
100
AcDbEntity
  8
0-B
  6
Continuous
 62
     7
370
   211
100
AcDbMText
 10
1467.500084541935
 20
1991.254839630713
 30
0.0
 40
74.295
 41
97.5
 46
0.0
 71
     7
 72
     1
  1
{\fＭＳ ゴシック|b0|i0|c128|p49;30}
 11
6.123031769111886E-17
 21
1.0
 31
0.0
 73
     1
 44
1.0
  0
MTEXT
  5
326
330
1F
100
AcDbEntity
  8
0-B
  6
Continuous
 62
     7
370
   211
100
AcDbMText
 10
2542.500084541934
 20
1921.254839630713
 30
0.0
 40
74.295
 41
97.5
 46
0.0
 71
     7
 72
     1
  1
{\fＭＳ ゴシック|b0|i0|c128|p49;16}
 11
6.123031769111886E-17
 21
1.0
 31
0.0
 73
     1
 44
1.0
  0
MTEXT
  5
327
330
1F
100
AcDbEntity
  8
0-B
  6
Continuous
 62
     7
370
   211
100
AcDbMText
 10
1716.750084541936
 20
1741.433589630713
 30
0.0
 40
77.15249999999999
 41
202.5
 46
0.0
 71
     7
 72
     1
  1
{\fＭＳ ゴシック|b0|i0|c128|p49;40.1}
 73
     1
 44
1.0
  0
MTEXT
  5
328
330
1F
100
AcDbEntity
  8
0-B
  6
Continuous
 62
     7
370
   211
100
AcDbMText
 10
2785.750084541935
 20
1741.433589630713
 30
0.0
 40
77.15249999999999
 41
202.5
 46
0.0
 71
     7
 72
     1
  1
{\fＭＳ ゴシック|b0|i0|c128|p49;40.1}
 73
     1
 44
1.0
  0
LINE
  5
329
330
1F
100
AcDbEntity
  8
0-B
  6
Continuous
 62
   120
370
     5
100
AcDbLine
 10
3087.500084541935
 20
2347.857339630713
 30
0.0
 11
1617.500084541935
 21
2347.857339630713
 31
0.0
  0
LWPOLYLINE
  5
32A
330
1F
100
AcDbEntity
  8
0-B
  6
Continuous
 62
     7
370
     9
100
AcDbPolyline
 90
        4
 70
     1
 43
3.0
 10
3089.000084541934
 20
2347.857339630713
 42
0.4142135623731
 10
3087.500084541935
 20
2349.357339630713
 42
0.4142135623731
 10
3086.000084541935
 20
2347.857339630713
 42
0.4142135623731
 10
3087.500084541935
 20
2346.357339630713
 42
0.4142135623731
  0
LWPOLYLINE
  5
32B
330
1F
100
AcDbEntity
  8
0-B
  6
Continuous
 62
     7
370
     9
100
AcDbPolyline
 90
        4
 70
     1
 43
3.0
 10
1619.000084541935
 20
2347.857339630713
 42
0.4142135623731
 10
1617.500084541935
 20
2349.357339630713
 42
0.4142135623731
 10
1616.000084541935
 20
2347.857339630713
 42
0.4142135623731
 10
1617.500084541935
 20
2346.357339630713
 42
0.4142135623731
  0
LINE
  5
32C
330
1F
100
AcDbEntity
  8
0-B
  6
Continuous
 62
   120
370
     5
100
AcDbLine
 10
3087.500084541935
 20
2347.857339630713
 30
0.0
 11
3087.500084541935
 21
2247.857339630713
 31
0.0
  0
LINE
  5
32D
330
1F
100
AcDbEntity
  8
0-B
  6
Continuous
 62
   120
370
     5
100
AcDbLine
 10
1617.500084541935
 20
2347.857339630713
 30
0.0
 11
1617.500084541935
 21
2247.857339630713
 31
0.0
  0
MTEXT
  5
32E
330
1F
100
AcDbEntity
  8
0-B
  6
Continuous
 62
     7
370
   211
100
AcDbMText
 10
2277.500084541935
 20
2340.957339630713
 30
0.0
 40
76.19999999999999
 41
150.0
 46
0.0
 71
     7
 72
     1
  1
{\fＭＳ ゴシック|b0|i0|c128|p49;147}
 73
     1
 44
1.0
  0
LINE
  5
32F
330
1F
100
AcDbEntity
  8
0-B
  6
Continuous
 62
   120
370
     5
100
AcDbLine
 10
1617.500084541935
 20
1747.857339630713
 30
0.0
 11
1617.500084541935
 21
1847.857339630714
 31
0.0
  0
LINE
  5
330
330
1F
100
AcDbEntity
  8
0-B
  6
Continuous
 62
   120
370
     5
100
AcDbLine
 10
3087.500084541935
 20
1747.857339630713
 30
0.0
 11
3087.500084541935
 21
1847.857339630714
 31
0.0
  0
LINE
  5
331
330
1F
100
AcDbEntity
  8
0-B
  6
Continuous
 62
   120
370
     5
100
AcDbLine
 10
1875.000084541935
 20
3417.143099574968
 30
0.0
 11
1875.000084541935
 21
3317.143099574967
 31
0.0
  0
LINE
  5
332
330
1F
100
AcDbEntity
  8
0-B
  6
Continuous
 62
   120
370
     5
100
AcDbLine
 10
1775.000084541935
 20
3417.143099574968
 30
0.0
 11
1775.000084541935
 21
3317.143099574967
 31
0.0
  0
LWPOLYLINE
  5
333
330
1F
100
AcDbEntity
  8
0-B
  6
Continuous
 62
     7
370
     9
100
AcDbPolyline
 90
        4
 70
     1
 43
3.0
 10
1876.500084541935
 20
3417.143099574968
 42
0.4142135623731
 10
1875.000084541935
 20
3418.643099574968
 42
0.4142135623731
 10
1873.500084541935
 20
3417.143099574968
 42
0.4142135623731
 10
1875.000084541935
 20
3415.643099574968
 42
0.4142135623731
  0
LWPOLYLINE
  5
334
330
1F
100
AcDbEntity
  8
0-B
  6
Continuous
 62
     7
370
     9
100
AcDbPolyline
 90
        4
 70
     1
 43
3.0
 10
1776.500084541935
 20
3417.143099574968
 42
0.4142135623731
 10
1775.000084541935
 20
3418.643099574968
 42
0.4142135623731
 10
1773.500084541935
 20
3417.143099574968
 42
0.4142135623731
 10
1775.000084541935
 20
3415.643099574968
 42
0.4142135623731
  0
LINE
  5
335
330
1F
100
AcDbEntity
  8
0-B
  6
Continuous
 62
   120
370
     5
100
AcDbLine
 10
1775.000084541935
 20
3417.143099574968
 30
0.0
 11
1875.000084541935
 21
3417.143099574968
 31
0.0
  0
LINE
  5
336
330
1F
100
AcDbEntity
  8
0-B
  6
Continuous
 62
   120
370
     5
100
AcDbLine
 10
1525.000084541934
 20
2967.143099574968
 30
0.0
 11
1725.000084541935
 21
2967.143099574968
 31
0.0
  0
LINE
  5
337
330
1F
100
AcDbEntity
  8
0-B
  6
Continuous
 62
   120
370
     5
100
AcDbLine
 10
1525.000084541934
 20
3267.143099574968
 30
0.0
 11
1725.000084541935
 21
3267.143099574968
 31
0.0
  0
LWPOLYLINE
  5
338
330
1F
100
AcDbEntity
  8
0-B
  6
Continuous
 62
     7
370
     9
100
AcDbPolyline
 90
        4
 70
     1
 43
3.0
 10
1526.500084541934
 20
2967.143099574968
 42
0.4142135623731
 10
1525.000084541934
 20
2968.643099574968
 42
0.4142135623731
 10
1523.500084541934
 20
2967.143099574968
 42
0.4142135623731
 10
1525.000084541934
 20
2965.643099574968
 42
0.4142135623731
  0
LWPOLYLINE
  5
339
330
1F
100
AcDbEntity
  8
0-B
  6
Continuous
 62
     7
370
     9
100
AcDbPolyline
 90
        4
 70
     1
 43
3.0
 10
1526.500084541934
 20
3267.143099574968
 42
0.4142135623731
 10
1525.000084541934
 20
3268.643099574968
 42
0.4142135623731
 10
1523.500084541934
 20
3267.143099574968
 42
0.4142135623731
 10
1525.000084541934
 20
3265.643099574968
 42
0.4142135623731
  0
LINE
  5
33A
330
1F
100
AcDbEntity
  8
0-B
  6
Continuous
 62
   120
370
     5
100
AcDbLine
 10
1525.000084541934
 20
3267.143099574968
 30
0.0
 11
1525.000084541934
 21
2967.143099574968
 31
0.0
  0
LWPOLYLINE
  5
33B
330
1F
100
AcDbEntity
  8
0-B
  6
Continuous
 62
     7
370
     9
100
AcDbPolyline
 90
        4
 70
     1
 43
3.0
 10
1626.500084541935
 20
2967.143099574968
 42
0.4142135623731
 10
1625.000084541935
 20
2968.643099574968
 42
0.4142135623731
 10
1623.500084541935
 20
2967.143099574968
 42
0.4142135623731
 10
1625.000084541935
 20
2965.643099574968
 42
0.4142135623731
  0
LINE
  5
33C
330
1F
100
AcDbEntity
  8
0-B
  6
Continuous
 62
   120
370
     5
100
AcDbLine
 10
1625.000084541935
 20
3127.143099574968
 30
0.0
 11
1625.000084541935
 21
2967.143099574968
 31
0.0
  0
LINE
  5
33D
330
1F
100
AcDbEntity
  8
0-B
  6
Continuous
 62
   120
370
     5
100
AcDbLine
 10
1625.000084541935
 20
3127.143099574968
 30
0.0
 11
1725.000084541935
 21
3127.143099574968
 31
0.0
  0
LWPOLYLINE
  5
33E
330
1F
100
AcDbEntity
  8
0-B
  6
Continuous
 62
     7
370
     9
100
AcDbPolyline
 90
        4
 70
     1
 43
3.0
 10
1626.500084541935
 20
3127.143099574968
 42
0.4142135623731
 10
1625.000084541935
 20
3128.643099574967
 42
0.4142135623731
 10
1623.500084541935
 20
3127.143099574968
 42
0.4142135623731
 10
1625.000084541935
 20
3125.643099574968
 42
0.4142135623731
  0
LINE
  5
33F
330
1F
100
AcDbEntity
  8
0-B
  6
Continuous
 62
   120
370
     5
100
AcDbLine
 10
1625.000084541935
 20
3217.143099574968
 30
0.0
 11
1625.000084541935
 21
3127.143099574968
 31
0.0
  0
LINE
  5
340
330
1F
100
AcDbEntity
  8
0-B
  6
Continuous
 62
   120
370
     5
100
AcDbLine
 10
1625.000084541935
 20
3217.143099574968
 30
0.0
 11
1725.000084541935
 21
3217.143099574968
 31
0.0
  0
LWPOLYLINE
  5
341
330
1F
100
AcDbEntity
  8
0-B
  6
Continuous
 62
     7
370
     9
100
AcDbPolyline
 90
        4
 70
     1
 43
3.0
 10
1626.500084541935
 20
3217.143099574968
 42
0.4142135623731
 10
1625.000084541935
 20
3218.643099574967
 42
0.4142135623731
 10
1623.500084541935
 20
3217.143099574968
 42
0.4142135623731
 10
1625.000084541935
 20
3215.643099574968
 42
0.4142135623731
  0
LWPOLYLINE
  5
342
330
1F
100
AcDbEntity
  8
0-B
  6
Continuous
 62
     7
370
     9
100
AcDbPolyline
 90
        4
 70
     1
 43
3.0
 10
1626.500084541935
 20
3267.143099574968
 42
0.4142135623731
 10
1625.000084541935
 20
3268.643099574968
 42
0.4142135623731
 10
1623.500084541935
 20
3267.143099574968
 42
0.4142135623731
 10
1625.000084541935
 20
3265.643099574968
 42
0.4142135623731
  0
LINE
  5
343
330
1F
100
AcDbEntity
  8
0-B
  6
Continuous
 62
   120
370
     5
100
AcDbLine
 10
1625.000084541935
 20
3267.143099574968
 30
0.0
 11
1625.000084541935
 21
3217.143099574968
 31
0.0
  0
LINE
  5
344
330
1F
100
AcDbEntity
  8
0-0
  6
JWW_HOJO
 62
   120
370
     5
100
AcDbLine
 10
3025.000084541934
 20
2717.143099574968
 30
0.0
 11
1525.000084541936
 21
2717.143099574968
 31
0.0
  0
LINE
  5
345
330
1F
100
AcDbEntity
  8
0-0
  6
JWW_HOJO
 62
   120
370
     5
100
AcDbLine
 10
3025.000084541934
 20
2817.143099574968
 30
0.0
 11
1525.000084541936
 21
2817.143099574968
 31
0.0
  0
LINE
  5
346
330
1F
100
AcDbEntity
  8
0-4
  6
Continuous
 62
    92
370
    13
100
AcDbLine
 10
1775.000084541936
 20
3127.143099574968
 30
0.0
 11
1775.000084541936
 21
2967.143099574968
 31
0.0
  0
LINE
  5
347
330
1F
100
AcDbEntity
  8
0-4
  6
Continuous
 62
    92
370
    13
100
AcDbLine
 10
1875.000084541935
 20
3127.143099574968
 30
0.0
 11
1775.000084541936
 21
3127.143099574968
 31
0.0
  0
LINE
  5
348
330
1F
100
AcDbEntity
  8
0-4
  6
Continuous
 62
    92
370
    13
100
AcDbLine
 10
1775.000084541936
 20
3267.143099574968
 30
0.0
 11
1775.000084541936
 21
3217.143099574968
 31
0.0
  0
LINE
  5
349
330
1F
100
AcDbEntity
  8
0-4
  6
Continuous
 62
    92
370
    13
100
AcDbLine
 10
1875.000084541935
 20
3217.143099574968
 30
0.0
 11
1775.000084541936
 21
3217.143099574968
 31
0.0
  0
LINE
  5
34A
330
1F
100
AcDbEntity
  8
0-4
  6
Continuous
 62
    92
370
    13
100
AcDbLine
 10
2875.000084541936
 20
3217.143099574968
 30
0.0
 11
2875.000084541936
 21
3267.143099574968
 31
0.0
  0
LINE
  5
34B
330
1F
100
AcDbEntity
  8
0-4
  6
Continuous
 62
    92
370
    13
100
AcDbLine
 10
2775.000084541935
 20
3217.143099574968
 30
0.0
 11
2875.000084541936
 21
3217.143099574968
 31
0.0
  0
LINE
  5
34C
330
1F
100
AcDbEntity
  8
0-4
  6
Continuous
 62
    92
370
    13
100
AcDbLine
 10
2775.000084541935
 20
3127.143099574968
 30
0.0
 11
2875.000084541936
 21
3127.143099574968
 31
0.0
  0
LINE
  5
34D
330
1F
100
AcDbEntity
  8
0-4
  6
Continuous
 62
    92
370
    13
100
AcDbLine
 10
2875.000084541936
 20
2967.143099574968
 30
0.0
 11
2875.000084541936
 21
3127.143099574968
 31
0.0
  0
LINE
  5
34E
330
1F
100
AcDbEntity
  8
0-4
  6
Continuous
 62
    92
370
    13
100
AcDbLine
 10
2775.000084541935
 20
3217.143099574968
 30
0.0
 11
2775.000084541935
 21
3127.143099574968
 31
0.0
  0
LINE
  5
34F
330
1F
100
AcDbEntity
  8
0-4
  6
Continuous
 62
    92
370
    13
100
AcDbLine
 10
1875.000084541935
 20
3217.143099574968
 30
0.0
 11
1875.000084541935
 21
3127.143099574968
 31
0.0
  0
LINE
  5
350
330
1F
100
AcDbEntity
  8
0-B
  6
Continuous
 62
   120
370
     5
100
AcDbLine
 10
2515.000084541936
 20
3127.143099574968
 30
0.0
 11
2569.000084541935
 21
3127.143099574968
 31
0.0
  0
LINE
  5
351
330
1F
100
AcDbEntity
  8
0-B
  6
Continuous
 62
   120
370
     5
100
AcDbLine
 10
2515.000084541936
 20
2967.143099574968
 30
0.0
 11
2569.000084541935
 21
2967.143099574968
 31
0.0
  0
LWPOLYLINE
  5
352
330
1F
100
AcDbEntity
  8
0-B
  6
Continuous
 62
     7
370
     9
100
AcDbPolyline
 90
        4
 70
     1
 43
3.0
 10
2516.500084541936
 20
3127.143099574968
 42
0.4142135623731
 10
2515.000084541936
 20
3128.643099574967
 42
0.4142135623731
 10
2513.500084541936
 20
3127.143099574968
 42
0.4142135623731
 10
2515.000084541936
 20
3125.643099574968
 42
0.4142135623731
  0
LWPOLYLINE
  5
353
330
1F
100
AcDbEntity
  8
0-B
  6
Continuous
 62
     7
370
     9
100
AcDbPolyline
 90
        4
 70
     1
 43
3.0
 10
2516.500084541936
 20
2967.143099574968
 42
0.4142135623731
 10
2515.000084541936
 20
2968.643099574968
 42
0.4142135623731
 10
2513.500084541936
 20
2967.143099574968
 42
0.4142135623731
 10
2515.000084541936
 20
2965.643099574968
 42
0.4142135623731
  0
LINE
  5
354
330
1F
100
AcDbEntity
  8
0-B
  6
Continuous
 62
   120
370
     5
100
AcDbLine
 10
2515.000084541936
 20
2967.143099574968
 30
0.0
 11
2515.000084541936
 21
3127.143099574968
 31
0.0
  0
LWPOLYLINE
  5
355
330
1F
100
AcDbEntity
  8
0-B
  6
Continuous
 62
     7
370
     9
100
AcDbPolyline
 90
        4
 70
     1
 43
3.0
 10
2876.500084541936
 20
2817.143099574968
 42
0.4142135623731
 10
2875.000084541936
 20
2818.643099574968
 42
0.4142135623731
 10
2873.500084541936
 20
2817.143099574968
 42
0.4142135623731
 10
2875.000084541936
 20
2815.643099574968
 42
0.4142135623731
  0
LINE
  5
356
330
1F
100
AcDbEntity
  8
0-B
  6
Continuous
 62
   120
370
     5
100
AcDbLine
 10
2659.000084541935
 20
2817.143099574968
 30
0.0
 11
2875.000084541936
 21
2817.143099574968
 31
0.0
  0
LINE
  5
357
330
1F
100
AcDbEntity
  8
0-B
  6
Continuous
 62
   120
370
     5
100
AcDbLine
 10
2659.000084541935
 20
2817.143099574968
 30
0.0
 11
2659.000084541935
 21
2917.143099574968
 31
0.0
  0
LWPOLYLINE
  5
358
330
1F
100
AcDbEntity
  8
0-B
  6
Continuous
 62
     7
370
     9
100
AcDbPolyline
 90
        4
 70
     1
 43
3.0
 10
2660.500084541935
 20
2817.143099574968
 42
0.4142135623731
 10
2659.000084541935
 20
2818.643099574968
 42
0.4142135623731
 10
2657.500084541935
 20
2817.143099574968
 42
0.4142135623731
 10
2659.000084541935
 20
2815.643099574968
 42
0.4142135623731
  0
LINE
  5
359
330
1F
100
AcDbEntity
  8
0-B
  6
Continuous
 62
   120
370
     5
100
AcDbLine
 10
2371.000084541935
 20
2817.143099574968
 30
0.0
 11
2659.000084541935
 21
2817.143099574968
 31
0.0
  0
LINE
  5
35A
330
1F
100
AcDbEntity
  8
0-B
  6
Continuous
 62
   120
370
     5
100
AcDbLine
 10
2371.000084541935
 20
2817.143099574968
 30
0.0
 11
2371.000084541935
 21
2917.143099574968
 31
0.0
  0
LWPOLYLINE
  5
35B
330
1F
100
AcDbEntity
  8
0-B
  6
Continuous
 62
     7
370
     9
100
AcDbPolyline
 90
        4
 70
     1
 43
3.0
 10
2372.500084541935
 20
2817.143099574968
 42
0.4142135623731
 10
2371.000084541935
 20
2818.643099574968
 42
0.4142135623731
 10
2369.500084541935
 20
2817.143099574968
 42
0.4142135623731
 10
2371.000084541935
 20
2815.643099574968
 42
0.4142135623731
  0
LINE
  5
35C
330
1F
100
AcDbEntity
  8
0-B
  6
Continuous
 62
   120
370
     5
100
AcDbLine
 10
2279.000084541936
 20
2817.143099574968
 30
0.0
 11
2371.000084541935
 21
2817.143099574968
 31
0.0
  0
LINE
  5
35D
330
1F
100
AcDbEntity
  8
0-B
  6
Continuous
 62
   120
370
     5
100
AcDbLine
 10
2279.000084541936
 20
2817.143099574968
 30
0.0
 11
2279.000084541936
 21
2917.143099574968
 31
0.0
  0
LWPOLYLINE
  5
35E
330
1F
100
AcDbEntity
  8
0-B
  6
Continuous
 62
     7
370
     9
100
AcDbPolyline
 90
        4
 70
     1
 43
3.0
 10
2280.500084541936
 20
2817.143099574968
 42
0.4142135623731
 10
2279.000084541936
 20
2818.643099574968
 42
0.4142135623731
 10
2277.500084541936
 20
2817.143099574968
 42
0.4142135623731
 10
2279.000084541936
 20
2815.643099574968
 42
0.4142135623731
  0
LINE
  5
35F
330
1F
100
AcDbEntity
  8
0-B
  6
Continuous
 62
   120
370
     5
100
AcDbLine
 10
1991.000084541935
 20
2817.143099574968
 30
0.0
 11
2279.000084541936
 21
2817.143099574968
 31
0.0
  0
LINE
  5
360
330
1F
100
AcDbEntity
  8
0-B
  6
Continuous
 62
   120
370
     5
100
AcDbLine
 10
1991.000084541935
 20
2817.143099574968
 30
0.0
 11
1991.000084541935
 21
2917.143099574968
 31
0.0
  0
LWPOLYLINE
  5
361
330
1F
100
AcDbEntity
  8
0-B
  6
Continuous
 62
     7
370
     9
100
AcDbPolyline
 90
        4
 70
     1
 43
3.0
 10
1992.500084541935
 20
2817.143099574968
 42
0.4142135623731
 10
1991.000084541935
 20
2818.643099574968
 42
0.4142135623731
 10
1989.500084541935
 20
2817.143099574968
 42
0.4142135623731
 10
1991.000084541935
 20
2815.643099574968
 42
0.4142135623731
  0
LWPOLYLINE
  5
362
330
1F
100
AcDbEntity
  8
0-B
  6
Continuous
 62
     7
370
     9
100
AcDbPolyline
 90
        4
 70
     1
 43
3.0
 10
1776.500084541936
 20
2817.143099574968
 42
0.4142135623731
 10
1775.000084541936
 20
2818.643099574968
 42
0.4142135623731
 10
1773.500084541936
 20
2817.143099574968
 42
0.4142135623731
 10
1775.000084541936
 20
2815.643099574968
 42
0.4142135623731
  0
LINE
  5
363
330
1F
100
AcDbEntity
  8
0-B
  6
Continuous
 62
   120
370
     5
100
AcDbLine
 10
1775.000084541936
 20
2817.143099574968
 30
0.0
 11
1991.000084541935
 21
2817.143099574968
 31
0.0
  0
LINE
  5
364
330
1F
100
AcDbEntity
  8
0-4
  6
Continuous
 62
    92
370
    13
100
AcDbLine
 10
2659.000084541935
 20
2967.143099574968
 30
0.0
 11
2659.000084541935
 21
3127.143099574968
 31
0.0
  0
LINE
  5
365
330
1F
100
AcDbEntity
  8
0-4
  6
Continuous
 62
    92
370
    13
100
AcDbLine
 10
2659.000084541935
 20
2967.143099574968
 30
0.0
 11
2875.000084541936
 21
2967.143099574968
 31
0.0
  0
LINE
  5
366
330
1F
100
AcDbEntity
  8
0-4
  6
Continuous
 62
    92
370
    13
100
AcDbLine
 10
2279.000084541936
 20
2967.143099574968
 30
0.0
 11
2371.000084541935
 21
2967.143099574968
 31
0.0
  0
LINE
  5
367
330
1F
100
AcDbEntity
  8
0-4
  6
Continuous
 62
    92
370
    13
100
AcDbLine
 10
2371.000084541935
 20
2967.143099574968
 30
0.0
 11
2371.000084541935
 21
3127.143099574968
 31
0.0
  0
LINE
  5
368
330
1F
100
AcDbEntity
  8
0-4
  6
Continuous
 62
    92
370
    13
100
AcDbLine
 10
2279.000084541936
 20
3127.143099574968
 30
0.0
 11
2279.000084541936
 21
2967.143099574968
 31
0.0
  0
LINE
  5
369
330
1F
100
AcDbEntity
  8
0-4
  6
Continuous
 62
    92
370
    13
100
AcDbLine
 10
1991.000084541935
 20
3127.143099574968
 30
0.0
 11
1991.000084541935
 21
2967.143099574968
 31
0.0
  0
LINE
  5
36A
330
1F
100
AcDbEntity
  8
0-4
  6
Continuous
 62
    92
370
    13
100
AcDbLine
 10
1775.000084541936
 20
2967.143099574968
 30
0.0
 11
1991.000084541935
 21
2967.143099574968
 31
0.0
  0
LINE
  5
36B
330
1F
100
AcDbEntity
  8
0-4
  6
Continuous
 62
    92
370
    13
100
AcDbLine
 10
2664.000084541935
 20
2972.143099574968
 30
0.0
 11
2684.000084541935
 21
2972.143099574968
 31
0.0
  0
LINE
  5
36C
330
1F
100
AcDbEntity
  8
0-4
  6
Continuous
 62
    92
370
    13
100
AcDbLine
 10
2684.000084541935
 20
2967.143099574968
 30
0.0
 11
2684.000084541935
 21
2972.143099574968
 31
0.0
  0
LINE
  5
36D
330
1F
100
AcDbEntity
  8
0-4
  6
Continuous
 62
    92
370
    13
100
AcDbLine
 10
1966.000084541936
 20
2972.143099574968
 30
0.0
 11
1986.000084541935
 21
2972.143099574968
 31
0.0
  0
LINE
  5
36E
330
1F
100
AcDbEntity
  8
0-4
  6
Continuous
 62
    92
370
    13
100
AcDbLine
 10
1966.000084541936
 20
2972.143099574968
 30
0.0
 11
1966.000084541936
 21
2967.143099574968
 31
0.0
  0
LINE
  5
36F
330
1F
100
AcDbEntity
  8
0-4
  6
Continuous
 62
    92
370
    13
100
AcDbLine
 10
2664.000084541935
 20
2972.143099574968
 30
0.0
 11
2664.000084541935
 21
3132.143099574968
 31
0.0
  0
LINE
  5
370
330
1F
100
AcDbEntity
  8
0-4
  6
Continuous
 62
    92
370
    13
100
AcDbLine
 10
2366.000084541935
 20
3132.143099574968
 30
0.0
 11
2664.000084541935
 21
3132.143099574968
 31
0.0
  0
LINE
  5
371
330
1F
100
AcDbEntity
  8
0-4
  6
Continuous
 62
    92
370
    13
100
AcDbLine
 10
2366.000084541935
 20
2972.143099574968
 30
0.0
 11
2366.000084541935
 21
3132.143099574968
 31
0.0
  0
LINE
  5
372
330
1F
100
AcDbEntity
  8
0-4
  6
Continuous
 62
    92
370
    13
100
AcDbLine
 10
2284.000084541935
 20
2972.143099574968
 30
0.0
 11
2366.000084541935
 21
2972.143099574968
 31
0.0
  0
LINE
  5
373
330
1F
100
AcDbEntity
  8
0-4
  6
Continuous
 62
    92
370
    13
100
AcDbLine
 10
2284.000084541935
 20
3132.143099574968
 30
0.0
 11
2284.000084541935
 21
2972.143099574968
 31
0.0
  0
LINE
  5
374
330
1F
100
AcDbEntity
  8
0-4
  6
Continuous
 62
    92
370
    13
100
AcDbLine
 10
1986.000084541935
 20
3132.143099574968
 30
0.0
 11
2284.000084541935
 21
3132.143099574968
 31
0.0
  0
LINE
  5
375
330
1F
100
AcDbEntity
  8
0-4
  6
Continuous
 62
    92
370
    13
100
AcDbLine
 10
1986.000084541935
 20
3132.143099574968
 30
0.0
 11
1986.000084541935
 21
2972.143099574968
 31
0.0
  0
LINE
  5
376
330
1F
100
AcDbEntity
  8
0-4
  6
Continuous
 62
    92
370
    13
100
AcDbLine
 10
2371.000084541935
 20
3127.143099574968
 30
0.0
 11
2659.000084541935
 21
3127.143099574968
 31
0.0
  0
LINE
  5
377
330
1F
100
AcDbEntity
  8
0-4
  6
Continuous
 62
    92
370
    13
100
AcDbLine
 10
1991.000084541935
 20
3127.143099574968
 30
0.0
 11
2279.000084541936
 21
3127.143099574968
 31
0.0
  0
LINE
  5
378
330
1F
100
AcDbEntity
  8
0-4
  6
Continuous
 62
    92
370
    13
100
AcDbLine
 10
2875.000084541936
 20
3267.143099574968
 30
0.0
 11
1775.000084541936
 21
3267.143099574968
 31
0.0
  0
LINE
  5
379
330
1F
100
AcDbEntity
  8
0-0
  6
JWW_HOJO
 62
   120
370
     5
100
AcDbLine
 10
2925.000084541935
 20
3317.143099574967
 30
0.0
 11
2925.000084541935
 21
2917.143099574968
 31
0.0
  0
LINE
  5
37A
330
1F
100
AcDbEntity
  8
0-0
  6
JWW_HOJO
 62
   120
370
     5
100
AcDbLine
 10
2925.000084541935
 20
3317.143099574967
 30
0.0
 11
1725.000084541935
 21
3317.143099574967
 31
0.0
  0
LINE
  5
37B
330
1F
100
AcDbEntity
  8
0-0
  6
JWW_HOJO
 62
   120
370
     5
100
AcDbLine
 10
1725.000084541935
 20
3317.143099574967
 30
0.0
 11
1725.000084541935
 21
2717.143099574968
 31
0.0
  0
LINE
  5
37C
330
1F
100
AcDbEntity
  8
0-0
  6
JWW_HOJO
 62
   120
370
     5
100
AcDbLine
 10
2925.000084541935
 20
2917.143099574968
 30
0.0
 11
1725.000084541935
 21
2917.143099574968
 31
0.0
  0
MTEXT
  5
37D
330
1F
100
AcDbEntity
  8
0-B
  6
Continuous
 62
     7
370
   211
100
AcDbMText
 10
1776.250084541934
 20
3409.290599574968
 30
0.0
 40
74.295
 41
97.5
 46
0.0
 71
     7
 72
     1
  1
{\fＭＳ ゴシック|b0|i0|c128|p49;10}
 73
     1
 44
1.0
  0
MTEXT
  5
37E
330
1F
100
AcDbEntity
  8
0-B
  6
Continuous
 62
     7
370
   211
100
AcDbMText
 10
1625.000084541935
 20
3208.933099574967
 30
0.0
 40
68.58
 41
45.0
 46
0.0
 71
     7
 72
     1
  1
{\fＭＳ ゴシック|b0|i0|c128|p49;5}
 11
6.123031769111886E-17
 21
1.0
 31
0.0
 73
     1
 44
1.0
  0
MTEXT
  5
37F
330
1F
100
AcDbEntity
  8
0-B
  6
Continuous
 62
     7
370
   211
100
AcDbMText
 10
1625.000084541935
 20
3138.933099574968
 30
0.0
 40
68.58
 41
45.0
 46
0.0
 71
     7
 72
     1
  1
{\fＭＳ ゴシック|b0|i0|c128|p49;9}
 11
6.123031769111886E-17
 21
1.0
 31
0.0
 73
     1
 44
1.0
  0
MTEXT
  5
380
330
1F
100
AcDbEntity
  8
0-B
  6
Continuous
 62
     7
370
   211
100
AcDbMText
 10
1525.000084541934
 20
3060.540599574966
 30
0.0
 40
74.2950000000026
 41
97.50000000000341
 46
0.0
 71
     7
 72
     1
  1
{\fＭＳ ゴシック|b0|i0|c128|p49;30}
 11
6.123031769111886E-17
 21
1.0
 31
0.0
 73
     1
 44
1.0
  0
MTEXT
  5
381
330
1F
100
AcDbEntity
  8
0-B
  6
Continuous
 62
     7
370
   211
100
AcDbMText
 10
1625.000084541935
 20
2990.540599574968
 30
0.0
 40
74.295
 41
97.5
 46
0.0
 71
     7
 72
     1
  1
{\fＭＳ ゴシック|b0|i0|c128|p49;16}
 11
6.123031769111886E-17
 21
1.0
 31
0.0
 73
     1
 44
1.0
  0
MTEXT
  5
382
330
1F
100
AcDbEntity
  8
0-B
  6
Continuous
 62
     7
370
   211
100
AcDbMText
 10
2515.000084541936
 20
2990.540599574968
 30
0.0
 40
74.295
 41
97.5
 46
0.0
 71
     7
 72
     1
  1
{\fＭＳ ゴシック|b0|i0|c128|p49;16}
 11
6.123031769111886E-17
 21
1.0
 31
0.0
 73
     1
 44
1.0
  0
MTEXT
  5
383
330
1F
100
AcDbEntity
  8
0-B
  6
Continuous
 62
     7
370
   211
100
AcDbMText
 10
1781.750084541935
 20
2810.719349574968
 30
0.0
 40
77.15249999999999
 41
202.5
 46
0.0
 71
     7
 72
     1
  1
{\fＭＳ ゴシック|b0|i0|c128|p49;21.6}
 73
     1
 44
1.0
  0
MTEXT
  5
384
330
1F
100
AcDbEntity
  8
0-B
  6
Continuous
 62
     7
370
   211
100
AcDbMText
 10
2665.750084541935
 20
2810.719349574968
 30
0.0
 40
77.15249999999999
 41
202.5
 46
0.0
 71
     7
 72
     1
  1
{\fＭＳ ゴシック|b0|i0|c128|p49;21.6}
 73
     1
 44
1.0
  0
MTEXT
  5
385
330
1F
100
AcDbEntity
  8
0-B
  6
Continuous
 62
     7
370
   211
100
AcDbMText
 10
2033.750084541936
 20
2810.719349574968
 30
0.0
 40
77.15249999999999
 41
202.5
 46
0.0
 71
     7
 72
     1
  1
{\fＭＳ ゴシック|b0|i0|c128|p49;28.8}
 73
     1
 44
1.0
  0
MTEXT
  5
386
330
1F
100
AcDbEntity
  8
0-B
  6
Continuous
 62
     7
370
   211
100
AcDbMText
 10
2413.750084541935
 20
2810.719349574968
 30
0.0
 40
77.15249999999999
 41
202.5
 46
0.0
 71
     7
 72
     1
  1
{\fＭＳ ゴシック|b0|i0|c128|p49;28.8}
 73
     1
 44
1.0
  0
LINE
  5
387
330
1F
100
AcDbEntity
  8
0-B
  6
Continuous
 62
   120
370
     5
100
AcDbLine
 10
1775.000084541936
 20
3517.143099574969
 30
0.0
 11
2875.000084541936
 21
3517.143099574969
 31
0.0
  0
LWPOLYLINE
  5
388
330
1F
100
AcDbEntity
  8
0-B
  6
Continuous
 62
     7
370
     9
100
AcDbPolyline
 90
        4
 70
     1
 43
3.0
 10
1776.500084541936
 20
3517.143099574969
 42
0.4142135623731
 10
1775.000084541936
 20
3518.643099574969
 42
0.4142135623731
 10
1773.500084541936
 20
3517.143099574969
 42
0.4142135623731
 10
1775.000084541936
 20
3515.643099574969
 42
0.4142135623731
  0
LWPOLYLINE
  5
389
330
1F
100
AcDbEntity
  8
0-B
  6
Continuous
 62
     7
370
     9
100
AcDbPolyline
 90
        4
 70
     1
 43
3.0
 10
2876.500084541936
 20
3517.143099574969
 42
0.4142135623731
 10
2875.000084541936
 20
3518.643099574969
 42
0.4142135623731
 10
2873.500084541936
 20
3517.143099574969
 42
0.4142135623731
 10
2875.000084541936
 20
3515.643099574969
 42
0.4142135623731
  0
LINE
  5
38A
330
1F
100
AcDbEntity
  8
0-B
  6
Continuous
 62
   120
370
     5
100
AcDbLine
 10
1775.000084541936
 20
3517.143099574969
 30
0.0
 11
1775.000084541936
 21
3417.143099574968
 31
0.0
  0
LINE
  5
38B
330
1F
100
AcDbEntity
  8
0-B
  6
Continuous
 62
   120
370
     5
100
AcDbLine
 10
2875.000084541936
 20
3517.143099574969
 30
0.0
 11
2875.000084541936
 21
3417.143099574968
 31
0.0
  0
MTEXT
  5
38C
330
1F
100
AcDbEntity
  8
0-B
  6
Continuous
 62
     7
370
   211
100
AcDbMText
 10
2250.000084541936
 20
3510.243099574969
 30
0.0
 40
76.19999999999999
 41
150.0
 46
0.0
 71
     7
 72
     1
  1
{\fＭＳ ゴシック|b0|i0|c128|p49;110}
 73
     1
 44
1.0
  0
LINE
  5
38D
330
1F
100
AcDbEntity
  8
0-B
  6
Continuous
 62
   120
370
     5
100
AcDbLine
 10
2875.000084541936
 20
2817.143099574968
 30
0.0
 11
2875.000084541936
 21
2917.143099574968
 31
0.0
  0
LINE
  5
38E
330
1F
100
AcDbEntity
  8
0-B
  6
Continuous
 62
   120
370
     5
100
AcDbLine
 10
1775.000084541936
 20
2817.143099574968
 30
0.0
 11
1775.000084541936
 21
2917.143099574968
 31
0.0
  0
MTEXT
  5
38F
330
1F
100
AcDbEntity
  8
0-B
  6
Continuous
 62
     7
370
   211
100
AcDbMText
 10
2250.000084541935
 20
2710.243099574968
 30
0.0
 40
76.19999999999999
 41
150.0
 46
0.0
 71
     7
 72
     1
  1
{\fＭＳ ゴシック|b0|i0|c128|p49;9.2}
 73
     1
 44
1.0
  0
MTEXT
  5
390
330
1F
100
AcDbEntity
  8
0-B
  6
Continuous
 62
     7
370
   211
100
AcDbMText
 10
2061.250084541935
 20
1741.433589630713
 30
0.0
 40
77.15249999999999
 41
202.5
 46
0.0
 71
     7
 72
     1
  1
{\fＭＳ ゴシック|b0|i0|c128|p49;28.8}
 73
     1
 44
1.0
  0
MTEXT
  5
391
330
1F
100
AcDbEntity
  8
0-B
  6
Continuous
 62
     7
370
   211
100
AcDbMText
 10
2277.500084541935
 20
1640.957339630713
 30
0.0
 40
76.19999999999999
 41
150.0
 46
0.0
 71
     7
 72
     1
  1
{\fＭＳ ゴシック|b0|i0|c128|p49;9.2}
 73
     1
 44
1.0
  0
MTEXT
  5
392
330
1F
100
AcDbEntity
  8
0-B
  6
Continuous
 62
     7
370
   211
100
AcDbMText
 10
2441.250084541934
 20
1741.433589630713
 30
0.0
 40
77.15249999999999
 41
202.5
 46
0.0
 71
     7
 72
     1
  1
{\fＭＳ ゴシック|b0|i0|c128|p49;28.8}
 73
     1
 44
1.0
  0
LINE
  5
393
330
1F
100
AcDbEntity
  8
0-B
  6
Continuous
 62
   120
370
     5
100
AcDbLine
 10
1317.500084541936
 20
824.2858197422083
 30
0.0
 11
1417.500084541935
 21
824.2858197422083
 31
0.0
  0
LINE
  5
394
330
1F
100
AcDbEntity
  8
0-B
  6
Continuous
 62
   120
370
     5
100
AcDbLine
 10
1317.500084541936
 20
1124.285819742208
 30
0.0
 11
1417.500084541935
 21
1124.285819742208
 31
0.0
  0
LWPOLYLINE
  5
395
330
1F
100
AcDbEntity
  8
0-B
  6
Continuous
 62
     7
370
     9
100
AcDbPolyline
 90
        4
 70
     1
 43
3.0
 10
1319.000084541936
 20
824.2858197422083
 42
0.4142135623731
 10
1317.500084541936
 20
825.7858197422083
 42
0.4142135623731
 10
1316.000084541936
 20
824.2858197422083
 42
0.4142135623731
 10
1317.500084541936
 20
822.7858197422083
 42
0.4142135623731
  0
LWPOLYLINE
  5
396
330
1F
100
AcDbEntity
  8
0-B
  6
Continuous
 62
     7
370
     9
100
AcDbPolyline
 90
        4
 70
     1
 43
3.0
 10
1319.000084541936
 20
1124.285819742208
 42
0.4142135623731
 10
1317.500084541936
 20
1125.785819742208
 42
0.4142135623731
 10
1316.000084541936
 20
1124.285819742208
 42
0.4142135623731
 10
1317.500084541936
 20
1122.785819742208
 42
0.4142135623731
  0
LINE
  5
397
330
1F
100
AcDbEntity
  8
0-B
  6
Continuous
 62
   120
370
     5
100
AcDbLine
 10
1317.500084541936
 20
1124.285819742208
 30
0.0
 11
1317.500084541936
 21
824.2858197422083
 31
0.0
  0
LWPOLYLINE
  5
398
330
1F
100
AcDbEntity
  8
0-B
  6
Continuous
 62
     7
370
     9
100
AcDbPolyline
 90
        4
 70
     1
 43
3.0
 10
3089.000084541934
 20
674.2858197422092
 42
0.4142135623731
 10
3087.500084541935
 20
675.7858197422092
 42
0.4142135623731
 10
3086.000084541935
 20
674.2858197422092
 42
0.4142135623731
 10
3087.500084541935
 20
672.7858197422091
 42
0.4142135623731
  0
LINE
  5
399
330
1F
100
AcDbEntity
  8
0-B
  6
Continuous
 62
   120
370
     5
100
AcDbLine
 10
2611.500084541934
 20
674.2858197422092
 30
0.0
 11
3087.500084541935
 21
674.2858197422092
 31
0.0
  0
LINE
  5
39A
330
1F
100
AcDbEntity
  8
0-B
  6
Continuous
 62
   120
370
     5
100
AcDbLine
 10
2611.500084541934
 20
674.2858197422092
 30
0.0
 11
2611.500084541934
 21
774.2858197422086
 31
0.0
  0
LWPOLYLINE
  5
39B
330
1F
100
AcDbEntity
  8
0-B
  6
Continuous
 62
     7
370
     9
100
AcDbPolyline
 90
        4
 70
     1
 43
3.0
 10
2613.000084541934
 20
674.2858197422092
 42
0.4142135623731
 10
2611.500084541934
 20
675.7858197422092
 42
0.4142135623731
 10
2610.000084541934
 20
674.2858197422092
 42
0.4142135623731
 10
2611.500084541934
 20
672.7858197422091
 42
0.4142135623731
  0
LINE
  5
39C
330
1F
100
AcDbEntity
  8
0-B
  6
Continuous
 62
   120
370
     5
100
AcDbLine
 10
2323.500084541934
 20
674.2858197422092
 30
0.0
 11
2611.500084541934
 21
674.2858197422092
 31
0.0
  0
LINE
  5
39D
330
1F
100
AcDbEntity
  8
0-B
  6
Continuous
 62
   120
370
     5
100
AcDbLine
 10
2323.500084541934
 20
674.2858197422092
 30
0.0
 11
2323.500084541934
 21
774.2858197422086
 31
0.0
  0
LWPOLYLINE
  5
39E
330
1F
100
AcDbEntity
  8
0-B
  6
Continuous
 62
     7
370
     9
100
AcDbPolyline
 90
        4
 70
     1
 43
3.0
 10
2325.000084541934
 20
674.2858197422092
 42
0.4142135623731
 10
2323.500084541934
 20
675.7858197422092
 42
0.4142135623731
 10
2322.000084541935
 20
674.2858197422092
 42
0.4142135623731
 10
2323.500084541934
 20
672.7858197422091
 42
0.4142135623731
  0
LINE
  5
39F
330
1F
100
AcDbEntity
  8
0-B
  6
Continuous
 62
   120
370
     5
100
AcDbLine
 10
2231.500084541935
 20
674.2858197422092
 30
0.0
 11
2323.500084541934
 21
674.2858197422092
 31
0.0
  0
LINE
  5
3A0
330
1F
100
AcDbEntity
  8
0-B
  6
Continuous
 62
   120
370
     5
100
AcDbLine
 10
2231.500084541935
 20
674.2858197422092
 30
0.0
 11
2231.500084541935
 21
774.2858197422086
 31
0.0
  0
LWPOLYLINE
  5
3A1
330
1F
100
AcDbEntity
  8
0-B
  6
Continuous
 62
     7
370
     9
100
AcDbPolyline
 90
        4
 70
     1
 43
3.0
 10
2233.000084541935
 20
674.2858197422092
 42
0.4142135623731
 10
2231.500084541935
 20
675.7858197422092
 42
0.4142135623731
 10
2230.000084541935
 20
674.2858197422092
 42
0.4142135623731
 10
2231.500084541935
 20
672.7858197422091
 42
0.4142135623731
  0
LINE
  5
3A2
330
1F
100
AcDbEntity
  8
0-B
  6
Continuous
 62
   120
370
     5
100
AcDbLine
 10
1943.500084541935
 20
674.2858197422092
 30
0.0
 11
2231.500084541935
 21
674.2858197422092
 31
0.0
  0
LINE
  5
3A3
330
1F
100
AcDbEntity
  8
0-B
  6
Continuous
 62
   120
370
     5
100
AcDbLine
 10
1943.500084541935
 20
674.2858197422092
 30
0.0
 11
1943.500084541935
 21
774.2858197422086
 31
0.0
  0
LWPOLYLINE
  5
3A4
330
1F
100
AcDbEntity
  8
0-B
  6
Continuous
 62
     7
370
     9
100
AcDbPolyline
 90
        4
 70
     1
 43
3.0
 10
1945.000084541935
 20
674.2858197422092
 42
0.4142135623731
 10
1943.500084541935
 20
675.7858197422092
 42
0.4142135623731
 10
1942.000084541935
 20
674.2858197422092
 42
0.4142135623731
 10
1943.500084541935
 20
672.7858197422091
 42
0.4142135623731
  0
LWPOLYLINE
  5
3A5
330
1F
100
AcDbEntity
  8
0-B
  6
Continuous
 62
     7
370
     9
100
AcDbPolyline
 90
        4
 70
     1
 43
3.0
 10
1469.000084541935
 20
674.2858197422092
 42
0.4142135623731
 10
1467.500084541935
 20
675.7858197422092
 42
0.4142135623731
 10
1466.000084541935
 20
674.2858197422092
 42
0.4142135623731
 10
1467.500084541935
 20
672.7858197422091
 42
0.4142135623731
  0
LINE
  5
3A6
330
1F
100
AcDbEntity
  8
0-B
  6
Continuous
 62
   120
370
     5
100
AcDbLine
 10
1467.500084541935
 20
674.2858197422092
 30
0.0
 11
1943.500084541935
 21
674.2858197422092
 31
0.0
  0
LINE
  5
3A7
330
1F
100
AcDbEntity
  8
0-4
  6
Continuous
 62
    92
370
    13
100
AcDbLine
 10
2611.500084541934
 20
984.2858197422086
 30
0.0
 11
2611.500084541934
 21
824.2858197422083
 31
0.0
  0
LINE
  5
3A8
330
1F
100
AcDbEntity
  8
0-4
  6
Continuous
 62
    92
370
    13
100
AcDbLine
 10
2611.500084541934
 20
824.2858197422083
 30
0.0
 11
3087.500084541935
 21
824.2858197422083
 31
0.0
  0
LINE
  5
3A9
330
1F
100
AcDbEntity
  8
0-4
  6
Continuous
 62
    92
370
    13
100
AcDbLine
 10
1943.500084541935
 20
984.2858197422086
 30
0.0
 11
1943.500084541935
 21
824.2858197422083
 31
0.0
  0
LINE
  5
3AA
330
1F
100
AcDbEntity
  8
0-4
  6
Continuous
 62
    92
370
    13
100
AcDbLine
 10
1467.500084541935
 20
824.2858197422083
 30
0.0
 11
1943.500084541935
 21
824.2858197422083
 31
0.0
  0
LINE
  5
3AB
330
1F
100
AcDbEntity
  8
0-B
  6
Continuous
 62
   120
370
     5
100
AcDbLine
 10
2467.500084541934
 20
984.2858197422086
 30
0.0
 11
2521.500084541934
 21
984.2858197422086
 31
0.0
  0
LINE
  5
3AC
330
1F
100
AcDbEntity
  8
0-B
  6
Continuous
 62
   120
370
     5
100
AcDbLine
 10
2467.500084541934
 20
824.2858197422083
 30
0.0
 11
2521.500084541934
 21
824.2858197422083
 31
0.0
  0
LWPOLYLINE
  5
3AD
330
1F
100
AcDbEntity
  8
0-B
  6
Continuous
 62
     7
370
     9
100
AcDbPolyline
 90
        4
 70
     1
 43
3.0
 10
2469.000084541934
 20
984.2858197422086
 42
0.4142135623731
 10
2467.500084541934
 20
985.7858197422086
 42
0.4142135623731
 10
2466.000084541934
 20
984.2858197422086
 42
0.4142135623731
 10
2467.500084541934
 20
982.7858197422087
 42
0.4142135623731
  0
LWPOLYLINE
  5
3AE
330
1F
100
AcDbEntity
  8
0-B
  6
Continuous
 62
     7
370
     9
100
AcDbPolyline
 90
        4
 70
     1
 43
3.0
 10
2469.000084541934
 20
824.2858197422083
 42
0.4142135623731
 10
2467.500084541934
 20
825.7858197422083
 42
0.4142135623731
 10
2466.000084541934
 20
824.2858197422083
 42
0.4142135623731
 10
2467.500084541934
 20
822.7858197422083
 42
0.4142135623731
  0
LINE
  5
3AF
330
1F
100
AcDbEntity
  8
0-B
  6
Continuous
 62
   120
370
     5
100
AcDbLine
 10
2467.500084541934
 20
824.2858197422083
 30
0.0
 11
2467.500084541934
 21
984.2858197422086
 31
0.0
  0
LINE
  5
3B0
330
1F
100
AcDbEntity
  8
0-4
  6
Continuous
 62
    92
370
    13
100
AcDbLine
 10
2636.500084541934
 20
829.2858197422072
 30
0.0
 11
2636.500084541934
 21
824.2858197422083
 31
0.0
  0
LINE
  5
3B1
330
1F
100
AcDbEntity
  8
0-4
  6
Continuous
 62
    92
370
    13
100
AcDbLine
 10
2616.500084541935
 20
829.2858197422072
 30
0.0
 11
2636.500084541934
 21
829.2858197422072
 31
0.0
  0
LINE
  5
3B2
330
1F
100
AcDbEntity
  8
0-4
  6
Continuous
 62
    92
370
    13
100
AcDbLine
 10
1938.500084541935
 20
989.2858197422083
 30
0.0
 11
1938.500084541935
 21
829.2858197422072
 31
0.0
  0
LINE
  5
3B3
330
1F
100
AcDbEntity
  8
0-4
  6
Continuous
 62
    92
370
    13
100
AcDbLine
 10
1918.500084541935
 20
829.2858197422072
 30
0.0
 11
1938.500084541935
 21
829.2858197422072
 31
0.0
  0
LINE
  5
3B4
330
1F
100
AcDbEntity
  8
0-4
  6
Continuous
 62
    92
370
    13
100
AcDbLine
 10
1918.500084541935
 20
829.2858197422072
 30
0.0
 11
1918.500084541935
 21
824.2858197422083
 31
0.0
  0
LINE
  5
3B5
330
1F
100
AcDbEntity
  8
0-4
  6
Continuous
 62
    92
370
    13
100
AcDbLine
 10
1938.500084541935
 20
989.2858197422083
 30
0.0
 11
2236.500084541935
 21
989.2858197422083
 31
0.0
  0
LINE
  5
3B6
330
1F
100
AcDbEntity
  8
0-4
  6
Continuous
 62
    92
370
    13
100
AcDbLine
 10
2236.500084541935
 20
989.2858197422083
 30
0.0
 11
2236.500084541935
 21
829.2858197422072
 31
0.0
  0
LINE
  5
3B7
330
1F
100
AcDbEntity
  8
0-4
  6
Continuous
 62
    92
370
    13
100
AcDbLine
 10
2236.500084541935
 20
829.2858197422072
 30
0.0
 11
2318.500084541934
 21
829.2858197422072
 31
0.0
  0
LINE
  5
3B8
330
1F
100
AcDbEntity
  8
0-4
  6
Continuous
 62
    92
370
    13
100
AcDbLine
 10
2318.500084541934
 20
989.2858197422083
 30
0.0
 11
2318.500084541934
 21
829.2858197422072
 31
0.0
  0
LINE
  5
3B9
330
1F
100
AcDbEntity
  8
0-4
  6
Continuous
 62
    92
370
    13
100
AcDbLine
 10
2318.500084541934
 20
989.2858197422083
 30
0.0
 11
2616.500084541935
 21
989.2858197422083
 31
0.0
  0
LINE
  5
3BA
330
1F
100
AcDbEntity
  8
0-4
  6
Continuous
 62
    92
370
    13
100
AcDbLine
 10
2616.500084541935
 20
989.2858197422083
 30
0.0
 11
2616.500084541935
 21
829.2858197422072
 31
0.0
  0
LINE
  5
3BB
330
1F
100
AcDbEntity
  8
0-4
  6
Continuous
 62
    92
370
    13
100
AcDbLine
 10
2323.500084541934
 20
984.2858197422086
 30
0.0
 11
2323.500084541934
 21
824.2858197422083
 31
0.0
  0
LINE
  5
3BC
330
1F
100
AcDbEntity
  8
0-4
  6
Continuous
 62
    92
370
    13
100
AcDbLine
 10
2231.500084541935
 20
824.2858197422083
 30
0.0
 11
2323.500084541934
 21
824.2858197422083
 31
0.0
  0
LINE
  5
3BD
330
1F
100
AcDbEntity
  8
0-4
  6
Continuous
 62
    92
370
    13
100
AcDbLine
 10
2231.500084541935
 20
984.2858197422086
 30
0.0
 11
2231.500084541935
 21
824.2858197422083
 31
0.0
  0
LINE
  5
3BE
330
1F
100
AcDbEntity
  8
0-4
  6
Continuous
 62
    92
370
    13
100
AcDbLine
 10
2323.500084541934
 20
984.2858197422086
 30
0.0
 11
2611.500084541934
 21
984.2858197422086
 31
0.0
  0
LINE
  5
3BF
330
1F
100
AcDbEntity
  8
0-4
  6
Continuous
 62
    92
370
    13
100
AcDbLine
 10
1943.500084541935
 20
984.2858197422086
 30
0.0
 11
2231.500084541935
 21
984.2858197422086
 31
0.0
  0
LINE
  5
3C0
330
1F
100
AcDbEntity
  8
0-4
  6
Continuous
 62
    92
370
    13
100
AcDbLine
 10
1467.500084541935
 20
1124.285819742208
 30
0.0
 11
1467.500084541935
 21
824.2858197422083
 31
0.0
  0
LINE
  5
3C1
330
1F
100
AcDbEntity
  8
0-4
  6
Continuous
 62
    92
370
    13
100
AcDbLine
 10
3087.500084541935
 20
1124.285819742208
 30
0.0
 11
1467.500084541935
 21
1124.285819742208
 31
0.0
  0
LINE
  5
3C2
330
1F
100
AcDbEntity
  8
0-4
  6
Continuous
 62
    92
370
    13
100
AcDbLine
 10
3087.500084541935
 20
824.2858197422083
 30
0.0
 11
3087.500084541935
 21
1124.285819742208
 31
0.0
  0
LINE
  5
3C3
330
1F
100
AcDbEntity
  8
0-0
  6
JWW_HOJO
 62
   120
370
     5
100
AcDbLine
 10
1217.500084541936
 20
1224.285819742209
 30
0.0
 11
1217.500084541936
 21
574.2858197422072
 31
0.0
  0
LINE
  5
3C4
330
1F
100
AcDbEntity
  8
0-0
  6
JWW_HOJO
 62
   120
370
     5
100
AcDbLine
 10
3237.500084541935
 20
574.2858197422072
 30
0.0
 11
3237.500084541935
 21
1224.285819742209
 31
0.0
  0
LINE
  5
3C5
330
1F
100
AcDbEntity
  8
0-0
  6
JWW_HOJO
 62
   120
370
     5
100
AcDbLine
 10
3137.500084541936
 20
1174.285819742207
 30
0.0
 11
1417.500084541935
 21
1174.285819742207
 31
0.0
  0
LINE
  5
3C6
330
1F
100
AcDbEntity
  8
0-0
  6
JWW_HOJO
 62
   120
370
     5
100
AcDbLine
 10
3137.500084541936
 20
774.2858197422086
 30
0.0
 11
3137.500084541936
 21
1174.285819742207
 31
0.0
  0
LINE
  5
3C7
330
1F
100
AcDbEntity
  8
0-0
  6
JWW_HOJO
 62
   120
370
     5
100
AcDbLine
 10
1417.500084541935
 20
774.2858197422086
 30
0.0
 11
3137.500084541936
 21
774.2858197422086
 31
0.0
  0
MTEXT
  5
3C8
330
1F
100
AcDbEntity
  8
0-B
  6
Continuous
 62
     7
370
   211
100
AcDbMText
 10
1317.500084541936
 20
917.6833197422084
 30
0.0
 40
74.295
 41
97.5
 46
0.0
 71
     7
 72
     1
  1
{\fＭＳ ゴシック|b0|i0|c128|p49;30}
 11
6.123031769111886E-17
 21
1.0
 31
0.0
 73
     1
 44
1.0
  0
MTEXT
  5
3C9
330
1F
100
AcDbEntity
  8
0-B
  6
Continuous
 62
     7
370
   211
100
AcDbMText
 10
2467.500084541935
 20
847.6833197422072
 30
0.0
 40
74.295
 41
97.5
 46
0.0
 71
     7
 72
     1
  1
{\fＭＳ ゴシック|b0|i0|c128|p49;16}
 11
6.123031769111886E-17
 21
1.0
 31
0.0
 73
     1
 44
1.0
  0
MTEXT
  5
3CA
330
1F
100
AcDbEntity
  8
0-B
  6
Continuous
 62
     7
370
   211
100
AcDbMText
 10
1604.250084541936
 20
667.8620697422092
 30
0.0
 40
77.15249999999999
 41
202.5
 46
0.0
 71
     7
 72
     1
  1
{\fＭＳ ゴシック|b0|i0|c128|p49;47.6}
 73
     1
 44
1.0
  0
MTEXT
  5
3CB
330
1F
100
AcDbEntity
  8
0-B
  6
Continuous
 62
     7
370
   211
100
AcDbMText
 10
2748.250084541935
 20
667.8620697422092
 30
0.0
 40
77.15249999999999
 41
202.5
 46
0.0
 71
     7
 72
     1
  1
{\fＭＳ ゴシック|b0|i0|c128|p49;47.6}
 73
     1
 44
1.0
  0
LINE
  5
3CC
330
1F
100
AcDbEntity
  8
0-0
  6
JWW_HOJO
 62
   120
370
     5
100
AcDbLine
 10
3025.000084541934
 20
1274.285819742208
 30
0.0
 11
1525.000084541936
 21
1274.285819742208
 31
0.0
  0
LINE
  5
3CD
330
1F
100
AcDbEntity
  8
0-B
  6
Continuous
 62
   120
370
     5
100
AcDbLine
 10
1467.500084541935
 20
1274.285819742208
 30
0.0
 11
3087.500084541935
 21
1274.285819742208
 31
0.0
  0
LWPOLYLINE
  5
3CE
330
1F
100
AcDbEntity
  8
0-B
  6
Continuous
 62
     7
370
     9
100
AcDbPolyline
 90
        4
 70
     1
 43
3.0
 10
1469.000084541935
 20
1274.285819742208
 42
0.4142135623731
 10
1467.500084541935
 20
1275.785819742208
 42
0.4142135623731
 10
1466.000084541935
 20
1274.285819742208
 42
0.4142135623731
 10
1467.500084541935
 20
1272.785819742208
 42
0.4142135623731
  0
LWPOLYLINE
  5
3CF
330
1F
100
AcDbEntity
  8
0-B
  6
Continuous
 62
     7
370
     9
100
AcDbPolyline
 90
        4
 70
     1
 43
3.0
 10
3089.000084541934
 20
1274.285819742208
 42
0.4142135623731
 10
3087.500084541935
 20
1275.785819742208
 42
0.4142135623731
 10
3086.000084541935
 20
1274.285819742208
 42
0.4142135623731
 10
3087.500084541935
 20
1272.785819742208
 42
0.4142135623731
  0
LINE
  5
3D0
330
1F
100
AcDbEntity
  8
0-B
  6
Continuous
 62
   120
370
     5
100
AcDbLine
 10
1467.500084541935
 20
1274.285819742208
 30
0.0
 11
1467.500084541935
 21
1174.285819742207
 31
0.0
  0
LINE
  5
3D1
330
1F
100
AcDbEntity
  8
0-B
  6
Continuous
 62
   120
370
     5
100
AcDbLine
 10
3087.500084541935
 20
1274.285819742208
 30
0.0
 11
3087.500084541935
 21
1174.285819742207
 31
0.0
  0
MTEXT
  5
3D2
330
1F
100
AcDbEntity
  8
0-B
  6
Continuous
 62
     7
370
   211
100
AcDbMText
 10
2202.500084541935
 20
1267.385819742208
 30
0.0
 40
76.19999999999999
 41
150.0
 46
0.0
 71
     7
 72
     1
  1
{\fＭＳ ゴシック|b0|i0|c128|p49;162}
 73
     1
 44
1.0
  0
MTEXT
  5
3D3
330
1F
100
AcDbEntity
  8
0-B
  6
Continuous
 62
     7
370
   211
100
AcDbMText
 10
1986.250084541935
 20
667.8620697422092
 30
0.0
 40
77.15249999999999
 41
202.5
 46
0.0
 71
     7
 72
     1
  1
{\fＭＳ ゴシック|b0|i0|c128|p49;28.8}
 73
     1
 44
1.0
  0
MTEXT
  5
3D4
330
1F
100
AcDbEntity
  8
0-B
  6
Continuous
 62
     7
370
   211
100
AcDbMText
 10
2202.500084541935
 20
567.3858197422072
 30
0.0
 40
76.19999999999999
 41
150.0
 46
0.0
 71
     7
 72
     1
  1
{\fＭＳ ゴシック|b0|i0|c128|p49;9.2}
 73
     1
 44
1.0
  0
MTEXT
  5
3D5
330
1F
100
AcDbEntity
  8
0-B
  6
Continuous
 62
     7
370
   211
100
AcDbMText
 10
2366.250084541934
 20
667.8620697422092
 30
0.0
 40
77.15249999999999
 41
202.5
 46
0.0
 71
     7
 72
     1
  1
{\fＭＳ ゴシック|b0|i0|c128|p49;28.8}
 73
     1
 44
1.0
  0
LINE
  5
3D6
330
1F
100
AcDbEntity
  8
0-B
  6
Continuous
 62
   120
370
     5
100
AcDbLine
 10
3087.500084541935
 20
674.2858197422092
 30
0.0
 11
3087.500084541935
 21
774.2858197422086
 31
0.0
  0
LINE
  5
3D7
330
1F
100
AcDbEntity
  8
0-B
  6
Continuous
 62
   120
370
     5
100
AcDbLine
 10
1467.500084541935
 20
674.2858197422092
 30
0.0
 11
1467.500084541935
 21
774.2858197422086
 31
0.0
  0
LINE
  5
3D8
330
1F
100
AcDbEntity
  8
0-0
  6
JWW_HOJO
 62
   120
370
     5
100
AcDbLine
 10
1625.000084541936
 20
3417.143099574968
 30
0.0
 11
1625.000084541936
 21
2717.143099574968
 31
0.0
  0
LINE
  5
3D9
330
1F
100
AcDbEntity
  8
0-0
  6
JWW_HOJO
 62
   120
370
     5
100
AcDbLine
 10
1525.000084541936
 20
3517.143099574969
 30
0.0
 11
1525.000084541936
 21
2717.143099574968
 31
0.0
  0
LINE
  5
3DA
330
1F
100
AcDbEntity
  8
0-0
  6
JWW_HOJO
 62
   120
370
     5
100
AcDbLine
 10
3025.000084541934
 20
3417.143099574968
 30
0.0
 11
1625.000084541936
 21
3417.143099574968
 31
0.0
  0
LINE
  5
3DB
330
1F
100
AcDbEntity
  8
0-0
  6
JWW_HOJO
 62
   120
370
     5
100
AcDbLine
 10
3025.000084541934
 20
3517.143099574969
 30
0.0
 11
1525.000084541936
 21
3517.143099574969
 31
0.0
  0
LINE
  5
3DC
330
1F
100
AcDbEntity
  8
0-0
  6
JWW_HOJO
 62
   120
370
     5
100
AcDbLine
 10
3025.000084541934
 20
2717.143099574968
 30
0.0
 11
3025.000084541934
 21
3517.143099574969
 31
0.0
  0
LINE
  5
3DD
330
1F
100
AcDbEntity
  8
0-0
  6
JWW_HOJO
 62
   120
370
     5
100
AcDbLine
 10
3187.500084541934
 20
1647.857339630713
 30
0.0
 11
3187.500084541934
 21
2347.857339630713
 31
0.0
  0
LINE
  5
3DE
330
1F
100
AcDbEntity
  8
0-0
  6
JWW_HOJO
 62
   120
370
     5
100
AcDbLine
 10
3187.500084541934
 20
2347.857339630713
 30
0.0
 11
1367.500084541934
 21
2347.857339630713
 31
0.0
  0
LINE
  5
3DF
330
1F
100
AcDbEntity
  8
0-0
  6
JWW_HOJO
 62
   120
370
     5
100
AcDbLine
 10
1367.500084541934
 20
2347.857339630713
 30
0.0
 11
1367.500084541934
 21
1647.857339630713
 31
0.0
  0
LINE
  5
3E0
330
1F
100
AcDbEntity
  8
0-0
  6
JWW_HOJO
 62
   120
370
     5
100
AcDbLine
 10
1567.500084541935
 20
2247.857339630713
 30
0.0
 11
1567.500084541935
 21
1847.857339630714
 31
0.0
  0
LINE
  5
3E1
330
1F
100
AcDbEntity
  8
0-0
  6
JWW_HOJO
 62
   120
370
     5
100
AcDbLine
 10
1567.500084541935
 20
1847.857339630714
 30
0.0
 11
3137.500084541934
 21
1847.857339630714
 31
0.0
  0
LINE
  5
3E2
330
1F
100
AcDbEntity
  8
0-0
  6
JWW_HOJO
 62
   120
370
     5
100
AcDbLine
 10
1467.500084541935
 20
1747.857339630713
 30
0.0
 11
3187.500084541934
 21
1747.857339630713
 31
0.0
  0
LINE
  5
3E3
330
1F
100
AcDbEntity
  8
0-0
  6
JWW_HOJO
 62
   120
370
     5
100
AcDbLine
 10
3137.500084541934
 20
2247.857339630713
 30
0.0
 11
1467.500084541935
 21
2247.857339630713
 31
0.0
  0
LINE
  5
3E4
330
1F
100
AcDbEntity
  8
0-0
  6
JWW_HOJO
 62
   120
370
     5
100
AcDbLine
 10
1467.500084541935
 20
2247.857339630713
 30
0.0
 11
1467.500084541935
 21
1747.857339630713
 31
0.0
  0
LINE
  5
3E5
330
1F
100
AcDbEntity
  8
0-0
  6
JWW_HOJO
 62
   120
370
     5
100
AcDbLine
 10
1417.500084541935
 20
1224.285819742209
 30
0.0
 11
1417.500084541935
 21
674.2858197422092
 31
0.0
  0
LINE
  5
3E6
330
1F
100
AcDbEntity
  8
0-0
  6
JWW_HOJO
 62
   120
370
     5
100
AcDbLine
 10
1417.500084541935
 20
674.2858197422092
 30
0.0
 11
3237.500084541935
 21
674.2858197422092
 31
0.0
  0
LINE
  5
3E7
330
1F
100
AcDbEntity
  8
0-0
  6
JWW_HOJO
 62
   120
370
     5
100
AcDbLine
 10
1317.500084541936
 20
1224.285819742209
 30
0.0
 11
1317.500084541936
 21
574.2858197422072
 31
0.0
  0
LINE
  5
3E8
330
1F
100
AcDbEntity
  8
0-0
  6
JWW_HOJO
 62
   120
370
     5
100
AcDbLine
 10
1317.500084541936
 20
574.2858197422072
 30
0.0
 11
3237.500084541935
 21
574.2858197422072
 31
0.0
  0
MTEXT
  5
3E9
330
1F
100
AcDbEntity
  8
0-A
  6
Continuous
 62
     7
370
     9
100
AcDbMText
 10
-2315.000758815459
 20
1410.986584686463
 30
0.0
 40
68.58000000000001
 41
720.0
 46
0.0
 71
     7
 72
     1
  1
{\fＭＳ ゴシック|b0|i0|c128|p49;3,560×162×30.0}
 73
     1
 44
1.0
  0
LINE
  5
3EA
330
1F
100
AcDbEntity
  8
F-1
  6
Continuous
 62
     7
370
     9
100
AcDbLine
 10
-145.0009732633075
 20
-2718.571539992992
 30
0.0
 11
5689.99897724873
 21
-2718.571539992992
 31
0.0
  0
LINE
  5
3EB
330
1F
100
AcDbEntity
  8
F-1
  6
Continuous
 62
     7
370
     9
100
AcDbLine
 10
-145.0009732633075
 20
-1647.142900076612
 30
0.0
 11
5689.999719568197
 21
-1647.142900076612
 31
0.0
  0
MTEXT
  5
3EC
330
1F
100
AcDbEntity
  8
F-A
  6
Continuous
 62
     7
370
     0
100
AcDbMText
 10
4778.749126529666
 20
-3938.071010139966
 30
0.0
 40
78.86699999999999
 41
517.5
 46
0.0
 71
     7
 72
     1
  1
{\fＭＳ ゴシック|b0|i0|c128|p49;2021.04.01}
 73
     1
 44
1.0
  0
MTEXT
  5
3ED
330
1F
100
AcDbEntity
  8
0-A
  6
Continuous
 62
     7
370
     9
100
AcDbMText
 10
-1445.00075881546
 20
333.8429447700854
 30
0.0
 40
57.15
 41
600.0
 46
0.0
 71
     7
 72
     1
  1
{\fＭＳ ゴシック|b0|i0|c128|p49;ＤＣＱＬ4ＳＢ-□}
 73
     1
 44
1.0
  0
MTEXT
  5
3EE
330
1F
100
AcDbEntity
  8
0-A
  6
Continuous
 62
     7
370
     9
100
AcDbMText
 10
-1445.00075881546
 20
3553.843864519223
 30
0.0
 40
68.58
 41
585.0
 46
0.0
 71
     7
 72
     1
  1
{\fＭＳ ゴシック|b0|i0|c128|p49;ＤＭＢＬ19-□}
 73
     1
 44
1.0
  0
MTEXT
  5
3EF
330
1F
100
AcDbEntity
  8
0-A
  6
Continuous
 62
     7
370
     9
100
AcDbMText
 10
-1445.00075881546
 20
2482.415224602842
 30
0.0
 40
68.58
 41
585.0
 46
0.0
 71
     7
 72
     1
  1
{\fＭＳ ゴシック|b0|i0|c128|p49;ＥＭＢＬ59-□}
 73
     1
 44
1.0
  0
MTEXT
  5
3F0
330
1F
100
AcDbEntity
  8
0-A
  6
Continuous
 62
     7
370
     9
100
AcDbMText
 10
-1445.00075881546
 20
1410.986584686463
 30
0.0
 40
68.58
 41
585.0
 46
0.0
 71
     7
 72
     1
  1
{\fＭＳ ゴシック|b0|i0|c128|p49;ＥＭＢＬ79-□}
 73
     1
 44
1.0
  0
MTEXT
  5
3F1
330
1F
100
AcDbEntity
  8
0-A
  6
Continuous
 62
     7
370
     9
100
AcDbMText
 10
4399.999719568196
 20
3553.843864519223
 30
0.0
 40
68.58
 41
585.0
 46
0.0
 71
     7
 72
     1
  1
{\fＭＳ ゴシック|b0|i0|c128|p49;ＤＭＢＩ19-□}
 73
     1
 44
1.0
  0
MTEXT
  5
3F2
330
1F
100
AcDbEntity
  8
0-A
  6
Continuous
 62
     7
370
     9
100
AcDbMText
 10
4399.999719568196
 20
2482.415224602842
 30
0.0
 40
68.58
 41
585.0
 46
0.0
 71
     7
 72
     1
  1
{\fＭＳ ゴシック|b0|i0|c128|p49;ＥＭＢＩ59-□}
 73
     1
 44
1.0
  0
MTEXT
  5
3F3
330
1F
100
AcDbEntity
  8
0-A
  6
Continuous
 62
     7
370
     9
100
AcDbMText
 10
4399.999719568196
 20
1410.986584686463
 30
0.0
 40
68.58
 41
585.0
 46
0.0
 71
     7
 72
     1
  1
{\fＭＳ ゴシック|b0|i0|c128|p49;ＥＭＢＩ79-□}
 73
     1
 44
1.0
  0
MTEXT
  5
3F4
330
1F
100
AcDbEntity
  8
0-A
  6
Continuous
 62
     7
370
     9
100
AcDbMText
 10
4399.999719568196
 20
335.2716947700854
 30
0.0
 40
60.00750000000001
 41
630.0
 46
0.0
 71
     7
 72
     1
  1
{\fＭＳ ゴシック|b0|i0|c128|p49;ＤＣＱＩ4ＳＢ-□}
 73
     1
 44
1.0
  0
MTEXT
  5
3F5
330
1F
100
AcDbEntity
  8
F-A
  6
Continuous
 62
     7
370
     0
100
AcDbMText
 10
-5239.999990205507
 20
-4045.254708805663
 30
0.0
 40
79.49045454545455
 41
2295.0
 46
0.0
 71
     7
 72
     1
  1
{\fＭＳ ゴシック|b0|i0|c128|p49;ドレタス　洋風造作材　鴨居・敷居　１・２本溝}
 73
     1
 44
1.0
  0
LINE
  5
3F6
330
1F
100
AcDbEntity
  8
F-1
  6
Continuous
 62
     7
370
     9
100
AcDbLine
 10
-5989.999990205507
 20
-1647.142900076612
 30
0.0
 11
-155.0007588154605
 21
-1647.142900076612
 31
0.0
  0
LINE
  5
3F7
330
1F
100
AcDbEntity
  8
F-1
  6
JWW_DASHED1
 62
     7
370
     9
100
AcDbLine
 10
1114.999521616338
 20
-575.7142601602334
 30
0.0
 11
5689.99897724873
 21
-575.7142601602334
 31
0.0
  0
LINE
  5
3F8
330
1F
100
AcDbEntity
  8
F-1
  6
JWW_DASHED1
 62
     7
370
     9
100
AcDbLine
 10
-4730.00095676732
 20
-575.7142601602334
 30
0.0
 11
-155.0015011349285
 21
-575.7142601602334
 31
0.0
  0
MTEXT
  5
3F9
330
1F
100
AcDbEntity
  8
0-A
  6
Continuous
 62
     7
370
     0
100
AcDbMText
 10
949.9995216163395
 20
-354.2799402020438
 30
0.0
 40
91.44
 41
480.0
 46
0.0
 71
     7
 72
     1
  1
{\f@ＭＳ ゴシック|b0|i0|c128|p49;敷居・・}
 11
-1.836909530733566E-16
 21
-1.0
 31
0.0
 73
     1
 44
1.0
  0
MTEXT
  5
3FA
330
1F
100
AcDbEntity
  8
0-A
  6
Continuous
 62
     7
370
     0
100
AcDbMText
 10
-4895.000028867985
 20
-354.2799402020438
 30
0.0
 40
91.44
 41
480.0
 46
0.0
 71
     7
 72
     1
  1
{\f@ＭＳ ゴシック|b0|i0|c128|p49;敷居・・}
 11
-1.836909530733566E-16
 21
-1.0
 31
0.0
 73
     1
 44
1.0
  0
LINE
  5
3FB
330
1F
100
AcDbEntity
  8
0-0
  6
JWW_HOJO
 62
   120
370
     5
100
AcDbLine
 10
789.9992645108957
 20
877.1431008637177
 30
0.0
 11
-30.00071615786453
 21
877.1431008637177
 31
0.0
  0
LINE
  5
3FC
330
1F
100
AcDbEntity
  8
0-0
  6
JWW_HOJO
 62
   120
370
     5
100
AcDbLine
 10
789.9992645108957
 20
1177.143100863718
 30
0.0
 11
-30.00071615786453
 21
1177.143100863718
 31
0.0
  0
LINE
  5
3FD
330
1F
100
AcDbEntity
  8
0-0
  6
JWW_HOJO
 62
   120
370
     5
100
AcDbLine
 10
-5055.000019202365
 20
877.1431008637177
 30
0.0
 11
-5874.999999871126
 21
877.1431008637177
 31
0.0
  0
LINE
  5
3FE
330
1F
100
AcDbEntity
  8
0-0
  6
JWW_HOJO
 62
   120
370
     5
100
AcDbLine
 10
-5055.000019202365
 20
1177.143100863718
 30
0.0
 11
-5874.999999871126
 21
1177.143100863718
 31
0.0
  0
MTEXT
  5
3FF
330
1F
100
AcDbEntity
  8
0-A
  6
Continuous
 62
     7
370
     9
100
AcDbMText
 10
-5664.999999871126
 20
1102.863100863718
 30
0.0
 40
91.44
 41
360.0
 46
0.0
 71
     7
 72
     1
  1
{\fＭＳ ゴシック|b0|i0|c128|p49;１本溝}
 73
     1
 44
1.0
  0
MTEXT
  5
400
330
1F
100
AcDbEntity
  8
0-A
  6
Continuous
 62
     7
370
     9
100
AcDbMText
 10
179.9992838421355
 20
1102.863100863718
 30
0.0
 40
91.44
 41
360.0
 46
0.0
 71
     7
 72
     1
  1
{\fＭＳ ゴシック|b0|i0|c128|p49;２本溝}
 73
     1
 44
1.0
  0
MTEXT
  5
401
330
1F
100
AcDbEntity
  8
0-A
  6
Continuous
 62
     7
370
     9
100
AcDbMText
 10
-5784.999999871126
 20
802.8631008637177
 30
0.0
 40
91.44000000000001
 41
600.0
 46
0.0
 71
     7
 72
     1
  1
{\fＭＳ ゴシック|b0|i0|c128|p49;(片引き等)}
 73
     1
 44
1.0
  0
MTEXT
  5
402
330
1F
100
AcDbEntity
  8
0-A
  6
Continuous
 62
     7
370
     9
100
AcDbMText
 10
19.9992741765152
 20
802.8631008637177
 30
0.0
 40
91.44
 41
720.0
 46
0.0
 71
     7
 72
     1
  1
{\fＭＳ ゴシック|b0|i0|c128|p49;(引き違い等)}
 73
     1
 44
1.0
  0
LINE
  5
403
330
1F
100
AcDbEntity
  8
0-4
  6
Continuous
 62
    92
370
    13
100
AcDbLine
 10
2612.499620592268
 20
-1136.428580118423
 30
0.0
 11
1942.499620592266
 21
-1136.428580118423
 31
0.0
  0
LINE
  5
404
330
1F
100
AcDbEntity
  8
0-B
  6
Continuous
 62
   120
370
     5
100
AcDbLine
 10
1942.499620592266
 20
-1286.428580118423
 30
0.0
 11
2612.499620592268
 21
-1286.428580118423
 31
0.0
  0
LINE
  5
405
330
1F
100
AcDbEntity
  8
0-4
  6
Continuous
 62
    92
370
    13
100
AcDbLine
 10
2612.499773180169
 20
-1136.428580118423
 30
0.0
 11
2612.499773180169
 21
-1016.429428888564
 31
0.0
  0
LINE
  5
406
330
1F
100
AcDbEntity
  8
0-4
  6
Continuous
 62
    92
370
    13
100
AcDbLine
 10
2652.499620592268
 20
-1016.428580118426
 30
0.0
 11
2612.499773180169
 21
-1016.428580118426
 31
0.0
  0
LWPOLYLINE
  5
407
330
1F
100
AcDbEntity
  8
0-B
  6
Continuous
 62
     7
370
     9
100
AcDbPolyline
 90
        4
 70
     1
 43
3.0
 10
2613.999620592268
 20
-1286.428580118423
 42
0.4142135623731
 10
2612.499620592268
 20
-1284.928580118423
 42
0.4142135623731
 10
2610.999620592269
 20
-1286.428580118423
 42
0.4142135623731
 10
2612.499620592268
 20
-1287.928580118423
 42
0.4142135623731
  0
LINE
  5
408
330
1F
100
AcDbEntity
  8
0-B
  6
Continuous
 62
   120
370
     5
100
AcDbLine
 10
2612.499620592268
 20
-1286.428580118423
 30
0.0
 11
2612.499620592268
 21
-1186.428580118424
 31
0.0
  0
LINE
  5
409
330
1F
100
AcDbEntity
  8
0-B
  6
Continuous
 62
   120
370
     5
100
AcDbLine
 10
2612.499620592268
 20
-1286.428580118423
 30
0.0
 11
2652.499620592268
 21
-1286.428580118423
 31
0.0
  0
LINE
  5
40A
330
1F
100
AcDbEntity
  8
0-4
  6
Continuous
 62
    92
370
    13
100
AcDbLine
 10
1942.499620592266
 20
-1136.428580118423
 30
0.0
 11
1942.499620592266
 21
-1016.429428888564
 31
0.0
  0
LINE
  5
40B
330
1F
100
AcDbEntity
  8
0-4
  6
Continuous
 62
    92
370
    13
100
AcDbLine
 10
1942.499620592266
 20
-1016.428580118426
 30
0.0
 11
1902.499620592267
 21
-1016.428580118426
 31
0.0
  0
LINE
  5
40C
330
1F
100
AcDbEntity
  8
0-B
  6
Continuous
 62
   120
370
     5
100
AcDbLine
 10
1902.499620592267
 20
-1286.428580118423
 30
0.0
 11
1942.499620592266
 21
-1286.428580118423
 31
0.0
  0
LWPOLYLINE
  5
40D
330
1F
100
AcDbEntity
  8
0-B
  6
Continuous
 62
     7
370
     9
100
AcDbPolyline
 90
        4
 70
     1
 43
3.0
 10
1943.999620592266
 20
-1286.428580118423
 42
0.4142135623731
 10
1942.499620592266
 20
-1284.928580118423
 42
0.4142135623731
 10
1940.999620592266
 20
-1286.428580118423
 42
0.4142135623731
 10
1942.499620592266
 20
-1287.928580118423
 42
0.4142135623731
  0
LINE
  5
40E
330
1F
100
AcDbEntity
  8
0-B
  6
Continuous
 62
   120
370
     5
100
AcDbLine
 10
1942.499620592266
 20
-1286.428580118423
 30
0.0
 11
1942.499620592266
 21
-1186.428580118424
 31
0.0
  0
ARC
  5
40F
330
1F
100
AcDbEntity
  8
0-4
  6
Continuous
 62
    92
370
    13
100
AcDbCircle
 10
2622.499620592267
 20
-1016.428580118426
 30
0.0
 40
30.0
100
AcDbArc
 50
0.0
 51
90.0
  0
ARC
  5
410
330
1F
100
AcDbEntity
  8
0-4
  6
Continuous
 62
    92
370
    13
100
AcDbCircle
 10
2622.499620592267
 20
-1016.428580118426
 30
0.0
 40
25.0
100
AcDbArc
 50
0.0
 51
90.0
  0
LINE
  5
411
330
1F
100
AcDbEntity
  8
0-0
  6
JWW_HOJO
 62
   120
370
     5
100
AcDbLine
 10
2652.499620592267
 20
-1186.428580118424
 30
0.0
 11
2652.499620592267
 21
-936.4285801184235
 31
0.0
  0
ARC
  5
412
330
1F
100
AcDbEntity
  8
0-4
  6
Continuous
 62
    92
370
    13
100
AcDbCircle
 10
1932.499620592268
 20
-1016.428580118426
 30
0.0
 40
30.0
100
AcDbArc
 50
90.0
 51
180.0
  0
ARC
  5
413
330
1F
100
AcDbEntity
  8
0-4
  6
Continuous
 62
    92
370
    13
100
AcDbCircle
 10
1932.499620592268
 20
-1016.428580118426
 30
0.0
 40
25.0
100
AcDbArc
 50
90.0
 51
180.0
  0
LINE
  5
414
330
1F
100
AcDbEntity
  8
0-0
  6
JWW_HOJO
 62
   120
370
     5
100
AcDbLine
 10
1902.499620592267
 20
-936.4285801184235
 30
0.0
 11
1902.499620592267
 21
-1186.428580118424
 31
0.0
  0
LINE
  5
415
330
1F
100
AcDbEntity
  8
0-0
  6
JWW_HOJO
 62
   120
370
     5
100
AcDbLine
 10
1902.499620592267
 20
-936.4285801184235
 30
0.0
 11
2652.499620592267
 21
-936.4285801184235
 31
0.0
  0
LINE
  5
416
330
1F
100
AcDbEntity
  8
0-0
  6
JWW_HOJO
 62
   120
370
     5
100
AcDbLine
 10
2652.499620592267
 20
-1186.428580118424
 30
0.0
 11
1902.499620592267
 21
-1186.428580118424
 31
0.0
  0
LINE
  5
417
330
1F
100
AcDbEntity
  8
0-B
  6
Continuous
 62
   120
370
     5
100
AcDbLine
 10
1752.499620592267
 20
-1136.428580118423
 30
0.0
 11
1752.499620592267
 21
-1016.429428888564
 31
0.0
  0
LWPOLYLINE
  5
418
330
1F
100
AcDbEntity
  8
0-B
  6
Continuous
 62
     7
370
     9
100
AcDbPolyline
 90
        4
 70
     1
 43
3.0
 10
1753.999620592267
 20
-1136.428580118423
 42
0.4142135623731
 10
1752.499620592267
 20
-1134.928580118423
 42
0.4142135623731
 10
1750.999620592267
 20
-1136.428580118423
 42
0.4142135623731
 10
1752.499620592267
 20
-1137.928580118423
 42
0.4142135623731
  0
LWPOLYLINE
  5
419
330
1F
100
AcDbEntity
  8
0-B
  6
Continuous
 62
     7
370
     9
100
AcDbPolyline
 90
        4
 70
     1
 43
3.0
 10
1753.999620592267
 20
-1016.429428888564
 42
0.4142135623731
 10
1752.499620592267
 20
-1014.929428888564
 42
0.4142135623731
 10
1750.999620592267
 20
-1016.429428888564
 42
0.4142135623731
 10
1752.499620592267
 20
-1017.929428888564
 42
0.4142135623731
  0
LINE
  5
41A
330
1F
100
AcDbEntity
  8
0-B
  6
Continuous
 62
   120
370
     5
100
AcDbLine
 10
1652.499620592266
 20
-1136.428580118423
 30
0.0
 11
1852.499620592268
 21
-1136.428580118423
 31
0.0
  0
LINE
  5
41B
330
1F
100
AcDbEntity
  8
0-B
  6
Continuous
 62
   120
370
     5
100
AcDbLine
 10
1752.499620592267
 20
-1016.429428888564
 30
0.0
 11
1852.499620592268
 21
-1016.429428888564
 31
0.0
  0
LINE
  5
41C
330
1F
100
AcDbEntity
  8
0-B
  6
Continuous
 62
   120
370
     5
100
AcDbLine
 10
1752.499620592267
 20
-1016.429428888564
 30
0.0
 11
1752.499620592267
 21
-986.4285801184233
 31
0.0
  0
LWPOLYLINE
  5
41D
330
1F
100
AcDbEntity
  8
0-B
  6
Continuous
 62
     7
370
     9
100
AcDbPolyline
 90
        4
 70
     1
 43
3.0
 10
1753.999620592267
 20
-986.4285801184233
 42
0.4142135623731
 10
1752.499620592267
 20
-984.9285801184233
 42
0.4142135623731
 10
1750.999620592267
 20
-986.4285801184233
 42
0.4142135623731
 10
1752.499620592267
 20
-987.9285801184232
 42
0.4142135623731
  0
LINE
  5
41E
330
1F
100
AcDbEntity
  8
0-B
  6
Continuous
 62
   120
370
     5
100
AcDbLine
 10
1652.499620592266
 20
-986.4285801184233
 30
0.0
 11
1852.499620592268
 21
-986.4285801184233
 31
0.0
  0
LINE
  5
41F
330
1F
100
AcDbEntity
  8
0-B
  6
Continuous
 62
   120
370
     5
100
AcDbLine
 10
1652.499620592266
 20
-1136.428580118423
 30
0.0
 11
1652.499620592266
 21
-986.4285801184233
 31
0.0
  0
LWPOLYLINE
  5
420
330
1F
100
AcDbEntity
  8
0-B
  6
Continuous
 62
     7
370
     9
100
AcDbPolyline
 90
        4
 70
     1
 43
3.0
 10
1653.999620592266
 20
-1136.428580118423
 42
0.4142135623731
 10
1652.499620592266
 20
-1134.928580118423
 42
0.4142135623731
 10
1650.999620592267
 20
-1136.428580118423
 42
0.4142135623731
 10
1652.499620592266
 20
-1137.928580118423
 42
0.4142135623731
  0
LWPOLYLINE
  5
421
330
1F
100
AcDbEntity
  8
0-B
  6
Continuous
 62
     7
370
     9
100
AcDbPolyline
 90
        4
 70
     1
 43
3.0
 10
1653.999620592266
 20
-986.4285801184233
 42
0.4142135623731
 10
1652.499620592266
 20
-984.9285801184233
 42
0.4142135623731
 10
1650.999620592267
 20
-986.4285801184233
 42
0.4142135623731
 10
1652.499620592266
 20
-987.9285801184232
 42
0.4142135623731
  0
LINE
  5
422
330
1F
100
AcDbEntity
  8
0-0
  6
JWW_HOJO
 62
   120
370
     5
100
AcDbLine
 10
2702.499620592267
 20
-1286.428580118423
 30
0.0
 11
1852.499620592268
 21
-1286.428580118423
 31
0.0
  0
LWPOLYLINE
  5
423
330
1F
100
AcDbEntity
  8
0-B
  6
Continuous
 62
     7
370
     9
100
AcDbPolyline
 90
        4
 70
     1
 43
3.0
 10
1903.999620592267
 20
-1286.428580118423
 42
0.4142135623731
 10
1902.499620592267
 20
-1284.928580118423
 42
0.4142135623731
 10
1900.999620592267
 20
-1286.428580118423
 42
0.4142135623731
 10
1902.499620592267
 20
-1287.928580118423
 42
0.4142135623731
  0
LINE
  5
424
330
1F
100
AcDbEntity
  8
0-B
  6
Continuous
 62
   120
370
     5
100
AcDbLine
 10
1902.499620592267
 20
-1386.428580118423
 30
0.0
 11
1902.499620592267
 21
-1186.428580118424
 31
0.0
  0
LWPOLYLINE
  5
425
330
1F
100
AcDbEntity
  8
0-B
  6
Continuous
 62
     7
370
     9
100
AcDbPolyline
 90
        4
 70
     1
 43
3.0
 10
2653.999620592268
 20
-1286.428580118423
 42
0.4142135623731
 10
2652.499620592268
 20
-1284.928580118423
 42
0.4142135623731
 10
2650.999620592268
 20
-1286.428580118423
 42
0.4142135623731
 10
2652.499620592268
 20
-1287.928580118423
 42
0.4142135623731
  0
LINE
  5
426
330
1F
100
AcDbEntity
  8
0-B
  6
Continuous
 62
   120
370
     5
100
AcDbLine
 10
2652.499620592268
 20
-1386.428580118423
 30
0.0
 11
2652.499620592268
 21
-1186.428580118424
 31
0.0
  0
LINE
  5
427
330
1F
100
AcDbEntity
  8
0-B
  6
Continuous
 62
   120
370
     5
100
AcDbLine
 10
1902.499620592267
 20
-1386.428580118423
 30
0.0
 11
2652.499620592268
 21
-1386.428580118423
 31
0.0
  0
LWPOLYLINE
  5
428
330
1F
100
AcDbEntity
  8
0-B
  6
Continuous
 62
     7
370
     9
100
AcDbPolyline
 90
        4
 70
     1
 43
3.0
 10
1903.999620592267
 20
-1386.428580118423
 42
0.4142135623731
 10
1902.499620592267
 20
-1384.928580118423
 42
0.4142135623731
 10
1900.999620592267
 20
-1386.428580118423
 42
0.4142135623731
 10
1902.499620592267
 20
-1387.928580118423
 42
0.4142135623731
  0
LWPOLYLINE
  5
429
330
1F
100
AcDbEntity
  8
0-B
  6
Continuous
 62
     7
370
     9
100
AcDbPolyline
 90
        4
 70
     1
 43
3.0
 10
2653.999620592268
 20
-1386.428580118423
 42
0.4142135623731
 10
2652.499620592268
 20
-1384.928580118423
 42
0.4142135623731
 10
2650.999620592268
 20
-1386.428580118423
 42
0.4142135623731
 10
2652.499620592268
 20
-1387.928580118423
 42
0.4142135623731
  0
LINE
  5
42A
330
1F
100
AcDbEntity
  8
0-0
  6
JWW_HOJO
 62
   120
370
     5
100
AcDbLine
 10
2702.499620592267
 20
-1386.428580118423
 30
0.0
 11
1652.499620592266
 21
-1386.428580118423
 31
0.0
  0
LINE
  5
42B
330
1F
100
AcDbEntity
  8
0-0
  6
JWW_HOJO
 62
   120
370
     5
100
AcDbLine
 10
1652.499620592266
 20
-836.4285801184233
 30
0.0
 11
2702.499620592267
 21
-836.4285801184233
 31
0.0
  0
LINE
  5
42C
330
1F
100
AcDbEntity
  8
0-0
  6
JWW_HOJO
 62
   120
370
     5
100
AcDbLine
 10
1852.499620592268
 20
-836.4285801184233
 30
0.0
 11
1852.499620592268
 21
-1286.428580118423
 31
0.0
  0
LINE
  5
42D
330
1F
100
AcDbEntity
  8
0-0
  6
JWW_HOJO
 62
   120
370
     5
100
AcDbLine
 10
2702.499620592267
 20
-1386.428580118423
 30
0.0
 11
2702.499620592267
 21
-836.4285801184233
 31
0.0
  0
LINE
  5
42E
330
1F
100
AcDbEntity
  8
0-0
  6
JWW_HOJO
 62
   120
370
     5
100
AcDbLine
 10
1652.499620592266
 20
-836.4285801184233
 30
0.0
 11
1652.499620592266
 21
-1386.428580118423
 31
0.0
  0
LINE
  5
42F
330
1F
100
AcDbEntity
  8
0-0
  6
JWW_HOJO
 62
   120
370
     5
100
AcDbLine
 10
1752.499620592267
 20
-836.4285801184233
 30
0.0
 11
1752.499620592267
 21
-1386.428580118423
 31
0.0
  0
MTEXT
  5
430
330
1F
100
AcDbEntity
  8
0-A
  6
Continuous
 62
     7
370
     9
100
AcDbMText
 10
-2292.500758815459
 20
-731.8706951462946
 30
0.0
 40
68.58
 41
675.0
 46
0.0
 71
     7
 72
     1
  1
{\fＭＳ ゴシック|b0|i0|c128|p49;3,600×75×15.0}
 73
     1
 44
1.0
  0
MTEXT
  5
431
330
1F
100
AcDbEntity
  8
0-A
  6
Continuous
 62
     7
370
     9
100
AcDbMText
 10
-417.5007588154605
 20
-731.8706951462946
 30
0.0
 40
68.58
 41
45.0
 46
0.0
 71
     7
 72
     1
  1
{\fＭＳ ゴシック|b0|i0|c128|p49;1}
 73
     1
 44
1.0
  0
MTEXT
  5
432
330
1F
100
AcDbEntity
  8
0-A
  6
Continuous
 62
     7
370
     9
100
AcDbMText
 10
3552.499719568196
 20
-731.8706951462946
 30
0.0
 40
68.58
 41
675.0
 46
0.0
 71
     7
 72
     1
  1
{\fＭＳ ゴシック|b0|i0|c128|p49;3,600×75×15.0}
 73
     1
 44
1.0
  0
MTEXT
  5
433
330
1F
100
AcDbEntity
  8
0-A
  6
Continuous
 62
     7
370
     9
100
AcDbMText
 10
5427.499719568197
 20
-731.8706951462946
 30
0.0
 40
68.58
 41
45.0
 46
0.0
 71
     7
 72
     1
  1
{\fＭＳ ゴシック|b0|i0|c128|p49;1}
 73
     1
 44
1.0
  0
MTEXT
  5
434
330
1F
100
AcDbEntity
  8
0-B
  6
Continuous
 62
     7
370
   211
100
AcDbMText
 10
1757.499620592266
 20
-991.7791288154251
 30
0.0
 40
68.58
 41
45.0
 46
0.0
 71
     7
 72
     1
  1
{\fＭＳ ゴシック|b0|i0|c128|p49;3}
 11
6.123031769111886E-17
 21
1.0
 31
0.0
 73
     1
 44
1.0
  0
MTEXT
  5
435
330
1F
100
AcDbEntity
  8
0-B
  6
Continuous
 62
     7
370
   211
100
AcDbMText
 10
1657.499620592266
 20
-1118.031080118423
 30
0.0
 40
74.295
 41
97.5
 46
0.0
 71
     7
 72
     1
  1
{\fＭＳ ゴシック|b0|i0|c128|p49;15}
 11
6.123031769111886E-17
 21
1.0
 31
0.0
 73
     1
 44
1.0
  0
MTEXT
  5
436
330
1F
100
AcDbEntity
  8
0-B
  6
Continuous
 62
     7
370
   211
100
AcDbMText
 10
1757.499620592266
 20
-1133.031504503493
 30
0.0
 40
74.295
 41
97.5
 46
0.0
 71
     7
 72
     1
  1
{\fＭＳ ゴシック|b0|i0|c128|p49;12}
 11
6.123031769111886E-17
 21
1.0
 31
0.0
 73
     1
 44
1.0
  0
MTEXT
  5
437
330
1F
100
AcDbEntity
  8
0-B
  6
Continuous
 62
     7
370
   211
100
AcDbMText
 10
1904.999620592268
 20
-1302.138580118424
 30
0.0
 40
68.58
 41
45.0
 46
0.0
 71
     7
 72
     1
  1
{\fＭＳ ゴシック|b0|i0|c128|p49;4}
 73
     1
 44
1.0
  0
MTEXT
  5
438
330
1F
100
AcDbEntity
  8
0-B
  6
Continuous
 62
     7
370
   211
100
AcDbMText
 10
2228.749544298317
 20
-1299.281080118424
 30
0.0
 40
74.295
 41
97.5
 46
0.0
 71
     7
 72
     1
  1
{\fＭＳ ゴシック|b0|i0|c128|p49;67}
 73
     1
 44
1.0
  0
MTEXT
  5
439
330
1F
100
AcDbEntity
  8
0-B
  6
Continuous
 62
     7
370
   211
100
AcDbMText
 10
2604.999544298318
 20
-1302.138580118424
 30
0.0
 40
68.58
 41
45.0
 46
0.0
 71
     7
 72
     1
  1
{\fＭＳ ゴシック|b0|i0|c128|p49;4}
 73
     1
 44
1.0
  0
MTEXT
  5
43A
330
1F
100
AcDbEntity
  8
0-B
  6
Continuous
 62
     7
370
   211
100
AcDbMText
 10
2228.749620592268
 20
-1399.281080118423
 30
0.0
 40
74.295
 41
97.5
 46
0.0
 71
     7
 72
     1
  1
{\fＭＳ ゴシック|b0|i0|c128|p49;75}
 73
     1
 44
1.0
  0
LINE
  5
43B
330
1F
100
AcDbEntity
  8
0-B
  6
Continuous
 62
   120
370
     5
100
AcDbLine
 10
-4092.50039384172
 20
-1186.428580118424
 30
0.0
 11
-4092.50039384172
 21
-1066.429428888564
 31
0.0
  0
LWPOLYLINE
  5
43C
330
1F
100
AcDbEntity
  8
0-B
  6
Continuous
 62
     7
370
     9
100
AcDbPolyline
 90
        4
 70
     1
 43
3.0
 10
-4091.00039384172
 20
-1186.428580118424
 42
0.4142135623731
 10
-4092.50039384172
 20
-1184.928580118424
 42
0.4142135623731
 10
-4094.000393841721
 20
-1186.428580118424
 42
0.4142135623731
 10
-4092.50039384172
 20
-1187.928580118424
 42
0.4142135623731
  0
LWPOLYLINE
  5
43D
330
1F
100
AcDbEntity
  8
0-B
  6
Continuous
 62
     7
370
     9
100
AcDbPolyline
 90
        4
 70
     1
 43
3.0
 10
-4091.00039384172
 20
-1066.429428888564
 42
0.4142135623731
 10
-4092.50039384172
 20
-1064.929428888564
 42
0.4142135623731
 10
-4094.000393841721
 20
-1066.429428888564
 42
0.4142135623731
 10
-4092.50039384172
 20
-1067.929428888564
 42
0.4142135623731
  0
LINE
  5
43E
330
1F
100
AcDbEntity
  8
0-B
  6
Continuous
 62
   120
370
     5
100
AcDbLine
 10
-4192.500393841723
 20
-1186.428580118424
 30
0.0
 11
-3992.500393841723
 21
-1186.428580118424
 31
0.0
  0
LINE
  5
43F
330
1F
100
AcDbEntity
  8
0-B
  6
Continuous
 62
   120
370
     5
100
AcDbLine
 10
-4092.50039384172
 20
-1066.429428888564
 30
0.0
 11
-3992.500393841723
 21
-1066.429428888564
 31
0.0
  0
LINE
  5
440
330
1F
100
AcDbEntity
  8
0-B
  6
Continuous
 62
   120
370
     5
100
AcDbLine
 10
-4092.50039384172
 20
-1066.429428888564
 30
0.0
 11
-4092.50039384172
 21
-1036.428580118424
 31
0.0
  0
LWPOLYLINE
  5
441
330
1F
100
AcDbEntity
  8
0-B
  6
Continuous
 62
     7
370
     9
100
AcDbPolyline
 90
        4
 70
     1
 43
3.0
 10
-4091.00039384172
 20
-1036.428580118424
 42
0.4142135623731
 10
-4092.50039384172
 20
-1034.928580118424
 42
0.4142135623731
 10
-4094.000393841721
 20
-1036.428580118424
 42
0.4142135623731
 10
-4092.50039384172
 20
-1037.928580118424
 42
0.4142135623731
  0
LINE
  5
442
330
1F
100
AcDbEntity
  8
0-B
  6
Continuous
 62
   120
370
     5
100
AcDbLine
 10
-4192.500393841723
 20
-1036.428580118424
 30
0.0
 11
-3992.500393841723
 21
-1036.428580118424
 31
0.0
  0
LINE
  5
443
330
1F
100
AcDbEntity
  8
0-B
  6
Continuous
 62
   120
370
     5
100
AcDbLine
 10
-4192.500393841723
 20
-1186.428580118424
 30
0.0
 11
-4192.500393841723
 21
-1036.428580118424
 31
0.0
  0
LWPOLYLINE
  5
444
330
1F
100
AcDbEntity
  8
0-B
  6
Continuous
 62
     7
370
     9
100
AcDbPolyline
 90
        4
 70
     1
 43
3.0
 10
-4191.000393841723
 20
-1186.428580118424
 42
0.4142135623731
 10
-4192.500393841723
 20
-1184.928580118424
 42
0.4142135623731
 10
-4194.000393841724
 20
-1186.428580118424
 42
0.4142135623731
 10
-4192.500393841723
 20
-1187.928580118424
 42
0.4142135623731
  0
LWPOLYLINE
  5
445
330
1F
100
AcDbEntity
  8
0-B
  6
Continuous
 62
     7
370
     9
100
AcDbPolyline
 90
        4
 70
     1
 43
3.0
 10
-4191.000393841723
 20
-1036.428580118424
 42
0.4142135623731
 10
-4192.500393841723
 20
-1034.928580118424
 42
0.4142135623731
 10
-4194.000393841724
 20
-1036.428580118424
 42
0.4142135623731
 10
-4192.500393841723
 20
-1037.928580118424
 42
0.4142135623731
  0
LINE
  5
446
330
1F
100
AcDbEntity
  8
0-0
  6
JWW_HOJO
 62
   120
370
     5
100
AcDbLine
 10
-4192.500393841723
 20
-886.4285801184237
 30
0.0
 11
-3142.500393841724
 21
-886.4285801184237
 31
0.0
  0
LINE
  5
447
330
1F
100
AcDbEntity
  8
0-0
  6
JWW_HOJO
 62
   120
370
     5
100
AcDbLine
 10
-4192.500393841723
 20
-786.4285801184235
 30
0.0
 11
-3142.500393841724
 21
-786.4285801184235
 31
0.0
  0
LINE
  5
448
330
1F
100
AcDbEntity
  8
0-0
  6
JWW_HOJO
 62
   120
370
     5
100
AcDbLine
 10
-3142.500393841724
 20
-1336.428580118424
 30
0.0
 11
-3992.500393841723
 21
-1336.428580118424
 31
0.0
  0
LINE
  5
449
330
1F
100
AcDbEntity
  8
0-0
  6
JWW_HOJO
 62
   120
370
     5
100
AcDbLine
 10
-3992.500393841723
 20
-886.4285801184237
 30
0.0
 11
-3992.500393841723
 21
-1336.428580118424
 31
0.0
  0
LINE
  5
44A
330
1F
100
AcDbEntity
  8
0-0
  6
JWW_HOJO
 62
   120
370
     5
100
AcDbLine
 10
-3142.500393841724
 20
-1436.428580118423
 30
0.0
 11
-3142.500393841724
 21
-786.4285801184235
 31
0.0
  0
LINE
  5
44B
330
1F
100
AcDbEntity
  8
0-0
  6
JWW_HOJO
 62
   120
370
     5
100
AcDbLine
 10
-3142.500393841724
 20
-1436.428580118423
 30
0.0
 11
-4192.500393841723
 21
-1436.428580118423
 31
0.0
  0
LINE
  5
44C
330
1F
100
AcDbEntity
  8
0-0
  6
JWW_HOJO
 62
   120
370
     5
100
AcDbLine
 10
-4192.500393841723
 20
-786.4285801184235
 30
0.0
 11
-4192.500393841723
 21
-1436.428580118423
 31
0.0
  0
LINE
  5
44D
330
1F
100
AcDbEntity
  8
0-0
  6
JWW_HOJO
 62
   120
370
     5
100
AcDbLine
 10
-4092.500393841724
 20
-786.4285801184235
 30
0.0
 11
-4092.500393841724
 21
-1436.428580118423
 31
0.0
  0
MTEXT
  5
44E
330
1F
100
AcDbEntity
  8
0-B
  6
Continuous
 62
     7
370
   211
100
AcDbMText
 10
-4087.500393841724
 20
-1041.779128815426
 30
0.0
 40
68.58
 41
45.0
 46
0.0
 71
     7
 72
     1
  1
{\fＭＳ ゴシック|b0|i0|c128|p49;3}
 11
6.123031769111886E-17
 21
1.0
 31
0.0
 73
     1
 44
1.0
  0
MTEXT
  5
44F
330
1F
100
AcDbEntity
  8
0-B
  6
Continuous
 62
     7
370
   211
100
AcDbMText
 10
-4187.500393841723
 20
-1168.031080118424
 30
0.0
 40
74.295
 41
97.5
 46
0.0
 71
     7
 72
     1
  1
{\fＭＳ ゴシック|b0|i0|c128|p49;15}
 11
6.123031769111886E-17
 21
1.0
 31
0.0
 73
     1
 44
1.0
  0
MTEXT
  5
450
330
1F
100
AcDbEntity
  8
0-B
  6
Continuous
 62
     7
370
   211
100
AcDbMText
 10
-4087.500393841724
 20
-1183.031504503494
 30
0.0
 40
74.295
 41
97.5
 46
0.0
 71
     7
 72
     1
  1
{\fＭＳ ゴシック|b0|i0|c128|p49;12}
 11
6.123031769111886E-17
 21
1.0
 31
0.0
 73
     1
 44
1.0
  0
LINE
  5
451
330
1F
100
AcDbEntity
  8
0-B
  6
Continuous
 62
   120
370
     5
100
AcDbLine
 10
-3232.500393841725
 20
-1336.428580118424
 30
0.0
 11
-3902.500241253824
 21
-1336.428580118424
 31
0.0
  0
LINE
  5
452
330
1F
100
AcDbEntity
  8
0-4
  6
Continuous
 62
    92
370
    13
100
AcDbLine
 10
-3902.500241253824
 20
-1186.428580118424
 30
0.0
 11
-3232.500393841725
 21
-1186.428580118424
 31
0.0
  0
LINE
  5
453
330
1F
100
AcDbEntity
  8
0-4
  6
Continuous
 62
    92
370
    13
100
AcDbLine
 10
-3902.500393841724
 20
-1186.428580118424
 30
0.0
 11
-3902.500393841724
 21
-1066.429428888564
 31
0.0
  0
LINE
  5
454
330
1F
100
AcDbEntity
  8
0-4
  6
Continuous
 62
    92
370
    13
100
AcDbLine
 10
-3942.500393841728
 20
-1066.428580118427
 30
0.0
 11
-3902.500393841724
 21
-1066.428580118427
 31
0.0
  0
LWPOLYLINE
  5
455
330
1F
100
AcDbEntity
  8
0-B
  6
Continuous
 62
     7
370
     9
100
AcDbPolyline
 90
        4
 70
     1
 43
3.0
 10
-3901.000241253824
 20
-1336.428580118424
 42
0.4142135623731
 10
-3902.500241253824
 20
-1334.928580118424
 42
0.4142135623731
 10
-3904.000241253825
 20
-1336.428580118424
 42
0.4142135623731
 10
-3902.500241253824
 20
-1337.928580118424
 42
0.4142135623731
  0
LINE
  5
456
330
1F
100
AcDbEntity
  8
0-B
  6
Continuous
 62
   120
370
     5
100
AcDbLine
 10
-3902.500241253824
 20
-1336.428580118424
 30
0.0
 11
-3902.500241253824
 21
-1236.428580118423
 31
0.0
  0
LINE
  5
457
330
1F
100
AcDbEntity
  8
0-B
  6
Continuous
 62
   120
370
     5
100
AcDbLine
 10
-3902.500241253824
 20
-1336.428580118424
 30
0.0
 11
-3942.500393841728
 21
-1336.428580118424
 31
0.0
  0
LINE
  5
458
330
1F
100
AcDbEntity
  8
0-B
  6
Continuous
 62
   120
370
     5
100
AcDbLine
 10
-3232.500393841725
 20
-1336.428580118424
 30
0.0
 11
-3232.500393841725
 21
-1236.428580118423
 31
0.0
  0
LWPOLYLINE
  5
459
330
1F
100
AcDbEntity
  8
0-B
  6
Continuous
 62
     7
370
     9
100
AcDbPolyline
 90
        4
 70
     1
 43
3.0
 10
-3231.000393841725
 20
-1336.428580118424
 42
0.4142135623731
 10
-3232.500393841725
 20
-1334.928580118424
 42
0.4142135623731
 10
-3234.000393841725
 20
-1336.428580118424
 42
0.4142135623731
 10
-3232.500393841725
 20
-1337.928580118424
 42
0.4142135623731
  0
LINE
  5
45A
330
1F
100
AcDbEntity
  8
0-B
  6
Continuous
 62
   120
370
     5
100
AcDbLine
 10
-3192.500393841724
 20
-1336.428580118424
 30
0.0
 11
-3232.500393841725
 21
-1336.428580118424
 31
0.0
  0
LINE
  5
45B
330
1F
100
AcDbEntity
  8
0-4
  6
Continuous
 62
    92
370
    13
100
AcDbLine
 10
-3232.500393841725
 20
-1066.428580118427
 30
0.0
 11
-3192.500393841724
 21
-1066.428580118427
 31
0.0
  0
LINE
  5
45C
330
1F
100
AcDbEntity
  8
0-4
  6
Continuous
 62
    92
370
    13
100
AcDbLine
 10
-3232.500393841725
 20
-1186.428580118424
 30
0.0
 11
-3232.500393841725
 21
-1066.429428888564
 31
0.0
  0
ARC
  5
45D
330
1F
100
AcDbEntity
  8
0-4
  6
Continuous
 62
    92
370
    13
100
AcDbCircle
 10
-3912.500393841724
 20
-1066.428580118427
 30
0.0
 40
30.0
100
AcDbArc
 50
90.0
 51
180.0
  0
ARC
  5
45E
330
1F
100
AcDbEntity
  8
0-4
  6
Continuous
 62
    92
370
    13
100
AcDbCircle
 10
-3912.500393841724
 20
-1066.428580118427
 30
0.0
 40
25.0
100
AcDbArc
 50
90.0
 51
180.0
  0
LINE
  5
45F
330
1F
100
AcDbEntity
  8
0-0
  6
JWW_HOJO
 62
   120
370
     5
100
AcDbLine
 10
-3942.500393841724
 20
-1236.428580118423
 30
0.0
 11
-3942.500393841724
 21
-986.4285801184233
 31
0.0
  0
ARC
  5
460
330
1F
100
AcDbEntity
  8
0-4
  6
Continuous
 62
    92
370
    13
100
AcDbCircle
 10
-3222.500393841728
 20
-1066.428580118427
 30
0.0
 40
30.0
100
AcDbArc
 50
0.0
 51
90.0
  0
ARC
  5
461
330
1F
100
AcDbEntity
  8
0-4
  6
Continuous
 62
    92
370
    13
100
AcDbCircle
 10
-3222.500393841728
 20
-1066.428580118427
 30
0.0
 40
25.0
100
AcDbArc
 50
0.0
 51
90.0
  0
LINE
  5
462
330
1F
100
AcDbEntity
  8
0-0
  6
JWW_HOJO
 62
   120
370
     5
100
AcDbLine
 10
-3192.500393841724
 20
-986.4285801184233
 30
0.0
 11
-3192.500393841724
 21
-1236.428580118423
 31
0.0
  0
LINE
  5
463
330
1F
100
AcDbEntity
  8
0-0
  6
JWW_HOJO
 62
   120
370
     5
100
AcDbLine
 10
-3942.500393841724
 20
-1236.428580118423
 30
0.0
 11
-3192.500393841724
 21
-1236.428580118423
 31
0.0
  0
LWPOLYLINE
  5
464
330
1F
100
AcDbEntity
  8
0-B
  6
Continuous
 62
     7
370
     9
100
AcDbPolyline
 90
        4
 70
     1
 43
3.0
 10
-3191.000393841724
 20
-1336.428580118424
 42
0.4142135623731
 10
-3192.500393841724
 20
-1334.928580118424
 42
0.4142135623731
 10
-3194.000393841724
 20
-1336.428580118424
 42
0.4142135623731
 10
-3192.500393841724
 20
-1337.928580118424
 42
0.4142135623731
  0
LINE
  5
465
330
1F
100
AcDbEntity
  8
0-B
  6
Continuous
 62
   120
370
     5
100
AcDbLine
 10
-3192.500393841724
 20
-1436.428580118423
 30
0.0
 11
-3192.500393841724
 21
-1236.428580118423
 31
0.0
  0
LWPOLYLINE
  5
466
330
1F
100
AcDbEntity
  8
0-B
  6
Continuous
 62
     7
370
     9
100
AcDbPolyline
 90
        4
 70
     1
 43
3.0
 10
-3941.000393841727
 20
-1336.428580118424
 42
0.4142135623731
 10
-3942.500393841728
 20
-1334.928580118424
 42
0.4142135623731
 10
-3944.000393841728
 20
-1336.428580118424
 42
0.4142135623731
 10
-3942.500393841728
 20
-1337.928580118424
 42
0.4142135623731
  0
LINE
  5
467
330
1F
100
AcDbEntity
  8
0-B
  6
Continuous
 62
   120
370
     5
100
AcDbLine
 10
-3942.500393841728
 20
-1436.428580118423
 30
0.0
 11
-3942.500393841728
 21
-1236.428580118423
 31
0.0
  0
LINE
  5
468
330
1F
100
AcDbEntity
  8
0-B
  6
Continuous
 62
   120
370
     5
100
AcDbLine
 10
-3192.500393841724
 20
-1436.428580118423
 30
0.0
 11
-3942.500393841728
 21
-1436.428580118423
 31
0.0
  0
LWPOLYLINE
  5
469
330
1F
100
AcDbEntity
  8
0-B
  6
Continuous
 62
     7
370
     9
100
AcDbPolyline
 90
        4
 70
     1
 43
3.0
 10
-3191.000393841724
 20
-1436.428580118423
 42
0.4142135623731
 10
-3192.500393841724
 20
-1434.928580118423
 42
0.4142135623731
 10
-3194.000393841724
 20
-1436.428580118423
 42
0.4142135623731
 10
-3192.500393841724
 20
-1437.928580118423
 42
0.4142135623731
  0
LWPOLYLINE
  5
46A
330
1F
100
AcDbEntity
  8
0-B
  6
Continuous
 62
     7
370
     9
100
AcDbPolyline
 90
        4
 70
     1
 43
3.0
 10
-3941.000393841727
 20
-1436.428580118423
 42
0.4142135623731
 10
-3942.500393841728
 20
-1434.928580118423
 42
0.4142135623731
 10
-3944.000393841728
 20
-1436.428580118423
 42
0.4142135623731
 10
-3942.500393841728
 20
-1437.928580118423
 42
0.4142135623731
  0
MTEXT
  5
46B
330
1F
100
AcDbEntity
  8
0-B
  6
Continuous
 62
     7
370
   211
100
AcDbMText
 10
-3240.000393841725
 20
-1352.138580118424
 30
0.0
 40
68.58
 41
45.0
 46
0.0
 71
     7
 72
     1
  1
{\fＭＳ ゴシック|b0|i0|c128|p49;4}
 73
     1
 44
1.0
  0
MTEXT
  5
46C
330
1F
100
AcDbEntity
  8
0-B
  6
Continuous
 62
     7
370
   211
100
AcDbMText
 10
-3616.250317547775
 20
-1349.281080118423
 30
0.0
 40
74.295
 41
97.5
 46
0.0
 71
     7
 72
     1
  1
{\fＭＳ ゴシック|b0|i0|c128|p49;67}
 73
     1
 44
1.0
  0
MTEXT
  5
46D
330
1F
100
AcDbEntity
  8
0-B
  6
Continuous
 62
     7
370
   211
100
AcDbMText
 10
-3940.000317547775
 20
-1352.138580118424
 30
0.0
 40
68.58
 41
45.0
 46
0.0
 71
     7
 72
     1
  1
{\fＭＳ ゴシック|b0|i0|c128|p49;4}
 73
     1
 44
1.0
  0
MTEXT
  5
46E
330
1F
100
AcDbEntity
  8
0-B
  6
Continuous
 62
     7
370
   211
100
AcDbMText
 10
-3616.250393841724
 20
-1449.281080118424
 30
0.0
 40
74.295
 41
97.5
 46
0.0
 71
     7
 72
     1
  1
{\fＭＳ ゴシック|b0|i0|c128|p49;75}
 73
     1
 44
1.0
  0
LINE
  5
46F
330
1F
100
AcDbEntity
  8
0-4
  6
Continuous
 62
    92
370
    13
100
AcDbLine
 10
-3912.500813458419
 20
-1041.428103281269
 30
0.0
 11
-3222.500393841728
 21
-1041.428103281269
 31
0.0
  0
LINE
  5
470
330
1F
100
AcDbEntity
  8
0-4
  6
Continuous
 62
    92
370
    13
100
AcDbLine
 10
-3912.500393841724
 20
-1036.428580118424
 30
0.0
 11
-3222.500393841728
 21
-1036.428580118424
 31
0.0
  0
LINE
  5
471
330
1F
100
AcDbEntity
  8
0-0
  6
JWW_HOJO
 62
   120
370
     5
100
AcDbLine
 10
-3192.500393841724
 20
-986.4285801184233
 30
0.0
 11
-3942.500393841724
 21
-986.4285801184233
 31
0.0
  0
MTEXT
  5
472
330
1F
100
AcDbEntity
  8
0-A
  6
Continuous
 62
     7
370
     9
100
AcDbMText
 10
-1445.00075881546
 20
-737.5856951462945
 30
0.0
 40
57.15
 41
712.5
 46
0.0
 71
     7
 72
     1
  1
{\fＭＳ ゴシック|b0|i0|c128|p49;ＤＣＱＬ4ＳＢ-Ｔ-□}
 73
     1
 44
1.0
  0
MTEXT
  5
473
330
1F
100
AcDbEntity
  8
0-A
  6
Continuous
 62
     7
370
     9
100
AcDbMText
 10
4399.999719568196
 20
-735.480168830505
 30
0.0
 40
61.36105263157894
 41
765.0
 46
0.0
 71
     7
 72
     1
  1
{\fＭＳ ゴシック|b0|i0|c128|p49;ＤＣＱＩ4ＳＢ-Ｔ-□}
 73
     1
 44
1.0
  0
LINE
  5
474
330
1F
100
AcDbEntity
  8
0-4
  6
Continuous
 62
    92
370
    13
100
AcDbLine
 10
1932.499200975563
 20
-991.4281032812676
 30
0.0
 11
2622.499620592267
 21
-991.4281032812676
 31
0.0
  0
LINE
  5
475
330
1F
100
AcDbEntity
  8
0-4
  6
Continuous
 62
    92
370
    13
100
AcDbLine
 10
1932.499620592268
 20
-986.4285801184233
 30
0.0
 11
2622.499954378278
 21
-986.4285801184233
 31
0.0
  0
ENDSEC
  0
SECTION
  2
OBJECTS
  0
DICTIONARY
  5
C
330
0
100
AcDbDictionary
281
     1
  3
ACAD_GROUP
350
D
  3
ACAD_LAYOUT
350
1A
  3
ACAD_MATERIAL
350
3B
  3
ACAD_MLEADERSTYLE
350
477
  3
ACAD_MLINESTYLE
350
17
  3
ACAD_PLOTSETTINGS
350
19
  3
ACAD_PLOTSTYLENAME
350
E
  3
ACAD_TABLESTYLE
350
476
  3
ACAD_VISUALSTYLE
350
2A
  0
DICTIONARY
  5
D
102
{ACAD_REACTORS
330
C
102
}
330
C
100
AcDbDictionary
281
     1
  0
DICTIONARY
  5
1A
102
{ACAD_REACTORS
330
C
102
}
330
C
100
AcDbDictionary
281
     1
  3
Layout1
350
1E
  3
Layout2
350
26
  3
Model
350
22
  0
DICTIONARY
  5
3B
102
{ACAD_REACTORS
330
C
102
}
330
C
100
AcDbDictionary
281
     1
  3
ByBlock
350
3D
  3
ByLayer
350
3C
  3
Global
350
3E
  0
DICTIONARY
  5
477
102
{ACAD_REACTORS
330
C
102
}
330
C
100
AcDbDictionary
281
     1
  0
DICTIONARY
  5
17
102
{ACAD_REACTORS
330
C
102
}
330
C
100
AcDbDictionary
281
     1
  3
Standard
350
18
  0
DICTIONARY
  5
19
102
{ACAD_REACTORS
330
C
102
}
330
C
100
AcDbDictionary
281
     1
  0
ACDBDICTIONARYWDFLT
  5
E
102
{ACAD_REACTORS
330
C
102
}
330
C
100
AcDbDictionary
281
     1
  3
Normal
350
F
100
AcDbDictionaryWithDefault
340
F
  0
DICTIONARY
  5
476
102
{ACAD_REACTORS
330
C
102
}
330
C
100
AcDbDictionary
281
     1
  0
DICTIONARY
  5
2A
102
{ACAD_REACTORS
330
C
102
}
330
C
100
AcDbDictionary
281
     1
  3
2dWireframe
350
2F
  3
3D Hidden
350
31
  3
3dWireframe
350
30
  3
Basic
350
32
  3
Brighten
350
36
  3
ColorChange
350
3A
  3
Conceptual
350
34
  3
Dim
350
35
  3
Facepattern
350
39
  3
Flat
350
2B
  3
FlatWithEdges
350
2C
  3
Gouraud
350
2D
  3
GouraudWithEdges
350
2E
  3
Linepattern
350
38
  3
Realistic
350
33
  3
Thicken
350
37
  0
LAYOUT
  5
1E
102
{ACAD_REACTORS
330
1A
102
}
330
1A
100
AcDbPlotSettings
  1

  2
none_device
  4

  6

 40
0.0
 41
0.0
 42
0.0
 43
0.0
 44
0.0
 45
0.0
 46
0.0
 47
0.0
 48
0.0
 49
0.0
140
0.0
141
0.0
142
1.0
143
1.0
 70
   688
 72
     0
 73
     0
 74
     5
  7

 75
    16
 76
     0
 77
     5
 78
   300
147
1.0
148
0.0
149
0.0
100
AcDbLayout
  1
Layout1
 70
     1
 71
     1
 10
0.0
 20
0.0
 11
420.0
 21
297.0
 12
0.0
 22
0.0
 32
0.0
 14
1.000000000000000E+20
 24
1.000000000000000E+20
 34
1.000000000000000E+20
 15
-1.000000000000000E+20
 25
-1.000000000000000E+20
 35
-1.000000000000000E+20
146
0.0
 13
0.0
 23
0.0
 33
0.0
 16
1.0
 26
0.0
 36
0.0
 17
0.0
 27
1.0
 37
0.0
 76
     0
330
1B
  0
LAYOUT
  5
26
102
{ACAD_REACTORS
330
1A
102
}
330
1A
100
AcDbPlotSettings
  1

  2
none_device
  4

  6

 40
0.0
 41
0.0
 42
0.0
 43
0.0
 44
0.0
 45
0.0
 46
0.0
 47
0.0
 48
0.0
 49
0.0
140
0.0
141
0.0
142
1.0
143
1.0
 70
   688
 72
     0
 73
     0
 74
     5
  7

 75
    16
 76
     0
 77
     5
 78
   300
147
1.0
148
0.0
149
0.0
100
AcDbLayout
  1
Layout2
 70
     1
 71
     2
 10
0.0
 20
0.0
 11
0.0
 21
0.0
 12
0.0
 22
0.0
 32
0.0
 14
0.0
 24
0.0
 34
0.0
 15
0.0
 25
0.0
 35
0.0
146
0.0
 13
0.0
 23
0.0
 33
0.0
 16
1.0
 26
0.0
 36
0.0
 17
0.0
 27
1.0
 37
0.0
 76
     0
330
23
  0
LAYOUT
  5
22
102
{ACAD_REACTORS
330
1A
102
}
330
1A
100
AcDbPlotSettings
  1

  2
none_device
  4

  6

 40
0.0
 41
0.0
 42
0.0
 43
0.0
 44
0.0
 45
0.0
 46
0.0
 47
0.0
 48
0.0
 49
0.0
140
0.0
141
0.0
142
1.0
143
1.0
 70
  1712
 72
     0
 73
     0
 74
     0
  7

 75
     0
 76
     0
 77
     5
 78
   300
147
1.0
148
0.0
149
0.0
100
AcDbLayout
  1
Model
 70
     1
 71
     0
 10
-6300.0
 20
-4455.0
 11
6300.0
 21
4455.0
 12
0.0
 22
0.0
 32
0.0
 14
-6300.0
 24
-4455.0
 34
0.0
 15
6300.0
 25
4455.0
 35
0.0
146
0.0
 13
0.0
 23
0.0
 33
0.0
 16
1.0
 26
0.0
 36
0.0
 17
0.0
 27
1.0
 37
0.0
 76
     0
330
1F
331
29
  0
MATERIAL
  5
3D
102
{ACAD_REACTORS
330
3B
102
}
330
3B
100
AcDbMaterial
  1
ByBlock
 72
     1
 94
      127
  0
MATERIAL
  5
3C
102
{ACAD_REACTORS
330
3B
102
}
330
3B
100
AcDbMaterial
  1
ByLayer
 72
     1
 94
      127
  0
MATERIAL
  5
3E
102
{ACAD_REACTORS
330
3B
102
}
330
3B
100
AcDbMaterial
  1
Global
 72
     1
 94
      127
  0
MLINESTYLE
  5
18
102
{ACAD_REACTORS
330
17
102
}
330
17
100
AcDbMlineStyle
  2
Standard
 70
     0
  3

 62
   256
 51
90.0
 52
90.0
 71
     2
 49
0.5
 62
   256
  6
BYLAYER
 49
-0.5
 62
   256
  6
BYLAYER
  0
ACDBPLACEHOLDER
  5
F
102
{ACAD_REACTORS
330
E
102
}
330
E
  0
VISUALSTYLE
  5
2F
102
{ACAD_REACTORS
330
2A
102
}
330
2A
100
AcDbVisualStyle
  2
2dWireframe
 70
     4
177
     2
291
     0
 71
     0
176
     1
 72
     2
176
     1
 73
     0
176
     1
 90
        0
176
     1
 40
-0.6
176
     1
 41
-30.0
176
     1
 62
     5
 63
     7
421
 16777215
176
     1
 74
     1
176
     1
 91
        4
176
     1
 64
     7
176
     1
 65
   257
176
     1
 75
     1
176
     1
175
     1
176
     1
 42
1.0
176
     1
 92
        0
176
     1
 66
   257
176
     1
 43
1.0
176
     1
 76
     1
176
     1
 77
     6
176
     1
 78
     2
176
     1
 67
     7
176
     1
 79
     5
176
     1
170
     0
176
     1
171
     0
176
     1
290
     0
176
     1
 93
        1
176
     1
 44
0.0
176
     1
173
     0
176
     1
  0
VISUALSTYLE
  5
31
102
{ACAD_REACTORS
330
2A
102
}
330
2A
100
AcDbVisualStyle
  2
3D Hidden
 70
     6
177
     2
291
     0
 71
     1
176
     1
 72
     2
176
     1
 73
     2
176
     1
 90
        0
176
     1
 40
-0.6
176
     1
 41
-30.0
176
     1
 62
     5
 63
     7
421
 16777215
176
     1
 74
     2
176
     1
 91
        2
176
     1
 64
     7
176
     1
 65
   257
176
     1
 75
     2
176
     1
175
     1
176
     1
 42
40.0
176
     1
 92
        0
176
     1
 66
   257
176
     1
 43
1.0
176
     1
 76
     1
176
     1
 77
     6
176
     1
 78
     2
176
     1
 67
     7
176
     1
 79
     3
176
     1
170
     0
176
     1
171
     0
176
     1
290
     0
176
     1
 93
        1
176
     1
 44
0.0
176
     1
173
     0
176
     1
  0
VISUALSTYLE
  5
30
102
{ACAD_REACTORS
330
2A
102
}
330
2A
100
AcDbVisualStyle
  2
3dWireframe
 70
     5
177
     2
291
     0
 71
     0
176
     1
 72
     2
176
     1
 73
     0
176
     1
 90
        0
176
     1
 40
-0.6
176
     1
 41
-30.0
176
     1
 62
     5
 63
     7
421
 16777215
176
     1
 74
     1
176
     1
 91
        4
176
     1
 64
     7
176
     1
 65
   257
176
     1
 75
     1
176
     1
175
     1
176
     1
 42
1.0
176
     1
 92
        0
176
     1
 66
   257
176
     1
 43
1.0
176
     1
 76
     1
176
     1
 77
     6
176
     1
 78
     2
176
     1
 67
     7
176
     1
 79
     5
176
     1
170
     0
176
     1
171
     0
176
     1
290
     0
176
     1
 93
        1
176
     1
 44
0.0
176
     1
173
     0
176
     1
  0
VISUALSTYLE
  5
32
102
{ACAD_REACTORS
330
2A
102
}
330
2A
100
AcDbVisualStyle
  2
Basic
 70
     7
177
     2
291
     1
 71
     1
176
     1
 72
     0
176
     1
 73
     1
176
     1
 90
        0
176
     1
 40
-0.6
176
     1
 41
-30.0
176
     1
 62
     5
 63
     7
421
 16777215
176
     1
 74
     0
176
     1
 91
        4
176
     1
 64
     7
176
     1
 65
   257
176
     1
 75
     1
176
     1
175
     1
176
     1
 42
1.0
176
     1
 92
        8
176
     1
 66
     7
176
     1
 43
1.0
176
     1
 76
     1
176
     1
 77
     6
176
     1
 78
     2
176
     1
 67
     7
176
     1
 79
     5
176
     1
170
     0
176
     1
171
     0
176
     1
290
     0
176
     1
 93
        1
176
     1
 44
0.0
176
     1
173
     0
176
     1
  0
VISUALSTYLE
  5
36
102
{ACAD_REACTORS
330
2A
102
}
330
2A
100
AcDbVisualStyle
  2
Brighten
 70
    12
177
     2
291
     1
 71
     2
176
     1
 72
     2
176
     1
 73
     0
176
     1
 90
        0
176
     1
 40
-0.6
176
     1
 41
-30.0
176
     1
 62
     5
 63
     7
421
 16777215
176
     1
 74
     1
176
     1
 91
        4
176
     1
 64
     7
176
     1
 65
   257
176
     1
 75
     1
176
     1
175
     1
176
     1
 42
1.0
176
     1
 92
        8
176
     1
 66
     7
176
     1
 43
1.0
176
     1
 76
     1
176
     1
 77
     6
176
     1
 78
     2
176
     1
 67
     7
176
     1
 79
     5
176
     1
170
     0
176
     1
171
     0
176
     1
290
     0
176
     1
 93
        1
176
     1
 44
50.0
176
     1
173
     0
176
     1
  0
VISUALSTYLE
  5
3A
102
{ACAD_REACTORS
330
2A
102
}
330
2A
100
AcDbVisualStyle
  2
ColorChange
 70
    16
177
     2
291
     1
 71
     2
176
     1
 72
     2
176
     1
 73
     3
176
     1
 90
        0
176
     1
 40
-0.6
176
     1
 41
-30.0
176
     1
 62
     5
 63
     8
421
  8421504
176
     1
 74
     1
176
     1
 91
        4
176
     1
 64
     7
176
     1
 65
   257
176
     1
 75
     1
176
     1
175
     1
176
     1
 42
1.0
176
     1
 92
        8
176
     1
 66
     8
424
  8421504
176
     1
 43
1.0
176
     1
 76
     1
176
     1
 77
     6
176
     1
 78
     2
176
     1
 67
     7
176
     1
 79
     5
176
     1
170
     0
176
     1
171
     0
176
     1
290
     0
176
     1
 93
        1
176
     1
 44
0.0
176
     1
173
     0
176
     1
  0
VISUALSTYLE
  5
34
102
{ACAD_REACTORS
330
2A
102
}
330
2A
100
AcDbVisualStyle
  2
Conceptual
 70
     9
177
     2
291
     0
 71
     3
176
     1
 72
     2
176
     1
 73
     0
176
     1
 90
        0
176
     1
 40
-0.6
176
     1
 41
-30.0
176
     1
 62
     5
 63
     7
421
 16777215
176
     1
 74
     2
176
     1
 91
        2
176
     1
 64
     7
176
     1
 65
   257
176
     1
 75
     1
176
     1
175
     1
176
     1
 42
40.0
176
     1
 92
        8
176
     1
 66
     7
176
     1
 43
1.0
176
     1
 76
     1
176
     1
 77
     6
176
     1
 78
     2
176
     1
 67
     7
176
     1
 79
     3
176
     1
170
     0
176
     1
171
     0
176
     1
290
     0
176
     1
 93
        1
176
     1
 44
0.0
176
     1
173
     0
176
     1
  0
VISUALSTYLE
  5
35
102
{ACAD_REACTORS
330
2A
102
}
330
2A
100
AcDbVisualStyle
  2
Dim
 70
    11
177
     2
291
     1
 71
     2
176
     1
 72
     2
176
     1
 73
     0
176
     1
 90
        0
176
     1
 40
-0.6
176
     1
 41
-30.0
176
     1
 62
     5
 63
     7
421
 16777215
176
     1
 74
     1
176
     1
 91
        4
176
     1
 64
     7
176
     1
 65
   257
176
     1
 75
     1
176
     1
175
     1
176
     1
 42
1.0
176
     1
 92
        8
176
     1
 66
     7
176
     1
 43
1.0
176
     1
 76
     1
176
     1
 77
     6
176
     1
 78
     2
176
     1
 67
     7
176
     1
 79
     5
176
     1
170
     0
176
     1
171
     0
176
     1
290
     0
176
     1
 93
        1
176
     1
 44
-50.0
176
     1
173
     0
176
     1
  0
VISUALSTYLE
  5
39
102
{ACAD_REACTORS
330
2A
102
}
330
2A
100
AcDbVisualStyle
  2
Facepattern
 70
    15
177
     2
291
     1
 71
     2
176
     1
 72
     2
176
     1
 73
     0
176
     1
 90
        0
176
     1
 40
-0.6
176
     1
 41
-30.0
176
     1
 62
     5
 63
     7
421
 16777215
176
     1
 74
     1
176
     1
 91
        4
176
     1
 64
     7
176
     1
 65
   257
176
     1
 75
     1
176
     1
175
     1
176
     1
 42
1.0
176
     1
 92
        8
176
     1
 66
     7
176
     1
 43
1.0
176
     1
 76
     1
176
     1
 77
     6
176
     1
 78
     2
176
     1
 67
     7
176
     1
 79
     5
176
     1
170
     0
176
     1
171
     0
176
     1
290
     0
176
     1
 93
        1
176
     1
 44
0.0
176
     1
173
     0
176
     1
  0
VISUALSTYLE
  5
2B
102
{ACAD_REACTORS
330
2A
102
}
330
2A
100
AcDbVisualStyle
  2
Flat
 70
     0
177
     2
291
     1
 71
     2
176
     1
 72
     1
176
     1
 73
     1
176
     1
 90
        2
176
     1
 40
-0.6
176
     1
 41
30.0
176
     1
 62
     5
 63
     7
421
 16777215
176
     1
 74
     0
176
     1
 91
        4
176
     1
 64
     7
176
     1
 65
   257
176
     1
 75
     1
176
     1
175
     1
176
     1
 42
1.0
176
     1
 92
        8
176
     1
 66
     7
176
     1
 43
1.0
176
     1
 76
     1
176
     1
 77
     6
176
     1
 78
     2
176
     1
 67
     7
176
     1
 79
     5
176
     1
170
     0
176
     1
171
     0
176
     1
290
     0
176
     1
 93
       13
176
     1
 44
0.0
176
     1
173
     0
176
     1
  0
VISUALSTYLE
  5
2C
102
{ACAD_REACTORS
330
2A
102
}
330
2A
100
AcDbVisualStyle
  2
FlatWithEdges
 70
     1
177
     2
291
     1
 71
     2
176
     1
 72
     1
176
     1
 73
     1
176
     1
 90
        2
176
     1
 40
-0.6
176
     1
 41
30.0
176
     1
 62
     5
 63
     7
421
 16777215
176
     1
 74
     1
176
     1
 91
        4
176
     1
 64
     7
176
     1
 65
   257
176
     1
 75
     1
176
     1
175
     1
176
     1
 42
1.0
176
     1
 92
        0
176
     1
 66
   257
176
     1
 43
1.0
176
     1
 76
     1
176
     1
 77
     6
176
     1
 78
     2
176
     1
 67
     7
176
     1
 79
     5
176
     1
170
     0
176
     1
171
     0
176
     1
290
     0
176
     1
 93
       13
176
     1
 44
0.0
176
     1
173
     0
176
     1
  0
VISUALSTYLE
  5
2D
102
{ACAD_REACTORS
330
2A
102
}
330
2A
100
AcDbVisualStyle
  2
Gouraud
 70
     2
177
     2
291
     1
 71
     2
176
     1
 72
     2
176
     1
 73
     1
176
     1
 90
        2
176
     1
 40
-0.6
176
     1
 41
30.0
176
     1
 62
     5
 63
     7
421
 16777215
176
     1
 74
     0
176
     1
 91
        4
176
     1
 64
     7
176
     1
 65
   257
176
     1
 75
     1
176
     1
175
     1
176
     1
 42
1.0
176
     1
 92
        0
176
     1
 66
     7
176
     1
 43
1.0
176
     1
 76
     1
176
     1
 77
     6
176
     1
 78
     2
176
     1
 67
     7
176
     1
 79
     5
176
     1
170
     0
176
     1
171
     0
176
     1
290
     0
176
     1
 93
       13
176
     1
 44
0.0
176
     1
173
     0
176
     1
  0
VISUALSTYLE
  5
2E
102
{ACAD_REACTORS
330
2A
102
}
330
2A
100
AcDbVisualStyle
  2
GouraudWithEdges
 70
     3
177
     2
291
     1
 71
     2
176
     1
 72
     2
176
     1
 73
     1
176
     1
 90
        2
176
     1
 40
-0.6
176
     1
 41
30.0
176
     1
 62
     5
 63
     7
421
 16777215
176
     1
 74
     1
176
     1
 91
        4
176
     1
 64
     7
176
     1
 65
   257
176
     1
 75
     1
176
     1
175
     1
176
     1
 42
1.0
176
     1
 92
        0
176
     1
 66
   257
176
     1
 43
1.0
176
     1
 76
     1
176
     1
 77
     6
176
     1
 78
     2
176
     1
 67
     7
176
     1
 79
     5
176
     1
170
     0
176
     1
171
     0
176
     1
290
     0
176
     1
 93
       13
176
     1
 44
0.0
176
     1
173
     0
176
     1
  0
VISUALSTYLE
  5
38
102
{ACAD_REACTORS
330
2A
102
}
330
2A
100
AcDbVisualStyle
  2
Linepattern
 70
    14
177
     2
291
     1
 71
     2
176
     1
 72
     2
176
     1
 73
     0
176
     1
 90
        0
176
     1
 40
-0.6
176
     1
 41
-30.0
176
     1
 62
     5
 63
     7
421
 16777215
176
     1
 74
     1
176
     1
 91
        4
176
     1
 64
     7
176
     1
 65
   257
176
     1
 75
     7
176
     1
175
     7
176
     1
 42
1.0
176
     1
 92
        8
176
     1
 66
     7
176
     1
 43
1.0
176
     1
 76
     1
176
     1
 77
     6
176
     1
 78
     2
176
     1
 67
     7
176
     1
 79
     5
176
     1
170
     0
176
     1
171
     0
176
     1
290
     0
176
     1
 93
        1
176
     1
 44
0.0
176
     1
173
     0
176
     1
  0
VISUALSTYLE
  5
33
102
{ACAD_REACTORS
330
2A
102
}
330
2A
100
AcDbVisualStyle
  2
Realistic
 70
     8
177
     2
291
     0
 71
     2
176
     1
 72
     2
176
     1
 73
     0
176
     1
 90
        0
176
     1
 40
-0.6
176
     1
 41
-30.0
176
     1
 62
     5
 63
     7
421
 16777215
176
     1
 74
     1
176
     1
 91
        0
176
     1
 64
     7
176
     1
 65
   257
176
     1
 75
     1
176
     1
175
     1
176
     1
 42
1.0
176
     1
 92
        8
176
     1
 66
     8
424
  7895160
176
     1
 43
1.0
176
     1
 76
     1
176
     1
 77
     6
176
     1
 78
     2
176
     1
 67
     7
176
     1
 79
     5
176
     1
170
     0
176
     1
171
     0
176
     1
290
     0
176
     1
 93
       13
176
     1
 44
0.0
176
     1
173
     0
176
     1
  0
VISUALSTYLE
  5
37
102
{ACAD_REACTORS
330
2A
102
}
330
2A
100
AcDbVisualStyle
  2
Thicken
 70
    13
177
     2
291
     1
 71
     2
176
     1
 72
     2
176
     1
 73
     0
176
     1
 90
        0
176
     1
 40
-0.6
176
     1
 41
-30.0
176
     1
 62
     5
 63
     7
421
 16777215
176
     1
 74
     1
176
     1
 91
        4
176
     1
 64
     7
176
     1
 65
   257
176
     1
 75
     1
176
     1
175
     1
176
     1
 42
1.0
176
     1
 92
       12
176
     1
 66
     7
176
     1
 43
1.0
176
     1
 76
     1
176
     1
 77
     6
176
     1
 78
     2
176
     1
 67
     7
176
     1
 79
     5
176
     1
170
     0
176
     1
171
     0
176
     1
290
     0
176
     1
 93
        1
176
     1
 44
0.0
176
     1
173
     0
176
     1
  0
ENDSEC
  0
EOF
