  0
SECTION
  2
HEADER
  9
$ACADVER
  1
AC1024
  9
$ACADMAINTVER
 70
     6
  9
$DWGCODEPAGE
  3
ANSI_932
  9
$INSBASE
 10
0.0
 20
0.0
 30
0.0
  9
$EXTMIN
 10
-6300.0
 20
-4455.0
 30
0.0
  9
$EXTMAX
 10
6300.0
 20
4455.0
 30
0.0
  9
$LIMMIN
 10
-6300.0
 20
-4455.0
  9
$LIMMAX
 10
6300.0
 20
4455.0
  9
$ORTHOMODE
 70
     0
  9
$REGENMODE
 70
     1
  9
$FILLMODE
 70
     1
  9
$QTEXTMODE
 70
     0
  9
$MIRRTEXT
 70
     1
  9
$LTSCALE
 40
30.0
  9
$ATTMODE
 70
     1
  9
$TEXTSIZE
 40
2.5
  9
$TRACEWID
 40
1.0
  9
$TEXTSTYLE
  7
Standard
  9
$CLAYER
  8
0
  9
$CELTYPE
  6
ByLayer
  9
$CECOLOR
 62
   256
  9
$CELTSCALE
 40
1.0
  9
$DISPSILH
 70
     0
  9
$DIMSCALE
 40
1.0
  9
$DIMASZ
 40
2.5
  9
$DIMEXO
 40
0.625
  9
$DIMDLI
 40
3.75
  9
$DIMRND
 40
0.0
  9
$DIMDLE
 40
0.0
  9
$DIMEXE
 40
1.25
  9
$DIMTP
 40
0.0
  9
$DIMTM
 40
0.0
  9
$DIMTXT
 40
2.5
  9
$DIMCEN
 40
2.5
  9
$DIMTSZ
 40
0.0
  9
$DIMTOL
 70
     0
  9
$DIMLIM
 70
     0
  9
$DIMTIH
 70
     0
  9
$DIMTOH
 70
     0
  9
$DIMSE1
 70
     0
  9
$DIMSE2
 70
     0
  9
$DIMTAD
 70
     1
  9
$DIMZIN
 70
     8
  9
$DIMBLK
  1

  9
$DIMASO
 70
     1
  9
$DIMSHO
 70
     1
  9
$DIMPOST
  1

  9
$DIMAPOST
  1

  9
$DIMALT
 70
     0
  9
$DIMALTD
 70
     3
  9
$DIMALTF
 40
0.03937007874016
  9
$DIMLFAC
 40
1.0
  9
$DIMTOFL
 70
     1
  9
$DIMTVP
 40
0.0
  9
$DIMTIX
 70
     0
  9
$DIMSOXD
 70
     0
  9
$DIMSAH
 70
     0
  9
$DIMBLK1
  1

  9
$DIMBLK2
  1

  9
$DIMSTYLE
  2
ISO-25
  9
$DIMCLRD
 70
     0
  9
$DIMCLRE
 70
     0
  9
$DIMCLRT
 70
     0
  9
$DIMTFAC
 40
1.0
  9
$DIMGAP
 40
0.625
  9
$DIMJUST
 70
     0
  9
$DIMSD1
 70
     0
  9
$DIMSD2
 70
     0
  9
$DIMTOLJ
 70
     0
  9
$DIMTZIN
 70
     8
  9
$DIMALTZ
 70
     0
  9
$DIMALTTZ
 70
     0
  9
$DIMUPT
 70
     0
  9
$DIMDEC
 70
     2
  9
$DIMTDEC
 70
     2
  9
$DIMALTU
 70
     2
  9
$DIMALTTD
 70
     3
  9
$DIMTXSTY
  7
Standard
  9
$DIMAUNIT
 70
     0
  9
$DIMADEC
 70
     0
  9
$DIMALTRND
 40
0.0
  9
$DIMAZIN
 70
     0
  9
$DIMDSEP
 70
    44
  9
$DIMATFIT
 70
     3
  9
$DIMFRAC
 70
     0
  9
$DIMLDRBLK
  1

  9
$DIMLUNIT
 70
     2
  9
$DIMLWD
 70
    -2
  9
$DIMLWE
 70
    -2
  9
$DIMTMOVE
 70
     0
  9
$DIMFXL
 40
1.0
  9
$DIMFXLON
 70
     0
  9
$DIMJOGANG
 40
0.7853981633974483
  9
$DIMTFILL
 70
     0
  9
$DIMTFILLCLR
 70
     0
  9
$DIMARCSYM
 70
     0
  9
$DIMLTYPE
  6

  9
$DIMLTEX1
  6

  9
$DIMLTEX2
  6

  9
$DIMTXTDIRECTION
 70
     0
  9
$LUNITS
 70
     2
  9
$LUPREC
 70
     4
  9
$SKETCHINC
 40
1.0
  9
$FILLETRAD
 40
10.0
  9
$AUNITS
 70
     0
  9
$AUPREC
 70
     0
  9
$MENU
  1
.
  9
$ELEVATION
 40
0.0
  9
$PELEVATION
 40
0.0
  9
$THICKNESS
 40
0.0
  9
$LIMCHECK
 70
     0
  9
$CHAMFERA
 40
10.0
  9
$CHAMFERB
 40
10.0
  9
$CHAMFERC
 40
20.0
  9
$CHAMFERD
 40
0.0
  9
$SKPOLY
 70
     0
  9
$TDCREATE
 40
2459432.544461505
  9
$TDUCREATE
 40
2459432.169461505
  9
$TDUPDATE
 40
2459432.544461516
  9
$TDUUPDATE
 40
2459432.169461516
  9
$TDINDWG
 40
0.0000000116
  9
$TDUSRTIMER
 40
0.0000000116
  9
$USRTIMER
 70
     1
  9
$ANGBASE
 50
0.0
  9
$ANGDIR
 70
     0
  9
$PDMODE
 70
     0
  9
$PDSIZE
 40
0.0
  9
$PLINEWID
 40
0.0
  9
$SPLFRAME
 70
     0
  9
$SPLINETYPE
 70
     6
  9
$SPLINESEGS
 70
     8
  9
$HANDSEED
  5
402
  9
$SURFTAB1
 70
     6
  9
$SURFTAB2
 70
     6
  9
$SURFTYPE
 70
     6
  9
$SURFU
 70
     6
  9
$SURFV
 70
     6
  9
$UCSBASE
  2

  9
$UCSNAME
  2

  9
$UCSORG
 10
0.0
 20
0.0
 30
0.0
  9
$UCSXDIR
 10
1.0
 20
0.0
 30
0.0
  9
$UCSYDIR
 10
0.0
 20
1.0
 30
0.0
  9
$UCSORTHOREF
  2

  9
$UCSORTHOVIEW
 70
     0
  9
$UCSORGTOP
 10
0.0
 20
0.0
 30
0.0
  9
$UCSORGBOTTOM
 10
0.0
 20
0.0
 30
0.0
  9
$UCSORGLEFT
 10
0.0
 20
0.0
 30
0.0
  9
$UCSORGRIGHT
 10
0.0
 20
0.0
 30
0.0
  9
$UCSORGFRONT
 10
0.0
 20
0.0
 30
0.0
  9
$UCSORGBACK
 10
0.0
 20
0.0
 30
0.0
  9
$PUCSBASE
  2

  9
$PUCSNAME
  2

  9
$PUCSORG
 10
0.0
 20
0.0
 30
0.0
  9
$PUCSXDIR
 10
1.0
 20
0.0
 30
0.0
  9
$PUCSYDIR
 10
0.0
 20
1.0
 30
0.0
  9
$PUCSORTHOREF
  2

  9
$PUCSORTHOVIEW
 70
     0
  9
$PUCSORGTOP
 10
0.0
 20
0.0
 30
0.0
  9
$PUCSORGBOTTOM
 10
0.0
 20
0.0
 30
0.0
  9
$PUCSORGLEFT
 10
0.0
 20
0.0
 30
0.0
  9
$PUCSORGRIGHT
 10
0.0
 20
0.0
 30
0.0
  9
$PUCSORGFRONT
 10
0.0
 20
0.0
 30
0.0
  9
$PUCSORGBACK
 10
0.0
 20
0.0
 30
0.0
  9
$USERI1
 70
     0
  9
$USERI2
 70
     0
  9
$USERI3
 70
     0
  9
$USERI4
 70
     0
  9
$USERI5
 70
     0
  9
$USERR1
 40
0.0
  9
$USERR2
 40
0.0
  9
$USERR3
 40
0.0
  9
$USERR4
 40
0.0
  9
$USERR5
 40
0.0
  9
$WORLDVIEW
 70
     1
  9
$SHADEDGE
 70
     3
  9
$SHADEDIF
 70
    70
  9
$TILEMODE
 70
     1
  9
$MAXACTVP
 70
    64
  9
$PINSBASE
 10
0.0
 20
0.0
 30
0.0
  9
$PLIMCHECK
 70
     0
  9
$PEXTMIN
 10
1.000000000000000E+20
 20
1.000000000000000E+20
 30
1.000000000000000E+20
  9
$PEXTMAX
 10
-1.000000000000000E+20
 20
-1.000000000000000E+20
 30
-1.000000000000000E+20
  9
$PLIMMIN
 10
0.0
 20
0.0
  9
$PLIMMAX
 10
420.0
 20
297.0
  9
$UNITMODE
 70
     0
  9
$VISRETAIN
 70
     1
  9
$PLINEGEN
 70
     0
  9
$PSLTSCALE
 70
     1
  9
$TREEDEPTH
 70
  3020
  9
$CMLSTYLE
  2
Standard
  9
$CMLJUST
 70
     0
  9
$CMLSCALE
 40
20.0
  9
$PROXYGRAPHICS
 70
     1
  9
$MEASUREMENT
 70
     1
  9
$CELWEIGHT
370
    -1
  9
$ENDCAPS
280
     0
  9
$JOINSTYLE
280
     0
  9
$LWDISPLAY
290
     0
  9
$INSUNITS
 70
     4
  9
$HYPERLINKBASE
  1

  9
$STYLESHEET
  1

  9
$XEDIT
290
     1
  9
$CEPSNTYPE
380
     0
  9
$PSTYLEMODE
290
     1
  9
$FINGERPRINTGUID
  2
{9DBA1207-F168-4EF3-93EE-0F948B3A0495}
  9
$VERSIONGUID
  2
{FAEB1C32-E019-11D5-929B-00C0DF256EC4}
  9
$EXTNAMES
290
     1
  9
$PSVPSCALE
 40
0.0
  9
$OLESTARTUP
290
     0
  9
$SORTENTS
280
   127
  9
$INDEXCTL
280
     0
  9
$HIDETEXT
280
     1
  9
$XCLIPFRAME
280
     2
  9
$HALOGAP
280
     0
  9
$OBSCOLOR
 70
   257
  9
$OBSLTYPE
280
     0
  9
$INTERSECTIONDISPLAY
280
     0
  9
$INTERSECTIONCOLOR
 70
   257
  9
$DIMASSOC
280
     2
  9
$PROJECTNAME
  1

  9
$CAMERADISPLAY
290
     0
  9
$LENSLENGTH
 40
50.0
  9
$CAMERAHEIGHT
 40
0.0
  9
$STEPSPERSEC
 40
2.0
  9
$STEPSIZE
 40
6.0
  9
$3DDWFPREC
 40
2.0
  9
$PSOLWIDTH
 40
5.0
  9
$PSOLHEIGHT
 40
80.0
  9
$LOFTANG1
 40
1.570796326794897
  9
$LOFTANG2
 40
1.570796326794897
  9
$LOFTMAG1
 40
0.0
  9
$LOFTMAG2
 40
0.0
  9
$LOFTPARAM
 70
     7
  9
$LOFTNORMALS
280
     1
  9
$LATITUDE
 40
37.795
  9
$LONGITUDE
 40
-122.394
  9
$NORTHDIRECTION
 40
0.0
  9
$TIMEZONE
 70
 -8000
  9
$LIGHTGLYPHDISPLAY
280
     1
  9
$TILEMODELIGHTSYNCH
280
     1
  9
$SOLIDHIST
280
     1
  9
$SHOWHIST
280
     1
  9
$DWFFRAME
280
     2
  9
$DGNFRAME
280
     2
  9
$REALWORLDSCALE
290
     1
  9
$INTERFERECOLOR
 62
   256
  9
$CSHADOW
280
     0
  9
$SHADOWPLANELOCATION
 40
0.0
  0
ENDSEC
  0
SECTION
  2
CLASSES
  0
CLASS
  1
ACDBDICTIONARYWDFLT
  2
AcDbDictionaryWithDefault
  3
ObjectDBX Classes
 90
        0
 91
        4
280
     0
281
     0
  0
CLASS
  1
VISUALSTYLE
  2
AcDbVisualStyle
  3
ObjectDBX Classes
 90
     4095
 91
        4
280
     0
281
     0
  0
CLASS
  1
MATERIAL
  2
AcDbMaterial
  3
ObjectDBX Classes
 90
     1153
 91
        4
280
     0
281
     0
  0
ENDSEC
  0
SECTION
  2
TABLES
  0
TABLE
  2
VPORT
  5
8
330
0
100
AcDbSymbolTable
 70
     1
  0
VPORT
  5
29
330
8
100
AcDbSymbolTableRecord
100
AcDbViewportTableRecord
  2
*Active
 70
     0
 10
0.0
 20
0.0
 11
1.0
 21
1.0
 12
0.0
 22
0.0
 13
0.0
 23
0.0
 14
10.0
 24
10.0
 15
10.0
 25
10.0
 16
0.0
 26
0.0
 36
1.0
 17
0.0
 27
0.0
 37
0.0
 40
9801.0
 41
1.414141414141414
 42
50.0
 43
0.0
 44
0.0
 50
0.0
 51
0.0
 71
     0
 72
 10000
 73
     1
 74
     3
 75
     0
 76
     0
 77
     0
 78
     0
281
     0
 65
     1
110
0.0
120
0.0
130
0.0
111
1.0
121
0.0
131
0.0
112
0.0
122
1.0
132
0.0
 79
     0
146
0.0
 60
     3
 61
     5
292
     1
282
     1
141
0.0
142
0.0
 63
   250
  0
ENDTAB
  0
TABLE
  2
LTYPE
  5
5
330
0
100
AcDbSymbolTable
 70
     3
  0
LTYPE
  5
14
330
5
100
AcDbSymbolTableRecord
100
AcDbLinetypeTableRecord
  2
ByBlock
 70
     0
  3

 72
    65
 73
     0
 40
0.0
  0
LTYPE
  5
15
330
5
100
AcDbSymbolTableRecord
100
AcDbLinetypeTableRecord
  2
ByLayer
 70
     0
  3

 72
    65
 73
     0
 40
0.0
  0
LTYPE
  5
16
330
5
100
AcDbSymbolTableRecord
100
AcDbLinetypeTableRecord
  2
Continuous
 70
     0
  3
Solid line
 72
    65
 73
     0
 40
0.0
  0
LTYPE
  5
3F
330
5
100
AcDbSymbolTableRecord
100
AcDbLinetypeTableRecord
  2
JWW_HOJO
 70
     0
  3
  -   -   -   -   -   -   -   - 
 72
    65
 73
     2
 40
1.693333333333333
 49
-1.27
 74
     0
 49
0.4233333333333333
 74
     0
  0
LTYPE
  5
40
330
5
100
AcDbSymbolTableRecord
100
AcDbLinetypeTableRecord
  2
JWW_DASHED1
 70
     0
  3
-  --  --  --  --  --  --  --  -
 72
    65
 73
     2
 40
1.693333333333333
 49
0.8466666666666667
 74
     0
 49
-0.8466666666666667
 74
     0
  0
ENDTAB
  0
TABLE
  2
LAYER
  5
2
330
0
100
AcDbSymbolTable
 70
     8
  0
LAYER
  5
10
330
2
100
AcDbSymbolTableRecord
100
AcDbLayerTableRecord
  2
0
 70
     0
 62
     7
  6
Continuous
370
    -3
390
F
347
3E
  0
LAYER
  5
41
330
2
100
AcDbSymbolTableRecord
100
AcDbLayerTableRecord
  2
0-A
 70
     0
 62
     7
  6
Continuous
370
    -3
390
F
347
3E
  0
LAYER
  5
42
330
2
100
AcDbSymbolTableRecord
100
AcDbLayerTableRecord
  2
F-1
 70
     0
 62
     7
  6
Continuous
370
    -3
390
F
347
3E
  0
LAYER
  5
43
330
2
100
AcDbSymbolTableRecord
100
AcDbLayerTableRecord
  2
F-0
 70
     0
 62
     7
  6
Continuous
370
    -3
390
F
347
3E
  0
LAYER
  5
44
330
2
100
AcDbSymbolTableRecord
100
AcDbLayerTableRecord
  2
F-A
 70
     0
 62
     7
  6
Continuous
370
    -3
390
F
347
3E
  0
LAYER
  5
45
330
2
100
AcDbSymbolTableRecord
100
AcDbLayerTableRecord
  2
0-4
 70
     0
 62
     7
  6
Continuous
370
    -3
390
F
347
3E
  0
LAYER
  5
46
330
2
100
AcDbSymbolTableRecord
100
AcDbLayerTableRecord
  2
0-0
 70
     0
 62
     7
  6
Continuous
370
    -3
390
F
347
3E
  0
LAYER
  5
47
330
2
100
AcDbSymbolTableRecord
100
AcDbLayerTableRecord
  2
0-B
 70
     0
 62
     7
  6
Continuous
370
    -3
390
F
347
3E
  0
ENDTAB
  0
TABLE
  2
STYLE
  5
3
330
0
100
AcDbSymbolTable
 70
     1
  0
STYLE
  5
11
330
3
100
AcDbSymbolTableRecord
100
AcDbTextStyleTableRecord
  2
Standard
 70
     0
 40
0.0
 41
1.0
 50
0.0
 71
     0
 42
2.5
  3
txt
  4

  0
ENDTAB
  0
TABLE
  2
VIEW
  5
6
330
0
100
AcDbSymbolTable
 70
     0
  0
ENDTAB
  0
TABLE
  2
UCS
  5
7
330
0
100
AcDbSymbolTable
 70
     0
  0
ENDTAB
  0
TABLE
  2
APPID
  5
9
330
0
100
AcDbSymbolTable
 70
     1
  0
APPID
  5
12
330
9
100
AcDbSymbolTableRecord
100
AcDbRegAppTableRecord
  2
ACAD
 70
     0
  0
ENDTAB
  0
TABLE
  2
DIMSTYLE
  5
A
330
0
100
AcDbSymbolTable
 70
     1
100
AcDbDimStyleTable
  0
DIMSTYLE
105
27
330
A
100
AcDbSymbolTableRecord
100
AcDbDimStyleTableRecord
  2
ISO-25
 70
     0
 41
2.5
 42
0.625
 43
3.75
 44
1.25
 73
     0
 74
     0
 77
     1
 78
     8
140
2.5
141
2.5
143
0.03937007874016
147
0.625
171
     3
172
     1
178
     0
271
     2
272
     2
274
     3
278
    44
283
     0
284
     8
340
11
  0
ENDTAB
  0
TABLE
  2
BLOCK_RECORD
  5
1
330
0
100
AcDbSymbolTable
 70
     1
  0
BLOCK_RECORD
  5
1F
330
1
100
AcDbSymbolTableRecord
100
AcDbBlockTableRecord
  2
*Model_Space
340
22
 70
     0
280
     1
281
     0
  0
BLOCK_RECORD
  5
1B
330
1
100
AcDbSymbolTableRecord
100
AcDbBlockTableRecord
  2
*Paper_Space
340
1E
 70
     0
280
     1
281
     0
  0
BLOCK_RECORD
  5
23
330
1
100
AcDbSymbolTableRecord
100
AcDbBlockTableRecord
  2
*Paper_Space0
340
26
 70
     0
280
     1
281
     0
  0
ENDTAB
  0
ENDSEC
  0
SECTION
  2
BLOCKS
  0
BLOCK
  5
20
330
1F
100
AcDbEntity
  8
0
100
AcDbBlockBegin
  2
*Model_Space
 70
     0
 10
0.0
 20
0.0
 30
0.0
  3
*Model_Space
  1

  0
ENDBLK
  5
21
330
1F
100
AcDbEntity
  8
0
100
AcDbBlockEnd
  0
BLOCK
  5
1C
330
1B
100
AcDbEntity
 67
     1
  8
0
100
AcDbBlockBegin
  2
*Paper_Space
 70
     0
 10
0.0
 20
0.0
 30
0.0
  3
*Paper_Space
  1

  0
ENDBLK
  5
1D
330
1B
100
AcDbEntity
 67
     1
  8
0
100
AcDbBlockEnd
  0
BLOCK
  5
24
330
23
100
AcDbEntity
  8
0
100
AcDbBlockBegin
  2
*Paper_Space0
 70
     0
 10
0.0
 20
0.0
 30
0.0
  3
*Paper_Space0
  1

  0
ENDBLK
  5
25
330
23
100
AcDbEntity
  8
0
100
AcDbBlockEnd
  0
ENDSEC
  0
SECTION
  2
ENTITIES
  0
MTEXT
  5
48
330
1F
100
AcDbEntity
  8
0-A
  6
Continuous
 62
     7
370
     9
100
AcDbMText
 10
-2187.500758815456
 20
1076.165296887667
 30
0.0
 40
68.58
 41
630.0
 46
0.0
 71
     7
 72
     1
  1
{\fＭＳ ゴシック|b0|i0|c128|p49;2,450×113×24}
 73
     1
 44
1.0
  0
MTEXT
  5
49
330
1F
100
AcDbEntity
  8
0-A
  6
Continuous
 62
     7
370
     9
100
AcDbMText
 10
-2187.500758815456
 20
919.915286887668
 30
0.0
 40
68.58
 41
630.0
 46
0.0
 71
     7
 72
     1
  1
{\fＭＳ ゴシック|b0|i0|c128|p49;2,045×113×24}
 73
     1
 44
1.0
  0
LINE
  5
4A
330
1F
100
AcDbEntity
  8
F-1
  6
Continuous
 62
     7
370
     9
100
AcDbLine
 10
904.9995216163429
 20
4175.04801982158
 30
0.0
 11
904.9995216163429
 21
-3795.000049487965
 31
0.0
  0
LINE
  5
4B
330
1F
100
AcDbEntity
  8
F-1
  6
Continuous
 62
   200
370
    20
100
AcDbLine
 10
-5999.999752560178
 20
4164.999983504013
 30
0.0
 11
5699.998762800888
 21
4164.999983504013
 31
0.0
  0
LINE
  5
4C
330
1F
100
AcDbEntity
  8
F-1
  6
Continuous
 62
   200
370
    20
100
AcDbLine
 10
5699.998762800888
 20
3710.000461887669
 30
0.0
 11
-5999.999752560178
 21
3710.000461887669
 31
0.0
  0
LINE
  5
4D
330
1F
100
AcDbEntity
  8
F-0
  6
JWW_HOJO
 62
   120
370
     5
100
AcDbLine
 10
2.4993896484375
 20
4164.999983504013
 30
0.0
 11
2.4993896484375
 21
-3790.080698374155
 31
0.0
  0
LINE
  5
4E
330
1F
100
AcDbEntity
  8
F-0
  6
JWW_HOJO
 62
   120
370
     5
100
AcDbLine
 10
-5839.999982473011
 20
4164.999983504013
 30
0.0
 11
-5839.999982473011
 21
-3785.470894478463
 31
0.0
  0
LINE
  5
4F
330
1F
100
AcDbEntity
  8
F-0
  6
JWW_HOJO
 62
   120
370
     5
100
AcDbLine
 10
-6300.0
 20
4424.999604096284
 30
0.0
 11
5999.999010240709
 21
4424.999604096284
 31
0.0
  0
LINE
  5
50
330
1F
100
AcDbEntity
  8
F-0
  6
JWW_HOJO
 62
   120
370
     5
100
AcDbLine
 10
-6300.0
 20
-4455.0
 30
0.0
 11
-6300.0
 21
4424.999604096284
 31
0.0
  0
LINE
  5
51
330
1F
100
AcDbEntity
  8
F-0
  6
JWW_HOJO
 62
   120
370
     5
100
AcDbLine
 10
5999.999010240709
 20
4424.999604096284
 30
0.0
 11
5999.999010240709
 21
-4455.0
 31
0.0
  0
LINE
  5
52
330
1F
100
AcDbEntity
  8
F-0
  6
JWW_HOJO
 62
   120
370
     5
100
AcDbLine
 10
5999.999010240709
 20
-4455.0
 30
0.0
 11
-6300.0
 21
-4455.0
 31
0.0
  0
LINE
  5
53
330
1F
100
AcDbEntity
  8
F-1
  6
Continuous
 62
   200
370
    20
100
AcDbLine
 10
-5999.999752560178
 20
4174.999769056166
 30
0.0
 11
5699.998762800888
 21
4174.999769056166
 31
0.0
  0
LINE
  5
54
330
1F
100
AcDbEntity
  8
F-1
  6
Continuous
 62
   200
370
    20
100
AcDbLine
 10
5699.998762800888
 20
4174.999769056166
 30
0.0
 11
5699.998762800888
 21
-4205.000164959882
 31
0.0
  0
LINE
  5
55
330
1F
100
AcDbEntity
  8
F-1
  6
Continuous
 62
   200
370
    20
100
AcDbLine
 10
-5999.99998453501
 20
4174.999769056166
 30
0.0
 11
-5999.99998453501
 21
-4205.000164959882
 31
0.0
  0
LINE
  5
56
330
1F
100
AcDbEntity
  8
F-1
  6
Continuous
 62
   200
370
    20
100
AcDbLine
 10
-5989.999990205507
 20
4174.999769056166
 30
0.0
 11
-5989.999990205507
 21
-4205.000164959882
 31
0.0
  0
LINE
  5
57
330
1F
100
AcDbEntity
  8
F-1
  6
Continuous
 62
   200
370
    20
100
AcDbLine
 10
-5999.999752560178
 20
4169.999505120355
 30
0.0
 11
5699.998762800888
 21
4169.999505120355
 31
0.0
  0
LINE
  5
58
330
1F
100
AcDbEntity
  8
F-1
  6
Continuous
 62
   200
370
    20
100
AcDbLine
 10
-5994.999975771518
 20
4174.999769056166
 30
0.0
 11
-5994.999975771518
 21
-4205.000164959882
 31
0.0
  0
LINE
  5
59
330
1F
100
AcDbEntity
  8
F-1
  6
Continuous
 62
   200
370
    20
100
AcDbLine
 10
5694.998498865077
 20
4174.999769056166
 30
0.0
 11
5694.998498865077
 21
-4205.000164959882
 31
0.0
  0
LINE
  5
5A
330
1F
100
AcDbEntity
  8
F-1
  6
Continuous
 62
   200
370
    20
100
AcDbLine
 10
5689.998977248734
 20
4174.999769056166
 30
0.0
 11
5689.998977248734
 21
-4205.000164959882
 31
0.0
  0
LINE
  5
5B
330
1F
100
AcDbEntity
  8
F-1
  6
Continuous
 62
     7
370
     9
100
AcDbLine
 10
3439.999719568202
 20
4174.999769056166
 30
0.0
 11
3439.999719568202
 21
-3790.000017526987
 31
0.0
  0
LINE
  5
5C
330
1F
100
AcDbEntity
  8
F-0
  6
JWW_HOJO
 62
   120
370
     5
100
AcDbLine
 10
2172.499156642605
 20
3710.000461887669
 30
0.0
 11
2172.499156642605
 21
-3790.000017526987
 31
0.0
  0
LINE
  5
5D
330
1F
100
AcDbEntity
  8
F-1
  6
Continuous
 62
   200
370
    20
100
AcDbLine
 10
-150.0008660393789
 20
4174.999769056166
 30
0.0
 11
-150.0008660393789
 21
-3795.000049487965
 31
0.0
  0
LINE
  5
5E
330
1F
100
AcDbEntity
  8
F-1
  6
Continuous
 62
     7
370
     9
100
AcDbLine
 10
-635.0007588154554
 20
4175.048019821578
 30
0.0
 11
-635.0007588154554
 21
-3795.000049487966
 31
0.0
  0
LINE
  5
5F
330
1F
100
AcDbEntity
  8
F-1
  6
Continuous
 62
     7
370
     9
100
AcDbLine
 10
3439.999719568202
 20
3947.452128642314
 30
0.0
 11
4339.999719568202
 21
3947.452128642314
 31
0.0
  0
LINE
  5
60
330
1F
100
AcDbEntity
  8
F-1
  6
Continuous
 62
     7
370
     9
100
AcDbLine
 10
4339.999719568202
 20
4174.999769056164
 30
0.0
 11
4339.999719568202
 21
-3795.04830025338
 31
0.0
  0
LINE
  5
61
330
1F
100
AcDbEntity
  8
F-1
  6
JWW_HOJO
 62
     7
370
     9
100
AcDbLine
 10
4399.999719568202
 20
4174.999769056164
 30
0.0
 11
4399.999719568202
 21
-3795.04830025338
 31
0.0
  0
LINE
  5
62
330
1F
100
AcDbEntity
  8
F-1
  6
Continuous
 62
     7
370
     9
100
AcDbLine
 10
5209.999719568203
 20
4174.999769056164
 30
0.0
 11
5209.999719568203
 21
-3795.04830025338
 31
0.0
  0
LINE
  5
63
330
1F
100
AcDbEntity
  8
F-1
  6
Continuous
 62
     7
370
     9
100
AcDbLine
 10
-4940.000028867979
 20
4174.999769056166
 30
0.0
 11
-4940.000028867979
 21
-3790.000017526987
 31
0.0
  0
LINE
  5
64
330
1F
100
AcDbEntity
  8
F-1
  6
Continuous
 62
   200
370
    20
100
AcDbLine
 10
5699.998762800888
 20
3720.000247440669
 30
0.0
 11
-5999.999752560178
 21
3720.000247440669
 31
0.0
  0
LINE
  5
65
330
1F
100
AcDbEntity
  8
F-1
  6
Continuous
 62
   200
370
    20
100
AcDbLine
 10
-155.0003876543789
 20
4174.999769056166
 30
0.0
 11
-155.0003876543789
 21
-3795.000049487964
 31
0.0
  0
LINE
  5
66
330
1F
100
AcDbEntity
  8
F-1
  6
Continuous
 62
   200
370
    20
100
AcDbLine
 10
-145.0013444243788
 20
4174.999769056166
 30
0.0
 11
-145.0013444243788
 21
-3795.000049487964
 31
0.0
  0
LINE
  5
67
330
1F
100
AcDbEntity
  8
F-1
  6
Continuous
 62
     7
370
     9
100
AcDbLine
 10
-1460.000758815456
 20
4175.048019821578
 30
0.0
 11
-1460.000758815456
 21
-3795.000049487966
 31
0.0
  0
LINE
  5
68
330
1F
100
AcDbEntity
  8
F-1
  6
JWW_HOJO
 62
     7
370
     9
100
AcDbLine
 10
-1400.000758815456
 20
4175.048019821578
 30
0.0
 11
-1400.000758815456
 21
-3795.000049487966
 31
0.0
  0
LINE
  5
69
330
1F
100
AcDbEntity
  8
F-1
  6
JWW_DASHED1
 62
     7
370
     9
100
AcDbLine
 10
-155.0003876543789
 20
3397.500441887668
 30
0.0
 11
-2285.000758815456
 21
3397.500441887668
 31
0.0
  0
LINE
  5
6A
330
1F
100
AcDbEntity
  8
F-1
  6
JWW_DASHED1
 62
     7
370
     9
100
AcDbLine
 10
-155.0003876543789
 20
2616.250391887667
 30
0.0
 11
-2285.000758815456
 21
2616.250391887667
 31
0.0
  0
LINE
  5
6B
330
1F
100
AcDbEntity
  8
F-1
  6
JWW_DASHED1
 62
     7
370
     9
100
AcDbLine
 10
-155.0003876543789
 20
3241.250431887669
 30
0.0
 11
-2285.000758815456
 21
3241.250431887669
 31
0.0
  0
LINE
  5
6C
330
1F
100
AcDbEntity
  8
F-1
  6
JWW_DASHED1
 62
     7
370
     9
100
AcDbLine
 10
-155.0003876543789
 20
3085.000421887667
 30
0.0
 11
-2285.000758815456
 21
3085.000421887667
 31
0.0
  0
LINE
  5
6D
330
1F
100
AcDbEntity
  8
F-1
  6
JWW_DASHED1
 62
     7
370
     9
100
AcDbLine
 10
-155.0003876543789
 20
2928.750411887667
 30
0.0
 11
-2285.000758815456
 21
2928.750411887667
 31
0.0
  0
LINE
  5
6E
330
1F
100
AcDbEntity
  8
F-1
  6
JWW_DASHED1
 62
     7
370
     9
100
AcDbLine
 10
-155.0003876543789
 20
2772.500401887667
 30
0.0
 11
-2285.000758815456
 21
2772.500401887667
 31
0.0
  0
LINE
  5
6F
330
1F
100
AcDbEntity
  8
F-0
  6
JWW_HOJO
 62
   120
370
     5
100
AcDbLine
 10
-5989.99959584829
 20
3947.500379407728
 30
0.0
 11
5690.337474926098
 21
3947.500379407728
 31
0.0
  0
LINE
  5
70
330
1F
100
AcDbEntity
  8
F-1
  6
Continuous
 62
     7
370
     9
100
AcDbLine
 10
-1460.000758815456
 20
3947.500379407728
 30
0.0
 11
-2285.000758815456
 21
3947.500379407728
 31
0.0
  0
LINE
  5
71
330
1F
100
AcDbEntity
  8
F-1
  6
Continuous
 62
     7
370
     9
100
AcDbLine
 10
-2285.000758815456
 20
4175.04801982158
 30
0.0
 11
-2285.000758815456
 21
-3795.000049487965
 31
0.0
  0
LINE
  5
72
330
1F
100
AcDbEntity
  8
F-1
  6
JWW_DASHED1
 62
     7
370
     9
100
AcDbLine
 10
-155.0003876543789
 20
2147.500361887668
 30
0.0
 11
-2285.000758815456
 21
2147.500361887668
 31
0.0
  0
LINE
  5
73
330
1F
100
AcDbEntity
  8
F-1
  6
JWW_DASHED1
 62
     7
370
     9
100
AcDbLine
 10
-155.0003876543789
 20
1366.250311887667
 30
0.0
 11
-2285.000758815456
 21
1366.250311887667
 31
0.0
  0
LINE
  5
74
330
1F
100
AcDbEntity
  8
F-1
  6
JWW_DASHED1
 62
     7
370
     9
100
AcDbLine
 10
-155.0003876543789
 20
1991.250351887668
 30
0.0
 11
-2285.000758815456
 21
1991.250351887668
 31
0.0
  0
LINE
  5
75
330
1F
100
AcDbEntity
  8
F-1
  6
JWW_DASHED1
 62
     7
370
     9
100
AcDbLine
 10
-155.0003876543789
 20
1835.000341887667
 30
0.0
 11
-2285.000758815456
 21
1835.000341887667
 31
0.0
  0
LINE
  5
76
330
1F
100
AcDbEntity
  8
F-1
  6
JWW_DASHED1
 62
     7
370
     9
100
AcDbLine
 10
-155.0003876543789
 20
1678.750331887667
 30
0.0
 11
-2285.000758815456
 21
1678.750331887667
 31
0.0
  0
LINE
  5
77
330
1F
100
AcDbEntity
  8
F-1
  6
JWW_DASHED1
 62
     7
370
     9
100
AcDbLine
 10
-155.0003876543789
 20
1522.500321887667
 30
0.0
 11
-2285.000758815456
 21
1522.500321887667
 31
0.0
  0
LINE
  5
78
330
1F
100
AcDbEntity
  8
F-1
  6
JWW_DASHED1
 62
     7
370
     9
100
AcDbLine
 10
-155.0003876543789
 20
-2383.749928112335
 30
0.0
 11
-2285.000758815456
 21
-2383.749928112335
 31
0.0
  0
LINE
  5
79
330
1F
100
AcDbEntity
  8
F-1
  6
JWW_DASHED1
 62
     7
370
     9
100
AcDbLine
 10
-155.0003876543789
 20
-1914.999898112334
 30
0.0
 11
-2285.000758815456
 21
-1914.999898112334
 31
0.0
  0
LINE
  5
7A
330
1F
100
AcDbEntity
  8
F-1
  6
JWW_DASHED1
 62
     7
370
     9
100
AcDbLine
 10
-155.0003876543789
 20
-2071.249908112334
 30
0.0
 11
-2285.000758815456
 21
-2071.249908112334
 31
0.0
  0
LINE
  5
7B
330
1F
100
AcDbEntity
  8
F-1
  6
JWW_DASHED1
 62
     7
370
     9
100
AcDbLine
 10
-155.0003876543789
 20
-2227.499918112334
 30
0.0
 11
-2285.000758815456
 21
-2227.499918112334
 31
0.0
  0
LINE
  5
7C
330
1F
100
AcDbEntity
  8
F-1
  6
JWW_DASHED1
 62
     7
370
     9
100
AcDbLine
 10
-155.0003876543789
 20
-2852.499958112334
 30
0.0
 11
-2285.000758815456
 21
-2852.499958112334
 31
0.0
  0
LINE
  5
7D
330
1F
100
AcDbEntity
  8
F-1
  6
JWW_DASHED1
 62
     7
370
     9
100
AcDbLine
 10
-155.0003876543789
 20
-3633.750008112335
 30
0.0
 11
-2285.000758815456
 21
-3633.750008112335
 31
0.0
  0
LINE
  5
7E
330
1F
100
AcDbEntity
  8
F-1
  6
JWW_DASHED1
 62
     7
370
     9
100
AcDbLine
 10
-155.0003876543789
 20
-3008.749968112334
 30
0.0
 11
-2285.000758815456
 21
-3008.749968112334
 31
0.0
  0
LINE
  5
7F
330
1F
100
AcDbEntity
  8
F-1
  6
JWW_DASHED1
 62
     7
370
     9
100
AcDbLine
 10
-155.0003876543789
 20
-3164.999978112334
 30
0.0
 11
-2285.000758815456
 21
-3164.999978112334
 31
0.0
  0
LINE
  5
80
330
1F
100
AcDbEntity
  8
F-1
  6
JWW_DASHED1
 62
     7
370
     9
100
AcDbLine
 10
-155.0003876543789
 20
-3321.249988112334
 30
0.0
 11
-2285.000758815456
 21
-3321.249988112334
 31
0.0
  0
LINE
  5
81
330
1F
100
AcDbEntity
  8
F-1
  6
JWW_DASHED1
 62
     7
370
     9
100
AcDbLine
 10
-155.0003876543789
 20
-3477.499998112335
 30
0.0
 11
-2285.000758815456
 21
-3477.499998112335
 31
0.0
  0
LINE
  5
82
330
1F
100
AcDbEntity
  8
F-1
  6
Continuous
 62
     7
370
     9
100
AcDbLine
 10
-4730.000028867979
 20
3710.000461887669
 30
0.0
 11
-4730.000028867979
 21
-3790.000017526988
 31
0.0
  0
LINE
  5
83
330
1F
100
AcDbEntity
  8
F-1
  6
JWW_DASHED1
 62
     7
370
     9
100
AcDbLine
 10
5689.999162829944
 20
3397.500441887668
 30
0.0
 11
3439.999719568202
 21
3397.500441887668
 31
0.0
  0
LINE
  5
84
330
1F
100
AcDbEntity
  8
F-1
  6
JWW_DASHED1
 62
     7
370
     9
100
AcDbLine
 10
5689.999162829944
 20
-3633.750008112335
 30
0.0
 11
3439.999719568202
 21
-3633.750008112335
 31
0.0
  0
LINE
  5
85
330
1F
100
AcDbEntity
  8
F-1
  6
JWW_DASHED1
 62
     7
370
     9
100
AcDbLine
 10
5689.999162829944
 20
2616.250391887667
 30
0.0
 11
3439.999719568202
 21
2616.250391887667
 31
0.0
  0
LINE
  5
86
330
1F
100
AcDbEntity
  8
F-1
  6
JWW_DASHED1
 62
     7
370
     9
100
AcDbLine
 10
5689.999162829944
 20
3241.250431887669
 30
0.0
 11
3439.999719568202
 21
3241.250431887669
 31
0.0
  0
LINE
  5
87
330
1F
100
AcDbEntity
  8
F-1
  6
JWW_DASHED1
 62
     7
370
     9
100
AcDbLine
 10
5689.999162829944
 20
3085.000421887667
 30
0.0
 11
3439.999719568202
 21
3085.000421887667
 31
0.0
  0
LINE
  5
88
330
1F
100
AcDbEntity
  8
F-1
  6
JWW_DASHED1
 62
     7
370
     9
100
AcDbLine
 10
5689.999162829944
 20
2928.750411887667
 30
0.0
 11
3439.999719568202
 21
2928.750411887667
 31
0.0
  0
LINE
  5
89
330
1F
100
AcDbEntity
  8
F-1
  6
JWW_DASHED1
 62
     7
370
     9
100
AcDbLine
 10
5689.999162829944
 20
2772.500401887667
 30
0.0
 11
3439.999719568202
 21
2772.500401887667
 31
0.0
  0
LINE
  5
8A
330
1F
100
AcDbEntity
  8
F-1
  6
JWW_DASHED1
 62
     7
370
     9
100
AcDbLine
 10
5689.999162829944
 20
-1133.749848112334
 30
0.0
 11
3439.999719568202
 21
-1133.749848112334
 31
0.0
  0
LINE
  5
8B
330
1F
100
AcDbEntity
  8
F-1
  6
JWW_DASHED1
 62
     7
370
     9
100
AcDbLine
 10
5689.999162829944
 20
-508.7498081123331
 30
0.0
 11
3439.999719568202
 21
-508.7498081123331
 31
0.0
  0
LINE
  5
8C
330
1F
100
AcDbEntity
  8
F-1
  6
JWW_DASHED1
 62
     7
370
     9
100
AcDbLine
 10
5689.999162829944
 20
-664.9998181123334
 30
0.0
 11
3439.999719568202
 21
-664.9998181123334
 31
0.0
  0
LINE
  5
8D
330
1F
100
AcDbEntity
  8
F-1
  6
JWW_DASHED1
 62
     7
370
     9
100
AcDbLine
 10
5689.999162829944
 20
-821.2498281123337
 30
0.0
 11
3439.999719568202
 21
-821.2498281123337
 31
0.0
  0
LINE
  5
8E
330
1F
100
AcDbEntity
  8
F-1
  6
JWW_DASHED1
 62
     7
370
     9
100
AcDbLine
 10
5689.999162829944
 20
-977.4998381123339
 30
0.0
 11
3439.999719568202
 21
-977.4998381123339
 31
0.0
  0
LINE
  5
8F
330
1F
100
AcDbEntity
  8
F-1
  6
JWW_DASHED1
 62
     7
370
     9
100
AcDbLine
 10
5689.999162829944
 20
-1602.499878112333
 30
0.0
 11
3439.999719568202
 21
-1602.499878112333
 31
0.0
  0
LINE
  5
90
330
1F
100
AcDbEntity
  8
F-1
  6
JWW_DASHED1
 62
     7
370
     9
100
AcDbLine
 10
5689.999162829944
 20
-2383.749928112335
 30
0.0
 11
3439.999719568202
 21
-2383.749928112335
 31
0.0
  0
LINE
  5
91
330
1F
100
AcDbEntity
  8
F-1
  6
JWW_DASHED1
 62
     7
370
     9
100
AcDbLine
 10
5689.999162829944
 20
-1758.749888112334
 30
0.0
 11
3439.999719568202
 21
-1758.749888112334
 31
0.0
  0
LINE
  5
92
330
1F
100
AcDbEntity
  8
F-1
  6
JWW_DASHED1
 62
     7
370
     9
100
AcDbLine
 10
5689.999162829944
 20
-1914.999898112334
 30
0.0
 11
3439.999719568202
 21
-1914.999898112334
 31
0.0
  0
LINE
  5
93
330
1F
100
AcDbEntity
  8
F-1
  6
JWW_DASHED1
 62
     7
370
     9
100
AcDbLine
 10
5689.999162829944
 20
-2071.249908112334
 30
0.0
 11
3439.999719568202
 21
-2071.249908112334
 31
0.0
  0
LINE
  5
94
330
1F
100
AcDbEntity
  8
F-1
  6
JWW_DASHED1
 62
     7
370
     9
100
AcDbLine
 10
5689.999162829944
 20
-2227.499918112334
 30
0.0
 11
3439.999719568202
 21
-2227.499918112334
 31
0.0
  0
LINE
  5
95
330
1F
100
AcDbEntity
  8
F-1
  6
JWW_DASHED1
 62
     7
370
     9
100
AcDbLine
 10
5689.999162829944
 20
-2852.499958112334
 30
0.0
 11
3439.999719568202
 21
-2852.499958112334
 31
0.0
  0
LINE
  5
96
330
1F
100
AcDbEntity
  8
F-1
  6
JWW_DASHED1
 62
     7
370
     9
100
AcDbLine
 10
5689.999162829944
 20
-3008.749968112334
 30
0.0
 11
3439.999719568202
 21
-3008.749968112334
 31
0.0
  0
LINE
  5
97
330
1F
100
AcDbEntity
  8
F-1
  6
JWW_DASHED1
 62
     7
370
     9
100
AcDbLine
 10
5689.999162829944
 20
-3164.999978112334
 30
0.0
 11
3439.999719568202
 21
-3164.999978112334
 31
0.0
  0
LINE
  5
98
330
1F
100
AcDbEntity
  8
F-1
  6
JWW_DASHED1
 62
     7
370
     9
100
AcDbLine
 10
5689.999162829944
 20
-3321.249988112334
 30
0.0
 11
3439.999719568202
 21
-3321.249988112334
 31
0.0
  0
LINE
  5
99
330
1F
100
AcDbEntity
  8
F-1
  6
JWW_DASHED1
 62
     7
370
     9
100
AcDbLine
 10
5689.999162829944
 20
-3477.499998112335
 30
0.0
 11
3439.999719568202
 21
-3477.499998112335
 31
0.0
  0
LINE
  5
9A
330
1F
100
AcDbEntity
  8
F-1
  6
JWW_DASHED1
 62
     7
370
     9
100
AcDbLine
 10
-4940.000028867979
 20
2460.000381887668
 30
0.0
 11
-155.0003876543789
 21
2460.000381887668
 31
0.0
  0
LINE
  5
9B
330
1F
100
AcDbEntity
  8
F-1
  6
JWW_DASHED1
 62
     7
370
     9
100
AcDbLine
 10
-4940.000028867979
 20
-2539.999938112333
 30
0.0
 11
-155.0003876543789
 21
-2539.999938112333
 31
0.0
  0
LINE
  5
9C
330
1F
100
AcDbEntity
  8
F-0
  6
JWW_HOJO
 62
     7
370
     9
100
AcDbLine
 10
849.9995876002961
 20
-3795.000003092998
 30
0.0
 11
849.9995876002961
 21
-4195.000008247994
 31
0.0
  0
LINE
  5
9D
330
1F
100
AcDbEntity
  8
F-0
  6
JWW_HOJO
 62
     7
370
     9
100
AcDbLine
 10
349.9999175200594
 20
-3795.000003092998
 30
0.0
 11
349.9999175200594
 21
-4195.000008247994
 31
0.0
  0
LINE
  5
9E
330
1F
100
AcDbEntity
  8
F-1
  6
Continuous
 62
   200
370
    20
100
AcDbLine
 10
5699.998762800888
 20
-4205.000002577498
 30
0.0
 11
-5999.999752560178
 21
-4205.000002577498
 31
0.0
  0
LINE
  5
9F
330
1F
100
AcDbEntity
  8
F-1
  6
Continuous
 62
   200
370
    20
100
AcDbLine
 10
5699.998762800888
 20
-4199.999993814004
 30
0.0
 11
-5999.999752560178
 21
-4199.999993814004
 31
0.0
  0
LINE
  5
A0
330
1F
100
AcDbEntity
  8
F-1
  6
Continuous
 62
   200
370
    20
100
AcDbLine
 10
5699.998762800888
 20
-4195.000008247994
 30
0.0
 11
-5999.999752560178
 21
-4195.000008247994
 31
0.0
  0
LINE
  5
A1
330
1F
100
AcDbEntity
  8
F-1
  6
Continuous
 62
   200
370
    20
100
AcDbLine
 10
4189.999224688556
 20
-3795.000003092998
 30
0.0
 11
4189.999224688556
 21
-4195.000008247994
 31
0.0
  0
LINE
  5
A2
330
1F
100
AcDbEntity
  8
F-1
  6
Continuous
 62
   200
370
    20
100
AcDbLine
 10
2689.998729808911
 20
-3795.000003092998
 30
0.0
 11
2689.998729808911
 21
-4195.000008247994
 31
0.0
  0
LINE
  5
A3
330
1F
100
AcDbEntity
  8
F-1
  6
Continuous
 62
   200
370
    20
100
AcDbLine
 10
-150.0001237199109
 20
-3795.000003092998
 30
0.0
 11
-150.0001237199109
 21
-4195.000008247994
 31
0.0
  0
LINE
  5
A4
330
1F
100
AcDbEntity
  8
F-1
  6
Continuous
 62
   200
370
    20
100
AcDbLine
 10
-150.0001237199109
 20
-3994.999936078046
 30
0.0
 11
5689.998977248734
 21
-3995.005364289155
 31
0.0
  0
LINE
  5
A5
330
1F
100
AcDbEntity
  8
F-0
  6
JWW_HOJO
 62
     7
370
     9
100
AcDbLine
 10
-5989.999990205507
 20
-3994.99993607839
 30
0.0
 11
-150.0001237199109
 21
-3994.99993607839
 31
0.0
  0
LINE
  5
A6
330
1F
100
AcDbEntity
  8
F-0
  6
JWW_HOJO
 62
     7
370
     9
100
AcDbLine
 10
-5989.999990205507
 20
-3904.99993607839
 30
0.0
 11
-150.0001237199109
 21
-3904.99993607839
 31
0.0
  0
LINE
  5
A7
330
1F
100
AcDbEntity
  8
F-0
  6
JWW_HOJO
 62
     7
370
     9
100
AcDbLine
 10
-5989.999990205507
 20
-4084.99993607839
 30
0.0
 11
-150.0001237199109
 21
-4084.99993607839
 31
0.0
  0
LINE
  5
A8
330
1F
100
AcDbEntity
  8
F-0
  6
JWW_HOJO
 62
     7
370
     9
100
AcDbLine
 10
-150.0002584955388
 20
-4139.999739777983
 30
0.0
 11
5689.998842473105
 21
-4140.005167989091
 31
0.0
  0
LINE
  5
A9
330
1F
100
AcDbEntity
  8
F-0
  6
JWW_HOJO
 62
     7
370
     9
100
AcDbLine
 10
-150.0001748415872
 20
-4049.999739778022
 30
0.0
 11
5689.998926127057
 21
-4050.005167989131
 31
0.0
  0
LINE
  5
AA
330
1F
100
AcDbEntity
  8
F-0
  6
JWW_HOJO
 62
     7
370
     9
100
AcDbLine
 10
-150.0000725978671
 20
-3939.99973721807
 30
0.0
 11
5689.999028370777
 21
-3940.005165429179
 31
0.0
  0
LINE
  5
AB
330
1F
100
AcDbEntity
  8
F-0
  6
JWW_HOJO
 62
     7
370
     9
100
AcDbLine
 10
-149.9999889439155
 20
-3849.999737218109
 30
0.0
 11
5689.999112024728
 21
-3850.005165429218
 31
0.0
  0
LINE
  5
AC
330
1F
100
AcDbEntity
  8
F-0
  6
JWW_HOJO
 62
     7
370
     9
100
AcDbLine
 10
2779.998729808911
 20
-3795.000003092998
 30
0.0
 11
2779.998729808911
 21
-4195.000008247994
 31
0.0
  0
LINE
  5
AD
330
1F
100
AcDbEntity
  8
F-0
  6
JWW_HOJO
 62
     7
370
     9
100
AcDbLine
 10
-60.0001237199109
 20
-3795.000003092998
 30
0.0
 11
-60.0001237199109
 21
-4195.000008247994
 31
0.0
  0
LINE
  5
AE
330
1F
100
AcDbEntity
  8
F-0
  6
JWW_HOJO
 62
     7
370
     9
100
AcDbLine
 10
4279.999224688556
 20
-3795.000003092998
 30
0.0
 11
4279.999224688556
 21
-4195.000008247994
 31
0.0
  0
LINE
  5
AF
330
1F
100
AcDbEntity
  8
F-1
  6
Continuous
 62
   200
370
    20
100
AcDbLine
 10
5699.998762800888
 20
-3795.000003092998
 30
0.0
 11
-5999.999752560178
 21
-3795.000003092998
 31
0.0
  0
LINE
  5
B0
330
1F
100
AcDbEntity
  8
F-1
  6
Continuous
 62
   200
370
    20
100
AcDbLine
 10
5699.998762800888
 20
-3790.000017526987
 30
0.0
 11
-5999.999752560178
 21
-3790.000017526987
 31
0.0
  0
LINE
  5
B1
330
1F
100
AcDbEntity
  8
F-0
  6
JWW_HOJO
 62
     7
370
     9
100
AcDbLine
 10
-5247.547376752838
 20
-3795.000003092999
 30
0.0
 11
-5247.547376752838
 21
-4205.000164959882
 31
0.0
  0
LINE
  5
B2
330
1F
100
AcDbEntity
  8
F-0
  6
JWW_HOJO
 62
     7
370
     9
100
AcDbLine
 10
-210.0001237199109
 20
-3795.000003092998
 30
0.0
 11
-210.0001237199109
 21
-4195.000008247994
 31
0.0
  0
MTEXT
  5
B3
330
1F
100
AcDbEntity
  8
F-A
  6
Continuous
 62
     7
370
     0
100
AcDbMText
 10
-2000.000758815456
 20
3984.82768145587
 30
0.0
 40
97.15499999999999
 41
255.0
 46
0.0
 71
     7
 72
     1
  1
{\fＭＳ ゴシック|b0|i0|c128|p49;寸法}
 73
     1
 44
1.0
  0
MTEXT
  5
B4
330
1F
100
AcDbEntity
  8
F-A
  6
Continuous
 62
     7
370
     0
100
AcDbMText
 10
-522.5005732349172
 20
3984.82768145587
 30
0.0
 40
97.15499999999999
 41
255.0
 46
0.0
 71
     7
 72
     1
  1
{\fＭＳ ゴシック|b0|i0|c128|p49;発注}
 73
     1
 44
1.0
  0
MTEXT
  5
B5
330
1F
100
AcDbEntity
  8
F-A
  6
Continuous
 62
     7
370
     0
100
AcDbMText
 10
3762.499719568202
 20
3984.779430690454
 30
0.0
 40
97.15499999999999
 41
255.0
 46
0.0
 71
     7
 72
     1
  1
{\fＭＳ ゴシック|b0|i0|c128|p49;寸法}
 73
     1
 44
1.0
  0
MTEXT
  5
B6
330
1F
100
AcDbEntity
  8
F-A
  6
Continuous
 62
     7
370
     0
100
AcDbMText
 10
5322.499719568203
 20
3984.779430690454
 30
0.0
 40
97.15499999999999
 41
255.0
 46
0.0
 71
     7
 72
     1
  1
{\fＭＳ ゴシック|b0|i0|c128|p49;発注}
 73
     1
 44
1.0
  0
MTEXT
  5
B7
330
1F
100
AcDbEntity
  8
F-A
  6
Continuous
 62
     7
370
     0
100
AcDbMText
 10
-5659.999812358134
 20
3877.030379407729
 30
0.0
 40
99.06
 41
390.0
 46
0.0
 71
     7
 72
     1
  1
{\fＭＳ ゴシック|b0|i0|c128|p49;部材名}
 73
     1
 44
1.0
  0
MTEXT
  5
B8
330
1F
100
AcDbEntity
  8
F-A
  6
Continuous
 62
     7
370
     0
100
AcDbMText
 10
-1175.000758815456
 20
3876.077879407728
 30
0.0
 40
97.15499999999999
 41
255.0
 46
0.0
 71
     7
 72
     1
  1
{\fＭＳ ゴシック|b0|i0|c128|p49;品番}
 73
     1
 44
1.0
  0
MTEXT
  5
B9
330
1F
100
AcDbEntity
  8
F-A
  6
Continuous
 62
     7
370
     0
100
AcDbMText
 10
182.499327788482
 20
3877.030379407729
 30
0.0
 40
99.06
 41
390.0
 46
0.0
 71
     7
 72
     1
  1
{\fＭＳ ゴシック|b0|i0|c128|p49;部材名}
 73
     1
 44
1.0
  0
MTEXT
  5
BA
330
1F
100
AcDbEntity
  8
F-A
  6
Continuous
 62
     7
370
     0
100
AcDbMText
 10
-3935.000579421584
 20
3877.50643145587
 30
0.0
 40
100.0125
 41
525.0
 46
0.0
 71
     7
 72
     1
  1
{\fＭＳ ゴシック|b0|i0|c128|p49;断面形状}
 73
     1
 44
1.0
  0
MTEXT
  5
BB
330
1F
100
AcDbEntity
  8
F-A
  6
Continuous
 62
     7
370
     0
100
AcDbMText
 10
1909.999991752006
 20
3877.50643145587
 30
0.0
 40
100.0125
 41
525.0
 46
0.0
 71
     7
 72
     1
  1
{\fＭＳ ゴシック|b0|i0|c128|p49;断面形状}
 73
     1
 44
1.0
  0
MTEXT
  5
BC
330
1F
100
AcDbEntity
  8
F-A
  6
Continuous
 62
     7
370
     0
100
AcDbMText
 10
4647.499719568202
 20
3876.029628642314
 30
0.0
 40
97.15499999999999
 41
255.0
 46
0.0
 71
     7
 72
     1
  1
{\fＭＳ ゴシック|b0|i0|c128|p49;品番}
 73
     1
 44
1.0
  0
MTEXT
  5
BD
330
1F
100
AcDbEntity
  8
F-A
  6
Continuous
 62
     7
370
     0
100
AcDbMText
 10
3484.999719568202
 20
3752.99232659417
 30
0.0
 40
68.58
 41
810.0
 46
0.0
 71
     7
 72
     1
  1
{\fＭＳ ゴシック|b0|i0|c128|p49;長さ×幅×厚さ(㎜)}
 73
     1
 44
1.0
  0
MTEXT
  5
BE
330
1F
100
AcDbEntity
  8
F-A
  6
Continuous
 62
     7
370
     0
100
AcDbMText
 10
5322.499719568203
 20
3767.231575828756
 30
0.0
 40
97.15499999999999
 41
255.0
 46
0.0
 71
     7
 72
     1
  1
{\fＭＳ ゴシック|b0|i0|c128|p49;単位}
 73
     1
 44
1.0
  0
MTEXT
  5
BF
330
1F
100
AcDbEntity
  8
F-A
  6
Continuous
 62
     7
370
     0
100
AcDbMText
 10
-522.5005732349172
 20
3762.327813424198
 30
0.0
 40
97.15499999999999
 41
255.0
 46
0.0
 71
     7
 72
     1
  1
{\fＭＳ ゴシック|b0|i0|c128|p49;単位}
 73
     1
 44
1.0
  0
MTEXT
  5
C0
330
1F
100
AcDbEntity
  8
F-A
  6
Continuous
 62
     7
370
     0
100
AcDbMText
 10
-2250.500758815457
 20
3740.754420647698
 30
0.0
 40
64.00800000000001
 41
756.0000000000001
 46
0.0
 71
     7
 72
     1
  1
{\fＭＳ ゴシック|b0|i0|c128|p49;長さ×幅×厚さ(㎜)}
 73
     1
 44
1.0
  0
MTEXT
  5
C1
330
1F
100
AcDbEntity
  8
F-A
  6
Continuous
 62
     7
370
     0
100
AcDbMText
 10
-60.0001237199109
 20
-3887.139820871936
 30
0.0
 40
45.72
 41
180.0
 46
0.0
 71
     7
 72
     1
  1
{\fＭＳ ゴシック|b0|i0|c128|p49;図面名}
 73
     1
 44
1.0
  0
MTEXT
  5
C2
330
1F
100
AcDbEntity
  8
F-A
  6
Continuous
 62
     7
370
     0
100
AcDbMText
 10
2779.998729808911
 20
-3887.142460617774
 30
0.0
 40
45.72
 41
300.0
 46
0.0
 71
     7
 72
     1
  1
{\fＭＳ ゴシック|b0|i0|c128|p49;ＳＣＡＬＥ}
 73
     1
 44
1.0
  0
MTEXT
  5
C3
330
1F
100
AcDbEntity
  8
F-A
  6
Continuous
 62
     7
370
     0
100
AcDbMText
 10
4279.999224688556
 20
-3887.143854850754
 30
0.0
 40
45.72
 41
240.0
 46
0.0
 71
     7
 72
     1
  1
{\fＭＳ ゴシック|b0|i0|c128|p49;ＤＡＴＥ}
 73
     1
 44
1.0
  0
MTEXT
  5
C4
330
1F
100
AcDbEntity
  8
F-A
  6
Continuous
 62
     7
370
     0
100
AcDbMText
 10
1180.417701903719
 20
-3946.138161599839
 30
0.0
 40
77.724
 41
510.0
 46
0.0
 71
     7
 72
     1
  1
{\fＭＳ ゴシック|b0|i0|c128|p49;洋風造作材}
 73
     1
 44
1.0
  0
MTEXT
  5
C5
330
1F
100
AcDbEntity
  8
F-A
  6
Continuous
 62
     7
370
     0
100
AcDbMText
 10
3409.998977248734
 20
-3946.903115907308
 30
0.0
 40
76.19999999999999
 41
150.0
 46
0.0
 71
     7
 72
     1
  1
{\fＭＳ ゴシック|b0|i0|c128|p49;1/2}
 73
     1
 44
1.0
  0
MTEXT
  5
C6
330
1F
100
AcDbEntity
  8
F-A
  6
Continuous
 62
     7
370
     0
100
AcDbMText
 10
349.9999175200594
 20
-3951.497291872503
 30
0.0
 40
68.58000000000001
 41
360.0
 46
0.0
 71
     7
 72
     1
  1
{\fＭＳ ゴシック|b0|i0|c128|p49;DOORETUS}
 73
     1
 44
1.0
  0
MTEXT
  5
C7
330
1F
100
AcDbEntity
  8
F-A
  6
Continuous
 62
     7
370
     0
100
AcDbMText
 10
2779.998729808911
 20
-4087.14246317786
 30
0.0
 40
45.72
 41
240.0
 46
0.0
 71
     7
 72
     1
  1
{\fＭＳ ゴシック|b0|i0|c128|p49;ＦＩＬＥ}
 73
     1
 44
1.0
  0
MTEXT
  5
C8
330
1F
100
AcDbEntity
  8
F-A
  6
Continuous
 62
     7
370
     0
100
AcDbMText
 10
4279.999224688556
 20
-4087.143857410839
 30
0.0
 40
45.72
 41
180.0
 46
0.0
 71
     7
 72
     1
  1
{\fＭＳ ゴシック|b0|i0|c128|p49;ＮＯ．}
 73
     1
 44
1.0
  0
MTEXT
  5
C9
330
1F
100
AcDbEntity
  8
F-A
  6
Continuous
 62
     7
370
     0
100
AcDbMText
 10
1234.998729808911
 20
-4096.140669266149
 30
0.0
 40
45.72
 41
120.0
 46
0.0
 71
     7
 72
     1
  1
{\fＭＳ ゴシック|b0|i0|c128|p49;株式}
 73
     1
 44
1.0
  0
MTEXT
  5
CA
330
1F
100
AcDbEntity
  8
F-A
  6
Continuous
 62
     7
370
     0
100
AcDbMText
 10
1444.998729808911
 20
-4164.281754523929
 30
0.0
 40
101.44125
 41
1065.0
 46
0.0
 71
     7
 72
     1
  1
{\fＭＳ ゴシック|b0|i0|c128|p49;ウッドワン・・・}
 73
     1
 44
1.0
  0
MTEXT
  5
CB
330
1F
100
AcDbEntity
  8
F-A
  6
Continuous
 62
     7
370
     0
100
AcDbMText
 10
1234.998729808911
 20
-4168.140669266187
 30
0.0
 40
45.72
 41
120.0
 46
0.0
 71
     7
 72
     1
  1
{\fＭＳ ゴシック|b0|i0|c128|p49;会社}
 73
     1
 44
1.0
  0
MTEXT
  5
CC
330
1F
100
AcDbEntity
  8
F-A
  6
Continuous
 62
     7
370
     0
100
AcDbMText
 10
5608.403311109712
 20
-4314.841256638534
 30
0.0
 40
68.58
 41
90.0
 46
0.0
 71
     7
 72
     1
  1
{\fＭＳ ゴシック|b0|i0|c128|p49;）}
 73
     1
 44
1.0
  0
MTEXT
  5
CD
330
1F
100
AcDbEntity
  8
F-A
  6
Continuous
 62
     7
370
     0
100
AcDbMText
 10
5190.195950842071
 20
-4316.235281487472
 30
0.0
 40
68.58
 41
45.0
 46
0.0
 71
     7
 72
     1
  1
{\fＭＳ ゴシック|b0|i0|c128|p49;,}
 73
     1
 44
1.0
  0
MTEXT
  5
CE
330
1F
100
AcDbEntity
  8
F-A
  6
Continuous
 62
     7
370
     0
100
AcDbMText
 10
4923.937261915373
 20
-4314.771804905898
 30
0.0
 40
74.295
 41
97.5
 46
0.0
 71
     7
 72
     1
  1
{\fＭＳ ゴシック|b0|i0|c128|p49;$y}
 73
     1
 44
1.0
  0
MTEXT
  5
CF
330
1F
100
AcDbEntity
  8
F-A
  6
Continuous
 62
     7
370
     0
100
AcDbMText
 10
5078.673982954195
 20
-4314.771804905898
 30
0.0
 40
74.295
 41
97.5
 46
0.0
 71
     7
 72
     1
  1
{\fＭＳ ゴシック|b0|i0|c128|p49;$m}
 73
     1
 44
1.0
  0
MTEXT
  5
D0
330
1F
100
AcDbEntity
  8
F-A
  6
Continuous
 62
     7
370
     0
100
AcDbMText
 10
5233.410715437103
 20
-4314.771804905898
 30
0.0
 40
74.295
 41
97.5
 46
0.0
 71
     7
 72
     1
  1
{\fＭＳ ゴシック|b0|i0|c128|p49;$d}
 73
     1
 44
1.0
  0
MTEXT
  5
D1
330
1F
100
AcDbEntity
  8
F-A
  6
Continuous
 62
     7
370
     0
100
AcDbMText
 10
5388.147447920011
 20
-4314.771804905898
 30
0.0
 40
74.295
 41
195.0
 46
0.0
 71
     7
 72
     1
  1
{\fＭＳ ゴシック|b0|i0|c128|p49;印刷}
 73
     1
 44
1.0
  0
MTEXT
  5
D2
330
1F
100
AcDbEntity
  8
F-A
  6
Continuous
 62
     7
370
     0
100
AcDbMText
 10
4784.033374252999
 20
-4319.023331185347
 30
0.0
 40
68.58
 41
90.0
 46
0.0
 71
     7
 72
     1
  1
{\fＭＳ ゴシック|b0|i0|c128|p49;（}
 73
     1
 44
1.0
  0
MTEXT
  5
D3
330
1F
100
AcDbEntity
  8
F-A
  6
Continuous
 62
     7
370
     0
100
AcDbMText
 10
5031.277143812345
 20
-4319.023331185347
 30
0.0
 40
68.58
 41
45.0
 46
0.0
 71
     7
 72
     1
  1
{\fＭＳ ゴシック|b0|i0|c128|p49;,}
 73
     1
 44
1.0
  0
MTEXT
  5
D4
330
1F
100
AcDbEntity
  8
0-A
  6
Continuous
 62
     7
370
     9
100
AcDbMText
 10
-5659.999626778267
 20
2599.530320012669
 30
0.0
 40
99.06
 41
390.0
 46
0.0
 71
     7
 72
     1
  1
{\fＭＳ ゴシック|b0|i0|c128|p49;開口枠}
 73
     1
 44
1.0
  0
MTEXT
  5
D5
330
1F
100
AcDbEntity
  8
0-A
  6
Continuous
 62
     7
370
     9
100
AcDbMText
 10
-5659.999626778267
 20
-2400.469999987333
 30
0.0
 40
99.06
 41
390.0
 46
0.0
 71
     7
 72
     1
  1
{\fＭＳ ゴシック|b0|i0|c128|p49;開口枠}
 73
     1
 44
1.0
  0
MTEXT
  5
D6
330
1F
100
AcDbEntity
  8
0-A
  6
Continuous
 62
     7
370
     9
100
AcDbMText
 10
-5659.999626778267
 20
99.53016001266758
 30
0.0
 40
99.06
 41
390.0
 46
0.0
 71
     7
 72
     1
  1
{\fＭＳ ゴシック|b0|i0|c128|p49;開口枠}
 73
     1
 44
1.0
  0
MTEXT
  5
D7
330
1F
100
AcDbEntity
  8
0-A
  6
Continuous
 62
     7
370
     9
100
AcDbMText
 10
-5866.249626778267
 20
2300.959193762668
 30
0.0
 40
101.9175
 41
802.5
 46
0.0
 71
     7
 72
     1
  1
{\fＭＳ ゴシック|b0|i0|c128|p49;(固定枠90幅)}
 73
     1
 44
1.0
  0
MTEXT
  5
D8
330
1F
100
AcDbEntity
  8
0-A
  6
Continuous
 62
     7
370
     9
100
AcDbMText
 10
-5899.999626778267
 20
-199.0043316219477
 30
0.0
 40
101.9907692307692
 41
870.0
 46
0.0
 71
     7
 72
     1
  1
{\fＭＳ ゴシック|b0|i0|c128|p49;(固定枠113幅)}
 73
     1
 44
1.0
  0
MTEXT
  5
D9
330
1F
100
AcDbEntity
  8
0-A
  6
Continuous
 62
     7
370
     9
100
AcDbMText
 10
-5899.999626778267
 20
-2699.004491621949
 30
0.0
 40
101.9907692307692
 41
870.0
 46
0.0
 71
     7
 72
     1
  1
{\fＭＳ ゴシック|b0|i0|c128|p49;(固定枠155幅)}
 73
     1
 44
1.0
  0
MTEXT
  5
DA
330
1F
100
AcDbEntity
  8
0-A
  6
Continuous
 62
     7
370
     0
100
AcDbMText
 10
-4895.000028867979
 20
3472.982921887668
 30
0.0
 40
100.965
 41
795.0
 46
0.0
 71
     7
 72
     1
  1
{\f@ＭＳ ゴシック|b0|i0|c128|p49;Ａ型(縦用)・}
 11
-1.836909530733566E-16
 21
-1.0
 31
0.0
 73
     1
 44
1.0
  0
MTEXT
  5
DB
330
1F
100
AcDbEntity
  8
0-A
  6
Continuous
 62
     7
370
     0
100
AcDbMText
 10
-4895.000028867979
 20
2222.982841887668
 30
0.0
 40
100.965
 41
795.0
 46
0.0
 71
     7
 72
     1
  1
{\f@ＭＳ ゴシック|b0|i0|c128|p49;Ｂ型(横用)・}
 11
-1.836909530733566E-16
 21
-1.0
 31
0.0
 73
     1
 44
1.0
  0
MTEXT
  5
DC
330
1F
100
AcDbEntity
  8
0-A
  6
Continuous
 62
     7
370
     0
100
AcDbMText
 10
-4895.000028867979
 20
972.9827618876678
 30
0.0
 40
100.965
 41
795.0
 46
0.0
 71
     7
 72
     1
  1
{\f@ＭＳ ゴシック|b0|i0|c128|p49;Ａ型(縦用)・}
 11
-1.836909530733566E-16
 21
-1.0
 31
0.0
 73
     1
 44
1.0
  0
MTEXT
  5
DD
330
1F
100
AcDbEntity
  8
0-A
  6
Continuous
 62
     7
370
     0
100
AcDbMText
 10
-4895.000028867979
 20
-277.0173181123325
 30
0.0
 40
100.965
 41
795.0
 46
0.0
 71
     7
 72
     1
  1
{\f@ＭＳ ゴシック|b0|i0|c128|p49;Ｂ型(横用)・}
 11
-1.836909530733566E-16
 21
-1.0
 31
0.0
 73
     1
 44
1.0
  0
MTEXT
  5
DE
330
1F
100
AcDbEntity
  8
0-A
  6
Continuous
 62
     7
370
     0
100
AcDbMText
 10
-4895.000028867979
 20
-1527.017398112333
 30
0.0
 40
100.965
 41
795.0
 46
0.0
 71
     7
 72
     1
  1
{\f@ＭＳ ゴシック|b0|i0|c128|p49;Ａ型(縦用)・}
 11
-1.836909530733566E-16
 21
-1.0
 31
0.0
 73
     1
 44
1.0
  0
MTEXT
  5
DF
330
1F
100
AcDbEntity
  8
0-A
  6
Continuous
 62
     7
370
     0
100
AcDbMText
 10
-4895.000028867979
 20
-2777.017478112333
 30
0.0
 40
100.965
 41
795.0
 46
0.0
 71
     7
 72
     1
  1
{\f@ＭＳ ゴシック|b0|i0|c128|p49;Ｂ型(横用)・}
 11
-1.836909530733566E-16
 21
-1.0
 31
0.0
 73
     1
 44
1.0
  0
LINE
  5
E0
330
1F
100
AcDbEntity
  8
0-4
  6
Continuous
 62
    92
370
    13
100
AcDbLine
 10
-4182.500393841718
 20
2830.000421887668
 30
0.0
 11
-2832.500393841718
 21
2830.000421887668
 31
0.0
  0
LINE
  5
E1
330
1F
100
AcDbEntity
  8
0-4
  6
Continuous
 62
    92
370
    13
100
AcDbLine
 10
-4182.500393841718
 20
3130.000421887668
 30
0.0
 11
-4182.500393841718
 21
2830.000421887668
 31
0.0
  0
LINE
  5
E2
330
1F
100
AcDbEntity
  8
0-4
  6
Continuous
 62
    92
370
    13
100
AcDbLine
 10
-4122.500393841718
 20
3190.000421887668
 30
0.0
 11
-4182.500393841718
 21
3130.000421887668
 31
0.0
  0
LINE
  5
E3
330
1F
100
AcDbEntity
  8
0-4
  6
Continuous
 62
    92
370
    13
100
AcDbLine
 10
-2892.500393841718
 20
3190.000421887668
 30
0.0
 11
-4122.500393841718
 21
3190.000421887668
 31
0.0
  0
LINE
  5
E4
330
1F
100
AcDbEntity
  8
0-4
  6
Continuous
 62
    92
370
    13
100
AcDbLine
 10
-2832.500393841718
 20
3130.000421887668
 30
0.0
 11
-2832.500393841718
 21
2830.000421887668
 31
0.0
  0
LINE
  5
E5
330
1F
100
AcDbEntity
  8
0-4
  6
Continuous
 62
    92
370
    13
100
AcDbLine
 10
-2892.500393841718
 20
3190.000421887668
 30
0.0
 11
-2832.500393841718
 21
3130.000421887668
 31
0.0
  0
LINE
  5
E6
330
1F
100
AcDbEntity
  8
0-4
  6
Continuous
 62
    92
370
    13
100
AcDbLine
 10
-4119.393792123919
 20
3182.500421887668
 30
0.0
 11
-4175.000393841718
 21
3126.89382016987
 31
0.0
  0
LINE
  5
E7
330
1F
100
AcDbEntity
  8
0-4
  6
Continuous
 62
    92
370
    13
100
AcDbLine
 10
-4175.000393841718
 20
3126.89382016987
 30
0.0
 11
-4175.000393841718
 21
2837.500421887668
 31
0.0
  0
LINE
  5
E8
330
1F
100
AcDbEntity
  8
0-4
  6
Continuous
 62
    92
370
    13
100
AcDbLine
 10
-2840.000393841718
 20
2837.500421887668
 30
0.0
 11
-2840.000393841718
 21
3126.89382016987
 31
0.0
  0
LINE
  5
E9
330
1F
100
AcDbEntity
  8
0-4
  6
Continuous
 62
    92
370
    13
100
AcDbLine
 10
-2895.606995559516
 20
3182.500421887668
 30
0.0
 11
-4119.393792123919
 21
3182.500421887668
 31
0.0
  0
LINE
  5
EA
330
1F
100
AcDbEntity
  8
0-4
  6
Continuous
 62
    92
370
    13
100
AcDbLine
 10
-2840.000393841718
 20
3126.89382016987
 30
0.0
 11
-2895.606995559516
 21
3182.500421887668
 31
0.0
  0
LINE
  5
EB
330
1F
100
AcDbEntity
  8
0-4
  6
Continuous
 62
    92
370
    13
100
AcDbLine
 10
-3132.500393841718
 20
2837.500421887668
 30
0.0
 11
-3132.500393841718
 21
2830.000421887668
 31
0.0
  0
LINE
  5
EC
330
1F
100
AcDbEntity
  8
0-4
  6
Continuous
 62
    92
370
    13
100
AcDbLine
 10
-3132.500393841718
 20
2837.500421887668
 30
0.0
 11
-2840.000393841718
 21
2837.500421887668
 31
0.0
  0
LINE
  5
ED
330
1F
100
AcDbEntity
  8
0-4
  6
Continuous
 62
    92
370
    13
100
AcDbLine
 10
-3882.500393841718
 20
2837.500421887668
 30
0.0
 11
-3882.500393841718
 21
2830.000421887668
 31
0.0
  0
LINE
  5
EE
330
1F
100
AcDbEntity
  8
0-4
  6
Continuous
 62
    92
370
    13
100
AcDbLine
 10
-4175.000393841718
 20
2837.500421887668
 30
0.0
 11
-3882.500393841718
 21
2837.500421887668
 31
0.0
  0
LINE
  5
EF
330
1F
100
AcDbEntity
  8
0-0
  6
JWW_HOJO
 62
   120
370
     5
100
AcDbLine
 10
-4257.500393841718
 20
3265.000421887668
 30
0.0
 11
-4257.500393841718
 21
2755.000421887668
 31
0.0
  0
LINE
  5
F0
330
1F
100
AcDbEntity
  8
0-0
  6
JWW_HOJO
 62
   120
370
     5
100
AcDbLine
 10
-4257.500393841718
 20
2755.000421887668
 30
0.0
 11
-2757.500393841718
 21
2755.000421887668
 31
0.0
  0
LINE
  5
F1
330
1F
100
AcDbEntity
  8
0-0
  6
JWW_HOJO
 62
   120
370
     5
100
AcDbLine
 10
-2682.500393841718
 20
2680.000421887668
 30
0.0
 11
-4332.500393841718
 21
2680.000421887668
 31
0.0
  0
LINE
  5
F2
330
1F
100
AcDbEntity
  8
0-0
  6
JWW_HOJO
 62
   120
370
     5
100
AcDbLine
 10
-4332.500393841718
 20
2680.000421887668
 30
0.0
 11
-4332.500393841718
 21
3340.000421887668
 31
0.0
  0
LINE
  5
F3
330
1F
100
AcDbEntity
  8
0-0
  6
JWW_HOJO
 62
   120
370
     5
100
AcDbLine
 10
-2757.500393841718
 20
3265.000421887668
 30
0.0
 11
-2757.500393841718
 21
2755.000421887668
 31
0.0
  0
LINE
  5
F4
330
1F
100
AcDbEntity
  8
0-0
  6
JWW_HOJO
 62
   120
370
     5
100
AcDbLine
 10
-2757.500393841718
 20
3265.000421887668
 30
0.0
 11
-4257.500393841718
 21
3265.000421887668
 31
0.0
  0
LINE
  5
F5
330
1F
100
AcDbEntity
  8
0-0
  6
JWW_HOJO
 62
   120
370
     5
100
AcDbLine
 10
-4332.500393841718
 20
3340.000421887668
 30
0.0
 11
-2682.500393841718
 21
3340.000421887668
 31
0.0
  0
LINE
  5
F6
330
1F
100
AcDbEntity
  8
0-0
  6
JWW_HOJO
 62
   120
370
     5
100
AcDbLine
 10
-2682.500393841718
 20
3340.000421887668
 30
0.0
 11
-2682.500393841718
 21
2680.000421887668
 31
0.0
  0
LINE
  5
F7
330
1F
100
AcDbEntity
  8
0-B
  6
Continuous
 62
   120
370
     5
100
AcDbLine
 10
-4182.500393841718
 20
2680.000421887668
 30
0.0
 11
-3882.500393841718
 21
2680.000421887668
 31
0.0
  0
LWPOLYLINE
  5
F8
330
1F
100
AcDbEntity
  8
0-B
  6
Continuous
 62
     7
370
     9
100
AcDbPolyline
 90
        4
 70
     1
 43
3.0
 10
-4181.000393841718
 20
2680.000421887668
 42
0.4142135623731
 10
-4182.500393841718
 20
2681.500421887668
 42
0.4142135623731
 10
-4184.000393841719
 20
2680.000421887668
 42
0.4142135623731
 10
-4182.500393841718
 20
2678.500421887669
 42
0.4142135623731
  0
LWPOLYLINE
  5
F9
330
1F
100
AcDbEntity
  8
0-B
  6
Continuous
 62
     7
370
     9
100
AcDbPolyline
 90
        4
 70
     1
 43
3.0
 10
-3881.000393841718
 20
2680.000421887668
 42
0.4142135623731
 10
-3882.500393841718
 20
2681.500421887668
 42
0.4142135623731
 10
-3884.000393841719
 20
2680.000421887668
 42
0.4142135623731
 10
-3882.500393841718
 20
2678.500421887669
 42
0.4142135623731
  0
LINE
  5
FA
330
1F
100
AcDbEntity
  8
0-B
  6
Continuous
 62
   120
370
     5
100
AcDbLine
 10
-4182.500393841718
 20
2680.000421887668
 30
0.0
 11
-4182.500393841718
 21
2755.000421887668
 31
0.0
  0
LINE
  5
FB
330
1F
100
AcDbEntity
  8
0-B
  6
Continuous
 62
   120
370
     5
100
AcDbLine
 10
-3882.500393841718
 20
2680.000421887668
 30
0.0
 11
-3882.500393841718
 21
2755.000421887668
 31
0.0
  0
MTEXT
  5
FC
330
1F
100
AcDbEntity
  8
0-B
  6
Continuous
 62
     7
370
   211
100
AcDbMText
 10
-4077.500393841718
 20
2684.290421887668
 30
0.0
 40
68.58
 41
90.0
 46
0.0
 71
     7
 72
     1
  1
{\fＭＳ ゴシック|b0|i0|c128|p49;20}
 73
     1
 44
1.0
  0
LINE
  5
FD
330
1F
100
AcDbEntity
  8
0-B
  6
Continuous
 62
   120
370
     5
100
AcDbLine
 10
-3132.500393841718
 20
2680.000421887668
 30
0.0
 11
-2832.500393841718
 21
2680.000421887668
 31
0.0
  0
LWPOLYLINE
  5
FE
330
1F
100
AcDbEntity
  8
0-B
  6
Continuous
 62
     7
370
     9
100
AcDbPolyline
 90
        4
 70
     1
 43
3.0
 10
-3131.000393841718
 20
2680.000421887668
 42
0.4142135623731
 10
-3132.500393841718
 20
2681.500421887668
 42
0.4142135623731
 10
-3134.000393841718
 20
2680.000421887668
 42
0.4142135623731
 10
-3132.500393841718
 20
2678.500421887669
 42
0.4142135623731
  0
LWPOLYLINE
  5
FF
330
1F
100
AcDbEntity
  8
0-B
  6
Continuous
 62
     7
370
     9
100
AcDbPolyline
 90
        4
 70
     1
 43
3.0
 10
-2831.000393841718
 20
2680.000421887668
 42
0.4142135623731
 10
-2832.500393841718
 20
2681.500421887668
 42
0.4142135623731
 10
-2834.000393841718
 20
2680.000421887668
 42
0.4142135623731
 10
-2832.500393841718
 20
2678.500421887669
 42
0.4142135623731
  0
LINE
  5
100
330
1F
100
AcDbEntity
  8
0-B
  6
Continuous
 62
   120
370
     5
100
AcDbLine
 10
-3132.500393841718
 20
2680.000421887668
 30
0.0
 11
-3132.500393841718
 21
2755.000421887668
 31
0.0
  0
LINE
  5
101
330
1F
100
AcDbEntity
  8
0-B
  6
Continuous
 62
   120
370
     5
100
AcDbLine
 10
-2832.500393841718
 20
2680.000421887668
 30
0.0
 11
-2832.500393841718
 21
2755.000421887668
 31
0.0
  0
MTEXT
  5
102
330
1F
100
AcDbEntity
  8
0-B
  6
Continuous
 62
     7
370
   211
100
AcDbMText
 10
-3027.500393841718
 20
2684.290421887668
 30
0.0
 40
68.58
 41
90.0
 46
0.0
 71
     7
 72
     1
  1
{\fＭＳ ゴシック|b0|i0|c128|p49;20}
 73
     1
 44
1.0
  0
LINE
  5
103
330
1F
100
AcDbEntity
  8
0-B
  6
Continuous
 62
   120
370
     5
100
AcDbLine
 10
-4332.500393841718
 20
2830.000421887668
 30
0.0
 11
-4332.500393841718
 21
3190.000421887668
 31
0.0
  0
LWPOLYLINE
  5
104
330
1F
100
AcDbEntity
  8
0-B
  6
Continuous
 62
     7
370
     9
100
AcDbPolyline
 90
        4
 70
     1
 43
3.0
 10
-4331.000393841718
 20
2830.000421887668
 42
0.4142135623731
 10
-4332.500393841718
 20
2831.500421887668
 42
0.4142135623731
 10
-4334.000393841719
 20
2830.000421887668
 42
0.4142135623731
 10
-4332.500393841718
 20
2828.500421887669
 42
0.4142135623731
  0
LWPOLYLINE
  5
105
330
1F
100
AcDbEntity
  8
0-B
  6
Continuous
 62
     7
370
     9
100
AcDbPolyline
 90
        4
 70
     1
 43
3.0
 10
-4331.000393841718
 20
3190.000421887668
 42
0.4142135623731
 10
-4332.500393841718
 20
3191.500421887668
 42
0.4142135623731
 10
-4334.000393841719
 20
3190.000421887668
 42
0.4142135623731
 10
-4332.500393841718
 20
3188.500421887669
 42
0.4142135623731
  0
LINE
  5
106
330
1F
100
AcDbEntity
  8
0-B
  6
Continuous
 62
   120
370
     5
100
AcDbLine
 10
-4332.500393841718
 20
2830.000421887668
 30
0.0
 11
-4257.500393841718
 21
2830.000421887668
 31
0.0
  0
LINE
  5
107
330
1F
100
AcDbEntity
  8
0-B
  6
Continuous
 62
   120
370
     5
100
AcDbLine
 10
-4332.500393841718
 20
3190.000421887668
 30
0.0
 11
-4257.500393841718
 21
3190.000421887668
 31
0.0
  0
MTEXT
  5
108
330
1F
100
AcDbEntity
  8
0-B
  6
Continuous
 62
     7
370
   211
100
AcDbMText
 10
-4347.500393841718
 20
2954.290421887668
 30
0.0
 40
68.58
 41
90.0
 46
0.0
 71
     7
 72
     1
  1
{\fＭＳ ゴシック|b0|i0|c128|p49;24}
 11
6.123031769111886E-17
 21
1.0
 31
0.0
 73
     1
 44
1.0
  0
LINE
  5
109
330
1F
100
AcDbEntity
  8
0-B
  6
Continuous
 62
   120
370
     5
100
AcDbLine
 10
-2892.500393841718
 20
3340.000421887668
 30
0.0
 11
-2832.500393841718
 21
3340.000421887668
 31
0.0
  0
LWPOLYLINE
  5
10A
330
1F
100
AcDbEntity
  8
0-B
  6
Continuous
 62
     7
370
     9
100
AcDbPolyline
 90
        4
 70
     1
 43
3.0
 10
-2891.000393841718
 20
3340.000421887668
 42
0.4142135623731
 10
-2892.500393841718
 20
3341.500421887668
 42
0.4142135623731
 10
-2894.000393841718
 20
3340.000421887668
 42
0.4142135623731
 10
-2892.500393841718
 20
3338.500421887669
 42
0.4142135623731
  0
LWPOLYLINE
  5
10B
330
1F
100
AcDbEntity
  8
0-B
  6
Continuous
 62
     7
370
     9
100
AcDbPolyline
 90
        4
 70
     1
 43
3.0
 10
-2831.000393841718
 20
3340.000421887668
 42
0.4142135623731
 10
-2832.500393841718
 20
3341.500421887668
 42
0.4142135623731
 10
-2834.000393841718
 20
3340.000421887668
 42
0.4142135623731
 10
-2832.500393841718
 20
3338.500421887669
 42
0.4142135623731
  0
LINE
  5
10C
330
1F
100
AcDbEntity
  8
0-B
  6
Continuous
 62
   120
370
     5
100
AcDbLine
 10
-2892.500393841718
 20
3340.000421887668
 30
0.0
 11
-2892.500393841718
 21
3265.000421887668
 31
0.0
  0
LINE
  5
10D
330
1F
100
AcDbEntity
  8
0-B
  6
Continuous
 62
   120
370
     5
100
AcDbLine
 10
-2832.500393841718
 20
3490.000421887668
 30
0.0
 11
-2832.500393841718
 21
3265.000421887668
 31
0.0
  0
MTEXT
  5
10E
330
1F
100
AcDbEntity
  8
0-B
  6
Continuous
 62
     7
370
   211
100
AcDbMText
 10
-2885.000393841718
 20
3344.290421887668
 30
0.0
 40
68.58
 41
45.0
 46
0.0
 71
     7
 72
     1
  1
{\fＭＳ ゴシック|b0|i0|c128|p49;4}
 73
     1
 44
1.0
  0
LINE
  5
10F
330
1F
100
AcDbEntity
  8
0-B
  6
Continuous
 62
   120
370
     5
100
AcDbLine
 10
-2682.500393841718
 20
3130.000421887668
 30
0.0
 11
-2682.500393841718
 21
3190.000421887668
 31
0.0
  0
LWPOLYLINE
  5
110
330
1F
100
AcDbEntity
  8
0-B
  6
Continuous
 62
     7
370
     9
100
AcDbPolyline
 90
        4
 70
     1
 43
3.0
 10
-2681.000393841718
 20
3130.000421887668
 42
0.4142135623731
 10
-2682.500393841718
 20
3131.500421887668
 42
0.4142135623731
 10
-2684.000393841718
 20
3130.000421887668
 42
0.4142135623731
 10
-2682.500393841718
 20
3128.500421887669
 42
0.4142135623731
  0
LWPOLYLINE
  5
111
330
1F
100
AcDbEntity
  8
0-B
  6
Continuous
 62
     7
370
     9
100
AcDbPolyline
 90
        4
 70
     1
 43
3.0
 10
-2681.000393841718
 20
3190.000421887668
 42
0.4142135623731
 10
-2682.500393841718
 20
3191.500421887668
 42
0.4142135623731
 10
-2684.000393841718
 20
3190.000421887668
 42
0.4142135623731
 10
-2682.500393841718
 20
3188.500421887669
 42
0.4142135623731
  0
LINE
  5
112
330
1F
100
AcDbEntity
  8
0-B
  6
Continuous
 62
   120
370
     5
100
AcDbLine
 10
-2682.500393841718
 20
3130.000421887668
 30
0.0
 11
-2757.500393841718
 21
3130.000421887668
 31
0.0
  0
LINE
  5
113
330
1F
100
AcDbEntity
  8
0-B
  6
Continuous
 62
   120
370
     5
100
AcDbLine
 10
-2682.500393841718
 20
3190.000421887668
 30
0.0
 11
-2757.500393841718
 21
3190.000421887668
 31
0.0
  0
MTEXT
  5
114
330
1F
100
AcDbEntity
  8
0-B
  6
Continuous
 62
     7
370
   211
100
AcDbMText
 10
-2697.500393841718
 20
3126.790421887668
 30
0.0
 40
68.58
 41
45.0
 46
0.0
 71
     7
 72
     1
  1
{\fＭＳ ゴシック|b0|i0|c128|p49;4}
 11
6.123031769111886E-17
 21
1.0
 31
0.0
 73
     1
 44
1.0
  0
LINE
  5
115
330
1F
100
AcDbEntity
  8
0-0
  6
JWW_HOJO
 62
   120
370
     5
100
AcDbLine
 10
-4332.500393841718
 20
3490.000421887668
 30
0.0
 11
-2682.500393841718
 21
3490.000421887668
 31
0.0
  0
LINE
  5
116
330
1F
100
AcDbEntity
  8
0-B
  6
Continuous
 62
   120
370
     5
100
AcDbLine
 10
-4182.500393841718
 20
3490.000421887668
 30
0.0
 11
-2832.500393841718
 21
3490.000421887668
 31
0.0
  0
LWPOLYLINE
  5
117
330
1F
100
AcDbEntity
  8
0-B
  6
Continuous
 62
     7
370
     9
100
AcDbPolyline
 90
        4
 70
     1
 43
3.0
 10
-4181.000393841718
 20
3490.000421887668
 42
0.4142135623731
 10
-4182.500393841718
 20
3491.500421887668
 42
0.4142135623731
 10
-4184.000393841719
 20
3490.000421887668
 42
0.4142135623731
 10
-4182.500393841718
 20
3488.500421887669
 42
0.4142135623731
  0
LWPOLYLINE
  5
118
330
1F
100
AcDbEntity
  8
0-B
  6
Continuous
 62
     7
370
     9
100
AcDbPolyline
 90
        4
 70
     1
 43
3.0
 10
-2831.000393841718
 20
3490.000421887668
 42
0.4142135623731
 10
-2832.500393841718
 20
3491.500421887668
 42
0.4142135623731
 10
-2834.000393841718
 20
3490.000421887668
 42
0.4142135623731
 10
-2832.500393841718
 20
3488.500421887669
 42
0.4142135623731
  0
LINE
  5
119
330
1F
100
AcDbEntity
  8
0-B
  6
Continuous
 62
   120
370
     5
100
AcDbLine
 10
-4182.500393841718
 20
3490.000421887668
 30
0.0
 11
-4182.500393841718
 21
3265.000421887668
 31
0.0
  0
MTEXT
  5
11A
330
1F
100
AcDbEntity
  8
0-B
  6
Continuous
 62
     7
370
   211
100
AcDbMText
 10
-3552.500393841718
 20
3494.290421887668
 30
0.0
 40
68.58
 41
90.0
 46
0.0
 71
     7
 72
     1
  1
{\fＭＳ ゴシック|b0|i0|c128|p49;90}
 73
     1
 44
1.0
  0
LINE
  5
11B
330
1F
100
AcDbEntity
  8
F-0
  6
JWW_HOJO
 62
   120
370
     5
100
AcDbLine
 10
-3507.500393841718
 20
3710.000461887669
 30
0.0
 11
-3507.500393841718
 21
-3790.000017526987
 31
0.0
  0
LINE
  5
11C
330
1F
100
AcDbEntity
  8
0-4
  6
Continuous
 62
    92
370
    13
100
AcDbLine
 10
-2660.000393841718
 20
630.0002618876679
 30
0.0
 11
-2660.000393841718
 21
330.0002618876678
 31
0.0
  0
LINE
  5
11D
330
1F
100
AcDbEntity
  8
0-4
  6
Continuous
 62
    92
370
    13
100
AcDbLine
 10
-2720.000393841718
 20
690.0002618876679
 30
0.0
 11
-2660.000393841718
 21
630.0002618876679
 31
0.0
  0
LINE
  5
11E
330
1F
100
AcDbEntity
  8
0-4
  6
Continuous
 62
    92
370
    13
100
AcDbLine
 10
-2667.500393841718
 20
337.5002618876678
 30
0.0
 11
-2667.500393841718
 21
626.8936601698695
 31
0.0
  0
LINE
  5
11F
330
1F
100
AcDbEntity
  8
0-4
  6
Continuous
 62
    92
370
    13
100
AcDbLine
 10
-2667.500393841718
 20
626.8936601698695
 30
0.0
 11
-2723.106995559516
 21
682.5002618876679
 31
0.0
  0
LINE
  5
120
330
1F
100
AcDbEntity
  8
0-4
  6
Continuous
 62
    92
370
    13
100
AcDbLine
 10
-2960.000393841718
 20
337.5002618876678
 30
0.0
 11
-2960.000393841718
 21
330.0002618876678
 31
0.0
  0
LINE
  5
121
330
1F
100
AcDbEntity
  8
0-4
  6
Continuous
 62
    92
370
    13
100
AcDbLine
 10
-2960.000393841718
 20
337.5002618876678
 30
0.0
 11
-2667.500393841718
 21
337.5002618876678
 31
0.0
  0
LINE
  5
122
330
1F
100
AcDbEntity
  8
0-0
  6
JWW_HOJO
 62
   120
370
     5
100
AcDbLine
 10
-2585.000393841718
 20
765.0002618876679
 30
0.0
 11
-2585.000393841718
 21
255.0002618876678
 31
0.0
  0
LINE
  5
123
330
1F
100
AcDbEntity
  8
0-0
  6
JWW_HOJO
 62
   120
370
     5
100
AcDbLine
 10
-2510.000393841718
 20
840.0002618876679
 30
0.0
 11
-2510.000393841718
 21
180.0002618876678
 31
0.0
  0
LINE
  5
124
330
1F
100
AcDbEntity
  8
0-B
  6
Continuous
 62
   120
370
     5
100
AcDbLine
 10
-2960.000393841718
 20
180.0002618876678
 30
0.0
 11
-2660.000393841718
 21
180.0002618876678
 31
0.0
  0
LWPOLYLINE
  5
125
330
1F
100
AcDbEntity
  8
0-B
  6
Continuous
 62
     7
370
     9
100
AcDbPolyline
 90
        4
 70
     1
 43
3.0
 10
-2958.500393841718
 20
180.0002618876678
 42
0.4142135623731
 10
-2960.000393841718
 20
181.5002618876678
 42
0.4142135623731
 10
-2961.500393841718
 20
180.0002618876678
 42
0.4142135623731
 10
-2960.000393841718
 20
178.5002618876678
 42
0.4142135623731
  0
LWPOLYLINE
  5
126
330
1F
100
AcDbEntity
  8
0-B
  6
Continuous
 62
     7
370
     9
100
AcDbPolyline
 90
        4
 70
     1
 43
3.0
 10
-2658.500393841718
 20
180.0002618876678
 42
0.4142135623731
 10
-2660.000393841718
 20
181.5002618876678
 42
0.4142135623731
 10
-2661.500393841718
 20
180.0002618876678
 42
0.4142135623731
 10
-2660.000393841718
 20
178.5002618876678
 42
0.4142135623731
  0
LINE
  5
127
330
1F
100
AcDbEntity
  8
0-B
  6
Continuous
 62
   120
370
     5
100
AcDbLine
 10
-2960.000393841718
 20
180.0002618876678
 30
0.0
 11
-2960.000393841718
 21
255.0002618876678
 31
0.0
  0
LINE
  5
128
330
1F
100
AcDbEntity
  8
0-B
  6
Continuous
 62
   120
370
     5
100
AcDbLine
 10
-2660.000393841718
 20
180.0002618876678
 30
0.0
 11
-2660.000393841718
 21
255.0002618876678
 31
0.0
  0
MTEXT
  5
129
330
1F
100
AcDbEntity
  8
0-B
  6
Continuous
 62
     7
370
   211
100
AcDbMText
 10
-2855.000393841718
 20
184.2902618876678
 30
0.0
 40
68.58
 41
90.0
 46
0.0
 71
     7
 72
     1
  1
{\fＭＳ ゴシック|b0|i0|c128|p49;20}
 73
     1
 44
1.0
  0
LINE
  5
12A
330
1F
100
AcDbEntity
  8
0-B
  6
Continuous
 62
   120
370
     5
100
AcDbLine
 10
-2720.000393841718
 20
840.0002618876679
 30
0.0
 11
-2660.000393841718
 21
840.0002618876679
 31
0.0
  0
LWPOLYLINE
  5
12B
330
1F
100
AcDbEntity
  8
0-B
  6
Continuous
 62
     7
370
     9
100
AcDbPolyline
 90
        4
 70
     1
 43
3.0
 10
-2718.500393841718
 20
840.0002618876679
 42
0.4142135623731
 10
-2720.000393841718
 20
841.5002618876679
 42
0.4142135623731
 10
-2721.500393841718
 20
840.0002618876679
 42
0.4142135623731
 10
-2720.000393841718
 20
838.5002618876678
 42
0.4142135623731
  0
LWPOLYLINE
  5
12C
330
1F
100
AcDbEntity
  8
0-B
  6
Continuous
 62
     7
370
     9
100
AcDbPolyline
 90
        4
 70
     1
 43
3.0
 10
-2658.500393841718
 20
840.0002618876679
 42
0.4142135623731
 10
-2660.000393841718
 20
841.5002618876679
 42
0.4142135623731
 10
-2661.500393841718
 20
840.0002618876679
 42
0.4142135623731
 10
-2660.000393841718
 20
838.5002618876678
 42
0.4142135623731
  0
LINE
  5
12D
330
1F
100
AcDbEntity
  8
0-B
  6
Continuous
 62
   120
370
     5
100
AcDbLine
 10
-2720.000393841718
 20
840.0002618876679
 30
0.0
 11
-2720.000393841718
 21
765.0002618876679
 31
0.0
  0
LINE
  5
12E
330
1F
100
AcDbEntity
  8
0-B
  6
Continuous
 62
   120
370
     5
100
AcDbLine
 10
-2660.000393841718
 20
990.0002618876679
 30
0.0
 11
-2660.000393841718
 21
765.0002618876679
 31
0.0
  0
MTEXT
  5
12F
330
1F
100
AcDbEntity
  8
0-B
  6
Continuous
 62
     7
370
   211
100
AcDbMText
 10
-2712.500393841718
 20
844.2902618876678
 30
0.0
 40
68.58
 41
45.0
 46
0.0
 71
     7
 72
     1
  1
{\fＭＳ ゴシック|b0|i0|c128|p49;4}
 73
     1
 44
1.0
  0
LINE
  5
130
330
1F
100
AcDbEntity
  8
0-B
  6
Continuous
 62
   120
370
     5
100
AcDbLine
 10
-2510.000393841718
 20
630.0002618876679
 30
0.0
 11
-2510.000393841718
 21
690.0002618876679
 31
0.0
  0
LWPOLYLINE
  5
131
330
1F
100
AcDbEntity
  8
0-B
  6
Continuous
 62
     7
370
     9
100
AcDbPolyline
 90
        4
 70
     1
 43
3.0
 10
-2508.500393841718
 20
630.0002618876679
 42
0.4142135623731
 10
-2510.000393841718
 20
631.5002618876679
 42
0.4142135623731
 10
-2511.500393841718
 20
630.0002618876679
 42
0.4142135623731
 10
-2510.000393841718
 20
628.5002618876678
 42
0.4142135623731
  0
LWPOLYLINE
  5
132
330
1F
100
AcDbEntity
  8
0-B
  6
Continuous
 62
     7
370
     9
100
AcDbPolyline
 90
        4
 70
     1
 43
3.0
 10
-2508.500393841718
 20
690.0002618876679
 42
0.4142135623731
 10
-2510.000393841718
 20
691.5002618876679
 42
0.4142135623731
 10
-2511.500393841718
 20
690.0002618876679
 42
0.4142135623731
 10
-2510.000393841718
 20
688.5002618876678
 42
0.4142135623731
  0
LINE
  5
133
330
1F
100
AcDbEntity
  8
0-B
  6
Continuous
 62
   120
370
     5
100
AcDbLine
 10
-2510.000393841718
 20
630.0002618876679
 30
0.0
 11
-2585.000393841718
 21
630.0002618876679
 31
0.0
  0
LINE
  5
134
330
1F
100
AcDbEntity
  8
0-B
  6
Continuous
 62
   120
370
     5
100
AcDbLine
 10
-2510.000393841718
 20
690.0002618876679
 30
0.0
 11
-2585.000393841718
 21
690.0002618876679
 31
0.0
  0
MTEXT
  5
135
330
1F
100
AcDbEntity
  8
0-B
  6
Continuous
 62
     7
370
   211
100
AcDbMText
 10
-2525.000393841718
 20
626.7902618876678
 30
0.0
 40
68.58
 41
45.0
 46
0.0
 71
     7
 72
     1
  1
{\fＭＳ ゴシック|b0|i0|c128|p49;4}
 11
6.123031769111886E-17
 21
1.0
 31
0.0
 73
     1
 44
1.0
  0
LWPOLYLINE
  5
136
330
1F
100
AcDbEntity
  8
0-B
  6
Continuous
 62
     7
370
     9
100
AcDbPolyline
 90
        4
 70
     1
 43
3.0
 10
-2658.500393841718
 20
990.0002618876679
 42
0.4142135623731
 10
-2660.000393841718
 20
991.5002618876678
 42
0.4142135623731
 10
-2661.500393841718
 20
990.0002618876679
 42
0.4142135623731
 10
-2660.000393841718
 20
988.5002618876679
 42
0.4142135623731
  0
LINE
  5
137
330
1F
100
AcDbEntity
  8
0-4
  6
Continuous
 62
    92
370
    13
100
AcDbLine
 10
-4355.000393841718
 20
330.0002618876678
 30
0.0
 11
-2660.000393841718
 21
330.0002618876678
 31
0.0
  0
LINE
  5
138
330
1F
100
AcDbEntity
  8
0-4
  6
Continuous
 62
    92
370
    13
100
AcDbLine
 10
-4355.000393841718
 20
630.0002618876679
 30
0.0
 11
-4355.000393841718
 21
330.0002618876678
 31
0.0
  0
LINE
  5
139
330
1F
100
AcDbEntity
  8
0-4
  6
Continuous
 62
    92
370
    13
100
AcDbLine
 10
-4295.000393841718
 20
690.0002618876679
 30
0.0
 11
-4355.000393841718
 21
630.0002618876679
 31
0.0
  0
LINE
  5
13A
330
1F
100
AcDbEntity
  8
0-4
  6
Continuous
 62
    92
370
    13
100
AcDbLine
 10
-2720.000393841718
 20
690.0002618876679
 30
0.0
 11
-4295.000393841718
 21
690.0002618876679
 31
0.0
  0
LINE
  5
13B
330
1F
100
AcDbEntity
  8
0-4
  6
Continuous
 62
    92
370
    13
100
AcDbLine
 10
-4291.893792123919
 20
682.5002618876679
 30
0.0
 11
-4347.500393841718
 21
626.8936601698695
 31
0.0
  0
LINE
  5
13C
330
1F
100
AcDbEntity
  8
0-4
  6
Continuous
 62
    92
370
    13
100
AcDbLine
 10
-4347.500393841718
 20
626.8936601698695
 30
0.0
 11
-4347.500393841718
 21
337.5002618876678
 31
0.0
  0
LINE
  5
13D
330
1F
100
AcDbEntity
  8
0-4
  6
Continuous
 62
    92
370
    13
100
AcDbLine
 10
-2723.106995559516
 20
682.5002618876679
 30
0.0
 11
-4291.893792123919
 21
682.5002618876679
 31
0.0
  0
LINE
  5
13E
330
1F
100
AcDbEntity
  8
0-4
  6
Continuous
 62
    92
370
    13
100
AcDbLine
 10
-4055.000393841718
 20
337.5002618876678
 30
0.0
 11
-4055.000393841718
 21
330.0002618876678
 31
0.0
  0
LINE
  5
13F
330
1F
100
AcDbEntity
  8
0-4
  6
Continuous
 62
    92
370
    13
100
AcDbLine
 10
-4347.500393841718
 20
337.5002618876678
 30
0.0
 11
-4055.000393841718
 21
337.5002618876678
 31
0.0
  0
LINE
  5
140
330
1F
100
AcDbEntity
  8
0-0
  6
JWW_HOJO
 62
   120
370
     5
100
AcDbLine
 10
-4430.000393841718
 20
765.0002618876679
 30
0.0
 11
-4430.000393841718
 21
255.0002618876678
 31
0.0
  0
LINE
  5
141
330
1F
100
AcDbEntity
  8
0-0
  6
JWW_HOJO
 62
   120
370
     5
100
AcDbLine
 10
-4430.000393841718
 20
255.0002618876678
 30
0.0
 11
-2585.000393841718
 21
255.0002618876678
 31
0.0
  0
LINE
  5
142
330
1F
100
AcDbEntity
  8
0-0
  6
JWW_HOJO
 62
   120
370
     5
100
AcDbLine
 10
-2510.000393841718
 20
180.0002618876678
 30
0.0
 11
-4505.000393841718
 21
180.0002618876678
 31
0.0
  0
LINE
  5
143
330
1F
100
AcDbEntity
  8
0-0
  6
JWW_HOJO
 62
   120
370
     5
100
AcDbLine
 10
-4505.000393841718
 20
180.0002618876678
 30
0.0
 11
-4505.000393841718
 21
840.0002618876679
 31
0.0
  0
LINE
  5
144
330
1F
100
AcDbEntity
  8
0-0
  6
JWW_HOJO
 62
   120
370
     5
100
AcDbLine
 10
-2585.000393841718
 20
765.0002618876679
 30
0.0
 11
-4430.000393841718
 21
765.0002618876679
 31
0.0
  0
LINE
  5
145
330
1F
100
AcDbEntity
  8
0-0
  6
JWW_HOJO
 62
   120
370
     5
100
AcDbLine
 10
-4505.000393841718
 20
840.0002618876679
 30
0.0
 11
-2510.000393841718
 21
840.0002618876679
 31
0.0
  0
LINE
  5
146
330
1F
100
AcDbEntity
  8
0-B
  6
Continuous
 62
   120
370
     5
100
AcDbLine
 10
-4355.000393841718
 20
180.0002618876678
 30
0.0
 11
-4055.000393841718
 21
180.0002618876678
 31
0.0
  0
LWPOLYLINE
  5
147
330
1F
100
AcDbEntity
  8
0-B
  6
Continuous
 62
     7
370
     9
100
AcDbPolyline
 90
        4
 70
     1
 43
3.0
 10
-4353.500393841718
 20
180.0002618876678
 42
0.4142135623731
 10
-4355.000393841718
 20
181.5002618876678
 42
0.4142135623731
 10
-4356.500393841719
 20
180.0002618876678
 42
0.4142135623731
 10
-4355.000393841718
 20
178.5002618876678
 42
0.4142135623731
  0
LWPOLYLINE
  5
148
330
1F
100
AcDbEntity
  8
0-B
  6
Continuous
 62
     7
370
     9
100
AcDbPolyline
 90
        4
 70
     1
 43
3.0
 10
-4053.500393841718
 20
180.0002618876678
 42
0.4142135623731
 10
-4055.000393841718
 20
181.5002618876678
 42
0.4142135623731
 10
-4056.500393841719
 20
180.0002618876678
 42
0.4142135623731
 10
-4055.000393841718
 20
178.5002618876678
 42
0.4142135623731
  0
LINE
  5
149
330
1F
100
AcDbEntity
  8
0-B
  6
Continuous
 62
   120
370
     5
100
AcDbLine
 10
-4355.000393841718
 20
180.0002618876678
 30
0.0
 11
-4355.000393841718
 21
255.0002618876678
 31
0.0
  0
LINE
  5
14A
330
1F
100
AcDbEntity
  8
0-B
  6
Continuous
 62
   120
370
     5
100
AcDbLine
 10
-4055.000393841718
 20
180.0002618876678
 30
0.0
 11
-4055.000393841718
 21
255.0002618876678
 31
0.0
  0
MTEXT
  5
14B
330
1F
100
AcDbEntity
  8
0-B
  6
Continuous
 62
     7
370
   211
100
AcDbMText
 10
-4250.000393841718
 20
184.2902618876678
 30
0.0
 40
68.58
 41
90.0
 46
0.0
 71
     7
 72
     1
  1
{\fＭＳ ゴシック|b0|i0|c128|p49;20}
 73
     1
 44
1.0
  0
LINE
  5
14C
330
1F
100
AcDbEntity
  8
0-B
  6
Continuous
 62
   120
370
     5
100
AcDbLine
 10
-4505.000393841718
 20
330.0002618876678
 30
0.0
 11
-4505.000393841718
 21
690.0002618876679
 31
0.0
  0
LWPOLYLINE
  5
14D
330
1F
100
AcDbEntity
  8
0-B
  6
Continuous
 62
     7
370
     9
100
AcDbPolyline
 90
        4
 70
     1
 43
3.0
 10
-4503.500393841718
 20
330.0002618876678
 42
0.4142135623731
 10
-4505.000393841718
 20
331.5002618876678
 42
0.4142135623731
 10
-4506.500393841719
 20
330.0002618876678
 42
0.4142135623731
 10
-4505.000393841718
 20
328.5002618876678
 42
0.4142135623731
  0
LWPOLYLINE
  5
14E
330
1F
100
AcDbEntity
  8
0-B
  6
Continuous
 62
     7
370
     9
100
AcDbPolyline
 90
        4
 70
     1
 43
3.0
 10
-4503.500393841718
 20
690.0002618876679
 42
0.4142135623731
 10
-4505.000393841718
 20
691.5002618876679
 42
0.4142135623731
 10
-4506.500393841719
 20
690.0002618876679
 42
0.4142135623731
 10
-4505.000393841718
 20
688.5002618876678
 42
0.4142135623731
  0
LINE
  5
14F
330
1F
100
AcDbEntity
  8
0-B
  6
Continuous
 62
   120
370
     5
100
AcDbLine
 10
-4505.000393841718
 20
330.0002618876678
 30
0.0
 11
-4430.000393841718
 21
330.0002618876678
 31
0.0
  0
LINE
  5
150
330
1F
100
AcDbEntity
  8
0-B
  6
Continuous
 62
   120
370
     5
100
AcDbLine
 10
-4505.000393841718
 20
690.0002618876679
 30
0.0
 11
-4430.000393841718
 21
690.0002618876679
 31
0.0
  0
MTEXT
  5
151
330
1F
100
AcDbEntity
  8
0-B
  6
Continuous
 62
     7
370
   211
100
AcDbMText
 10
-4520.000393841718
 20
454.2902618876678
 30
0.0
 40
68.58
 41
90.0
 46
0.0
 71
     7
 72
     1
  1
{\fＭＳ ゴシック|b0|i0|c128|p49;24}
 11
6.123031769111886E-17
 21
1.0
 31
0.0
 73
     1
 44
1.0
  0
LINE
  5
152
330
1F
100
AcDbEntity
  8
0-0
  6
JWW_HOJO
 62
   120
370
     5
100
AcDbLine
 10
-4505.000393841718
 20
990.0002618876679
 30
0.0
 11
-2510.000393841718
 21
990.0002618876679
 31
0.0
  0
LINE
  5
153
330
1F
100
AcDbEntity
  8
0-B
  6
Continuous
 62
   120
370
     5
100
AcDbLine
 10
-4355.000393841718
 20
990.0002618876679
 30
0.0
 11
-2660.000393841718
 21
990.0002618876679
 31
0.0
  0
LWPOLYLINE
  5
154
330
1F
100
AcDbEntity
  8
0-B
  6
Continuous
 62
     7
370
     9
100
AcDbPolyline
 90
        4
 70
     1
 43
3.0
 10
-4353.500393841718
 20
990.0002618876679
 42
0.4142135623731
 10
-4355.000393841718
 20
991.5002618876678
 42
0.4142135623731
 10
-4356.500393841719
 20
990.0002618876679
 42
0.4142135623731
 10
-4355.000393841718
 20
988.5002618876679
 42
0.4142135623731
  0
LINE
  5
155
330
1F
100
AcDbEntity
  8
0-B
  6
Continuous
 62
   120
370
     5
100
AcDbLine
 10
-4355.000393841718
 20
990.0002618876679
 30
0.0
 11
-4355.000393841718
 21
765.0002618876679
 31
0.0
  0
MTEXT
  5
156
330
1F
100
AcDbEntity
  8
0-B
  6
Continuous
 62
     7
370
   211
100
AcDbMText
 10
-3575.000393841718
 20
994.2902618876678
 30
0.0
 40
68.57999999999998
 41
135.0
 46
0.0
 71
     7
 72
     1
  1
{\fＭＳ ゴシック|b0|i0|c128|p49;113}
 73
     1
 44
1.0
  0
LINE
  5
157
330
1F
100
AcDbEntity
  8
0-4
  6
Continuous
 62
    92
370
    13
100
AcDbLine
 10
-2660.000393841718
 20
-1869.999898112333
 30
0.0
 11
-2660.000393841718
 21
-2169.999898112333
 31
0.0
  0
LINE
  5
158
330
1F
100
AcDbEntity
  8
0-4
  6
Continuous
 62
    92
370
    13
100
AcDbLine
 10
-2720.000393841718
 20
-1809.999898112333
 30
0.0
 11
-2660.000393841718
 21
-1869.999898112333
 31
0.0
  0
LINE
  5
159
330
1F
100
AcDbEntity
  8
0-4
  6
Continuous
 62
    92
370
    13
100
AcDbLine
 10
-2667.500393841718
 20
-2162.499898112333
 30
0.0
 11
-2667.500393841718
 21
-1873.106499830131
 31
0.0
  0
LINE
  5
15A
330
1F
100
AcDbEntity
  8
0-4
  6
Continuous
 62
    92
370
    13
100
AcDbLine
 10
-2667.500393841718
 20
-1873.106499830131
 30
0.0
 11
-2723.106995559516
 21
-1817.499898112333
 31
0.0
  0
LINE
  5
15B
330
1F
100
AcDbEntity
  8
0-4
  6
Continuous
 62
    92
370
    13
100
AcDbLine
 10
-2960.000393841718
 20
-2162.499898112333
 30
0.0
 11
-2960.000393841718
 21
-2169.999898112333
 31
0.0
  0
LINE
  5
15C
330
1F
100
AcDbEntity
  8
0-4
  6
Continuous
 62
    92
370
    13
100
AcDbLine
 10
-2960.000393841718
 20
-2162.499898112333
 30
0.0
 11
-2667.500393841718
 21
-2162.499898112333
 31
0.0
  0
LINE
  5
15D
330
1F
100
AcDbEntity
  8
0-0
  6
JWW_HOJO
 62
   120
370
     5
100
AcDbLine
 10
-2585.000393841718
 20
-1734.999898112333
 30
0.0
 11
-2585.000393841718
 21
-2244.999898112333
 31
0.0
  0
LINE
  5
15E
330
1F
100
AcDbEntity
  8
0-0
  6
JWW_HOJO
 62
   120
370
     5
100
AcDbLine
 10
-2510.000393841718
 20
-1659.999898112333
 30
0.0
 11
-2510.000393841718
 21
-2319.999898112333
 31
0.0
  0
LINE
  5
15F
330
1F
100
AcDbEntity
  8
0-B
  6
Continuous
 62
   120
370
     5
100
AcDbLine
 10
-2960.000393841718
 20
-2319.999898112333
 30
0.0
 11
-2660.000393841718
 21
-2319.999898112333
 31
0.0
  0
LWPOLYLINE
  5
160
330
1F
100
AcDbEntity
  8
0-B
  6
Continuous
 62
     7
370
     9
100
AcDbPolyline
 90
        4
 70
     1
 43
3.0
 10
-2958.500393841718
 20
-2319.999898112333
 42
0.4142135623731
 10
-2960.000393841718
 20
-2318.499898112333
 42
0.4142135623731
 10
-2961.500393841718
 20
-2319.999898112333
 42
0.4142135623731
 10
-2960.000393841718
 20
-2321.499898112333
 42
0.4142135623731
  0
LWPOLYLINE
  5
161
330
1F
100
AcDbEntity
  8
0-B
  6
Continuous
 62
     7
370
     9
100
AcDbPolyline
 90
        4
 70
     1
 43
3.0
 10
-2658.500393841718
 20
-2319.999898112333
 42
0.4142135623731
 10
-2660.000393841718
 20
-2318.499898112333
 42
0.4142135623731
 10
-2661.500393841718
 20
-2319.999898112333
 42
0.4142135623731
 10
-2660.000393841718
 20
-2321.499898112333
 42
0.4142135623731
  0
LINE
  5
162
330
1F
100
AcDbEntity
  8
0-B
  6
Continuous
 62
   120
370
     5
100
AcDbLine
 10
-2960.000393841718
 20
-2319.999898112333
 30
0.0
 11
-2960.000393841718
 21
-2244.999898112333
 31
0.0
  0
LINE
  5
163
330
1F
100
AcDbEntity
  8
0-B
  6
Continuous
 62
   120
370
     5
100
AcDbLine
 10
-2660.000393841718
 20
-2319.999898112333
 30
0.0
 11
-2660.000393841718
 21
-2244.999898112333
 31
0.0
  0
MTEXT
  5
164
330
1F
100
AcDbEntity
  8
0-B
  6
Continuous
 62
     7
370
   211
100
AcDbMText
 10
-2855.000393841718
 20
-2315.709898112333
 30
0.0
 40
68.58
 41
90.0
 46
0.0
 71
     7
 72
     1
  1
{\fＭＳ ゴシック|b0|i0|c128|p49;20}
 73
     1
 44
1.0
  0
LINE
  5
165
330
1F
100
AcDbEntity
  8
0-B
  6
Continuous
 62
   120
370
     5
100
AcDbLine
 10
-2720.000393841718
 20
-1659.999898112333
 30
0.0
 11
-2660.000393841718
 21
-1659.999898112333
 31
0.0
  0
LWPOLYLINE
  5
166
330
1F
100
AcDbEntity
  8
0-B
  6
Continuous
 62
     7
370
     9
100
AcDbPolyline
 90
        4
 70
     1
 43
3.0
 10
-2718.500393841718
 20
-1659.999898112333
 42
0.4142135623731
 10
-2720.000393841718
 20
-1658.499898112333
 42
0.4142135623731
 10
-2721.500393841718
 20
-1659.999898112333
 42
0.4142135623731
 10
-2720.000393841718
 20
-1661.499898112333
 42
0.4142135623731
  0
LWPOLYLINE
  5
167
330
1F
100
AcDbEntity
  8
0-B
  6
Continuous
 62
     7
370
     9
100
AcDbPolyline
 90
        4
 70
     1
 43
3.0
 10
-2658.500393841718
 20
-1659.999898112333
 42
0.4142135623731
 10
-2660.000393841718
 20
-1658.499898112333
 42
0.4142135623731
 10
-2661.500393841718
 20
-1659.999898112333
 42
0.4142135623731
 10
-2660.000393841718
 20
-1661.499898112333
 42
0.4142135623731
  0
LINE
  5
168
330
1F
100
AcDbEntity
  8
0-B
  6
Continuous
 62
   120
370
     5
100
AcDbLine
 10
-2720.000393841718
 20
-1659.999898112333
 30
0.0
 11
-2720.000393841718
 21
-1734.999898112333
 31
0.0
  0
LINE
  5
169
330
1F
100
AcDbEntity
  8
0-B
  6
Continuous
 62
   120
370
     5
100
AcDbLine
 10
-2660.000393841718
 20
-1509.999898112333
 30
0.0
 11
-2660.000393841718
 21
-1734.999898112333
 31
0.0
  0
MTEXT
  5
16A
330
1F
100
AcDbEntity
  8
0-B
  6
Continuous
 62
     7
370
   211
100
AcDbMText
 10
-2712.500393841718
 20
-1655.709898112333
 30
0.0
 40
68.58
 41
45.0
 46
0.0
 71
     7
 72
     1
  1
{\fＭＳ ゴシック|b0|i0|c128|p49;4}
 73
     1
 44
1.0
  0
LINE
  5
16B
330
1F
100
AcDbEntity
  8
0-B
  6
Continuous
 62
   120
370
     5
100
AcDbLine
 10
-2510.000393841718
 20
-1869.999898112333
 30
0.0
 11
-2510.000393841718
 21
-1809.999898112333
 31
0.0
  0
LWPOLYLINE
  5
16C
330
1F
100
AcDbEntity
  8
0-B
  6
Continuous
 62
     7
370
     9
100
AcDbPolyline
 90
        4
 70
     1
 43
3.0
 10
-2508.500393841718
 20
-1869.999898112333
 42
0.4142135623731
 10
-2510.000393841718
 20
-1868.499898112333
 42
0.4142135623731
 10
-2511.500393841718
 20
-1869.999898112333
 42
0.4142135623731
 10
-2510.000393841718
 20
-1871.499898112333
 42
0.4142135623731
  0
LWPOLYLINE
  5
16D
330
1F
100
AcDbEntity
  8
0-B
  6
Continuous
 62
     7
370
     9
100
AcDbPolyline
 90
        4
 70
     1
 43
3.0
 10
-2508.500393841718
 20
-1809.999898112333
 42
0.4142135623731
 10
-2510.000393841718
 20
-1808.499898112333
 42
0.4142135623731
 10
-2511.500393841718
 20
-1809.999898112333
 42
0.4142135623731
 10
-2510.000393841718
 20
-1811.499898112333
 42
0.4142135623731
  0
LINE
  5
16E
330
1F
100
AcDbEntity
  8
0-B
  6
Continuous
 62
   120
370
     5
100
AcDbLine
 10
-2510.000393841718
 20
-1869.999898112333
 30
0.0
 11
-2585.000393841718
 21
-1869.999898112333
 31
0.0
  0
LINE
  5
16F
330
1F
100
AcDbEntity
  8
0-B
  6
Continuous
 62
   120
370
     5
100
AcDbLine
 10
-2510.000393841718
 20
-1809.999898112333
 30
0.0
 11
-2585.000393841718
 21
-1809.999898112333
 31
0.0
  0
MTEXT
  5
170
330
1F
100
AcDbEntity
  8
0-B
  6
Continuous
 62
     7
370
   211
100
AcDbMText
 10
-2525.000393841718
 20
-1873.209898112333
 30
0.0
 40
68.58
 41
45.0
 46
0.0
 71
     7
 72
     1
  1
{\fＭＳ ゴシック|b0|i0|c128|p49;4}
 11
6.123031769111886E-17
 21
1.0
 31
0.0
 73
     1
 44
1.0
  0
LWPOLYLINE
  5
171
330
1F
100
AcDbEntity
  8
0-B
  6
Continuous
 62
     7
370
     9
100
AcDbPolyline
 90
        4
 70
     1
 43
3.0
 10
-2658.500393841718
 20
-1509.999898112333
 42
0.4142135623731
 10
-2660.000393841718
 20
-1508.499898112333
 42
0.4142135623731
 10
-2661.500393841718
 20
-1509.999898112333
 42
0.4142135623731
 10
-2660.000393841718
 20
-1511.499898112333
 42
0.4142135623731
  0
LINE
  5
172
330
1F
100
AcDbEntity
  8
0-0
  6
JWW_HOJO
 62
   120
370
     5
100
AcDbLine
 10
-2585.000393841718
 20
-2984.999978112333
 30
0.0
 11
-2585.000393841718
 21
-3494.999978112333
 31
0.0
  0
LINE
  5
173
330
1F
100
AcDbEntity
  8
0-0
  6
JWW_HOJO
 62
   120
370
     5
100
AcDbLine
 10
-2510.000393841718
 20
-2909.999978112333
 30
0.0
 11
-2510.000393841718
 21
-3569.999978112333
 31
0.0
  0
LWPOLYLINE
  5
174
330
1F
100
AcDbEntity
  8
0-B
  6
Continuous
 62
     7
370
     9
100
AcDbPolyline
 90
        4
 70
     1
 43
3.0
 10
-2658.500393841718
 20
-3569.999978112333
 42
0.4142135623731
 10
-2660.000393841718
 20
-3568.499978112333
 42
0.4142135623731
 10
-2661.500393841718
 20
-3569.999978112333
 42
0.4142135623731
 10
-2660.000393841718
 20
-3571.499978112333
 42
0.4142135623731
  0
LINE
  5
175
330
1F
100
AcDbEntity
  8
0-B
  6
Continuous
 62
   120
370
     5
100
AcDbLine
 10
-2660.000393841718
 20
-3569.999978112333
 30
0.0
 11
-2660.000393841718
 21
-3494.999978112333
 31
0.0
  0
LINE
  5
176
330
1F
100
AcDbEntity
  8
0-4
  6
Continuous
 62
    92
370
    13
100
AcDbLine
 10
-2660.000393841718
 20
-3419.999978112333
 30
0.0
 11
-2660.000393841718
 21
-3059.999978112333
 31
0.0
  0
LINE
  5
177
330
1F
100
AcDbEntity
  8
0-4
  6
Continuous
 62
    92
370
    13
100
AcDbLine
 10
-2667.500393841718
 20
-3412.499978112333
 30
0.0
 11
-2667.500393841718
 21
-3067.499978112333
 31
0.0
  0
LWPOLYLINE
  5
178
330
1F
100
AcDbEntity
  8
0-B
  6
Continuous
 62
     7
370
     9
100
AcDbPolyline
 90
        4
 70
     1
 43
3.0
 10
-2658.500393841718
 20
-2909.999978112333
 42
0.4142135623731
 10
-2660.000393841718
 20
-2908.499978112333
 42
0.4142135623731
 10
-2661.500393841718
 20
-2909.999978112333
 42
0.4142135623731
 10
-2660.000393841718
 20
-2911.499978112333
 42
0.4142135623731
  0
LINE
  5
179
330
1F
100
AcDbEntity
  8
0-B
  6
Continuous
 62
   120
370
     5
100
AcDbLine
 10
-2660.000393841718
 20
-2909.999978112333
 30
0.0
 11
-2660.000393841718
 21
-2984.999978112333
 31
0.0
  0
LINE
  5
17A
330
1F
100
AcDbEntity
  8
0-4
  6
Continuous
 62
    92
370
    13
100
AcDbLine
 10
-2885.000393841718
 20
-3412.499978112333
 30
0.0
 11
-2885.000393841718
 21
-3419.999978112333
 31
0.0
  0
LINE
  5
17B
330
1F
100
AcDbEntity
  8
0-4
  6
Continuous
 62
    92
370
    13
100
AcDbLine
 10
-2885.000393841718
 20
-3412.499978112333
 30
0.0
 11
-2667.500393841718
 21
-3412.499978112333
 31
0.0
  0
LINE
  5
17C
330
1F
100
AcDbEntity
  8
0-B
  6
Continuous
 62
   120
370
     5
100
AcDbLine
 10
-2885.000393841718
 20
-3569.999978112333
 30
0.0
 11
-2660.000393841718
 21
-3569.999978112333
 31
0.0
  0
LWPOLYLINE
  5
17D
330
1F
100
AcDbEntity
  8
0-B
  6
Continuous
 62
     7
370
     9
100
AcDbPolyline
 90
        4
 70
     1
 43
3.0
 10
-2883.500393841718
 20
-3569.999978112333
 42
0.4142135623731
 10
-2885.000393841718
 20
-3568.499978112333
 42
0.4142135623731
 10
-2886.500393841718
 20
-3569.999978112333
 42
0.4142135623731
 10
-2885.000393841718
 20
-3571.499978112333
 42
0.4142135623731
  0
LINE
  5
17E
330
1F
100
AcDbEntity
  8
0-B
  6
Continuous
 62
   120
370
     5
100
AcDbLine
 10
-2885.000393841718
 20
-3569.999978112333
 30
0.0
 11
-2885.000393841718
 21
-3494.999978112333
 31
0.0
  0
MTEXT
  5
17F
330
1F
100
AcDbEntity
  8
0-B
  6
Continuous
 62
     7
370
   211
100
AcDbMText
 10
-2817.500393841718
 20
-3565.709978112333
 30
0.0
 40
68.58
 41
90.0
 46
0.0
 71
     7
 72
     1
  1
{\fＭＳ ゴシック|b0|i0|c128|p49;15}
 73
     1
 44
1.0
  0
LINE
  5
180
330
1F
100
AcDbEntity
  8
0-4
  6
Continuous
 62
    92
370
    13
100
AcDbLine
 10
-4355.000393841718
 20
-1869.999898112333
 30
0.0
 11
-4355.000393841718
 21
-2169.999898112333
 31
0.0
  0
LINE
  5
181
330
1F
100
AcDbEntity
  8
0-4
  6
Continuous
 62
    92
370
    13
100
AcDbLine
 10
-4295.000393841718
 20
-1809.999898112333
 30
0.0
 11
-4355.000393841718
 21
-1869.999898112333
 31
0.0
  0
LINE
  5
182
330
1F
100
AcDbEntity
  8
0-4
  6
Continuous
 62
    92
370
    13
100
AcDbLine
 10
-4291.893792123919
 20
-1817.499898112333
 30
0.0
 11
-4347.500393841718
 21
-1873.106499830131
 31
0.0
  0
LINE
  5
183
330
1F
100
AcDbEntity
  8
0-4
  6
Continuous
 62
    92
370
    13
100
AcDbLine
 10
-4347.500393841718
 20
-1873.106499830131
 30
0.0
 11
-4347.500393841718
 21
-2162.499898112333
 31
0.0
  0
LINE
  5
184
330
1F
100
AcDbEntity
  8
0-4
  6
Continuous
 62
    92
370
    13
100
AcDbLine
 10
-4055.000393841718
 20
-2162.499898112333
 30
0.0
 11
-4055.000393841718
 21
-2169.999898112333
 31
0.0
  0
LINE
  5
185
330
1F
100
AcDbEntity
  8
0-4
  6
Continuous
 62
    92
370
    13
100
AcDbLine
 10
-4347.500393841718
 20
-2162.499898112333
 30
0.0
 11
-4055.000393841718
 21
-2162.499898112333
 31
0.0
  0
LINE
  5
186
330
1F
100
AcDbEntity
  8
0-0
  6
JWW_HOJO
 62
   120
370
     5
100
AcDbLine
 10
-4430.000393841718
 20
-1734.999898112333
 30
0.0
 11
-4430.000393841718
 21
-2244.999898112333
 31
0.0
  0
LINE
  5
187
330
1F
100
AcDbEntity
  8
0-0
  6
JWW_HOJO
 62
   120
370
     5
100
AcDbLine
 10
-4430.000393841718
 20
-2244.999898112333
 30
0.0
 11
-2585.000393841718
 21
-2244.999898112333
 31
0.0
  0
LINE
  5
188
330
1F
100
AcDbEntity
  8
0-0
  6
JWW_HOJO
 62
   120
370
     5
100
AcDbLine
 10
-2510.000393841718
 20
-2319.999898112333
 30
0.0
 11
-4505.000393841718
 21
-2319.999898112333
 31
0.0
  0
LINE
  5
189
330
1F
100
AcDbEntity
  8
0-0
  6
JWW_HOJO
 62
   120
370
     5
100
AcDbLine
 10
-4505.000393841718
 20
-2319.999898112333
 30
0.0
 11
-4505.000393841718
 21
-1659.999898112333
 31
0.0
  0
LINE
  5
18A
330
1F
100
AcDbEntity
  8
0-0
  6
JWW_HOJO
 62
   120
370
     5
100
AcDbLine
 10
-2585.000393841718
 20
-1734.999898112333
 30
0.0
 11
-4430.000393841718
 21
-1734.999898112333
 31
0.0
  0
LINE
  5
18B
330
1F
100
AcDbEntity
  8
0-0
  6
JWW_HOJO
 62
   120
370
     5
100
AcDbLine
 10
-4505.000393841718
 20
-1659.999898112333
 30
0.0
 11
-2510.000393841718
 21
-1659.999898112333
 31
0.0
  0
LINE
  5
18C
330
1F
100
AcDbEntity
  8
0-B
  6
Continuous
 62
   120
370
     5
100
AcDbLine
 10
-4355.000393841718
 20
-2319.999898112333
 30
0.0
 11
-4055.000393841718
 21
-2319.999898112333
 31
0.0
  0
LWPOLYLINE
  5
18D
330
1F
100
AcDbEntity
  8
0-B
  6
Continuous
 62
     7
370
     9
100
AcDbPolyline
 90
        4
 70
     1
 43
3.0
 10
-4353.500393841718
 20
-2319.999898112333
 42
0.4142135623731
 10
-4355.000393841718
 20
-2318.499898112333
 42
0.4142135623731
 10
-4356.500393841719
 20
-2319.999898112333
 42
0.4142135623731
 10
-4355.000393841718
 20
-2321.499898112333
 42
0.4142135623731
  0
LWPOLYLINE
  5
18E
330
1F
100
AcDbEntity
  8
0-B
  6
Continuous
 62
     7
370
     9
100
AcDbPolyline
 90
        4
 70
     1
 43
3.0
 10
-4053.500393841718
 20
-2319.999898112333
 42
0.4142135623731
 10
-4055.000393841718
 20
-2318.499898112333
 42
0.4142135623731
 10
-4056.500393841719
 20
-2319.999898112333
 42
0.4142135623731
 10
-4055.000393841718
 20
-2321.499898112333
 42
0.4142135623731
  0
LINE
  5
18F
330
1F
100
AcDbEntity
  8
0-B
  6
Continuous
 62
   120
370
     5
100
AcDbLine
 10
-4355.000393841718
 20
-2319.999898112333
 30
0.0
 11
-4355.000393841718
 21
-2244.999898112333
 31
0.0
  0
LINE
  5
190
330
1F
100
AcDbEntity
  8
0-B
  6
Continuous
 62
   120
370
     5
100
AcDbLine
 10
-4055.000393841718
 20
-2319.999898112333
 30
0.0
 11
-4055.000393841718
 21
-2244.999898112333
 31
0.0
  0
MTEXT
  5
191
330
1F
100
AcDbEntity
  8
0-B
  6
Continuous
 62
     7
370
   211
100
AcDbMText
 10
-4250.000393841718
 20
-2315.709898112333
 30
0.0
 40
68.58
 41
90.0
 46
0.0
 71
     7
 72
     1
  1
{\fＭＳ ゴシック|b0|i0|c128|p49;20}
 73
     1
 44
1.0
  0
LINE
  5
192
330
1F
100
AcDbEntity
  8
0-B
  6
Continuous
 62
   120
370
     5
100
AcDbLine
 10
-4505.000393841718
 20
-2169.999898112333
 30
0.0
 11
-4505.000393841718
 21
-1809.999898112333
 31
0.0
  0
LWPOLYLINE
  5
193
330
1F
100
AcDbEntity
  8
0-B
  6
Continuous
 62
     7
370
     9
100
AcDbPolyline
 90
        4
 70
     1
 43
3.0
 10
-4503.500393841718
 20
-2169.999898112333
 42
0.4142135623731
 10
-4505.000393841718
 20
-2168.499898112333
 42
0.4142135623731
 10
-4506.500393841719
 20
-2169.999898112333
 42
0.4142135623731
 10
-4505.000393841718
 20
-2171.499898112333
 42
0.4142135623731
  0
LWPOLYLINE
  5
194
330
1F
100
AcDbEntity
  8
0-B
  6
Continuous
 62
     7
370
     9
100
AcDbPolyline
 90
        4
 70
     1
 43
3.0
 10
-4503.500393841718
 20
-1809.999898112333
 42
0.4142135623731
 10
-4505.000393841718
 20
-1808.499898112333
 42
0.4142135623731
 10
-4506.500393841719
 20
-1809.999898112333
 42
0.4142135623731
 10
-4505.000393841718
 20
-1811.499898112333
 42
0.4142135623731
  0
LINE
  5
195
330
1F
100
AcDbEntity
  8
0-B
  6
Continuous
 62
   120
370
     5
100
AcDbLine
 10
-4505.000393841718
 20
-2169.999898112333
 30
0.0
 11
-4430.000393841718
 21
-2169.999898112333
 31
0.0
  0
LINE
  5
196
330
1F
100
AcDbEntity
  8
0-B
  6
Continuous
 62
   120
370
     5
100
AcDbLine
 10
-4505.000393841718
 20
-1809.999898112333
 30
0.0
 11
-4430.000393841718
 21
-1809.999898112333
 31
0.0
  0
MTEXT
  5
197
330
1F
100
AcDbEntity
  8
0-B
  6
Continuous
 62
     7
370
   211
100
AcDbMText
 10
-4520.000393841718
 20
-2045.709898112333
 30
0.0
 40
68.58
 41
90.0
 46
0.0
 71
     7
 72
     1
  1
{\fＭＳ ゴシック|b0|i0|c128|p49;24}
 11
6.123031769111886E-17
 21
1.0
 31
0.0
 73
     1
 44
1.0
  0
LINE
  5
198
330
1F
100
AcDbEntity
  8
0-0
  6
JWW_HOJO
 62
   120
370
     5
100
AcDbLine
 10
-4505.000393841718
 20
-1509.999898112333
 30
0.0
 11
-2510.000393841718
 21
-1509.999898112333
 31
0.0
  0
LINE
  5
199
330
1F
100
AcDbEntity
  8
0-B
  6
Continuous
 62
   120
370
     5
100
AcDbLine
 10
-4355.000393841718
 20
-1509.999898112333
 30
0.0
 11
-2660.000393841718
 21
-1509.999898112333
 31
0.0
  0
LWPOLYLINE
  5
19A
330
1F
100
AcDbEntity
  8
0-B
  6
Continuous
 62
     7
370
     9
100
AcDbPolyline
 90
        4
 70
     1
 43
3.0
 10
-4353.500393841718
 20
-1509.999898112333
 42
0.4142135623731
 10
-4355.000393841718
 20
-1508.499898112333
 42
0.4142135623731
 10
-4356.500393841719
 20
-1509.999898112333
 42
0.4142135623731
 10
-4355.000393841718
 20
-1511.499898112333
 42
0.4142135623731
  0
LINE
  5
19B
330
1F
100
AcDbEntity
  8
0-B
  6
Continuous
 62
   120
370
     5
100
AcDbLine
 10
-4355.000393841718
 20
-1509.999898112333
 30
0.0
 11
-4355.000393841718
 21
-1734.999898112333
 31
0.0
  0
LINE
  5
19C
330
1F
100
AcDbEntity
  8
0-0
  6
JWW_HOJO
 62
   120
370
     5
100
AcDbLine
 10
-4430.000393841718
 20
-2984.999978112333
 30
0.0
 11
-4430.000393841718
 21
-3494.999978112333
 31
0.0
  0
LINE
  5
19D
330
1F
100
AcDbEntity
  8
0-0
  6
JWW_HOJO
 62
   120
370
     5
100
AcDbLine
 10
-4430.000393841718
 20
-3494.999978112333
 30
0.0
 11
-2585.000393841718
 21
-3494.999978112333
 31
0.0
  0
LINE
  5
19E
330
1F
100
AcDbEntity
  8
0-0
  6
JWW_HOJO
 62
   120
370
     5
100
AcDbLine
 10
-2510.000393841718
 20
-3569.999978112333
 30
0.0
 11
-4505.000393841718
 21
-3569.999978112333
 31
0.0
  0
LINE
  5
19F
330
1F
100
AcDbEntity
  8
0-0
  6
JWW_HOJO
 62
   120
370
     5
100
AcDbLine
 10
-4505.000393841718
 20
-3569.999978112333
 30
0.0
 11
-4505.000393841718
 21
-2909.999978112333
 31
0.0
  0
LINE
  5
1A0
330
1F
100
AcDbEntity
  8
0-0
  6
JWW_HOJO
 62
   120
370
     5
100
AcDbLine
 10
-2585.000393841718
 20
-2984.999978112333
 30
0.0
 11
-4430.000393841718
 21
-2984.999978112333
 31
0.0
  0
LINE
  5
1A1
330
1F
100
AcDbEntity
  8
0-0
  6
JWW_HOJO
 62
   120
370
     5
100
AcDbLine
 10
-4505.000393841718
 20
-2909.999978112333
 30
0.0
 11
-2510.000393841718
 21
-2909.999978112333
 31
0.0
  0
LWPOLYLINE
  5
1A2
330
1F
100
AcDbEntity
  8
0-B
  6
Continuous
 62
     7
370
     9
100
AcDbPolyline
 90
        4
 70
     1
 43
3.0
 10
-4353.500393841718
 20
-3569.999978112333
 42
0.4142135623731
 10
-4355.000393841718
 20
-3568.499978112333
 42
0.4142135623731
 10
-4356.500393841719
 20
-3569.999978112333
 42
0.4142135623731
 10
-4355.000393841718
 20
-3571.499978112333
 42
0.4142135623731
  0
LINE
  5
1A3
330
1F
100
AcDbEntity
  8
0-B
  6
Continuous
 62
   120
370
     5
100
AcDbLine
 10
-4355.000393841718
 20
-3569.999978112333
 30
0.0
 11
-4355.000393841718
 21
-3494.999978112333
 31
0.0
  0
LINE
  5
1A4
330
1F
100
AcDbEntity
  8
0-B
  6
Continuous
 62
   120
370
     5
100
AcDbLine
 10
-4505.000393841718
 20
-3419.999978112333
 30
0.0
 11
-4505.000393841718
 21
-3059.999978112333
 31
0.0
  0
LWPOLYLINE
  5
1A5
330
1F
100
AcDbEntity
  8
0-B
  6
Continuous
 62
     7
370
     9
100
AcDbPolyline
 90
        4
 70
     1
 43
3.0
 10
-4503.500393841718
 20
-3419.999978112333
 42
0.4142135623731
 10
-4505.000393841718
 20
-3418.499978112333
 42
0.4142135623731
 10
-4506.500393841719
 20
-3419.999978112333
 42
0.4142135623731
 10
-4505.000393841718
 20
-3421.499978112333
 42
0.4142135623731
  0
LWPOLYLINE
  5
1A6
330
1F
100
AcDbEntity
  8
0-B
  6
Continuous
 62
     7
370
     9
100
AcDbPolyline
 90
        4
 70
     1
 43
3.0
 10
-4503.500393841718
 20
-3059.999978112333
 42
0.4142135623731
 10
-4505.000393841718
 20
-3058.499978112333
 42
0.4142135623731
 10
-4506.500393841719
 20
-3059.999978112333
 42
0.4142135623731
 10
-4505.000393841718
 20
-3061.499978112333
 42
0.4142135623731
  0
LINE
  5
1A7
330
1F
100
AcDbEntity
  8
0-B
  6
Continuous
 62
   120
370
     5
100
AcDbLine
 10
-4505.000393841718
 20
-3419.999978112333
 30
0.0
 11
-4430.000393841718
 21
-3419.999978112333
 31
0.0
  0
LINE
  5
1A8
330
1F
100
AcDbEntity
  8
0-B
  6
Continuous
 62
   120
370
     5
100
AcDbLine
 10
-4505.000393841718
 20
-3059.999978112333
 30
0.0
 11
-4430.000393841718
 21
-3059.999978112333
 31
0.0
  0
MTEXT
  5
1A9
330
1F
100
AcDbEntity
  8
0-B
  6
Continuous
 62
     7
370
   211
100
AcDbMText
 10
-4520.000393841718
 20
-3295.709978112333
 30
0.0
 40
68.58
 41
90.0
 46
0.0
 71
     7
 72
     1
  1
{\fＭＳ ゴシック|b0|i0|c128|p49;24}
 11
6.123031769111886E-17
 21
1.0
 31
0.0
 73
     1
 44
1.0
  0
LINE
  5
1AA
330
1F
100
AcDbEntity
  8
0-4
  6
Continuous
 62
    92
370
    13
100
AcDbLine
 10
-4355.000393841718
 20
-3419.999978112333
 30
0.0
 11
-4355.000393841718
 21
-3059.999978112333
 31
0.0
  0
LINE
  5
1AB
330
1F
100
AcDbEntity
  8
0-4
  6
Continuous
 62
    92
370
    13
100
AcDbLine
 10
-4347.500393841718
 20
-3412.499978112333
 30
0.0
 11
-4347.500393841718
 21
-3067.499978112333
 31
0.0
  0
LINE
  5
1AC
330
1F
100
AcDbEntity
  8
0-B
  6
Continuous
 62
   120
370
     5
100
AcDbLine
 10
-4355.000393841718
 20
-2909.999978112333
 30
0.0
 11
-2660.000393841718
 21
-2909.999978112333
 31
0.0
  0
LWPOLYLINE
  5
1AD
330
1F
100
AcDbEntity
  8
0-B
  6
Continuous
 62
     7
370
     9
100
AcDbPolyline
 90
        4
 70
     1
 43
3.0
 10
-4353.500393841718
 20
-2909.999978112333
 42
0.4142135623731
 10
-4355.000393841718
 20
-2908.499978112333
 42
0.4142135623731
 10
-4356.500393841719
 20
-2909.999978112333
 42
0.4142135623731
 10
-4355.000393841718
 20
-2911.499978112333
 42
0.4142135623731
  0
LINE
  5
1AE
330
1F
100
AcDbEntity
  8
0-B
  6
Continuous
 62
   120
370
     5
100
AcDbLine
 10
-4355.000393841718
 20
-2909.999978112333
 30
0.0
 11
-4355.000393841718
 21
-2984.999978112333
 31
0.0
  0
LINE
  5
1AF
330
1F
100
AcDbEntity
  8
0-4
  6
Continuous
 62
    92
370
    13
100
AcDbLine
 10
-4130.000393841718
 20
-3412.499978112333
 30
0.0
 11
-4130.000393841718
 21
-3419.999978112333
 31
0.0
  0
LINE
  5
1B0
330
1F
100
AcDbEntity
  8
0-4
  6
Continuous
 62
    92
370
    13
100
AcDbLine
 10
-4347.500393841718
 20
-3412.499978112333
 30
0.0
 11
-4130.000393841718
 21
-3412.499978112333
 31
0.0
  0
LINE
  5
1B1
330
1F
100
AcDbEntity
  8
0-B
  6
Continuous
 62
   120
370
     5
100
AcDbLine
 10
-4355.000393841718
 20
-3569.999978112333
 30
0.0
 11
-4130.000393841718
 21
-3569.999978112333
 31
0.0
  0
LWPOLYLINE
  5
1B2
330
1F
100
AcDbEntity
  8
0-B
  6
Continuous
 62
     7
370
     9
100
AcDbPolyline
 90
        4
 70
     1
 43
3.0
 10
-4128.500393841718
 20
-3569.999978112333
 42
0.4142135623731
 10
-4130.000393841718
 20
-3568.499978112333
 42
0.4142135623731
 10
-4131.500393841719
 20
-3569.999978112333
 42
0.4142135623731
 10
-4130.000393841718
 20
-3571.499978112333
 42
0.4142135623731
  0
LINE
  5
1B3
330
1F
100
AcDbEntity
  8
0-B
  6
Continuous
 62
   120
370
     5
100
AcDbLine
 10
-4130.000393841718
 20
-3569.999978112333
 30
0.0
 11
-4130.000393841718
 21
-3494.999978112333
 31
0.0
  0
MTEXT
  5
1B4
330
1F
100
AcDbEntity
  8
0-B
  6
Continuous
 62
     7
370
   211
100
AcDbMText
 10
-4287.500393841718
 20
-3565.709978112333
 30
0.0
 40
68.58
 41
90.0
 46
0.0
 71
     7
 72
     1
  1
{\fＭＳ ゴシック|b0|i0|c128|p49;15}
 73
     1
 44
1.0
  0
LINE
  5
1B5
330
1F
100
AcDbEntity
  8
0-A
  6
Continuous
 62
     7
370
     9
100
AcDbLine
 10
-3317.072069655384
 20
-1930.882775881244
 30
0.0
 11
-3498.427674732574
 21
-2244.999898112333
 31
0.0
  0
LINE
  5
1B6
330
1F
100
AcDbEntity
  8
0-A
  6
Continuous
 62
     7
370
     9
100
AcDbLine
 10
-3369.033593882451
 20
-1960.882775881244
 30
0.0
 11
-3533.068690883951
 21
-2244.999898112333
 31
0.0
  0
LINE
  5
1B7
330
1F
100
AcDbEntity
  8
0-A
  6
Continuous
 62
     7
370
     9
100
AcDbLine
 10
-3283.345781244659
 20
-1779.999898112333
 30
0.0
 11
-3370.458051340644
 21
-1930.882775881244
 31
0.0
  0
LINE
  5
1B8
330
1F
100
AcDbEntity
  8
0-A
  6
Continuous
 62
     7
370
     9
100
AcDbLine
 10
-3317.986797396036
 20
-1779.999898112333
 30
0.0
 11
-3422.419575567711
 21
-1960.882775881244
 31
0.0
  0
LINE
  5
1B9
330
1F
100
AcDbEntity
  8
0-A
  6
Continuous
 62
     7
370
     9
100
AcDbLine
 10
-3370.458051340644
 20
-1930.882775881244
 30
0.0
 11
-3317.072069655384
 21
-1930.882775881244
 31
0.0
  0
LINE
  5
1BA
330
1F
100
AcDbEntity
  8
0-A
  6
Continuous
 62
     7
370
     9
100
AcDbLine
 10
-3422.419575567711
 20
-1960.882775881244
 30
0.0
 11
-3369.033593882451
 21
-1960.882775881244
 31
0.0
  0
LINE
  5
1BB
330
1F
100
AcDbEntity
  8
0-A
  6
Continuous
 62
     7
370
     9
100
AcDbLine
 10
-3317.072069655384
 20
-3180.882855881245
 30
0.0
 11
-3498.427674732574
 21
-3494.999978112333
 31
0.0
  0
LINE
  5
1BC
330
1F
100
AcDbEntity
  8
0-A
  6
Continuous
 62
     7
370
     9
100
AcDbLine
 10
-3369.033593882451
 20
-3210.882855881245
 30
0.0
 11
-3533.068690883951
 21
-3494.999978112333
 31
0.0
  0
LINE
  5
1BD
330
1F
100
AcDbEntity
  8
0-A
  6
Continuous
 62
     7
370
     9
100
AcDbLine
 10
-3283.345781244659
 20
-3029.999978112333
 30
0.0
 11
-3370.458051340644
 21
-3180.882855881245
 31
0.0
  0
LINE
  5
1BE
330
1F
100
AcDbEntity
  8
0-A
  6
Continuous
 62
     7
370
     9
100
AcDbLine
 10
-3317.986797396036
 20
-3029.999978112333
 30
0.0
 11
-3422.419575567711
 21
-3210.882855881245
 31
0.0
  0
LINE
  5
1BF
330
1F
100
AcDbEntity
  8
0-A
  6
Continuous
 62
     7
370
     9
100
AcDbLine
 10
-3370.458051340644
 20
-3180.882855881245
 30
0.0
 11
-3317.072069655384
 21
-3180.882855881245
 31
0.0
  0
LINE
  5
1C0
330
1F
100
AcDbEntity
  8
0-A
  6
Continuous
 62
     7
370
     9
100
AcDbLine
 10
-3422.419575567711
 20
-3210.882855881245
 30
0.0
 11
-3369.033593882451
 21
-3210.882855881245
 31
0.0
  0
LINE
  5
1C1
330
1F
100
AcDbEntity
  8
0-4
  6
Continuous
 62
    92
370
    13
100
AcDbLine
 10
-4355.000393841718
 20
-3059.999978112333
 30
0.0
 11
-3335.307305471725
 21
-3059.999978112333
 31
0.0
  0
LINE
  5
1C2
330
1F
100
AcDbEntity
  8
0-4
  6
Continuous
 62
    92
370
    13
100
AcDbLine
 10
-4347.500393841718
 20
-3067.499978112333
 30
0.0
 11
-3339.637432490647
 21
-3067.499978112333
 31
0.0
  0
LINE
  5
1C3
330
1F
100
AcDbEntity
  8
0-4
  6
Continuous
 62
    92
370
    13
100
AcDbLine
 10
-3300.666289320347
 20
-3059.999978112333
 30
0.0
 11
-2660.000393841718
 21
-3059.999978112333
 31
0.0
  0
LINE
  5
1C4
330
1F
100
AcDbEntity
  8
0-4
  6
Continuous
 62
    92
370
    13
100
AcDbLine
 10
-3304.996416339269
 20
-3067.499978112333
 30
0.0
 11
-2667.500393841718
 21
-3067.499978112333
 31
0.0
  0
LINE
  5
1C5
330
1F
100
AcDbEntity
  8
0-4
  6
Continuous
 62
    92
370
    13
100
AcDbLine
 10
-4355.000393841718
 20
-3419.999978112333
 30
0.0
 11
-3489.767420694729
 21
-3419.999978112333
 31
0.0
  0
LINE
  5
1C6
330
1F
100
AcDbEntity
  8
0-4
  6
Continuous
 62
    92
370
    13
100
AcDbLine
 10
-3455.126404543352
 20
-3419.999978112333
 30
0.0
 11
-2660.000393841718
 21
-3419.999978112333
 31
0.0
  0
LINE
  5
1C7
330
1F
100
AcDbEntity
  8
0-4
  6
Continuous
 62
    92
370
    13
100
AcDbLine
 10
-3335.307305471725
 20
-1809.999898112333
 30
0.0
 11
-4295.000393841718
 21
-1809.999898112333
 31
0.0
  0
LINE
  5
1C8
330
1F
100
AcDbEntity
  8
0-4
  6
Continuous
 62
    92
370
    13
100
AcDbLine
 10
-3339.637432490647
 20
-1817.499898112333
 30
0.0
 11
-4291.893792123919
 21
-1817.499898112333
 31
0.0
  0
LINE
  5
1C9
330
1F
100
AcDbEntity
  8
0-4
  6
Continuous
 62
    92
370
    13
100
AcDbLine
 10
-2720.000393841718
 20
-1809.999898112333
 30
0.0
 11
-3300.666289320347
 21
-1809.999898112333
 31
0.0
  0
LINE
  5
1CA
330
1F
100
AcDbEntity
  8
0-4
  6
Continuous
 62
    92
370
    13
100
AcDbLine
 10
-2723.106995559516
 20
-1817.499898112333
 30
0.0
 11
-3304.996416339269
 21
-1817.499898112333
 31
0.0
  0
LINE
  5
1CB
330
1F
100
AcDbEntity
  8
0-4
  6
Continuous
 62
    92
370
    13
100
AcDbLine
 10
-4355.000393841718
 20
-2169.999898112333
 30
0.0
 11
-3489.767420694729
 21
-2169.999898112333
 31
0.0
  0
LINE
  5
1CC
330
1F
100
AcDbEntity
  8
0-4
  6
Continuous
 62
    92
370
    13
100
AcDbLine
 10
-3455.126404543352
 20
-2169.999898112333
 30
0.0
 11
-2660.000393841718
 21
-2169.999898112333
 31
0.0
  0
LINE
  5
1CD
330
1F
100
AcDbEntity
  8
F-1
  6
JWW_DASHED1
 62
     7
370
     9
100
AcDbLine
 10
-155.0003876543789
 20
3553.750451887668
 30
0.0
 11
-2285.000758815456
 21
3553.750451887668
 31
0.0
  0
MTEXT
  5
1CE
330
1F
100
AcDbEntity
  8
0-A
  6
Continuous
 62
     7
370
     9
100
AcDbMText
 10
-417.5007588154554
 20
3576.165456887668
 30
0.0
 40
68.58
 41
45.0
 46
0.0
 71
     7
 72
     1
  1
{\fＭＳ ゴシック|b0|i0|c128|p49;1}
 73
     1
 44
1.0
  0
MTEXT
  5
1CF
330
1F
100
AcDbEntity
  8
0-A
  6
Continuous
 62
     7
370
     9
100
AcDbMText
 10
-2165.000758815456
 20
3576.165456887668
 30
0.0
 40
68.58
 41
585.0
 46
0.0
 71
     7
 72
     1
  1
{\fＭＳ ゴシック|b0|i0|c128|p49;2,450×90×24}
 73
     1
 44
1.0
  0
MTEXT
  5
1D0
330
1F
100
AcDbEntity
  8
0-A
  6
Continuous
 62
     7
370
     9
100
AcDbMText
 10
-417.5007588154554
 20
3419.915446887669
 30
0.0
 40
68.58
 41
45.0
 46
0.0
 71
     7
 72
     1
  1
{\fＭＳ ゴシック|b0|i0|c128|p49;1}
 73
     1
 44
1.0
  0
MTEXT
  5
1D1
330
1F
100
AcDbEntity
  8
0-A
  6
Continuous
 62
     7
370
     9
100
AcDbMText
 10
-2165.000758815456
 20
3419.915446887669
 30
0.0
 40
68.58
 41
585.0
 46
0.0
 71
     7
 72
     1
  1
{\fＭＳ ゴシック|b0|i0|c128|p49;2,045×90×24}
 73
     1
 44
1.0
  0
LINE
  5
1D2
330
1F
100
AcDbEntity
  8
F-1
  6
JWW_DASHED1
 62
     7
370
     9
100
AcDbLine
 10
-155.0003876543789
 20
2303.750371887668
 30
0.0
 11
-2285.000758815456
 21
2303.750371887668
 31
0.0
  0
LINE
  5
1D3
330
1F
100
AcDbEntity
  8
0-0
  6
JWW_HOJO
 62
   120
370
     5
100
AcDbLine
 10
-4197.500393841718
 20
2015.000341887668
 30
0.0
 11
-4197.500393841718
 21
1505.000341887668
 31
0.0
  0
LINE
  5
1D4
330
1F
100
AcDbEntity
  8
0-0
  6
JWW_HOJO
 62
   120
370
     5
100
AcDbLine
 10
-4272.500393841718
 20
1430.000341887668
 30
0.0
 11
-4272.500393841718
 21
2090.000341887668
 31
0.0
  0
LWPOLYLINE
  5
1D5
330
1F
100
AcDbEntity
  8
0-B
  6
Continuous
 62
     7
370
     9
100
AcDbPolyline
 90
        4
 70
     1
 43
3.0
 10
-4121.000393841718
 20
1430.000341887668
 42
0.4142135623731
 10
-4122.500393841718
 20
1431.500341887668
 42
0.4142135623731
 10
-4124.000393841719
 20
1430.000341887668
 42
0.4142135623731
 10
-4122.500393841718
 20
1428.500341887668
 42
0.4142135623731
  0
LINE
  5
1D6
330
1F
100
AcDbEntity
  8
0-B
  6
Continuous
 62
   120
370
     5
100
AcDbLine
 10
-4122.500393841718
 20
1430.000341887668
 30
0.0
 11
-4122.500393841718
 21
1505.000341887668
 31
0.0
  0
LINE
  5
1D7
330
1F
100
AcDbEntity
  8
0-B
  6
Continuous
 62
   120
370
     5
100
AcDbLine
 10
-4272.500393841718
 20
1580.000341887668
 30
0.0
 11
-4272.500393841718
 21
1940.000341887668
 31
0.0
  0
LWPOLYLINE
  5
1D8
330
1F
100
AcDbEntity
  8
0-B
  6
Continuous
 62
     7
370
     9
100
AcDbPolyline
 90
        4
 70
     1
 43
3.0
 10
-4271.000393841718
 20
1580.000341887668
 42
0.4142135623731
 10
-4272.500393841718
 20
1581.500341887668
 42
0.4142135623731
 10
-4274.000393841719
 20
1580.000341887668
 42
0.4142135623731
 10
-4272.500393841718
 20
1578.500341887668
 42
0.4142135623731
  0
LWPOLYLINE
  5
1D9
330
1F
100
AcDbEntity
  8
0-B
  6
Continuous
 62
     7
370
     9
100
AcDbPolyline
 90
        4
 70
     1
 43
3.0
 10
-4271.000393841718
 20
1940.000341887668
 42
0.4142135623731
 10
-4272.500393841718
 20
1941.500341887668
 42
0.4142135623731
 10
-4274.000393841719
 20
1940.000341887668
 42
0.4142135623731
 10
-4272.500393841718
 20
1938.500341887668
 42
0.4142135623731
  0
LINE
  5
1DA
330
1F
100
AcDbEntity
  8
0-B
  6
Continuous
 62
   120
370
     5
100
AcDbLine
 10
-4272.500393841718
 20
1580.000341887668
 30
0.0
 11
-4197.500393841718
 21
1580.000341887668
 31
0.0
  0
LINE
  5
1DB
330
1F
100
AcDbEntity
  8
0-B
  6
Continuous
 62
   120
370
     5
100
AcDbLine
 10
-4272.500393841718
 20
1940.000341887668
 30
0.0
 11
-4197.500393841718
 21
1940.000341887668
 31
0.0
  0
MTEXT
  5
1DC
330
1F
100
AcDbEntity
  8
0-B
  6
Continuous
 62
     7
370
   211
100
AcDbMText
 10
-4287.500393841718
 20
1704.290341887668
 30
0.0
 40
68.58
 41
90.0
 46
0.0
 71
     7
 72
     1
  1
{\fＭＳ ゴシック|b0|i0|c128|p49;24}
 11
6.123031769111886E-17
 21
1.0
 31
0.0
 73
     1
 44
1.0
  0
LINE
  5
1DD
330
1F
100
AcDbEntity
  8
0-4
  6
Continuous
 62
    92
370
    13
100
AcDbLine
 10
-4122.500393841718
 20
1580.000341887668
 30
0.0
 11
-4122.500393841718
 21
1940.000341887668
 31
0.0
  0
LINE
  5
1DE
330
1F
100
AcDbEntity
  8
0-4
  6
Continuous
 62
    92
370
    13
100
AcDbLine
 10
-4115.000393841718
 20
1587.500341887668
 30
0.0
 11
-4115.000393841718
 21
1932.500341887668
 31
0.0
  0
LWPOLYLINE
  5
1DF
330
1F
100
AcDbEntity
  8
0-B
  6
Continuous
 62
     7
370
     9
100
AcDbPolyline
 90
        4
 70
     1
 43
3.0
 10
-4121.000393841718
 20
2090.000341887668
 42
0.4142135623731
 10
-4122.500393841718
 20
2091.500341887668
 42
0.4142135623731
 10
-4124.000393841719
 20
2090.000341887668
 42
0.4142135623731
 10
-4122.500393841718
 20
2088.500341887668
 42
0.4142135623731
  0
LINE
  5
1E0
330
1F
100
AcDbEntity
  8
0-B
  6
Continuous
 62
   120
370
     5
100
AcDbLine
 10
-4122.500393841718
 20
2090.000341887668
 30
0.0
 11
-4122.500393841718
 21
2015.000341887668
 31
0.0
  0
LINE
  5
1E1
330
1F
100
AcDbEntity
  8
0-4
  6
Continuous
 62
    92
370
    13
100
AcDbLine
 10
-3897.500393841718
 20
1587.500341887668
 30
0.0
 11
-3897.500393841718
 21
1580.000341887668
 31
0.0
  0
LINE
  5
1E2
330
1F
100
AcDbEntity
  8
0-4
  6
Continuous
 62
    92
370
    13
100
AcDbLine
 10
-4115.000393841718
 20
1587.500341887668
 30
0.0
 11
-3897.500393841718
 21
1587.500341887668
 31
0.0
  0
LINE
  5
1E3
330
1F
100
AcDbEntity
  8
0-B
  6
Continuous
 62
   120
370
     5
100
AcDbLine
 10
-4122.500393841718
 20
1430.000341887668
 30
0.0
 11
-3897.500393841718
 21
1430.000341887668
 31
0.0
  0
LWPOLYLINE
  5
1E4
330
1F
100
AcDbEntity
  8
0-B
  6
Continuous
 62
     7
370
     9
100
AcDbPolyline
 90
        4
 70
     1
 43
3.0
 10
-3896.000393841718
 20
1430.000341887668
 42
0.4142135623731
 10
-3897.500393841718
 20
1431.500341887668
 42
0.4142135623731
 10
-3899.000393841719
 20
1430.000341887668
 42
0.4142135623731
 10
-3897.500393841718
 20
1428.500341887668
 42
0.4142135623731
  0
LINE
  5
1E5
330
1F
100
AcDbEntity
  8
0-B
  6
Continuous
 62
   120
370
     5
100
AcDbLine
 10
-3897.500393841718
 20
1430.000341887668
 30
0.0
 11
-3897.500393841718
 21
1505.000341887668
 31
0.0
  0
MTEXT
  5
1E6
330
1F
100
AcDbEntity
  8
0-B
  6
Continuous
 62
     7
370
   211
100
AcDbMText
 10
-4055.000393841718
 20
1434.290341887668
 30
0.0
 40
68.58
 41
90.0
 46
0.0
 71
     7
 72
     1
  1
{\fＭＳ ゴシック|b0|i0|c128|p49;15}
 73
     1
 44
1.0
  0
MTEXT
  5
1E7
330
1F
100
AcDbEntity
  8
0-B
  6
Continuous
 62
     7
370
   211
100
AcDbMText
 10
-3050.000393841718
 20
1434.290341887668
 30
0.0
 40
68.58
 41
90.0
 46
0.0
 71
     7
 72
     1
  1
{\fＭＳ ゴシック|b0|i0|c128|p49;15}
 73
     1
 44
1.0
  0
LINE
  5
1E8
330
1F
100
AcDbEntity
  8
0-B
  6
Continuous
 62
   120
370
     5
100
AcDbLine
 10
-3117.500393841718
 20
1430.000341887668
 30
0.0
 11
-3117.500393841718
 21
1505.000341887668
 31
0.0
  0
LWPOLYLINE
  5
1E9
330
1F
100
AcDbEntity
  8
0-B
  6
Continuous
 62
     7
370
     9
100
AcDbPolyline
 90
        4
 70
     1
 43
3.0
 10
-3116.000393841718
 20
1430.000341887668
 42
0.4142135623731
 10
-3117.500393841718
 20
1431.500341887668
 42
0.4142135623731
 10
-3119.000393841718
 20
1430.000341887668
 42
0.4142135623731
 10
-3117.500393841718
 20
1428.500341887668
 42
0.4142135623731
  0
LINE
  5
1EA
330
1F
100
AcDbEntity
  8
0-B
  6
Continuous
 62
   120
370
     5
100
AcDbLine
 10
-3117.500393841718
 20
1430.000341887668
 30
0.0
 11
-2892.500393841718
 21
1430.000341887668
 31
0.0
  0
LINE
  5
1EB
330
1F
100
AcDbEntity
  8
0-4
  6
Continuous
 62
    92
370
    13
100
AcDbLine
 10
-3117.500393841718
 20
1587.500341887668
 30
0.0
 11
-2900.000393841718
 21
1587.500341887668
 31
0.0
  0
LINE
  5
1EC
330
1F
100
AcDbEntity
  8
0-4
  6
Continuous
 62
    92
370
    13
100
AcDbLine
 10
-3117.500393841718
 20
1587.500341887668
 30
0.0
 11
-3117.500393841718
 21
1580.000341887668
 31
0.0
  0
LINE
  5
1ED
330
1F
100
AcDbEntity
  8
0-B
  6
Continuous
 62
   120
370
     5
100
AcDbLine
 10
-2892.500393841718
 20
2090.000341887668
 30
0.0
 11
-2892.500393841718
 21
2015.000341887668
 31
0.0
  0
LWPOLYLINE
  5
1EE
330
1F
100
AcDbEntity
  8
0-B
  6
Continuous
 62
     7
370
     9
100
AcDbPolyline
 90
        4
 70
     1
 43
3.0
 10
-2891.000393841718
 20
2090.000341887668
 42
0.4142135623731
 10
-2892.500393841718
 20
2091.500341887668
 42
0.4142135623731
 10
-2894.000393841718
 20
2090.000341887668
 42
0.4142135623731
 10
-2892.500393841718
 20
2088.500341887668
 42
0.4142135623731
  0
LINE
  5
1EF
330
1F
100
AcDbEntity
  8
0-B
  6
Continuous
 62
   120
370
     5
100
AcDbLine
 10
-4122.500393841718
 20
2090.000341887668
 30
0.0
 11
-2892.500393841718
 21
2090.000341887668
 31
0.0
  0
LINE
  5
1F0
330
1F
100
AcDbEntity
  8
0-4
  6
Continuous
 62
    92
370
    13
100
AcDbLine
 10
-4115.000393841718
 20
1932.500341887668
 30
0.0
 11
-2900.000393841718
 21
1932.500341887668
 31
0.0
  0
LINE
  5
1F1
330
1F
100
AcDbEntity
  8
0-4
  6
Continuous
 62
    92
370
    13
100
AcDbLine
 10
-2900.000393841718
 20
1587.500341887668
 30
0.0
 11
-2900.000393841718
 21
1932.500341887668
 31
0.0
  0
LINE
  5
1F2
330
1F
100
AcDbEntity
  8
0-4
  6
Continuous
 62
    92
370
    13
100
AcDbLine
 10
-4122.500393841718
 20
1940.000341887668
 30
0.0
 11
-2892.500393841718
 21
1940.000341887668
 31
0.0
  0
LINE
  5
1F3
330
1F
100
AcDbEntity
  8
0-4
  6
Continuous
 62
    92
370
    13
100
AcDbLine
 10
-2892.500393841718
 20
1580.000341887668
 30
0.0
 11
-2892.500393841718
 21
1940.000341887668
 31
0.0
  0
LINE
  5
1F4
330
1F
100
AcDbEntity
  8
0-B
  6
Continuous
 62
   120
370
     5
100
AcDbLine
 10
-2892.500393841718
 20
1430.000341887668
 30
0.0
 11
-2892.500393841718
 21
1505.000341887668
 31
0.0
  0
LWPOLYLINE
  5
1F5
330
1F
100
AcDbEntity
  8
0-B
  6
Continuous
 62
     7
370
     9
100
AcDbPolyline
 90
        4
 70
     1
 43
3.0
 10
-2891.000393841718
 20
1430.000341887668
 42
0.4142135623731
 10
-2892.500393841718
 20
1431.500341887668
 42
0.4142135623731
 10
-2894.000393841718
 20
1430.000341887668
 42
0.4142135623731
 10
-2892.500393841718
 20
1428.500341887668
 42
0.4142135623731
  0
LINE
  5
1F6
330
1F
100
AcDbEntity
  8
0-0
  6
JWW_HOJO
 62
   120
370
     5
100
AcDbLine
 10
-2742.500393841718
 20
2090.000341887668
 30
0.0
 11
-2742.500393841718
 21
1430.000341887668
 31
0.0
  0
LINE
  5
1F7
330
1F
100
AcDbEntity
  8
0-0
  6
JWW_HOJO
 62
   120
370
     5
100
AcDbLine
 10
-4272.500393841718
 20
2090.000341887668
 30
0.0
 11
-2742.500393841718
 21
2090.000341887668
 31
0.0
  0
LINE
  5
1F8
330
1F
100
AcDbEntity
  8
0-0
  6
JWW_HOJO
 62
   120
370
     5
100
AcDbLine
 10
-2817.500393841718
 20
2015.000341887668
 30
0.0
 11
-4197.500393841718
 21
2015.000341887668
 31
0.0
  0
LINE
  5
1F9
330
1F
100
AcDbEntity
  8
0-0
  6
JWW_HOJO
 62
   120
370
     5
100
AcDbLine
 10
-2817.500393841718
 20
2015.000341887668
 30
0.0
 11
-2817.500393841718
 21
1505.000341887668
 31
0.0
  0
LINE
  5
1FA
330
1F
100
AcDbEntity
  8
0-0
  6
JWW_HOJO
 62
   120
370
     5
100
AcDbLine
 10
-2742.500393841718
 20
1430.000341887668
 30
0.0
 11
-4272.500393841718
 21
1430.000341887668
 31
0.0
  0
LINE
  5
1FB
330
1F
100
AcDbEntity
  8
0-0
  6
JWW_HOJO
 62
   120
370
     5
100
AcDbLine
 10
-4197.500393841718
 20
1505.000341887668
 30
0.0
 11
-2817.500393841718
 21
1505.000341887668
 31
0.0
  0
LINE
  5
1FC
330
1F
100
AcDbEntity
  8
0-4
  6
Continuous
 62
    92
370
    13
100
AcDbLine
 10
-4122.500393841718
 20
1580.000341887668
 30
0.0
 11
-2892.500393841718
 21
1580.000341887668
 31
0.0
  0
MTEXT
  5
1FD
330
1F
100
AcDbEntity
  8
0-B
  6
Continuous
 62
     7
370
   211
100
AcDbMText
 10
-3552.500393841718
 20
2094.290341887668
 30
0.0
 40
68.58
 41
90.0
 46
0.0
 71
     7
 72
     1
  1
{\fＭＳ ゴシック|b0|i0|c128|p49;82}
 73
     1
 44
1.0
  0
MTEXT
  5
1FE
330
1F
100
AcDbEntity
  8
0-A
  6
Continuous
 62
     7
370
     9
100
AcDbMText
 10
-417.5007588154554
 20
2326.165376887669
 30
0.0
 40
68.58
 41
45.0
 46
0.0
 71
     7
 72
     1
  1
{\fＭＳ ゴシック|b0|i0|c128|p49;1}
 73
     1
 44
1.0
  0
MTEXT
  5
1FF
330
1F
100
AcDbEntity
  8
0-A
  6
Continuous
 62
     7
370
     9
100
AcDbMText
 10
-417.5007588154554
 20
2169.915366887669
 30
0.0
 40
68.58
 41
45.0
 46
0.0
 71
     7
 72
     1
  1
{\fＭＳ ゴシック|b0|i0|c128|p49;1}
 73
     1
 44
1.0
  0
MTEXT
  5
200
330
1F
100
AcDbEntity
  8
0-A
  6
Continuous
 62
     7
370
     9
100
AcDbMText
 10
-2165.000758815456
 20
2326.165376887669
 30
0.0
 40
68.58
 41
585.0
 46
0.0
 71
     7
 72
     1
  1
{\fＭＳ ゴシック|b0|i0|c128|p49;2,450×82×24}
 73
     1
 44
1.0
  0
MTEXT
  5
201
330
1F
100
AcDbEntity
  8
0-A
  6
Continuous
 62
     7
370
     9
100
AcDbMText
 10
-2165.000758815456
 20
2169.915366887669
 30
0.0
 40
68.58
 41
585.0
 46
0.0
 71
     7
 72
     1
  1
{\fＭＳ ゴシック|b0|i0|c128|p49;1,900×82×24}
 73
     1
 44
1.0
  0
LINE
  5
202
330
1F
100
AcDbEntity
  8
F-1
  6
JWW_DASHED1
 62
     7
370
     9
100
AcDbLine
 10
-155.0003876543789
 20
-2696.249948112333
 30
0.0
 11
-2285.000758815456
 21
-2696.249948112333
 31
0.0
  0
LINE
  5
203
330
1F
100
AcDbEntity
  8
F-1
  6
JWW_DASHED1
 62
     7
370
     9
100
AcDbLine
 10
-155.0003876543789
 20
1053.750291887668
 30
0.0
 11
-2285.000758815456
 21
1053.750291887668
 31
0.0
  0
LINE
  5
204
330
1F
100
AcDbEntity
  8
F-1
  6
JWW_DASHED1
 62
     7
370
     9
100
AcDbLine
 10
-155.0003876543789
 20
-1758.749888112334
 30
0.0
 11
-2285.000758815456
 21
-1758.749888112334
 31
0.0
  0
LINE
  5
205
330
1F
100
AcDbEntity
  8
F-1
  6
JWW_DASHED1
 62
     7
370
     9
100
AcDbLine
 10
-155.0003876543789
 20
897.5002818876675
 30
0.0
 11
-2285.000758815456
 21
897.5002818876675
 31
0.0
  0
LINE
  5
206
330
1F
100
AcDbEntity
  8
F-1
  6
JWW_DASHED1
 62
     7
370
     9
100
AcDbLine
 10
-155.0003876543789
 20
116.2502318876662
 30
0.0
 11
-2285.000758815456
 21
116.2502318876662
 31
0.0
  0
LINE
  5
207
330
1F
100
AcDbEntity
  8
F-1
  6
JWW_DASHED1
 62
     7
370
     9
100
AcDbLine
 10
-155.0003876543789
 20
741.2502718876672
 30
0.0
 11
-2285.000758815456
 21
741.2502718876672
 31
0.0
  0
LINE
  5
208
330
1F
100
AcDbEntity
  8
F-1
  6
JWW_DASHED1
 62
     7
370
     9
100
AcDbLine
 10
-155.0003876543789
 20
585.000261887667
 30
0.0
 11
-2285.000758815456
 21
585.000261887667
 31
0.0
  0
LINE
  5
209
330
1F
100
AcDbEntity
  8
F-1
  6
JWW_DASHED1
 62
     7
370
     9
100
AcDbLine
 10
-155.0003876543789
 20
428.7502518876667
 30
0.0
 11
-2285.000758815456
 21
428.7502518876667
 31
0.0
  0
LINE
  5
20A
330
1F
100
AcDbEntity
  8
F-1
  6
JWW_DASHED1
 62
     7
370
     9
100
AcDbLine
 10
-155.0003876543789
 20
272.5002418876664
 30
0.0
 11
-2285.000758815456
 21
272.5002418876664
 31
0.0
  0
LINE
  5
20B
330
1F
100
AcDbEntity
  8
F-1
  6
JWW_DASHED1
 62
     7
370
     9
100
AcDbLine
 10
-155.0003876543789
 20
-352.4997981123329
 30
0.0
 11
-2285.000758815456
 21
-352.4997981123329
 31
0.0
  0
LINE
  5
20C
330
1F
100
AcDbEntity
  8
F-1
  6
JWW_DASHED1
 62
     7
370
     9
100
AcDbLine
 10
-155.0003876543789
 20
-1133.749848112334
 30
0.0
 11
-2285.000758815456
 21
-1133.749848112334
 31
0.0
  0
LINE
  5
20D
330
1F
100
AcDbEntity
  8
F-1
  6
JWW_DASHED1
 62
     7
370
     9
100
AcDbLine
 10
-155.0003876543789
 20
-508.7498081123331
 30
0.0
 11
-2285.000758815456
 21
-508.7498081123331
 31
0.0
  0
LINE
  5
20E
330
1F
100
AcDbEntity
  8
F-1
  6
JWW_DASHED1
 62
     7
370
     9
100
AcDbLine
 10
-155.0003876543789
 20
-664.9998181123334
 30
0.0
 11
-2285.000758815456
 21
-664.9998181123334
 31
0.0
  0
LINE
  5
20F
330
1F
100
AcDbEntity
  8
F-1
  6
JWW_DASHED1
 62
     7
370
     9
100
AcDbLine
 10
-155.0003876543789
 20
-821.2498281123337
 30
0.0
 11
-2285.000758815456
 21
-821.2498281123337
 31
0.0
  0
LINE
  5
210
330
1F
100
AcDbEntity
  8
F-1
  6
JWW_DASHED1
 62
     7
370
     9
100
AcDbLine
 10
-155.0003876543789
 20
-977.4998381123339
 30
0.0
 11
-2285.000758815456
 21
-977.4998381123339
 31
0.0
  0
LINE
  5
211
330
1F
100
AcDbEntity
  8
F-1
  6
JWW_DASHED1
 62
     7
370
     9
100
AcDbLine
 10
-155.0003876543789
 20
-196.2497881123326
 30
0.0
 11
-2285.000758815456
 21
-196.2497881123326
 31
0.0
  0
LINE
  5
212
330
1F
100
AcDbEntity
  8
F-1
  6
JWW_DASHED1
 62
     7
370
     9
100
AcDbLine
 10
-155.0003876543789
 20
-1602.499878112333
 30
0.0
 11
-2285.000758815456
 21
-1602.499878112333
 31
0.0
  0
LINE
  5
213
330
1F
100
AcDbEntity
  8
F-1
  6
JWW_DASHED1
 62
     7
370
     9
100
AcDbLine
 10
-155.0003876543789
 20
-1446.249868112333
 30
0.0
 11
-2285.000758815456
 21
-1446.249868112333
 31
0.0
  0
MTEXT
  5
214
330
1F
100
AcDbEntity
  8
0-A
  6
Continuous
 62
     7
370
     9
100
AcDbMText
 10
-417.5007588154554
 20
1076.165296887667
 30
0.0
 40
68.58
 41
45.0
 46
0.0
 71
     7
 72
     1
  1
{\fＭＳ ゴシック|b0|i0|c128|p49;1}
 73
     1
 44
1.0
  0
MTEXT
  5
215
330
1F
100
AcDbEntity
  8
0-A
  6
Continuous
 62
     7
370
     9
100
AcDbMText
 10
-417.5007588154554
 20
919.915286887668
 30
0.0
 40
68.58
 41
45.0
 46
0.0
 71
     7
 72
     1
  1
{\fＭＳ ゴシック|b0|i0|c128|p49;1}
 73
     1
 44
1.0
  0
MTEXT
  5
216
330
1F
100
AcDbEntity
  8
0-A
  6
Continuous
 62
     7
370
     9
100
AcDbMText
 10
-417.5007588154554
 20
-173.8347831123321
 30
0.0
 40
68.58
 41
45.0
 46
0.0
 71
     7
 72
     1
  1
{\fＭＳ ゴシック|b0|i0|c128|p49;1}
 73
     1
 44
1.0
  0
MTEXT
  5
217
330
1F
100
AcDbEntity
  8
0-A
  6
Continuous
 62
     7
370
     9
100
AcDbMText
 10
-417.5007588154554
 20
-330.0847931123315
 30
0.0
 40
68.58
 41
45.0
 46
0.0
 71
     7
 72
     1
  1
{\fＭＳ ゴシック|b0|i0|c128|p49;1}
 73
     1
 44
1.0
  0
LINE
  5
218
330
1F
100
AcDbEntity
  8
F-1
  6
JWW_DASHED1
 62
     7
370
     9
100
AcDbLine
 10
-4940.000028867979
 20
-39.99977811233236
 30
0.0
 11
-155.0003876543789
 21
-39.99977811233236
 31
0.0
  0
LINE
  5
219
330
1F
100
AcDbEntity
  8
0-0
  6
JWW_HOJO
 62
   120
370
     5
100
AcDbLine
 10
-4370.000393841718
 20
-484.9998181123325
 30
0.0
 11
-4370.000393841718
 21
-994.9998181123326
 31
0.0
  0
LINE
  5
21A
330
1F
100
AcDbEntity
  8
0-0
  6
JWW_HOJO
 62
   120
370
     5
100
AcDbLine
 10
-4445.000393841718
 20
-1069.999818112333
 30
0.0
 11
-4445.000393841718
 21
-409.9998181123325
 31
0.0
  0
LWPOLYLINE
  5
21B
330
1F
100
AcDbEntity
  8
0-B
  6
Continuous
 62
     7
370
     9
100
AcDbPolyline
 90
        4
 70
     1
 43
3.0
 10
-4293.500393841718
 20
-1069.999818112333
 42
0.4142135623731
 10
-4295.000393841718
 20
-1068.499818112333
 42
0.4142135623731
 10
-4296.500393841719
 20
-1069.999818112333
 42
0.4142135623731
 10
-4295.000393841718
 20
-1071.499818112332
 42
0.4142135623731
  0
LINE
  5
21C
330
1F
100
AcDbEntity
  8
0-B
  6
Continuous
 62
   120
370
     5
100
AcDbLine
 10
-4295.000393841718
 20
-1069.999818112333
 30
0.0
 11
-4295.000393841718
 21
-994.9998181123326
 31
0.0
  0
LINE
  5
21D
330
1F
100
AcDbEntity
  8
0-B
  6
Continuous
 62
   120
370
     5
100
AcDbLine
 10
-4445.000393841718
 20
-919.9998181123326
 30
0.0
 11
-4445.000393841718
 21
-559.9998181123326
 31
0.0
  0
LWPOLYLINE
  5
21E
330
1F
100
AcDbEntity
  8
0-B
  6
Continuous
 62
     7
370
     9
100
AcDbPolyline
 90
        4
 70
     1
 43
3.0
 10
-4443.500393841718
 20
-919.9998181123326
 42
0.4142135623731
 10
-4445.000393841718
 20
-918.4998181123325
 42
0.4142135623731
 10
-4446.500393841719
 20
-919.9998181123326
 42
0.4142135623731
 10
-4445.000393841718
 20
-921.4998181123326
 42
0.4142135623731
  0
LWPOLYLINE
  5
21F
330
1F
100
AcDbEntity
  8
0-B
  6
Continuous
 62
     7
370
     9
100
AcDbPolyline
 90
        4
 70
     1
 43
3.0
 10
-4443.500393841718
 20
-559.9998181123326
 42
0.4142135623731
 10
-4445.000393841718
 20
-558.4998181123325
 42
0.4142135623731
 10
-4446.500393841719
 20
-559.9998181123326
 42
0.4142135623731
 10
-4445.000393841718
 20
-561.4998181123326
 42
0.4142135623731
  0
LINE
  5
220
330
1F
100
AcDbEntity
  8
0-B
  6
Continuous
 62
   120
370
     5
100
AcDbLine
 10
-4445.000393841718
 20
-919.9998181123326
 30
0.0
 11
-4370.000393841718
 21
-919.9998181123326
 31
0.0
  0
LINE
  5
221
330
1F
100
AcDbEntity
  8
0-B
  6
Continuous
 62
   120
370
     5
100
AcDbLine
 10
-4445.000393841718
 20
-559.9998181123326
 30
0.0
 11
-4370.000393841718
 21
-559.9998181123326
 31
0.0
  0
MTEXT
  5
222
330
1F
100
AcDbEntity
  8
0-B
  6
Continuous
 62
     7
370
   211
100
AcDbMText
 10
-4460.000393841718
 20
-795.7098181123326
 30
0.0
 40
68.58
 41
90.0
 46
0.0
 71
     7
 72
     1
  1
{\fＭＳ ゴシック|b0|i0|c128|p49;24}
 11
6.123031769111886E-17
 21
1.0
 31
0.0
 73
     1
 44
1.0
  0
LINE
  5
223
330
1F
100
AcDbEntity
  8
0-4
  6
Continuous
 62
    92
370
    13
100
AcDbLine
 10
-4295.000393841718
 20
-919.9998181123326
 30
0.0
 11
-4295.000393841718
 21
-559.9998181123326
 31
0.0
  0
LINE
  5
224
330
1F
100
AcDbEntity
  8
0-4
  6
Continuous
 62
    92
370
    13
100
AcDbLine
 10
-4287.500393841718
 20
-912.4998181123326
 30
0.0
 11
-4287.500393841718
 21
-567.4998181123326
 31
0.0
  0
LWPOLYLINE
  5
225
330
1F
100
AcDbEntity
  8
0-B
  6
Continuous
 62
     7
370
     9
100
AcDbPolyline
 90
        4
 70
     1
 43
3.0
 10
-4293.500393841718
 20
-409.9998181123325
 42
0.4142135623731
 10
-4295.000393841718
 20
-408.4998181123325
 42
0.4142135623731
 10
-4296.500393841719
 20
-409.9998181123325
 42
0.4142135623731
 10
-4295.000393841718
 20
-411.4998181123325
 42
0.4142135623731
  0
LINE
  5
226
330
1F
100
AcDbEntity
  8
0-B
  6
Continuous
 62
   120
370
     5
100
AcDbLine
 10
-4295.000393841718
 20
-409.9998181123325
 30
0.0
 11
-4295.000393841718
 21
-484.9998181123325
 31
0.0
  0
LINE
  5
227
330
1F
100
AcDbEntity
  8
0-4
  6
Continuous
 62
    92
370
    13
100
AcDbLine
 10
-4070.000393841718
 20
-912.4998181123326
 30
0.0
 11
-4070.000393841718
 21
-919.9998181123326
 31
0.0
  0
LINE
  5
228
330
1F
100
AcDbEntity
  8
0-4
  6
Continuous
 62
    92
370
    13
100
AcDbLine
 10
-4287.500393841718
 20
-912.4998181123326
 30
0.0
 11
-4070.000393841718
 21
-912.4998181123326
 31
0.0
  0
LINE
  5
229
330
1F
100
AcDbEntity
  8
0-B
  6
Continuous
 62
   120
370
     5
100
AcDbLine
 10
-4295.000393841718
 20
-1069.999818112333
 30
0.0
 11
-4070.000393841718
 21
-1069.999818112333
 31
0.0
  0
LWPOLYLINE
  5
22A
330
1F
100
AcDbEntity
  8
0-B
  6
Continuous
 62
     7
370
     9
100
AcDbPolyline
 90
        4
 70
     1
 43
3.0
 10
-4068.500393841718
 20
-1069.999818112333
 42
0.4142135623731
 10
-4070.000393841718
 20
-1068.499818112333
 42
0.4142135623731
 10
-4071.500393841719
 20
-1069.999818112333
 42
0.4142135623731
 10
-4070.000393841718
 20
-1071.499818112332
 42
0.4142135623731
  0
LINE
  5
22B
330
1F
100
AcDbEntity
  8
0-B
  6
Continuous
 62
   120
370
     5
100
AcDbLine
 10
-4070.000393841718
 20
-1069.999818112333
 30
0.0
 11
-4070.000393841718
 21
-994.9998181123326
 31
0.0
  0
MTEXT
  5
22C
330
1F
100
AcDbEntity
  8
0-B
  6
Continuous
 62
     7
370
   211
100
AcDbMText
 10
-4227.500393841718
 20
-1065.709818112333
 30
0.0
 40
68.58
 41
90.0
 46
0.0
 71
     7
 72
     1
  1
{\fＭＳ ゴシック|b0|i0|c128|p49;15}
 73
     1
 44
1.0
  0
LINE
  5
22D
330
1F
100
AcDbEntity
  8
0-0
  6
JWW_HOJO
 62
   120
370
     5
100
AcDbLine
 10
-2645.000393841718
 20
-484.9998181123325
 30
0.0
 11
-2645.000393841718
 21
-994.9998181123326
 31
0.0
  0
LINE
  5
22E
330
1F
100
AcDbEntity
  8
0-0
  6
JWW_HOJO
 62
   120
370
     5
100
AcDbLine
 10
-2570.000393841718
 20
-409.9998181123325
 30
0.0
 11
-2570.000393841718
 21
-1069.999818112333
 31
0.0
  0
LWPOLYLINE
  5
22F
330
1F
100
AcDbEntity
  8
0-B
  6
Continuous
 62
     7
370
     9
100
AcDbPolyline
 90
        4
 70
     1
 43
3.0
 10
-2718.500393841718
 20
-1069.999818112333
 42
0.4142135623731
 10
-2720.000393841718
 20
-1068.499818112333
 42
0.4142135623731
 10
-2721.500393841718
 20
-1069.999818112333
 42
0.4142135623731
 10
-2720.000393841718
 20
-1071.499818112332
 42
0.4142135623731
  0
LINE
  5
230
330
1F
100
AcDbEntity
  8
0-B
  6
Continuous
 62
   120
370
     5
100
AcDbLine
 10
-2720.000393841718
 20
-1069.999818112333
 30
0.0
 11
-2720.000393841718
 21
-994.9998181123326
 31
0.0
  0
LINE
  5
231
330
1F
100
AcDbEntity
  8
0-4
  6
Continuous
 62
    92
370
    13
100
AcDbLine
 10
-2720.000393841718
 20
-919.9998181123326
 30
0.0
 11
-2720.000393841718
 21
-559.9998181123326
 31
0.0
  0
LINE
  5
232
330
1F
100
AcDbEntity
  8
0-4
  6
Continuous
 62
    92
370
    13
100
AcDbLine
 10
-2727.500393841718
 20
-912.4998181123326
 30
0.0
 11
-2727.500393841718
 21
-567.4998181123326
 31
0.0
  0
LWPOLYLINE
  5
233
330
1F
100
AcDbEntity
  8
0-B
  6
Continuous
 62
     7
370
     9
100
AcDbPolyline
 90
        4
 70
     1
 43
3.0
 10
-2718.500393841718
 20
-409.9998181123325
 42
0.4142135623731
 10
-2720.000393841718
 20
-408.4998181123325
 42
0.4142135623731
 10
-2721.500393841718
 20
-409.9998181123325
 42
0.4142135623731
 10
-2720.000393841718
 20
-411.4998181123325
 42
0.4142135623731
  0
LINE
  5
234
330
1F
100
AcDbEntity
  8
0-B
  6
Continuous
 62
   120
370
     5
100
AcDbLine
 10
-2720.000393841718
 20
-409.9998181123325
 30
0.0
 11
-2720.000393841718
 21
-484.9998181123325
 31
0.0
  0
LINE
  5
235
330
1F
100
AcDbEntity
  8
0-4
  6
Continuous
 62
    92
370
    13
100
AcDbLine
 10
-2945.000393841718
 20
-912.4998181123326
 30
0.0
 11
-2945.000393841718
 21
-919.9998181123326
 31
0.0
  0
LINE
  5
236
330
1F
100
AcDbEntity
  8
0-4
  6
Continuous
 62
    92
370
    13
100
AcDbLine
 10
-2945.000393841718
 20
-912.4998181123326
 30
0.0
 11
-2727.500393841718
 21
-912.4998181123326
 31
0.0
  0
LINE
  5
237
330
1F
100
AcDbEntity
  8
0-B
  6
Continuous
 62
   120
370
     5
100
AcDbLine
 10
-2945.000393841718
 20
-1069.999818112333
 30
0.0
 11
-2720.000393841718
 21
-1069.999818112333
 31
0.0
  0
LWPOLYLINE
  5
238
330
1F
100
AcDbEntity
  8
0-B
  6
Continuous
 62
     7
370
     9
100
AcDbPolyline
 90
        4
 70
     1
 43
3.0
 10
-2943.500393841718
 20
-1069.999818112333
 42
0.4142135623731
 10
-2945.000393841718
 20
-1068.499818112333
 42
0.4142135623731
 10
-2946.500393841718
 20
-1069.999818112333
 42
0.4142135623731
 10
-2945.000393841718
 20
-1071.499818112332
 42
0.4142135623731
  0
LINE
  5
239
330
1F
100
AcDbEntity
  8
0-B
  6
Continuous
 62
   120
370
     5
100
AcDbLine
 10
-2945.000393841718
 20
-1069.999818112333
 30
0.0
 11
-2945.000393841718
 21
-994.9998181123326
 31
0.0
  0
MTEXT
  5
23A
330
1F
100
AcDbEntity
  8
0-B
  6
Continuous
 62
     7
370
   211
100
AcDbMText
 10
-2877.500393841718
 20
-1065.709818112333
 30
0.0
 40
68.58
 41
90.0
 46
0.0
 71
     7
 72
     1
  1
{\fＭＳ ゴシック|b0|i0|c128|p49;15}
 73
     1
 44
1.0
  0
LINE
  5
23B
330
1F
100
AcDbEntity
  8
0-4
  6
Continuous
 62
    92
370
    13
100
AcDbLine
 10
-4295.000393841718
 20
-919.9998181123326
 30
0.0
 11
-2720.000393841718
 21
-919.9998181123326
 31
0.0
  0
LINE
  5
23C
330
1F
100
AcDbEntity
  8
0-0
  6
JWW_HOJO
 62
   120
370
     5
100
AcDbLine
 10
-4370.000393841718
 20
-994.9998181123326
 30
0.0
 11
-2645.000393841718
 21
-994.9998181123326
 31
0.0
  0
LINE
  5
23D
330
1F
100
AcDbEntity
  8
0-0
  6
JWW_HOJO
 62
   120
370
     5
100
AcDbLine
 10
-2570.000393841718
 20
-1069.999818112333
 30
0.0
 11
-4445.000393841718
 21
-1069.999818112333
 31
0.0
  0
LINE
  5
23E
330
1F
100
AcDbEntity
  8
0-0
  6
JWW_HOJO
 62
   120
370
     5
100
AcDbLine
 10
-2645.000393841718
 20
-484.9998181123325
 30
0.0
 11
-4370.000393841718
 21
-484.9998181123325
 31
0.0
  0
LINE
  5
23F
330
1F
100
AcDbEntity
  8
0-0
  6
JWW_HOJO
 62
   120
370
     5
100
AcDbLine
 10
-4445.000393841718
 20
-409.9998181123325
 30
0.0
 11
-2570.000393841718
 21
-409.9998181123325
 31
0.0
  0
LINE
  5
240
330
1F
100
AcDbEntity
  8
0-4
  6
Continuous
 62
    92
370
    13
100
AcDbLine
 10
-4295.000393841718
 20
-559.9998181123326
 30
0.0
 11
-2720.000393841718
 21
-559.9998181123326
 31
0.0
  0
LINE
  5
241
330
1F
100
AcDbEntity
  8
0-4
  6
Continuous
 62
    92
370
    13
100
AcDbLine
 10
-4287.500393841718
 20
-567.4998181123326
 30
0.0
 11
-2727.500393841718
 21
-567.4998181123326
 31
0.0
  0
LINE
  5
242
330
1F
100
AcDbEntity
  8
0-B
  6
Continuous
 62
   120
370
     5
100
AcDbLine
 10
-4295.000393841718
 20
-409.9998181123325
 30
0.0
 11
-2720.000393841718
 21
-409.9998181123325
 31
0.0
  0
MTEXT
  5
243
330
1F
100
AcDbEntity
  8
0-B
  6
Continuous
 62
     7
370
   211
100
AcDbMText
 10
-3575.000393841718
 20
-405.7098181123325
 30
0.0
 40
68.57999999999998
 41
135.0
 46
0.0
 71
     7
 72
     1
  1
{\fＭＳ ゴシック|b0|i0|c128|p49;105}
 73
     1
 44
1.0
  0
MTEXT
  5
244
330
1F
100
AcDbEntity
  8
0-A
  6
Continuous
 62
     7
370
     9
100
AcDbMText
 10
-2187.500758815456
 20
-173.8347831123321
 30
0.0
 40
68.58
 41
630.0
 46
0.0
 71
     7
 72
     1
  1
{\fＭＳ ゴシック|b0|i0|c128|p49;2,450×105×24}
 73
     1
 44
1.0
  0
MTEXT
  5
245
330
1F
100
AcDbEntity
  8
0-A
  6
Continuous
 62
     7
370
     9
100
AcDbMText
 10
-2187.500758815456
 20
-330.0847931123315
 30
0.0
 40
68.58
 41
630.0
 46
0.0
 71
     7
 72
     1
  1
{\fＭＳ ゴシック|b0|i0|c128|p49;1,900×105×24}
 73
     1
 44
1.0
  0
MTEXT
  5
246
330
1F
100
AcDbEntity
  8
0-A
  6
Continuous
 62
     7
370
     9
100
AcDbMText
 10
-417.5007588154554
 20
-1423.834863112333
 30
0.0
 40
68.58
 41
45.0
 46
0.0
 71
     7
 72
     1
  1
{\fＭＳ ゴシック|b0|i0|c128|p49;1}
 73
     1
 44
1.0
  0
MTEXT
  5
247
330
1F
100
AcDbEntity
  8
0-A
  6
Continuous
 62
     7
370
     9
100
AcDbMText
 10
-417.5007588154554
 20
-1580.084873112333
 30
0.0
 40
68.58
 41
45.0
 46
0.0
 71
     7
 72
     1
  1
{\fＭＳ ゴシック|b0|i0|c128|p49;1}
 73
     1
 44
1.0
  0
MTEXT
  5
248
330
1F
100
AcDbEntity
  8
0-A
  6
Continuous
 62
     7
370
     9
100
AcDbMText
 10
-417.5007588154554
 20
-2673.834943112333
 30
0.0
 40
68.58
 41
45.0
 46
0.0
 71
     7
 72
     1
  1
{\fＭＳ ゴシック|b0|i0|c128|p49;1}
 73
     1
 44
1.0
  0
MTEXT
  5
249
330
1F
100
AcDbEntity
  8
0-A
  6
Continuous
 62
     7
370
     9
100
AcDbMText
 10
-417.5007588154554
 20
-2830.084953112332
 30
0.0
 40
68.58
 41
45.0
 46
0.0
 71
     7
 72
     1
  1
{\fＭＳ ゴシック|b0|i0|c128|p49;1}
 73
     1
 44
1.0
  0
MTEXT
  5
24A
330
1F
100
AcDbEntity
  8
0-B
  6
Continuous
 62
     7
370
   211
100
AcDbMText
 10
-3575.000393841718
 20
-1505.709898112333
 30
0.0
 40
68.57999999999998
 41
135.0
 46
0.0
 71
     7
 72
     1
  1
{\fＭＳ ゴシック|b0|i0|c128|p49;155}
 73
     1
 44
1.0
  0
MTEXT
  5
24B
330
1F
100
AcDbEntity
  8
0-A
  6
Continuous
 62
     7
370
     9
100
AcDbMText
 10
-2187.500758815456
 20
-1423.834863112333
 30
0.0
 40
68.58
 41
630.0
 46
0.0
 71
     7
 72
     1
  1
{\fＭＳ ゴシック|b0|i0|c128|p49;2,450×155×24}
 73
     1
 44
1.0
  0
MTEXT
  5
24C
330
1F
100
AcDbEntity
  8
0-A
  6
Continuous
 62
     7
370
     9
100
AcDbMText
 10
-2187.500758815456
 20
-1580.084873112333
 30
0.0
 40
68.58
 41
630.0
 46
0.0
 71
     7
 72
     1
  1
{\fＭＳ ゴシック|b0|i0|c128|p49;2,045×155×24}
 73
     1
 44
1.0
  0
MTEXT
  5
24D
330
1F
100
AcDbEntity
  8
0-A
  6
Continuous
 62
     7
370
     9
100
AcDbMText
 10
-2187.500758815456
 20
-2830.084953112332
 30
0.0
 40
68.58
 41
630.0
 46
0.0
 71
     7
 72
     1
  1
{\fＭＳ ゴシック|b0|i0|c128|p49;1,900×147×24}
 73
     1
 44
1.0
  0
MTEXT
  5
24E
330
1F
100
AcDbEntity
  8
0-B
  6
Continuous
 62
     7
370
   211
100
AcDbMText
 10
-3575.000393841718
 20
-2905.709978112333
 30
0.0
 40
68.57999999999998
 41
135.0
 46
0.0
 71
     7
 72
     1
  1
{\fＭＳ ゴシック|b0|i0|c128|p49;147}
 73
     1
 44
1.0
  0
LINE
  5
24F
330
1F
100
AcDbEntity
  8
F-1
  6
JWW_DASHED1
 62
     7
370
     9
100
AcDbLine
 10
5689.999162829944
 20
-352.4997981123329
 30
0.0
 11
3439.999719568202
 21
-352.4997981123329
 31
0.0
  0
LINE
  5
250
330
1F
100
AcDbEntity
  8
F-1
  6
JWW_DASHED1
 62
     7
370
     9
100
AcDbLine
 10
5689.999162829944
 20
2147.500361887668
 30
0.0
 11
3439.999719568202
 21
2147.500361887668
 31
0.0
  0
LINE
  5
251
330
1F
100
AcDbEntity
  8
F-1
  6
JWW_DASHED1
 62
     7
370
     9
100
AcDbLine
 10
5689.999162829944
 20
1366.250311887667
 30
0.0
 11
3439.999719568202
 21
1366.250311887667
 31
0.0
  0
LINE
  5
252
330
1F
100
AcDbEntity
  8
F-1
  6
JWW_DASHED1
 62
     7
370
     9
100
AcDbLine
 10
5689.999162829944
 20
1991.250351887668
 30
0.0
 11
3439.999719568202
 21
1991.250351887668
 31
0.0
  0
LINE
  5
253
330
1F
100
AcDbEntity
  8
F-1
  6
JWW_DASHED1
 62
     7
370
     9
100
AcDbLine
 10
5689.999162829944
 20
1835.000341887667
 30
0.0
 11
3439.999719568202
 21
1835.000341887667
 31
0.0
  0
LINE
  5
254
330
1F
100
AcDbEntity
  8
F-1
  6
JWW_DASHED1
 62
     7
370
     9
100
AcDbLine
 10
5689.999162829944
 20
1678.750331887667
 30
0.0
 11
3439.999719568202
 21
1678.750331887667
 31
0.0
  0
LINE
  5
255
330
1F
100
AcDbEntity
  8
F-1
  6
JWW_DASHED1
 62
     7
370
     9
100
AcDbLine
 10
5689.999162829944
 20
1522.500321887667
 30
0.0
 11
3439.999719568202
 21
1522.500321887667
 31
0.0
  0
LINE
  5
256
330
1F
100
AcDbEntity
  8
F-1
  6
JWW_DASHED1
 62
     7
370
     9
100
AcDbLine
 10
5689.999162829944
 20
897.5002818876675
 30
0.0
 11
3439.999719568202
 21
897.5002818876675
 31
0.0
  0
LINE
  5
257
330
1F
100
AcDbEntity
  8
F-1
  6
JWW_DASHED1
 62
     7
370
     9
100
AcDbLine
 10
5689.999162829944
 20
116.2502318876662
 30
0.0
 11
3439.999719568202
 21
116.2502318876662
 31
0.0
  0
LINE
  5
258
330
1F
100
AcDbEntity
  8
F-1
  6
JWW_DASHED1
 62
     7
370
     9
100
AcDbLine
 10
5689.999162829944
 20
741.2502718876672
 30
0.0
 11
3439.999719568202
 21
741.2502718876672
 31
0.0
  0
LINE
  5
259
330
1F
100
AcDbEntity
  8
F-1
  6
JWW_DASHED1
 62
     7
370
     9
100
AcDbLine
 10
5689.999162829944
 20
585.000261887667
 30
0.0
 11
3439.999719568202
 21
585.000261887667
 31
0.0
  0
LINE
  5
25A
330
1F
100
AcDbEntity
  8
F-1
  6
JWW_DASHED1
 62
     7
370
     9
100
AcDbLine
 10
5689.999162829944
 20
428.7502518876667
 30
0.0
 11
3439.999719568202
 21
428.7502518876667
 31
0.0
  0
LINE
  5
25B
330
1F
100
AcDbEntity
  8
F-1
  6
JWW_DASHED1
 62
     7
370
     9
100
AcDbLine
 10
5689.999162829944
 20
272.5002418876664
 30
0.0
 11
3439.999719568202
 21
272.5002418876664
 31
0.0
  0
LINE
  5
25C
330
1F
100
AcDbEntity
  8
F-1
  6
JWW_DASHED1
 62
     7
370
     9
100
AcDbLine
 10
5689.999162829944
 20
1210.000301887666
 30
0.0
 11
3439.999719568202
 21
1210.000301887666
 31
0.0
  0
LINE
  5
25D
330
1F
100
AcDbEntity
  8
F-1
  6
JWW_DASHED1
 62
     7
370
     9
100
AcDbLine
 10
5689.999162829944
 20
3553.750451887668
 30
0.0
 11
3439.999719568202
 21
3553.750451887668
 31
0.0
  0
LINE
  5
25E
330
1F
100
AcDbEntity
  8
F-1
  6
Continuous
 62
     7
370
     9
100
AcDbLine
 10
-155.0003876543789
 20
1210.000301887668
 30
0.0
 11
-5989.999990205507
 21
1210.000301887668
 31
0.0
  0
LINE
  5
25F
330
1F
100
AcDbEntity
  8
F-1
  6
JWW_DASHED1
 62
     7
370
     9
100
AcDbLine
 10
5689.999162829944
 20
-196.2497881123326
 30
0.0
 11
4339.999719568202
 21
-196.2497881123326
 31
0.0
  0
MTEXT
  5
260
330
1F
100
AcDbEntity
  8
F-A
  6
Continuous
 62
     7
370
     9
100
AcDbMText
 10
4936.24903358083
 20
-4147.857012699985
 30
0.0
 40
74.295
 41
97.5
 46
0.0
 71
     7
 72
     1
  1
{\fＭＳ ゴシック|b0|i0|c128|p49;01}
 73
     1
 44
1.0
  0
MTEXT
  5
261
330
1F
100
AcDbEntity
  8
0-A
  6
Continuous
 62
     7
370
     9
100
AcDbMText
 10
-2187.500758815456
 20
-2673.834943112333
 30
0.0
 40
68.58
 41
630.0
 46
0.0
 71
     7
 72
     1
  1
{\fＭＳ ゴシック|b0|i0|c128|p49;2,450×147×24}
 73
     1
 44
1.0
  0
MTEXT
  5
262
330
1F
100
AcDbEntity
  8
0-A
  6
Continuous
 62
     7
370
     9
100
AcDbMText
 10
184.9990885959821
 20
687.0302000126677
 30
0.0
 40
99.06
 41
390.0
 46
0.0
 71
     7
 72
     1
  1
{\fＭＳ ゴシック|b0|i0|c128|p49;開口枠}
 73
     1
 44
1.0
  0
MTEXT
  5
263
330
1F
100
AcDbEntity
  8
0-A
  6
Continuous
 62
     7
370
     9
100
AcDbMText
 10
5427.499348408469
 20
1076.165296887667
 30
0.0
 40
68.58
 41
45.0
 46
0.0
 71
     7
 72
     1
  1
{\fＭＳ ゴシック|b0|i0|c128|p49;1}
 73
     1
 44
1.0
  0
MTEXT
  5
264
330
1F
100
AcDbEntity
  8
0-A
  6
Continuous
 62
     7
370
     9
100
AcDbMText
 10
5427.499348408469
 20
919.915286887668
 30
0.0
 40
68.58
 41
45.0
 46
0.0
 71
     7
 72
     1
  1
{\fＭＳ ゴシック|b0|i0|c128|p49;1}
 73
     1
 44
1.0
  0
MTEXT
  5
265
330
1F
100
AcDbEntity
  8
0-A
  6
Continuous
 62
     7
370
     9
100
AcDbMText
 10
5427.499719568203
 20
763.6652768876686
 30
0.0
 40
68.58
 41
45.0
 46
0.0
 71
     7
 72
     1
  1
{\fＭＳ ゴシック|b0|i0|c128|p49;1}
 73
     1
 44
1.0
  0
MTEXT
  5
266
330
1F
100
AcDbEntity
  8
0-0
  6
Continuous
 62
     7
370
     9
100
AcDbMText
 10
184.9999237060555
 20
-1985.469898063554
 30
0.0
 40
99.06
 41
390.0
 46
0.0
 71
     7
 72
     1
  1
{\fＭＳ ゴシック|b0|i0|c128|p49;笠　木}
 73
     1
 44
1.0
  0
MTEXT
  5
267
330
1F
100
AcDbEntity
  8
0-0
  6
Continuous
 62
     7
370
     9
100
AcDbMText
 10
5427.498791668867
 20
-2830.084952996484
 30
0.0
 40
68.58
 41
45.0
 46
0.0
 71
     7
 72
     1
  1
{\fＭＳ ゴシック|b0|i0|c128|p49;1}
 73
     1
 44
1.0
  0
MTEXT
  5
268
330
1F
100
AcDbEntity
  8
0-0
  6
Continuous
 62
     7
370
     9
100
AcDbMText
 10
5427.498791668867
 20
-2673.834943008678
 30
0.0
 40
68.58
 41
45.0
 46
0.0
 71
     7
 72
     1
  1
{\fＭＳ ゴシック|b0|i0|c128|p49;2}
 73
     1
 44
1.0
  0
MTEXT
  5
269
330
1F
100
AcDbEntity
  8
0-0
  6
Continuous
 62
     7
370
     9
100
AcDbMText
 10
5427.498791668867
 20
-1580.084873094041
 30
0.0
 40
68.58
 41
45.0
 46
0.0
 71
     7
 72
     1
  1
{\fＭＳ ゴシック|b0|i0|c128|p49;1}
 73
     1
 44
1.0
  0
MTEXT
  5
26A
330
1F
100
AcDbEntity
  8
0-0
  6
Continuous
 62
     7
370
     9
100
AcDbMText
 10
5427.498791668867
 20
-1423.834863106235
 30
0.0
 40
68.58
 41
45.0
 46
0.0
 71
     7
 72
     1
  1
{\fＭＳ ゴシック|b0|i0|c128|p49;2}
 73
     1
 44
1.0
  0
MTEXT
  5
26B
330
1F
100
AcDbEntity
  8
0-0
  6
Continuous
 62
     7
370
     9
100
AcDbMText
 10
5427.498791668867
 20
-330.0847931915973
 30
0.0
 40
68.58
 41
45.0
 46
0.0
 71
     7
 72
     1
  1
{\fＭＳ ゴシック|b0|i0|c128|p49;1}
 73
     1
 44
1.0
  0
MTEXT
  5
26C
330
1F
100
AcDbEntity
  8
0-0
  6
Continuous
 62
     7
370
     9
100
AcDbMText
 10
5427.498791668867
 20
-173.8347832037926
 30
0.0
 40
68.58
 41
45.0
 46
0.0
 71
     7
 72
     1
  1
{\fＭＳ ゴシック|b0|i0|c128|p49;2}
 73
     1
 44
1.0
  0
MTEXT
  5
26D
330
1F
100
AcDbEntity
  8
0-0
  6
Continuous
 62
     7
370
   211
100
AcDbMText
 10
2190.099957578841
 20
-2796.48003602194
 30
0.0
 40
68.57999999999998
 41
135.0
 46
0.0
 71
     7
 72
     1
  1
{\fＭＳ ゴシック|b0|i0|c128|p49;180}
 73
     1
 44
1.0
  0
LINE
  5
26E
330
1F
100
AcDbEntity
  8
0-0
  6
Continuous
 62
   120
370
     5
100
AcDbLine
 10
1357.599957578841
 20
-3310.77003602194
 30
0.0
 11
1432.599957578841
 21
-3310.77003602194
 31
0.0
  0
LINE
  5
26F
330
1F
100
AcDbEntity
  8
0-0
  6
Continuous
 62
   120
370
     5
100
AcDbLine
 10
1357.599957578841
 20
-2950.77003602194
 30
0.0
 11
1432.599957578841
 21
-2950.77003602194
 31
0.0
  0
LWPOLYLINE
  5
270
330
1F
100
AcDbEntity
  8
0-0
  6
Continuous
 62
     7
370
     9
100
AcDbPolyline
 90
        4
 70
     1
 43
3.0
 10
1359.099957578841
 20
-3310.77003602194
 42
0.4142135623731
 10
1357.599957578841
 20
-3309.270036021941
 42
0.4142135623731
 10
1356.099957578841
 20
-3310.77003602194
 42
0.4142135623731
 10
1357.599957578841
 20
-3312.27003602194
 42
0.4142135623731
  0
LWPOLYLINE
  5
271
330
1F
100
AcDbEntity
  8
0-0
  6
Continuous
 62
     7
370
     9
100
AcDbPolyline
 90
        4
 70
     1
 43
3.0
 10
1359.099957578841
 20
-2950.77003602194
 42
0.4142135623731
 10
1357.599957578841
 20
-2949.270036021941
 42
0.4142135623731
 10
1356.099957578841
 20
-2950.77003602194
 42
0.4142135623731
 10
1357.599957578841
 20
-2952.27003602194
 42
0.4142135623731
  0
LINE
  5
272
330
1F
100
AcDbEntity
  8
0-0
  6
Continuous
 62
   120
370
     5
100
AcDbLine
 10
1357.599957578841
 20
-2950.77003602194
 30
0.0
 11
1357.599957578841
 21
-3310.77003602194
 31
0.0
  0
MTEXT
  5
273
330
1F
100
AcDbEntity
  8
0-0
  6
Continuous
 62
     7
370
   211
100
AcDbMText
 10
2812.599957578841
 20
-3456.48003602194
 30
0.0
 40
68.58
 41
90.0
 46
0.0
 71
     7
 72
     1
  1
{\fＭＳ ゴシック|b0|i0|c128|p49;20}
 73
     1
 44
1.0
  0
LINE
  5
274
330
1F
100
AcDbEntity
  8
0-0
  6
Continuous
 62
   120
370
     5
100
AcDbLine
 10
3007.599957578841
 20
-3460.77003602194
 30
0.0
 11
3007.599957578841
 21
-3385.77003602194
 31
0.0
  0
LINE
  5
275
330
1F
100
AcDbEntity
  8
0-0
  6
Continuous
 62
   120
370
     5
100
AcDbLine
 10
2707.599957578841
 20
-3460.77003602194
 30
0.0
 11
2707.599957578841
 21
-3385.77003602194
 31
0.0
  0
LWPOLYLINE
  5
276
330
1F
100
AcDbEntity
  8
0-0
  6
Continuous
 62
     7
370
     9
100
AcDbPolyline
 90
        4
 70
     1
 43
3.0
 10
3009.099957578841
 20
-3460.77003602194
 42
0.4142135623731
 10
3007.599957578841
 20
-3459.270036021941
 42
0.4142135623731
 10
3006.099957578841
 20
-3460.77003602194
 42
0.4142135623731
 10
3007.599957578841
 20
-3462.27003602194
 42
0.4142135623731
  0
LWPOLYLINE
  5
277
330
1F
100
AcDbEntity
  8
0-0
  6
Continuous
 62
     7
370
     9
100
AcDbPolyline
 90
        4
 70
     1
 43
3.0
 10
2709.099957578841
 20
-3460.77003602194
 42
0.4142135623731
 10
2707.599957578841
 20
-3459.270036021941
 42
0.4142135623731
 10
2706.099957578841
 20
-3460.77003602194
 42
0.4142135623731
 10
2707.599957578841
 20
-3462.27003602194
 42
0.4142135623731
  0
LINE
  5
278
330
1F
100
AcDbEntity
  8
0-0
  6
Continuous
 62
   120
370
     5
100
AcDbLine
 10
2707.599957578841
 20
-3460.77003602194
 30
0.0
 11
3007.599957578841
 21
-3460.77003602194
 31
0.0
  0
MTEXT
  5
279
330
1F
100
AcDbEntity
  8
0-0
  6
Continuous
 62
     7
370
   211
100
AcDbMText
 10
1612.599957578841
 20
-3456.48003602194
 30
0.0
 40
68.58
 41
90.0
 46
0.0
 71
     7
 72
     1
  1
{\fＭＳ ゴシック|b0|i0|c128|p49;20}
 73
     1
 44
1.0
  0
LINE
  5
27A
330
1F
100
AcDbEntity
  8
0-0
  6
Continuous
 62
   120
370
     5
100
AcDbLine
 10
1807.599957578841
 20
-3460.77003602194
 30
0.0
 11
1807.599957578841
 21
-3385.77003602194
 31
0.0
  0
LINE
  5
27B
330
1F
100
AcDbEntity
  8
0-0
  6
Continuous
 62
   120
370
     5
100
AcDbLine
 10
1507.599957578841
 20
-3460.77003602194
 30
0.0
 11
1507.599957578841
 21
-3385.77003602194
 31
0.0
  0
LWPOLYLINE
  5
27C
330
1F
100
AcDbEntity
  8
0-0
  6
Continuous
 62
     7
370
     9
100
AcDbPolyline
 90
        4
 70
     1
 43
3.0
 10
1809.099957578841
 20
-3460.77003602194
 42
0.4142135623731
 10
1807.599957578841
 20
-3459.270036021941
 42
0.4142135623731
 10
1806.099957578841
 20
-3460.77003602194
 42
0.4142135623731
 10
1807.599957578841
 20
-3462.27003602194
 42
0.4142135623731
  0
LWPOLYLINE
  5
27D
330
1F
100
AcDbEntity
  8
0-0
  6
Continuous
 62
     7
370
     9
100
AcDbPolyline
 90
        4
 70
     1
 43
3.0
 10
1509.099957578841
 20
-3460.77003602194
 42
0.4142135623731
 10
1507.599957578841
 20
-3459.270036021941
 42
0.4142135623731
 10
1506.099957578841
 20
-3460.77003602194
 42
0.4142135623731
 10
1507.599957578841
 20
-3462.27003602194
 42
0.4142135623731
  0
LINE
  5
27E
330
1F
100
AcDbEntity
  8
0-0
  6
Continuous
 62
   120
370
     5
100
AcDbLine
 10
1507.599957578841
 20
-3460.77003602194
 30
0.0
 11
1807.599957578841
 21
-3460.77003602194
 31
0.0
  0
LINE
  5
27F
330
1F
100
AcDbEntity
  8
0-0
  6
Continuous
 62
   120
370
     5
100
AcDbLine
 10
3007.599957578841
 20
-2800.77003602194
 30
0.0
 11
3007.599957578841
 21
-2875.77003602194
 31
0.0
  0
LINE
  5
280
330
1F
100
AcDbEntity
  8
0-0
  6
Continuous
 62
   120
370
     5
100
AcDbLine
 10
1507.599957578841
 20
-2800.77003602194
 30
0.0
 11
1507.599957578841
 21
-2875.77003602194
 31
0.0
  0
LWPOLYLINE
  5
281
330
1F
100
AcDbEntity
  8
0-0
  6
Continuous
 62
     7
370
     9
100
AcDbPolyline
 90
        4
 70
     1
 43
3.0
 10
3009.099957578841
 20
-2800.77003602194
 42
0.4142135623731
 10
3007.599957578841
 20
-2799.270036021941
 42
0.4142135623731
 10
3006.099957578841
 20
-2800.77003602194
 42
0.4142135623731
 10
3007.599957578841
 20
-2802.27003602194
 42
0.4142135623731
  0
LWPOLYLINE
  5
282
330
1F
100
AcDbEntity
  8
0-0
  6
Continuous
 62
     7
370
     9
100
AcDbPolyline
 90
        4
 70
     1
 43
3.0
 10
1509.099957578841
 20
-2800.77003602194
 42
0.4142135623731
 10
1507.599957578841
 20
-2799.270036021941
 42
0.4142135623731
 10
1506.099957578841
 20
-2800.77003602194
 42
0.4142135623731
 10
1507.599957578841
 20
-2802.27003602194
 42
0.4142135623731
  0
LINE
  5
283
330
1F
100
AcDbEntity
  8
0-0
  6
Continuous
 62
   120
370
     5
100
AcDbLine
 10
1507.599957578841
 20
-2800.77003602194
 30
0.0
 11
3007.599957578841
 21
-2800.77003602194
 31
0.0
  0
LINE
  5
284
330
1F
100
AcDbEntity
  8
0-0
  6
Continuous
 62
    92
370
    13
100
AcDbLine
 10
1515.099957578841
 20
-3006.90964632873
 30
0.0
 11
1515.099957578841
 21
-3310.77003602194
 31
0.0
  0
LINE
  5
285
330
1F
100
AcDbEntity
  8
0-0
  6
Continuous
 62
    92
370
    13
100
AcDbLine
 10
1563.739567885629
 20
-2958.27003602194
 30
0.0
 11
1515.099957578841
 21
-3006.90964632873
 31
0.0
  0
LINE
  5
286
330
1F
100
AcDbEntity
  8
0-0
  6
Continuous
 62
    92
370
    13
100
AcDbLine
 10
1563.739567885629
 20
-2958.27003602194
 30
0.0
 11
2522.962918929912
 21
-2958.27003602194
 31
0.0
  0
LINE
  5
287
330
1F
100
AcDbEntity
  8
0-0
  6
Continuous
 62
    92
370
    13
100
AcDbLine
 10
3000.099957578841
 20
-3006.90964632873
 30
0.0
 11
3000.099957578841
 21
-3310.77003602194
 31
0.0
  0
LINE
  5
288
330
1F
100
AcDbEntity
  8
0-0
  6
Continuous
 62
    92
370
    13
100
AcDbLine
 10
2951.460347272051
 20
-2958.27003602194
 30
0.0
 11
3000.099957578841
 21
-3006.90964632873
 31
0.0
  0
LINE
  5
289
330
1F
100
AcDbEntity
  8
0-0
  6
Continuous
 62
    92
370
    13
100
AcDbLine
 10
2951.460347272051
 20
-2958.27003602194
 30
0.0
 11
2557.603935081289
 21
-2958.27003602194
 31
0.0
  0
LINE
  5
28A
330
1F
100
AcDbEntity
  8
0-0
  6
Continuous
 62
    92
370
    13
100
AcDbLine
 10
2954.56694898985
 20
-2950.77003602194
 30
0.0
 11
3007.599957578841
 21
-3003.803044610932
 31
0.0
  0
LINE
  5
28B
330
1F
100
AcDbEntity
  8
0-0
  6
Continuous
 62
    92
370
    13
100
AcDbLine
 10
3007.599957578841
 20
-3003.803044610932
 30
0.0
 11
3007.599957578841
 21
-3310.77003602194
 31
0.0
  0
LINE
  5
28C
330
1F
100
AcDbEntity
  8
0-0
  6
Continuous
 62
    92
370
    13
100
AcDbLine
 10
2954.56694898985
 20
-2950.77003602194
 30
0.0
 11
2561.934062100212
 21
-2950.77003602194
 31
0.0
  0
LINE
  5
28D
330
1F
100
AcDbEntity
  8
0-0
  6
Continuous
 62
    92
370
    13
100
AcDbLine
 10
1560.632966167831
 20
-2950.77003602194
 30
0.0
 11
1507.599957578841
 21
-3003.803044610932
 31
0.0
  0
LINE
  5
28E
330
1F
100
AcDbEntity
  8
0-0
  6
Continuous
 62
    92
370
    13
100
AcDbLine
 10
1507.599957578841
 20
-3003.803044610932
 30
0.0
 11
1507.599957578841
 21
-3310.77003602194
 31
0.0
  0
LINE
  5
28F
330
1F
100
AcDbEntity
  8
0-0
  6
Continuous
 62
    92
370
    13
100
AcDbLine
 10
1560.632966167831
 20
-2950.77003602194
 30
0.0
 11
2527.293045948835
 21
-2950.77003602194
 31
0.0
  0
LINE
  5
290
330
1F
100
AcDbEntity
  8
0-0
  6
Continuous
 62
    92
370
    13
100
AcDbLine
 10
2407.473946877207
 20
-3310.77003602194
 30
0.0
 11
3007.599957578841
 21
-3310.77003602194
 31
0.0
  0
LINE
  5
291
330
1F
100
AcDbEntity
  8
0-0
  6
Continuous
 62
    92
370
    13
100
AcDbLine
 10
1507.599957578841
 20
-3310.77003602194
 30
0.0
 11
2372.83293072583
 21
-3310.77003602194
 31
0.0
  0
LINE
  5
292
330
1F
100
AcDbEntity
  8
0-0
  6
Continuous
 62
    92
370
    13
100
AcDbLine
 10
2707.599957578841
 20
-3310.77003602194
 30
0.0
 11
2707.599957578841
 21
-3303.27003602194
 31
0.0
  0
LINE
  5
293
330
1F
100
AcDbEntity
  8
0-0
  6
Continuous
 62
    92
370
    13
100
AcDbLine
 10
3007.599957578841
 20
-3303.27003602194
 30
0.0
 11
2707.599957578841
 21
-3303.27003602194
 31
0.0
  0
LINE
  5
294
330
1F
100
AcDbEntity
  8
0-0
  6
Continuous
 62
    92
370
    13
100
AcDbLine
 10
1807.599957578841
 20
-3310.77003602194
 30
0.0
 11
1807.599957578841
 21
-3303.27003602194
 31
0.0
  0
LINE
  5
295
330
1F
100
AcDbEntity
  8
0-0
  6
Continuous
 62
    92
370
    13
100
AcDbLine
 10
1507.599957578841
 20
-3303.27003602194
 30
0.0
 11
1807.599957578841
 21
-3303.27003602194
 31
0.0
  0
LINE
  5
296
330
1F
100
AcDbEntity
  8
0-0
  6
JWW_HOJO
 62
     7
370
     9
100
AcDbLine
 10
3007.599957578841
 20
-2800.77003602194
 30
0.0
 11
1357.599957578841
 21
-2800.77003602194
 31
0.0
  0
LINE
  5
297
330
1F
100
AcDbEntity
  8
0-0
  6
JWW_HOJO
 62
     7
370
     9
100
AcDbLine
 10
3007.599957578841
 20
-3460.77003602194
 30
0.0
 11
3007.599957578841
 21
-2800.77003602194
 31
0.0
  0
LINE
  5
298
330
1F
100
AcDbEntity
  8
0-0
  6
JWW_HOJO
 62
     7
370
     9
100
AcDbLine
 10
3007.599957578841
 20
-2875.77003602194
 30
0.0
 11
1432.599957578841
 21
-2875.77003602194
 31
0.0
  0
LINE
  5
299
330
1F
100
AcDbEntity
  8
0-0
  6
JWW_HOJO
 62
     7
370
     9
100
AcDbLine
 10
1357.599957578841
 20
-3460.77003602194
 30
0.0
 11
3007.599957578841
 21
-3460.77003602194
 31
0.0
  0
LINE
  5
29A
330
1F
100
AcDbEntity
  8
0-0
  6
JWW_HOJO
 62
     7
370
     9
100
AcDbLine
 10
1432.599957578841
 20
-3385.77003602194
 30
0.0
 11
3007.599957578841
 21
-3385.77003602194
 31
0.0
  0
LINE
  5
29B
330
1F
100
AcDbEntity
  8
0-0
  6
JWW_HOJO
 62
     7
370
     9
100
AcDbLine
 10
1432.599957578841
 20
-3385.77003602194
 30
0.0
 11
1432.599957578841
 21
-2875.77003602194
 31
0.0
  0
LINE
  5
29C
330
1F
100
AcDbEntity
  8
0-0
  6
JWW_HOJO
 62
     7
370
     9
100
AcDbLine
 10
1357.599957578841
 20
-3460.77003602194
 30
0.0
 11
1357.599957578841
 21
-2800.77003602194
 31
0.0
  0
LINE
  5
29D
330
1F
100
AcDbEntity
  8
0-0
  6
Continuous
 62
     7
370
     9
100
AcDbLine
 10
2545.528281765176
 20
-3071.652913790852
 30
0.0
 11
2364.172676687985
 21
-3385.77003602194
 31
0.0
  0
LINE
  5
29E
330
1F
100
AcDbEntity
  8
0-0
  6
Continuous
 62
     7
370
     9
100
AcDbLine
 10
2493.566757538109
 20
-3101.652913790852
 30
0.0
 11
2329.531660536608
 21
-3385.77003602194
 31
0.0
  0
LINE
  5
29F
330
1F
100
AcDbEntity
  8
0-0
  6
Continuous
 62
     7
370
     9
100
AcDbLine
 10
2579.2545701759
 20
-2920.77003602194
 30
0.0
 11
2492.142300079915
 21
-3071.652913790852
 31
0.0
  0
LINE
  5
2A0
330
1F
100
AcDbEntity
  8
0-0
  6
Continuous
 62
     7
370
     9
100
AcDbLine
 10
2544.613554024523
 20
-2920.77003602194
 30
0.0
 11
2440.180775852848
 21
-3101.652913790852
 31
0.0
  0
LINE
  5
2A1
330
1F
100
AcDbEntity
  8
0-0
  6
Continuous
 62
     7
370
     9
100
AcDbLine
 10
2492.142300079915
 20
-3071.652913790852
 30
0.0
 11
2545.528281765176
 21
-3071.652913790852
 31
0.0
  0
LINE
  5
2A2
330
1F
100
AcDbEntity
  8
0-0
  6
Continuous
 62
     7
370
     9
100
AcDbLine
 10
2440.180775852848
 20
-3101.652913790852
 30
0.0
 11
2493.566757538109
 21
-3101.652913790852
 31
0.0
  0
MTEXT
  5
2A3
330
1F
100
AcDbEntity
  8
0-0
  6
Continuous
 62
     7
370
   211
100
AcDbMText
 10
2190.099957578841
 20
-1546.479956119498
 30
0.0
 40
68.57999999999998
 41
135.0
 46
0.0
 71
     7
 72
     1
  1
{\fＭＳ ゴシック|b0|i0|c128|p49;155}
 73
     1
 44
1.0
  0
LINE
  5
2A4
330
1F
100
AcDbEntity
  8
0-0
  6
Continuous
 62
   120
370
     5
100
AcDbLine
 10
1357.599957578841
 20
-2060.769956119498
 30
0.0
 11
1432.599957578841
 21
-2060.769956119498
 31
0.0
  0
LINE
  5
2A5
330
1F
100
AcDbEntity
  8
0-0
  6
Continuous
 62
   120
370
     5
100
AcDbLine
 10
1357.599957578841
 20
-1700.769956119498
 30
0.0
 11
1432.599957578841
 21
-1700.769956119498
 31
0.0
  0
LWPOLYLINE
  5
2A6
330
1F
100
AcDbEntity
  8
0-0
  6
Continuous
 62
     7
370
     9
100
AcDbPolyline
 90
        4
 70
     1
 43
3.0
 10
1359.099957578841
 20
-2060.769956119498
 42
0.4142135623731
 10
1357.599957578841
 20
-2059.269956119498
 42
0.4142135623731
 10
1356.099957578841
 20
-2060.769956119498
 42
0.4142135623731
 10
1357.599957578841
 20
-2062.269956119498
 42
0.4142135623731
  0
LWPOLYLINE
  5
2A7
330
1F
100
AcDbEntity
  8
0-0
  6
Continuous
 62
     7
370
     9
100
AcDbPolyline
 90
        4
 70
     1
 43
3.0
 10
1359.099957578841
 20
-1700.769956119498
 42
0.4142135623731
 10
1357.599957578841
 20
-1699.269956119498
 42
0.4142135623731
 10
1356.099957578841
 20
-1700.769956119498
 42
0.4142135623731
 10
1357.599957578841
 20
-1702.269956119498
 42
0.4142135623731
  0
LINE
  5
2A8
330
1F
100
AcDbEntity
  8
0-0
  6
Continuous
 62
   120
370
     5
100
AcDbLine
 10
1357.599957578841
 20
-1700.769956119498
 30
0.0
 11
1357.599957578841
 21
-2060.769956119498
 31
0.0
  0
MTEXT
  5
2A9
330
1F
100
AcDbEntity
  8
0-0
  6
Continuous
 62
     7
370
   211
100
AcDbMText
 10
2812.599957578841
 20
-2206.479956119498
 30
0.0
 40
68.58
 41
90.0
 46
0.0
 71
     7
 72
     1
  1
{\fＭＳ ゴシック|b0|i0|c128|p49;20}
 73
     1
 44
1.0
  0
LINE
  5
2AA
330
1F
100
AcDbEntity
  8
0-0
  6
Continuous
 62
   120
370
     5
100
AcDbLine
 10
3007.599957578841
 20
-2210.769956119498
 30
0.0
 11
3007.599957578841
 21
-2135.769956119498
 31
0.0
  0
LINE
  5
2AB
330
1F
100
AcDbEntity
  8
0-0
  6
Continuous
 62
   120
370
     5
100
AcDbLine
 10
2707.599957578841
 20
-2210.769956119498
 30
0.0
 11
2707.599957578841
 21
-2135.769956119498
 31
0.0
  0
LWPOLYLINE
  5
2AC
330
1F
100
AcDbEntity
  8
0-0
  6
Continuous
 62
     7
370
     9
100
AcDbPolyline
 90
        4
 70
     1
 43
3.0
 10
3009.099957578841
 20
-2210.769956119498
 42
0.4142135623731
 10
3007.599957578841
 20
-2209.269956119498
 42
0.4142135623731
 10
3006.099957578841
 20
-2210.769956119498
 42
0.4142135623731
 10
3007.599957578841
 20
-2212.269956119498
 42
0.4142135623731
  0
LWPOLYLINE
  5
2AD
330
1F
100
AcDbEntity
  8
0-0
  6
Continuous
 62
     7
370
     9
100
AcDbPolyline
 90
        4
 70
     1
 43
3.0
 10
2709.099957578841
 20
-2210.769956119498
 42
0.4142135623731
 10
2707.599957578841
 20
-2209.269956119498
 42
0.4142135623731
 10
2706.099957578841
 20
-2210.769956119498
 42
0.4142135623731
 10
2707.599957578841
 20
-2212.269956119498
 42
0.4142135623731
  0
LINE
  5
2AE
330
1F
100
AcDbEntity
  8
0-0
  6
Continuous
 62
   120
370
     5
100
AcDbLine
 10
2707.599957578841
 20
-2210.769956119498
 30
0.0
 11
3007.599957578841
 21
-2210.769956119498
 31
0.0
  0
MTEXT
  5
2AF
330
1F
100
AcDbEntity
  8
0-0
  6
Continuous
 62
     7
370
   211
100
AcDbMText
 10
1612.599957578841
 20
-2206.479956119498
 30
0.0
 40
68.58
 41
90.0
 46
0.0
 71
     7
 72
     1
  1
{\fＭＳ ゴシック|b0|i0|c128|p49;20}
 73
     1
 44
1.0
  0
LINE
  5
2B0
330
1F
100
AcDbEntity
  8
0-0
  6
Continuous
 62
   120
370
     5
100
AcDbLine
 10
1807.599957578841
 20
-2210.769956119498
 30
0.0
 11
1807.599957578841
 21
-2135.769956119498
 31
0.0
  0
LINE
  5
2B1
330
1F
100
AcDbEntity
  8
0-0
  6
Continuous
 62
   120
370
     5
100
AcDbLine
 10
1507.599957578841
 20
-2210.769956119498
 30
0.0
 11
1507.599957578841
 21
-2135.769956119498
 31
0.0
  0
LWPOLYLINE
  5
2B2
330
1F
100
AcDbEntity
  8
0-0
  6
Continuous
 62
     7
370
     9
100
AcDbPolyline
 90
        4
 70
     1
 43
3.0
 10
1809.099957578841
 20
-2210.769956119498
 42
0.4142135623731
 10
1807.599957578841
 20
-2209.269956119498
 42
0.4142135623731
 10
1806.099957578841
 20
-2210.769956119498
 42
0.4142135623731
 10
1807.599957578841
 20
-2212.269956119498
 42
0.4142135623731
  0
LWPOLYLINE
  5
2B3
330
1F
100
AcDbEntity
  8
0-0
  6
Continuous
 62
     7
370
     9
100
AcDbPolyline
 90
        4
 70
     1
 43
3.0
 10
1509.099957578841
 20
-2210.769956119498
 42
0.4142135623731
 10
1507.599957578841
 20
-2209.269956119498
 42
0.4142135623731
 10
1506.099957578841
 20
-2210.769956119498
 42
0.4142135623731
 10
1507.599957578841
 20
-2212.269956119498
 42
0.4142135623731
  0
LINE
  5
2B4
330
1F
100
AcDbEntity
  8
0-0
  6
Continuous
 62
   120
370
     5
100
AcDbLine
 10
1507.599957578841
 20
-2210.769956119498
 30
0.0
 11
1807.599957578841
 21
-2210.769956119498
 31
0.0
  0
LINE
  5
2B5
330
1F
100
AcDbEntity
  8
0-0
  6
Continuous
 62
   120
370
     5
100
AcDbLine
 10
3007.599957578841
 20
-1550.769956119498
 30
0.0
 11
3007.599957578841
 21
-1625.769956119498
 31
0.0
  0
LINE
  5
2B6
330
1F
100
AcDbEntity
  8
0-0
  6
Continuous
 62
   120
370
     5
100
AcDbLine
 10
1507.599957578841
 20
-1550.769956119498
 30
0.0
 11
1507.599957578841
 21
-1625.769956119498
 31
0.0
  0
LWPOLYLINE
  5
2B7
330
1F
100
AcDbEntity
  8
0-0
  6
Continuous
 62
     7
370
     9
100
AcDbPolyline
 90
        4
 70
     1
 43
3.0
 10
3009.099957578841
 20
-1550.769956119498
 42
0.4142135623731
 10
3007.599957578841
 20
-1549.269956119498
 42
0.4142135623731
 10
3006.099957578841
 20
-1550.769956119498
 42
0.4142135623731
 10
3007.599957578841
 20
-1552.269956119498
 42
0.4142135623731
  0
LWPOLYLINE
  5
2B8
330
1F
100
AcDbEntity
  8
0-0
  6
Continuous
 62
     7
370
     9
100
AcDbPolyline
 90
        4
 70
     1
 43
3.0
 10
1509.099957578841
 20
-1550.769956119498
 42
0.4142135623731
 10
1507.599957578841
 20
-1549.269956119498
 42
0.4142135623731
 10
1506.099957578841
 20
-1550.769956119498
 42
0.4142135623731
 10
1507.599957578841
 20
-1552.269956119498
 42
0.4142135623731
  0
LINE
  5
2B9
330
1F
100
AcDbEntity
  8
0-0
  6
Continuous
 62
   120
370
     5
100
AcDbLine
 10
1507.599957578841
 20
-1550.769956119498
 30
0.0
 11
3007.599957578841
 21
-1550.769956119498
 31
0.0
  0
LINE
  5
2BA
330
1F
100
AcDbEntity
  8
0-0
  6
Continuous
 62
    92
370
    13
100
AcDbLine
 10
3000.099957578841
 20
-1756.909566426287
 30
0.0
 11
3000.099957578841
 21
-2060.769956119498
 31
0.0
  0
LINE
  5
2BB
330
1F
100
AcDbEntity
  8
0-0
  6
Continuous
 62
    92
370
    13
100
AcDbLine
 10
2951.460347272051
 20
-1708.269956119498
 30
0.0
 11
3000.099957578841
 21
-1756.909566426287
 31
0.0
  0
LINE
  5
2BC
330
1F
100
AcDbEntity
  8
0-0
  6
Continuous
 62
    92
370
    13
100
AcDbLine
 10
2951.460347272051
 20
-1708.269956119498
 30
0.0
 11
2557.603935081289
 21
-1708.269956119498
 31
0.0
  0
LINE
  5
2BD
330
1F
100
AcDbEntity
  8
0-0
  6
Continuous
 62
    92
370
    13
100
AcDbLine
 10
1563.739567885629
 20
-1708.269956119498
 30
0.0
 11
2522.962918929912
 21
-1708.269956119498
 31
0.0
  0
LINE
  5
2BE
330
1F
100
AcDbEntity
  8
0-0
  6
Continuous
 62
    92
370
    13
100
AcDbLine
 10
1563.739567885629
 20
-1708.269956119498
 30
0.0
 11
1515.099957578841
 21
-1756.909566426287
 31
0.0
  0
LINE
  5
2BF
330
1F
100
AcDbEntity
  8
0-0
  6
Continuous
 62
    92
370
    13
100
AcDbLine
 10
1515.099957578841
 20
-1756.909566426287
 30
0.0
 11
1515.099957578841
 21
-2060.769956119498
 31
0.0
  0
LINE
  5
2C0
330
1F
100
AcDbEntity
  8
0-0
  6
Continuous
 62
    92
370
    13
100
AcDbLine
 10
1560.632966167831
 20
-1700.769956119498
 30
0.0
 11
1507.599957578841
 21
-1753.802964708488
 31
0.0
  0
LINE
  5
2C1
330
1F
100
AcDbEntity
  8
0-0
  6
Continuous
 62
    92
370
    13
100
AcDbLine
 10
1507.599957578841
 20
-1753.802964708488
 30
0.0
 11
1507.599957578841
 21
-2060.769956119498
 31
0.0
  0
LINE
  5
2C2
330
1F
100
AcDbEntity
  8
0-0
  6
Continuous
 62
    92
370
    13
100
AcDbLine
 10
1560.632966167831
 20
-1700.769956119498
 30
0.0
 11
2527.293045948835
 21
-1700.769956119498
 31
0.0
  0
LINE
  5
2C3
330
1F
100
AcDbEntity
  8
0-0
  6
Continuous
 62
    92
370
    13
100
AcDbLine
 10
2954.56694898985
 20
-1700.769956119498
 30
0.0
 11
3007.599957578841
 21
-1753.802964708488
 31
0.0
  0
LINE
  5
2C4
330
1F
100
AcDbEntity
  8
0-0
  6
Continuous
 62
    92
370
    13
100
AcDbLine
 10
3007.599957578841
 20
-1753.802964708488
 30
0.0
 11
3007.599957578841
 21
-2060.769956119498
 31
0.0
  0
LINE
  5
2C5
330
1F
100
AcDbEntity
  8
0-0
  6
Continuous
 62
    92
370
    13
100
AcDbLine
 10
2954.56694898985
 20
-1700.769956119498
 30
0.0
 11
2561.934062100212
 21
-1700.769956119498
 31
0.0
  0
LINE
  5
2C6
330
1F
100
AcDbEntity
  8
0-0
  6
Continuous
 62
    92
370
    13
100
AcDbLine
 10
2407.473946877207
 20
-2060.769956119498
 30
0.0
 11
3007.599957578841
 21
-2060.769956119498
 31
0.0
  0
LINE
  5
2C7
330
1F
100
AcDbEntity
  8
0-0
  6
Continuous
 62
    92
370
    13
100
AcDbLine
 10
1507.599957578841
 20
-2060.769956119498
 30
0.0
 11
2372.83293072583
 21
-2060.769956119498
 31
0.0
  0
LINE
  5
2C8
330
1F
100
AcDbEntity
  8
0-0
  6
Continuous
 62
    92
370
    13
100
AcDbLine
 10
2707.599957578841
 20
-2060.769956119498
 30
0.0
 11
2707.599957578841
 21
-2053.269956119498
 31
0.0
  0
LINE
  5
2C9
330
1F
100
AcDbEntity
  8
0-0
  6
Continuous
 62
    92
370
    13
100
AcDbLine
 10
3007.599957578841
 20
-2053.269956119498
 30
0.0
 11
2707.599957578841
 21
-2053.269956119498
 31
0.0
  0
LINE
  5
2CA
330
1F
100
AcDbEntity
  8
0-0
  6
Continuous
 62
    92
370
    13
100
AcDbLine
 10
1807.599957578841
 20
-2060.769956119498
 30
0.0
 11
1807.599957578841
 21
-2053.269956119498
 31
0.0
  0
LINE
  5
2CB
330
1F
100
AcDbEntity
  8
0-0
  6
Continuous
 62
    92
370
    13
100
AcDbLine
 10
1507.599957578841
 20
-2053.269956119498
 30
0.0
 11
1807.599957578841
 21
-2053.269956119498
 31
0.0
  0
LINE
  5
2CC
330
1F
100
AcDbEntity
  8
0-0
  6
JWW_HOJO
 62
     7
370
     9
100
AcDbLine
 10
3007.599957578841
 20
-1550.769956119498
 30
0.0
 11
1357.599957578841
 21
-1550.769956119498
 31
0.0
  0
LINE
  5
2CD
330
1F
100
AcDbEntity
  8
0-0
  6
JWW_HOJO
 62
     7
370
     9
100
AcDbLine
 10
3007.599957578841
 20
-2210.769956119498
 30
0.0
 11
3007.599957578841
 21
-1550.769956119498
 31
0.0
  0
LINE
  5
2CE
330
1F
100
AcDbEntity
  8
0-0
  6
JWW_HOJO
 62
     7
370
     9
100
AcDbLine
 10
3007.599957578841
 20
-1625.769956119498
 30
0.0
 11
1432.599957578841
 21
-1625.769956119498
 31
0.0
  0
LINE
  5
2CF
330
1F
100
AcDbEntity
  8
0-0
  6
JWW_HOJO
 62
     7
370
     9
100
AcDbLine
 10
1357.599957578841
 20
-2210.769956119498
 30
0.0
 11
3007.599957578841
 21
-2210.769956119498
 31
0.0
  0
LINE
  5
2D0
330
1F
100
AcDbEntity
  8
0-0
  6
JWW_HOJO
 62
     7
370
     9
100
AcDbLine
 10
1432.599957578841
 20
-2135.769956119498
 30
0.0
 11
3007.599957578841
 21
-2135.769956119498
 31
0.0
  0
LINE
  5
2D1
330
1F
100
AcDbEntity
  8
0-0
  6
JWW_HOJO
 62
     7
370
     9
100
AcDbLine
 10
1432.599957578841
 20
-2135.769956119498
 30
0.0
 11
1432.599957578841
 21
-1625.769956119498
 31
0.0
  0
LINE
  5
2D2
330
1F
100
AcDbEntity
  8
0-0
  6
JWW_HOJO
 62
     7
370
     9
100
AcDbLine
 10
1357.599957578841
 20
-2210.769956119498
 30
0.0
 11
1357.599957578841
 21
-1550.769956119498
 31
0.0
  0
LINE
  5
2D3
330
1F
100
AcDbEntity
  8
0-0
  6
Continuous
 62
     7
370
     9
100
AcDbLine
 10
2545.528281765176
 20
-1821.652833888409
 30
0.0
 11
2364.172676687985
 21
-2135.769956119498
 31
0.0
  0
LINE
  5
2D4
330
1F
100
AcDbEntity
  8
0-0
  6
Continuous
 62
     7
370
     9
100
AcDbLine
 10
2493.566757538109
 20
-1851.652833888409
 30
0.0
 11
2329.531660536608
 21
-2135.769956119498
 31
0.0
  0
LINE
  5
2D5
330
1F
100
AcDbEntity
  8
0-0
  6
Continuous
 62
     7
370
     9
100
AcDbLine
 10
2579.2545701759
 20
-1670.769956119498
 30
0.0
 11
2492.142300079915
 21
-1821.652833888409
 31
0.0
  0
LINE
  5
2D6
330
1F
100
AcDbEntity
  8
0-0
  6
Continuous
 62
     7
370
     9
100
AcDbLine
 10
2544.613554024523
 20
-1670.769956119498
 30
0.0
 11
2440.180775852848
 21
-1851.652833888409
 31
0.0
  0
LINE
  5
2D7
330
1F
100
AcDbEntity
  8
0-0
  6
Continuous
 62
     7
370
     9
100
AcDbLine
 10
2492.142300079915
 20
-1821.652833888409
 30
0.0
 11
2545.528281765176
 21
-1821.652833888409
 31
0.0
  0
LINE
  5
2D8
330
1F
100
AcDbEntity
  8
0-0
  6
Continuous
 62
     7
370
     9
100
AcDbLine
 10
2440.180775852848
 20
-1851.652833888409
 30
0.0
 11
2493.566757538109
 21
-1851.652833888409
 31
0.0
  0
MTEXT
  5
2D9
330
1F
100
AcDbEntity
  8
0-0
  6
Continuous
 62
     7
370
   211
100
AcDbMText
 10
2190.099957578841
 20
-296.4798762170551
 30
0.0
 40
68.57999999999998
 41
135.0
 46
0.0
 71
     7
 72
     1
  1
{\fＭＳ ゴシック|b0|i0|c128|p49;138}
 73
     1
 44
1.0
  0
LINE
  5
2DA
330
1F
100
AcDbEntity
  8
0-0
  6
Continuous
 62
   120
370
     5
100
AcDbLine
 10
1357.599957578841
 20
-810.7698762170543
 30
0.0
 11
1432.599957578841
 21
-810.7698762170543
 31
0.0
  0
LINE
  5
2DB
330
1F
100
AcDbEntity
  8
0-0
  6
Continuous
 62
   120
370
     5
100
AcDbLine
 10
1357.599957578841
 20
-450.7698762170551
 30
0.0
 11
1432.599957578841
 21
-450.7698762170551
 31
0.0
  0
LWPOLYLINE
  5
2DC
330
1F
100
AcDbEntity
  8
0-0
  6
Continuous
 62
     7
370
     9
100
AcDbPolyline
 90
        4
 70
     1
 43
3.0
 10
1359.099957578841
 20
-810.7698762170543
 42
0.4142135623731
 10
1357.599957578841
 20
-809.2698762170543
 42
0.4142135623731
 10
1356.099957578841
 20
-810.7698762170543
 42
0.4142135623731
 10
1357.599957578841
 20
-812.2698762170543
 42
0.4142135623731
  0
LWPOLYLINE
  5
2DD
330
1F
100
AcDbEntity
  8
0-0
  6
Continuous
 62
     7
370
     9
100
AcDbPolyline
 90
        4
 70
     1
 43
3.0
 10
1359.099957578841
 20
-450.7698762170551
 42
0.4142135623731
 10
1357.599957578841
 20
-449.2698762170551
 42
0.4142135623731
 10
1356.099957578841
 20
-450.7698762170551
 42
0.4142135623731
 10
1357.599957578841
 20
-452.2698762170551
 42
0.4142135623731
  0
LINE
  5
2DE
330
1F
100
AcDbEntity
  8
0-0
  6
Continuous
 62
   120
370
     5
100
AcDbLine
 10
1357.599957578841
 20
-450.7698762170551
 30
0.0
 11
1357.599957578841
 21
-810.7698762170543
 31
0.0
  0
MTEXT
  5
2DF
330
1F
100
AcDbEntity
  8
0-0
  6
Continuous
 62
     7
370
   211
100
AcDbMText
 10
2812.599957578841
 20
-956.4798762170543
 30
0.0
 40
68.58
 41
90.0
 46
0.0
 71
     7
 72
     1
  1
{\fＭＳ ゴシック|b0|i0|c128|p49;20}
 73
     1
 44
1.0
  0
LINE
  5
2E0
330
1F
100
AcDbEntity
  8
0-0
  6
Continuous
 62
   120
370
     5
100
AcDbLine
 10
3007.599957578841
 20
-960.7698762170543
 30
0.0
 11
3007.599957578841
 21
-885.7698762170543
 31
0.0
  0
LINE
  5
2E1
330
1F
100
AcDbEntity
  8
0-0
  6
Continuous
 62
   120
370
     5
100
AcDbLine
 10
2707.599957578841
 20
-960.7698762170543
 30
0.0
 11
2707.599957578841
 21
-885.7698762170543
 31
0.0
  0
LWPOLYLINE
  5
2E2
330
1F
100
AcDbEntity
  8
0-0
  6
Continuous
 62
     7
370
     9
100
AcDbPolyline
 90
        4
 70
     1
 43
3.0
 10
3009.099957578841
 20
-960.7698762170543
 42
0.4142135623731
 10
3007.599957578841
 20
-959.2698762170543
 42
0.4142135623731
 10
3006.099957578841
 20
-960.7698762170543
 42
0.4142135623731
 10
3007.599957578841
 20
-962.2698762170542
 42
0.4142135623731
  0
LWPOLYLINE
  5
2E3
330
1F
100
AcDbEntity
  8
0-0
  6
Continuous
 62
     7
370
     9
100
AcDbPolyline
 90
        4
 70
     1
 43
3.0
 10
2709.099957578841
 20
-960.7698762170543
 42
0.4142135623731
 10
2707.599957578841
 20
-959.2698762170543
 42
0.4142135623731
 10
2706.099957578841
 20
-960.7698762170543
 42
0.4142135623731
 10
2707.599957578841
 20
-962.2698762170542
 42
0.4142135623731
  0
LINE
  5
2E4
330
1F
100
AcDbEntity
  8
0-0
  6
Continuous
 62
   120
370
     5
100
AcDbLine
 10
2707.599957578841
 20
-960.7698762170543
 30
0.0
 11
3007.599957578841
 21
-960.7698762170543
 31
0.0
  0
MTEXT
  5
2E5
330
1F
100
AcDbEntity
  8
0-0
  6
Continuous
 62
     7
370
   211
100
AcDbMText
 10
1612.599957578841
 20
-956.4798762170543
 30
0.0
 40
68.58
 41
90.0
 46
0.0
 71
     7
 72
     1
  1
{\fＭＳ ゴシック|b0|i0|c128|p49;20}
 73
     1
 44
1.0
  0
LINE
  5
2E6
330
1F
100
AcDbEntity
  8
0-0
  6
Continuous
 62
   120
370
     5
100
AcDbLine
 10
1807.599957578841
 20
-960.7698762170543
 30
0.0
 11
1807.599957578841
 21
-885.7698762170543
 31
0.0
  0
LINE
  5
2E7
330
1F
100
AcDbEntity
  8
0-0
  6
Continuous
 62
   120
370
     5
100
AcDbLine
 10
1507.599957578841
 20
-960.7698762170543
 30
0.0
 11
1507.599957578841
 21
-885.7698762170543
 31
0.0
  0
LWPOLYLINE
  5
2E8
330
1F
100
AcDbEntity
  8
0-0
  6
Continuous
 62
     7
370
     9
100
AcDbPolyline
 90
        4
 70
     1
 43
3.0
 10
1809.099957578841
 20
-960.7698762170543
 42
0.4142135623731
 10
1807.599957578841
 20
-959.2698762170543
 42
0.4142135623731
 10
1806.099957578841
 20
-960.7698762170543
 42
0.4142135623731
 10
1807.599957578841
 20
-962.2698762170542
 42
0.4142135623731
  0
LWPOLYLINE
  5
2E9
330
1F
100
AcDbEntity
  8
0-0
  6
Continuous
 62
     7
370
     9
100
AcDbPolyline
 90
        4
 70
     1
 43
3.0
 10
1509.099957578841
 20
-960.7698762170543
 42
0.4142135623731
 10
1507.599957578841
 20
-959.2698762170543
 42
0.4142135623731
 10
1506.099957578841
 20
-960.7698762170543
 42
0.4142135623731
 10
1507.599957578841
 20
-962.2698762170542
 42
0.4142135623731
  0
LINE
  5
2EA
330
1F
100
AcDbEntity
  8
0-0
  6
Continuous
 62
   120
370
     5
100
AcDbLine
 10
1507.599957578841
 20
-960.7698762170543
 30
0.0
 11
1807.599957578841
 21
-960.7698762170543
 31
0.0
  0
LINE
  5
2EB
330
1F
100
AcDbEntity
  8
0-0
  6
Continuous
 62
   120
370
     5
100
AcDbLine
 10
3007.599957578841
 20
-300.7698762170551
 30
0.0
 11
3007.599957578841
 21
-375.7698762170551
 31
0.0
  0
LINE
  5
2EC
330
1F
100
AcDbEntity
  8
0-0
  6
Continuous
 62
   120
370
     5
100
AcDbLine
 10
1507.599957578841
 20
-300.7698762170551
 30
0.0
 11
1507.599957578841
 21
-375.7698762170551
 31
0.0
  0
LWPOLYLINE
  5
2ED
330
1F
100
AcDbEntity
  8
0-0
  6
Continuous
 62
     7
370
     9
100
AcDbPolyline
 90
        4
 70
     1
 43
3.0
 10
3009.099957578841
 20
-300.7698762170551
 42
0.4142135623731
 10
3007.599957578841
 20
-299.2698762170551
 42
0.4142135623731
 10
3006.099957578841
 20
-300.7698762170551
 42
0.4142135623731
 10
3007.599957578841
 20
-302.2698762170551
 42
0.4142135623731
  0
LWPOLYLINE
  5
2EE
330
1F
100
AcDbEntity
  8
0-0
  6
Continuous
 62
     7
370
     9
100
AcDbPolyline
 90
        4
 70
     1
 43
3.0
 10
1509.099957578841
 20
-300.7698762170551
 42
0.4142135623731
 10
1507.599957578841
 20
-299.2698762170551
 42
0.4142135623731
 10
1506.099957578841
 20
-300.7698762170551
 42
0.4142135623731
 10
1507.599957578841
 20
-302.2698762170551
 42
0.4142135623731
  0
LINE
  5
2EF
330
1F
100
AcDbEntity
  8
0-0
  6
Continuous
 62
   120
370
     5
100
AcDbLine
 10
1507.599957578841
 20
-300.7698762170551
 30
0.0
 11
3007.599957578841
 21
-300.7698762170551
 31
0.0
  0
LINE
  5
2F0
330
1F
100
AcDbEntity
  8
0-0
  6
Continuous
 62
    92
370
    13
100
AcDbLine
 10
3000.099957578841
 20
-506.9094865238432
 30
0.0
 11
3000.099957578841
 21
-810.7698762170543
 31
0.0
  0
LINE
  5
2F1
330
1F
100
AcDbEntity
  8
0-0
  6
Continuous
 62
    92
370
    13
100
AcDbLine
 10
2951.460347272051
 20
-458.2698762170551
 30
0.0
 11
3000.099957578841
 21
-506.9094865238432
 31
0.0
  0
LINE
  5
2F2
330
1F
100
AcDbEntity
  8
0-0
  6
Continuous
 62
    92
370
    13
100
AcDbLine
 10
2951.460347272051
 20
-458.2698762170551
 30
0.0
 11
2557.603935081291
 21
-458.2698762170551
 31
0.0
  0
LINE
  5
2F3
330
1F
100
AcDbEntity
  8
0-0
  6
Continuous
 62
    92
370
    13
100
AcDbLine
 10
1515.099957578841
 20
-506.9094865238432
 30
0.0
 11
1515.099957578841
 21
-810.7698762170543
 31
0.0
  0
LINE
  5
2F4
330
1F
100
AcDbEntity
  8
0-0
  6
Continuous
 62
    92
370
    13
100
AcDbLine
 10
1563.739567885629
 20
-458.2698762170551
 30
0.0
 11
1515.099957578841
 21
-506.9094865238432
 31
0.0
  0
LINE
  5
2F5
330
1F
100
AcDbEntity
  8
0-0
  6
Continuous
 62
    92
370
    13
100
AcDbLine
 10
1563.739567885629
 20
-458.2698762170551
 30
0.0
 11
2522.962918929912
 21
-458.2698762170551
 31
0.0
  0
LINE
  5
2F6
330
1F
100
AcDbEntity
  8
0-0
  6
Continuous
 62
    92
370
    13
100
AcDbLine
 10
1507.599957578841
 20
-503.8028848060449
 30
0.0
 11
1507.599957578841
 21
-810.7698762170543
 31
0.0
  0
LINE
  5
2F7
330
1F
100
AcDbEntity
  8
0-0
  6
Continuous
 62
    92
370
    13
100
AcDbLine
 10
2954.56694898985
 20
-450.7698762170551
 30
0.0
 11
3007.599957578841
 21
-503.8028848060449
 31
0.0
  0
LINE
  5
2F8
330
1F
100
AcDbEntity
  8
0-0
  6
Continuous
 62
    92
370
    13
100
AcDbLine
 10
3007.599957578841
 20
-503.8028848060449
 30
0.0
 11
3007.599957578841
 21
-810.7698762170543
 31
0.0
  0
LINE
  5
2F9
330
1F
100
AcDbEntity
  8
0-0
  6
Continuous
 62
    92
370
    13
100
AcDbLine
 10
2954.56694898985
 20
-450.7698762170551
 30
0.0
 11
2561.934062100212
 21
-450.7698762170551
 31
0.0
  0
LINE
  5
2FA
330
1F
100
AcDbEntity
  8
0-0
  6
Continuous
 62
    92
370
    13
100
AcDbLine
 10
2407.473946877207
 20
-810.7698762170543
 30
0.0
 11
3007.599957578841
 21
-810.7698762170543
 31
0.0
  0
LINE
  5
2FB
330
1F
100
AcDbEntity
  8
0-0
  6
Continuous
 62
    92
370
    13
100
AcDbLine
 10
1507.599957578841
 20
-810.7698762170543
 30
0.0
 11
2372.832930725832
 21
-810.7698762170543
 31
0.0
  0
LINE
  5
2FC
330
1F
100
AcDbEntity
  8
0-0
  6
Continuous
 62
    92
370
    13
100
AcDbLine
 10
2707.599957578841
 20
-810.7698762170543
 30
0.0
 11
2707.599957578841
 21
-803.2698762170543
 31
0.0
  0
LINE
  5
2FD
330
1F
100
AcDbEntity
  8
0-0
  6
Continuous
 62
    92
370
    13
100
AcDbLine
 10
3007.599957578841
 20
-803.2698762170543
 30
0.0
 11
2707.599957578841
 21
-803.2698762170543
 31
0.0
  0
LINE
  5
2FE
330
1F
100
AcDbEntity
  8
0-0
  6
Continuous
 62
    92
370
    13
100
AcDbLine
 10
1807.599957578841
 20
-810.7698762170543
 30
0.0
 11
1807.599957578841
 21
-803.2698762170543
 31
0.0
  0
LINE
  5
2FF
330
1F
100
AcDbEntity
  8
0-0
  6
Continuous
 62
    92
370
    13
100
AcDbLine
 10
1507.599957578841
 20
-803.2698762170543
 30
0.0
 11
1807.599957578841
 21
-803.2698762170543
 31
0.0
  0
LINE
  5
300
330
1F
100
AcDbEntity
  8
0-0
  6
JWW_HOJO
 62
     7
370
     9
100
AcDbLine
 10
3007.599957578841
 20
-300.7698762170551
 30
0.0
 11
1357.599957578841
 21
-300.7698762170551
 31
0.0
  0
LINE
  5
301
330
1F
100
AcDbEntity
  8
0-0
  6
JWW_HOJO
 62
     7
370
     9
100
AcDbLine
 10
3007.599957578841
 20
-375.7698762170551
 30
0.0
 11
1432.599957578841
 21
-375.7698762170551
 31
0.0
  0
LINE
  5
302
330
1F
100
AcDbEntity
  8
0-0
  6
JWW_HOJO
 62
     7
370
     9
100
AcDbLine
 10
1357.599957578841
 20
-960.7698762170543
 30
0.0
 11
3007.599957578841
 21
-960.7698762170543
 31
0.0
  0
LINE
  5
303
330
1F
100
AcDbEntity
  8
0-0
  6
JWW_HOJO
 62
     7
370
     9
100
AcDbLine
 10
1432.599957578841
 20
-885.7698762170543
 30
0.0
 11
3007.599957578841
 21
-885.7698762170543
 31
0.0
  0
LINE
  5
304
330
1F
100
AcDbEntity
  8
0-0
  6
JWW_HOJO
 62
     7
370
     9
100
AcDbLine
 10
1432.599957578841
 20
-885.7698762170543
 30
0.0
 11
1432.599957578841
 21
-375.7698762170551
 31
0.0
  0
LINE
  5
305
330
1F
100
AcDbEntity
  8
0-0
  6
JWW_HOJO
 62
     7
370
     9
100
AcDbLine
 10
1357.599957578841
 20
-960.7698762170543
 30
0.0
 11
1357.599957578841
 21
-300.7698762170551
 31
0.0
  0
LINE
  5
306
330
1F
100
AcDbEntity
  8
0-0
  6
Continuous
 62
     7
370
     9
100
AcDbLine
 10
2545.528281765176
 20
-571.6527539859658
 30
0.0
 11
2364.172676687985
 21
-885.7698762170543
 31
0.0
  0
LINE
  5
307
330
1F
100
AcDbEntity
  8
0-0
  6
Continuous
 62
     7
370
     9
100
AcDbLine
 10
2493.566757538109
 20
-601.6527539859658
 30
0.0
 11
2329.53166053661
 21
-885.7698762170543
 31
0.0
  0
LINE
  5
308
330
1F
100
AcDbEntity
  8
0-0
  6
Continuous
 62
     7
370
     9
100
AcDbLine
 10
2579.254570175902
 20
-420.7698762170551
 30
0.0
 11
2492.142300079915
 21
-571.6527539859658
 31
0.0
  0
LINE
  5
309
330
1F
100
AcDbEntity
  8
0-0
  6
Continuous
 62
     7
370
     9
100
AcDbLine
 10
2544.613554024523
 20
-420.7698762170551
 30
0.0
 11
2440.180775852848
 21
-601.6527539859658
 31
0.0
  0
LINE
  5
30A
330
1F
100
AcDbEntity
  8
0-0
  6
Continuous
 62
     7
370
     9
100
AcDbLine
 10
2492.142300079915
 20
-571.6527539859658
 30
0.0
 11
2545.528281765176
 21
-571.6527539859658
 31
0.0
  0
LINE
  5
30B
330
1F
100
AcDbEntity
  8
0-0
  6
Continuous
 62
     7
370
     9
100
AcDbLine
 10
2440.180775852848
 20
-601.6527539859658
 30
0.0
 11
2493.566757538109
 21
-601.6527539859658
 31
0.0
  0
LINE
  5
30C
330
1F
100
AcDbEntity
  8
0-0
  6
JWW_HOJO
 62
     7
370
     9
100
AcDbLine
 10
3007.599957578841
 20
-960.7698762170543
 30
0.0
 11
3007.599957578841
 21
-300.7698762170551
 31
0.0
  0
LINE
  5
30D
330
1F
100
AcDbEntity
  8
0-0
  6
Continuous
 62
    92
370
    13
100
AcDbLine
 10
1560.632966167833
 20
-450.7698762170551
 30
0.0
 11
1507.599957578841
 21
-503.8028848060449
 31
0.0
  0
LINE
  5
30E
330
1F
100
AcDbEntity
  8
0-0
  6
Continuous
 62
    92
370
    13
100
AcDbLine
 10
1560.632966167833
 20
-450.7698762170551
 30
0.0
 11
2527.293045948835
 21
-450.7698762170551
 31
0.0
  0
MTEXT
  5
30F
330
1F
100
AcDbEntity
  8
0-0
  6
Continuous
 62
     7
370
     9
100
AcDbMText
 10
954.6199876158503
 20
-222.9365433780996
 30
0.0
 40
91.44
 41
300.0
 46
0.0
 71
     7
 72
     1
  1
{\fＭＳ ゴシック|b0|i0|c128|p49;138幅}
 73
     1
 44
1.0
  0
MTEXT
  5
310
330
1F
100
AcDbEntity
  8
0-0
  6
Continuous
 62
     7
370
     9
100
AcDbMText
 10
954.6199876158503
 20
-1472.936623280542
 30
0.0
 40
91.44
 41
300.0
 46
0.0
 71
     7
 72
     1
  1
{\fＭＳ ゴシック|b0|i0|c128|p49;155幅}
 73
     1
 44
1.0
  0
MTEXT
  5
311
330
1F
100
AcDbEntity
  8
0-0
  6
Continuous
 62
     7
370
     9
100
AcDbMText
 10
954.6199876158503
 20
-2722.936703182985
 30
0.0
 40
91.44
 41
300.0
 46
0.0
 71
     7
 72
     1
  1
{\fＭＳ ゴシック|b0|i0|c128|p49;180幅}
 73
     1
 44
1.0
  0
MTEXT
  5
312
330
1F
100
AcDbEntity
  8
0-0
  6
Continuous
 62
     7
370
   211
100
AcDbMText
 10
1342.599957578841
 20
-686.4798762170543
 30
0.0
 40
68.58
 41
90.0
 46
0.0
 71
     7
 72
     1
  1
{\fＭＳ ゴシック|b0|i0|c128|p49;24}
 11
6.123031769111886E-17
 21
1.0
 31
0.0
 73
     1
 44
1.0
  0
MTEXT
  5
313
330
1F
100
AcDbEntity
  8
0-0
  6
Continuous
 62
     7
370
   211
100
AcDbMText
 10
1342.599957578841
 20
-1936.479956119498
 30
0.0
 40
68.58
 41
90.0
 46
0.0
 71
     7
 72
     1
  1
{\fＭＳ ゴシック|b0|i0|c128|p49;24}
 11
6.123031769111886E-17
 21
1.0
 31
0.0
 73
     1
 44
1.0
  0
MTEXT
  5
314
330
1F
100
AcDbEntity
  8
0-0
  6
Continuous
 62
     7
370
   211
100
AcDbMText
 10
1342.599957578841
 20
-3186.48003602194
 30
0.0
 40
68.58
 41
90.0
 46
0.0
 71
     7
 72
     1
  1
{\fＭＳ ゴシック|b0|i0|c128|p49;24}
 11
6.123031769111886E-17
 21
1.0
 31
0.0
 73
     1
 44
1.0
  0
MTEXT
  5
315
330
1F
100
AcDbEntity
  8
0-A
  6
Continuous
 62
     7
370
     9
100
AcDbMText
 10
3574.999719568202
 20
1076.165296887667
 30
0.0
 40
68.58
 41
630.0
 46
0.0
 71
     7
 72
     1
  1
{\fＭＳ ゴシック|b0|i0|c128|p49;3,900×113×24}
 73
     1
 44
1.0
  0
MTEXT
  5
316
330
1F
100
AcDbEntity
  8
0-A
  6
Continuous
 62
     7
370
     9
100
AcDbMText
 10
3574.999719568202
 20
919.915286887668
 30
0.0
 40
68.58
 41
630.0
 46
0.0
 71
     7
 72
     1
  1
{\fＭＳ ゴシック|b0|i0|c128|p49;2,450×113×24}
 73
     1
 44
1.0
  0
MTEXT
  5
317
330
1F
100
AcDbEntity
  8
0-A
  6
Continuous
 62
     7
370
     9
100
AcDbMText
 10
3574.999719568202
 20
763.6652768876686
 30
0.0
 40
68.58
 41
630.0
 46
0.0
 71
     7
 72
     1
  1
{\fＭＳ ゴシック|b0|i0|c128|p49;2,100×113×24}
 73
     1
 44
1.0
  0
MTEXT
  5
318
330
1F
100
AcDbEntity
  8
0-0
  6
Continuous
 62
     7
370
     9
100
AcDbMText
 10
3574.999719568202
 20
-251.959788197695
 30
0.0
 40
68.58
 41
630.0
 46
0.0
 71
     7
 72
     1
  1
{\fＭＳ ゴシック|b0|i0|c128|p49;3,900×138×24}
 73
     1
 44
1.0
  0
MTEXT
  5
319
330
1F
100
AcDbEntity
  8
0-0
  6
Continuous
 62
     7
370
     9
100
AcDbMText
 10
3574.999719568202
 20
-1501.959868100138
 30
0.0
 40
68.58
 41
630.0
 46
0.0
 71
     7
 72
     1
  1
{\fＭＳ ゴシック|b0|i0|c128|p49;3,900×155×24}
 73
     1
 44
1.0
  0
MTEXT
  5
31A
330
1F
100
AcDbEntity
  8
0-0
  6
Continuous
 62
     7
370
     9
100
AcDbMText
 10
3574.999719568202
 20
-2751.959948002581
 30
0.0
 40
68.58
 41
630.0
 46
0.0
 71
     7
 72
     1
  1
{\fＭＳ ゴシック|b0|i0|c128|p49;3,900×180×24}
 73
     1
 44
1.0
  0
LINE
  5
31B
330
1F
100
AcDbEntity
  8
F-1
  6
Continuous
 62
     7
370
     9
100
AcDbLine
 10
5694.998684444944
 20
1210.000301887668
 30
0.0
 11
-145.0013444243788
 21
1210.000301887668
 31
0.0
  0
MTEXT
  5
31C
330
1F
100
AcDbEntity
  8
0-A
  6
Continuous
 62
     7
370
     9
100
AcDbMText
 10
184.9999237060555
 20
2599.530320012669
 30
0.0
 40
99.06
 41
390.0
 46
0.0
 71
     7
 72
     1
  1
{\fＭＳ ゴシック|b0|i0|c128|p49;開口枠}
 73
     1
 44
1.0
  0
MTEXT
  5
31D
330
1F
100
AcDbEntity
  8
0-A
  6
Continuous
 62
     7
370
     0
100
AcDbMText
 10
949.9995216163429
 20
3472.982921887668
 30
0.0
 40
100.965
 41
795.0
 46
0.0
 71
     7
 72
     1
  1
{\f@ＭＳ ゴシック|b0|i0|c128|p49;Ａ型(縦用)・}
 11
-1.836909530733566E-16
 21
-1.0
 31
0.0
 73
     1
 44
1.0
  0
MTEXT
  5
31E
330
1F
100
AcDbEntity
  8
0-A
  6
Continuous
 62
     7
370
     0
100
AcDbMText
 10
949.9995216163429
 20
2222.982841887668
 30
0.0
 40
100.965
 41
795.0
 46
0.0
 71
     7
 72
     1
  1
{\f@ＭＳ ゴシック|b0|i0|c128|p49;Ｂ型(横用)・}
 11
-1.836909530733566E-16
 21
-1.0
 31
0.0
 73
     1
 44
1.0
  0
LINE
  5
31F
330
1F
100
AcDbEntity
  8
0-4
  6
Continuous
 62
    92
370
    13
100
AcDbLine
 10
3184.999156642605
 20
3130.000421887668
 30
0.0
 11
3184.999156642605
 21
2830.000421887668
 31
0.0
  0
LINE
  5
320
330
1F
100
AcDbEntity
  8
0-4
  6
Continuous
 62
    92
370
    13
100
AcDbLine
 10
3124.999156642605
 20
3190.000421887668
 30
0.0
 11
3184.999156642605
 21
3130.000421887668
 31
0.0
  0
LINE
  5
321
330
1F
100
AcDbEntity
  8
0-4
  6
Continuous
 62
    92
370
    13
100
AcDbLine
 10
3177.499156642605
 20
2837.500421887668
 30
0.0
 11
3177.499156642605
 21
3126.89382016987
 31
0.0
  0
LINE
  5
322
330
1F
100
AcDbEntity
  8
0-4
  6
Continuous
 62
    92
370
    13
100
AcDbLine
 10
3177.499156642605
 20
3126.89382016987
 30
0.0
 11
3121.892554924807
 21
3182.500421887668
 31
0.0
  0
LINE
  5
323
330
1F
100
AcDbEntity
  8
0-4
  6
Continuous
 62
    92
370
    13
100
AcDbLine
 10
2884.999156642605
 20
2837.500421887668
 30
0.0
 11
2884.999156642605
 21
2830.000421887668
 31
0.0
  0
LINE
  5
324
330
1F
100
AcDbEntity
  8
0-4
  6
Continuous
 62
    92
370
    13
100
AcDbLine
 10
2884.999156642605
 20
2837.500421887668
 30
0.0
 11
3177.499156642605
 21
2837.500421887668
 31
0.0
  0
LINE
  5
325
330
1F
100
AcDbEntity
  8
0-0
  6
JWW_HOJO
 62
   120
370
     5
100
AcDbLine
 10
3259.999156642605
 20
3265.000421887668
 30
0.0
 11
3259.999156642605
 21
2755.000421887668
 31
0.0
  0
LINE
  5
326
330
1F
100
AcDbEntity
  8
0-0
  6
JWW_HOJO
 62
   120
370
     5
100
AcDbLine
 10
3334.999156642605
 20
3340.000421887668
 30
0.0
 11
3334.999156642605
 21
2680.000421887668
 31
0.0
  0
LINE
  5
327
330
1F
100
AcDbEntity
  8
0-B
  6
Continuous
 62
   120
370
     5
100
AcDbLine
 10
2884.999156642605
 20
2680.000421887668
 30
0.0
 11
3184.999156642605
 21
2680.000421887668
 31
0.0
  0
LWPOLYLINE
  5
328
330
1F
100
AcDbEntity
  8
0-B
  6
Continuous
 62
     7
370
     9
100
AcDbPolyline
 90
        4
 70
     1
 43
3.0
 10
2886.499156642605
 20
2680.000421887668
 42
0.4142135623731
 10
2884.999156642605
 20
2681.500421887668
 42
0.4142135623731
 10
2883.499156642605
 20
2680.000421887668
 42
0.4142135623731
 10
2884.999156642605
 20
2678.500421887669
 42
0.4142135623731
  0
LWPOLYLINE
  5
329
330
1F
100
AcDbEntity
  8
0-B
  6
Continuous
 62
     7
370
     9
100
AcDbPolyline
 90
        4
 70
     1
 43
3.0
 10
3186.499156642605
 20
2680.000421887668
 42
0.4142135623731
 10
3184.999156642605
 20
2681.500421887668
 42
0.4142135623731
 10
3183.499156642605
 20
2680.000421887668
 42
0.4142135623731
 10
3184.999156642605
 20
2678.500421887669
 42
0.4142135623731
  0
LINE
  5
32A
330
1F
100
AcDbEntity
  8
0-B
  6
Continuous
 62
   120
370
     5
100
AcDbLine
 10
2884.999156642605
 20
2680.000421887668
 30
0.0
 11
2884.999156642605
 21
2755.000421887668
 31
0.0
  0
LINE
  5
32B
330
1F
100
AcDbEntity
  8
0-B
  6
Continuous
 62
   120
370
     5
100
AcDbLine
 10
3184.999156642605
 20
2680.000421887668
 30
0.0
 11
3184.999156642605
 21
2755.000421887668
 31
0.0
  0
MTEXT
  5
32C
330
1F
100
AcDbEntity
  8
0-B
  6
Continuous
 62
     7
370
   211
100
AcDbMText
 10
2989.999156642605
 20
2684.290421887668
 30
0.0
 40
68.58
 41
90.0
 46
0.0
 71
     7
 72
     1
  1
{\fＭＳ ゴシック|b0|i0|c128|p49;20}
 73
     1
 44
1.0
  0
LINE
  5
32D
330
1F
100
AcDbEntity
  8
0-B
  6
Continuous
 62
   120
370
     5
100
AcDbLine
 10
3124.999156642605
 20
3340.000421887668
 30
0.0
 11
3184.999156642605
 21
3340.000421887668
 31
0.0
  0
LWPOLYLINE
  5
32E
330
1F
100
AcDbEntity
  8
0-B
  6
Continuous
 62
     7
370
     9
100
AcDbPolyline
 90
        4
 70
     1
 43
3.0
 10
3126.499156642605
 20
3340.000421887668
 42
0.4142135623731
 10
3124.999156642605
 20
3341.500421887668
 42
0.4142135623731
 10
3123.499156642605
 20
3340.000421887668
 42
0.4142135623731
 10
3124.999156642605
 20
3338.500421887669
 42
0.4142135623731
  0
LWPOLYLINE
  5
32F
330
1F
100
AcDbEntity
  8
0-B
  6
Continuous
 62
     7
370
     9
100
AcDbPolyline
 90
        4
 70
     1
 43
3.0
 10
3186.499156642605
 20
3340.000421887668
 42
0.4142135623731
 10
3184.999156642605
 20
3341.500421887668
 42
0.4142135623731
 10
3183.499156642605
 20
3340.000421887668
 42
0.4142135623731
 10
3184.999156642605
 20
3338.500421887669
 42
0.4142135623731
  0
LINE
  5
330
330
1F
100
AcDbEntity
  8
0-B
  6
Continuous
 62
   120
370
     5
100
AcDbLine
 10
3124.999156642605
 20
3340.000421887668
 30
0.0
 11
3124.999156642605
 21
3265.000421887668
 31
0.0
  0
LINE
  5
331
330
1F
100
AcDbEntity
  8
0-B
  6
Continuous
 62
   120
370
     5
100
AcDbLine
 10
3184.999156642605
 20
3490.000421887668
 30
0.0
 11
3184.999156642605
 21
3265.000421887668
 31
0.0
  0
MTEXT
  5
332
330
1F
100
AcDbEntity
  8
0-B
  6
Continuous
 62
     7
370
   211
100
AcDbMText
 10
3132.499156642605
 20
3344.290421887668
 30
0.0
 40
68.58
 41
45.0
 46
0.0
 71
     7
 72
     1
  1
{\fＭＳ ゴシック|b0|i0|c128|p49;4}
 73
     1
 44
1.0
  0
LINE
  5
333
330
1F
100
AcDbEntity
  8
0-B
  6
Continuous
 62
   120
370
     5
100
AcDbLine
 10
3334.999156642605
 20
3130.000421887668
 30
0.0
 11
3334.999156642605
 21
3190.000421887668
 31
0.0
  0
LWPOLYLINE
  5
334
330
1F
100
AcDbEntity
  8
0-B
  6
Continuous
 62
     7
370
     9
100
AcDbPolyline
 90
        4
 70
     1
 43
3.0
 10
3336.499156642605
 20
3130.000421887668
 42
0.4142135623731
 10
3334.999156642605
 20
3131.500421887668
 42
0.4142135623731
 10
3333.499156642605
 20
3130.000421887668
 42
0.4142135623731
 10
3334.999156642605
 20
3128.500421887669
 42
0.4142135623731
  0
LWPOLYLINE
  5
335
330
1F
100
AcDbEntity
  8
0-B
  6
Continuous
 62
     7
370
     9
100
AcDbPolyline
 90
        4
 70
     1
 43
3.0
 10
3336.499156642605
 20
3190.000421887668
 42
0.4142135623731
 10
3334.999156642605
 20
3191.500421887668
 42
0.4142135623731
 10
3333.499156642605
 20
3190.000421887668
 42
0.4142135623731
 10
3334.999156642605
 20
3188.500421887669
 42
0.4142135623731
  0
LINE
  5
336
330
1F
100
AcDbEntity
  8
0-B
  6
Continuous
 62
   120
370
     5
100
AcDbLine
 10
3334.999156642605
 20
3130.000421887668
 30
0.0
 11
3259.999156642605
 21
3130.000421887668
 31
0.0
  0
LINE
  5
337
330
1F
100
AcDbEntity
  8
0-B
  6
Continuous
 62
   120
370
     5
100
AcDbLine
 10
3334.999156642605
 20
3190.000421887668
 30
0.0
 11
3259.999156642605
 21
3190.000421887668
 31
0.0
  0
MTEXT
  5
338
330
1F
100
AcDbEntity
  8
0-B
  6
Continuous
 62
     7
370
   211
100
AcDbMText
 10
3319.999156642605
 20
3126.790421887668
 30
0.0
 40
68.58
 41
45.0
 46
0.0
 71
     7
 72
     1
  1
{\fＭＳ ゴシック|b0|i0|c128|p49;4}
 11
6.123031769111886E-17
 21
1.0
 31
0.0
 73
     1
 44
1.0
  0
LWPOLYLINE
  5
339
330
1F
100
AcDbEntity
  8
0-B
  6
Continuous
 62
     7
370
     9
100
AcDbPolyline
 90
        4
 70
     1
 43
3.0
 10
3186.499156642605
 20
3490.000421887668
 42
0.4142135623731
 10
3184.999156642605
 20
3491.500421887668
 42
0.4142135623731
 10
3183.499156642605
 20
3490.000421887668
 42
0.4142135623731
 10
3184.999156642605
 20
3488.500421887669
 42
0.4142135623731
  0
LINE
  5
33A
330
1F
100
AcDbEntity
  8
0-0
  6
JWW_HOJO
 62
   120
370
     5
100
AcDbLine
 10
3259.999156642605
 20
2015.000341887668
 30
0.0
 11
3259.999156642605
 21
1505.000341887668
 31
0.0
  0
LINE
  5
33B
330
1F
100
AcDbEntity
  8
0-0
  6
JWW_HOJO
 62
   120
370
     5
100
AcDbLine
 10
3334.999156642605
 20
2090.000341887668
 30
0.0
 11
3334.999156642605
 21
1430.000341887668
 31
0.0
  0
LWPOLYLINE
  5
33C
330
1F
100
AcDbEntity
  8
0-B
  6
Continuous
 62
     7
370
     9
100
AcDbPolyline
 90
        4
 70
     1
 43
3.0
 10
3186.499156642605
 20
1430.000341887668
 42
0.4142135623731
 10
3184.999156642605
 20
1431.500341887668
 42
0.4142135623731
 10
3183.499156642605
 20
1430.000341887668
 42
0.4142135623731
 10
3184.999156642605
 20
1428.500341887668
 42
0.4142135623731
  0
LINE
  5
33D
330
1F
100
AcDbEntity
  8
0-B
  6
Continuous
 62
   120
370
     5
100
AcDbLine
 10
3184.999156642605
 20
1430.000341887668
 30
0.0
 11
3184.999156642605
 21
1505.000341887668
 31
0.0
  0
LINE
  5
33E
330
1F
100
AcDbEntity
  8
0-4
  6
Continuous
 62
    92
370
    13
100
AcDbLine
 10
3184.999156642605
 20
1580.000341887668
 30
0.0
 11
3184.999156642605
 21
1940.000341887668
 31
0.0
  0
LINE
  5
33F
330
1F
100
AcDbEntity
  8
0-4
  6
Continuous
 62
    92
370
    13
100
AcDbLine
 10
3177.499156642605
 20
1587.500341887668
 30
0.0
 11
3177.499156642605
 21
1932.500341887668
 31
0.0
  0
LWPOLYLINE
  5
340
330
1F
100
AcDbEntity
  8
0-B
  6
Continuous
 62
     7
370
     9
100
AcDbPolyline
 90
        4
 70
     1
 43
3.0
 10
3186.499156642605
 20
2090.000341887668
 42
0.4142135623731
 10
3184.999156642605
 20
2091.500341887668
 42
0.4142135623731
 10
3183.499156642605
 20
2090.000341887668
 42
0.4142135623731
 10
3184.999156642605
 20
2088.500341887668
 42
0.4142135623731
  0
LINE
  5
341
330
1F
100
AcDbEntity
  8
0-B
  6
Continuous
 62
   120
370
     5
100
AcDbLine
 10
3184.999156642605
 20
2090.000341887668
 30
0.0
 11
3184.999156642605
 21
2015.000341887668
 31
0.0
  0
LINE
  5
342
330
1F
100
AcDbEntity
  8
0-4
  6
Continuous
 62
    92
370
    13
100
AcDbLine
 10
2959.999156642605
 20
1587.500341887668
 30
0.0
 11
2959.999156642605
 21
1580.000341887668
 31
0.0
  0
LINE
  5
343
330
1F
100
AcDbEntity
  8
0-4
  6
Continuous
 62
    92
370
    13
100
AcDbLine
 10
2959.999156642605
 20
1587.500341887668
 30
0.0
 11
3177.499156642605
 21
1587.500341887668
 31
0.0
  0
LINE
  5
344
330
1F
100
AcDbEntity
  8
0-B
  6
Continuous
 62
   120
370
     5
100
AcDbLine
 10
2959.999156642605
 20
1430.000341887668
 30
0.0
 11
3184.999156642605
 21
1430.000341887668
 31
0.0
  0
LWPOLYLINE
  5
345
330
1F
100
AcDbEntity
  8
0-B
  6
Continuous
 62
     7
370
     9
100
AcDbPolyline
 90
        4
 70
     1
 43
3.0
 10
2961.499156642605
 20
1430.000341887668
 42
0.4142135623731
 10
2959.999156642605
 20
1431.500341887668
 42
0.4142135623731
 10
2958.499156642605
 20
1430.000341887668
 42
0.4142135623731
 10
2959.999156642605
 20
1428.500341887668
 42
0.4142135623731
  0
LINE
  5
346
330
1F
100
AcDbEntity
  8
0-B
  6
Continuous
 62
   120
370
     5
100
AcDbLine
 10
2959.999156642605
 20
1430.000341887668
 30
0.0
 11
2959.999156642605
 21
1505.000341887668
 31
0.0
  0
MTEXT
  5
347
330
1F
100
AcDbEntity
  8
0-B
  6
Continuous
 62
     7
370
   211
100
AcDbMText
 10
3027.499156642605
 20
1434.290341887668
 30
0.0
 40
68.58
 41
90.0
 46
0.0
 71
     7
 72
     1
  1
{\fＭＳ ゴシック|b0|i0|c128|p49;15}
 73
     1
 44
1.0
  0
LINE
  5
348
330
1F
100
AcDbEntity
  8
0-4
  6
Continuous
 62
    92
370
    13
100
AcDbLine
 10
1489.999156642605
 20
3130.000421887668
 30
0.0
 11
1489.999156642605
 21
2830.000421887668
 31
0.0
  0
LINE
  5
349
330
1F
100
AcDbEntity
  8
0-4
  6
Continuous
 62
    92
370
    13
100
AcDbLine
 10
1549.999156642605
 20
3190.000421887668
 30
0.0
 11
1489.999156642605
 21
3130.000421887668
 31
0.0
  0
LINE
  5
34A
330
1F
100
AcDbEntity
  8
0-4
  6
Continuous
 62
    92
370
    13
100
AcDbLine
 10
1553.105758360403
 20
3182.500421887668
 30
0.0
 11
1497.499156642605
 21
3126.89382016987
 31
0.0
  0
LINE
  5
34B
330
1F
100
AcDbEntity
  8
0-4
  6
Continuous
 62
    92
370
    13
100
AcDbLine
 10
1497.499156642605
 20
3126.89382016987
 30
0.0
 11
1497.499156642605
 21
2837.500421887668
 31
0.0
  0
LINE
  5
34C
330
1F
100
AcDbEntity
  8
0-4
  6
Continuous
 62
    92
370
    13
100
AcDbLine
 10
1789.999156642605
 20
2837.500421887668
 30
0.0
 11
1789.999156642605
 21
2830.000421887668
 31
0.0
  0
LINE
  5
34D
330
1F
100
AcDbEntity
  8
0-4
  6
Continuous
 62
    92
370
    13
100
AcDbLine
 10
1497.499156642605
 20
2837.500421887668
 30
0.0
 11
1789.999156642605
 21
2837.500421887668
 31
0.0
  0
LINE
  5
34E
330
1F
100
AcDbEntity
  8
0-0
  6
JWW_HOJO
 62
   120
370
     5
100
AcDbLine
 10
1414.999156642605
 20
3265.000421887668
 30
0.0
 11
1414.999156642605
 21
2755.000421887668
 31
0.0
  0
LINE
  5
34F
330
1F
100
AcDbEntity
  8
0-0
  6
JWW_HOJO
 62
   120
370
     5
100
AcDbLine
 10
1414.999156642605
 20
2755.000421887668
 30
0.0
 11
3259.999156642605
 21
2755.000421887668
 31
0.0
  0
LINE
  5
350
330
1F
100
AcDbEntity
  8
0-0
  6
JWW_HOJO
 62
   120
370
     5
100
AcDbLine
 10
3334.999156642605
 20
2680.000421887668
 30
0.0
 11
1339.999156642605
 21
2680.000421887668
 31
0.0
  0
LINE
  5
351
330
1F
100
AcDbEntity
  8
0-0
  6
JWW_HOJO
 62
   120
370
     5
100
AcDbLine
 10
1339.999156642605
 20
2680.000421887668
 30
0.0
 11
1339.999156642605
 21
3340.000421887668
 31
0.0
  0
LINE
  5
352
330
1F
100
AcDbEntity
  8
0-0
  6
JWW_HOJO
 62
   120
370
     5
100
AcDbLine
 10
3259.999156642605
 20
3265.000421887668
 30
0.0
 11
1414.999156642605
 21
3265.000421887668
 31
0.0
  0
LINE
  5
353
330
1F
100
AcDbEntity
  8
0-0
  6
JWW_HOJO
 62
   120
370
     5
100
AcDbLine
 10
1339.999156642605
 20
3340.000421887668
 30
0.0
 11
3334.999156642605
 21
3340.000421887668
 31
0.0
  0
LINE
  5
354
330
1F
100
AcDbEntity
  8
0-B
  6
Continuous
 62
   120
370
     5
100
AcDbLine
 10
1489.999156642605
 20
2680.000421887668
 30
0.0
 11
1789.999156642605
 21
2680.000421887668
 31
0.0
  0
LWPOLYLINE
  5
355
330
1F
100
AcDbEntity
  8
0-B
  6
Continuous
 62
     7
370
     9
100
AcDbPolyline
 90
        4
 70
     1
 43
3.0
 10
1491.499156642605
 20
2680.000421887668
 42
0.4142135623731
 10
1489.999156642605
 20
2681.500421887668
 42
0.4142135623731
 10
1488.499156642605
 20
2680.000421887668
 42
0.4142135623731
 10
1489.999156642605
 20
2678.500421887669
 42
0.4142135623731
  0
LWPOLYLINE
  5
356
330
1F
100
AcDbEntity
  8
0-B
  6
Continuous
 62
     7
370
     9
100
AcDbPolyline
 90
        4
 70
     1
 43
3.0
 10
1791.499156642605
 20
2680.000421887668
 42
0.4142135623731
 10
1789.999156642605
 20
2681.500421887668
 42
0.4142135623731
 10
1788.499156642605
 20
2680.000421887668
 42
0.4142135623731
 10
1789.999156642605
 20
2678.500421887669
 42
0.4142135623731
  0
LINE
  5
357
330
1F
100
AcDbEntity
  8
0-B
  6
Continuous
 62
   120
370
     5
100
AcDbLine
 10
1489.999156642605
 20
2680.000421887668
 30
0.0
 11
1489.999156642605
 21
2755.000421887668
 31
0.0
  0
LINE
  5
358
330
1F
100
AcDbEntity
  8
0-B
  6
Continuous
 62
   120
370
     5
100
AcDbLine
 10
1789.999156642605
 20
2680.000421887668
 30
0.0
 11
1789.999156642605
 21
2755.000421887668
 31
0.0
  0
MTEXT
  5
359
330
1F
100
AcDbEntity
  8
0-B
  6
Continuous
 62
     7
370
   211
100
AcDbMText
 10
1594.999156642605
 20
2684.290421887668
 30
0.0
 40
68.58
 41
90.0
 46
0.0
 71
     7
 72
     1
  1
{\fＭＳ ゴシック|b0|i0|c128|p49;20}
 73
     1
 44
1.0
  0
LINE
  5
35A
330
1F
100
AcDbEntity
  8
0-B
  6
Continuous
 62
   120
370
     5
100
AcDbLine
 10
1339.999156642605
 20
2830.000421887668
 30
0.0
 11
1339.999156642605
 21
3190.000421887668
 31
0.0
  0
LWPOLYLINE
  5
35B
330
1F
100
AcDbEntity
  8
0-B
  6
Continuous
 62
     7
370
     9
100
AcDbPolyline
 90
        4
 70
     1
 43
3.0
 10
1341.499156642605
 20
2830.000421887668
 42
0.4142135623731
 10
1339.999156642605
 20
2831.500421887668
 42
0.4142135623731
 10
1338.499156642605
 20
2830.000421887668
 42
0.4142135623731
 10
1339.999156642605
 20
2828.500421887669
 42
0.4142135623731
  0
LWPOLYLINE
  5
35C
330
1F
100
AcDbEntity
  8
0-B
  6
Continuous
 62
     7
370
     9
100
AcDbPolyline
 90
        4
 70
     1
 43
3.0
 10
1341.499156642605
 20
3190.000421887668
 42
0.4142135623731
 10
1339.999156642605
 20
3191.500421887668
 42
0.4142135623731
 10
1338.499156642605
 20
3190.000421887668
 42
0.4142135623731
 10
1339.999156642605
 20
3188.500421887669
 42
0.4142135623731
  0
LINE
  5
35D
330
1F
100
AcDbEntity
  8
0-B
  6
Continuous
 62
   120
370
     5
100
AcDbLine
 10
1339.999156642605
 20
2830.000421887668
 30
0.0
 11
1414.999156642605
 21
2830.000421887668
 31
0.0
  0
LINE
  5
35E
330
1F
100
AcDbEntity
  8
0-B
  6
Continuous
 62
   120
370
     5
100
AcDbLine
 10
1339.999156642605
 20
3190.000421887668
 30
0.0
 11
1414.999156642605
 21
3190.000421887668
 31
0.0
  0
MTEXT
  5
35F
330
1F
100
AcDbEntity
  8
0-B
  6
Continuous
 62
     7
370
   211
100
AcDbMText
 10
1324.999156642605
 20
2954.290421887668
 30
0.0
 40
68.58
 41
90.0
 46
0.0
 71
     7
 72
     1
  1
{\fＭＳ ゴシック|b0|i0|c128|p49;24}
 11
6.123031769111886E-17
 21
1.0
 31
0.0
 73
     1
 44
1.0
  0
LINE
  5
360
330
1F
100
AcDbEntity
  8
0-0
  6
JWW_HOJO
 62
   120
370
     5
100
AcDbLine
 10
1339.999156642605
 20
3490.000421887668
 30
0.0
 11
3334.999156642605
 21
3490.000421887668
 31
0.0
  0
LINE
  5
361
330
1F
100
AcDbEntity
  8
0-B
  6
Continuous
 62
   120
370
     5
100
AcDbLine
 10
1489.999156642605
 20
3490.000421887668
 30
0.0
 11
3184.999156642605
 21
3490.000421887668
 31
0.0
  0
LWPOLYLINE
  5
362
330
1F
100
AcDbEntity
  8
0-B
  6
Continuous
 62
     7
370
     9
100
AcDbPolyline
 90
        4
 70
     1
 43
3.0
 10
1491.499156642605
 20
3490.000421887668
 42
0.4142135623731
 10
1489.999156642605
 20
3491.500421887668
 42
0.4142135623731
 10
1488.499156642605
 20
3490.000421887668
 42
0.4142135623731
 10
1489.999156642605
 20
3488.500421887669
 42
0.4142135623731
  0
LINE
  5
363
330
1F
100
AcDbEntity
  8
0-B
  6
Continuous
 62
   120
370
     5
100
AcDbLine
 10
1489.999156642605
 20
3490.000421887668
 30
0.0
 11
1489.999156642605
 21
3265.000421887668
 31
0.0
  0
LINE
  5
364
330
1F
100
AcDbEntity
  8
0-0
  6
JWW_HOJO
 62
   120
370
     5
100
AcDbLine
 10
1414.999156642605
 20
2015.000341887668
 30
0.0
 11
1414.999156642605
 21
1505.000341887668
 31
0.0
  0
LINE
  5
365
330
1F
100
AcDbEntity
  8
0-0
  6
JWW_HOJO
 62
   120
370
     5
100
AcDbLine
 10
1414.999156642605
 20
1505.000341887668
 30
0.0
 11
3259.999156642605
 21
1505.000341887668
 31
0.0
  0
LINE
  5
366
330
1F
100
AcDbEntity
  8
0-0
  6
JWW_HOJO
 62
   120
370
     5
100
AcDbLine
 10
3334.999156642605
 20
1430.000341887668
 30
0.0
 11
1339.999156642605
 21
1430.000341887668
 31
0.0
  0
LINE
  5
367
330
1F
100
AcDbEntity
  8
0-0
  6
JWW_HOJO
 62
   120
370
     5
100
AcDbLine
 10
1339.999156642605
 20
1430.000341887668
 30
0.0
 11
1339.999156642605
 21
2090.000341887668
 31
0.0
  0
LINE
  5
368
330
1F
100
AcDbEntity
  8
0-0
  6
JWW_HOJO
 62
   120
370
     5
100
AcDbLine
 10
3259.999156642605
 20
2015.000341887668
 30
0.0
 11
1414.999156642605
 21
2015.000341887668
 31
0.0
  0
LINE
  5
369
330
1F
100
AcDbEntity
  8
0-0
  6
JWW_HOJO
 62
   120
370
     5
100
AcDbLine
 10
1339.999156642605
 20
2090.000341887668
 30
0.0
 11
3334.999156642605
 21
2090.000341887668
 31
0.0
  0
LWPOLYLINE
  5
36A
330
1F
100
AcDbEntity
  8
0-B
  6
Continuous
 62
     7
370
     9
100
AcDbPolyline
 90
        4
 70
     1
 43
3.0
 10
1491.499156642605
 20
1430.000341887668
 42
0.4142135623731
 10
1489.999156642605
 20
1431.500341887668
 42
0.4142135623731
 10
1488.499156642605
 20
1430.000341887668
 42
0.4142135623731
 10
1489.999156642605
 20
1428.500341887668
 42
0.4142135623731
  0
LINE
  5
36B
330
1F
100
AcDbEntity
  8
0-B
  6
Continuous
 62
   120
370
     5
100
AcDbLine
 10
1489.999156642605
 20
1430.000341887668
 30
0.0
 11
1489.999156642605
 21
1505.000341887668
 31
0.0
  0
LINE
  5
36C
330
1F
100
AcDbEntity
  8
0-B
  6
Continuous
 62
   120
370
     5
100
AcDbLine
 10
1339.999156642605
 20
1580.000341887668
 30
0.0
 11
1339.999156642605
 21
1940.000341887668
 31
0.0
  0
LWPOLYLINE
  5
36D
330
1F
100
AcDbEntity
  8
0-B
  6
Continuous
 62
     7
370
     9
100
AcDbPolyline
 90
        4
 70
     1
 43
3.0
 10
1341.499156642605
 20
1580.000341887668
 42
0.4142135623731
 10
1339.999156642605
 20
1581.500341887668
 42
0.4142135623731
 10
1338.499156642605
 20
1580.000341887668
 42
0.4142135623731
 10
1339.999156642605
 20
1578.500341887668
 42
0.4142135623731
  0
LWPOLYLINE
  5
36E
330
1F
100
AcDbEntity
  8
0-B
  6
Continuous
 62
     7
370
     9
100
AcDbPolyline
 90
        4
 70
     1
 43
3.0
 10
1341.499156642605
 20
1940.000341887668
 42
0.4142135623731
 10
1339.999156642605
 20
1941.500341887668
 42
0.4142135623731
 10
1338.499156642605
 20
1940.000341887668
 42
0.4142135623731
 10
1339.999156642605
 20
1938.500341887668
 42
0.4142135623731
  0
LINE
  5
36F
330
1F
100
AcDbEntity
  8
0-B
  6
Continuous
 62
   120
370
     5
100
AcDbLine
 10
1339.999156642605
 20
1580.000341887668
 30
0.0
 11
1414.999156642605
 21
1580.000341887668
 31
0.0
  0
LINE
  5
370
330
1F
100
AcDbEntity
  8
0-B
  6
Continuous
 62
   120
370
     5
100
AcDbLine
 10
1339.999156642605
 20
1940.000341887668
 30
0.0
 11
1414.999156642605
 21
1940.000341887668
 31
0.0
  0
MTEXT
  5
371
330
1F
100
AcDbEntity
  8
0-B
  6
Continuous
 62
     7
370
   211
100
AcDbMText
 10
1324.999156642605
 20
1704.290341887668
 30
0.0
 40
68.58
 41
90.0
 46
0.0
 71
     7
 72
     1
  1
{\fＭＳ ゴシック|b0|i0|c128|p49;24}
 11
6.123031769111886E-17
 21
1.0
 31
0.0
 73
     1
 44
1.0
  0
LINE
  5
372
330
1F
100
AcDbEntity
  8
0-4
  6
Continuous
 62
    92
370
    13
100
AcDbLine
 10
1489.999156642605
 20
1580.000341887668
 30
0.0
 11
1489.999156642605
 21
1940.000341887668
 31
0.0
  0
LINE
  5
373
330
1F
100
AcDbEntity
  8
0-4
  6
Continuous
 62
    92
370
    13
100
AcDbLine
 10
1497.499156642605
 20
1587.500341887668
 30
0.0
 11
1497.499156642605
 21
1932.500341887668
 31
0.0
  0
LINE
  5
374
330
1F
100
AcDbEntity
  8
0-B
  6
Continuous
 62
   120
370
     5
100
AcDbLine
 10
1489.999156642605
 20
2090.000341887668
 30
0.0
 11
3184.999156642605
 21
2090.000341887668
 31
0.0
  0
LWPOLYLINE
  5
375
330
1F
100
AcDbEntity
  8
0-B
  6
Continuous
 62
     7
370
     9
100
AcDbPolyline
 90
        4
 70
     1
 43
3.0
 10
1491.499156642605
 20
2090.000341887668
 42
0.4142135623731
 10
1489.999156642605
 20
2091.500341887668
 42
0.4142135623731
 10
1488.499156642605
 20
2090.000341887668
 42
0.4142135623731
 10
1489.999156642605
 20
2088.500341887668
 42
0.4142135623731
  0
LINE
  5
376
330
1F
100
AcDbEntity
  8
0-B
  6
Continuous
 62
   120
370
     5
100
AcDbLine
 10
1489.999156642605
 20
2090.000341887668
 30
0.0
 11
1489.999156642605
 21
2015.000341887668
 31
0.0
  0
LINE
  5
377
330
1F
100
AcDbEntity
  8
0-4
  6
Continuous
 62
    92
370
    13
100
AcDbLine
 10
1714.999156642605
 20
1587.500341887668
 30
0.0
 11
1714.999156642605
 21
1580.000341887668
 31
0.0
  0
LINE
  5
378
330
1F
100
AcDbEntity
  8
0-4
  6
Continuous
 62
    92
370
    13
100
AcDbLine
 10
1497.499156642605
 20
1587.500341887668
 30
0.0
 11
1714.999156642605
 21
1587.500341887668
 31
0.0
  0
LINE
  5
379
330
1F
100
AcDbEntity
  8
0-B
  6
Continuous
 62
   120
370
     5
100
AcDbLine
 10
1489.999156642605
 20
1430.000341887668
 30
0.0
 11
1714.999156642605
 21
1430.000341887668
 31
0.0
  0
LWPOLYLINE
  5
37A
330
1F
100
AcDbEntity
  8
0-B
  6
Continuous
 62
     7
370
     9
100
AcDbPolyline
 90
        4
 70
     1
 43
3.0
 10
1716.499156642605
 20
1430.000341887668
 42
0.4142135623731
 10
1714.999156642605
 20
1431.500341887668
 42
0.4142135623731
 10
1713.499156642605
 20
1430.000341887668
 42
0.4142135623731
 10
1714.999156642605
 20
1428.500341887668
 42
0.4142135623731
  0
LINE
  5
37B
330
1F
100
AcDbEntity
  8
0-B
  6
Continuous
 62
   120
370
     5
100
AcDbLine
 10
1714.999156642605
 20
1430.000341887668
 30
0.0
 11
1714.999156642605
 21
1505.000341887668
 31
0.0
  0
MTEXT
  5
37C
330
1F
100
AcDbEntity
  8
0-B
  6
Continuous
 62
     7
370
   211
100
AcDbMText
 10
1557.499156642605
 20
1434.290341887668
 30
0.0
 40
68.58
 41
90.0
 46
0.0
 71
     7
 72
     1
  1
{\fＭＳ ゴシック|b0|i0|c128|p49;15}
 73
     1
 44
1.0
  0
LINE
  5
37D
330
1F
100
AcDbEntity
  8
0-A
  6
Continuous
 62
     7
370
     9
100
AcDbLine
 10
2527.927480828939
 20
3069.117544118757
 30
0.0
 11
2346.571875751749
 21
2755.000421887668
 31
0.0
  0
LINE
  5
37E
330
1F
100
AcDbEntity
  8
0-A
  6
Continuous
 62
     7
370
     9
100
AcDbLine
 10
2475.965956601872
 20
3039.117544118757
 30
0.0
 11
2311.930859600371
 21
2755.000421887668
 31
0.0
  0
LINE
  5
37F
330
1F
100
AcDbEntity
  8
0-A
  6
Continuous
 62
     7
370
     9
100
AcDbLine
 10
2561.653769239664
 20
3220.000421887668
 30
0.0
 11
2474.541499143679
 21
3069.117544118757
 31
0.0
  0
LINE
  5
380
330
1F
100
AcDbEntity
  8
0-A
  6
Continuous
 62
     7
370
     9
100
AcDbLine
 10
2527.012753088286
 20
3220.000421887668
 30
0.0
 11
2422.579974916612
 21
3039.117544118757
 31
0.0
  0
LINE
  5
381
330
1F
100
AcDbEntity
  8
0-A
  6
Continuous
 62
     7
370
     9
100
AcDbLine
 10
2474.541499143679
 20
3069.117544118757
 30
0.0
 11
2527.927480828939
 21
3069.117544118757
 31
0.0
  0
LINE
  5
382
330
1F
100
AcDbEntity
  8
0-A
  6
Continuous
 62
     7
370
     9
100
AcDbLine
 10
2422.579974916612
 20
3039.117544118757
 30
0.0
 11
2475.965956601872
 21
3039.117544118757
 31
0.0
  0
LINE
  5
383
330
1F
100
AcDbEntity
  8
0-A
  6
Continuous
 62
     7
370
     9
100
AcDbLine
 10
2527.927480828939
 20
1819.117464118757
 30
0.0
 11
2346.571875751749
 21
1505.000341887668
 31
0.0
  0
LINE
  5
384
330
1F
100
AcDbEntity
  8
0-A
  6
Continuous
 62
     7
370
     9
100
AcDbLine
 10
2475.965956601872
 20
1789.117464118757
 30
0.0
 11
2311.930859600371
 21
1505.000341887668
 31
0.0
  0
LINE
  5
385
330
1F
100
AcDbEntity
  8
0-A
  6
Continuous
 62
     7
370
     9
100
AcDbLine
 10
2561.653769239664
 20
1970.000341887668
 30
0.0
 11
2474.541499143679
 21
1819.117464118757
 31
0.0
  0
LINE
  5
386
330
1F
100
AcDbEntity
  8
0-A
  6
Continuous
 62
     7
370
     9
100
AcDbLine
 10
2527.012753088286
 20
1970.000341887668
 30
0.0
 11
2422.579974916612
 21
1789.117464118757
 31
0.0
  0
LINE
  5
387
330
1F
100
AcDbEntity
  8
0-A
  6
Continuous
 62
     7
370
     9
100
AcDbLine
 10
2474.541499143679
 20
1819.117464118757
 30
0.0
 11
2527.927480828939
 21
1819.117464118757
 31
0.0
  0
LINE
  5
388
330
1F
100
AcDbEntity
  8
0-A
  6
Continuous
 62
     7
370
     9
100
AcDbLine
 10
2422.579974916612
 20
1789.117464118757
 30
0.0
 11
2475.965956601872
 21
1789.117464118757
 31
0.0
  0
LINE
  5
389
330
1F
100
AcDbEntity
  8
0-4
  6
Continuous
 62
    92
370
    13
100
AcDbLine
 10
1489.999156642605
 20
1940.000341887668
 30
0.0
 11
2509.692245012598
 21
1940.000341887668
 31
0.0
  0
LINE
  5
38A
330
1F
100
AcDbEntity
  8
0-4
  6
Continuous
 62
    92
370
    13
100
AcDbLine
 10
1497.499156642605
 20
1932.500341887668
 30
0.0
 11
2505.362117993675
 21
1932.500341887668
 31
0.0
  0
LINE
  5
38B
330
1F
100
AcDbEntity
  8
0-4
  6
Continuous
 62
    92
370
    13
100
AcDbLine
 10
2544.333261163975
 20
1940.000341887668
 30
0.0
 11
3184.999156642605
 21
1940.000341887668
 31
0.0
  0
LINE
  5
38C
330
1F
100
AcDbEntity
  8
0-4
  6
Continuous
 62
    92
370
    13
100
AcDbLine
 10
2540.003134145053
 20
1932.500341887668
 30
0.0
 11
3177.499156642605
 21
1932.500341887668
 31
0.0
  0
LINE
  5
38D
330
1F
100
AcDbEntity
  8
0-4
  6
Continuous
 62
    92
370
    13
100
AcDbLine
 10
1489.999156642605
 20
1580.000341887668
 30
0.0
 11
2355.232129789593
 21
1580.000341887668
 31
0.0
  0
LINE
  5
38E
330
1F
100
AcDbEntity
  8
0-4
  6
Continuous
 62
    92
370
    13
100
AcDbLine
 10
2389.873145940971
 20
1580.000341887668
 30
0.0
 11
3184.999156642605
 21
1580.000341887668
 31
0.0
  0
LINE
  5
38F
330
1F
100
AcDbEntity
  8
0-4
  6
Continuous
 62
    92
370
    13
100
AcDbLine
 10
2509.692245012598
 20
3190.000421887668
 30
0.0
 11
1549.999156642605
 21
3190.000421887668
 31
0.0
  0
LINE
  5
390
330
1F
100
AcDbEntity
  8
0-4
  6
Continuous
 62
    92
370
    13
100
AcDbLine
 10
2505.362117993675
 20
3182.500421887668
 30
0.0
 11
1553.105758360403
 21
3182.500421887668
 31
0.0
  0
LINE
  5
391
330
1F
100
AcDbEntity
  8
0-4
  6
Continuous
 62
    92
370
    13
100
AcDbLine
 10
3124.999156642605
 20
3190.000421887668
 30
0.0
 11
2544.333261163975
 21
3190.000421887668
 31
0.0
  0
LINE
  5
392
330
1F
100
AcDbEntity
  8
0-4
  6
Continuous
 62
    92
370
    13
100
AcDbLine
 10
3121.892554924807
 20
3182.500421887668
 30
0.0
 11
2540.003134145053
 21
3182.500421887668
 31
0.0
  0
LINE
  5
393
330
1F
100
AcDbEntity
  8
0-4
  6
Continuous
 62
    92
370
    13
100
AcDbLine
 10
1489.999156642605
 20
2830.000421887668
 30
0.0
 11
2355.232129789593
 21
2830.000421887668
 31
0.0
  0
LINE
  5
394
330
1F
100
AcDbEntity
  8
0-4
  6
Continuous
 62
    92
370
    13
100
AcDbLine
 10
2389.873145940971
 20
2830.000421887668
 30
0.0
 11
3184.999156642605
 21
2830.000421887668
 31
0.0
  0
MTEXT
  5
395
330
1F
100
AcDbEntity
  8
0-A
  6
Continuous
 62
     7
370
     9
100
AcDbMText
 10
5427.498791668867
 20
3576.165456887668
 30
0.0
 40
68.58
 41
45.0
 46
0.0
 71
     7
 72
     1
  1
{\fＭＳ ゴシック|b0|i0|c128|p49;1}
 73
     1
 44
1.0
  0
MTEXT
  5
396
330
1F
100
AcDbEntity
  8
0-A
  6
Continuous
 62
     7
370
     9
100
AcDbMText
 10
5427.498791668867
 20
3419.915446887669
 30
0.0
 40
68.58
 41
45.0
 46
0.0
 71
     7
 72
     1
  1
{\fＭＳ ゴシック|b0|i0|c128|p49;1}
 73
     1
 44
1.0
  0
MTEXT
  5
397
330
1F
100
AcDbEntity
  8
0-A
  6
Continuous
 62
     7
370
     9
100
AcDbMText
 10
5427.498791668867
 20
2326.165376887669
 30
0.0
 40
68.58
 41
45.0
 46
0.0
 71
     7
 72
     1
  1
{\fＭＳ ゴシック|b0|i0|c128|p49;1}
 73
     1
 44
1.0
  0
MTEXT
  5
398
330
1F
100
AcDbEntity
  8
0-A
  6
Continuous
 62
     7
370
     9
100
AcDbMText
 10
5427.498791668867
 20
2169.915366887669
 30
0.0
 40
68.58
 41
45.0
 46
0.0
 71
     7
 72
     1
  1
{\fＭＳ ゴシック|b0|i0|c128|p49;1}
 73
     1
 44
1.0
  0
LINE
  5
399
330
1F
100
AcDbEntity
  8
F-1
  6
JWW_DASHED1
 62
     7
370
     9
100
AcDbLine
 10
5689.999162829944
 20
2460.000381887668
 30
0.0
 11
904.9995216163429
 21
2460.000381887668
 31
0.0
  0
LINE
  5
39A
330
1F
100
AcDbEntity
  8
F-1
  6
JWW_DASHED1
 62
     7
370
     9
100
AcDbLine
 10
5689.999162829944
 20
2303.750371887668
 30
0.0
 11
3439.999719568202
 21
2303.750371887668
 31
0.0
  0
MTEXT
  5
39B
330
1F
100
AcDbEntity
  8
0-A
  6
Continuous
 62
     7
370
     9
100
AcDbMText
 10
-55.00007629394446
 20
2300.995828378053
 30
0.0
 40
101.9907692307692
 41
870.0
 46
0.0
 71
     7
 72
     1
  1
{\fＭＳ ゴシック|b0|i0|c128|p49;(固定枠170幅)}
 73
     1
 44
1.0
  0
MTEXT
  5
39C
330
1F
100
AcDbEntity
  8
0-B
  6
Continuous
 62
     7
370
   211
100
AcDbMText
 10
2269.999156642605
 20
3494.290421887668
 30
0.0
 40
68.57999999999998
 41
135.0
 46
0.0
 71
     7
 72
     1
  1
{\fＭＳ ゴシック|b0|i0|c128|p49;170}
 73
     1
 44
1.0
  0
MTEXT
  5
39D
330
1F
100
AcDbEntity
  8
0-B
  6
Continuous
 62
     7
370
   211
100
AcDbMText
 10
2269.999156642605
 20
2094.290341887668
 30
0.0
 40
68.57999999999998
 41
135.0
 46
0.0
 71
     7
 72
     1
  1
{\fＭＳ ゴシック|b0|i0|c128|p49;162}
 73
     1
 44
1.0
  0
MTEXT
  5
39E
330
1F
100
AcDbEntity
  8
0-A
  6
Continuous
 62
     7
370
     9
100
AcDbMText
 10
3657.498791668866
 20
3576.165456887668
 30
0.0
 40
68.58
 41
630.0
 46
0.0
 71
     7
 72
     1
  1
{\fＭＳ ゴシック|b0|i0|c128|p49;2,450×170×24}
 73
     1
 44
1.0
  0
MTEXT
  5
39F
330
1F
100
AcDbEntity
  8
0-A
  6
Continuous
 62
     7
370
     9
100
AcDbMText
 10
3657.498791668866
 20
3419.915446887669
 30
0.0
 40
68.58
 41
630.0
 46
0.0
 71
     7
 72
     1
  1
{\fＭＳ ゴシック|b0|i0|c128|p49;2,045×170×24}
 73
     1
 44
1.0
  0
MTEXT
  5
3A0
330
1F
100
AcDbEntity
  8
0-A
  6
Continuous
 62
     7
370
     9
100
AcDbMText
 10
3657.498791668866
 20
2326.165376887669
 30
0.0
 40
68.58
 41
630.0
 46
0.0
 71
     7
 72
     1
  1
{\fＭＳ ゴシック|b0|i0|c128|p49;2,450×162×24}
 73
     1
 44
1.0
  0
MTEXT
  5
3A1
330
1F
100
AcDbEntity
  8
0-A
  6
Continuous
 62
     7
370
     9
100
AcDbMText
 10
3657.498791668866
 20
2169.915366887669
 30
0.0
 40
68.58
 41
630.0
 46
0.0
 71
     7
 72
     1
  1
{\fＭＳ ゴシック|b0|i0|c128|p49;1,900×162×24}
 73
     1
 44
1.0
  0
LINE
  5
3A2
330
1F
100
AcDbEntity
  8
F-1
  6
Continuous
 62
     7
370
     9
100
AcDbLine
 10
5694.998684444944
 20
-39.99977811233236
 30
0.0
 11
-145.0013444243788
 21
-39.99977811233236
 31
0.0
  0
LINE
  5
3A3
330
1F
100
AcDbEntity
  8
F-1
  6
JWW_DASHED1
 62
     7
370
     9
100
AcDbLine
 10
5689.999162829944
 20
1053.750291887668
 30
0.0
 11
3439.999719568202
 21
1053.750291887668
 31
0.0
  0
LINE
  5
3A4
330
1F
100
AcDbEntity
  8
F-1
  6
Continuous
 62
     7
370
     9
100
AcDbLine
 10
5694.998684444944
 20
-2539.999938012333
 30
0.0
 11
904.9995216163429
 21
-2539.999938012333
 31
0.0
  0
LINE
  5
3A5
330
1F
100
AcDbEntity
  8
F-1
  6
Continuous
 62
     7
370
     9
100
AcDbLine
 10
5694.998684444944
 20
-1289.999858112333
 30
0.0
 11
904.9995216163429
 21
-1289.999858112333
 31
0.0
  0
LINE
  5
3A6
330
1F
100
AcDbEntity
  8
F-1
  6
Continuous
 62
     7
370
     9
100
AcDbLine
 10
-155.0003876543789
 20
-1289.999858112333
 30
0.0
 11
-5989.999990205507
 21
-1289.999858112333
 31
0.0
  0
MTEXT
  5
3A7
330
1F
100
AcDbEntity
  8
F-A
  6
Continuous
 62
     7
370
     0
100
AcDbMText
 10
4778.749126529666
 20
-3938.071010139966
 30
0.0
 40
78.86699999999999
 41
517.5
 46
0.0
 71
     7
 72
     1
  1
{\fＭＳ ゴシック|b0|i0|c128|p49;2021.04.01}
 73
     1
 44
1.0
  0
MTEXT
  5
3A8
330
1F
100
AcDbEntity
  8
0-A
  6
Continuous
 62
     7
370
     9
100
AcDbMText
 10
-1400.000758815456
 20
3576.165456887668
 30
0.0
 40
68.58
 41
585.0
 46
0.0
 71
     7
 72
     1
  1
{\fＭＳ ゴシック|b0|i0|c128|p49;ＥＤＢＡ04-□}
 73
     1
 44
1.0
  0
MTEXT
  5
3A9
330
1F
100
AcDbEntity
  8
0-A
  6
Continuous
 62
     7
370
     9
100
AcDbMText
 10
-1400.000758815456
 20
3419.915446887669
 30
0.0
 40
68.58
 41
585.0
 46
0.0
 71
     7
 72
     1
  1
{\fＭＳ ゴシック|b0|i0|c128|p49;ＥＤＢＡ02-□}
 73
     1
 44
1.0
  0
MTEXT
  5
3AA
330
1F
100
AcDbEntity
  8
0-A
  6
Continuous
 62
     7
370
     9
100
AcDbMText
 10
-1400.000758815456
 20
2326.165376887669
 30
0.0
 40
68.58
 41
585.0
 46
0.0
 71
     7
 72
     1
  1
{\fＭＳ ゴシック|b0|i0|c128|p49;ＥＤＢＢ04-□}
 73
     1
 44
1.0
  0
MTEXT
  5
3AB
330
1F
100
AcDbEntity
  8
0-A
  6
Continuous
 62
     7
370
     9
100
AcDbMText
 10
-1400.000758815456
 20
2169.915366887669
 30
0.0
 40
68.58
 41
585.0
 46
0.0
 71
     7
 72
     1
  1
{\fＭＳ ゴシック|b0|i0|c128|p49;ＥＤＢＢ02-□}
 73
     1
 44
1.0
  0
MTEXT
  5
3AC
330
1F
100
AcDbEntity
  8
0-A
  6
Continuous
 62
     7
370
     9
100
AcDbMText
 10
-1400.000758815456
 20
1076.165296887667
 30
0.0
 40
68.58000000000003
 41
585.0000000000002
 46
0.0
 71
     7
 72
     1
  1
{\fＭＳ ゴシック|b0|i0|c128|p49;ＥＤＢＡ34-□}
 73
     1
 44
1.0
  0
MTEXT
  5
3AD
330
1F
100
AcDbEntity
  8
0-A
  6
Continuous
 62
     7
370
     9
100
AcDbMText
 10
-1400.000758815456
 20
919.915286887668
 30
0.0
 40
68.58
 41
585.0
 46
0.0
 71
     7
 72
     1
  1
{\fＭＳ ゴシック|b0|i0|c128|p49;ＥＤＢＡ32-□}
 73
     1
 44
1.0
  0
MTEXT
  5
3AE
330
1F
100
AcDbEntity
  8
0-A
  6
Continuous
 62
     7
370
     9
100
AcDbMText
 10
-1400.000758815456
 20
-173.8347831123321
 30
0.0
 40
68.58
 41
585.0
 46
0.0
 71
     7
 72
     1
  1
{\fＭＳ ゴシック|b0|i0|c128|p49;ＥＤＢＢ34-□}
 73
     1
 44
1.0
  0
MTEXT
  5
3AF
330
1F
100
AcDbEntity
  8
0-A
  6
Continuous
 62
     7
370
     9
100
AcDbMText
 10
-1400.000758815456
 20
-330.0847931123319
 30
0.0
 40
68.58
 41
585.0
 46
0.0
 71
     7
 72
     1
  1
{\fＭＳ ゴシック|b0|i0|c128|p49;ＥＤＢＢ32-□}
 73
     1
 44
1.0
  0
MTEXT
  5
3B0
330
1F
100
AcDbEntity
  8
0-A
  6
Continuous
 62
     7
370
     9
100
AcDbMText
 10
-1400.000758815456
 20
-1423.834863112333
 30
0.0
 40
68.58
 41
585.0
 46
0.0
 71
     7
 72
     1
  1
{\fＭＳ ゴシック|b0|i0|c128|p49;ＥＤＢＡ54-□}
 73
     1
 44
1.0
  0
MTEXT
  5
3B1
330
1F
100
AcDbEntity
  8
0-A
  6
Continuous
 62
     7
370
     9
100
AcDbMText
 10
-1400.000758815456
 20
-1580.084873112333
 30
0.0
 40
68.58
 41
585.0
 46
0.0
 71
     7
 72
     1
  1
{\fＭＳ ゴシック|b0|i0|c128|p49;ＥＤＢＡ52-□}
 73
     1
 44
1.0
  0
MTEXT
  5
3B2
330
1F
100
AcDbEntity
  8
0-A
  6
Continuous
 62
     7
370
     9
100
AcDbMText
 10
-1400.000758815456
 20
-2673.834943112333
 30
0.0
 40
68.58
 41
585.0
 46
0.0
 71
     7
 72
     1
  1
{\fＭＳ ゴシック|b0|i0|c128|p49;ＥＤＢＢ54-□}
 73
     1
 44
1.0
  0
MTEXT
  5
3B3
330
1F
100
AcDbEntity
  8
0-A
  6
Continuous
 62
     7
370
     9
100
AcDbMText
 10
-1400.000758815456
 20
-2830.084953112332
 30
0.0
 40
68.58
 41
585.0
 46
0.0
 71
     7
 72
     1
  1
{\fＭＳ ゴシック|b0|i0|c128|p49;ＥＤＢＢ52-□}
 73
     1
 44
1.0
  0
MTEXT
  5
3B4
330
1F
100
AcDbEntity
  8
0-A
  6
Continuous
 62
     7
370
     9
100
AcDbMText
 10
4444.998791668866
 20
3576.165456887668
 30
0.0
 40
68.58
 41
585.0
 46
0.0
 71
     7
 72
     1
  1
{\fＭＳ ゴシック|b0|i0|c128|p49;ＥＤＢＡ74-□}
 73
     1
 44
1.0
  0
MTEXT
  5
3B5
330
1F
100
AcDbEntity
  8
0-A
  6
Continuous
 62
     7
370
     9
100
AcDbMText
 10
4444.998791668866
 20
3419.915446887669
 30
0.0
 40
68.58
 41
585.0
 46
0.0
 71
     7
 72
     1
  1
{\fＭＳ ゴシック|b0|i0|c128|p49;ＥＤＢＡ72-□}
 73
     1
 44
1.0
  0
MTEXT
  5
3B6
330
1F
100
AcDbEntity
  8
0-A
  6
Continuous
 62
     7
370
     9
100
AcDbMText
 10
4444.998791668866
 20
2326.165376887669
 30
0.0
 40
68.58
 41
585.0
 46
0.0
 71
     7
 72
     1
  1
{\fＭＳ ゴシック|b0|i0|c128|p49;ＥＤＢＢ74-□}
 73
     1
 44
1.0
  0
MTEXT
  5
3B7
330
1F
100
AcDbEntity
  8
0-A
  6
Continuous
 62
     7
370
     9
100
AcDbMText
 10
4444.998791668866
 20
2169.915366887669
 30
0.0
 40
68.58
 41
585.0
 46
0.0
 71
     7
 72
     1
  1
{\fＭＳ ゴシック|b0|i0|c128|p49;ＥＤＢＢ72-□}
 73
     1
 44
1.0
  0
LINE
  5
3B8
330
1F
100
AcDbEntity
  8
F-1
  6
Continuous
 62
     7
370
     9
100
AcDbLine
 10
1114.999521616343
 20
3710.000461887669
 30
0.0
 11
1114.999521616343
 21
-39.99977811233236
 31
0.0
  0
LINE
  5
3B9
330
1F
100
AcDbEntity
  8
0-0
  6
JWW_HOJO
 62
   120
370
     5
100
AcDbLine
 10
3348.458646616544
 20
830.8563873838032
 30
0.0
 11
1293.458646616544
 21
830.8563873838032
 31
0.0
  0
LINE
  5
3BA
330
1F
100
AcDbEntity
  8
0-0
  6
JWW_HOJO
 62
   120
370
     5
100
AcDbLine
 10
3348.458646616544
 20
365.8563873838031
 30
0.0
 11
3348.458646616544
 21
935.8563873838032
 31
0.0
  0
LINE
  5
3BB
330
1F
100
AcDbEntity
  8
0-0
  6
JWW_HOJO
 62
   120
370
     5
100
AcDbLine
 10
3198.458646616544
 20
365.8563873838031
 30
0.0
 11
3348.458646616544
 21
365.8563873838031
 31
0.0
  0
LINE
  5
3BC
330
1F
100
AcDbEntity
  8
0-0
  6
JWW_HOJO
 62
   120
370
     5
100
AcDbLine
 10
1503.458646616544
 20
365.8563873838031
 30
0.0
 11
1293.458646616544
 21
365.8563873838031
 31
0.0
  0
LINE
  5
3BD
330
1F
100
AcDbEntity
  8
0-0
  6
JWW_HOJO
 62
   120
370
     5
100
AcDbLine
 10
1398.458646616544
 20
365.8563873838031
 30
0.0
 11
1398.458646616544
 21
755.8563873838032
 31
0.0
  0
LINE
  5
3BE
330
1F
100
AcDbEntity
  8
0-0
  6
JWW_HOJO
 62
   120
370
     5
100
AcDbLine
 10
3273.458646616544
 20
755.8563873838032
 30
0.0
 11
1398.458646616544
 21
755.8563873838032
 31
0.0
  0
LINE
  5
3BF
330
1F
100
AcDbEntity
  8
0-0
  6
JWW_HOJO
 62
   120
370
     5
100
AcDbLine
 10
3273.458646616544
 20
365.8563873838031
 30
0.0
 11
3273.458646616544
 21
755.8563873838032
 31
0.0
  0
LINE
  5
3C0
330
1F
100
AcDbEntity
  8
0-0
  6
JWW_HOJO
 62
   120
370
     5
100
AcDbLine
 10
1473.458646616544
 20
365.8563873838031
 30
0.0
 11
1473.458646616544
 21
755.8563873838032
 31
0.0
  0
LWPOLYLINE
  5
3C1
330
1F
100
AcDbEntity
  8
0-B
  6
Continuous
 62
     7
370
     9
100
AcDbPolyline
 90
        4
 70
     1
 43
3.0
 10
1294.958646616544
 20
365.8563873838031
 42
0.4142135623731
 10
1293.458646616544
 20
367.3563873838031
 42
0.4142135623731
 10
1291.958646616544
 20
365.8563873838031
 42
0.4142135623731
 10
1293.458646616544
 20
364.3563873838031
 42
0.4142135623731
  0
LWPOLYLINE
  5
3C2
330
1F
100
AcDbEntity
  8
0-B
  6
Continuous
 62
     7
370
     9
100
AcDbPolyline
 90
        4
 70
     1
 43
3.0
 10
1294.958646616544
 20
725.8563873838032
 42
0.4142135623731
 10
1293.458646616544
 20
727.3563873838032
 42
0.4142135623731
 10
1291.958646616544
 20
725.8563873838032
 42
0.4142135623731
 10
1293.458646616544
 20
724.356387383803
 42
0.4142135623731
  0
LINE
  5
3C3
330
1F
100
AcDbEntity
  8
0-B
  6
Continuous
 62
   120
370
     5
100
AcDbLine
 10
1293.458646616544
 20
725.8563873838032
 30
0.0
 11
1293.458646616544
 21
365.8563873838031
 31
0.0
  0
LINE
  5
3C4
330
1F
100
AcDbEntity
  8
0-B
  6
Continuous
 62
   120
370
     5
100
AcDbLine
 10
1293.458646616544
 20
365.8563873838031
 30
0.0
 11
1473.458646616544
 21
365.8563873838031
 31
0.0
  0
LWPOLYLINE
  5
3C5
330
1F
100
AcDbEntity
  8
0-B
  6
Continuous
 62
     7
370
     9
100
AcDbPolyline
 90
        4
 70
     1
 43
3.0
 10
1399.958646616544
 20
365.8563873838031
 42
0.4142135623731
 10
1398.458646616544
 20
367.3563873838031
 42
0.4142135623731
 10
1396.958646616544
 20
365.8563873838031
 42
0.4142135623731
 10
1398.458646616544
 20
364.3563873838031
 42
0.4142135623731
  0
LINE
  5
3C6
330
1F
100
AcDbEntity
  8
0-B
  6
Continuous
 62
   120
370
     5
100
AcDbLine
 10
1398.458646616544
 20
440.8563873838031
 30
0.0
 11
1473.458646616544
 21
440.8563873838031
 31
0.0
  0
LWPOLYLINE
  5
3C7
330
1F
100
AcDbEntity
  8
0-B
  6
Continuous
 62
     7
370
     9
100
AcDbPolyline
 90
        4
 70
     1
 43
3.0
 10
1399.958646616544
 20
440.8563873838031
 42
0.4142135623731
 10
1398.458646616544
 20
442.3563873838031
 42
0.4142135623731
 10
1396.958646616544
 20
440.8563873838031
 42
0.4142135623731
 10
1398.458646616544
 20
439.3563873838031
 42
0.4142135623731
  0
LINE
  5
3C8
330
1F
100
AcDbEntity
  8
0-B
  6
Continuous
 62
   120
370
     5
100
AcDbLine
 10
1398.458646616544
 20
575.8563873838032
 30
0.0
 11
1473.458646616544
 21
575.8563873838032
 31
0.0
  0
LINE
  5
3C9
330
1F
100
AcDbEntity
  8
0-B
  6
Continuous
 62
   120
370
     5
100
AcDbLine
 10
1293.458646616544
 20
725.8563873838032
 30
0.0
 11
1473.458646616544
 21
725.8563873838032
 31
0.0
  0
LWPOLYLINE
  5
3CA
330
1F
100
AcDbEntity
  8
0-B
  6
Continuous
 62
     7
370
     9
100
AcDbPolyline
 90
        4
 70
     1
 43
3.0
 10
1399.958646616544
 20
575.8563873838032
 42
0.4142135623731
 10
1398.458646616544
 20
577.3563873838032
 42
0.4142135623731
 10
1396.958646616544
 20
575.8563873838032
 42
0.4142135623731
 10
1398.458646616544
 20
574.356387383803
 42
0.4142135623731
  0
LWPOLYLINE
  5
3CB
330
1F
100
AcDbEntity
  8
0-B
  6
Continuous
 62
     7
370
     9
100
AcDbPolyline
 90
        4
 70
     1
 43
3.0
 10
1399.958646616544
 20
725.8563873838032
 42
0.4142135623731
 10
1398.458646616544
 20
727.3563873838032
 42
0.4142135623731
 10
1396.958646616544
 20
725.8563873838032
 42
0.4142135623731
 10
1398.458646616544
 20
724.356387383803
 42
0.4142135623731
  0
LINE
  5
3CC
330
1F
100
AcDbEntity
  8
0-B
  6
Continuous
 62
   120
370
     5
100
AcDbLine
 10
1398.458646616544
 20
725.8563873838032
 30
0.0
 11
1398.458646616544
 21
365.8563873838031
 31
0.0
  0
LWPOLYLINE
  5
3CD
330
1F
100
AcDbEntity
  8
0-B
  6
Continuous
 62
     7
370
     9
100
AcDbPolyline
 90
        4
 70
     1
 43
3.0
 10
3199.958646616544
 20
935.8563873838032
 42
0.4142135623731
 10
3198.458646616544
 20
937.3563873838032
 42
0.4142135623731
 10
3196.958646616544
 20
935.8563873838032
 42
0.4142135623731
 10
3198.458646616544
 20
934.356387383803
 42
0.4142135623731
  0
LWPOLYLINE
  5
3CE
330
1F
100
AcDbEntity
  8
0-B
  6
Continuous
 62
     7
370
     9
100
AcDbPolyline
 90
        4
 70
     1
 43
3.0
 10
1504.958646616544
 20
935.8563873838032
 42
0.4142135623731
 10
1503.458646616544
 20
937.3563873838032
 42
0.4142135623731
 10
1501.958646616544
 20
935.8563873838032
 42
0.4142135623731
 10
1503.458646616544
 20
934.356387383803
 42
0.4142135623731
  0
LINE
  5
3CF
330
1F
100
AcDbEntity
  8
0-B
  6
Continuous
 62
   120
370
     5
100
AcDbLine
 10
1503.458646616544
 20
935.8563873838032
 30
0.0
 11
3198.458646616544
 21
935.8563873838032
 31
0.0
  0
LINE
  5
3D0
330
1F
100
AcDbEntity
  8
0-B
  6
JWW_HOJO
 62
     7
370
     9
100
AcDbLine
 10
1293.458646616544
 20
365.8563873838031
 30
0.0
 11
1293.458646616544
 21
935.8563873838032
 31
0.0
  0
LINE
  5
3D1
330
1F
100
AcDbEntity
  8
0-B
  6
JWW_HOJO
 62
     7
370
     9
100
AcDbLine
 10
3348.458646616544
 20
935.8563873838032
 30
0.0
 11
1293.458646616544
 21
935.8563873838032
 31
0.0
  0
LINE
  5
3D2
330
1F
100
AcDbEntity
  8
0-B
  6
Continuous
 62
   120
370
     5
100
AcDbLine
 10
3198.458646616544
 20
935.8563873838032
 30
0.0
 11
3198.458646616544
 21
755.8563873838032
 31
0.0
  0
LINE
  5
3D3
330
1F
100
AcDbEntity
  8
0-B
  6
Continuous
 62
   120
370
     5
100
AcDbLine
 10
3048.458646616544
 20
830.8563873838032
 30
0.0
 11
3048.458646616544
 21
755.8563873838032
 31
0.0
  0
LWPOLYLINE
  5
3D4
330
1F
100
AcDbEntity
  8
0-B
  6
Continuous
 62
     7
370
     9
100
AcDbPolyline
 90
        4
 70
     1
 43
3.0
 10
3199.958646616544
 20
830.8563873838032
 42
0.4142135623731
 10
3198.458646616544
 20
832.3563873838032
 42
0.4142135623731
 10
3196.958646616544
 20
830.8563873838032
 42
0.4142135623731
 10
3198.458646616544
 20
829.356387383803
 42
0.4142135623731
  0
LWPOLYLINE
  5
3D5
330
1F
100
AcDbEntity
  8
0-B
  6
Continuous
 62
     7
370
     9
100
AcDbPolyline
 90
        4
 70
     1
 43
3.0
 10
3049.958646616544
 20
830.8563873838032
 42
0.4142135623731
 10
3048.458646616544
 20
832.3563873838032
 42
0.4142135623731
 10
3046.958646616544
 20
830.8563873838032
 42
0.4142135623731
 10
3048.458646616544
 20
829.356387383803
 42
0.4142135623731
  0
LINE
  5
3D6
330
1F
100
AcDbEntity
  8
0-B
  6
Continuous
 62
   120
370
     5
100
AcDbLine
 10
3048.458646616544
 20
830.8563873838032
 30
0.0
 11
3198.458646616544
 21
830.8563873838032
 31
0.0
  0
LINE
  5
3D7
330
1F
100
AcDbEntity
  8
0-B
  6
Continuous
 62
   120
370
     5
100
AcDbLine
 10
1653.458646616544
 20
830.8563873838032
 30
0.0
 11
1653.458646616544
 21
755.8563873838032
 31
0.0
  0
LINE
  5
3D8
330
1F
100
AcDbEntity
  8
0-B
  6
Continuous
 62
   120
370
     5
100
AcDbLine
 10
1503.458646616544
 20
935.8563873838032
 30
0.0
 11
1503.458646616544
 21
755.8563873838032
 31
0.0
  0
LWPOLYLINE
  5
3D9
330
1F
100
AcDbEntity
  8
0-B
  6
Continuous
 62
     7
370
     9
100
AcDbPolyline
 90
        4
 70
     1
 43
3.0
 10
1654.958646616544
 20
830.8563873838032
 42
0.4142135623731
 10
1653.458646616544
 20
832.3563873838032
 42
0.4142135623731
 10
1651.958646616544
 20
830.8563873838032
 42
0.4142135623731
 10
1653.458646616544
 20
829.356387383803
 42
0.4142135623731
  0
LWPOLYLINE
  5
3DA
330
1F
100
AcDbEntity
  8
0-B
  6
Continuous
 62
     7
370
     9
100
AcDbPolyline
 90
        4
 70
     1
 43
3.0
 10
1504.958646616544
 20
830.8563873838032
 42
0.4142135623731
 10
1503.458646616544
 20
832.3563873838032
 42
0.4142135623731
 10
1501.958646616544
 20
830.8563873838032
 42
0.4142135623731
 10
1503.458646616544
 20
829.356387383803
 42
0.4142135623731
  0
LINE
  5
3DB
330
1F
100
AcDbEntity
  8
0-B
  6
Continuous
 62
   120
370
     5
100
AcDbLine
 10
1503.458646616544
 20
830.8563873838032
 30
0.0
 11
1653.458646616544
 21
830.8563873838032
 31
0.0
  0
LINE
  5
3DC
330
1F
100
AcDbEntity
  8
0-4
  6
Continuous
 62
    92
370
    13
100
AcDbLine
 10
3190.958646616544
 20
718.3563873838032
 30
0.0
 11
1510.958646616544
 21
718.3563873838032
 31
0.0
  0
LINE
  5
3DD
330
1F
100
AcDbEntity
  8
0-4
  6
Continuous
 62
    92
370
    13
100
AcDbLine
 10
3198.458646616544
 20
725.8563873838032
 30
0.0
 11
1503.458646616544
 21
725.8563873838032
 31
0.0
  0
LINE
  5
3DE
330
1F
100
AcDbEntity
  8
0-4
  6
Continuous
 62
    92
370
    13
100
AcDbLine
 10
1510.958646616544
 20
575.8563873838032
 30
0.0
 11
1510.958646616544
 21
718.3563873838032
 31
0.0
  0
LINE
  5
3DF
330
1F
100
AcDbEntity
  8
0-4
  6
Continuous
 62
    92
370
    13
100
AcDbLine
 10
1503.458646616544
 20
575.8563873838032
 30
0.0
 11
1503.458646616544
 21
725.8563873838032
 31
0.0
  0
LINE
  5
3E0
330
1F
100
AcDbEntity
  8
0-4
  6
Continuous
 62
    92
370
    13
100
AcDbLine
 10
3190.958646616544
 20
575.8563873838032
 30
0.0
 11
3190.958646616544
 21
718.3563873838032
 31
0.0
  0
LINE
  5
3E1
330
1F
100
AcDbEntity
  8
0-4
  6
Continuous
 62
    92
370
    13
100
AcDbLine
 10
3198.458646616544
 20
575.8563873838032
 30
0.0
 11
3198.458646616544
 21
725.8563873838032
 31
0.0
  0
LINE
  5
3E2
330
1F
100
AcDbEntity
  8
0-4
  6
Continuous
 62
    92
370
    13
100
AcDbLine
 10
3198.458646616544
 20
440.8563873838031
 30
0.0
 11
3198.458646616544
 21
365.8563873838031
 31
0.0
  0
LINE
  5
3E3
330
1F
100
AcDbEntity
  8
0-4
  6
Continuous
 62
    92
370
    13
100
AcDbLine
 10
3048.458646616544
 20
440.8563873838031
 30
0.0
 11
3198.458646616544
 21
440.8563873838031
 31
0.0
  0
LINE
  5
3E4
330
1F
100
AcDbEntity
  8
0-4
  6
Continuous
 62
    92
370
    13
100
AcDbLine
 10
3048.458646616544
 20
575.8563873838032
 30
0.0
 11
3198.458646616544
 21
575.8563873838032
 31
0.0
  0
LINE
  5
3E5
330
1F
100
AcDbEntity
  8
0-4
  6
Continuous
 62
    92
370
    13
100
AcDbLine
 10
1503.458646616544
 20
440.8563873838031
 30
0.0
 11
1503.458646616544
 21
365.8563873838031
 31
0.0
  0
LINE
  5
3E6
330
1F
100
AcDbEntity
  8
0-4
  6
Continuous
 62
    92
370
    13
100
AcDbLine
 10
1653.458646616544
 20
575.8563873838032
 30
0.0
 11
1503.458646616544
 21
575.8563873838032
 31
0.0
  0
LINE
  5
3E7
330
1F
100
AcDbEntity
  8
0-4
  6
Continuous
 62
    92
370
    13
100
AcDbLine
 10
1653.458646616544
 20
440.8563873838031
 30
0.0
 11
1503.458646616544
 21
440.8563873838031
 31
0.0
  0
LINE
  5
3E8
330
1F
100
AcDbEntity
  8
0-4
  6
Continuous
 62
    92
370
    13
100
AcDbLine
 10
3048.458646616544
 20
575.8563873838032
 30
0.0
 11
3048.458646616544
 21
440.8563873838031
 31
0.0
  0
LINE
  5
3E9
330
1F
100
AcDbEntity
  8
0-4
  6
Continuous
 62
    92
370
    13
100
AcDbLine
 10
1653.458646616544
 20
440.8563873838031
 30
0.0
 11
1653.458646616544
 21
575.8563873838032
 31
0.0
  0
LINE
  5
3EA
330
1F
100
AcDbEntity
  8
0-4
  6
Continuous
 62
    92
370
    13
100
AcDbLine
 10
1503.458646616544
 20
365.8563873838031
 30
0.0
 11
3198.458646616544
 21
365.8563873838031
 31
0.0
  0
MTEXT
  5
3EB
330
1F
100
AcDbEntity
  8
0-B
  6
Continuous
 62
     7
370
   211
100
AcDbMText
 10
2275.958646616544
 20
943.9563873838032
 30
0.0
 40
76.19999999999999
 41
150.0
 46
0.0
 71
     7
 72
     1
  1
{\fＭＳ ゴシック|b0|i0|c128|p49;113}
 73
     1
 44
1.0
  0
MTEXT
  5
3EC
330
1F
100
AcDbEntity
  8
0-B
  6
Continuous
 62
     7
370
   211
100
AcDbMText
 10
1529.708646616544
 20
838.0038873838032
 30
0.0
 40
74.295
 41
97.5
 46
0.0
 71
     7
 72
     1
  1
{\fＭＳ ゴシック|b0|i0|c128|p49;10}
 73
     1
 44
1.0
  0
MTEXT
  5
3ED
330
1F
100
AcDbEntity
  8
0-B
  6
Continuous
 62
     7
370
   211
100
AcDbMText
 10
3074.708646616544
 20
838.0038873838032
 30
0.0
 40
74.295
 41
97.5
 46
0.0
 71
     7
 72
     1
  1
{\fＭＳ ゴシック|b0|i0|c128|p49;10}
 73
     1
 44
1.0
  0
MTEXT
  5
3EE
330
1F
100
AcDbEntity
  8
0-B
  6
Continuous
 62
     7
370
   211
100
AcDbMText
 10
1383.458646616544
 20
594.2538873838032
 30
0.0
 40
74.295
 41
97.5
 46
0.0
 71
     7
 72
     1
  1
{\fＭＳ ゴシック|b0|i0|c128|p49;10}
 11
6.123031769111886E-17
 21
1.0
 31
0.0
 73
     1
 44
1.0
  0
MTEXT
  5
3EF
330
1F
100
AcDbEntity
  8
0-B
  6
Continuous
 62
     7
370
   211
100
AcDbMText
 10
1278.458646616544
 20
489.2538873838031
 30
0.0
 40
74.295
 41
97.5
 46
0.0
 71
     7
 72
     1
  1
{\fＭＳ ゴシック|b0|i0|c128|p49;24}
 11
6.123031769111886E-17
 21
1.0
 31
0.0
 73
     1
 44
1.0
  0
MTEXT
  5
3F0
330
1F
100
AcDbEntity
  8
0-B
  6
Continuous
 62
     7
370
   211
100
AcDbMText
 10
1383.458646616544
 20
475.1463873838031
 30
0.0
 40
68.58
 41
45.0
 46
0.0
 71
     7
 72
     1
  1
{\fＭＳ ゴシック|b0|i0|c128|p49;9}
 11
6.123031769111886E-17
 21
1.0
 31
0.0
 73
     1
 44
1.0
  0
MTEXT
  5
3F1
330
1F
100
AcDbEntity
  8
0-B
  6
Continuous
 62
     7
370
   211
100
AcDbMText
 10
1383.458646616544
 20
370.1463873838031
 30
0.0
 40
68.58
 41
45.0
 46
0.0
 71
     7
 72
     1
  1
{\fＭＳ ゴシック|b0|i0|c128|p49;5}
 11
6.123031769111886E-17
 21
1.0
 31
0.0
 73
     1
 44
1.0
  0
MTEXT
  5
3F2
330
1F
100
AcDbEntity
  8
0-A
  6
Continuous
 62
     7
370
     9
100
AcDbMText
 10
-17.50091140401793
 20
388.4957083780525
 30
0.0
 40
101.9907692307692
 41
869.9999999999998
 46
0.0
 71
     7
 72
     1
  1
{\fＭＳ ゴシック|b0|i0|c128|p49;(調整枠113幅)}
 73
     1
 44
1.0
  0
MTEXT
  5
3F3
330
1F
100
AcDbEntity
  8
0-A
  6
Continuous
 62
     7
370
     0
100
AcDbMText
 10
949.9995216163429
 20
716.0775
 30
0.0
 40
97.15499999999999
 41
255.0
 46
0.0
 71
     7
 72
     1
  1
{\f@ＭＳ ゴシック|b0|i0|c128|p49;Ａ型}
 11
-1.836909530733566E-16
 21
-1.0
 31
0.0
 73
     1
 44
1.0
  0
MTEXT
  5
3F4
330
1F
100
AcDbEntity
  8
0-A
  6
Continuous
 62
     7
370
     9
100
AcDbMText
 10
4399.999719568202
 20
1076.165296887667
 30
0.0
 40
68.58
 41
585.0
 46
0.0
 71
     7
 72
     1
  1
{\fＭＳ ゴシック|b0|i0|c128|p49;ＤＡＢＡ16-□}
 73
     1
 44
1.0
  0
MTEXT
  5
3F5
330
1F
100
AcDbEntity
  8
0-A
  6
Continuous
 62
     7
370
     9
100
AcDbMText
 10
4399.999719568202
 20
919.915286887668
 30
0.0
 40
68.58
 41
585.0
 46
0.0
 71
     7
 72
     1
  1
{\fＭＳ ゴシック|b0|i0|c128|p49;ＤＡＢＡ14-□}
 73
     1
 44
1.0
  0
MTEXT
  5
3F6
330
1F
100
AcDbEntity
  8
0-A
  6
Continuous
 62
     7
370
     9
100
AcDbMText
 10
4399.999719568202
 20
763.6652768876686
 30
0.0
 40
68.58
 41
585.0
 46
0.0
 71
     7
 72
     1
  1
{\fＭＳ ゴシック|b0|i0|c128|p49;ＤＡＢＡ13-□}
 73
     1
 44
1.0
  0
LINE
  5
3F7
330
1F
100
AcDbEntity
  8
F-1
  6
JWW_DASHED1
 62
     7
370
     9
100
AcDbLine
 10
5689.999162829944
 20
-1446.249868112333
 30
0.0
 11
4339.999719568202
 21
-1446.249868112333
 31
0.0
  0
LINE
  5
3F8
330
1F
100
AcDbEntity
  8
F-1
  6
JWW_DASHED1
 62
     7
370
     9
100
AcDbLine
 10
5689.999162829944
 20
-2696.249948112333
 30
0.0
 11
4339.999719568202
 21
-2696.249948112333
 31
0.0
  0
MTEXT
  5
3F9
330
1F
100
AcDbEntity
  8
0-0
  6
Continuous
 62
     7
370
     9
100
AcDbMText
 10
4399.998791668866
 20
-173.8347832037926
 30
0.0
 40
68.58
 41
585.0
 46
0.0
 71
     7
 72
     1
  1
{\fＭＳ ゴシック|b0|i0|c128|p49;ＫＷ1841-1-□}
 73
     1
 44
1.0
  0
MTEXT
  5
3FA
330
1F
100
AcDbEntity
  8
0-0
  6
Continuous
 62
     7
370
     9
100
AcDbMText
 10
4399.998791668866
 20
-330.0847931915973
 30
0.0
 40
68.58
 41
585.0
 46
0.0
 71
     7
 72
     1
  1
{\fＭＳ ゴシック|b0|i0|c128|p49;ＫＷ1851-1-□}
 73
     1
 44
1.0
  0
MTEXT
  5
3FB
330
1F
100
AcDbEntity
  8
0-0
  6
Continuous
 62
     7
370
     9
100
AcDbMText
 10
4399.998791668866
 20
-1423.834863106236
 30
0.0
 40
68.58
 41
585.0
 46
0.0
 71
     7
 72
     1
  1
{\fＭＳ ゴシック|b0|i0|c128|p49;ＫＷ1843-1-□}
 73
     1
 44
1.0
  0
MTEXT
  5
3FC
330
1F
100
AcDbEntity
  8
0-0
  6
Continuous
 62
     7
370
     9
100
AcDbMText
 10
4399.998791668866
 20
-1580.084873094041
 30
0.0
 40
68.58
 41
585.0
 46
0.0
 71
     7
 72
     1
  1
{\fＭＳ ゴシック|b0|i0|c128|p49;ＫＷ1853-1-□}
 73
     1
 44
1.0
  0
MTEXT
  5
3FD
330
1F
100
AcDbEntity
  8
0-0
  6
Continuous
 62
     7
370
     9
100
AcDbMText
 10
4399.998791668866
 20
-2673.834943008678
 30
0.0
 40
68.58
 41
585.0
 46
0.0
 71
     7
 72
     1
  1
{\fＭＳ ゴシック|b0|i0|c128|p49;ＫＷ1844-1-□}
 73
     1
 44
1.0
  0
MTEXT
  5
3FE
330
1F
100
AcDbEntity
  8
0-0
  6
Continuous
 62
     7
370
     9
100
AcDbMText
 10
4399.998791668866
 20
-2830.084952996483
 30
0.0
 40
68.58
 41
585.0
 46
0.0
 71
     7
 72
     1
  1
{\fＭＳ ゴシック|b0|i0|c128|p49;ＫＷ1854-1-□}
 73
     1
 44
1.0
  0
MTEXT
  5
3FF
330
1F
100
AcDbEntity
  8
F-A
  6
Continuous
 62
     7
370
     0
100
AcDbMText
 10
-5247.547376752838
 20
-4045.331112548979
 30
0.0
 40
79.33764705882353
 41
1770.0
 46
0.0
 71
     7
 72
     1
  1
{\fＭＳ ゴシック|b0|i0|c128|p49;ドレタス　洋風造作材　開口枠・笠木}
 73
     1
 44
1.0
  0
ENDSEC
  0
SECTION
  2
OBJECTS
  0
DICTIONARY
  5
C
330
0
100
AcDbDictionary
281
     1
  3
ACAD_GROUP
350
D
  3
ACAD_LAYOUT
350
1A
  3
ACAD_MATERIAL
350
3B
  3
ACAD_MLEADERSTYLE
350
401
  3
ACAD_MLINESTYLE
350
17
  3
ACAD_PLOTSETTINGS
350
19
  3
ACAD_PLOTSTYLENAME
350
E
  3
ACAD_TABLESTYLE
350
400
  3
ACAD_VISUALSTYLE
350
2A
  0
DICTIONARY
  5
D
102
{ACAD_REACTORS
330
C
102
}
330
C
100
AcDbDictionary
281
     1
  0
DICTIONARY
  5
1A
102
{ACAD_REACTORS
330
C
102
}
330
C
100
AcDbDictionary
281
     1
  3
Layout1
350
1E
  3
Layout2
350
26
  3
Model
350
22
  0
DICTIONARY
  5
3B
102
{ACAD_REACTORS
330
C
102
}
330
C
100
AcDbDictionary
281
     1
  3
ByBlock
350
3D
  3
ByLayer
350
3C
  3
Global
350
3E
  0
DICTIONARY
  5
401
102
{ACAD_REACTORS
330
C
102
}
330
C
100
AcDbDictionary
281
     1
  0
DICTIONARY
  5
17
102
{ACAD_REACTORS
330
C
102
}
330
C
100
AcDbDictionary
281
     1
  3
Standard
350
18
  0
DICTIONARY
  5
19
102
{ACAD_REACTORS
330
C
102
}
330
C
100
AcDbDictionary
281
     1
  0
ACDBDICTIONARYWDFLT
  5
E
102
{ACAD_REACTORS
330
C
102
}
330
C
100
AcDbDictionary
281
     1
  3
Normal
350
F
100
AcDbDictionaryWithDefault
340
F
  0
DICTIONARY
  5
400
102
{ACAD_REACTORS
330
C
102
}
330
C
100
AcDbDictionary
281
     1
  0
DICTIONARY
  5
2A
102
{ACAD_REACTORS
330
C
102
}
330
C
100
AcDbDictionary
281
     1
  3
2dWireframe
350
2F
  3
3D Hidden
350
31
  3
3dWireframe
350
30
  3
Basic
350
32
  3
Brighten
350
36
  3
ColorChange
350
3A
  3
Conceptual
350
34
  3
Dim
350
35
  3
Facepattern
350
39
  3
Flat
350
2B
  3
FlatWithEdges
350
2C
  3
Gouraud
350
2D
  3
GouraudWithEdges
350
2E
  3
Linepattern
350
38
  3
Realistic
350
33
  3
Thicken
350
37
  0
LAYOUT
  5
1E
102
{ACAD_REACTORS
330
1A
102
}
330
1A
100
AcDbPlotSettings
  1

  2
none_device
  4

  6

 40
0.0
 41
0.0
 42
0.0
 43
0.0
 44
0.0
 45
0.0
 46
0.0
 47
0.0
 48
0.0
 49
0.0
140
0.0
141
0.0
142
1.0
143
1.0
 70
   688
 72
     0
 73
     0
 74
     5
  7

 75
    16
 76
     0
 77
     5
 78
   300
147
1.0
148
0.0
149
0.0
100
AcDbLayout
  1
Layout1
 70
     1
 71
     1
 10
0.0
 20
0.0
 11
420.0
 21
297.0
 12
0.0
 22
0.0
 32
0.0
 14
1.000000000000000E+20
 24
1.000000000000000E+20
 34
1.000000000000000E+20
 15
-1.000000000000000E+20
 25
-1.000000000000000E+20
 35
-1.000000000000000E+20
146
0.0
 13
0.0
 23
0.0
 33
0.0
 16
1.0
 26
0.0
 36
0.0
 17
0.0
 27
1.0
 37
0.0
 76
     0
330
1B
  0
LAYOUT
  5
26
102
{ACAD_REACTORS
330
1A
102
}
330
1A
100
AcDbPlotSettings
  1

  2
none_device
  4

  6

 40
0.0
 41
0.0
 42
0.0
 43
0.0
 44
0.0
 45
0.0
 46
0.0
 47
0.0
 48
0.0
 49
0.0
140
0.0
141
0.0
142
1.0
143
1.0
 70
   688
 72
     0
 73
     0
 74
     5
  7

 75
    16
 76
     0
 77
     5
 78
   300
147
1.0
148
0.0
149
0.0
100
AcDbLayout
  1
Layout2
 70
     1
 71
     2
 10
0.0
 20
0.0
 11
0.0
 21
0.0
 12
0.0
 22
0.0
 32
0.0
 14
0.0
 24
0.0
 34
0.0
 15
0.0
 25
0.0
 35
0.0
146
0.0
 13
0.0
 23
0.0
 33
0.0
 16
1.0
 26
0.0
 36
0.0
 17
0.0
 27
1.0
 37
0.0
 76
     0
330
23
  0
LAYOUT
  5
22
102
{ACAD_REACTORS
330
1A
102
}
330
1A
100
AcDbPlotSettings
  1

  2
none_device
  4

  6

 40
0.0
 41
0.0
 42
0.0
 43
0.0
 44
0.0
 45
0.0
 46
0.0
 47
0.0
 48
0.0
 49
0.0
140
0.0
141
0.0
142
1.0
143
1.0
 70
  1712
 72
     0
 73
     0
 74
     0
  7

 75
     0
 76
     0
 77
     5
 78
   300
147
1.0
148
0.0
149
0.0
100
AcDbLayout
  1
Model
 70
     1
 71
     0
 10
-6300.0
 20
-4455.0
 11
6300.0
 21
4455.0
 12
0.0
 22
0.0
 32
0.0
 14
-6300.0
 24
-4455.0
 34
0.0
 15
6300.0
 25
4455.0
 35
0.0
146
0.0
 13
0.0
 23
0.0
 33
0.0
 16
1.0
 26
0.0
 36
0.0
 17
0.0
 27
1.0
 37
0.0
 76
     0
330
1F
331
29
  0
MATERIAL
  5
3D
102
{ACAD_REACTORS
330
3B
102
}
330
3B
100
AcDbMaterial
  1
ByBlock
 72
     1
 94
      127
  0
MATERIAL
  5
3C
102
{ACAD_REACTORS
330
3B
102
}
330
3B
100
AcDbMaterial
  1
ByLayer
 72
     1
 94
      127
  0
MATERIAL
  5
3E
102
{ACAD_REACTORS
330
3B
102
}
330
3B
100
AcDbMaterial
  1
Global
 72
     1
 94
      127
  0
MLINESTYLE
  5
18
102
{ACAD_REACTORS
330
17
102
}
330
17
100
AcDbMlineStyle
  2
Standard
 70
     0
  3

 62
   256
 51
90.0
 52
90.0
 71
     2
 49
0.5
 62
   256
  6
BYLAYER
 49
-0.5
 62
   256
  6
BYLAYER
  0
ACDBPLACEHOLDER
  5
F
102
{ACAD_REACTORS
330
E
102
}
330
E
  0
VISUALSTYLE
  5
2F
102
{ACAD_REACTORS
330
2A
102
}
330
2A
100
AcDbVisualStyle
  2
2dWireframe
 70
     4
177
     2
291
     0
 71
     0
176
     1
 72
     2
176
     1
 73
     0
176
     1
 90
        0
176
     1
 40
-0.6
176
     1
 41
-30.0
176
     1
 62
     5
 63
     7
421
 16777215
176
     1
 74
     1
176
     1
 91
        4
176
     1
 64
     7
176
     1
 65
   257
176
     1
 75
     1
176
     1
175
     1
176
     1
 42
1.0
176
     1
 92
        0
176
     1
 66
   257
176
     1
 43
1.0
176
     1
 76
     1
176
     1
 77
     6
176
     1
 78
     2
176
     1
 67
     7
176
     1
 79
     5
176
     1
170
     0
176
     1
171
     0
176
     1
290
     0
176
     1
 93
        1
176
     1
 44
0.0
176
     1
173
     0
176
     1
  0
VISUALSTYLE
  5
31
102
{ACAD_REACTORS
330
2A
102
}
330
2A
100
AcDbVisualStyle
  2
3D Hidden
 70
     6
177
     2
291
     0
 71
     1
176
     1
 72
     2
176
     1
 73
     2
176
     1
 90
        0
176
     1
 40
-0.6
176
     1
 41
-30.0
176
     1
 62
     5
 63
     7
421
 16777215
176
     1
 74
     2
176
     1
 91
        2
176
     1
 64
     7
176
     1
 65
   257
176
     1
 75
     2
176
     1
175
     1
176
     1
 42
40.0
176
     1
 92
        0
176
     1
 66
   257
176
     1
 43
1.0
176
     1
 76
     1
176
     1
 77
     6
176
     1
 78
     2
176
     1
 67
     7
176
     1
 79
     3
176
     1
170
     0
176
     1
171
     0
176
     1
290
     0
176
     1
 93
        1
176
     1
 44
0.0
176
     1
173
     0
176
     1
  0
VISUALSTYLE
  5
30
102
{ACAD_REACTORS
330
2A
102
}
330
2A
100
AcDbVisualStyle
  2
3dWireframe
 70
     5
177
     2
291
     0
 71
     0
176
     1
 72
     2
176
     1
 73
     0
176
     1
 90
        0
176
     1
 40
-0.6
176
     1
 41
-30.0
176
     1
 62
     5
 63
     7
421
 16777215
176
     1
 74
     1
176
     1
 91
        4
176
     1
 64
     7
176
     1
 65
   257
176
     1
 75
     1
176
     1
175
     1
176
     1
 42
1.0
176
     1
 92
        0
176
     1
 66
   257
176
     1
 43
1.0
176
     1
 76
     1
176
     1
 77
     6
176
     1
 78
     2
176
     1
 67
     7
176
     1
 79
     5
176
     1
170
     0
176
     1
171
     0
176
     1
290
     0
176
     1
 93
        1
176
     1
 44
0.0
176
     1
173
     0
176
     1
  0
VISUALSTYLE
  5
32
102
{ACAD_REACTORS
330
2A
102
}
330
2A
100
AcDbVisualStyle
  2
Basic
 70
     7
177
     2
291
     1
 71
     1
176
     1
 72
     0
176
     1
 73
     1
176
     1
 90
        0
176
     1
 40
-0.6
176
     1
 41
-30.0
176
     1
 62
     5
 63
     7
421
 16777215
176
     1
 74
     0
176
     1
 91
        4
176
     1
 64
     7
176
     1
 65
   257
176
     1
 75
     1
176
     1
175
     1
176
     1
 42
1.0
176
     1
 92
        8
176
     1
 66
     7
176
     1
 43
1.0
176
     1
 76
     1
176
     1
 77
     6
176
     1
 78
     2
176
     1
 67
     7
176
     1
 79
     5
176
     1
170
     0
176
     1
171
     0
176
     1
290
     0
176
     1
 93
        1
176
     1
 44
0.0
176
     1
173
     0
176
     1
  0
VISUALSTYLE
  5
36
102
{ACAD_REACTORS
330
2A
102
}
330
2A
100
AcDbVisualStyle
  2
Brighten
 70
    12
177
     2
291
     1
 71
     2
176
     1
 72
     2
176
     1
 73
     0
176
     1
 90
        0
176
     1
 40
-0.6
176
     1
 41
-30.0
176
     1
 62
     5
 63
     7
421
 16777215
176
     1
 74
     1
176
     1
 91
        4
176
     1
 64
     7
176
     1
 65
   257
176
     1
 75
     1
176
     1
175
     1
176
     1
 42
1.0
176
     1
 92
        8
176
     1
 66
     7
176
     1
 43
1.0
176
     1
 76
     1
176
     1
 77
     6
176
     1
 78
     2
176
     1
 67
     7
176
     1
 79
     5
176
     1
170
     0
176
     1
171
     0
176
     1
290
     0
176
     1
 93
        1
176
     1
 44
50.0
176
     1
173
     0
176
     1
  0
VISUALSTYLE
  5
3A
102
{ACAD_REACTORS
330
2A
102
}
330
2A
100
AcDbVisualStyle
  2
ColorChange
 70
    16
177
     2
291
     1
 71
     2
176
     1
 72
     2
176
     1
 73
     3
176
     1
 90
        0
176
     1
 40
-0.6
176
     1
 41
-30.0
176
     1
 62
     5
 63
     8
421
  8421504
176
     1
 74
     1
176
     1
 91
        4
176
     1
 64
     7
176
     1
 65
   257
176
     1
 75
     1
176
     1
175
     1
176
     1
 42
1.0
176
     1
 92
        8
176
     1
 66
     8
424
  8421504
176
     1
 43
1.0
176
     1
 76
     1
176
     1
 77
     6
176
     1
 78
     2
176
     1
 67
     7
176
     1
 79
     5
176
     1
170
     0
176
     1
171
     0
176
     1
290
     0
176
     1
 93
        1
176
     1
 44
0.0
176
     1
173
     0
176
     1
  0
VISUALSTYLE
  5
34
102
{ACAD_REACTORS
330
2A
102
}
330
2A
100
AcDbVisualStyle
  2
Conceptual
 70
     9
177
     2
291
     0
 71
     3
176
     1
 72
     2
176
     1
 73
     0
176
     1
 90
        0
176
     1
 40
-0.6
176
     1
 41
-30.0
176
     1
 62
     5
 63
     7
421
 16777215
176
     1
 74
     2
176
     1
 91
        2
176
     1
 64
     7
176
     1
 65
   257
176
     1
 75
     1
176
     1
175
     1
176
     1
 42
40.0
176
     1
 92
        8
176
     1
 66
     7
176
     1
 43
1.0
176
     1
 76
     1
176
     1
 77
     6
176
     1
 78
     2
176
     1
 67
     7
176
     1
 79
     3
176
     1
170
     0
176
     1
171
     0
176
     1
290
     0
176
     1
 93
        1
176
     1
 44
0.0
176
     1
173
     0
176
     1
  0
VISUALSTYLE
  5
35
102
{ACAD_REACTORS
330
2A
102
}
330
2A
100
AcDbVisualStyle
  2
Dim
 70
    11
177
     2
291
     1
 71
     2
176
     1
 72
     2
176
     1
 73
     0
176
     1
 90
        0
176
     1
 40
-0.6
176
     1
 41
-30.0
176
     1
 62
     5
 63
     7
421
 16777215
176
     1
 74
     1
176
     1
 91
        4
176
     1
 64
     7
176
     1
 65
   257
176
     1
 75
     1
176
     1
175
     1
176
     1
 42
1.0
176
     1
 92
        8
176
     1
 66
     7
176
     1
 43
1.0
176
     1
 76
     1
176
     1
 77
     6
176
     1
 78
     2
176
     1
 67
     7
176
     1
 79
     5
176
     1
170
     0
176
     1
171
     0
176
     1
290
     0
176
     1
 93
        1
176
     1
 44
-50.0
176
     1
173
     0
176
     1
  0
VISUALSTYLE
  5
39
102
{ACAD_REACTORS
330
2A
102
}
330
2A
100
AcDbVisualStyle
  2
Facepattern
 70
    15
177
     2
291
     1
 71
     2
176
     1
 72
     2
176
     1
 73
     0
176
     1
 90
        0
176
     1
 40
-0.6
176
     1
 41
-30.0
176
     1
 62
     5
 63
     7
421
 16777215
176
     1
 74
     1
176
     1
 91
        4
176
     1
 64
     7
176
     1
 65
   257
176
     1
 75
     1
176
     1
175
     1
176
     1
 42
1.0
176
     1
 92
        8
176
     1
 66
     7
176
     1
 43
1.0
176
     1
 76
     1
176
     1
 77
     6
176
     1
 78
     2
176
     1
 67
     7
176
     1
 79
     5
176
     1
170
     0
176
     1
171
     0
176
     1
290
     0
176
     1
 93
        1
176
     1
 44
0.0
176
     1
173
     0
176
     1
  0
VISUALSTYLE
  5
2B
102
{ACAD_REACTORS
330
2A
102
}
330
2A
100
AcDbVisualStyle
  2
Flat
 70
     0
177
     2
291
     1
 71
     2
176
     1
 72
     1
176
     1
 73
     1
176
     1
 90
        2
176
     1
 40
-0.6
176
     1
 41
30.0
176
     1
 62
     5
 63
     7
421
 16777215
176
     1
 74
     0
176
     1
 91
        4
176
     1
 64
     7
176
     1
 65
   257
176
     1
 75
     1
176
     1
175
     1
176
     1
 42
1.0
176
     1
 92
        8
176
     1
 66
     7
176
     1
 43
1.0
176
     1
 76
     1
176
     1
 77
     6
176
     1
 78
     2
176
     1
 67
     7
176
     1
 79
     5
176
     1
170
     0
176
     1
171
     0
176
     1
290
     0
176
     1
 93
       13
176
     1
 44
0.0
176
     1
173
     0
176
     1
  0
VISUALSTYLE
  5
2C
102
{ACAD_REACTORS
330
2A
102
}
330
2A
100
AcDbVisualStyle
  2
FlatWithEdges
 70
     1
177
     2
291
     1
 71
     2
176
     1
 72
     1
176
     1
 73
     1
176
     1
 90
        2
176
     1
 40
-0.6
176
     1
 41
30.0
176
     1
 62
     5
 63
     7
421
 16777215
176
     1
 74
     1
176
     1
 91
        4
176
     1
 64
     7
176
     1
 65
   257
176
     1
 75
     1
176
     1
175
     1
176
     1
 42
1.0
176
     1
 92
        0
176
     1
 66
   257
176
     1
 43
1.0
176
     1
 76
     1
176
     1
 77
     6
176
     1
 78
     2
176
     1
 67
     7
176
     1
 79
     5
176
     1
170
     0
176
     1
171
     0
176
     1
290
     0
176
     1
 93
       13
176
     1
 44
0.0
176
     1
173
     0
176
     1
  0
VISUALSTYLE
  5
2D
102
{ACAD_REACTORS
330
2A
102
}
330
2A
100
AcDbVisualStyle
  2
Gouraud
 70
     2
177
     2
291
     1
 71
     2
176
     1
 72
     2
176
     1
 73
     1
176
     1
 90
        2
176
     1
 40
-0.6
176
     1
 41
30.0
176
     1
 62
     5
 63
     7
421
 16777215
176
     1
 74
     0
176
     1
 91
        4
176
     1
 64
     7
176
     1
 65
   257
176
     1
 75
     1
176
     1
175
     1
176
     1
 42
1.0
176
     1
 92
        0
176
     1
 66
     7
176
     1
 43
1.0
176
     1
 76
     1
176
     1
 77
     6
176
     1
 78
     2
176
     1
 67
     7
176
     1
 79
     5
176
     1
170
     0
176
     1
171
     0
176
     1
290
     0
176
     1
 93
       13
176
     1
 44
0.0
176
     1
173
     0
176
     1
  0
VISUALSTYLE
  5
2E
102
{ACAD_REACTORS
330
2A
102
}
330
2A
100
AcDbVisualStyle
  2
GouraudWithEdges
 70
     3
177
     2
291
     1
 71
     2
176
     1
 72
     2
176
     1
 73
     1
176
     1
 90
        2
176
     1
 40
-0.6
176
     1
 41
30.0
176
     1
 62
     5
 63
     7
421
 16777215
176
     1
 74
     1
176
     1
 91
        4
176
     1
 64
     7
176
     1
 65
   257
176
     1
 75
     1
176
     1
175
     1
176
     1
 42
1.0
176
     1
 92
        0
176
     1
 66
   257
176
     1
 43
1.0
176
     1
 76
     1
176
     1
 77
     6
176
     1
 78
     2
176
     1
 67
     7
176
     1
 79
     5
176
     1
170
     0
176
     1
171
     0
176
     1
290
     0
176
     1
 93
       13
176
     1
 44
0.0
176
     1
173
     0
176
     1
  0
VISUALSTYLE
  5
38
102
{ACAD_REACTORS
330
2A
102
}
330
2A
100
AcDbVisualStyle
  2
Linepattern
 70
    14
177
     2
291
     1
 71
     2
176
     1
 72
     2
176
     1
 73
     0
176
     1
 90
        0
176
     1
 40
-0.6
176
     1
 41
-30.0
176
     1
 62
     5
 63
     7
421
 16777215
176
     1
 74
     1
176
     1
 91
        4
176
     1
 64
     7
176
     1
 65
   257
176
     1
 75
     7
176
     1
175
     7
176
     1
 42
1.0
176
     1
 92
        8
176
     1
 66
     7
176
     1
 43
1.0
176
     1
 76
     1
176
     1
 77
     6
176
     1
 78
     2
176
     1
 67
     7
176
     1
 79
     5
176
     1
170
     0
176
     1
171
     0
176
     1
290
     0
176
     1
 93
        1
176
     1
 44
0.0
176
     1
173
     0
176
     1
  0
VISUALSTYLE
  5
33
102
{ACAD_REACTORS
330
2A
102
}
330
2A
100
AcDbVisualStyle
  2
Realistic
 70
     8
177
     2
291
     0
 71
     2
176
     1
 72
     2
176
     1
 73
     0
176
     1
 90
        0
176
     1
 40
-0.6
176
     1
 41
-30.0
176
     1
 62
     5
 63
     7
421
 16777215
176
     1
 74
     1
176
     1
 91
        0
176
     1
 64
     7
176
     1
 65
   257
176
     1
 75
     1
176
     1
175
     1
176
     1
 42
1.0
176
     1
 92
        8
176
     1
 66
     8
424
  7895160
176
     1
 43
1.0
176
     1
 76
     1
176
     1
 77
     6
176
     1
 78
     2
176
     1
 67
     7
176
     1
 79
     5
176
     1
170
     0
176
     1
171
     0
176
     1
290
     0
176
     1
 93
       13
176
     1
 44
0.0
176
     1
173
     0
176
     1
  0
VISUALSTYLE
  5
37
102
{ACAD_REACTORS
330
2A
102
}
330
2A
100
AcDbVisualStyle
  2
Thicken
 70
    13
177
     2
291
     1
 71
     2
176
     1
 72
     2
176
     1
 73
     0
176
     1
 90
        0
176
     1
 40
-0.6
176
     1
 41
-30.0
176
     1
 62
     5
 63
     7
421
 16777215
176
     1
 74
     1
176
     1
 91
        4
176
     1
 64
     7
176
     1
 65
   257
176
     1
 75
     1
176
     1
175
     1
176
     1
 42
1.0
176
     1
 92
       12
176
     1
 66
     7
176
     1
 43
1.0
176
     1
 76
     1
176
     1
 77
     6
176
     1
 78
     2
176
     1
 67
     7
176
     1
 79
     5
176
     1
170
     0
176
     1
171
     0
176
     1
290
     0
176
     1
 93
        1
176
     1
 44
0.0
176
     1
173
     0
176
     1
  0
ENDSEC
  0
EOF
