  0
SECTION
  2
HEADER
  9
$ACADVER
  1
AC1024
  9
$ACADMAINTVER
 70
     6
  9
$DWGCODEPAGE
  3
ANSI_932
  9
$INSBASE
 10
0.0
 20
0.0
 30
0.0
  9
$EXTMIN
 10
-8910.0
 20
-6300.0
 30
0.0
  9
$EXTMAX
 10
8910.0
 20
6300.0
 30
0.0
  9
$LIMMIN
 10
-8910.0
 20
-6300.0
  9
$LIMMAX
 10
8910.0
 20
6300.0
  9
$ORTHOMODE
 70
     0
  9
$REGENMODE
 70
     1
  9
$FILLMODE
 70
     1
  9
$QTEXTMODE
 70
     0
  9
$MIRRTEXT
 70
     1
  9
$LTSCALE
 40
30.0
  9
$ATTMODE
 70
     1
  9
$TEXTSIZE
 40
2.5
  9
$TRACEWID
 40
1.0
  9
$TEXTSTYLE
  7
Standard
  9
$CLAYER
  8
0
  9
$CELTYPE
  6
ByLayer
  9
$CECOLOR
 62
   256
  9
$CELTSCALE
 40
1.0
  9
$DISPSILH
 70
     0
  9
$DIMSCALE
 40
1.0
  9
$DIMASZ
 40
2.5
  9
$DIMEXO
 40
0.625
  9
$DIMDLI
 40
3.75
  9
$DIMRND
 40
0.0
  9
$DIMDLE
 40
0.0
  9
$DIMEXE
 40
1.25
  9
$DIMTP
 40
0.0
  9
$DIMTM
 40
0.0
  9
$DIMTXT
 40
2.5
  9
$DIMCEN
 40
2.5
  9
$DIMTSZ
 40
0.0
  9
$DIMTOL
 70
     0
  9
$DIMLIM
 70
     0
  9
$DIMTIH
 70
     0
  9
$DIMTOH
 70
     0
  9
$DIMSE1
 70
     0
  9
$DIMSE2
 70
     0
  9
$DIMTAD
 70
     1
  9
$DIMZIN
 70
     8
  9
$DIMBLK
  1

  9
$DIMASO
 70
     1
  9
$DIMSHO
 70
     1
  9
$DIMPOST
  1

  9
$DIMAPOST
  1

  9
$DIMALT
 70
     0
  9
$DIMALTD
 70
     3
  9
$DIMALTF
 40
0.03937007874016
  9
$DIMLFAC
 40
1.0
  9
$DIMTOFL
 70
     1
  9
$DIMTVP
 40
0.0
  9
$DIMTIX
 70
     0
  9
$DIMSOXD
 70
     0
  9
$DIMSAH
 70
     0
  9
$DIMBLK1
  1

  9
$DIMBLK2
  1

  9
$DIMSTYLE
  2
ISO-25
  9
$DIMCLRD
 70
     0
  9
$DIMCLRE
 70
     0
  9
$DIMCLRT
 70
     0
  9
$DIMTFAC
 40
1.0
  9
$DIMGAP
 40
0.625
  9
$DIMJUST
 70
     0
  9
$DIMSD1
 70
     0
  9
$DIMSD2
 70
     0
  9
$DIMTOLJ
 70
     0
  9
$DIMTZIN
 70
     8
  9
$DIMALTZ
 70
     0
  9
$DIMALTTZ
 70
     0
  9
$DIMUPT
 70
     0
  9
$DIMDEC
 70
     2
  9
$DIMTDEC
 70
     2
  9
$DIMALTU
 70
     2
  9
$DIMALTTD
 70
     3
  9
$DIMTXSTY
  7
Standard
  9
$DIMAUNIT
 70
     0
  9
$DIMADEC
 70
     0
  9
$DIMALTRND
 40
0.0
  9
$DIMAZIN
 70
     0
  9
$DIMDSEP
 70
    44
  9
$DIMATFIT
 70
     3
  9
$DIMFRAC
 70
     0
  9
$DIMLDRBLK
  1

  9
$DIMLUNIT
 70
     2
  9
$DIMLWD
 70
    -2
  9
$DIMLWE
 70
    -2
  9
$DIMTMOVE
 70
     0
  9
$DIMFXL
 40
1.0
  9
$DIMFXLON
 70
     0
  9
$DIMJOGANG
 40
0.7853981633974483
  9
$DIMTFILL
 70
     0
  9
$DIMTFILLCLR
 70
     0
  9
$DIMARCSYM
 70
     0
  9
$DIMLTYPE
  6

  9
$DIMLTEX1
  6

  9
$DIMLTEX2
  6

  9
$DIMTXTDIRECTION
 70
     0
  9
$LUNITS
 70
     2
  9
$LUPREC
 70
     4
  9
$SKETCHINC
 40
1.0
  9
$FILLETRAD
 40
10.0
  9
$AUNITS
 70
     0
  9
$AUPREC
 70
     0
  9
$MENU
  1
.
  9
$ELEVATION
 40
0.0
  9
$PELEVATION
 40
0.0
  9
$THICKNESS
 40
0.0
  9
$LIMCHECK
 70
     0
  9
$CHAMFERA
 40
10.0
  9
$CHAMFERB
 40
10.0
  9
$CHAMFERC
 40
20.0
  9
$CHAMFERD
 40
0.0
  9
$SKPOLY
 70
     0
  9
$TDCREATE
 40
2459681.713304062
  9
$TDUCREATE
 40
2459681.338304062
  9
$TDUPDATE
 40
2459681.713304074
  9
$TDUUPDATE
 40
2459681.338304074
  9
$TDINDWG
 40
0.0000000116
  9
$TDUSRTIMER
 40
0.0000000116
  9
$USRTIMER
 70
     1
  9
$ANGBASE
 50
0.0
  9
$ANGDIR
 70
     0
  9
$PDMODE
 70
     0
  9
$PDSIZE
 40
0.0
  9
$PLINEWID
 40
0.0
  9
$SPLFRAME
 70
     0
  9
$SPLINETYPE
 70
     6
  9
$SPLINESEGS
 70
     8
  9
$HANDSEED
  5
35F
  9
$SURFTAB1
 70
     6
  9
$SURFTAB2
 70
     6
  9
$SURFTYPE
 70
     6
  9
$SURFU
 70
     6
  9
$SURFV
 70
     6
  9
$UCSBASE
  2

  9
$UCSNAME
  2

  9
$UCSORG
 10
0.0
 20
0.0
 30
0.0
  9
$UCSXDIR
 10
1.0
 20
0.0
 30
0.0
  9
$UCSYDIR
 10
0.0
 20
1.0
 30
0.0
  9
$UCSORTHOREF
  2

  9
$UCSORTHOVIEW
 70
     0
  9
$UCSORGTOP
 10
0.0
 20
0.0
 30
0.0
  9
$UCSORGBOTTOM
 10
0.0
 20
0.0
 30
0.0
  9
$UCSORGLEFT
 10
0.0
 20
0.0
 30
0.0
  9
$UCSORGRIGHT
 10
0.0
 20
0.0
 30
0.0
  9
$UCSORGFRONT
 10
0.0
 20
0.0
 30
0.0
  9
$UCSORGBACK
 10
0.0
 20
0.0
 30
0.0
  9
$PUCSBASE
  2

  9
$PUCSNAME
  2

  9
$PUCSORG
 10
0.0
 20
0.0
 30
0.0
  9
$PUCSXDIR
 10
1.0
 20
0.0
 30
0.0
  9
$PUCSYDIR
 10
0.0
 20
1.0
 30
0.0
  9
$PUCSORTHOREF
  2

  9
$PUCSORTHOVIEW
 70
     0
  9
$PUCSORGTOP
 10
0.0
 20
0.0
 30
0.0
  9
$PUCSORGBOTTOM
 10
0.0
 20
0.0
 30
0.0
  9
$PUCSORGLEFT
 10
0.0
 20
0.0
 30
0.0
  9
$PUCSORGRIGHT
 10
0.0
 20
0.0
 30
0.0
  9
$PUCSORGFRONT
 10
0.0
 20
0.0
 30
0.0
  9
$PUCSORGBACK
 10
0.0
 20
0.0
 30
0.0
  9
$USERI1
 70
     0
  9
$USERI2
 70
     0
  9
$USERI3
 70
     0
  9
$USERI4
 70
     0
  9
$USERI5
 70
     0
  9
$USERR1
 40
0.0
  9
$USERR2
 40
0.0
  9
$USERR3
 40
0.0
  9
$USERR4
 40
0.0
  9
$USERR5
 40
0.0
  9
$WORLDVIEW
 70
     1
  9
$SHADEDGE
 70
     3
  9
$SHADEDIF
 70
    70
  9
$TILEMODE
 70
     1
  9
$MAXACTVP
 70
    64
  9
$PINSBASE
 10
0.0
 20
0.0
 30
0.0
  9
$PLIMCHECK
 70
     0
  9
$PEXTMIN
 10
1.000000000000000E+20
 20
1.000000000000000E+20
 30
1.000000000000000E+20
  9
$PEXTMAX
 10
-1.000000000000000E+20
 20
-1.000000000000000E+20
 30
-1.000000000000000E+20
  9
$PLIMMIN
 10
0.0
 20
0.0
  9
$PLIMMAX
 10
420.0
 20
297.0
  9
$UNITMODE
 70
     0
  9
$VISRETAIN
 70
     1
  9
$PLINEGEN
 70
     0
  9
$PSLTSCALE
 70
     1
  9
$TREEDEPTH
 70
  3020
  9
$CMLSTYLE
  2
Standard
  9
$CMLJUST
 70
     0
  9
$CMLSCALE
 40
20.0
  9
$PROXYGRAPHICS
 70
     1
  9
$MEASUREMENT
 70
     1
  9
$CELWEIGHT
370
    -1
  9
$ENDCAPS
280
     0
  9
$JOINSTYLE
280
     0
  9
$LWDISPLAY
290
     0
  9
$INSUNITS
 70
     4
  9
$HYPERLINKBASE
  1

  9
$STYLESHEET
  1

  9
$XEDIT
290
     1
  9
$CEPSNTYPE
380
     0
  9
$PSTYLEMODE
290
     1
  9
$FINGERPRINTGUID
  2
{5AF64A7F-6C6B-445C-A65C-A7189EFC20E2}
  9
$VERSIONGUID
  2
{FAEB1C32-E019-11D5-929B-00C0DF256EC4}
  9
$EXTNAMES
290
     1
  9
$PSVPSCALE
 40
0.0
  9
$OLESTARTUP
290
     0
  9
$SORTENTS
280
   127
  9
$INDEXCTL
280
     0
  9
$HIDETEXT
280
     1
  9
$XCLIPFRAME
280
     2
  9
$HALOGAP
280
     0
  9
$OBSCOLOR
 70
   257
  9
$OBSLTYPE
280
     0
  9
$INTERSECTIONDISPLAY
280
     0
  9
$INTERSECTIONCOLOR
 70
   257
  9
$DIMASSOC
280
     2
  9
$PROJECTNAME
  1

  9
$CAMERADISPLAY
290
     0
  9
$LENSLENGTH
 40
50.0
  9
$CAMERAHEIGHT
 40
0.0
  9
$STEPSPERSEC
 40
2.0
  9
$STEPSIZE
 40
6.0
  9
$3DDWFPREC
 40
2.0
  9
$PSOLWIDTH
 40
5.0
  9
$PSOLHEIGHT
 40
80.0
  9
$LOFTANG1
 40
1.570796326794897
  9
$LOFTANG2
 40
1.570796326794897
  9
$LOFTMAG1
 40
0.0
  9
$LOFTMAG2
 40
0.0
  9
$LOFTPARAM
 70
     7
  9
$LOFTNORMALS
280
     1
  9
$LATITUDE
 40
37.795
  9
$LONGITUDE
 40
-122.394
  9
$NORTHDIRECTION
 40
0.0
  9
$TIMEZONE
 70
 -8000
  9
$LIGHTGLYPHDISPLAY
280
     1
  9
$TILEMODELIGHTSYNCH
280
     1
  9
$SOLIDHIST
280
     1
  9
$SHOWHIST
280
     1
  9
$DWFFRAME
280
     2
  9
$DGNFRAME
280
     2
  9
$REALWORLDSCALE
290
     1
  9
$INTERFERECOLOR
 62
   256
  9
$CSHADOW
280
     0
  9
$SHADOWPLANELOCATION
 40
0.0
  0
ENDSEC
  0
SECTION
  2
CLASSES
  0
CLASS
  1
ACDBDICTIONARYWDFLT
  2
AcDbDictionaryWithDefault
  3
ObjectDBX Classes
 90
        0
 91
        4
280
     0
281
     0
  0
CLASS
  1
VISUALSTYLE
  2
AcDbVisualStyle
  3
ObjectDBX Classes
 90
     4095
 91
        4
280
     0
281
     0
  0
CLASS
  1
MATERIAL
  2
AcDbMaterial
  3
ObjectDBX Classes
 90
     1153
 91
        4
280
     0
281
     0
  0
ENDSEC
  0
SECTION
  2
TABLES
  0
TABLE
  2
VPORT
  5
8
330
0
100
AcDbSymbolTable
 70
     1
  0
VPORT
  5
29
330
8
100
AcDbSymbolTableRecord
100
AcDbViewportTableRecord
  2
*Active
 70
     0
 10
0.0
 20
0.0
 11
1.0
 21
1.0
 12
0.0
 22
0.0
 13
0.0
 23
0.0
 14
10.0
 24
10.0
 15
10.0
 25
10.0
 16
0.0
 26
0.0
 36
1.0
 17
0.0
 27
0.0
 37
0.0
 40
13860.0
 41
1.414285714285714
 42
50.0
 43
0.0
 44
0.0
 50
0.0
 51
0.0
 71
     0
 72
 10000
 73
     1
 74
     3
 75
     0
 76
     0
 77
     0
 78
     0
281
     0
 65
     1
110
0.0
120
0.0
130
0.0
111
1.0
121
0.0
131
0.0
112
0.0
122
1.0
132
0.0
 79
     0
146
0.0
 60
     3
 61
     5
292
     1
282
     1
141
0.0
142
0.0
 63
   250
  0
ENDTAB
  0
TABLE
  2
LTYPE
  5
5
330
0
100
AcDbSymbolTable
 70
     5
  0
LTYPE
  5
14
330
5
100
AcDbSymbolTableRecord
100
AcDbLinetypeTableRecord
  2
ByBlock
 70
     0
  3

 72
    65
 73
     0
 40
0.0
  0
LTYPE
  5
15
330
5
100
AcDbSymbolTableRecord
100
AcDbLinetypeTableRecord
  2
ByLayer
 70
     0
  3

 72
    65
 73
     0
 40
0.0
  0
LTYPE
  5
16
330
5
100
AcDbSymbolTableRecord
100
AcDbLinetypeTableRecord
  2
Continuous
 70
     0
  3
Solid line
 72
    65
 73
     0
 40
0.0
  0
LTYPE
  5
3F
330
5
100
AcDbSymbolTableRecord
100
AcDbLinetypeTableRecord
  2
JWW_HOJO
 70
     0
  3
  -   -   -   -   -   -   -   - 
 72
    65
 73
     2
 40
1.693333333333333
 49
-1.27
 74
     0
 49
0.4233333333333333
 74
     0
  0
LTYPE
  5
40
330
5
100
AcDbSymbolTableRecord
100
AcDbLinetypeTableRecord
  2
JWW_DASHED1
 70
     0
  3
-  --  --  --  --  --  --  --  -
 72
    65
 73
     2
 40
1.693333333333333
 49
0.8466666666666667
 74
     0
 49
-0.8466666666666667
 74
     0
  0
LTYPE
  5
41
330
5
100
AcDbSymbolTableRecord
100
AcDbLinetypeTableRecord
  2
JWW_CENTER1
 70
     0
  3
-----  --  ----------  --  -----
 72
    65
 73
     4
 40
6.773333333333333
 49
4.233333333333333
 74
     0
 49
-0.8466666666666667
 74
     0
 49
0.8466666666666667
 74
     0
 49
-0.8466666666666667
 74
     0
  0
LTYPE
  5
42
330
5
100
AcDbSymbolTableRecord
100
AcDbLinetypeTableRecord
  2
JWW_DASHED2
 70
     0
  3
--    ----    ----    ----    --
 72
    65
 73
     2
 40
3.386666666666667
 49
1.693333333333333
 74
     0
 49
-1.693333333333333
 74
     0
  0
ENDTAB
  0
TABLE
  2
LAYER
  5
2
330
0
100
AcDbSymbolTable
 70
    18
  0
LAYER
  5
10
330
2
100
AcDbSymbolTableRecord
100
AcDbLayerTableRecord
  2
0
 70
     0
 62
     7
  6
Continuous
370
    -3
390
F
347
3E
  0
LAYER
  5
43
330
2
100
AcDbSymbolTableRecord
100
AcDbLayerTableRecord
  2
F-0_補助線
 70
     0
 62
     7
  6
Continuous
370
    -3
390
F
347
3E
  0
LAYER
  5
44
330
2
100
AcDbSymbolTableRecord
100
AcDbLayerTableRecord
  2
F-1_枠
 70
     0
 62
     7
  6
Continuous
370
    -3
390
F
347
3E
  0
LAYER
  5
45
330
2
100
AcDbSymbolTableRecord
100
AcDbLayerTableRecord
  2
F-A_文字
 70
     0
 62
     7
  6
Continuous
370
    -3
390
F
347
3E
  0
LAYER
  5
46
330
2
100
AcDbSymbolTableRecord
100
AcDbLayerTableRecord
  2
0-A_文字
 70
     0
 62
     7
  6
Continuous
370
    -3
390
F
347
3E
  0
LAYER
  5
47
330
2
100
AcDbSymbolTableRecord
100
AcDbLayerTableRecord
  2
0-C_ハッチ
 70
     0
 62
     7
  6
Continuous
370
    -3
390
F
347
3E
  0
LAYER
  5
48
330
2
100
AcDbSymbolTableRecord
100
AcDbLayerTableRecord
  2
0-4_枠
 70
     0
 62
     7
  6
Continuous
370
    -3
390
F
347
3E
  0
LAYER
  5
49
330
2
100
AcDbSymbolTableRecord
100
AcDbLayerTableRecord
  2
0-0_補助線
 70
     0
 62
     7
  6
Continuous
370
    -3
390
F
347
3E
  0
LAYER
  5
4A
330
2
100
AcDbSymbolTableRecord
100
AcDbLayerTableRecord
  2
0-B_寸法
 70
     0
 62
     7
  6
Continuous
370
    -3
390
F
347
3E
  0
LAYER
  5
4B
330
2
100
AcDbSymbolTableRecord
100
AcDbLayerTableRecord
  2
0-1_通り芯
 70
     0
 62
     7
  6
Continuous
370
    -3
390
F
347
3E
  0
LAYER
  5
4C
330
2
100
AcDbSymbolTableRecord
100
AcDbLayerTableRecord
  2
0-3_仕上げ
 70
     0
 62
     7
  6
Continuous
370
    -3
390
F
347
3E
  0
LAYER
  5
4D
330
2
100
AcDbSymbolTableRecord
100
AcDbLayerTableRecord
  2
0-6_扉
 70
     0
 62
     7
  6
Continuous
370
    -3
390
F
347
3E
  0
LAYER
  5
4E
330
2
100
AcDbSymbolTableRecord
100
AcDbLayerTableRecord
  2
0-7_金物
 70
     0
 62
     7
  6
Continuous
370
    -3
390
F
347
3E
  0
LAYER
  5
4F
330
2
100
AcDbSymbolTableRecord
100
AcDbLayerTableRecord
  2
7-B_寸法
 70
     0
 62
     7
  6
Continuous
370
    -3
390
F
347
3E
  0
LAYER
  5
50
330
2
100
AcDbSymbolTableRecord
100
AcDbLayerTableRecord
  2
7-1_通り芯
 70
     0
 62
     7
  6
Continuous
370
    -3
390
F
347
3E
  0
LAYER
  5
51
330
2
100
AcDbSymbolTableRecord
100
AcDbLayerTableRecord
  2
7-7_金物
 70
     0
 62
     7
  6
Continuous
370
    -3
390
F
347
3E
  0
LAYER
  5
52
330
2
100
AcDbSymbolTableRecord
100
AcDbLayerTableRecord
  2
戸当り
 70
     0
 62
     7
  6
Continuous
370
    -3
390
F
347
3E
  0
LAYER
  5
53
330
2
100
AcDbSymbolTableRecord
100
AcDbLayerTableRecord
  2
0-2_柱
 70
     0
 62
     7
  6
Continuous
370
    -3
390
F
347
3E
  0
ENDTAB
  0
TABLE
  2
STYLE
  5
3
330
0
100
AcDbSymbolTable
 70
     1
  0
STYLE
  5
11
330
3
100
AcDbSymbolTableRecord
100
AcDbTextStyleTableRecord
  2
Standard
 70
     0
 40
0.0
 41
1.0
 50
0.0
 71
     0
 42
2.5
  3
txt
  4

  0
ENDTAB
  0
TABLE
  2
VIEW
  5
6
330
0
100
AcDbSymbolTable
 70
     0
  0
ENDTAB
  0
TABLE
  2
UCS
  5
7
330
0
100
AcDbSymbolTable
 70
     0
  0
ENDTAB
  0
TABLE
  2
APPID
  5
9
330
0
100
AcDbSymbolTable
 70
     1
  0
APPID
  5
12
330
9
100
AcDbSymbolTableRecord
100
AcDbRegAppTableRecord
  2
ACAD
 70
     0
  0
ENDTAB
  0
TABLE
  2
DIMSTYLE
  5
A
330
0
100
AcDbSymbolTable
 70
     1
100
AcDbDimStyleTable
  0
DIMSTYLE
105
27
330
A
100
AcDbSymbolTableRecord
100
AcDbDimStyleTableRecord
  2
ISO-25
 70
     0
 41
2.5
 42
0.625
 43
3.75
 44
1.25
 73
     0
 74
     0
 77
     1
 78
     8
140
2.5
141
2.5
143
0.03937007874016
147
0.625
171
     3
172
     1
178
     0
271
     2
272
     2
274
     3
278
    44
283
     0
284
     8
340
11
  0
ENDTAB
  0
TABLE
  2
BLOCK_RECORD
  5
1
330
0
100
AcDbSymbolTable
 70
     3
  0
BLOCK_RECORD
  5
1F
330
1
100
AcDbSymbolTableRecord
100
AcDbBlockTableRecord
  2
*Model_Space
340
22
 70
     0
280
     1
281
     0
  0
BLOCK_RECORD
  5
1B
330
1
100
AcDbSymbolTableRecord
100
AcDbBlockTableRecord
  2
*Paper_Space
340
1E
 70
     0
280
     1
281
     0
  0
BLOCK_RECORD
  5
23
330
1
100
AcDbSymbolTableRecord
100
AcDbBlockTableRecord
  2
*Paper_Space0
340
26
 70
     0
280
     1
281
     0
  0
BLOCK_RECORD
  5
54
330
1
100
AcDbSymbolTableRecord
100
AcDbBlockTableRecord
  2
2@@SfigorgFlag@@4
340
0
102
{BLKREFS
331
24B
102
}
 70
     0
280
     1
281
     0
  0
BLOCK_RECORD
  5
57
330
1
100
AcDbSymbolTableRecord
100
AcDbBlockTableRecord
  2
01@@SfigorgFlag@@4
340
0
102
{BLKREFS
331
2C7
331
2CC
102
}
 70
     0
280
     1
281
     0
  0
ENDTAB
  0
ENDSEC
  0
SECTION
  2
BLOCKS
  0
BLOCK
  5
20
330
1F
100
AcDbEntity
  8
0
100
AcDbBlockBegin
  2
*Model_Space
 70
     0
 10
0.0
 20
0.0
 30
0.0
  3
*Model_Space
  1

  0
ENDBLK
  5
21
330
1F
100
AcDbEntity
  8
0
100
AcDbBlockEnd
  0
BLOCK
  5
1C
330
1B
100
AcDbEntity
 67
     1
  8
0
100
AcDbBlockBegin
  2
*Paper_Space
 70
     0
 10
0.0
 20
0.0
 30
0.0
  3
*Paper_Space
  1

  0
ENDBLK
  5
1D
330
1B
100
AcDbEntity
 67
     1
  8
0
100
AcDbBlockEnd
  0
BLOCK
  5
24
330
23
100
AcDbEntity
  8
0
100
AcDbBlockBegin
  2
*Paper_Space0
 70
     0
 10
0.0
 20
0.0
 30
0.0
  3
*Paper_Space0
  1

  0
ENDBLK
  5
25
330
23
100
AcDbEntity
  8
0
100
AcDbBlockEnd
  0
BLOCK
  5
55
330
54
100
AcDbEntity
  8
0
100
AcDbBlockBegin
  2
2@@SfigorgFlag@@4
 70
     0
 10
0.0
 20
0.0
 30
0.0
  3
2@@SfigorgFlag@@4
  1

  0
ARC
  5
2D7
330
54
100
AcDbEntity
  8
0-0_補助線
  6
Continuous
 62
     7
370
     9
100
AcDbCircle
 10
-1.629130730832998
 20
-1.784377180280984
 30
0.0
 40
0.06
100
AcDbArc
 50
180.0
 51
270.0
  0
LINE
  5
2D8
330
54
100
AcDbEntity
  8
0-0_補助線
  6
Continuous
 62
     7
370
     9
100
AcDbLine
 10
-0.3091307308329974
 20
-1.844377180280972
 30
0.0
 11
-1.629130730832998
 21
-1.844377180280972
 31
0.0
  0
ARC
  5
2D9
330
54
100
AcDbEntity
  8
0-0_補助線
  6
Continuous
 62
     7
370
     9
100
AcDbCircle
 10
-0.3091307308329974
 20
-1.784377180280984
 30
0.0
 40
0.06
100
AcDbArc
 50
270.0
 51
0.0
  0
ARC
  5
2DA
330
54
100
AcDbEntity
  8
0-0_補助線
  6
Continuous
 62
     7
370
     9
100
AcDbCircle
 10
-1.769130730832991
 20
3.015622819719027
 30
0.0
 40
0.2
100
AcDbArc
 50
90.0
 51
180.0
  0
ARC
  5
2DB
330
54
100
AcDbEntity
  8
0-0_補助線
  6
Continuous
 62
     7
370
     9
100
AcDbCircle
 10
-0.3091307308329974
 20
2.875622819719027
 30
0.0
 40
0.06
100
AcDbArc
 50
0.0
 51
90.0
  0
LINE
  5
2DC
330
54
100
AcDbEntity
  8
0-0_補助線
  6
Continuous
 62
     7
370
     9
100
AcDbLine
 10
-1.629130730832998
 20
2.935622819719029
 30
0.0
 11
-0.3091307308329974
 21
2.935622819719029
 31
0.0
  0
ARC
  5
2DD
330
54
100
AcDbEntity
  8
0-0_補助線
  6
Continuous
 62
     7
370
     9
100
AcDbCircle
 10
-1.629130730832998
 20
2.875622819719027
 30
0.0
 40
0.06
100
AcDbArc
 50
90.0
 51
180.0
  0
ARC
  5
2DE
330
54
100
AcDbEntity
  8
0-0_補助線
  6
Continuous
 62
     7
370
     9
100
AcDbCircle
 10
-1.769130730832991
 20
3.015622819719027
 30
0.0
 40
0.16
100
AcDbArc
 50
90.0
 51
180.0
  0
LINE
  5
2DF
330
54
100
AcDbEntity
  8
0-0_補助線
  6
Continuous
 62
     7
370
     9
100
AcDbLine
 10
-1.969130730832994
 20
-1.924377180280985
 30
0.0
 11
-1.969130730832994
 21
3.015622819719027
 31
0.0
  0
ARC
  5
2E0
330
54
100
AcDbEntity
  8
0-0_補助線
  6
Continuous
 62
     7
370
     9
100
AcDbCircle
 10
-1.769130730832991
 20
-1.924377180280985
 30
0.0
 40
0.2
100
AcDbArc
 50
180.0
 51
270.0
  0
ARC
  5
2E1
330
54
100
AcDbEntity
  8
0-0_補助線
  6
Continuous
 62
     7
370
     9
100
AcDbCircle
 10
-0.5692916963789258
 20
-2.144031477529182
 30
0.0
 40
1.2
100
AcDbArc
 50
179.0615344703278
 51
259.2981547751684
  0
LWPOLYLINE
  5
2E2
330
54
100
AcDbEntity
  8
0-0_補助線
  6
Continuous
 62
     7
370
     9
100
AcDbPolyline
 90
        4
 70
     1
 43
0.1
 10
-0.7291307308329962
 20
-3.324377180280976
 42
0.4142135623731
 10
-0.7791307308329962
 20
-3.274377180280976
 42
0.4142135623731
 10
-0.8291307308329963
 20
-3.324377180280976
 42
0.4142135623731
 10
-0.7791307308329962
 20
-3.374377180280976
 42
0.4142135623731
  0
ARC
  5
2E3
330
54
100
AcDbEntity
  8
0-0_補助線
  6
Continuous
 62
     7
370
     9
100
AcDbCircle
 10
-0.7791307308329962
 20
-3.254377180280983
 30
0.0
 40
0.07
100
AcDbArc
 50
259.2981547751684
 51
79.29815477516837
  0
ARC
  5
2E4
330
54
100
AcDbEntity
  8
0-0_補助線
  6
Continuous
 62
     7
370
     9
100
AcDbCircle
 10
-0.5692916963789258
 20
-2.144031477529182
 30
0.0
 40
1.06
100
AcDbArc
 50
178.9375728139377
 51
259.2981547751684
  0
LINE
  5
2E5
330
54
100
AcDbEntity
  8
0-0_補助線
  6
Continuous
 62
     7
370
     9
100
AcDbLine
 10
-1.929130730832995
 20
3.015622819719027
 30
0.0
 11
-1.929130730832995
 21
-1.924377180280985
 31
0.0
  0
LINE
  5
2E6
330
54
100
AcDbEntity
  8
0-0_補助線
  6
Continuous
 62
     7
370
     9
100
AcDbLine
 10
-1.929130730832995
 20
-1.924377180280985
 30
0.0
 11
-1.969130730832994
 21
-1.924377180280985
 31
0.0
  0
LINE
  5
2E7
330
54
100
AcDbEntity
  8
0-0_補助線
  6
Continuous
 62
     7
370
     9
100
AcDbLine
 10
-1.689130730832993
 20
2.875622819719027
 30
0.0
 11
-1.689130730832993
 21
-1.784377180280984
 31
0.0
  0
LINE
  5
2E8
330
54
100
AcDbEntity
  8
0-0_補助線
  6
Continuous
 62
     7
370
     9
100
AcDbLine
 10
0.0708692691670052
 20
-2.584377180280981
 30
0.0
 11
-0.0881142420878476
 21
-2.584377180280981
 31
0.0
  0
ARC
  5
2E9
330
54
100
AcDbEntity
  8
0-0_補助線
  6
Continuous
 62
     7
370
     9
100
AcDbCircle
 10
-0.0881142420878476
 20
-2.524377180280979
 30
0.0
 40
0.06
100
AcDbArc
 50
193.9281985493309
 51
270.0
  0
ARC
  5
2EA
330
54
100
AcDbEntity
  8
0-0_補助線
  6
Continuous
 62
     7
370
     9
100
AcDbCircle
 10
0.0708692691670052
 20
-2.524377180280979
 30
0.0
 40
0.06
100
AcDbArc
 50
270.0
 51
14.29438185742976
  0
LINE
  5
2EB
330
54
100
AcDbEntity
  8
0-0_補助線
  6
Continuous
 62
     7
370
     9
100
AcDbLine
 10
0.0308692691670061
 20
-2.124377180280973
 30
0.0
 11
0.1290116659424712
 21
-2.509562940604084
 31
0.0
  0
LINE
  5
2EC
330
54
100
AcDbEntity
  8
0-0_補助線
  6
Continuous
 62
     7
370
     9
100
AcDbLine
 10
-0.2378325535497154
 20
-2.169934834753576
 30
0.0
 11
-0.1463501301266419
 21
-2.538819525808378
 31
0.0
  0
LINE
  5
2ED
330
54
100
AcDbEntity
  8
0-0_補助線
  6
Continuous
 62
     7
370
     9
100
AcDbLine
 10
-0.2960684415885098
 20
-2.124377180280973
 30
0.0
 11
-1.769130730832991
 21
-2.124377180280973
 31
0.0
  0
ARC
  5
2EE
330
54
100
AcDbEntity
  8
0-0_補助線
  6
Continuous
 62
     7
370
     9
100
AcDbCircle
 10
-0.2960684415885098
 20
-2.184377180280975
 30
0.0
 40
0.06
100
AcDbArc
 50
13.92819854933141
 51
90.00000000000001
  0
LINE
  5
2EF
330
54
100
AcDbEntity
  8
0-0_補助線
  6
Continuous
 62
     7
370
     9
100
AcDbLine
 10
-0.2491307308329951
 20
2.875622819719027
 30
0.0
 11
-0.2491307308329951
 21
-1.784377180280984
 31
0.0
  0
LINE
  5
2F0
330
54
100
AcDbEntity
  8
0-0_補助線
  6
Continuous
 62
     7
370
     9
100
AcDbLine
 10
0.4308692691670046
 20
-1.559377180280975
 30
0.0
 11
0.4308692691670046
 21
-1.699377180280976
 31
0.0
  0
LINE
  5
2F1
330
54
100
AcDbEntity
  8
0-0_補助線
  6
Continuous
 62
     7
370
     9
100
AcDbLine
 10
0.8308692691670032
 20
-2.119377180280978
 30
0.0
 11
0.8308692691670032
 21
-1.979377180280977
 31
0.0
  0
LINE
  5
2F2
330
54
100
AcDbEntity
  8
0-0_補助線
  6
Continuous
 62
     7
370
     9
100
AcDbLine
 10
0.6308692691670075
 20
-1.699377180280976
 30
0.0
 11
0.5024027720209432
 21
-1.534767462733626
 31
0.0
  0
LINE
  5
2F3
330
54
100
AcDbEntity
  8
0-0_補助線
  6
Continuous
 62
     7
370
     9
100
AcDbLine
 10
1.030869269167006
 20
-1.979377180280977
 30
0.0
 11
0.9024027720209418
 21
-2.143986897828341
 31
0.0
  0
LINE
  5
2F4
330
54
100
AcDbEntity
  8
0-0_補助線
  6
Continuous
 62
     7
370
     9
100
AcDbLine
 10
1.230869269167009
 20
-1.559377180280975
 30
0.0
 11
1.230869269167009
 21
-1.699377180280976
 31
0.0
  0
ARC
  5
2F5
330
54
100
AcDbEntity
  8
0-0_補助線
  6
Continuous
 62
     7
370
     9
100
AcDbCircle
 10
0.8708692691670095
 20
-2.119377180280978
 30
0.0
 40
0.04
100
AcDbArc
 50
180.0
 51
322.0304252330487
  0
ARC
  5
2F6
330
54
100
AcDbEntity
  8
0-0_補助線
  6
Continuous
 62
     7
370
     9
100
AcDbCircle
 10
0.4708692691670038
 20
-1.559377180280975
 30
0.0
 40
0.04
100
AcDbArc
 50
37.96957476694966
 51
180.0
  0
LINE
  5
2F7
330
54
100
AcDbEntity
  8
0-0_補助線
  6
Continuous
 62
     7
370
     9
100
AcDbLine
 10
1.511545229617482
 20
-1.820289200070164
 30
0.0
 11
1.303139653347195
 21
-1.535741988196648
 31
0.0
  0
ARC
  5
2F8
330
54
100
AcDbEntity
  8
0-0_補助線
  6
Continuous
 62
     7
370
     9
100
AcDbCircle
 10
1.270869269167008
 20
-1.559377180280975
 30
0.0
 40
0.04
100
AcDbArc
 50
36.21946651197781
 51
180.0
  0
ARC
  5
2F9
330
54
100
AcDbEntity
  8
0-0_補助線
  6
Continuous
 62
     7
370
     9
100
AcDbCircle
 10
1.430869269167005
 20
-1.879377180280983
 30
0.0
 40
0.1
100
AcDbArc
 50
270.0
 51
36.21946651947428
  0
LINE
  5
2FA
330
54
100
AcDbEntity
  8
0-0_補助線
  6
Continuous
 62
     7
370
     9
100
AcDbLine
 10
0.4308692691670046
 20
2.190622819719025
 30
0.0
 11
0.4308692691670046
 21
2.330622819719025
 31
0.0
  0
LINE
  5
2FB
330
54
100
AcDbEntity
  8
0-0_補助線
  6
Continuous
 62
     7
370
     9
100
AcDbLine
 10
0.8308692691670032
 20
2.750622819719027
 30
0.0
 11
0.8308692691670032
 21
2.610622819719026
 31
0.0
  0
LINE
  5
2FC
330
54
100
AcDbEntity
  8
0-0_補助線
  6
Continuous
 62
     7
370
     9
100
AcDbLine
 10
0.6308692691670075
 20
2.330622819719025
 30
0.0
 11
0.5024027720209432
 21
2.166013102171661
 31
0.0
  0
LINE
  5
2FD
330
54
100
AcDbEntity
  8
0-0_補助線
  6
Continuous
 62
     7
370
     9
100
AcDbLine
 10
1.030869269167006
 20
2.610622819719026
 30
0.0
 11
0.9024027720209418
 21
2.775232537266376
 31
0.0
  0
LINE
  5
2FE
330
54
100
AcDbEntity
  8
0-0_補助線
  6
Continuous
 62
     7
370
     9
100
AcDbLine
 10
1.230869269167009
 20
2.190622819719025
 30
0.0
 11
1.230869269167009
 21
2.330622819719025
 31
0.0
  0
ARC
  5
2FF
330
54
100
AcDbEntity
  8
0-0_補助線
  6
Continuous
 62
     7
370
     9
100
AcDbCircle
 10
0.8708692691670095
 20
2.750622819719027
 30
0.0
 40
0.04
100
AcDbArc
 50
37.96957476695127
 51
180.0
  0
ARC
  5
300
330
54
100
AcDbEntity
  8
0-0_補助線
  6
Continuous
 62
     7
370
     9
100
AcDbCircle
 10
0.4708692691670038
 20
2.190622819719025
 30
0.0
 40
0.04
100
AcDbArc
 50
180.0
 51
322.0304252330503
  0
LINE
  5
301
330
54
100
AcDbEntity
  8
0-0_補助線
  6
Continuous
 62
     7
370
     9
100
AcDbLine
 10
1.511545229617482
 20
2.451534839508213
 30
0.0
 11
1.303139653347195
 21
2.166987627634697
 31
0.0
  0
ARC
  5
302
330
54
100
AcDbEntity
  8
0-0_補助線
  6
Continuous
 62
     7
370
     9
100
AcDbCircle
 10
1.270869269167008
 20
2.190622819719025
 30
0.0
 40
0.04
100
AcDbArc
 50
180.0
 51
323.7805334880222
  0
ARC
  5
303
330
54
100
AcDbEntity
  8
0-0_補助線
  6
Continuous
 62
     7
370
     9
100
AcDbCircle
 10
1.430869269167005
 20
2.510622819719018
 30
0.0
 40
0.1
100
AcDbArc
 50
323.7805334805258
 51
90.0
  0
LINE
  5
304
330
54
100
AcDbEntity
  8
0-0_補助線
  6
Continuous
 62
     7
370
     9
100
AcDbLine
 10
-1.769130730832991
 20
3.175622819719024
 30
0.0
 11
0.1274378116619275
 21
3.175622819719024
 31
0.0
  0
LINE
  5
305
330
54
100
AcDbEntity
  8
0-0_補助線
  6
Continuous
 62
     7
370
     9
100
AcDbLine
 10
-1.769130730832991
 20
3.21562281971903
 30
0.0
 11
0.0708692691670052
 21
3.21562281971903
 31
0.0
  0
LINE
  5
306
330
54
100
AcDbEntity
  8
0-0_補助線
  6
Continuous
 62
     7
370
     9
100
AcDbLine
 10
1.430869269167005
 20
-1.979377180280977
 30
0.0
 11
1.030869269167006
 21
-1.979377180280977
 31
0.0
  0
LINE
  5
307
330
54
100
AcDbEntity
  8
0-0_補助線
  6
Continuous
 62
     7
370
     9
100
AcDbLine
 10
0.8308692691670032
 20
-1.979377180280977
 30
0.0
 11
0.0308692691670061
 21
-1.979377180280977
 31
0.0
  0
LINE
  5
308
330
54
100
AcDbEntity
  8
0-0_補助線
  6
Continuous
 62
     7
370
     9
100
AcDbLine
 10
0.0308692691670061
 20
-1.699377180280976
 30
0.0
 11
0.4308692691670046
 21
-1.699377180280976
 31
0.0
  0
LINE
  5
309
330
54
100
AcDbEntity
  8
0-0_補助線
  6
Continuous
 62
     7
370
     9
100
AcDbLine
 10
0.6308692691670075
 20
-1.699377180280976
 30
0.0
 11
1.230869269167009
 21
-1.699377180280976
 31
0.0
  0
LINE
  5
30A
330
54
100
AcDbEntity
  8
0-0_補助線
  6
Continuous
 62
     7
370
     9
100
AcDbLine
 10
0.0308692691670061
 20
2.330622819719025
 30
0.0
 11
0.4308692691670046
 21
2.330622819719025
 31
0.0
  0
LINE
  5
30B
330
54
100
AcDbEntity
  8
0-0_補助線
  6
Continuous
 62
     7
370
     9
100
AcDbLine
 10
0.6308692691670075
 20
2.330622819719025
 30
0.0
 11
1.230869269167009
 21
2.330622819719025
 31
0.0
  0
LINE
  5
30C
330
54
100
AcDbEntity
  8
0-0_補助線
  6
Continuous
 62
     7
370
     9
100
AcDbLine
 10
1.430869269167005
 20
2.610622819719026
 30
0.0
 11
1.030869269167006
 21
2.610622819719026
 31
0.0
  0
LINE
  5
30D
330
54
100
AcDbEntity
  8
0-0_補助線
  6
Continuous
 62
     7
370
     9
100
AcDbLine
 10
0.8308692691670032
 20
2.610622819719026
 30
0.0
 11
0.0308692691670061
 21
2.610622819719026
 31
0.0
  0
LINE
  5
30E
330
54
100
AcDbEntity
  8
0-0_補助線
  6
Continuous
 62
     7
370
     9
100
AcDbLine
 10
0.0308692691670061
 20
2.610622819719026
 30
0.0
 11
0.1298643253643306
 21
3.144687402750549
 31
0.0
  0
ARC
  5
30F
330
54
100
AcDbEntity
  8
0-0_補助線
  6
Continuous
 62
     7
370
     9
100
AcDbCircle
 10
0.0708692691670052
 20
3.155622819719028
 30
0.0
 40
0.06
100
AcDbArc
 50
349.4987515888594
 51
90.0
  0
LINE
  5
310
330
54
100
AcDbEntity
  8
0-0_補助線
  6
Continuous
 62
     7
370
     9
100
AcDbLine
 10
0.0308692691670061
 20
2.330622819719025
 30
0.0
 11
0.0308692691670061
 21
-1.699377180280976
 31
0.0
  0
LINE
  5
311
330
54
100
AcDbEntity
  8
0-0_補助線
  6
Continuous
 62
     7
370
     9
100
AcDbLine
 10
0.0308692691670061
 20
-1.979377180280977
 30
0.0
 11
0.0308692691670061
 21
-2.124377180280973
 31
0.0
  0
ENDBLK
  5
56
330
54
100
AcDbEntity
  8
0
100
AcDbBlockEnd
  0
BLOCK
  5
58
330
57
100
AcDbEntity
  8
0
100
AcDbBlockBegin
  2
01@@SfigorgFlag@@4
 70
     0
 10
0.0
 20
0.0
 30
0.0
  3
01@@SfigorgFlag@@4
  1

  0
LINE
  5
312
330
57
100
AcDbEntity
  8
0-0_補助線
  6
Continuous
 62
     7
370
     9
100
AcDbLine
 10
2.295000000000044
 20
0.0292483078921251
 30
0.0
 11
2.400000000000063
 21
0.0292483078921251
 31
0.0
  0
LINE
  5
313
330
57
100
AcDbEntity
  8
0-0_補助線
  6
Continuous
 62
     7
370
     9
100
AcDbLine
 10
1.875000000000057
 20
0.4292483078921272
 30
0.0
 11
2.015000000000072
 21
0.4292483078921272
 31
0.0
  0
LINE
  5
314
330
57
100
AcDbEntity
  8
0-0_補助線
  6
Continuous
 62
     7
370
     9
100
AcDbLine
 10
2.435000000000059
 20
0.8292483078921258
 30
0.0
 11
2.295000000000044
 21
0.8292483078921258
 31
0.0
  0
LINE
  5
315
330
57
100
AcDbEntity
  8
0-0_補助線
  6
Continuous
 62
     7
370
     9
100
AcDbLine
 10
2.015000000000072
 20
0.6292483078921265
 30
0.0
 11
1.850390282452707
 21
0.5007818107460622
 31
0.0
  0
LINE
  5
316
330
57
100
AcDbEntity
  8
0-0_補助線
  6
Continuous
 62
     7
370
     9
100
AcDbLine
 10
2.295000000000044
 20
1.029248307892125
 30
0.0
 11
2.459609717547409
 21
0.9007818107460608
 31
0.0
  0
LINE
  5
317
330
57
100
AcDbEntity
  8
0-0_補助線
  6
Continuous
 62
     7
370
     9
100
AcDbLine
 10
1.875000000000057
 20
1.229248307892128
 30
0.0
 11
2.015000000000072
 21
1.229248307892128
 31
0.0
  0
ARC
  5
318
330
57
100
AcDbEntity
  8
0-0_補助線
  6
Continuous
 62
     7
370
     9
100
AcDbCircle
 10
2.435000000000059
 20
0.8692483078921249
 30
0.0
 40
0.04
100
AcDbArc
 50
270.0
 51
52.03042523304873
  0
ARC
  5
319
330
57
100
AcDbEntity
  8
0-0_補助線
  6
Continuous
 62
     7
370
     9
100
AcDbCircle
 10
1.875000000000057
 20
0.4692483078921228
 30
0.0
 40
0.04
100
AcDbArc
 50
127.9695747669497
 51
270.0
  0
LINE
  5
31A
330
57
100
AcDbEntity
  8
0-0_補助線
  6
Continuous
 62
     7
370
     9
100
AcDbLine
 10
2.135912019789231
 20
1.509924268342598
 30
0.0
 11
1.851364807915729
 21
1.301518692072314
 31
0.0
  0
ARC
  5
31B
330
57
100
AcDbEntity
  8
0-0_補助線
  6
Continuous
 62
     7
370
     9
100
AcDbCircle
 10
1.875000000000057
 20
1.269248307892124
 30
0.0
 40
0.04
100
AcDbArc
 50
126.2194665119778
 51
270.0
  0
ARC
  5
31C
330
57
100
AcDbEntity
  8
0-0_補助線
  6
Continuous
 62
     7
370
     9
100
AcDbCircle
 10
2.19500000000005
 20
1.429248307892124
 30
0.0
 40
0.1
100
AcDbArc
 50
0.0
 51
126.2194665194743
  0
LINE
  5
31D
330
57
100
AcDbEntity
  8
0-0_補助線
  6
Continuous
 62
     7
370
     9
100
AcDbLine
 10
-1.874999999999943
 20
0.4292483078921272
 30
0.0
 11
-2.01499999999993
 21
0.4292483078921272
 31
0.0
  0
LINE
  5
31E
330
57
100
AcDbEntity
  8
0-0_補助線
  6
Continuous
 62
     7
370
     9
100
AcDbLine
 10
-2.434999999999945
 20
0.8292483078921258
 30
0.0
 11
-2.294999999999931
 21
0.8292483078921258
 31
0.0
  0
LINE
  5
31F
330
57
100
AcDbEntity
  8
0-0_補助線
  6
Continuous
 62
     7
370
     9
100
AcDbLine
 10
-2.01499999999993
 20
0.6292483078921265
 30
0.0
 11
-1.850390282452594
 21
0.5007818107460622
 31
0.0
  0
LINE
  5
320
330
57
100
AcDbEntity
  8
0-0_補助線
  6
Continuous
 62
     7
370
     9
100
AcDbLine
 10
-2.294999999999931
 20
1.029248307892125
 30
0.0
 11
-2.459609717547295
 21
0.9007818107460643
 31
0.0
  0
LINE
  5
321
330
57
100
AcDbEntity
  8
0-0_補助線
  6
Continuous
 62
     7
370
     9
100
AcDbLine
 10
-1.874999999999943
 20
1.229248307892128
 30
0.0
 11
-2.01499999999993
 21
1.229248307892128
 31
0.0
  0
ARC
  5
322
330
57
100
AcDbEntity
  8
0-0_補助線
  6
Continuous
 62
     7
370
     9
100
AcDbCircle
 10
-2.434999999999945
 20
0.8692483078921249
 30
0.0
 40
0.04
100
AcDbArc
 50
127.9695747669513
 51
270.0
  0
ARC
  5
323
330
57
100
AcDbEntity
  8
0-0_補助線
  6
Continuous
 62
     7
370
     9
100
AcDbCircle
 10
-1.874999999999943
 20
0.4692483078921263
 30
0.0
 40
0.04
100
AcDbArc
 50
270.0
 51
52.03042523305033
  0
LINE
  5
324
330
57
100
AcDbEntity
  8
0-0_補助線
  6
Continuous
 62
     7
370
     9
100
AcDbLine
 10
-2.135912019789117
 20
1.509924268342598
 30
0.0
 11
-1.851364807915616
 21
1.301518692072317
 31
0.0
  0
ARC
  5
325
330
57
100
AcDbEntity
  8
0-0_補助線
  6
Continuous
 62
     7
370
     9
100
AcDbCircle
 10
-1.874999999999943
 20
1.269248307892124
 30
0.0
 40
0.04
100
AcDbArc
 50
270.0
 51
53.78053348802219
  0
ARC
  5
326
330
57
100
AcDbEntity
  8
0-0_補助線
  6
Continuous
 62
     7
370
     9
100
AcDbCircle
 10
-2.194999999999936
 20
1.429248307892124
 30
0.0
 40
0.1
100
AcDbArc
 50
53.78053348052574
 51
180.0
  0
LINE
  5
327
330
57
100
AcDbEntity
  8
0-0_補助線
  6
Continuous
 62
     7
370
     9
100
AcDbLine
 10
2.295000000000044
 20
1.429248307892124
 30
0.0
 11
2.295000000000044
 21
1.029248307892125
 31
0.0
  0
LINE
  5
328
330
57
100
AcDbEntity
  8
0-0_補助線
  6
Continuous
 62
     7
370
     9
100
AcDbLine
 10
2.295000000000044
 20
0.8292483078921258
 30
0.0
 11
2.295000000000044
 21
0.0292483078921251
 31
0.0
  0
LINE
  5
329
330
57
100
AcDbEntity
  8
0-0_補助線
  6
Continuous
 62
     7
370
     9
100
AcDbLine
 10
2.015000000000072
 20
0.0292483078921251
 30
0.0
 11
2.015000000000072
 21
0.4292483078921272
 31
0.0
  0
LINE
  5
32A
330
57
100
AcDbEntity
  8
0-0_補助線
  6
Continuous
 62
     7
370
     9
100
AcDbLine
 10
2.015000000000072
 20
0.6292483078921265
 30
0.0
 11
2.015000000000072
 21
1.229248307892128
 31
0.0
  0
LINE
  5
32B
330
57
100
AcDbEntity
  8
0-0_補助線
  6
Continuous
 62
     7
370
     9
100
AcDbLine
 10
-2.01499999999993
 20
0.0292483078921286
 30
0.0
 11
-2.01499999999993
 21
0.4292483078921272
 31
0.0
  0
LINE
  5
32C
330
57
100
AcDbEntity
  8
0-0_補助線
  6
Continuous
 62
     7
370
     9
100
AcDbLine
 10
-2.01499999999993
 20
0.6292483078921265
 30
0.0
 11
-2.01499999999993
 21
1.229248307892128
 31
0.0
  0
LINE
  5
32D
330
57
100
AcDbEntity
  8
0-0_補助線
  6
Continuous
 62
     7
370
     9
100
AcDbLine
 10
-2.294999999999931
 20
1.429248307892124
 30
0.0
 11
-2.294999999999931
 21
1.029248307892125
 31
0.0
  0
LINE
  5
32E
330
57
100
AcDbEntity
  8
0-0_補助線
  6
Continuous
 62
     7
370
     9
100
AcDbLine
 10
-2.294999999999931
 20
0.8292483078921258
 30
0.0
 11
-2.294999999999931
 21
0.0292483078921286
 31
0.0
  0
LINE
  5
32F
330
57
100
AcDbEntity
  8
0-0_補助線
  6
Continuous
 62
     7
370
     9
100
AcDbLine
 10
-2.01499999999993
 20
0.0292483078921286
 30
0.0
 11
2.015000000000072
 21
0.0292483078921251
 31
0.0
  0
ARC
  5
330
330
57
100
AcDbEntity
  8
0-0_補助線
  6
Continuous
 62
     7
370
     9
100
AcDbCircle
 10
2.060000000000059
 20
-1.630751692107875
 30
0.0
 40
0.06
100
AcDbArc
 50
270.0
 51
0.0
  0
LINE
  5
331
330
57
100
AcDbEntity
  8
0-0_補助線
  6
Continuous
 62
     7
370
     9
100
AcDbLine
 10
2.120000000000061
 20
-0.3107516921078783
 30
0.0
 11
2.120000000000061
 21
-1.630751692107875
 31
0.0
  0
ARC
  5
332
330
57
100
AcDbEntity
  8
0-0_補助線
  6
Continuous
 62
     7
370
     9
100
AcDbCircle
 10
2.060000000000059
 20
-0.3107516921078783
 30
0.0
 40
0.06
100
AcDbArc
 50
0.0
 51
90.0
  0
ARC
  5
333
330
57
100
AcDbEntity
  8
0-0_補助線
  6
Continuous
 62
     7
370
     9
100
AcDbCircle
 10
2.200000000000045
 20
-1.770751692107872
 30
0.0
 40
0.2
100
AcDbArc
 50
270.0
 51
0.0
  0
LINE
  5
334
330
57
100
AcDbEntity
  8
0-0_補助線
  6
Continuous
 62
     7
370
     9
100
AcDbLine
 10
2.400000000000063
 20
-0.2976894028633943
 30
0.0
 11
2.400000000000063
 21
-1.770751692107872
 31
0.0
  0
ARC
  5
335
330
57
100
AcDbEntity
  8
0-0_補助線
  6
Continuous
 62
     7
370
     9
100
AcDbCircle
 10
2.460000000000065
 20
-0.2976894028633943
 30
0.0
 40
0.06
100
AcDbArc
 50
103.9281985493314
 51
180.0
  0
LINE
  5
336
330
57
100
AcDbEntity
  8
0-0_補助線
  6
Continuous
 62
     7
370
     9
100
AcDbLine
 10
2.900000000000063
 20
0.0692483078921242
 30
0.0
 11
2.900000000000063
 21
-0.0897352033627286
 31
0.0
  0
LINE
  5
337
330
57
100
AcDbEntity
  8
0-0_補助線
  6
Continuous
 62
     7
370
     9
100
AcDbLine
 10
2.853095847616288
 20
-0.1482885873401969
 30
0.0
 11
2.446904152383837
 21
-0.2391360188859224
 31
0.0
  0
LINE
  5
338
330
57
100
AcDbEntity
  8
0-0_補助線
  6
Continuous
 62
     7
370
     9
100
AcDbLine
 10
2.400000000000063
 20
0.0292483078921251
 30
0.0
 11
2.826503425747205
 21
0.1277106246734299
 31
0.0
  0
ARC
  5
339
330
57
100
AcDbEntity
  8
0-0_補助線
  6
Continuous
 62
     7
370
     9
100
AcDbCircle
 10
2.84000000000006
 20
-0.0897352033627286
 30
0.0
 40
0.06
100
AcDbArc
 50
282.6070972495236
 51
0.0
  0
ARC
  5
33A
330
57
100
AcDbEntity
  8
0-0_補助線
  6
Continuous
 62
     7
370
     9
100
AcDbCircle
 10
2.84000000000006
 20
0.0692483078921242
 30
0.0
 40
0.06
100
AcDbArc
 50
0.0
 51
102.9995207492461
  0
ARC
  5
33B
330
57
100
AcDbEntity
  8
0-0_補助線
  6
Continuous
 62
     7
370
     9
100
AcDbCircle
 10
2.200000000000045
 20
-1.770751692107872
 30
0.0
 40
0.16
100
AcDbArc
 50
270.0
 51
0.0
  0
LINE
  5
33C
330
57
100
AcDbEntity
  8
0-0_補助線
  6
Continuous
 62
     7
370
     9
100
AcDbLine
 10
2.36000000000007
 20
-0.2976894028633943
 30
0.0
 11
2.36000000000007
 21
-1.770751692107872
 31
0.0
  0
ARC
  5
33D
330
57
100
AcDbEntity
  8
0-0_補助線
  6
Continuous
 62
     7
370
     9
100
AcDbCircle
 10
2.460000000000065
 20
-0.2976894028633943
 30
0.0
 40
0.1
100
AcDbArc
 50
103.9281985493314
 51
180.0
  0
LINE
  5
33E
330
57
100
AcDbEntity
  8
0-0_補助線
  6
Continuous
 62
     7
370
     9
100
AcDbLine
 10
2.84436528254048
 20
-0.1092529980215105
 30
0.0
 11
2.438173587308029
 21
-0.2001004295672359
 31
0.0
  0
ARC
  5
33F
330
57
100
AcDbEntity
  8
0-0_補助線
  6
Continuous
 62
     7
370
     9
100
AcDbCircle
 10
2.84000000000006
 20
-0.0897352033627286
 30
0.0
 40
0.02
100
AcDbArc
 50
282.6070972495236
 51
0.0
  0
LINE
  5
340
330
57
100
AcDbEntity
  8
0-0_補助線
  6
Continuous
 62
     7
370
     9
100
AcDbLine
 10
2.86000000000007
 20
0.0692483078921242
 30
0.0
 11
2.86000000000007
 21
-0.0897352033627286
 31
0.0
  0
ARC
  5
341
330
57
100
AcDbEntity
  8
0-0_補助線
  6
Continuous
 62
     7
370
     9
100
AcDbCircle
 10
2.84000000000006
 20
0.0692483078921242
 30
0.0
 40
0.02
100
AcDbArc
 50
0.0
 51
102.9995207492461
  0
LINE
  5
342
330
57
100
AcDbEntity
  8
0-0_補助線
  6
Continuous
 62
     7
370
     9
100
AcDbLine
 10
2.408997716168614
 20
-0.0097265699620763
 30
0.0
 11
2.835501141915785
 21
0.0887357468192285
 31
0.0
  0
LINE
  5
343
330
57
100
AcDbEntity
  8
0-0_補助線
  6
Continuous
 62
     7
370
     9
100
AcDbLine
 10
2.408997716168614
 20
-0.0097265699620763
 30
0.0
 11
2.398644954364528
 21
0.0289104630894848
 31
0.0
  0
LINE
  5
344
330
57
100
AcDbEntity
  8
0-0_補助線
  6
Continuous
 62
     7
370
     9
100
AcDbLine
 10
-2.294999999999931
 20
0.0292483078921286
 30
0.0
 11
-2.399999999999949
 21
0.0292483078921286
 31
0.0
  0
ARC
  5
345
330
57
100
AcDbEntity
  8
0-0_補助線
  6
Continuous
 62
     7
370
     9
100
AcDbCircle
 10
-2.059999999999945
 20
-1.630751692107875
 30
0.0
 40
0.06
100
AcDbArc
 50
180.0
 51
270.0
  0
LINE
  5
346
330
57
100
AcDbEntity
  8
0-0_補助線
  6
Continuous
 62
     7
370
     9
100
AcDbLine
 10
-2.119999999999948
 20
-0.3107516921078748
 30
0.0
 11
-2.119999999999948
 21
-1.630751692107875
 31
0.0
  0
ARC
  5
347
330
57
100
AcDbEntity
  8
0-0_補助線
  6
Continuous
 62
     7
370
     9
100
AcDbCircle
 10
-2.059999999999945
 20
-0.3107516921078748
 30
0.0
 40
0.06
100
AcDbArc
 50
90.0
 51
180.0
  0
ARC
  5
348
330
57
100
AcDbEntity
  8
0-0_補助線
  6
Continuous
 62
     7
370
     9
100
AcDbCircle
 10
-2.199999999999932
 20
-1.770751692107872
 30
0.0
 40
0.2
100
AcDbArc
 50
180.0
 51
270.0
  0
LINE
  5
349
330
57
100
AcDbEntity
  8
0-0_補助線
  6
Continuous
 62
     7
370
     9
100
AcDbLine
 10
-2.399999999999949
 20
-0.2976894028633943
 30
0.0
 11
-2.399999999999949
 21
-1.770751692107872
 31
0.0
  0
ARC
  5
34A
330
57
100
AcDbEntity
  8
0-0_補助線
  6
Continuous
 62
     7
370
     9
100
AcDbCircle
 10
-2.459999999999951
 20
-0.2976894028633943
 30
0.0
 40
0.06
100
AcDbArc
 50
0.0
 51
76.0718014506686
  0
LINE
  5
34B
330
57
100
AcDbEntity
  8
0-0_補助線
  6
Continuous
 62
     7
370
     9
100
AcDbLine
 10
-2.899999999999949
 20
0.0692483078921242
 30
0.0
 11
-2.899999999999949
 21
-0.0897352033627286
 31
0.0
  0
LINE
  5
34C
330
57
100
AcDbEntity
  8
0-0_補助線
  6
Continuous
 62
     7
370
     9
100
AcDbLine
 10
-2.853095847616174
 20
-0.1482885873401933
 30
0.0
 11
-2.446904152383723
 21
-0.2391360188859224
 31
0.0
  0
LINE
  5
34D
330
57
100
AcDbEntity
  8
0-0_補助線
  6
Continuous
 62
     7
370
     9
100
AcDbLine
 10
-2.399999999999949
 20
0.0292483078921286
 30
0.0
 11
-2.826503425747092
 21
0.1277106246734299
 31
0.0
  0
ARC
  5
34E
330
57
100
AcDbEntity
  8
0-0_補助線
  6
Continuous
 62
     7
370
     9
100
AcDbCircle
 10
-2.839999999999947
 20
-0.0897352033627286
 30
0.0
 40
0.06
100
AcDbArc
 50
180.0
 51
257.3929027504764
  0
ARC
  5
34F
330
57
100
AcDbEntity
  8
0-0_補助線
  6
Continuous
 62
     7
370
     9
100
AcDbCircle
 10
-2.839999999999947
 20
0.0692483078921242
 30
0.0
 40
0.06
100
AcDbArc
 50
77.00047925075384
 51
180.0
  0
ARC
  5
350
330
57
100
AcDbEntity
  8
0-0_補助線
  6
Continuous
 62
     7
370
     9
100
AcDbCircle
 10
-2.199999999999932
 20
-1.770751692107872
 30
0.0
 40
0.16
100
AcDbArc
 50
180.0
 51
270.0
  0
LINE
  5
351
330
57
100
AcDbEntity
  8
0-0_補助線
  6
Continuous
 62
     7
370
     9
100
AcDbLine
 10
-2.359999999999928
 20
-0.2976894028633943
 30
0.0
 11
-2.359999999999928
 21
-1.770751692107872
 31
0.0
  0
ARC
  5
352
330
57
100
AcDbEntity
  8
0-0_補助線
  6
Continuous
 62
     7
370
     9
100
AcDbCircle
 10
-2.459999999999951
 20
-0.2976894028633943
 30
0.0
 40
0.1
100
AcDbArc
 50
0.0
 51
76.0718014506686
  0
LINE
  5
353
330
57
100
AcDbEntity
  8
0-0_補助線
  6
Continuous
 62
     7
370
     9
100
AcDbLine
 10
-2.844365282540366
 20
-0.1092529980215069
 30
0.0
 11
-2.438173587307915
 21
-0.2001004295672359
 31
0.0
  0
ARC
  5
354
330
57
100
AcDbEntity
  8
0-0_補助線
  6
Continuous
 62
     7
370
     9
100
AcDbCircle
 10
-2.839999999999947
 20
-0.0897352033627286
 30
0.0
 40
0.02
100
AcDbArc
 50
180.0
 51
257.3929027504764
  0
LINE
  5
355
330
57
100
AcDbEntity
  8
0-0_補助線
  6
Continuous
 62
     7
370
     9
100
AcDbLine
 10
-2.859999999999957
 20
0.0692483078921242
 30
0.0
 11
-2.859999999999957
 21
-0.0897352033627286
 31
0.0
  0
ARC
  5
356
330
57
100
AcDbEntity
  8
0-0_補助線
  6
Continuous
 62
     7
370
     9
100
AcDbCircle
 10
-2.839999999999947
 20
0.0692483078921242
 30
0.0
 40
0.02
100
AcDbArc
 50
77.00047925075384
 51
180.0
  0
LINE
  5
357
330
57
100
AcDbEntity
  8
0-0_補助線
  6
Continuous
 62
     7
370
     9
100
AcDbLine
 10
-2.4089977161685
 20
-0.0097265699620763
 30
0.0
 11
-2.835501141915671
 21
0.0887357468192285
 31
0.0
  0
LINE
  5
358
330
57
100
AcDbEntity
  8
0-0_補助線
  6
Continuous
 62
     7
370
     9
100
AcDbLine
 10
-2.4089977161685
 20
-0.0097265699620763
 30
0.0
 11
-2.398644954364414
 21
0.0289104630894848
 31
0.0
  0
LINE
  5
359
330
57
100
AcDbEntity
  8
0-0_補助線
  6
Continuous
 62
     7
370
     9
100
AcDbLine
 10
-2.059999999999945
 20
-0.2507516921078725
 30
0.0
 11
2.060000000000059
 21
-0.2507516921078761
 31
0.0
  0
LINE
  5
35A
330
57
100
AcDbEntity
  8
0-0_補助線
  6
Continuous
 62
     7
370
     9
100
AcDbLine
 10
-2.059999999999945
 20
-1.690751692107877
 30
0.0
 11
2.060000000000059
 21
-1.690751692107877
 31
0.0
  0
LINE
  5
35B
330
57
100
AcDbEntity
  8
0-0_補助線
  6
Continuous
 62
     7
370
     9
100
AcDbLine
 10
-2.199999999999932
 20
-1.930751692107876
 30
0.0
 11
2.200000000000045
 21
-1.930751692107876
 31
0.0
  0
LINE
  5
35C
330
57
100
AcDbEntity
  8
0-0_補助線
  6
Continuous
 62
     7
370
     9
100
AcDbLine
 10
2.200000000000045
 20
-1.970751692107875
 30
0.0
 11
-2.199999999999932
 21
-1.970751692107875
 31
0.0
  0
ENDBLK
  5
59
330
57
100
AcDbEntity
  8
0
100
AcDbBlockEnd
  0
ENDSEC
  0
SECTION
  2
ENTITIES
  0
LINE
  5
5A
330
1F
100
AcDbEntity
  8
F-0_補助線
  6
JWW_HOJO
 62
   120
370
     5
100
AcDbLine
 10
-6140.081333436773
 20
-4455.0
 30
0.0
 11
-6140.081333436773
 21
4424.999604096284
 31
0.0
  0
LINE
  5
5B
330
1F
100
AcDbEntity
  8
F-0_補助線
  6
JWW_HOJO
 62
   120
370
     5
100
AcDbLine
 10
-6140.081333436773
 20
4424.999604096284
 30
0.0
 11
6159.917676803936
 21
4424.999604096284
 31
0.0
  0
LINE
  5
5C
330
1F
100
AcDbEntity
  8
F-0_補助線
  6
JWW_HOJO
 62
   120
370
     5
100
AcDbLine
 10
6159.917676803936
 20
4424.999604096284
 30
0.0
 11
6159.917676803936
 21
-4455.0
 31
0.0
  0
LINE
  5
5D
330
1F
100
AcDbEntity
  8
F-0_補助線
  6
JWW_HOJO
 62
   120
370
     5
100
AcDbLine
 10
6159.917676803936
 20
-4455.0
 30
0.0
 11
-6140.081333436773
 21
-4455.0
 31
0.0
  0
LINE
  5
5E
330
1F
100
AcDbEntity
  8
F-0_補助線
  6
JWW_HOJO
 62
     7
370
     9
100
AcDbLine
 10
509.9185840832865
 20
-3795.000003092998
 30
0.0
 11
509.9185840832865
 21
-4195.000008247994
 31
0.0
  0
LINE
  5
5F
330
1F
100
AcDbEntity
  8
F-1_枠
  6
Continuous
 62
   200
370
    20
100
AcDbLine
 10
5859.917429364114
 20
4174.999769056166
 30
0.0
 11
5859.917429364114
 21
-4205.000164959882
 31
0.0
  0
LINE
  5
60
330
1F
100
AcDbEntity
  8
F-1_枠
  6
Continuous
 62
   200
370
    20
100
AcDbLine
 10
-5840.081317971782
 20
4174.999769056166
 30
0.0
 11
-5840.081317971782
 21
-4205.000164959882
 31
0.0
  0
LINE
  5
61
330
1F
100
AcDbEntity
  8
F-1_枠
  6
Continuous
 62
   200
370
    20
100
AcDbLine
 10
5859.917429364114
 20
-4205.000002577498
 30
0.0
 11
-5840.081085996952
 21
-4205.000002577498
 31
0.0
  0
LINE
  5
62
330
1F
100
AcDbEntity
  8
F-1_枠
  6
Continuous
 62
   200
370
    20
100
AcDbLine
 10
-5830.081323642279
 20
4174.999769056166
 30
0.0
 11
-5830.081323642279
 21
-4205.000164959882
 31
0.0
  0
LINE
  5
63
330
1F
100
AcDbEntity
  8
F-1_枠
  6
Continuous
 62
   200
370
    20
100
AcDbLine
 10
-5835.081309208291
 20
4174.999769056166
 30
0.0
 11
-5835.081309208291
 21
-4205.000164959882
 31
0.0
  0
LINE
  5
64
330
1F
100
AcDbEntity
  8
F-1_枠
  6
Continuous
 62
   200
370
    20
100
AcDbLine
 10
5854.917165428304
 20
4174.999769056166
 30
0.0
 11
5854.917165428304
 21
-4205.000164959882
 31
0.0
  0
LINE
  5
65
330
1F
100
AcDbEntity
  8
F-1_枠
  6
Continuous
 62
   200
370
    20
100
AcDbLine
 10
5849.917643811961
 20
4174.999769056166
 30
0.0
 11
5849.917643811961
 21
-4205.000164959882
 31
0.0
  0
LINE
  5
66
330
1F
100
AcDbEntity
  8
F-1_枠
  6
Continuous
 62
   200
370
    20
100
AcDbLine
 10
5859.917429364114
 20
-4199.999993814004
 30
0.0
 11
-5840.081085996952
 21
-4199.999993814004
 31
0.0
  0
LINE
  5
67
330
1F
100
AcDbEntity
  8
F-1_枠
  6
Continuous
 62
   200
370
    20
100
AcDbLine
 10
5859.917429364114
 20
-4195.000008247994
 30
0.0
 11
-5840.081085996952
 21
-4195.000008247994
 31
0.0
  0
LINE
  5
68
330
1F
100
AcDbEntity
  8
F-1_枠
  6
Continuous
 62
   200
370
    20
100
AcDbLine
 10
4349.917891251784
 20
-3795.000003092998
 30
0.0
 11
4349.917891251784
 21
-4195.000008247994
 31
0.0
  0
LINE
  5
69
330
1F
100
AcDbEntity
  8
F-1_枠
  6
Continuous
 62
   200
370
    20
100
AcDbLine
 10
2849.917396372139
 20
-3795.000003092998
 30
0.0
 11
2849.917396372139
 21
-4195.000008247994
 31
0.0
  0
LINE
  5
6A
330
1F
100
AcDbEntity
  8
F-1_枠
  6
Continuous
 62
   200
370
    20
100
AcDbLine
 10
9.918542843316231
 20
-3795.000003092998
 30
0.0
 11
9.918542843316231
 21
-4195.000008247994
 31
0.0
  0
LINE
  5
6B
330
1F
100
AcDbEntity
  8
F-1_枠
  6
Continuous
 62
   200
370
    20
100
AcDbLine
 10
9.918542843316231
 20
-3994.999936078046
 30
0.0
 11
5849.917643811961
 21
-3995.005364289155
 31
0.0
  0
LINE
  5
6C
330
1F
100
AcDbEntity
  8
F-1_枠
  6
Continuous
 62
   200
370
    20
100
AcDbLine
 10
-5840.081085996952
 20
4174.999769056166
 30
0.0
 11
5859.917429364114
 21
4174.999769056166
 31
0.0
  0
LINE
  5
6D
330
1F
100
AcDbEntity
  8
F-1_枠
  6
Continuous
 62
   200
370
    20
100
AcDbLine
 10
-5840.081085996952
 20
4164.999983504013
 30
0.0
 11
5859.917429364114
 21
4164.999983504013
 31
0.0
  0
LINE
  5
6E
330
1F
100
AcDbEntity
  8
F-1_枠
  6
Continuous
 62
   200
370
    20
100
AcDbLine
 10
-5840.081085996952
 20
4169.999505120355
 30
0.0
 11
5859.917429364114
 21
4169.999505120355
 31
0.0
  0
LINE
  5
6F
330
1F
100
AcDbEntity
  8
F-0_補助線
  6
JWW_HOJO
 62
     7
370
     9
100
AcDbLine
 10
-5830.081323642279
 20
-3994.99993607839
 30
0.0
 11
9.918542843316231
 21
-3994.99993607839
 31
0.0
  0
LINE
  5
70
330
1F
100
AcDbEntity
  8
F-0_補助線
  6
JWW_HOJO
 62
     7
370
     9
100
AcDbLine
 10
-5830.081323642279
 20
-3904.99993607839
 30
0.0
 11
9.918542843316231
 21
-3904.99993607839
 31
0.0
  0
LINE
  5
71
330
1F
100
AcDbEntity
  8
F-0_補助線
  6
JWW_HOJO
 62
     7
370
     9
100
AcDbLine
 10
-5830.081323642279
 20
-4084.99993607839
 30
0.0
 11
9.918542843316231
 21
-4084.99993607839
 31
0.0
  0
LINE
  5
72
330
1F
100
AcDbEntity
  8
F-0_補助線
  6
JWW_HOJO
 62
     7
370
     9
100
AcDbLine
 10
9.918408067688347
 20
-4139.999739777983
 30
0.0
 11
5849.917509036332
 21
-4140.005167989091
 31
0.0
  0
LINE
  5
73
330
1F
100
AcDbEntity
  8
F-0_補助線
  6
JWW_HOJO
 62
     7
370
     9
100
AcDbLine
 10
9.918491721639953
 20
-4049.999739778022
 30
0.0
 11
5849.917592690284
 21
-4050.005167989131
 31
0.0
  0
LINE
  5
74
330
1F
100
AcDbEntity
  8
F-0_補助線
  6
JWW_HOJO
 62
     7
370
     9
100
AcDbLine
 10
9.918593965360003
 20
-3939.99973721807
 30
0.0
 11
5849.917694934004
 21
-3940.005165429179
 31
0.0
  0
LINE
  5
75
330
1F
100
AcDbEntity
  8
F-0_補助線
  6
JWW_HOJO
 62
     7
370
     9
100
AcDbLine
 10
9.918677619311609
 20
-3849.999737218109
 30
0.0
 11
5849.917778587956
 21
-3850.005165429218
 31
0.0
  0
LINE
  5
76
330
1F
100
AcDbEntity
  8
F-0_補助線
  6
JWW_HOJO
 62
     7
370
     9
100
AcDbLine
 10
2939.917396372139
 20
-3795.000003092998
 30
0.0
 11
2939.917396372139
 21
-4195.000008247994
 31
0.0
  0
LINE
  5
77
330
1F
100
AcDbEntity
  8
F-0_補助線
  6
JWW_HOJO
 62
     7
370
     9
100
AcDbLine
 10
99.91854284331623
 20
-3795.000003092998
 30
0.0
 11
99.91854284331623
 21
-4195.000008247994
 31
0.0
  0
LINE
  5
78
330
1F
100
AcDbEntity
  8
F-0_補助線
  6
JWW_HOJO
 62
     7
370
     9
100
AcDbLine
 10
4439.917891251784
 20
-3795.000003092998
 30
0.0
 11
4439.917891251784
 21
-4195.000008247994
 31
0.0
  0
LINE
  5
79
330
1F
100
AcDbEntity
  8
F-1_枠
  6
Continuous
 62
   200
370
    20
100
AcDbLine
 10
5859.917429364114
 20
-3795.000003092998
 30
0.0
 11
-5840.081085996952
 21
-3795.000003092998
 31
0.0
  0
LINE
  5
7A
330
1F
100
AcDbEntity
  8
F-1_枠
  6
Continuous
 62
   200
370
    20
100
AcDbLine
 10
5859.917429364114
 20
-3790.000017526987
 30
0.0
 11
-5840.081085996952
 21
-3790.000017526987
 31
0.0
  0
LINE
  5
7B
330
1F
100
AcDbEntity
  8
F-0_補助線
  6
JWW_HOJO
 62
     7
370
     9
100
AcDbLine
 10
-5087.628710189611
 20
-3795.000003092999
 30
0.0
 11
-5087.628710189611
 21
-4205.000164959882
 31
0.0
  0
LINE
  5
7C
330
1F
100
AcDbEntity
  8
F-0_補助線
  6
JWW_HOJO
 62
     7
370
     9
100
AcDbLine
 10
-50.08145715668377
 20
-3795.000003092998
 30
0.0
 11
-50.08145715668377
 21
-4195.000008247994
 31
0.0
  0
MTEXT
  5
7D
330
1F
100
AcDbEntity
  8
F-A_文字
  6
Continuous
 62
     7
370
     0
100
AcDbMText
 10
99.91854284331623
 20
-3887.139820871936
 30
0.0
 40
45.72
 41
180.0
 46
0.0
 71
     7
 72
     1
  1
{\fＭＳ ゴシック|b0|i0|c128|p49;図面名}
 73
     1
 44
1.0
  0
MTEXT
  5
7E
330
1F
100
AcDbEntity
  8
F-A_文字
  6
Continuous
 62
     7
370
     0
100
AcDbMText
 10
2939.917396372139
 20
-3887.142460617774
 30
0.0
 40
45.72
 41
300.0
 46
0.0
 71
     7
 72
     1
  1
{\fＭＳ ゴシック|b0|i0|c128|p49;ＳＣＡＬＥ}
 73
     1
 44
1.0
  0
MTEXT
  5
7F
330
1F
100
AcDbEntity
  8
F-A_文字
  6
Continuous
 62
     7
370
     0
100
AcDbMText
 10
4439.917891251784
 20
-3887.143854850754
 30
0.0
 40
45.72
 41
240.0
 46
0.0
 71
     7
 72
     1
  1
{\fＭＳ ゴシック|b0|i0|c128|p49;ＤＡＴＥ}
 73
     1
 44
1.0
  0
MTEXT
  5
80
330
1F
100
AcDbEntity
  8
F-A_文字
  6
Continuous
 62
     7
370
     0
100
AcDbMText
 10
2939.917396372139
 20
-4087.14246317786
 30
0.0
 40
45.72
 41
240.0
 46
0.0
 71
     7
 72
     1
  1
{\fＭＳ ゴシック|b0|i0|c128|p49;ＦＩＬＥ}
 73
     1
 44
1.0
  0
MTEXT
  5
81
330
1F
100
AcDbEntity
  8
F-A_文字
  6
Continuous
 62
     7
370
     0
100
AcDbMText
 10
4439.917891251784
 20
-4087.143857410839
 30
0.0
 40
45.72
 41
180.0
 46
0.0
 71
     7
 72
     1
  1
{\fＭＳ ゴシック|b0|i0|c128|p49;ＮＯ．}
 73
     1
 44
1.0
  0
MTEXT
  5
82
330
1F
100
AcDbEntity
  8
F-A_文字
  6
Continuous
 62
     7
370
     0
100
AcDbMText
 10
1394.917396372138
 20
-4096.140669266149
 30
0.0
 40
45.72
 41
120.0
 46
0.0
 71
     7
 72
     1
  1
{\fＭＳ ゴシック|b0|i0|c128|p49;株式}
 73
     1
 44
1.0
  0
MTEXT
  5
83
330
1F
100
AcDbEntity
  8
F-A_文字
  6
Continuous
 62
     7
370
     0
100
AcDbMText
 10
1604.917396372138
 20
-4164.281754523929
 30
0.0
 40
101.44125
 41
1065.0
 46
0.0
 71
     7
 72
     1
  1
{\fＭＳ ゴシック|b0|i0|c128|p49;ウッドワン・・・}
 73
     1
 44
1.0
  0
MTEXT
  5
84
330
1F
100
AcDbEntity
  8
F-A_文字
  6
Continuous
 62
     7
370
     0
100
AcDbMText
 10
1394.917396372138
 20
-4168.140669266187
 30
0.0
 40
45.72
 41
120.0
 46
0.0
 71
     7
 72
     1
  1
{\fＭＳ ゴシック|b0|i0|c128|p49;会社}
 73
     1
 44
1.0
  0
MTEXT
  5
85
330
1F
100
AcDbEntity
  8
F-A_文字
  6
Continuous
 62
     7
370
     0
100
AcDbMText
 10
5768.321977672939
 20
-4314.841419020919
 30
0.0
 40
68.58
 41
90.0
 46
0.0
 71
     7
 72
     1
  1
{\fＭＳ ゴシック|b0|i0|c128|p49;）}
 73
     1
 44
1.0
  0
MTEXT
  5
86
330
1F
100
AcDbEntity
  8
F-A_文字
  6
Continuous
 62
     7
370
     0
100
AcDbMText
 10
5350.114617405298
 20
-4316.235443869856
 30
0.0
 40
68.58
 41
45.0
 46
0.0
 71
     7
 72
     1
  1
{\fＭＳ ゴシック|b0|i0|c128|p49;,}
 73
     1
 44
1.0
  0
MTEXT
  5
87
330
1F
100
AcDbEntity
  8
F-A_文字
  6
Continuous
 62
     7
370
     0
100
AcDbMText
 10
5083.855928478601
 20
-4314.771967288282
 30
0.0
 40
74.295
 41
97.5
 46
0.0
 71
     7
 72
     1
  1
{\fＭＳ ゴシック|b0|i0|c128|p49;$y}
 73
     1
 44
1.0
  0
MTEXT
  5
88
330
1F
100
AcDbEntity
  8
F-A_文字
  6
Continuous
 62
     7
370
     0
100
AcDbMText
 10
5238.592649517422
 20
-4314.771967288282
 30
0.0
 40
74.295
 41
97.5
 46
0.0
 71
     7
 72
     1
  1
{\fＭＳ ゴシック|b0|i0|c128|p49;$m}
 73
     1
 44
1.0
  0
MTEXT
  5
89
330
1F
100
AcDbEntity
  8
F-A_文字
  6
Continuous
 62
     7
370
     0
100
AcDbMText
 10
5393.32938200033
 20
-4314.771967288282
 30
0.0
 40
74.295
 41
97.5
 46
0.0
 71
     7
 72
     1
  1
{\fＭＳ ゴシック|b0|i0|c128|p49;$d}
 73
     1
 44
1.0
  0
MTEXT
  5
8A
330
1F
100
AcDbEntity
  8
F-A_文字
  6
Continuous
 62
     7
370
     0
100
AcDbMText
 10
5548.066114483239
 20
-4314.771967288282
 30
0.0
 40
74.295
 41
195.0
 46
0.0
 71
     7
 72
     1
  1
{\fＭＳ ゴシック|b0|i0|c128|p49;印刷}
 73
     1
 44
1.0
  0
MTEXT
  5
8B
330
1F
100
AcDbEntity
  8
F-A_文字
  6
Continuous
 62
     7
370
     0
100
AcDbMText
 10
4943.952040816226
 20
-4319.023493567732
 30
0.0
 40
68.58
 41
90.0
 46
0.0
 71
     7
 72
     1
  1
{\fＭＳ ゴシック|b0|i0|c128|p49;（}
 73
     1
 44
1.0
  0
MTEXT
  5
8C
330
1F
100
AcDbEntity
  8
F-A_文字
  6
Continuous
 62
     7
370
     0
100
AcDbMText
 10
5191.195810375571
 20
-4319.023493567732
 30
0.0
 40
68.58
 41
45.0
 46
0.0
 71
     7
 72
     1
  1
{\fＭＳ ゴシック|b0|i0|c128|p49;,}
 73
     1
 44
1.0
  0
LINE
  5
8D
330
1F
100
AcDbEntity
  8
0-A_文字
  6
Continuous
 62
    92
370
    13
100
AcDbLine
 10
-5659.999495325861
 20
3730.000181455871
 30
0.0
 11
-5659.999495325861
 21
4000.000181455871
 31
0.0
  0
MTEXT
  5
8E
330
1F
100
AcDbEntity
  8
F-A_文字
  6
Continuous
 62
     7
370
     9
100
AcDbMText
 10
5096.167700144058
 20
-4147.857012699985
 30
0.0
 40
74.295
 41
97.5
 46
0.0
 71
     7
 72
     1
  1
{\fＭＳ ゴシック|b0|i0|c128|p49;01}
 73
     1
 44
1.0
  0
MTEXT
  5
8F
330
1F
100
AcDbEntity
  8
F-A_文字
  6
Continuous
 62
     7
370
     0
100
AcDbMText
 10
3569.917643811961
 20
-3946.903115907308
 30
0.0
 40
76.19999999999999
 41
150.0
 46
0.0
 71
     7
 72
     1
  1
{\fＭＳ ゴシック|b0|i0|c128|p49;1/5}
 73
     1
 44
1.0
  0
LINE
  5
90
330
1F
100
AcDbEntity
  8
F-0_補助線
  6
JWW_HOJO
 62
   120
370
     5
100
AcDbLine
 10
-6140.081333436773
 20
3730.000181455871
 30
0.0
 11
6159.917676803936
 21
3730.000181455871
 31
0.0
  0
LINE
  5
91
330
1F
100
AcDbEntity
  8
F-0_補助線
  6
JWW_HOJO
 62
   120
370
     5
100
AcDbLine
 10
-6140.081333436773
 20
4000.000181455871
 30
0.0
 11
6159.917676803936
 21
4000.000181455871
 31
0.0
  0
LINE
  5
92
330
1F
100
AcDbEntity
  8
F-0_補助線
  6
JWW_HOJO
 62
   120
370
     5
100
AcDbLine
 10
9.918171683581818
 20
-4455.0
 30
0.0
 11
9.918171683581818
 21
4424.999604096284
 31
0.0
  0
LINE
  5
93
330
1F
100
AcDbEntity
  8
F-0_補助線
  6
JWW_HOJO
 62
   120
370
     5
100
AcDbLine
 10
-5659.999495325861
 20
4424.999604096284
 30
0.0
 11
-5659.999495325861
 21
-4455.0
 31
0.0
  0
LINE
  5
94
330
1F
100
AcDbEntity
  8
F-0_補助線
  6
JWW_HOJO
 62
   120
370
     5
100
AcDbLine
 10
-6140.081333436773
 20
2438.999683277028
 30
0.0
 11
6159.917676803936
 21
2438.999683277028
 31
0.0
  0
LINE
  5
95
330
1F
100
AcDbEntity
  8
F-0_補助線
  6
JWW_HOJO
 62
   120
370
     5
100
AcDbLine
 10
-6140.081333436773
 20
194.9998020481422
 30
0.0
 11
6159.917676803936
 21
194.9998020481422
 31
0.0
  0
LINE
  5
96
330
1F
100
AcDbEntity
  8
F-0_補助線
  6
JWW_HOJO
 62
   120
370
     5
100
AcDbLine
 10
-6140.081333436773
 20
-3159.000197951857
 30
0.0
 11
6159.917676803936
 21
-3159.000197951857
 31
0.0
  0
LINE
  5
97
330
1F
100
AcDbEntity
  8
F-0_補助線
  6
JWW_HOJO
 62
   120
370
     5
100
AcDbLine
 10
5679.835838693025
 20
4000.000181455871
 30
0.0
 11
5679.835838693025
 21
-4455.0
 31
0.0
  0
LINE
  5
98
330
1F
100
AcDbEntity
  8
0-C_ハッチ
  6
JWW_DASHED1
 62
   120
370
     5
100
AcDbLine
 10
-1991.825550626898
 20
-339.000197951856
 30
0.0
 11
-1971.856867199997
 21
-319.0315145249576
 31
0.0
  0
LINE
  5
99
330
1F
100
AcDbEntity
  8
0-C_ハッチ
  6
JWW_DASHED1
 62
   120
370
     5
100
AcDbLine
 10
-2034.251957498084
 20
-339.000197951856
 30
0.0
 11
-1971.856867199997
 21
-276.6051076537678
 31
0.0
  0
LINE
  5
9A
330
1F
100
AcDbEntity
  8
0-C_ハッチ
  6
JWW_DASHED1
 62
   120
370
     5
100
AcDbLine
 10
-2353.074467437128
 20
-339.000197951856
 30
0.0
 11
-2316.856867199984
 21
-302.7825977147219
 31
0.0
  0
LINE
  5
9B
330
1F
100
AcDbEntity
  8
0-C_ハッチ
  6
JWW_DASHED1
 62
   120
370
     5
100
AcDbLine
 10
-2046.856867199997
 20
-309.1787007825653
 30
0.0
 11
-1971.856867199997
 21
-234.17870078257
 31
0.0
  0
LINE
  5
9C
330
1F
100
AcDbEntity
  8
0-C_ハッチ
  6
JWW_DASHED1
 62
   120
370
     5
100
AcDbLine
 10
-2391.856867199991
 20
-335.3561908435287
 30
0.0
 11
-2316.856867199997
 21
-260.3561908435394
 31
0.0
  0
LINE
  5
9D
330
1F
100
AcDbEntity
  8
0-C_ハッチ
  6
JWW_DASHED1
 62
   120
370
     5
100
AcDbLine
 10
-2391.856867199997
 20
88.90787786841003
 30
0.0
 11
-2316.856867199997
 21
163.9078778684066
 31
0.0
  0
LINE
  5
9E
330
1F
100
AcDbEntity
  8
0-C_ハッチ
  6
JWW_DASHED1
 62
   120
370
     5
100
AcDbLine
 10
-2391.856867199997
 20
46.48147099721257
 30
0.0
 11
-2316.856867199997
 21
121.4814709972109
 31
0.0
  0
LINE
  5
9F
330
1F
100
AcDbEntity
  8
0-C_ハッチ
  6
JWW_DASHED1
 62
   120
370
     5
100
AcDbLine
 10
-2391.856867199997
 20
4.055064126015964
 30
0.0
 11
-2316.856867199997
 21
79.05506412601255
 31
0.0
  0
LINE
  5
A0
330
1F
100
AcDbEntity
  8
0-C_ハッチ
  6
JWW_DASHED1
 62
   120
370
     5
100
AcDbLine
 10
-2391.856867199991
 20
-38.37134274512266
 30
0.0
 11
-2316.856867199984
 21
36.62865725487393
 31
0.0
  0
LINE
  5
A1
330
1F
100
AcDbEntity
  8
0-C_ハッチ
  6
JWW_DASHED1
 62
   120
370
     5
100
AcDbLine
 10
-2391.856867199984
 20
-80.79774961631927
 30
0.0
 11
-2316.856867199984
 21
-5.797749616322676
 31
0.0
  0
LINE
  5
A2
330
1F
100
AcDbEntity
  8
0-C_ハッチ
  6
JWW_DASHED1
 62
   120
370
     5
100
AcDbLine
 10
-2391.856867199997
 20
-123.2241564875329
 30
0.0
 11
-2316.856867199984
 21
-48.22415648752099
 31
0.0
  0
LINE
  5
A3
330
1F
100
AcDbEntity
  8
0-C_ハッチ
  6
JWW_DASHED1
 62
   120
370
     5
100
AcDbLine
 10
-2391.856867199997
 20
-165.6505633587355
 30
0.0
 11
-2316.856867199984
 21
-90.65056335872526
 31
0.0
  0
LINE
  5
A4
330
1F
100
AcDbEntity
  8
0-C_ハッチ
  6
JWW_DASHED1
 62
   120
370
     5
100
AcDbLine
 10
-2391.856867199997
 20
-208.0769702299325
 30
0.0
 11
-2316.856867199997
 21
-133.0769702299364
 31
0.0
  0
LINE
  5
A5
330
1F
100
AcDbEntity
  8
0-C_ハッチ
  6
JWW_DASHED1
 62
   120
370
     5
100
AcDbLine
 10
-2391.856867200004
 20
-250.5033771011423
 30
0.0
 11
-2316.856867200011
 21
-175.5033771011462
 31
0.0
  0
LINE
  5
A6
330
1F
100
AcDbEntity
  8
0-C_ハッチ
  6
JWW_DASHED1
 62
   120
370
     5
100
AcDbLine
 10
-2389.92728117951
 20
-291.0001979518426
 30
0.0
 11
-2316.856867199997
 21
-217.9297839723424
 31
0.0
  0
LINE
  5
A7
330
1F
100
AcDbEntity
  8
0-C_ハッチ
  6
JWW_DASHED1
 62
   120
370
     5
100
AcDbLine
 10
-2046.856867199997
 20
115.0853679293198
 30
0.0
 11
-1971.856867200011
 21
190.0853679293181
 31
0.0
  0
LINE
  5
A8
330
1F
100
AcDbEntity
  8
0-C_ハッチ
  6
JWW_DASHED1
 62
   120
370
     5
100
AcDbLine
 10
-2046.856867199997
 20
72.65896105812232
 30
0.0
 11
-1971.856867199997
 21
147.6589610581198
 31
0.0
  0
LINE
  5
A9
330
1F
100
AcDbEntity
  8
0-C_ハッチ
  6
JWW_DASHED1
 62
   120
370
     5
100
AcDbLine
 10
-2046.856867199997
 20
30.23255418698369
 30
0.0
 11
-1971.856867199997
 21
105.2325541869811
 31
0.0
  0
LINE
  5
AA
330
1F
100
AcDbEntity
  8
0-C_ハッチ
  6
JWW_DASHED1
 62
   120
370
     5
100
AcDbLine
 10
-2046.856867199984
 20
-12.19385268421206
 30
0.0
 11
-1971.856867199997
 21
62.80614731578453
 31
0.0
  0
LINE
  5
AB
330
1F
100
AcDbEntity
  8
0-C_ハッチ
  6
JWW_DASHED1
 62
   120
370
     5
100
AcDbLine
 10
-2046.856867199984
 20
-54.62025955541037
 30
0.0
 11
-1971.856867199984
 21
20.37974044458707
 31
0.0
  0
LINE
  5
AC
330
1F
100
AcDbEntity
  8
0-C_ハッチ
  6
JWW_DASHED1
 62
   120
370
     5
100
AcDbLine
 10
-2046.856867199997
 20
-97.04666642662403
 30
0.0
 11
-1971.856867199984
 21
-22.04666642661039
 31
0.0
  0
LINE
  5
AD
330
1F
100
AcDbEntity
  8
0-C_ハッチ
  6
JWW_DASHED1
 62
   120
370
     5
100
AcDbLine
 10
-2046.856867199997
 20
-139.4730732978245
 30
0.0
 11
-1971.856867199997
 21
-64.47307329781381
 31
0.0
  0
LINE
  5
AE
330
1F
100
AcDbEntity
  8
0-C_ハッチ
  6
JWW_DASHED1
 62
   120
370
     5
100
AcDbLine
 10
-2046.856867200011
 20
-181.8994801690334
 30
0.0
 11
-1971.856867200011
 21
-106.8994801690368
 31
0.0
  0
LINE
  5
AF
330
1F
100
AcDbEntity
  8
0-C_ハッチ
  6
JWW_DASHED1
 62
   120
370
     5
100
AcDbLine
 10
-2046.856867200011
 20
-224.3258870402313
 30
0.0
 11
-1971.856867200011
 21
-149.3258870402347
 31
0.0
  0
LINE
  5
B0
330
1F
100
AcDbEntity
  8
0-C_ハッチ
  6
JWW_DASHED1
 62
   120
370
     5
100
AcDbLine
 10
-2046.856867200011
 20
-266.752293911428
 30
0.0
 11
-1971.856867200011
 21
-191.7522939114313
 31
0.0
  0
LINE
  5
B1
330
1F
100
AcDbEntity
  8
0-4_枠
  6
Continuous
 62
   120
370
     5
100
AcDbLine
 10
-2427.856867200006
 20
-339.000197951856
 30
0.0
 11
-2451.856867200004
 21
-339.000197951856
 31
0.0
  0
LINE
  5
B2
330
1F
100
AcDbEntity
  8
0-4_枠
  6
Continuous
 62
   120
370
     5
100
AcDbLine
 10
-1935.856867200003
 20
-339.000197951856
 30
0.0
 11
-1911.856867199997
 21
-339.000197951856
 31
0.0
  0
LINE
  5
B3
330
1F
100
AcDbEntity
  8
0-4_枠
  6
Continuous
 62
   120
370
     5
100
AcDbLine
 10
-2451.856867200004
 20
-339.000197951856
 30
0.0
 11
-2451.856867200004
 21
-1716.000197951854
 31
0.0
  0
LINE
  5
B4
330
1F
100
AcDbEntity
  8
0-4_枠
  6
Continuous
 62
   120
370
     5
100
AcDbLine
 10
-1911.856867199997
 20
-339.000197951856
 30
0.0
 11
-1911.856867199997
 21
-1716.000197951854
 31
0.0
  0
LINE
  5
B5
330
1F
100
AcDbEntity
  8
0-0_補助線
  6
JWW_HOJO
 62
   120
370
     5
100
AcDbLine
 10
-1576.285300799998
 20
-1716.000197951854
 30
0.0
 11
-2778.428433600005
 21
-1716.000197951854
 31
0.0
  0
LINE
  5
B6
330
1F
100
AcDbEntity
  8
0-0_補助線
  6
JWW_HOJO
 62
   120
370
     5
100
AcDbLine
 10
-1576.285300799998
 20
-1836.000197951857
 30
0.0
 11
-2778.428433600005
 21
-1836.000197951857
 31
0.0
  0
LINE
  5
B7
330
1F
100
AcDbEntity
  8
0-4_枠
  6
Continuous
 62
   120
370
     5
100
AcDbLine
 10
-2451.856867200004
 20
-1836.000197951857
 30
0.0
 11
-2451.856867200004
 21
-3087.000403945508
 31
0.0
  0
LINE
  5
B8
330
1F
100
AcDbEntity
  8
0-4_枠
  6
Continuous
 62
   120
370
     5
100
AcDbLine
 10
-1911.856867199997
 20
-1836.000197951857
 30
0.0
 11
-1911.856867199997
 21
-3087.000403945508
 31
0.0
  0
LWPOLYLINE
  5
B9
330
1F
100
AcDbEntity
  8
0-B_寸法
  6
Continuous
 62
     7
370
     9
100
AcDbPolyline
 90
        4
 70
     1
 43
3.0
 10
-2426.356867200006
 20
-791.5301876379307
 42
0.4142135623731
 10
-2427.856867200006
 20
-790.0301876379307
 42
0.4142135623731
 10
-2429.356867200006
 20
-791.5301876379307
 42
0.4142135623731
 10
-2427.856867200006
 20
-793.0301876379307
 42
0.4142135623731
  0
LINE
  5
BA
330
1F
100
AcDbEntity
  8
0-B_寸法
  6
Continuous
 62
   120
370
     5
100
AcDbLine
 10
-2427.856867200006
 20
-791.5301876379307
 30
0.0
 11
-2427.856867200006
 21
-584.39804881433
 31
0.0
  0
LWPOLYLINE
  5
BB
330
1F
100
AcDbEntity
  8
0-B_寸法
  6
Continuous
 62
     7
370
     9
100
AcDbPolyline
 90
        4
 70
     1
 43
3.0
 10
-1350.213734374701
 20
-501.0001979518549
 42
0.4142135623731
 10
-1351.713734374701
 20
-499.5001979518549
 42
0.4142135623731
 10
-1353.213734374701
 20
-501.0001979518549
 42
0.4142135623731
 10
-1351.713734374701
 20
-502.5001979518549
 42
0.4142135623731
  0
LWPOLYLINE
  5
BC
330
1F
100
AcDbEntity
  8
0-B_寸法
  6
Continuous
 62
     7
370
     9
100
AcDbPolyline
 90
        4
 70
     1
 43
3.0
 10
-1350.213734374701
 20
-483.0001979518555
 42
0.4142135623731
 10
-1351.713734374701
 20
-481.5001979518555
 42
0.4142135623731
 10
-1353.213734374701
 20
-483.0001979518555
 42
0.4142135623731
 10
-1351.713734374701
 20
-484.5001979518555
 42
0.4142135623731
  0
LINE
  5
BD
330
1F
100
AcDbEntity
  8
0-B_寸法
  6
Continuous
 62
   120
370
     5
100
AcDbLine
 10
-1351.713734374701
 20
-501.0001979518549
 30
0.0
 11
-1561.713734374701
 21
-501.0001979518549
 31
0.0
  0
LINE
  5
BE
330
1F
100
AcDbEntity
  8
0-B_寸法
  6
Continuous
 62
   120
370
     5
100
AcDbLine
 10
-1351.713734374701
 20
-483.0001979518555
 30
0.0
 11
-1351.713734374701
 21
-3068.999894683423
 31
0.0
  0
LWPOLYLINE
  5
BF
330
1F
100
AcDbEntity
  8
0-B_寸法
  6
Continuous
 62
     7
370
     9
100
AcDbPolyline
 90
        4
 70
     1
 43
3.0
 10
-1140.213734374701
 20
-483.0001979518555
 42
0.4142135623731
 10
-1141.713734374701
 20
-481.5001979518555
 42
0.4142135623731
 10
-1143.213734374701
 20
-483.0001979518555
 42
0.4142135623731
 10
-1141.713734374701
 20
-484.5001979518555
 42
0.4142135623731
  0
LWPOLYLINE
  5
C0
330
1F
100
AcDbEntity
  8
0-B_寸法
  6
Continuous
 62
     7
370
     9
100
AcDbPolyline
 90
        4
 70
     1
 43
3.0
 10
-1140.213734374701
 20
-339.000197951856
 42
0.4142135623731
 10
-1141.713734374701
 20
-337.500197951856
 42
0.4142135623731
 10
-1143.213734374701
 20
-339.000197951856
 42
0.4142135623731
 10
-1141.713734374701
 20
-340.500197951856
 42
0.4142135623731
  0
LINE
  5
C1
330
1F
100
AcDbEntity
  8
0-B_寸法
  6
Continuous
 62
   120
370
     5
100
AcDbLine
 10
-1141.713734374701
 20
-483.0001979518555
 30
0.0
 11
-1561.713734374701
 21
-483.0001979518555
 31
0.0
  0
LINE
  5
C2
330
1F
100
AcDbEntity
  8
0-B_寸法
  6
Continuous
 62
   120
370
     5
100
AcDbLine
 10
-931.713734374701
 20
-339.000197951856
 30
0.0
 11
-1561.713734374701
 21
-339.000197951856
 31
0.0
  0
LWPOLYLINE
  5
C3
330
1F
100
AcDbEntity
  8
0-B_寸法
  6
Continuous
 62
     7
370
     9
100
AcDbPolyline
 90
        4
 70
     1
 43
3.0
 10
-930.213734374701
 20
-339.000197951856
 42
0.4142135623731
 10
-931.713734374701
 20
-337.500197951856
 42
0.4142135623731
 10
-933.213734374701
 20
-339.000197951856
 42
0.4142135623731
 10
-931.713734374701
 20
-340.500197951856
 42
0.4142135623731
  0
LINE
  5
C4
330
1F
100
AcDbEntity
  8
0-B_寸法
  6
Continuous
 62
   120
370
     5
100
AcDbLine
 10
-931.713734374701
 20
-339.000197951856
 30
0.0
 11
-931.713734374701
 21
-3159.000197951857
 31
0.0
  0
LINE
  5
C5
330
1F
100
AcDbEntity
  8
0-B_寸法
  6
Continuous
 62
   120
370
     5
100
AcDbLine
 10
-1351.713734374701
 20
-3008.999894683423
 30
0.0
 11
-1561.713734374701
 21
-3008.999894683423
 31
0.0
  0
LWPOLYLINE
  5
C6
330
1F
100
AcDbEntity
  8
0-B_寸法
  6
Continuous
 62
     7
370
     9
100
AcDbPolyline
 90
        4
 70
     1
 43
3.0
 10
-1350.213734374701
 20
-3008.999894683423
 42
0.4142135623731
 10
-1351.713734374701
 20
-3007.499894683423
 42
0.4142135623731
 10
-1353.213734374701
 20
-3008.999894683423
 42
0.4142135623731
 10
-1351.713734374701
 20
-3010.499894683423
 42
0.4142135623731
  0
LWPOLYLINE
  5
C7
330
1F
100
AcDbEntity
  8
0-B_寸法
  6
Continuous
 62
     7
370
     9
100
AcDbPolyline
 90
        4
 70
     1
 43
3.0
 10
-1350.213734374701
 20
-3068.999894683423
 42
0.4142135623731
 10
-1351.713734374701
 20
-3067.499894683423
 42
0.4142135623731
 10
-1353.213734374701
 20
-3068.999894683423
 42
0.4142135623731
 10
-1351.713734374701
 20
-3070.499894683423
 42
0.4142135623731
  0
LINE
  5
C8
330
1F
100
AcDbEntity
  8
0-B_寸法
  6
Continuous
 62
   120
370
     5
100
AcDbLine
 10
-1141.713734374701
 20
-3068.999894683423
 30
0.0
 11
-1561.713734374701
 21
-3068.999894683423
 31
0.0
  0
LWPOLYLINE
  5
C9
330
1F
100
AcDbEntity
  8
0-B_寸法
  6
Continuous
 62
     7
370
     9
100
AcDbPolyline
 90
        4
 70
     1
 43
3.0
 10
-1140.213734374701
 20
-3068.999894683423
 42
0.4142135623731
 10
-1141.713734374701
 20
-3067.499894683423
 42
0.4142135623731
 10
-1143.213734374701
 20
-3068.999894683423
 42
0.4142135623731
 10
-1141.713734374701
 20
-3070.499894683423
 42
0.4142135623731
  0
LWPOLYLINE
  5
CA
330
1F
100
AcDbEntity
  8
0-B_寸法
  6
Continuous
 62
     7
370
     9
100
AcDbPolyline
 90
        4
 70
     1
 43
3.0
 10
-930.213734374701
 20
-3159.000197951857
 42
0.4142135623731
 10
-931.713734374701
 20
-3157.500197951857
 42
0.4142135623731
 10
-933.213734374701
 20
-3159.000197951857
 42
0.4142135623731
 10
-931.713734374701
 20
-3160.500197951857
 42
0.4142135623731
  0
LINE
  5
CB
330
1F
100
AcDbEntity
  8
0-B_寸法
  6
Continuous
 62
   120
370
     5
100
AcDbLine
 10
-931.713734374701
 20
-3159.000197951857
 30
0.0
 11
-1561.713734374701
 21
-3159.000197951857
 31
0.0
  0
LINE
  5
CC
330
1F
100
AcDbEntity
  8
0-4_枠
  6
Continuous
 62
    92
370
    13
100
AcDbLine
 10
-2423.61422651288
 20
-483.0001979518568
 30
0.0
 11
-2328.8568672
 21
-483.0001979518568
 31
0.0
  0
LINE
  5
CD
330
1F
100
AcDbEntity
  8
0-4_枠
  6
Continuous
 62
    92
370
    13
100
AcDbLine
 10
-2422.371150950276
 20
-480.0006328273445
 30
0.0
 11
-2328.8568672
 21
-480.0006328273445
 31
0.0
  0
LINE
  5
CE
330
1F
100
AcDbEntity
  8
0-4_枠
  6
Continuous
 62
    92
370
    13
100
AcDbLine
 10
-1941.342583449726
 20
-480.0006328273445
 30
0.0
 11
-2172.856867199999
 21
-480.0006328273445
 31
0.0
  0
LINE
  5
CF
330
1F
100
AcDbEntity
  8
0-4_枠
  6
Continuous
 62
    92
370
    13
100
AcDbLine
 10
-1940.099507887115
 20
-483.0001979518568
 30
0.0
 11
-2172.856867199999
 21
-483.0001979518568
 31
0.0
  0
LINE
  5
D0
330
1F
100
AcDbEntity
  8
0-C_ハッチ
  6
Continuous
 62
   120
370
     5
100
AcDbLine
 10
-2320.798045181671
 20
-339.000197951856
 30
0.0
 11
-2195.056867199999
 21
-464.7422811169349
 31
0.0
  0
LINE
  5
D1
330
1F
100
AcDbEntity
  8
0-C_ハッチ
  6
Continuous
 62
   120
370
     5
100
AcDbLine
 10
-2385.680069859207
 20
-342.0001979518563
 30
0.0
 11
-2247.680005283699
 21
-480.0006328273466
 31
0.0
  0
LINE
  5
D2
330
1F
100
AcDbEntity
  8
0-C_ハッチ
  6
Continuous
 62
   120
370
     5
100
AcDbLine
 10
-2424.857302075491
 20
-370.7052978711283
 30
0.0
 11
-2328.8568672
 21
-466.7058523660091
 31
0.0
  0
LINE
  5
D3
330
1F
100
AcDbEntity
  8
0-4_枠
  6
Continuous
 62
    92
370
    13
100
AcDbLine
 10
-2306.6568672
 20
-483.0001979518568
 30
0.0
 11
-2195.056867199999
 21
-483.0001979518568
 31
0.0
  0
LINE
  5
D4
330
1F
100
AcDbEntity
  8
0-4_枠
  6
Continuous
 62
    92
370
    13
100
AcDbLine
 10
-2306.6568672
 20
-480.0006328273466
 30
0.0
 11
-2195.056867199999
 21
-480.0006328273466
 31
0.0
  0
LINE
  5
D5
330
1F
100
AcDbEntity
  8
0-4_枠
  6
Continuous
 62
    92
370
    13
100
AcDbLine
 10
-2328.8568672
 20
-432.0001979518576
 30
0.0
 11
-2306.6568672
 21
-432.0001979518576
 31
0.0
  0
LINE
  5
D6
330
1F
100
AcDbEntity
  8
0-4_枠
  6
Continuous
 62
    92
370
    13
100
AcDbLine
 10
-2195.056867199999
 20
-432.0001979518576
 30
0.0
 11
-2172.856867199999
 21
-432.0001979518576
 31
0.0
  0
LINE
  5
D7
330
1F
100
AcDbEntity
  8
0-4_枠
  6
Continuous
 62
    92
370
    13
100
AcDbLine
 10
-2172.856867199999
 20
-432.0001979518576
 30
0.0
 11
-2172.856867199999
 21
-483.0001979518568
 31
0.0
  0
LINE
  5
D8
330
1F
100
AcDbEntity
  8
0-4_枠
  6
Continuous
 62
    92
370
    13
100
AcDbLine
 10
-2195.056867199999
 20
-483.0001979518568
 30
0.0
 11
-2195.056867199999
 21
-432.0001979518576
 31
0.0
  0
LINE
  5
D9
330
1F
100
AcDbEntity
  8
0-4_枠
  6
Continuous
 62
    92
370
    13
100
AcDbLine
 10
-2306.6568672
 20
-483.0001979518568
 30
0.0
 11
-2306.6568672
 21
-432.0001979518576
 31
0.0
  0
LINE
  5
DA
330
1F
100
AcDbEntity
  8
0-4_枠
  6
Continuous
 62
    92
370
    13
100
AcDbLine
 10
-2328.8568672
 20
-483.0001979518568
 30
0.0
 11
-2328.8568672
 21
-432.0001979518576
 31
0.0
  0
LINE
  5
DB
330
1F
100
AcDbEntity
  8
0-4_枠
  6
Continuous
 62
    92
370
    13
100
AcDbLine
 10
-1938.857027417283
 20
-477.515076794906
 30
0.0
 11
-1938.857027417283
 21
-342.0001979518563
 31
0.0
  0
LINE
  5
DC
330
1F
100
AcDbEntity
  8
0-4_枠
  6
Continuous
 62
    92
370
    13
100
AcDbLine
 10
-1941.342583449726
 20
-480.0006328273445
 30
0.0
 11
-1938.857027417283
 21
-477.515076794906
 31
0.0
  0
LINE
  5
DD
330
1F
100
AcDbEntity
  8
0-4_枠
  6
Continuous
 62
    92
370
    13
100
AcDbLine
 10
-2424.857302075491
 20
-477.5144817021314
 30
0.0
 11
-2424.857302075491
 21
-342.0001979518563
 31
0.0
  0
LINE
  5
DE
330
1F
100
AcDbEntity
  8
0-4_枠
  6
Continuous
 62
    92
370
    13
100
AcDbLine
 10
-2422.371150950276
 20
-480.0006328273445
 30
0.0
 11
-2424.857302075491
 21
-477.5144817021314
 31
0.0
  0
LINE
  5
DF
330
1F
100
AcDbEntity
  8
0-4_枠
  6
Continuous
 62
    92
370
    13
100
AcDbLine
 10
-1940.099507887115
 20
-483.0001979518568
 30
0.0
 11
-1935.856867200003
 21
-478.7575572647381
 31
0.0
  0
LINE
  5
E0
330
1F
100
AcDbEntity
  8
0-4_枠
  6
Continuous
 62
    92
370
    13
100
AcDbLine
 10
-1935.856867200003
 20
-478.7575572647381
 30
0.0
 11
-1935.856867200003
 21
-339.000197951856
 31
0.0
  0
LINE
  5
E1
330
1F
100
AcDbEntity
  8
0-4_枠
  6
Continuous
 62
    92
370
    13
100
AcDbLine
 10
-2423.61422651288
 20
-483.0001979518568
 30
0.0
 11
-2427.856867200006
 21
-478.7575572647381
 31
0.0
  0
LINE
  5
E2
330
1F
100
AcDbEntity
  8
0-4_枠
  6
Continuous
 62
    92
370
    13
100
AcDbLine
 10
-2427.856867200006
 20
-478.7575572647381
 30
0.0
 11
-2427.856867200006
 21
-339.000197951856
 31
0.0
  0
LINE
  5
E3
330
1F
100
AcDbEntity
  8
0-C_ハッチ
  6
Continuous
 62
   120
370
     5
100
AcDbLine
 10
-2252.912801079918
 20
-339.000197951856
 30
0.0
 11
-2111.915441876511
 21
-480.0006328273445
 31
0.0
  0
LINE
  5
E4
330
1F
100
AcDbEntity
  8
0-C_ハッチ
  6
Continuous
 62
   120
370
     5
100
AcDbLine
 10
-2185.032980063814
 20
-339.000197951856
 30
0.0
 11
-2044.032991772754
 21
-480.0006328273445
 31
0.0
  0
LINE
  5
E5
330
1F
100
AcDbEntity
  8
0-C_ハッチ
  6
Continuous
 62
   120
370
     5
100
AcDbLine
 10
-2117.150766711141
 20
-339.000197951856
 30
0.0
 11
-1976.150553113092
 21
-480.0006328273445
 31
0.0
  0
LINE
  5
E6
330
1F
100
AcDbEntity
  8
0-C_ハッチ
  6
Continuous
 62
   120
370
     5
100
AcDbLine
 10
-2049.268878539286
 20
-339.000197951856
 30
0.0
 11
-1938.857027417283
 21
-449.4121776271492
 31
0.0
  0
LINE
  5
E7
330
1F
100
AcDbEntity
  8
0-4_枠
  6
Continuous
 62
    92
370
    13
100
AcDbLine
 10
-1995.856867200003
 20
-342.0001979518563
 30
0.0
 11
-1995.856867200003
 21
-339.000197951856
 31
0.0
  0
LINE
  5
E8
330
1F
100
AcDbEntity
  8
0-C_ハッチ
  6
Continuous
 62
   120
370
     5
100
AcDbLine
 10
-1978.386726204524
 20
-342.0001979518563
 30
0.0
 11
-1938.857027417283
 21
-381.5299427638013
 31
0.0
  0
LINE
  5
E9
330
1F
100
AcDbEntity
  8
0-4_枠
  6
Continuous
 62
    92
370
    13
100
AcDbLine
 10
-1995.856867200003
 20
-342.0001979518563
 30
0.0
 11
-1938.857027417283
 21
-342.0001979518563
 31
0.0
  0
LINE
  5
EA
330
1F
100
AcDbEntity
  8
0-4_枠
  6
Continuous
 62
    92
370
    13
100
AcDbLine
 10
-2367.856867200006
 20
-342.0001979518563
 30
0.0
 11
-2424.857302075491
 21
-342.0001979518563
 31
0.0
  0
LINE
  5
EB
330
1F
100
AcDbEntity
  8
0-4_枠
  6
Continuous
 62
    92
370
    13
100
AcDbLine
 10
-2367.856867200006
 20
-342.0001979518563
 30
0.0
 11
-2367.856867200006
 21
-339.000197951856
 31
0.0
  0
LINE
  5
EC
330
1F
100
AcDbEntity
  8
0-C_ハッチ
  6
Continuous
 62
   120
370
     5
100
AcDbLine
 10
-2424.857302075491
 20
-438.5874736571802
 30
0.0
 11
-2383.444029217826
 21
-480.0006328273445
 31
0.0
  0
LINE
  5
ED
330
1F
100
AcDbEntity
  8
0-4_枠
  6
Continuous
 62
    92
370
    13
100
AcDbLine
 10
-1935.856867200003
 20
-339.000197951856
 30
0.0
 11
-2427.856867200006
 21
-339.000197951856
 31
0.0
  0
LINE
  5
EE
330
1F
100
AcDbEntity
  8
0-1_通り芯
  6
JWW_CENTER1
 62
   120
370
     5
100
AcDbLine
 10
-2802.000000000001
 20
-3159.000197951855
 30
0.0
 11
-817.7137343746955
 21
-3159.000197951857
 31
0.0
  0
LINE
  5
EF
330
1F
100
AcDbEntity
  8
0-1_通り芯
  6
JWW_CENTER1
 62
   120
370
     5
100
AcDbLine
 10
-817.7137343746955
 20
-339.0001979518556
 30
0.0
 11
-2802.000000000001
 21
-339.0001979518556
 31
0.0
  0
LINE
  5
F0
330
1F
100
AcDbEntity
  8
0-0_補助線
  6
JWW_HOJO
 62
   120
370
     5
100
AcDbLine
 10
-2802.000000000001
 20
-3159.00040394551
 30
0.0
 11
-2802.000000000001
 21
194.9998020481422
 31
0.0
  0
LINE
  5
F1
330
1F
100
AcDbEntity
  8
0-C_ハッチ
  6
JWW_DASHED1
 62
   120
370
     5
100
AcDbLine
 10
-2391.856867199991
 20
173.7606916108211
 30
0.0
 11
-2370.617756762668
 21
194.9998020481422
 31
0.0
  0
LINE
  5
F2
330
1F
100
AcDbEntity
  8
0-C_ハッチ
  6
JWW_DASHED1
 62
   120
370
     5
100
AcDbLine
 10
-2391.856867199997
 20
131.3342847396109
 30
0.0
 11
-2328.191349891468
 21
194.9998020481422
 31
0.0
  0
LINE
  5
F3
330
1F
100
AcDbEntity
  8
0-C_ハッチ
  6
JWW_DASHED1
 62
   120
370
     5
100
AcDbLine
 10
-2046.856867199997
 20
157.5117748005215
 30
0.0
 11
-2009.368839952383
 21
194.9998020481422
 31
0.0
  0
LINE
  5
F4
330
1F
100
AcDbEntity
  8
0-3_仕上げ
  6
Continuous
 62
    40
370
    15
100
AcDbLine
 10
-1971.856867199997
 20
194.9998020481422
 30
0.0
 11
-1971.856867199997
 21
-339.000197951856
 31
0.0
  0
LINE
  5
F5
330
1F
100
AcDbEntity
  8
0-3_仕上げ
  6
Continuous
 62
    40
370
    15
100
AcDbLine
 10
-2046.856867199997
 20
194.9998020481422
 30
0.0
 11
-2046.856867199997
 21
-339.000197951856
 31
0.0
  0
LINE
  5
F6
330
1F
100
AcDbEntity
  8
0-3_仕上げ
  6
Continuous
 62
    40
370
    15
100
AcDbLine
 10
-2316.856867199984
 20
194.9998020481422
 30
0.0
 11
-2316.856867199984
 21
-339.000197951856
 31
0.0
  0
LINE
  5
F7
330
1F
100
AcDbEntity
  8
0-3_仕上げ
  6
Continuous
 62
    40
370
    15
100
AcDbLine
 10
-2391.856867199991
 20
194.9998020481422
 30
0.0
 11
-2391.856867199991
 21
-339.000197951856
 31
0.0
  0
LINE
  5
F8
330
1F
100
AcDbEntity
  8
0-0_補助線
  6
JWW_HOJO
 62
   120
370
     5
100
AcDbLine
 10
-1561.713734400008
 20
-3159.00040394551
 30
0.0
 11
-1561.713734400008
 21
194.9998020481422
 31
0.0
  0
LINE
  5
F9
330
1F
100
AcDbEntity
  8
0-0_補助線
  6
JWW_HOJO
 62
   120
370
     5
100
AcDbLine
 10
-2802.000000000001
 20
194.9998020481422
 30
0.0
 11
-1561.713734400008
 21
194.9998020481422
 31
0.0
  0
LINE
  5
FA
330
1F
100
AcDbEntity
  8
0-3_仕上げ
  6
Continuous
 62
     7
370
     9
100
AcDbLine
 10
-1561.713734400008
 20
-3096.000403945508
 30
0.0
 11
-2802.000000000001
 21
-3096.000403945508
 31
0.0
  0
LINE
  5
FB
330
1F
100
AcDbEntity
  8
0-3_仕上げ
  6
Continuous
 62
     7
370
     9
100
AcDbLine
 10
-1561.713734400008
 20
-3105.000403945508
 30
0.0
 11
-2802.000000000001
 21
-3105.000403945508
 31
0.0
  0
LINE
  5
FC
330
1F
100
AcDbEntity
  8
0-3_仕上げ
  6
Continuous
 62
     7
370
     9
100
AcDbLine
 10
-1561.713734400008
 20
-3114.000403945507
 30
0.0
 11
-2802.000000000001
 21
-3114.000403945507
 31
0.0
  0
LINE
  5
FD
330
1F
100
AcDbEntity
  8
0-3_仕上げ
  6
Continuous
 62
     7
370
     9
100
AcDbLine
 10
-1561.713734400008
 20
-3123.000403945507
 30
0.0
 11
-2802.000000000001
 21
-3123.000403945507
 31
0.0
  0
LINE
  5
FE
330
1F
100
AcDbEntity
  8
0-3_仕上げ
  6
Continuous
 62
     7
370
     9
100
AcDbLine
 10
-1561.713734400008
 20
-3132.000403945508
 30
0.0
 11
-2802.000000000001
 21
-3132.000403945508
 31
0.0
  0
LINE
  5
FF
330
1F
100
AcDbEntity
  8
0-3_仕上げ
  6
Continuous
 62
     7
370
     9
100
AcDbLine
 10
-1561.713734400008
 20
-3141.000403945508
 30
0.0
 11
-2802.000000000001
 21
-3141.000403945508
 31
0.0
  0
LINE
  5
100
330
1F
100
AcDbEntity
  8
0-3_仕上げ
  6
Continuous
 62
     7
370
     9
100
AcDbLine
 10
-1561.713734400008
 20
-3150.000403945507
 30
0.0
 11
-2802.000000000001
 21
-3150.000403945507
 31
0.0
  0
LINE
  5
101
330
1F
100
AcDbEntity
  8
0-3_仕上げ
  6
Continuous
 62
    40
370
    15
100
AcDbLine
 10
-1561.713734400008
 20
-3087.000403945508
 30
0.0
 11
-2802.000000000001
 21
-3087.000403945508
 31
0.0
  0
LINE
  5
102
330
1F
100
AcDbEntity
  8
0-3_仕上げ
  6
Continuous
 62
    40
370
    15
100
AcDbLine
 10
-1561.713734400008
 20
-3159.000403945508
 30
0.0
 11
-2802.000000000001
 21
-3159.000403945508
 31
0.0
  0
LWPOLYLINE
  5
103
330
1F
100
AcDbEntity
  8
0-B_寸法
  6
Continuous
 62
     7
370
     9
100
AcDbPolyline
 90
        4
 70
     1
 43
3.0
 10
-930.213734374701
 20
-3087.000403945508
 42
0.4142135623731
 10
-931.713734374701
 20
-3085.500403945508
 42
0.4142135623731
 10
-933.213734374701
 20
-3087.000403945508
 42
0.4142135623731
 10
-931.713734374701
 20
-3088.500403945508
 42
0.4142135623731
  0
LINE
  5
104
330
1F
100
AcDbEntity
  8
0-B_寸法
  6
Continuous
 62
   120
370
     5
100
AcDbLine
 10
-931.713734374701
 20
-3087.000403945508
 30
0.0
 11
-1561.713734374701
 21
-3087.000403945508
 31
0.0
  0
LWPOLYLINE
  5
105
330
1F
100
AcDbEntity
  8
0-B_寸法
  6
Continuous
 62
     7
370
     9
100
AcDbPolyline
 90
        4
 70
     1
 43
3.0
 10
-1140.213734374701
 20
-3087.000403945508
 42
0.4142135623731
 10
-1141.713734374701
 20
-3085.500403945508
 42
0.4142135623731
 10
-1143.213734374701
 20
-3087.000403945508
 42
0.4142135623731
 10
-1141.713734374701
 20
-3088.500403945508
 42
0.4142135623731
  0
LINE
  5
106
330
1F
100
AcDbEntity
  8
0-B_寸法
  6
Continuous
 62
   120
370
     5
100
AcDbLine
 10
-1141.713734374701
 20
-339.000197951856
 30
0.0
 11
-1141.713734374701
 21
-3087.000403945508
 31
0.0
  0
MTEXT
  5
107
330
1F
100
AcDbEntity
  8
0-B_寸法
  6
Continuous
 62
     7
370
   211
100
AcDbMText
 10
-1156.713734374701
 20
-485.2801979518557
 30
0.0
 40
91.44
 41
120.0
 46
0.0
 71
     7
 72
     1
  1
{\fＭＳ ゴシック|b0|i0|c128|p49;24}
 11
6.123031769111886E-17
 21
1.0
 31
0.0
 73
     1
 44
1.0
  0
MTEXT
  5
108
330
1F
100
AcDbEntity
  8
0-B_寸法
  6
Continuous
 62
     7
370
     0
100
AcDbMText
 10
-1364.691728934195
 20
-580.5901491622627
 30
0.0
 40
91.44
 41
60.0
 46
0.0
 71
     7
 72
     1
  1
{\fＭＳ ゴシック|b0|i0|c128|p49;3}
 11
6.123031769111886E-17
 21
1.0
 31
0.0
 73
     1
 44
1.0
  0
MTEXT
  5
109
330
1F
100
AcDbEntity
  8
0-B_寸法
  6
Continuous
 62
     7
370
     0
100
AcDbMText
 10
-2247.856867199999
 20
-790.8101876379307
 30
0.0
 40
91.44
 41
120.0
 46
0.0
 71
     7
 72
     1
  1
{\fＭＳ ゴシック|b0|i0|c128|p49;82}
 73
     1
 44
1.0
  0
MTEXT
  5
10A
330
1F
100
AcDbEntity
  8
0-B_寸法
  6
Continuous
 62
     7
370
     0
100
AcDbMText
 10
-1366.713734374701
 20
-3019.529894683423
 30
0.0
 40
91.44
 41
120.0
 46
0.0
 71
     7
 72
     1
  1
{\fＭＳ ゴシック|b0|i0|c128|p49;10}
 11
6.123031769111886E-17
 21
1.0
 31
0.0
 73
     1
 44
1.0
  0
MTEXT
  5
10B
330
1F
100
AcDbEntity
  8
0-B_寸法
  6
Continuous
 62
     7
370
   211
100
AcDbMText
 10
-1156.713734374701
 20
-3075.779894683423
 30
0.0
 40
91.44
 41
60.0
 46
0.0
 71
     7
 72
     1
  1
{\fＭＳ ゴシック|b0|i0|c128|p49;3}
 11
6.123031769111886E-17
 21
1.0
 31
0.0
 73
     1
 44
1.0
  0
MTEXT
  5
10C
330
1F
100
AcDbEntity
  8
0-A_文字
  6
Continuous
 62
     7
370
     9
100
AcDbMText
 10
-2802.000000000001
 20
273.8280119899815
 30
0.0
 40
100.584
 41
660.0
 46
0.0
 71
     7
 72
     1
  1
{\fＭＳ ゴシック|b0|i0|c128|p49;■縦断面図}
 73
     1
 44
1.0
  0
LINE
  5
10D
330
1F
100
AcDbEntity
  8
0-B_寸法
  6
Continuous
 62
   120
370
     5
100
AcDbLine
 10
-2427.856867200006
 20
-791.5301876379307
 30
0.0
 11
-1929.856867200001
 21
-791.5301876379307
 31
0.0
  0
LWPOLYLINE
  5
10E
330
1F
100
AcDbEntity
  8
0-B_寸法
  6
Continuous
 62
     7
370
     9
100
AcDbPolyline
 90
        4
 70
     1
 43
3.0
 10
-1928.356867200002
 20
-791.5301876379307
 42
0.4142135623731
 10
-1929.856867200001
 20
-790.0301876379307
 42
0.4142135623731
 10
-1931.356867200001
 20
-791.5301876379307
 42
0.4142135623731
 10
-1929.856867200001
 20
-793.0301876379307
 42
0.4142135623731
  0
LINE
  5
10F
330
1F
100
AcDbEntity
  8
0-B_寸法
  6
Continuous
 62
   120
370
     5
100
AcDbLine
 10
-1929.856867200001
 20
-791.5301876379307
 30
0.0
 11
-1929.856867200001
 21
-584.39804881433
 31
0.0
  0
LINE
  5
110
330
1F
100
AcDbEntity
  8
0-6_扉
  6
Continuous
 62
   200
370
    20
100
AcDbLine
 10
-2157.856867199999
 20
-501.0001979518549
 30
0.0
 11
-2157.856867199999
 21
-685.139985507393
 31
0.0
  0
LINE
  5
111
330
1F
100
AcDbEntity
  8
0-6_扉
  6
Continuous
 62
   200
370
    20
100
AcDbLine
 10
-2157.856867199992
 20
-501.0001979518562
 30
0.0
 11
-1941.856867199991
 21
-501.0001979518562
 31
0.0
  0
LINE
  5
112
330
1F
100
AcDbEntity
  8
0-6_扉
  6
Continuous
 62
   200
370
    20
100
AcDbLine
 10
-2157.856867199999
 20
-776.5301876379307
 30
0.0
 11
-2157.856867199999
 21
-1716.000197951854
 31
0.0
  0
LINE
  5
113
330
1F
100
AcDbEntity
  8
0-6_扉
  6
Continuous
 62
   200
370
    20
100
AcDbLine
 10
-1941.856867199997
 20
-501.0001979518549
 30
0.0
 11
-1941.856867199997
 21
-1716.000197951854
 31
0.0
  0
LINE
  5
114
330
1F
100
AcDbEntity
  8
0-6_扉
  6
Continuous
 62
   200
370
    20
100
AcDbLine
 10
-1941.856867199997
 20
-3008.999894683423
 30
0.0
 11
-2157.856867199999
 21
-3008.999894683423
 31
0.0
  0
LINE
  5
115
330
1F
100
AcDbEntity
  8
0-6_扉
  6
Continuous
 62
   200
370
    20
100
AcDbLine
 10
-1941.856867199997
 20
-1836.000197951855
 30
0.0
 11
-1941.856867199997
 21
-3008.999894683423
 31
0.0
  0
LINE
  5
116
330
1F
100
AcDbEntity
  8
0-B_寸法
  6
Continuous
 62
   120
370
     5
100
AcDbLine
 10
-2157.856867199999
 20
-1124.289094713697
 30
0.0
 11
-1941.856867199997
 21
-1124.289094713697
 31
0.0
  0
LWPOLYLINE
  5
117
330
1F
100
AcDbEntity
  8
0-B_寸法
  6
Continuous
 62
     7
370
     9
100
AcDbPolyline
 90
        4
 70
     1
 43
3.0
 10
-2156.356867199999
 20
-1124.289094713697
 42
0.4142135623731
 10
-2157.856867199999
 20
-1122.789094713697
 42
0.4142135623731
 10
-2159.356867199999
 20
-1124.289094713697
 42
0.4142135623731
 10
-2157.856867199999
 20
-1125.789094713697
 42
0.4142135623731
  0
LWPOLYLINE
  5
118
330
1F
100
AcDbEntity
  8
0-B_寸法
  6
Continuous
 62
     7
370
     9
100
AcDbPolyline
 90
        4
 70
     1
 43
3.0
 10
-1940.356867199998
 20
-1124.289094713697
 42
0.4142135623731
 10
-1941.856867199997
 20
-1122.789094713697
 42
0.4142135623731
 10
-1943.356867199997
 20
-1124.289094713697
 42
0.4142135623731
 10
-1941.856867199997
 20
-1125.789094713697
 42
0.4142135623731
  0
ARC
  5
119
330
1F
100
AcDbEntity
  8
0-7_金物
  6
Continuous
 62
     7
370
     9
100
AcDbCircle
 10
-2139.856867199995
 20
-3087.000403945508
 30
0.0
 40
18.0
100
AcDbArc
 50
90.0
 51
180.0
  0
LINE
  5
11A
330
1F
100
AcDbEntity
  8
0-7_金物
  6
Continuous
 62
     7
370
     9
100
AcDbLine
 10
-1959.856867200001
 20
-3069.000403945509
 30
0.0
 11
-2139.856867199995
 21
-3069.000403945509
 31
0.0
  0
ARC
  5
11B
330
1F
100
AcDbEntity
  8
0-7_金物
  6
Continuous
 62
     7
370
     9
100
AcDbCircle
 10
-1959.856867200001
 20
-3087.000403945508
 30
0.0
 40
18.0
100
AcDbArc
 50
0.0
 51
90.0
  0
ARC
  5
11C
330
1F
100
AcDbEntity
  8
0-7_金物
  6
Continuous
 62
     7
370
     9
100
AcDbCircle
 10
-2139.856867199995
 20
-3087.000403945508
 30
0.0
 40
12.0
100
AcDbArc
 50
90.0
 51
180.0
  0
ARC
  5
11D
330
1F
100
AcDbEntity
  8
0-7_金物
  6
Continuous
 62
     7
370
     9
100
AcDbCircle
 10
-1959.856867200001
 20
-3087.000403945508
 30
0.0
 40
12.0
100
AcDbArc
 50
0.0
 51
90.0
  0
LINE
  5
11E
330
1F
100
AcDbEntity
  8
0-7_金物
  6
Continuous
 62
     7
370
     9
100
AcDbLine
 10
-2009.056867199991
 20
-3087.000403945508
 30
0.0
 11
-2009.056867199991
 21
-3075.000403945509
 31
0.0
  0
LINE
  5
11F
330
1F
100
AcDbEntity
  8
0-7_金物
  6
Continuous
 62
     7
370
     9
100
AcDbLine
 10
-2015.056867199992
 20
-3087.000403945508
 30
0.0
 11
-2015.056867199992
 21
-3075.000403945509
 31
0.0
  0
LINE
  5
120
330
1F
100
AcDbEntity
  8
0-7_金物
  6
Continuous
 62
     7
370
     9
100
AcDbLine
 10
-1976.656867199993
 20
-3087.000403945508
 30
0.0
 11
-1976.656867199993
 21
-3075.000403945509
 31
0.0
  0
LINE
  5
121
330
1F
100
AcDbEntity
  8
0-7_金物
  6
Continuous
 62
     7
370
     9
100
AcDbLine
 10
-1982.656867199994
 20
-3087.000403945508
 30
0.0
 11
-1982.656867199994
 21
-3075.000403945509
 31
0.0
  0
LINE
  5
122
330
1F
100
AcDbEntity
  8
0-7_金物
  6
Continuous
 62
     7
370
     9
100
AcDbLine
 10
-2052.856867199992
 20
-3087.000403945508
 30
0.0
 11
-2052.856867199992
 21
-3075.000403945509
 31
0.0
  0
LINE
  5
123
330
1F
100
AcDbEntity
  8
0-7_金物
  6
Continuous
 62
     7
370
     9
100
AcDbLine
 10
-2090.656867199992
 20
-3087.000403945508
 30
0.0
 11
-2090.656867199992
 21
-3075.000403945509
 31
0.0
  0
LINE
  5
124
330
1F
100
AcDbEntity
  8
0-7_金物
  6
Continuous
 62
     7
370
     9
100
AcDbLine
 10
-2084.65686719999
 20
-3087.000403945508
 30
0.0
 11
-2084.65686719999
 21
-3075.000403945509
 31
0.0
  0
LINE
  5
125
330
1F
100
AcDbEntity
  8
0-7_金物
  6
Continuous
 62
     7
370
     9
100
AcDbLine
 10
-2123.056867199996
 20
-3087.000403945508
 30
0.0
 11
-2123.056867199996
 21
-3075.000403945509
 31
0.0
  0
LINE
  5
126
330
1F
100
AcDbEntity
  8
0-7_金物
  6
Continuous
 62
     7
370
     9
100
AcDbLine
 10
-2117.056867199995
 20
-3087.000403945508
 30
0.0
 11
-2117.056867199995
 21
-3075.000403945509
 31
0.0
  0
LINE
  5
127
330
1F
100
AcDbEntity
  8
0-7_金物
  6
Continuous
 62
     7
370
     9
100
AcDbLine
 10
-2123.056867199996
 20
-3075.000403945509
 30
0.0
 11
-2139.856867199995
 21
-3075.000403945509
 31
0.0
  0
LINE
  5
128
330
1F
100
AcDbEntity
  8
0-7_金物
  6
Continuous
 62
     7
370
     9
100
AcDbLine
 10
-2090.656867199992
 20
-3075.000403945509
 30
0.0
 11
-2117.056867199995
 21
-3075.000403945509
 31
0.0
  0
LINE
  5
129
330
1F
100
AcDbEntity
  8
0-7_金物
  6
Continuous
 62
     7
370
     9
100
AcDbLine
 10
-2052.856867199992
 20
-3075.000403945509
 30
0.0
 11
-2084.65686719999
 21
-3075.000403945509
 31
0.0
  0
LINE
  5
12A
330
1F
100
AcDbEntity
  8
0-7_金物
  6
Continuous
 62
     7
370
     9
100
AcDbLine
 10
-1959.856867200001
 20
-3075.000403945509
 30
0.0
 11
-1976.656867199993
 21
-3075.000403945509
 31
0.0
  0
LINE
  5
12B
330
1F
100
AcDbEntity
  8
0-7_金物
  6
Continuous
 62
     7
370
     9
100
AcDbLine
 10
-1982.656867199994
 20
-3075.000403945509
 30
0.0
 11
-2009.056867199991
 21
-3075.000403945509
 31
0.0
  0
LINE
  5
12C
330
1F
100
AcDbEntity
  8
0-7_金物
  6
Continuous
 62
     7
370
     9
100
AcDbLine
 10
-2046.856867199991
 20
-3087.000403945508
 30
0.0
 11
-2046.856867199991
 21
-3075.000403945509
 31
0.0
  0
LINE
  5
12D
330
1F
100
AcDbEntity
  8
0-7_金物
  6
Continuous
 62
     7
370
     9
100
AcDbLine
 10
-2015.056867199992
 20
-3075.000403945509
 30
0.0
 11
-2046.856867199991
 21
-3075.000403945509
 31
0.0
  0
LINE
  5
12E
330
1F
100
AcDbEntity
  8
0-7_金物
  6
Continuous
 62
     7
370
     9
100
AcDbLine
 10
-2157.856867199999
 20
-3087.000403945508
 30
0.0
 11
-2151.856867199997
 21
-3087.000403945508
 31
0.0
  0
LINE
  5
12F
330
1F
100
AcDbEntity
  8
0-7_金物
  6
Continuous
 62
     7
370
     9
100
AcDbLine
 10
-2123.056867199996
 20
-3087.000403945508
 30
0.0
 11
-2117.056867199995
 21
-3087.000403945508
 31
0.0
  0
LINE
  5
130
330
1F
100
AcDbEntity
  8
0-7_金物
  6
Continuous
 62
     7
370
     9
100
AcDbLine
 10
-2090.656867199992
 20
-3087.000403945508
 30
0.0
 11
-2084.65686719999
 21
-3087.000403945508
 31
0.0
  0
LINE
  5
131
330
1F
100
AcDbEntity
  8
0-7_金物
  6
Continuous
 62
     7
370
     9
100
AcDbLine
 10
-2052.856867199992
 20
-3087.000403945508
 30
0.0
 11
-2046.856867199991
 21
-3087.000403945508
 31
0.0
  0
LINE
  5
132
330
1F
100
AcDbEntity
  8
0-7_金物
  6
Continuous
 62
     7
370
     9
100
AcDbLine
 10
-2015.056867199992
 20
-3087.000403945508
 30
0.0
 11
-2009.056867199991
 21
-3087.000403945508
 31
0.0
  0
LINE
  5
133
330
1F
100
AcDbEntity
  8
0-7_金物
  6
Continuous
 62
     7
370
     9
100
AcDbLine
 10
-1982.656867199994
 20
-3087.000403945508
 30
0.0
 11
-1976.656867199993
 21
-3087.000403945508
 31
0.0
  0
LINE
  5
134
330
1F
100
AcDbEntity
  8
0-7_金物
  6
Continuous
 62
     7
370
     9
100
AcDbLine
 10
-1947.856867199999
 20
-3087.000403945508
 30
0.0
 11
-1941.856867199997
 21
-3087.000403945508
 31
0.0
  0
LINE
  5
135
330
1F
100
AcDbEntity
  8
0-6_扉
  6
Continuous
 62
   200
370
    20
100
AcDbLine
 10
-2157.856867199999
 20
-1836.000197951855
 30
0.0
 11
-2157.856867199999
 21
-3008.999894683423
 31
0.0
  0
MTEXT
  5
136
330
1F
100
AcDbEntity
  8
0-B_寸法
  6
Continuous
 62
     7
370
   211
100
AcDbMText
 10
-2109.856867199995
 20
-1123.569094713697
 30
0.0
 40
91.44
 41
120.0
 46
0.0
 71
     7
 72
     1
  1
{\fＭＳ ゴシック|b0|i0|c128|p49;36}
 73
     1
 44
1.0
  0
LINE
  5
137
330
1F
100
AcDbEntity
  8
0-3_仕上げ
  6
Continuous
 62
   120
370
     5
100
AcDbLine
 10
2745.77103023365
 20
-1170.616614710043
 30
0.0
 11
3279.918171683584
 21
-1170.616614710043
 31
0.0
  0
LINE
  5
138
330
1F
100
AcDbEntity
  8
0-3_仕上げ
  6
Continuous
 62
   120
370
     5
100
AcDbLine
 10
2745.77103023365
 20
-1370.424926085961
 30
0.0
 11
3279.918171683584
 21
-1370.424926085961
 31
0.0
  0
LINE
  5
139
330
1F
100
AcDbEntity
  8
0-3_仕上げ
  6
Continuous
 62
   120
370
     5
100
AcDbLine
 10
2745.77103023365
 20
-1570.233237461876
 30
0.0
 11
3279.918171683584
 21
-1570.233237461876
 31
0.0
  0
LINE
  5
13A
330
1F
100
AcDbEntity
  8
0-3_仕上げ
  6
Continuous
 62
   120
370
     5
100
AcDbLine
 10
2745.77103023365
 20
-1770.041548837794
 30
0.0
 11
3279.918171683584
 21
-1770.041548837794
 31
0.0
  0
LINE
  5
13B
330
1F
100
AcDbEntity
  8
0-3_仕上げ
  6
Continuous
 62
   120
370
     5
100
AcDbLine
 10
2745.77103023365
 20
-970.8083033341239
 30
0.0
 11
3279.918171683584
 21
-970.8083033341239
 31
0.0
  0
LINE
  5
13C
330
1F
100
AcDbEntity
  8
0-3_仕上げ
  6
Continuous
 62
   120
370
     5
100
AcDbLine
 10
1959.918171683585
 20
-970.8083033341239
 30
0.0
 11
2529.771030233648
 21
-970.8083033341239
 31
0.0
  0
LINE
  5
13D
330
1F
100
AcDbEntity
  8
0-3_仕上げ
  6
Continuous
 62
   120
370
     5
100
AcDbLine
 10
1959.918171683585
 20
-1770.041548837794
 30
0.0
 11
2529.771030233648
 21
-1770.041548837794
 31
0.0
  0
LINE
  5
13E
330
1F
100
AcDbEntity
  8
0-3_仕上げ
  6
Continuous
 62
   120
370
     5
100
AcDbLine
 10
1959.918171683585
 20
-1570.233237461876
 30
0.0
 11
2529.771030233648
 21
-1570.233237461876
 31
0.0
  0
LINE
  5
13F
330
1F
100
AcDbEntity
  8
0-3_仕上げ
  6
Continuous
 62
   120
370
     5
100
AcDbLine
 10
1959.918171683585
 20
-1370.424926085961
 30
0.0
 11
2529.771030233648
 21
-1370.424926085961
 31
0.0
  0
LINE
  5
140
330
1F
100
AcDbEntity
  8
0-3_仕上げ
  6
Continuous
 62
   120
370
     5
100
AcDbLine
 10
1959.918171683585
 20
-1170.616614710043
 30
0.0
 11
2529.771030233648
 21
-1170.616614710043
 31
0.0
  0
MTEXT
  5
141
330
1F
100
AcDbEntity
  8
7-B_寸法
  6
Continuous
 62
     7
370
   211
100
AcDbMText
 10
1950.862863451525
 20
-2843.672781877546
 30
0.0
 40
91.44
 41
60.0
 46
0.0
 71
     7
 72
     1
  1
{\fＭＳ ゴシック|b0|i0|c128|p49;3}
 11
6.123031769111886E-17
 21
1.0
 31
0.0
 73
     1
 44
1.0
  0
MTEXT
  5
142
330
1F
100
AcDbEntity
  8
7-B_寸法
  6
Continuous
 62
     7
370
   211
100
AcDbMText
 10
2682.112863451521
 20
-2540.815281877546
 30
0.0
 40
97.15499999999999
 41
127.5
 46
0.0
 71
     7
 72
     1
  1
{\fＭＳ ゴシック|b0|i0|c128|p49;36}
 73
     1
 44
1.0
  0
MTEXT
  5
143
330
1F
100
AcDbEntity
  8
0-B_寸法
  6
Continuous
 62
     7
370
   211
100
AcDbMText
 10
2574.021030233649
 20
-1266.943270398002
 30
0.0
 40
97.15499999999999
 41
127.5
 46
0.0
 71
     7
 72
     1
  1
{\fＭＳ ゴシック|b0|i0|c128|p49;36}
 73
     1
 44
1.0
  0
MTEXT
  5
144
330
1F
100
AcDbEntity
  8
0-B_寸法
  6
Continuous
 62
     7
370
   211
100
AcDbMText
 10
2546.395017569307
 20
-1069.992459022083
 30
0.0
 40
91.44
 41
60.0
 46
0.0
 71
     7
 72
     1
  1
{\fＭＳ ゴシック|b0|i0|c128|p49;4}
 73
     1
 44
1.0
  0
MTEXT
  5
145
330
1F
100
AcDbEntity
  8
0-A_文字
  6
Continuous
 62
     7
370
     9
100
AcDbMText
 10
2109.918171683582
 20
-2174.321548837791
 30
0.0
 40
91.43999999999997
 41
1080.0
 46
0.0
 71
     7
 72
     1
  1
{\fＭＳ ゴシック|b0|i0|c128|p49;下枠詳細図 (S=1/1)}
 73
     1
 44
1.0
  0
MTEXT
  5
146
330
1F
100
AcDbEntity
  8
0-A_文字
  6
Continuous
 62
     7
370
     0
100
AcDbMText
 10
3047.418171683585
 20
-1544.609081773917
 30
0.0
 40
91.44
 41
120.0
 46
0.0
 71
     7
 72
     1
  1
{\fＭＳ ゴシック|b0|i0|c128|p49;床}
 73
     1
 44
1.0
  0
MTEXT
  5
147
330
1F
100
AcDbEntity
  8
0-A_文字
  6
Continuous
 62
     7
370
     0
100
AcDbMText
 10
2072.418171683585
 20
-1544.609081773917
 30
0.0
 40
91.44
 41
120.0
 46
0.0
 71
     7
 72
     1
  1
{\fＭＳ ゴシック|b0|i0|c128|p49;床}
 73
     1
 44
1.0
  0
MTEXT
  5
148
330
1F
100
AcDbEntity
  8
0-A_文字
  6
Continuous
 62
     7
370
     9
100
AcDbMText
 10
2852.441738928006
 20
-955.2899760928182
 30
0.0
 40
91.44
 41
600.0
 46
0.0
 71
     7
 72
     1
  1
{\fＭＳ ゴシック|b0|i0|c128|p49;（ドア側）}
 73
     1
 44
1.0
  0
MTEXT
  5
149
330
1F
100
AcDbEntity
  8
0-A_文字
  6
Continuous
 62
     7
370
     0
100
AcDbMText
 10
2199.918171683589
 20
-698.8284640340777
 30
0.0
 40
91.44
 41
840.0
 46
0.0
 71
     7
 72
     1
  1
{\fＭＳ ゴシック|b0|i0|c128|p49;壁(枠)センター}
 73
     1
 44
1.0
  0
MTEXT
  5
14A
330
1F
100
AcDbEntity
  8
0-A_文字
  6
Continuous
 62
     7
370
     0
100
AcDbMText
 10
1839.918171683582
 20
-455.2799919582055
 30
0.0
 40
91.43999999999997
 41
1560.0
 46
0.0
 71
     7
 72
     1
  1
{\fＭＳ ゴシック|b0|i0|c128|p49;床直付けレール取付位置目安}
 73
     1
 44
1.0
  0
LWPOLYLINE
  5
14B
330
1F
100
AcDbEntity
  8
0-B_寸法
  6
Continuous
 62
     7
370
     9
100
AcDbPolyline
 90
        4
 70
     1
 43
3.0
 10
2747.27103023365
 20
-1270.520770398002
 42
0.4142135623731
 10
2745.77103023365
 20
-1269.020770398002
 42
0.4142135623731
 10
2744.27103023365
 20
-1270.520770398002
 42
0.4142135623731
 10
2745.77103023365
 20
-1272.020770398002
 42
0.4142135623731
  0
LWPOLYLINE
  5
14C
330
1F
100
AcDbEntity
  8
0-B_寸法
  6
Continuous
 62
     7
370
     9
100
AcDbPolyline
 90
        4
 70
     1
 43
3.0
 10
2531.271030233648
 20
-1270.520770398002
 42
0.4142135623731
 10
2529.771030233648
 20
-1269.020770398002
 42
0.4142135623731
 10
2528.271030233648
 20
-1270.520770398002
 42
0.4142135623731
 10
2529.771030233648
 20
-1272.020770398002
 42
0.4142135623731
  0
LINE
  5
14D
330
1F
100
AcDbEntity
  8
0-B_寸法
  6
Continuous
 62
   120
370
     5
100
AcDbLine
 10
2529.771030233648
 20
-1270.520770398002
 30
0.0
 11
2745.77103023365
 21
-1270.520770398002
 31
0.0
  0
LWPOLYLINE
  5
14E
330
1F
100
AcDbEntity
  8
0-B_寸法
  6
Continuous
 62
     7
370
     9
100
AcDbPolyline
 90
        4
 70
     1
 43
3.0
 10
2531.271030233648
 20
-1070.712459022083
 42
0.4142135623731
 10
2529.771030233648
 20
-1069.212459022083
 42
0.4142135623731
 10
2528.271030233648
 20
-1070.712459022083
 42
0.4142135623731
 10
2529.771030233648
 20
-1072.212459022083
 42
0.4142135623731
  0
LWPOLYLINE
  5
14F
330
1F
100
AcDbEntity
  8
0-B_寸法
  6
Continuous
 62
     7
370
     9
100
AcDbPolyline
 90
        4
 70
     1
 43
3.0
 10
2507.27103023365
 20
-1070.712459022083
 42
0.4142135623731
 10
2505.77103023365
 20
-1069.212459022083
 42
0.4142135623731
 10
2504.27103023365
 20
-1070.712459022083
 42
0.4142135623731
 10
2505.77103023365
 20
-1072.212459022083
 42
0.4142135623731
  0
LINE
  5
150
330
1F
100
AcDbEntity
  8
0-B_寸法
  6
Continuous
 62
   120
370
     5
100
AcDbLine
 10
2505.77103023365
 20
-1070.712459022083
 30
0.0
 11
2529.771030233648
 21
-1070.712459022083
 31
0.0
  0
LINE
  5
151
330
1F
100
AcDbEntity
  8
0-4_枠
  6
Continuous
 62
    92
370
    13
100
AcDbLine
 10
2529.771030233648
 20
-770.9999919582054
 30
0.0
 11
2529.771030233648
 21
-1830.041548837795
 31
0.0
  0
LINE
  5
152
330
1F
100
AcDbEntity
  8
0-4_枠
  6
Continuous
 62
    92
370
    13
100
AcDbLine
 10
2745.77103023365
 20
-770.9999919582054
 30
0.0
 11
2745.77103023365
 21
-1830.041548837795
 31
0.0
  0
LINE
  5
153
330
1F
100
AcDbEntity
  8
0-1_通り芯
  6
JWW_CENTER1
 62
   120
370
     5
100
AcDbLine
 10
2505.77103023365
 20
-710.9999919582054
 30
0.0
 11
2505.77103023365
 21
-1890.041548837795
 31
0.0
  0
LINE
  5
154
330
1F
100
AcDbEntity
  8
0-A_文字
  6
Continuous
 62
    92
370
    13
100
AcDbLine
 10
1719.918171683582
 20
-3159.000197951857
 30
0.0
 11
3519.918171683582
 21
-3159.000197951857
 31
0.0
  0
LINE
  5
155
330
1F
100
AcDbEntity
  8
0-A_文字
  6
Continuous
 62
    92
370
    13
100
AcDbLine
 10
3519.918171683582
 20
-3159.000197951857
 30
0.0
 11
3519.918171683582
 21
-290.9999919582054
 31
0.0
  0
LINE
  5
156
330
1F
100
AcDbEntity
  8
7-1_通り芯
  6
JWW_CENTER1
 62
   120
370
     5
100
AcDbLine
 10
2475.862863451545
 20
-2864.187929934024
 30
0.0
 11
2475.862863451545
 21
-2681.002302957325
 31
0.0
  0
LINE
  5
157
330
1F
100
AcDbEntity
  8
7-1_通り芯
  6
JWW_CENTER1
 62
   120
370
     5
100
AcDbLine
 10
3015.862863451545
 20
-2864.187929934024
 30
0.0
 11
3015.862863451545
 21
-2681.002302957325
 31
0.0
  0
LINE
  5
158
330
1F
100
AcDbEntity
  8
7-B_寸法
  6
Continuous
 62
   120
370
     5
100
AcDbLine
 10
2205.862863451525
 20
-2544.392781877546
 30
0.0
 11
3285.862863451518
 21
-2544.392781877546
 31
0.0
  0
LWPOLYLINE
  5
159
330
1F
100
AcDbEntity
  8
7-B_寸法
  6
Continuous
 62
     7
370
     9
100
AcDbPolyline
 90
        4
 70
     1
 43
3.0
 10
2207.362863451525
 20
-2544.392781877546
 42
0.4142135623731
 10
2205.862863451525
 20
-2542.892781877546
 42
0.4142135623731
 10
2204.362863451525
 20
-2544.392781877546
 42
0.4142135623731
 10
2205.862863451525
 20
-2545.892781877546
 42
0.4142135623731
  0
LWPOLYLINE
  5
15A
330
1F
100
AcDbEntity
  8
7-B_寸法
  6
Continuous
 62
     7
370
     9
100
AcDbPolyline
 90
        4
 70
     1
 43
3.0
 10
3287.362863451518
 20
-2544.392781877546
 42
0.4142135623731
 10
3285.862863451518
 20
-2542.892781877546
 42
0.4142135623731
 10
3284.362863451518
 20
-2544.392781877546
 42
0.4142135623731
 10
3285.862863451518
 20
-2545.892781877546
 42
0.4142135623731
  0
LINE
  5
15B
330
1F
100
AcDbEntity
  8
7-B_寸法
  6
Continuous
 62
   120
370
     5
100
AcDbLine
 10
2205.862863451525
 20
-2544.392781877546
 30
0.0
 11
2205.862863451525
 21
-2694.392781877546
 31
0.0
  0
LINE
  5
15C
330
1F
100
AcDbEntity
  8
7-B_寸法
  6
Continuous
 62
   120
370
     5
100
AcDbLine
 10
3285.862863451518
 20
-2544.392781877546
 30
0.0
 11
3285.862863451518
 21
-2694.392781877546
 31
0.0
  0
LINE
  5
15D
330
1F
100
AcDbEntity
  8
7-B_寸法
  6
Continuous
 62
   120
370
     5
100
AcDbLine
 10
1965.862863451525
 20
-2844.392781877546
 30
0.0
 11
1965.862863451525
 21
-2754.392781877546
 31
0.0
  0
LWPOLYLINE
  5
15E
330
1F
100
AcDbEntity
  8
7-B_寸法
  6
Continuous
 62
     7
370
     9
100
AcDbPolyline
 90
        4
 70
     1
 43
3.0
 10
1967.362863451525
 20
-2844.392781877546
 42
0.4142135623731
 10
1965.862863451525
 20
-2842.892781877546
 42
0.4142135623731
 10
1964.362863451525
 20
-2844.392781877546
 42
0.4142135623731
 10
1965.862863451525
 20
-2845.892781877546
 42
0.4142135623731
  0
LWPOLYLINE
  5
15F
330
1F
100
AcDbEntity
  8
7-B_寸法
  6
Continuous
 62
     7
370
     9
100
AcDbPolyline
 90
        4
 70
     1
 43
3.0
 10
1967.362863451525
 20
-2754.392781877546
 42
0.4142135623731
 10
1965.862863451525
 20
-2752.892781877546
 42
0.4142135623731
 10
1964.362863451525
 20
-2754.392781877546
 42
0.4142135623731
 10
1965.862863451525
 20
-2755.892781877546
 42
0.4142135623731
  0
LINE
  5
160
330
1F
100
AcDbEntity
  8
7-B_寸法
  6
Continuous
 62
   120
370
     5
100
AcDbLine
 10
1965.862863451525
 20
-2844.392781877546
 30
0.0
 11
2145.862863451525
 21
-2844.392781877546
 31
0.0
  0
LINE
  5
161
330
1F
100
AcDbEntity
  8
7-B_寸法
  6
Continuous
 62
   120
370
     5
100
AcDbLine
 10
1965.862863451525
 20
-2754.392781877546
 30
0.0
 11
2145.862863451525
 21
-2754.392781877546
 31
0.0
  0
ARC
  5
162
330
1F
100
AcDbEntity
  8
7-7_金物
  6
Continuous
 62
     7
370
     9
100
AcDbCircle
 10
2295.862863451525
 20
-2844.392781877546
 30
0.0
 40
90.0
100
AcDbArc
 50
90.0
 51
180.0
  0
LINE
  5
163
330
1F
100
AcDbEntity
  8
7-7_金物
  6
Continuous
 62
     7
370
     9
100
AcDbLine
 10
3195.862863451518
 20
-2754.392781877546
 30
0.0
 11
2295.862863451525
 21
-2754.392781877546
 31
0.0
  0
ARC
  5
164
330
1F
100
AcDbEntity
  8
7-7_金物
  6
Continuous
 62
     7
370
     9
100
AcDbCircle
 10
3195.862863451518
 20
-2844.392781877546
 30
0.0
 40
90.0
100
AcDbArc
 50
0.0
 51
90.0
  0
ARC
  5
165
330
1F
100
AcDbEntity
  8
7-7_金物
  6
Continuous
 62
     7
370
     9
100
AcDbCircle
 10
2295.862863451525
 20
-2844.392781877546
 30
0.0
 40
59.99999999999999
100
AcDbArc
 50
90.0
 51
180.0
  0
ARC
  5
166
330
1F
100
AcDbEntity
  8
7-7_金物
  6
Continuous
 62
     7
370
     9
100
AcDbCircle
 10
3195.862863451518
 20
-2844.392781877546
 30
0.0
 40
59.99999999999999
100
AcDbArc
 50
0.0
 51
90.0
  0
LINE
  5
167
330
1F
100
AcDbEntity
  8
7-7_金物
  6
Continuous
 62
     7
370
     9
100
AcDbLine
 10
2949.862863451544
 20
-2844.392781877546
 30
0.0
 11
2949.862863451544
 21
-2784.392781877546
 31
0.0
  0
LINE
  5
168
330
1F
100
AcDbEntity
  8
7-7_金物
  6
Continuous
 62
     7
370
     9
100
AcDbLine
 10
2919.862863451547
 20
-2844.392781877546
 30
0.0
 11
2919.862863451547
 21
-2784.392781877546
 31
0.0
  0
LINE
  5
169
330
1F
100
AcDbEntity
  8
7-7_金物
  6
Continuous
 62
     7
370
     9
100
AcDbLine
 10
3111.862863451547
 20
-2844.392781877546
 30
0.0
 11
3111.862863451547
 21
-2784.392781877546
 31
0.0
  0
LINE
  5
16A
330
1F
100
AcDbEntity
  8
7-7_金物
  6
Continuous
 62
     7
370
     9
100
AcDbLine
 10
3081.86286345155
 20
-2844.392781877546
 30
0.0
 11
3081.86286345155
 21
-2784.392781877546
 31
0.0
  0
LINE
  5
16B
330
1F
100
AcDbEntity
  8
7-7_金物
  6
Continuous
 62
     7
370
     9
100
AcDbLine
 10
2730.862863451548
 20
-2844.392781877546
 30
0.0
 11
2730.862863451548
 21
-2784.392781877546
 31
0.0
  0
LINE
  5
16C
330
1F
100
AcDbEntity
  8
7-7_金物
  6
Continuous
 62
     7
370
     9
100
AcDbLine
 10
2541.862863451547
 20
-2844.392781877546
 30
0.0
 11
2541.862863451547
 21
-2784.392781877546
 31
0.0
  0
LINE
  5
16D
330
1F
100
AcDbEntity
  8
7-7_金物
  6
Continuous
 62
     7
370
     9
100
AcDbLine
 10
2571.862863451547
 20
-2844.392781877546
 30
0.0
 11
2571.862863451547
 21
-2784.392781877546
 31
0.0
  0
LINE
  5
16E
330
1F
100
AcDbEntity
  8
7-7_金物
  6
Continuous
 62
     7
370
     9
100
AcDbLine
 10
2379.862863451544
 20
-2844.392781877546
 30
0.0
 11
2379.862863451544
 21
-2784.392781877546
 31
0.0
  0
LINE
  5
16F
330
1F
100
AcDbEntity
  8
7-7_金物
  6
Continuous
 62
     7
370
     9
100
AcDbLine
 10
2409.862863451544
 20
-2844.392781877546
 30
0.0
 11
2409.862863451544
 21
-2784.392781877546
 31
0.0
  0
LINE
  5
170
330
1F
100
AcDbEntity
  8
7-7_金物
  6
Continuous
 62
     7
370
     9
100
AcDbLine
 10
2379.862863451544
 20
-2784.392781877546
 30
0.0
 11
2295.862863451525
 21
-2784.392781877546
 31
0.0
  0
LINE
  5
171
330
1F
100
AcDbEntity
  8
7-7_金物
  6
Continuous
 62
     7
370
     9
100
AcDbLine
 10
2541.862863451547
 20
-2784.392781877546
 30
0.0
 11
2409.862863451544
 21
-2784.392781877546
 31
0.0
  0
LINE
  5
172
330
1F
100
AcDbEntity
  8
7-7_金物
  6
Continuous
 62
     7
370
     9
100
AcDbLine
 10
2730.862863451548
 20
-2784.392781877546
 30
0.0
 11
2571.862863451547
 21
-2784.392781877546
 31
0.0
  0
LINE
  5
173
330
1F
100
AcDbEntity
  8
7-7_金物
  6
Continuous
 62
     7
370
     9
100
AcDbLine
 10
3195.862863451518
 20
-2784.392781877546
 30
0.0
 11
3111.862863451547
 21
-2784.392781877546
 31
0.0
  0
LINE
  5
174
330
1F
100
AcDbEntity
  8
7-7_金物
  6
Continuous
 62
     7
370
     9
100
AcDbLine
 10
3081.86286345155
 20
-2784.392781877546
 30
0.0
 11
2949.862863451544
 21
-2784.392781877546
 31
0.0
  0
LINE
  5
175
330
1F
100
AcDbEntity
  8
7-7_金物
  6
Continuous
 62
     7
370
     9
100
AcDbLine
 10
2760.862863451545
 20
-2844.392781877546
 30
0.0
 11
2760.862863451545
 21
-2784.392781877546
 31
0.0
  0
LINE
  5
176
330
1F
100
AcDbEntity
  8
7-7_金物
  6
Continuous
 62
     7
370
     9
100
AcDbLine
 10
2919.862863451547
 20
-2784.392781877546
 30
0.0
 11
2760.862863451545
 21
-2784.392781877546
 31
0.0
  0
LINE
  5
177
330
1F
100
AcDbEntity
  8
7-7_金物
  6
Continuous
 62
     7
370
     9
100
AcDbLine
 10
2205.862863451525
 20
-2844.392781877546
 30
0.0
 11
2235.862863451525
 21
-2844.392781877546
 31
0.0
  0
LINE
  5
178
330
1F
100
AcDbEntity
  8
7-7_金物
  6
Continuous
 62
     7
370
     9
100
AcDbLine
 10
2379.862863451544
 20
-2844.392781877546
 30
0.0
 11
2409.862863451544
 21
-2844.392781877546
 31
0.0
  0
LINE
  5
179
330
1F
100
AcDbEntity
  8
7-7_金物
  6
Continuous
 62
     7
370
     9
100
AcDbLine
 10
2541.862863451547
 20
-2844.392781877546
 30
0.0
 11
2571.862863451547
 21
-2844.392781877546
 31
0.0
  0
LINE
  5
17A
330
1F
100
AcDbEntity
  8
7-7_金物
  6
Continuous
 62
     7
370
     9
100
AcDbLine
 10
2730.862863451548
 20
-2844.392781877546
 30
0.0
 11
2760.862863451545
 21
-2844.392781877546
 31
0.0
  0
LINE
  5
17B
330
1F
100
AcDbEntity
  8
7-7_金物
  6
Continuous
 62
     7
370
     9
100
AcDbLine
 10
2919.862863451547
 20
-2844.392781877546
 30
0.0
 11
2949.862863451544
 21
-2844.392781877546
 31
0.0
  0
LINE
  5
17C
330
1F
100
AcDbEntity
  8
7-7_金物
  6
Continuous
 62
     7
370
     9
100
AcDbLine
 10
3081.86286345155
 20
-2844.392781877546
 30
0.0
 11
3111.862863451547
 21
-2844.392781877546
 31
0.0
  0
LINE
  5
17D
330
1F
100
AcDbEntity
  8
7-7_金物
  6
Continuous
 62
     7
370
     9
100
AcDbLine
 10
3255.862863451518
 20
-2844.392781877546
 30
0.0
 11
3285.862863451518
 21
-2844.392781877546
 31
0.0
  0
LINE
  5
17E
330
1F
100
AcDbEntity
  8
0-A_文字
  6
Continuous
 62
    92
370
    13
100
AcDbLine
 10
1719.918171683582
 20
-290.9999919582054
 30
0.0
 11
1719.918171683582
 21
-3159.000197951857
 31
0.0
  0
LINE
  5
17F
330
1F
100
AcDbEntity
  8
0-4_枠
  6
Continuous
 62
    92
370
    13
100
AcDbLine
 10
219.9181716835818
 20
-290.9999919582054
 30
0.0
 11
219.9181716835818
 21
-2010.041548837791
 31
0.0
  0
LINE
  5
180
330
1F
100
AcDbEntity
  8
0-4_枠
  6
Continuous
 62
    92
370
    13
100
AcDbLine
 10
1719.918171683582
 20
-290.9999919582054
 30
0.0
 11
1719.918171683582
 21
-2010.041548837791
 31
0.0
  0
LINE
  5
181
330
1F
100
AcDbEntity
  8
0-4_枠
  6
Continuous
 62
    92
370
    13
100
AcDbLine
 10
1719.918171683582
 20
-290.9999919582054
 30
0.0
 11
219.9181716835818
 21
-290.9999919582054
 31
0.0
  0
LINE
  5
182
330
1F
100
AcDbEntity
  8
0-4_枠
  6
Continuous
 62
    92
370
    13
100
AcDbLine
 10
1719.918171683582
 20
-470.9999919582054
 30
0.0
 11
219.9181716835818
 21
-470.9999919582054
 31
0.0
  0
LINE
  5
183
330
1F
100
AcDbEntity
  8
0-4_枠
  6
Continuous
 62
    92
370
    13
100
AcDbLine
 10
1719.918171683582
 20
-2010.041548837791
 30
0.0
 11
219.9181716835818
 21
-2010.041548837791
 31
0.0
  0
MTEXT
  5
184
330
1F
100
AcDbEntity
  8
0-4_枠
  6
Continuous
 62
     7
370
     9
100
AcDbMText
 10
549.918171683581
 20
-455.2799919582054
 30
0.0
 40
91.44
 41
840.0
 46
0.0
 71
     7
 72
     1
  1
{\fＭＳ ゴシック|b0|i0|c128|p49;竪枠下端形状図}
 73
     1
 44
1.0
  0
LINE
  5
185
330
1F
100
AcDbEntity
  8
0-A_文字
  6
Continuous
 62
    92
370
    13
100
AcDbLine
 10
3519.918171683582
 20
-2190.041548837789
 30
0.0
 11
1719.918171683582
 21
-2190.041548837789
 31
0.0
  0
LINE
  5
186
330
1F
100
AcDbEntity
  8
0-A_文字
  6
Continuous
 62
    92
370
    13
100
AcDbLine
 10
3519.918171683582
 20
-2010.041548837791
 30
0.0
 11
1719.918171683582
 21
-2010.041548837791
 31
0.0
  0
LINE
  5
187
330
1F
100
AcDbEntity
  8
0-A_文字
  6
Continuous
 62
    92
370
    13
100
AcDbLine
 10
3519.918171683582
 20
-470.9999919582054
 30
0.0
 11
1719.918171683582
 21
-470.9999919582054
 31
0.0
  0
LINE
  5
188
330
1F
100
AcDbEntity
  8
0-A_文字
  6
Continuous
 62
    92
370
    13
100
AcDbLine
 10
3519.918171683582
 20
-290.9999919582054
 30
0.0
 11
1719.918171683582
 21
-290.9999919582054
 31
0.0
  0
LINE
  5
189
330
1F
100
AcDbEntity
  8
F-0_補助線
  6
JWW_HOJO
 62
   120
370
     5
100
AcDbLine
 10
219.9181716835818
 20
-3159.000197951857
 30
0.0
 11
219.9181716835818
 21
194.9998020481422
 31
0.0
  0
LINE
  5
18A
330
1F
100
AcDbEntity
  8
F-0_補助線
  6
JWW_HOJO
 62
   120
370
     5
100
AcDbLine
 10
-200.0818283164182
 20
-3159.000197951857
 30
0.0
 11
-200.0818283164182
 21
194.9998020481422
 31
0.0
  0
MTEXT
  5
18B
330
1F
100
AcDbEntity
  8
0-B_寸法
  6
Continuous
 62
     7
370
     0
100
AcDbMText
 10
-1363.937687844682
 20
-2342.280046317639
 30
0.0
 40
91.43999999999996
 41
1140.0
 46
0.0
 71
     7
 72
     1
  1
{\fＭＳ ゴシック|b0|i0|c128|p49;ＤＨ＝1,995 (2,195)}
 11
6.123031769111886E-17
 21
1.0
 31
0.0
 73
     1
 44
1.0
  0
MTEXT
  5
18C
330
1F
100
AcDbEntity
  8
0-B_寸法
  6
Continuous
 62
     7
370
   211
100
AcDbMText
 10
-1155.856867200003
 20
-2342.280046317639
 30
0.0
 40
91.43999999999996
 41
1140.0
 46
0.0
 71
     7
 72
     1
  1
{\fＭＳ ゴシック|b0|i0|c128|p49;枠内＝2,008 (2,208)}
 11
6.123031769111886E-17
 21
1.0
 31
0.0
 73
     1
 44
1.0
  0
MTEXT
  5
18D
330
1F
100
AcDbEntity
  8
0-B_寸法
  6
Continuous
 62
     7
370
     0
100
AcDbMText
 10
-939.7715176267072
 20
-2342.28004631764
 30
0.0
 40
91.43999999999996
 41
1140.0
 46
0.0
 71
     7
 72
     1
  1
{\fＭＳ ゴシック|b0|i0|c128|p49;枠外＝2,035 (2,235)}
 11
6.123031769111886E-17
 21
1.0
 31
0.0
 73
     1
 44
1.0
  0
LINE
  5
18E
330
1F
100
AcDbEntity
  8
0-A_文字
  6
Continuous
 62
    92
370
    13
100
AcDbLine
 10
4083.835838693027
 20
3730.000181455871
 30
0.0
 11
4083.835838693027
 21
2764.000181455871
 31
0.0
  0
LINE
  5
18F
330
1F
100
AcDbEntity
  8
0-A_文字
  6
Continuous
 62
    92
370
    13
100
AcDbLine
 10
5679.835838693025
 20
3730.000181455871
 30
0.0
 11
5679.835838693025
 21
2764.000181455871
 31
0.0
  0
LINE
  5
190
330
1F
100
AcDbEntity
  8
0-A_文字
  6
Continuous
 62
    92
370
    13
100
AcDbLine
 10
5679.835838693025
 20
2764.000181455871
 30
0.0
 11
4083.835838693027
 21
2764.000181455871
 31
0.0
  0
LINE
  5
191
330
1F
100
AcDbEntity
  8
0-A_文字
  6
Continuous
 62
    92
370
    13
100
AcDbLine
 10
4881.835838693028
 20
3730.000181455871
 30
0.0
 11
4881.835838693028
 21
2764.000181455871
 31
0.0
  0
LINE
  5
192
330
1F
100
AcDbEntity
  8
0-A_文字
  6
Continuous
 62
    92
370
    13
100
AcDbLine
 10
4083.835838693027
 20
3604.00018145587
 30
0.0
 11
5679.835838693025
 21
3604.00018145587
 31
0.0
  0
LINE
  5
193
330
1F
100
AcDbEntity
  8
0-A_文字
  6
Continuous
 62
    92
370
    13
100
AcDbLine
 10
5679.835838693025
 20
3730.000181455871
 30
0.0
 11
4083.835838693027
 21
3730.000181455871
 31
0.0
  0
LINE
  5
194
330
1F
100
AcDbEntity
  8
戸当り
  6
Continuous
 62
    40
370
    15
100
AcDbLine
 10
5511.835838693028
 20
3481.846273380328
 30
0.0
 11
5658.835838693027
 21
3481.846273380328
 31
0.0
  0
LINE
  5
195
330
1F
100
AcDbEntity
  8
戸当り
  6
Continuous
 62
    40
370
    15
100
AcDbLine
 10
5049.835838693025
 20
3481.846273380328
 30
0.0
 11
4902.835838693026
 21
3481.846273380328
 31
0.0
  0
LINE
  5
196
330
1F
100
AcDbEntity
  8
戸当り
  6
Continuous
 62
    40
370
    15
100
AcDbLine
 10
4713.835838693027
 20
3481.846273380328
 30
0.0
 11
4860.835838693027
 21
3481.846273380328
 31
0.0
  0
LINE
  5
197
330
1F
100
AcDbEntity
  8
戸当り
  6
Continuous
 62
    40
370
    15
100
AcDbLine
 10
4251.835838693028
 20
3481.846273380328
 30
0.0
 11
4104.835838693025
 21
3481.846273380328
 31
0.0
  0
LINE
  5
198
330
1F
100
AcDbEntity
  8
0-0_補助線
  6
JWW_HOJO
 62
   120
370
     5
100
AcDbLine
 10
5658.835838693027
 20
3730.000181455871
 30
0.0
 11
5658.835838693027
 21
2764.000181455871
 31
0.0
  0
LINE
  5
199
330
1F
100
AcDbEntity
  8
0-0_補助線
  6
JWW_HOJO
 62
   120
370
     5
100
AcDbLine
 10
4902.835838693026
 20
3730.000181455871
 30
0.0
 11
4902.835838693026
 21
2764.000181455871
 31
0.0
  0
LINE
  5
19A
330
1F
100
AcDbEntity
  8
0-0_補助線
  6
JWW_HOJO
 62
   120
370
     5
100
AcDbLine
 10
4860.835838693027
 20
3730.000181455871
 30
0.0
 11
4860.835838693027
 21
2764.000181455871
 31
0.0
  0
LINE
  5
19B
330
1F
100
AcDbEntity
  8
0-0_補助線
  6
JWW_HOJO
 62
   120
370
     5
100
AcDbLine
 10
4104.835838693025
 20
3730.000181455871
 30
0.0
 11
4104.835838693025
 21
2764.000181455871
 31
0.0
  0
ELLIPSE
  5
19C
330
1F
100
AcDbEntity
  8
戸当り
  6
Continuous
 62
    92
370
    13
100
AcDbEllipse
 10
5207.192036141519
 20
2972.884428393054
 30
0.0
 11
-17.7763823922528
 21
100.8148742797557
 31
0.0
210
0.0
220
0.0
230
1.0
 40
0.4000000000000001
 41
1.850633272656679
 42
2.442876790075129
  0
ELLIPSE
  5
19D
330
1F
100
AcDbEntity
  8
戸当り
  6
Continuous
 62
    92
370
    13
100
AcDbEllipse
 10
5207.192036141519
 20
2972.884428393054
 30
0.0
 11
-17.7763823922528
 21
100.8148742797557
 31
0.0
210
0.0
220
0.0
230
1.0
 40
0.4000000000000001
 41
3.840308517104466
 42
4.432552034522944
  0
ELLIPSE
  5
19E
330
1F
100
AcDbEntity
  8
戸当り
  6
Continuous
 62
    92
370
    13
100
AcDbEllipse
 10
5206.77229009162
 20
2975.264926534712
 30
0.0
 11
-14.67024424252691
 21
83.19908946199426
 31
0.0
210
0.0
220
0.0
230
1.0
 40
0.5
 41
4.340591432030095
 42
8.225779182329084
  0
LINE
  5
19F
330
1F
100
AcDbEntity
  8
戸当り
  6
Continuous
 62
    92
370
    13
100
AcDbLine
 10
5246.741919914281
 20
2900.267379069785
 30
0.0
 11
5194.863795824745
 21
2891.119866084259
 31
0.0
  0
LINE
  5
1A0
330
1F
100
AcDbEntity
  8
戸当り
  6
Continuous
 62
    92
370
    13
100
AcDbLine
 10
5248.929886952884
 20
2887.858801381832
 30
0.0
 11
5197.051762863349
 21
2878.711288396305
 31
0.0
  0
ELLIPSE
  5
1A1
330
1F
100
AcDbEntity
  8
戸当り
  6
Continuous
 62
    92
370
    13
100
AcDbEllipse
 10
5222.990824908116
 20
2883.285044889068
 30
0.0
 11
-7.622927487939132
 21
43.23177007461331
 31
0.0
210
0.0
220
0.0
230
1.0
 40
0.6000000000000001
 41
1.570796326794897
 42
4.71238898038469
  0
ELLIPSE
  5
1A2
330
1F
100
AcDbEntity
  8
戸当り
  6
Continuous
 62
    92
370
    13
100
AcDbEllipse
 10
5361.652805079398
 20
3008.935263882862
 30
0.0
 11
26.49533313827761
 21
98.88192943551533
 31
0.0
210
0.0
220
0.0
230
0.9999999999999999
 40
0.4
 41
1.850633272656679
 42
2.442876790075129
  0
ELLIPSE
  5
1A3
330
1F
100
AcDbEntity
  8
戸当り
  6
Continuous
 62
    92
370
    13
100
AcDbEllipse
 10
5361.652805079398
 20
3008.935263882862
 30
0.0
 11
26.49533313827761
 21
98.88192943551533
 31
0.0
210
0.0
220
0.0
230
0.9999999999999999
 40
0.4
 41
3.840308517104466
 42
4.432552034522944
  0
ELLIPSE
  5
1A4
330
1F
100
AcDbEntity
  8
戸当り
  6
Continuous
 62
    92
370
    13
100
AcDbEllipse
 10
5362.278427952498
 20
3011.270120231655
 30
0.0
 11
21.86569797210526
 21
81.6038957748525
 31
0.0
210
0.0
220
0.0
230
1.0
 40
0.5
 41
4.340591432030095
 42
8.225779182329084
  0
LINE
  5
1A5
330
1F
100
AcDbEntity
  8
戸当り
  6
Continuous
 62
    92
370
    13
100
AcDbLine
 10
5366.807881561307
 20
2926.407363477468
 30
0.0
 11
5315.924427684913
 21
2940.041543851753
 31
0.0
  0
LINE
  5
1A6
330
1F
100
AcDbEntity
  8
戸当り
  6
Continuous
 62
    92
370
    13
100
AcDbLine
 10
5363.546761593016
 20
2914.236698066226
 30
0.0
 11
5312.663307716622
 21
2927.870878440511
 31
0.0
  0
ELLIPSE
  5
1A7
330
1F
100
AcDbEntity
  8
戸当り
  6
Continuous
 62
    92
370
    13
100
AcDbEllipse
 10
5338.105034654817
 20
2921.053788253368
 30
0.0
 11
11.36181697857171
 21
42.40287823032828
 31
0.0
210
0.0
220
0.0
230
0.9999999999999999
 40
0.6
 41
1.570796326794897
 42
4.71238898038469
  0
LINE
  5
1A8
330
1F
100
AcDbEntity
  8
戸当り
  6
Continuous
 62
    40
370
    15
100
AcDbLine
 10
5049.835838693025
 20
3481.846273380328
 30
0.0
 11
5049.835838693025
 21
3133.246273380327
 31
0.0
  0
LINE
  5
1A9
330
1F
100
AcDbEntity
  8
戸当り
  6
Continuous
 62
    40
370
    15
100
AcDbLine
 10
5511.835838693028
 20
3481.846273380328
 30
0.0
 11
5511.835838693028
 21
3292.846273380327
 31
0.0
  0
ARC
  5
1AA
330
1F
100
AcDbEntity
  8
戸当り
  6
Continuous
 62
    40
370
    15
100
AcDbCircle
 10
5049.835838693025
 20
3444.046273380328
 30
0.0
 40
310.8
100
AcDbArc
 50
270.0
 51
0.0
  0
ARC
  5
1AB
330
1F
100
AcDbEntity
  8
戸当り
  6
Continuous
 62
    40
370
    15
100
AcDbCircle
 10
5511.835838693028
 20
3444.046273380328
 30
0.0
 40
151.1999999999998
100
AcDbArc
 50
180.0
 51
270.0
  0
LINE
  5
1AC
330
1F
100
AcDbEntity
  8
戸当り
  6
Continuous
 62
    40
370
    15
100
AcDbLine
 10
5658.835838693027
 20
3444.046273380328
 30
0.0
 11
4902.835838693026
 21
3444.046273380328
 31
0.0
  0
LINE
  5
1AD
330
1F
100
AcDbEntity
  8
0-0_補助線
  6
JWW_HOJO
 62
   120
370
     5
100
AcDbLine
 10
5280.835838693027
 20
3730.000181455871
 30
0.0
 11
5280.835838693027
 21
2764.000181455871
 31
0.0
  0
LINE
  5
1AE
330
1F
100
AcDbEntity
  8
0-0_補助線
  6
JWW_HOJO
 62
   120
370
     5
100
AcDbLine
 10
4482.835838693026
 20
3730.000181455871
 30
0.0
 11
4482.835838693026
 21
2764.000181455871
 31
0.0
  0
ELLIPSE
  5
1AF
330
1F
100
AcDbEntity
  8
戸当り
  6
Continuous
 62
    92
370
    13
100
AcDbEllipse
 10
4409.192036141518
 20
2972.884428393054
 30
0.0
 11
-17.7763823922528
 21
100.8148742797557
 31
0.0
210
0.0
220
0.0
230
1.0
 40
0.4000000000000001
 41
1.850633272656679
 42
2.442876790075129
  0
ELLIPSE
  5
1B0
330
1F
100
AcDbEntity
  8
戸当り
  6
Continuous
 62
    92
370
    13
100
AcDbEllipse
 10
4409.192036141518
 20
2972.884428393054
 30
0.0
 11
-17.7763823922528
 21
100.8148742797557
 31
0.0
210
0.0
220
0.0
230
1.0
 40
0.4000000000000001
 41
3.840308517104466
 42
4.432552034522944
  0
ELLIPSE
  5
1B1
330
1F
100
AcDbEntity
  8
戸当り
  6
Continuous
 62
    92
370
    13
100
AcDbEllipse
 10
4408.772290091619
 20
2975.264926534712
 30
0.0
 11
-14.67024424252691
 21
83.19908946199426
 31
0.0
210
0.0
220
0.0
230
1.0
 40
0.5
 41
4.340591432030095
 42
8.225779182329084
  0
LINE
  5
1B2
330
1F
100
AcDbEntity
  8
戸当り
  6
Continuous
 62
    92
370
    13
100
AcDbLine
 10
4448.741919914281
 20
2900.267379069785
 30
0.0
 11
4396.863795824745
 21
2891.119866084259
 31
0.0
  0
LINE
  5
1B3
330
1F
100
AcDbEntity
  8
戸当り
  6
Continuous
 62
    92
370
    13
100
AcDbLine
 10
4450.929886952883
 20
2887.858801381832
 30
0.0
 11
4399.051762863348
 21
2878.711288396305
 31
0.0
  0
ELLIPSE
  5
1B4
330
1F
100
AcDbEntity
  8
戸当り
  6
Continuous
 62
    92
370
    13
100
AcDbEllipse
 10
4424.990824908116
 20
2883.285044889068
 30
0.0
 11
-7.622927487939132
 21
43.23177007461331
 31
0.0
210
0.0
220
0.0
230
1.0
 40
0.6000000000000001
 41
1.570796326794897
 42
4.71238898038469
  0
ELLIPSE
  5
1B5
330
1F
100
AcDbEntity
  8
戸当り
  6
Continuous
 62
    92
370
    13
100
AcDbEllipse
 10
4563.652805079397
 20
3008.935263882862
 30
0.0
 11
26.49533313827761
 21
98.88192943551533
 31
0.0
210
0.0
220
0.0
230
0.9999999999999999
 40
0.4
 41
1.850633272656679
 42
2.442876790075129
  0
ELLIPSE
  5
1B6
330
1F
100
AcDbEntity
  8
戸当り
  6
Continuous
 62
    92
370
    13
100
AcDbEllipse
 10
4563.652805079397
 20
3008.935263882862
 30
0.0
 11
26.49533313827761
 21
98.88192943551533
 31
0.0
210
0.0
220
0.0
230
0.9999999999999999
 40
0.4
 41
3.840308517104466
 42
4.432552034522944
  0
ELLIPSE
  5
1B7
330
1F
100
AcDbEntity
  8
戸当り
  6
Continuous
 62
    92
370
    13
100
AcDbEllipse
 10
4564.278427952497
 20
3011.270120231655
 30
0.0
 11
21.86569797210526
 21
81.6038957748525
 31
0.0
210
0.0
220
0.0
230
1.0
 40
0.5
 41
4.340591432030095
 42
8.225779182329084
  0
LINE
  5
1B8
330
1F
100
AcDbEntity
  8
戸当り
  6
Continuous
 62
    92
370
    13
100
AcDbLine
 10
4568.807881561306
 20
2926.407363477468
 30
0.0
 11
4517.924427684912
 21
2940.041543851753
 31
0.0
  0
LINE
  5
1B9
330
1F
100
AcDbEntity
  8
戸当り
  6
Continuous
 62
    92
370
    13
100
AcDbLine
 10
4565.546761593015
 20
2914.236698066226
 30
0.0
 11
4514.663307716621
 21
2927.870878440511
 31
0.0
  0
ELLIPSE
  5
1BA
330
1F
100
AcDbEntity
  8
戸当り
  6
Continuous
 62
    92
370
    13
100
AcDbEllipse
 10
4540.105034654818
 20
2921.053788253368
 30
0.0
 11
11.36181697857171
 21
42.40287823032828
 31
0.0
210
0.0
220
0.0
230
0.9999999999999999
 40
0.6
 41
1.570796326794897
 42
4.71238898038469
  0
LINE
  5
1BB
330
1F
100
AcDbEntity
  8
戸当り
  6
Continuous
 62
    40
370
    15
100
AcDbLine
 10
4713.835838693027
 20
3481.846273380328
 30
0.0
 11
4713.835838693027
 21
3133.246273380327
 31
0.0
  0
LINE
  5
1BC
330
1F
100
AcDbEntity
  8
戸当り
  6
Continuous
 62
    40
370
    15
100
AcDbLine
 10
4251.835838693028
 20
3481.846273380328
 30
0.0
 11
4251.835838693028
 21
3292.846273380327
 31
0.0
  0
ARC
  5
1BD
330
1F
100
AcDbEntity
  8
戸当り
  6
Continuous
 62
    40
370
    15
100
AcDbCircle
 10
4713.835838693027
 20
3444.046273380328
 30
0.0
 40
310.8
100
AcDbArc
 50
180.0
 51
270.0
  0
ARC
  5
1BE
330
1F
100
AcDbEntity
  8
戸当り
  6
Continuous
 62
    40
370
    15
100
AcDbCircle
 10
4251.835838693028
 20
3444.046273380328
 30
0.0
 40
151.1999999999998
100
AcDbArc
 50
270.0
 51
0.0
  0
LINE
  5
1BF
330
1F
100
AcDbEntity
  8
戸当り
  6
Continuous
 62
    40
370
    15
100
AcDbLine
 10
4104.835838693025
 20
3444.046273380328
 30
0.0
 11
4860.835838693027
 21
3444.046273380328
 31
0.0
  0
MTEXT
  5
1C0
330
1F
100
AcDbEntity
  8
0-A_文字
  6
Continuous
 62
     7
370
     9
100
AcDbMText
 10
4083.835838693027
 20
3750.482681455871
 30
0.0
 40
100.965
 41
795.0
 46
0.0
 71
     7
 72
     1
  1
{\fＭＳ ゴシック|b0|i0|c128|p49;■吊り手方向}
 73
     1
 44
1.0
  0
MTEXT
  5
1C1
330
1F
100
AcDbEntity
  8
0-A_文字
  6
Continuous
 62
     7
370
     9
100
AcDbMText
 10
4332.835838693026
 20
3615.10018145587
 30
0.0
 40
76.19999999999999
 41
300.0
 46
0.0
 71
     7
 72
     1
  1
{\fＭＳ ゴシック|b0|i0|c128|p49;右吊元}
 73
     1
 44
1.0
  0
MTEXT
  5
1C2
330
1F
100
AcDbEntity
  8
0-A_文字
  6
Continuous
 62
     7
370
     9
100
AcDbMText
 10
5131.574329392652
 20
3615.10018145587
 30
0.0
 40
76.19999999999999
 41
300.0
 46
0.0
 71
     7
 72
     1
  1
{\fＭＳ ゴシック|b0|i0|c128|p49;左吊元}
 73
     1
 44
1.0
  0
MTEXT
  5
1C3
330
1F
100
AcDbEntity
  8
0-A_文字
  6
Continuous
 62
     7
370
     9
100
AcDbMText
 10
-2806.254242109521
 20
2969.291683277027
 30
0.0
 40
100.584
 41
660.0
 46
0.0
 71
     7
 72
     1
  1
{\fＭＳ ゴシック|b0|i0|c128|p49;■横断面図}
 73
     1
 44
1.0
  0
MTEXT
  5
1C4
330
1F
100
AcDbEntity
  8
0-A_文字
  6
Continuous
 62
     7
370
     0
100
AcDbMText
 10
-2811.000000000003
 20
1899.719683277037
 30
0.0
 40
91.44
 41
720.0
 46
0.0
 71
     7
 72
     1
  1
{\fＭＳ ゴシック|b0|i0|c128|p49;（子ドア側）}
 73
     1
 44
1.0
  0
MTEXT
  5
1C5
330
1F
100
AcDbEntity
  8
0-A_文字
  6
Continuous
 62
     7
370
     0
100
AcDbMText
 10
2085.0
 20
1899.719683277037
 30
0.0
 40
91.44
 41
720.0
 46
0.0
 71
     7
 72
     1
  1
{\fＭＳ ゴシック|b0|i0|c128|p49;（親ドア側）}
 73
     1
 44
1.0
  0
MTEXT
  5
1C6
330
1F
100
AcDbEntity
  8
0-A_文字
  6
Continuous
 62
     7
370
     9
100
AcDbMText
 10
2011.857142857143
 20
831.0912089772289
 30
0.0
 40
68.58000000000001
 41
720.0
 46
0.0
 71
     7
 72
     1
  1
{\fＭＳ ゴシック|b0|i0|c128|p49;※図示：右吊り元}
 73
     1
 44
1.0
  0
MTEXT
  5
1C7
330
1F
100
AcDbEntity
  8
0-B_寸法
  6
Continuous
 62
     7
370
   211
100
AcDbMText
 10
-560.0818283164182
 20
1558.66374939711
 30
0.0
 40
91.43999999999998
 41
1140.0
 46
0.0
 71
     7
 72
     1
  1
{\fＭＳ ゴシック|b0|i0|c128|p49;有効開口寸法＝1,021}
 73
     1
 44
1.0
  0
MTEXT
  5
1C8
330
1F
100
AcDbEntity
  8
0-B_寸法
  6
Continuous
 62
     7
370
   211
100
AcDbMText
 10
-2113.016251847182
 20
1378.663749397114
 30
0.0
 40
91.44
 41
60.0
 46
0.0
 71
     7
 72
     1
  1
{\fＭＳ ゴシック|b0|i0|c128|p49;2}
 73
     1
 44
1.0
  0
MTEXT
  5
1C9
330
1F
100
AcDbEntity
  8
0-B_寸法
  6
Continuous
 62
     7
370
   211
100
AcDbMText
 10
-1574.192646258371
 20
1378.663749397114
 30
0.0
 40
91.43999999999998
 41
540.0
 46
0.0
 71
     7
 72
     1
  1
{\fＭＳ ゴシック|b0|i0|c128|p49;ＤＷ＝410}
 73
     1
 44
1.0
  0
MTEXT
  5
1CA
330
1F
100
AcDbEntity
  8
0-B_寸法
  6
Continuous
 62
     7
370
   211
100
AcDbMText
 10
-534.9005778824284
 20
1378.663749397114
 30
0.0
 40
91.44
 41
60.0
 46
0.0
 71
     7
 72
     1
  1
{\fＭＳ ゴシック|b0|i0|c128|p49;4}
 73
     1
 44
1.0
  0
MTEXT
  5
1CB
330
1F
100
AcDbEntity
  8
0-B_寸法
  6
Continuous
 62
     7
370
   211
100
AcDbMText
 10
480.8073537416294
 20
1378.663749397114
 30
0.0
 40
91.43999999999998
 41
540.0
 46
0.0
 71
     7
 72
     1
  1
{\fＭＳ ゴシック|b0|i0|c128|p49;ＤＷ＝723}
 73
     1
 44
1.0
  0
MTEXT
  5
1CC
330
1F
100
AcDbEntity
  8
0-B_寸法
  6
Continuous
 62
     7
370
   211
100
AcDbMText
 10
2090.230916164134
 20
1378.663749397114
 30
0.0
 40
91.44
 41
60.0
 46
0.0
 71
     7
 72
     1
  1
{\fＭＳ ゴシック|b0|i0|c128|p49;2}
 73
     1
 44
1.0
  0
LINE
  5
1CD
330
1F
100
AcDbEntity
  8
0-C_ハッチ
  6
JWW_DASHED1
 62
   120
370
     5
100
AcDbLine
 10
-2201.725835424746
 20
2648.999683277015
 30
0.0
 11
-2276.725835424736
 21
2573.999683277027
 31
0.0
  0
LINE
  5
1CE
330
1F
100
AcDbEntity
  8
0-C_ハッチ
  6
JWW_DASHED1
 62
   120
370
     5
100
AcDbLine
 10
-2244.152242295949
 20
2648.999683277015
 30
0.0
 11
-2319.152242295932
 21
2573.999683277029
 31
0.0
  0
LINE
  5
1CF
330
1F
100
AcDbEntity
  8
0-C_ハッチ
  6
JWW_DASHED1
 62
   120
370
     5
100
AcDbLine
 10
-2198.081828316419
 20
2291.394773575114
 30
0.0
 11
-2260.476918614509
 21
2228.999683277024
 31
0.0
  0
LINE
  5
1D0
330
1F
100
AcDbEntity
  8
0-C_ハッチ
  6
JWW_DASHED1
 62
   120
370
     5
100
AcDbLine
 10
-2227.90332548571
 20
2303.999683277021
 30
0.0
 11
-2302.903325485706
 21
2228.999683277028
 31
0.0
  0
LINE
  5
1D1
330
1F
100
AcDbEntity
  8
0-C_ハッチ
  6
JWW_DASHED1
 62
   120
370
     5
100
AcDbLine
 10
-2270.329732356858
 20
2303.999683277021
 30
0.0
 11
-2345.329732356844
 21
2228.999683277034
 31
0.0
  0
LINE
  5
1D2
330
1F
100
AcDbEntity
  8
0-C_ハッチ
  6
JWW_DASHED1
 62
   120
370
     5
100
AcDbLine
 10
-2710.842717879095
 20
2648.999683277013
 30
0.0
 11
-2785.842717879109
 21
2573.999683277
 31
0.0
  0
LINE
  5
1D3
330
1F
100
AcDbEntity
  8
0-C_ハッチ
  6
JWW_DASHED1
 62
   120
370
     5
100
AcDbLine
 10
-2668.416311007885
 20
2648.999683277022
 30
0.0
 11
-2743.416311007882
 21
2573.999683277028
 31
0.0
  0
LINE
  5
1D4
330
1F
100
AcDbEntity
  8
0-C_ハッチ
  6
JWW_DASHED1
 62
   120
370
     5
100
AcDbLine
 10
-2625.989904136683
 20
2648.999683277024
 30
0.0
 11
-2700.989904136682
 21
2573.999683277027
 31
0.0
  0
LINE
  5
1D5
330
1F
100
AcDbEntity
  8
0-C_ハッチ
  6
JWW_DASHED1
 62
   120
370
     5
100
AcDbLine
 10
-2583.563497265488
 20
2648.999683277021
 30
0.0
 11
-2658.563497265485
 21
2573.999683277022
 31
0.0
  0
LINE
  5
1D6
330
1F
100
AcDbEntity
  8
0-C_ハッチ
  6
JWW_DASHED1
 62
   120
370
     5
100
AcDbLine
 10
-2541.137090394292
 20
2648.99968327702
 30
0.0
 11
-2616.137090394288
 21
2573.999683277022
 31
0.0
  0
LINE
  5
1D7
330
1F
100
AcDbEntity
  8
0-C_ハッチ
  6
JWW_DASHED1
 62
   120
370
     5
100
AcDbLine
 10
-2498.710683523151
 20
2648.999683277013
 30
0.0
 11
-2573.71068352315
 21
2573.999683277015
 31
0.0
  0
LINE
  5
1D8
330
1F
100
AcDbEntity
  8
0-C_ハッチ
  6
JWW_DASHED1
 62
   120
370
     5
100
AcDbLine
 10
-2456.284276651957
 20
2648.999683277008
 30
0.0
 11
-2531.284276651951
 21
2573.999683277013
 31
0.0
  0
LINE
  5
1D9
330
1F
100
AcDbEntity
  8
0-C_ハッチ
  6
JWW_DASHED1
 62
   120
370
     5
100
AcDbLine
 10
-2413.857869780743
 20
2648.999683277022
 30
0.0
 11
-2488.857869780753
 21
2573.999683277008
 31
0.0
  0
LINE
  5
1DA
330
1F
100
AcDbEntity
  8
0-C_ハッチ
  6
JWW_DASHED1
 62
   120
370
     5
100
AcDbLine
 10
-2371.431462909539
 20
2648.999683277022
 30
0.0
 11
-2446.43146290955
 21
2573.999683277013
 31
0.0
  0
LINE
  5
1DB
330
1F
100
AcDbEntity
  8
0-C_ハッチ
  6
JWW_DASHED1
 62
   120
370
     5
100
AcDbLine
 10
-2329.005056038343
 20
2648.99968327702
 30
0.0
 11
-2404.005056038337
 21
2573.999683277024
 31
0.0
  0
LINE
  5
1DC
330
1F
100
AcDbEntity
  8
0-C_ハッチ
  6
JWW_DASHED1
 62
   120
370
     5
100
AcDbLine
 10
-2286.578649167132
 20
2648.999683277029
 30
0.0
 11
-2361.578649167129
 21
2573.999683277033
 31
0.0
  0
LINE
  5
1DD
330
1F
100
AcDbEntity
  8
0-C_ハッチ
  6
JWW_DASHED1
 62
   120
370
     5
100
AcDbLine
 10
-2694.593801068797
 20
2303.999683277028
 30
0.0
 11
-2769.593801068806
 21
2228.999683277018
 31
0.0
  0
LINE
  5
1DE
330
1F
100
AcDbEntity
  8
0-C_ハッチ
  6
JWW_DASHED1
 62
   120
370
     5
100
AcDbLine
 10
-2652.167394197594
 20
2303.999683277028
 30
0.0
 11
-2727.167394197592
 21
2228.999683277032
 31
0.0
  0
LINE
  5
1DF
330
1F
100
AcDbEntity
  8
0-C_ハッチ
  6
JWW_DASHED1
 62
   120
370
     5
100
AcDbLine
 10
-2609.740987326397
 20
2303.999683277024
 30
0.0
 11
-2684.740987326394
 21
2228.999683277028
 31
0.0
  0
LINE
  5
1E0
330
1F
100
AcDbEntity
  8
0-C_ハッチ
  6
JWW_DASHED1
 62
   120
370
     5
100
AcDbLine
 10
-2567.314580455259
 20
2303.999683277018
 30
0.0
 11
-2642.314580455255
 21
2228.999683277021
 31
0.0
  0
LINE
  5
1E1
330
1F
100
AcDbEntity
  8
0-C_ハッチ
  6
JWW_DASHED1
 62
   120
370
     5
100
AcDbLine
 10
-2524.888173584062
 20
2303.999683277014
 30
0.0
 11
-2599.888173584059
 21
2228.999683277018
 31
0.0
  0
LINE
  5
1E2
330
1F
100
AcDbEntity
  8
0-C_ハッチ
  6
JWW_DASHED1
 62
   120
370
     5
100
AcDbLine
 10
-2482.461766712865
 20
2303.999683277013
 30
0.0
 11
-2557.46176671286
 21
2228.999683277015
 31
0.0
  0
LINE
  5
1E3
330
1F
100
AcDbEntity
  8
0-C_ハッチ
  6
JWW_DASHED1
 62
   120
370
     5
100
AcDbLine
 10
-2440.035359841652
 20
2303.999683277027
 30
0.0
 11
-2515.035359841665
 21
2228.999683277013
 31
0.0
  0
LINE
  5
1E4
330
1F
100
AcDbEntity
  8
0-C_ハッチ
  6
JWW_DASHED1
 62
   120
370
     5
100
AcDbLine
 10
-2397.608952970452
 20
2303.999683277028
 30
0.0
 11
-2472.60895297046
 21
2228.999683277018
 31
0.0
  0
LINE
  5
1E5
330
1F
100
AcDbEntity
  8
0-C_ハッチ
  6
JWW_DASHED1
 62
   120
370
     5
100
AcDbLine
 10
-2355.182546099241
 20
2303.999683277036
 30
0.0
 11
-2430.182546099238
 21
2228.999683277038
 31
0.0
  0
LINE
  5
1E6
330
1F
100
AcDbEntity
  8
0-C_ハッチ
  6
JWW_DASHED1
 62
   120
370
     5
100
AcDbLine
 10
-2312.756139228045
 20
2303.999683277033
 30
0.0
 11
-2387.756139228041
 21
2228.999683277036
 31
0.0
  0
LINE
  5
1E7
330
1F
100
AcDbEntity
  8
0-C_ハッチ
  6
JWW_DASHED1
 62
   120
370
     5
100
AcDbLine
 10
2217.918171683582
 20
2610.21728351415
 30
0.0
 11
2254.135771920718
 21
2573.999683277015
 31
0.0
  0
LINE
  5
1E8
330
1F
100
AcDbEntity
  8
0-C_ハッチ
  6
JWW_DASHED1
 62
   120
370
     5
100
AcDbLine
 10
2221.562178791909
 20
2648.999683277015
 30
0.0
 11
2296.562178791899
 21
2573.999683277027
 31
0.0
  0
LINE
  5
1E9
330
1F
100
AcDbEntity
  8
0-C_ハッチ
  6
JWW_DASHED1
 62
   120
370
     5
100
AcDbLine
 10
2263.988585663111
 20
2648.999683277015
 30
0.0
 11
2338.988585663096
 21
2573.999683277029
 31
0.0
  0
LINE
  5
1EA
330
1F
100
AcDbEntity
  8
0-C_ハッチ
  6
JWW_DASHED1
 62
   120
370
     5
100
AcDbLine
 10
2217.918171683582
 20
2291.394773575114
 30
0.0
 11
2280.313261981671
 21
2228.999683277024
 31
0.0
  0
LINE
  5
1EB
330
1F
100
AcDbEntity
  8
0-C_ハッチ
  6
JWW_DASHED1
 62
   120
370
     5
100
AcDbLine
 10
2247.739668852872
 20
2303.999683277021
 30
0.0
 11
2322.739668852868
 21
2228.999683277028
 31
0.0
  0
LINE
  5
1EC
330
1F
100
AcDbEntity
  8
0-C_ハッチ
  6
JWW_DASHED1
 62
   120
370
     5
100
AcDbLine
 10
2730.679061246258
 20
2648.999683277013
 30
0.0
 11
2805.67906124627
 21
2573.999683277
 31
0.0
  0
LINE
  5
1ED
330
1F
100
AcDbEntity
  8
0-C_ハッチ
  6
JWW_DASHED1
 62
   120
370
     5
100
AcDbLine
 10
2688.252654375048
 20
2648.999683277022
 30
0.0
 11
2763.252654375043
 21
2573.999683277028
 31
0.0
  0
LINE
  5
1EE
330
1F
100
AcDbEntity
  8
0-C_ハッチ
  6
JWW_DASHED1
 62
   120
370
     5
100
AcDbLine
 10
2645.826247503847
 20
2648.999683277024
 30
0.0
 11
2720.826247503845
 21
2573.999683277027
 31
0.0
  0
LINE
  5
1EF
330
1F
100
AcDbEntity
  8
0-C_ハッチ
  6
JWW_DASHED1
 62
   120
370
     5
100
AcDbLine
 10
2603.39984063265
 20
2648.999683277021
 30
0.0
 11
2678.399840632648
 21
2573.999683277022
 31
0.0
  0
LINE
  5
1F0
330
1F
100
AcDbEntity
  8
0-C_ハッチ
  6
JWW_DASHED1
 62
   120
370
     5
100
AcDbLine
 10
2560.973433761454
 20
2648.99968327702
 30
0.0
 11
2635.97343376145
 21
2573.999683277022
 31
0.0
  0
LINE
  5
1F1
330
1F
100
AcDbEntity
  8
0-C_ハッチ
  6
JWW_DASHED1
 62
   120
370
     5
100
AcDbLine
 10
2518.547026890315
 20
2648.999683277013
 30
0.0
 11
2593.547026890311
 21
2573.999683277015
 31
0.0
  0
LINE
  5
1F2
330
1F
100
AcDbEntity
  8
0-C_ハッチ
  6
JWW_DASHED1
 62
   120
370
     5
100
AcDbLine
 10
2476.120620019118
 20
2648.999683277008
 30
0.0
 11
2551.120620019115
 21
2573.999683277013
 31
0.0
  0
LINE
  5
1F3
330
1F
100
AcDbEntity
  8
0-C_ハッチ
  6
JWW_DASHED1
 62
   120
370
     5
100
AcDbLine
 10
2433.694213147905
 20
2648.999683277022
 30
0.0
 11
2508.694213147916
 21
2573.999683277008
 31
0.0
  0
LINE
  5
1F4
330
1F
100
AcDbEntity
  8
0-C_ハッチ
  6
JWW_DASHED1
 62
   120
370
     5
100
AcDbLine
 10
2391.267806276703
 20
2648.999683277022
 30
0.0
 11
2466.267806276713
 21
2573.999683277013
 31
0.0
  0
LINE
  5
1F5
330
1F
100
AcDbEntity
  8
0-C_ハッチ
  6
JWW_DASHED1
 62
   120
370
     5
100
AcDbLine
 10
2348.841399405506
 20
2648.99968327702
 30
0.0
 11
2423.841399405501
 21
2573.999683277024
 31
0.0
  0
LINE
  5
1F6
330
1F
100
AcDbEntity
  8
0-C_ハッチ
  6
JWW_DASHED1
 62
   120
370
     5
100
AcDbLine
 10
2306.414992534296
 20
2648.999683277029
 30
0.0
 11
2381.414992534292
 21
2573.999683277033
 31
0.0
  0
LINE
  5
1F7
330
1F
100
AcDbEntity
  8
0-C_ハッチ
  6
JWW_DASHED1
 62
   120
370
     5
100
AcDbLine
 10
2714.430144435959
 20
2303.999683277028
 30
0.0
 11
2789.430144435969
 21
2228.999683277018
 31
0.0
  0
LINE
  5
1F8
330
1F
100
AcDbEntity
  8
0-C_ハッチ
  6
JWW_DASHED1
 62
   120
370
     5
100
AcDbLine
 10
2672.003737564757
 20
2303.999683277028
 30
0.0
 11
2747.003737564756
 21
2228.999683277032
 31
0.0
  0
LINE
  5
1F9
330
1F
100
AcDbEntity
  8
0-C_ハッチ
  6
JWW_DASHED1
 62
   120
370
     5
100
AcDbLine
 10
2629.57733069356
 20
2303.999683277024
 30
0.0
 11
2704.577330693557
 21
2228.999683277028
 31
0.0
  0
LINE
  5
1FA
330
1F
100
AcDbEntity
  8
0-C_ハッチ
  6
JWW_DASHED1
 62
   120
370
     5
100
AcDbLine
 10
2587.150923822422
 20
2303.999683277018
 30
0.0
 11
2662.150923822418
 21
2228.999683277021
 31
0.0
  0
LINE
  5
1FB
330
1F
100
AcDbEntity
  8
0-C_ハッチ
  6
JWW_DASHED1
 62
   120
370
     5
100
AcDbLine
 10
2544.724516951225
 20
2303.999683277014
 30
0.0
 11
2619.724516951222
 21
2228.999683277018
 31
0.0
  0
LINE
  5
1FC
330
1F
100
AcDbEntity
  8
0-C_ハッチ
  6
JWW_DASHED1
 62
   120
370
     5
100
AcDbLine
 10
2502.298110080027
 20
2303.999683277013
 30
0.0
 11
2577.298110080025
 21
2228.999683277015
 31
0.0
  0
LINE
  5
1FD
330
1F
100
AcDbEntity
  8
0-C_ハッチ
  6
JWW_DASHED1
 62
   120
370
     5
100
AcDbLine
 10
2459.871703208815
 20
2303.999683277027
 30
0.0
 11
2534.871703208827
 21
2228.999683277013
 31
0.0
  0
LINE
  5
1FE
330
1F
100
AcDbEntity
  8
0-C_ハッチ
  6
JWW_DASHED1
 62
   120
370
     5
100
AcDbLine
 10
2417.445296337613
 20
2303.999683277028
 30
0.0
 11
2492.445296337624
 21
2228.999683277018
 31
0.0
  0
LINE
  5
1FF
330
1F
100
AcDbEntity
  8
0-C_ハッチ
  6
JWW_DASHED1
 62
   120
370
     5
100
AcDbLine
 10
2375.018889466405
 20
2303.999683277036
 30
0.0
 11
2450.018889466401
 21
2228.999683277038
 31
0.0
  0
LINE
  5
200
330
1F
100
AcDbEntity
  8
0-C_ハッチ
  6
JWW_DASHED1
 62
   120
370
     5
100
AcDbLine
 10
2332.592482595206
 20
2303.999683277033
 30
0.0
 11
2407.592482595203
 21
2228.999683277036
 31
0.0
  0
LINE
  5
201
330
1F
100
AcDbEntity
  8
0-C_ハッチ
  6
JWW_DASHED1
 62
   120
370
     5
100
AcDbLine
 10
2290.16607572401
 20
2303.999683277032
 30
0.0
 11
2365.166075724006
 21
2228.999683277034
 31
0.0
  0
LINE
  5
202
330
1F
100
AcDbEntity
  8
0-3_仕上げ
  6
Continuous
 62
    40
370
    15
100
AcDbLine
 10
-2798.081828316419
 20
2228.999683277021
 30
0.0
 11
-2198.081828316419
 21
2228.999683277021
 31
0.0
  0
LINE
  5
203
330
1F
100
AcDbEntity
  8
0-C_ハッチ
  6
JWW_DASHED1
 62
   120
370
     5
100
AcDbLine
 10
-2737.020207939991
 20
2303.999683277032
 30
0.0
 11
-2798.081828316419
 21
2242.938062900605
 31
0.0
  0
LINE
  5
204
330
1F
100
AcDbEntity
  8
0-C_ハッチ
  6
JWW_DASHED1
 62
   120
370
     5
100
AcDbLine
 10
-2779.446614811204
 20
2303.99968327702
 30
0.0
 11
-2798.081828316419
 21
2285.364469771805
 31
0.0
  0
LINE
  5
205
330
1F
100
AcDbEntity
  8
0-3_仕上げ
  6
Continuous
 62
    40
370
    15
100
AcDbLine
 10
-2798.081828316419
 20
2303.999683277021
 30
0.0
 11
-2198.081828316419
 21
2303.999683277021
 31
0.0
  0
LINE
  5
206
330
1F
100
AcDbEntity
  8
0-3_仕上げ
  6
Continuous
 62
    40
370
    15
100
AcDbLine
 10
-2798.081828316419
 20
2573.999683277015
 30
0.0
 11
-2198.081828316419
 21
2573.999683277015
 31
0.0
  0
LINE
  5
207
330
1F
100
AcDbEntity
  8
0-C_ハッチ
  6
JWW_DASHED1
 62
   120
370
     5
100
AcDbLine
 10
-2753.269124750292
 20
2648.999683277015
 30
0.0
 11
-2798.081828316419
 21
2604.18697971089
 31
0.0
  0
LINE
  5
208
330
1F
100
AcDbEntity
  8
0-C_ハッチ
  6
JWW_DASHED1
 62
   120
370
     5
100
AcDbLine
 10
-2795.695531621505
 20
2648.999683277002
 30
0.0
 11
-2798.081828316419
 21
2646.61338658209
 31
0.0
  0
LINE
  5
209
330
1F
100
AcDbEntity
  8
0-3_仕上げ
  6
Continuous
 62
    40
370
    15
100
AcDbLine
 10
-2798.081828316419
 20
2648.999683277015
 30
0.0
 11
-2198.081828316419
 21
2648.999683277015
 31
0.0
  0
LINE
  5
20A
330
1F
100
AcDbEntity
  8
0-3_仕上げ
  6
Continuous
 62
    40
370
    15
100
AcDbLine
 10
2817.918171683582
 20
2228.999683277021
 30
0.0
 11
2217.918171683582
 21
2228.999683277021
 31
0.0
  0
LINE
  5
20B
330
1F
100
AcDbEntity
  8
0-C_ハッチ
  6
JWW_DASHED1
 62
   120
370
     5
100
AcDbLine
 10
2756.856551307153
 20
2303.999683277032
 30
0.0
 11
2817.918171683582
 21
2242.938062900605
 31
0.0
  0
LINE
  5
20C
330
1F
100
AcDbEntity
  8
0-C_ハッチ
  6
JWW_DASHED1
 62
   120
370
     5
100
AcDbLine
 10
2799.282958178365
 20
2303.99968327702
 30
0.0
 11
2817.918171683582
 21
2285.364469771803
 31
0.0
  0
LINE
  5
20D
330
1F
100
AcDbEntity
  8
0-3_仕上げ
  6
Continuous
 62
    40
370
    15
100
AcDbLine
 10
2817.918171683582
 20
2303.999683277021
 30
0.0
 11
2217.918171683582
 21
2303.999683277021
 31
0.0
  0
LINE
  5
20E
330
1F
100
AcDbEntity
  8
0-1_通り芯
  6
JWW_CENTER1
 62
   120
370
     5
100
AcDbLine
 10
-2798.081828316419
 20
2438.999683277028
 30
0.0
 11
2817.918171683581
 21
2438.999683277028
 31
0.0
  0
LINE
  5
20F
330
1F
100
AcDbEntity
  8
0-3_仕上げ
  6
Continuous
 62
    40
370
    15
100
AcDbLine
 10
2817.918171683582
 20
2573.999683277015
 30
0.0
 11
2217.918171683582
 21
2573.999683277015
 31
0.0
  0
LINE
  5
210
330
1F
100
AcDbEntity
  8
0-C_ハッチ
  6
JWW_DASHED1
 62
   120
370
     5
100
AcDbLine
 10
2773.105468117455
 20
2648.999683277015
 30
0.0
 11
2817.918171683582
 21
2604.186979710889
 31
0.0
  0
LINE
  5
211
330
1F
100
AcDbEntity
  8
0-C_ハッチ
  6
JWW_DASHED1
 62
   120
370
     5
100
AcDbLine
 10
2815.531874988669
 20
2648.999683277002
 30
0.0
 11
2817.918171683582
 21
2646.61338658209
 31
0.0
  0
LINE
  5
212
330
1F
100
AcDbEntity
  8
0-3_仕上げ
  6
Continuous
 62
    40
370
    15
100
AcDbLine
 10
2817.918171683582
 20
2648.999683277015
 30
0.0
 11
2217.918171683582
 21
2648.999683277015
 31
0.0
  0
LINE
  5
213
330
1F
100
AcDbEntity
  8
0-C_ハッチ
  6
JWW_DASHED1
 62
   120
370
     5
100
AcDbLine
 10
-2198.081828316419
 20
2248.96836670392
 30
0.0
 11
-2218.050511743319
 21
2228.999683277021
 31
0.0
  0
LINE
  5
214
330
1F
100
AcDbEntity
  8
0-C_ハッチ
  6
JWW_DASHED1
 62
   120
370
     5
100
AcDbLine
 10
-2198.081828316419
 20
2610.21728351415
 30
0.0
 11
-2234.299428553553
 21
2573.999683277015
 31
0.0
  0
LINE
  5
215
330
1F
100
AcDbEntity
  8
0-C_ハッチ
  6
JWW_DASHED1
 62
   120
370
     5
100
AcDbLine
 10
2217.918171683582
 20
2248.96836670392
 30
0.0
 11
2237.886855110482
 21
2228.999683277021
 31
0.0
  0
LINE
  5
216
330
1F
100
AcDbEntity
  8
0-0_補助線
  6
JWW_HOJO
 62
   120
370
     5
100
AcDbLine
 10
2817.918171683582
 20
2888.999683277028
 30
0.0
 11
-2798.081828316419
 21
2888.999683277028
 31
0.0
  0
LINE
  5
217
330
1F
100
AcDbEntity
  8
0-0_補助線
  6
JWW_HOJO
 62
   120
370
     5
100
AcDbLine
 10
702.8073537416292
 20
2888.999683277028
 30
0.0
 11
702.8073537416292
 21
1988.999683277027
 31
0.0
  0
LINE
  5
218
330
1F
100
AcDbEntity
  8
0-0_補助線
  6
JWW_HOJO
 62
   120
370
     5
100
AcDbLine
 10
822.8073537416292
 20
2888.999683277028
 30
0.0
 11
822.8073537416292
 21
1988.999683277027
 31
0.0
  0
LWPOLYLINE
  5
219
330
1F
100
AcDbEntity
  8
0-B_寸法
  6
Continuous
 62
     7
370
     9
100
AcDbPolyline
 90
        4
 70
     1
 43
3.0
 10
-555.8034642003233
 20
1377.943749397114
 42
0.4142135623731
 10
-557.3034642003233
 20
1379.443749397114
 42
0.4142135623731
 10
-558.8034642003233
 20
1377.943749397114
 42
0.4142135623731
 10
-557.3034642003233
 20
1376.443749397114
 42
0.4142135623731
  0
LWPOLYLINE
  5
21A
330
1F
100
AcDbEntity
  8
0-B_寸法
  6
Continuous
 62
     7
370
     9
100
AcDbPolyline
 90
        4
 70
     1
 43
3.0
 10
-579.803464200322
 20
1377.943749397114
 42
0.4142135623731
 10
-581.303464200322
 20
1379.443749397114
 42
0.4142135623731
 10
-582.803464200322
 20
1377.943749397114
 42
0.4142135623731
 10
-581.303464200322
 20
1376.443749397114
 42
0.4142135623731
  0
LINE
  5
21B
330
1F
100
AcDbEntity
  8
0-B_寸法
  6
Continuous
 62
   120
370
     5
100
AcDbLine
 10
-557.3034642003233
 20
1377.943749397114
 30
0.0
 11
-557.3034642003233
 21
1557.943749397114
 31
0.0
  0
LINE
  5
21C
330
1F
100
AcDbEntity
  8
0-B_寸法
  6
Continuous
 62
   120
370
     5
100
AcDbLine
 10
-581.303464200322
 20
1377.943749397114
 30
0.0
 11
-581.303464200322
 21
1557.943749397114
 31
0.0
  0
LWPOLYLINE
  5
21D
330
1F
100
AcDbEntity
  8
0-B_寸法
  6
Continuous
 62
     7
370
     9
100
AcDbPolyline
 90
        4
 70
     1
 43
3.0
 10
1694.449247653482
 20
1557.943749397114
 42
0.4142135623731
 10
1692.949247653482
 20
1559.443749397114
 42
0.4142135623731
 10
1691.449247653482
 20
1557.943749397114
 42
0.4142135623731
 10
1692.949247653482
 20
1556.443749397115
 42
0.4142135623731
  0
LINE
  5
21E
330
1F
100
AcDbEntity
  8
0-B_寸法
  6
Continuous
 62
   120
370
     5
100
AcDbLine
 10
1692.949247653482
 20
1557.943749397114
 30
0.0
 11
1692.949247653482
 21
1917.943749397116
 31
0.0
  0
LINE
  5
21F
330
1F
100
AcDbEntity
  8
0-6_扉
  6
JWW_DASHED2
 62
   200
370
    20
100
AcDbLine
 10
1692.949247653482
 20
2042.285559290744
 30
0.0
 11
1908.949247653482
 21
2042.285559290744
 31
0.0
  0
LINE
  5
220
330
1F
100
AcDbEntity
  8
0-6_扉
  6
JWW_DASHED2
 62
   200
370
    20
100
AcDbLine
 10
1908.949247653482
 20
2042.285559290744
 30
0.0
 11
1908.949247653482
 21
1917.943749397116
 31
0.0
  0
LINE
  5
221
330
1F
100
AcDbEntity
  8
0-6_扉
  6
JWW_DASHED2
 62
   200
370
    20
100
AcDbLine
 10
1692.949247653482
 20
2042.285559290744
 30
0.0
 11
1692.949247653482
 21
1917.943749397116
 31
0.0
  0
LINE
  5
222
330
1F
100
AcDbEntity
  8
0-0_補助線
  6
JWW_HOJO
 62
   120
370
     5
100
AcDbLine
 10
-2798.081828316419
 20
2888.999683277028
 30
0.0
 11
-2798.081828316419
 21
1917.943749397116
 31
0.0
  0
LINE
  5
223
330
1F
100
AcDbEntity
  8
0-0_補助線
  6
JWW_HOJO
 62
   120
370
     5
100
AcDbLine
 10
2817.918171683582
 20
1917.943749397116
 30
0.0
 11
-2798.081828316419
 21
1917.943749397116
 31
0.0
  0
LINE
  5
224
330
1F
100
AcDbEntity
  8
0-0_補助線
  6
JWW_HOJO
 62
   120
370
     5
100
AcDbLine
 10
2817.918171683582
 20
2888.999683277028
 30
0.0
 11
2817.918171683582
 21
1917.943749397116
 31
0.0
  0
LWPOLYLINE
  5
225
330
1F
100
AcDbEntity
  8
0-B_寸法
  6
Continuous
 62
     7
370
     9
100
AcDbPolyline
 90
        4
 70
     1
 43
3.0
 10
-1707.612904286319
 20
1557.943749397114
 42
0.4142135623731
 10
-1709.112904286319
 20
1559.443749397114
 42
0.4142135623731
 10
-1710.612904286319
 20
1557.943749397114
 42
0.4142135623731
 10
-1709.112904286319
 20
1556.443749397115
 42
0.4142135623731
  0
LINE
  5
226
330
1F
100
AcDbEntity
  8
0-B_寸法
  6
Continuous
 62
   120
370
     5
100
AcDbLine
 10
-1709.112904286319
 20
1557.943749397114
 30
0.0
 11
-1709.112904286319
 21
1917.943749397116
 31
0.0
  0
LINE
  5
227
330
1F
100
AcDbEntity
  8
0-B_寸法
  6
Continuous
 62
   120
370
     5
100
AcDbLine
 10
-1709.112904286319
 20
1557.943749397114
 30
0.0
 11
1692.949247653482
 21
1557.943749397114
 31
0.0
  0
LINE
  5
228
330
1F
100
AcDbEntity
  8
0-6_扉
  6
JWW_DASHED2
 62
   200
370
    20
100
AcDbLine
 10
-1709.112904286319
 20
2042.285559290744
 30
0.0
 11
-1925.112904286318
 21
2042.285559290744
 31
0.0
  0
LINE
  5
229
330
1F
100
AcDbEntity
  8
0-6_扉
  6
JWW_DASHED2
 62
   200
370
    20
100
AcDbLine
 10
-1925.112904286318
 20
2042.285559290744
 30
0.0
 11
-1925.112904286318
 21
1917.943749397115
 31
0.0
  0
LINE
  5
22A
330
1F
100
AcDbEntity
  8
0-6_扉
  6
JWW_DASHED2
 62
   200
370
    20
100
AcDbLine
 10
-1709.112904286319
 20
2042.285559290744
 30
0.0
 11
-1709.112904286319
 21
1917.943749397115
 31
0.0
  0
MTEXT
  5
22B
330
1F
100
AcDbEntity
  8
0-B_寸法
  6
Continuous
 62
     7
370
   211
100
AcDbMText
 10
-2177.081828316418
 20
1198.663749397114
 30
0.0
 40
91.44
 41
120.0
 46
0.0
 71
     7
 72
     1
  1
{\fＭＳ ゴシック|b0|i0|c128|p49;24}
 73
     1
 44
1.0
  0
MTEXT
  5
22C
330
1F
100
AcDbEntity
  8
0-B_寸法
  6
Continuous
 62
     7
370
   211
100
AcDbMText
 10
-320.0818283164182
 20
1198.663749397114
 30
0.0
 40
91.43999999999997
 41
660.0
 46
0.0
 71
     7
 72
     1
  1
{\fＭＳ ゴシック|b0|i0|c128|p49;枠内＝1,141}
 73
     1
 44
1.0
  0
LWPOLYLINE
  5
22D
330
1F
100
AcDbEntity
  8
0-B_寸法
  6
Continuous
 62
     7
370
     9
100
AcDbPolyline
 90
        4
 70
     1
 43
3.0
 10
-2196.581828316419
 20
1017.943749397114
 42
0.4142135623731
 10
-2198.081828316419
 20
1019.443749397114
 42
0.4142135623731
 10
-2199.581828316419
 20
1017.943749397114
 42
0.4142135623731
 10
-2198.081828316419
 20
1016.443749397114
 42
0.4142135623731
  0
LWPOLYLINE
  5
22E
330
1F
100
AcDbEntity
  8
0-B_寸法
  6
Continuous
 62
     7
370
     9
100
AcDbPolyline
 90
        4
 70
     1
 43
3.0
 10
-2196.581828316419
 20
1197.943749397114
 42
0.4142135623731
 10
-2198.081828316419
 20
1199.443749397114
 42
0.4142135623731
 10
-2199.581828316419
 20
1197.943749397114
 42
0.4142135623731
 10
-2198.081828316419
 20
1196.443749397114
 42
0.4142135623731
  0
LWPOLYLINE
  5
22F
330
1F
100
AcDbEntity
  8
0-B_寸法
  6
Continuous
 62
     7
370
     9
100
AcDbPolyline
 90
        4
 70
     1
 43
3.0
 10
-2052.581828316416
 20
1197.943749397114
 42
0.4142135623731
 10
-2054.081828316416
 20
1199.443749397114
 42
0.4142135623731
 10
-2055.581828316416
 20
1197.943749397114
 42
0.4142135623731
 10
-2054.081828316416
 20
1196.443749397114
 42
0.4142135623731
  0
LWPOLYLINE
  5
230
330
1F
100
AcDbEntity
  8
0-B_寸法
  6
Continuous
 62
     7
370
     9
100
AcDbPolyline
 90
        4
 70
     1
 43
3.0
 10
-2052.581828316416
 20
1377.943749397114
 42
0.4142135623731
 10
-2054.081828316416
 20
1379.443749397114
 42
0.4142135623731
 10
-2055.581828316416
 20
1377.943749397114
 42
0.4142135623731
 10
-2054.081828316416
 20
1376.443749397114
 42
0.4142135623731
  0
LWPOLYLINE
  5
231
330
1F
100
AcDbEntity
  8
0-B_寸法
  6
Continuous
 62
     7
370
     9
100
AcDbPolyline
 90
        4
 70
     1
 43
3.0
 10
-2040.581828316417
 20
1377.943749397114
 42
0.4142135623731
 10
-2042.081828316417
 20
1379.443749397114
 42
0.4142135623731
 10
-2043.581828316417
 20
1377.943749397114
 42
0.4142135623731
 10
-2042.081828316417
 20
1376.443749397114
 42
0.4142135623731
  0
LINE
  5
232
330
1F
100
AcDbEntity
  8
0-B_寸法
  6
Continuous
 62
   120
370
     5
100
AcDbLine
 10
-2042.081828316417
 20
1377.943749397114
 30
0.0
 11
-2042.081828316417
 21
1917.943749397116
 31
0.0
  0
LINE
  5
233
330
1F
100
AcDbEntity
  8
0-B_寸法
  6
Continuous
 62
   120
370
     5
100
AcDbLine
 10
-2054.081828316416
 20
1197.943749397114
 30
0.0
 11
-2054.081828316416
 21
1917.943749397116
 31
0.0
  0
LINE
  5
234
330
1F
100
AcDbEntity
  8
0-B_寸法
  6
Continuous
 62
   120
370
     5
100
AcDbLine
 10
-2198.081828316419
 20
1017.943749397114
 30
0.0
 11
-2198.081828316419
 21
1917.943749397116
 31
0.0
  0
MTEXT
  5
235
330
1F
100
AcDbEntity
  8
0-B_寸法
  6
Continuous
 62
     7
370
   211
100
AcDbMText
 10
2094.918171683582
 20
1198.663749397114
 30
0.0
 40
91.44
 41
120.0
 46
0.0
 71
     7
 72
     1
  1
{\fＭＳ ゴシック|b0|i0|c128|p49;24}
 73
     1
 44
1.0
  0
MTEXT
  5
236
330
1F
100
AcDbEntity
  8
0-B_寸法
  6
Continuous
 62
     7
370
   211
100
AcDbMText
 10
-320.0818283164182
 20
1018.663749397114
 30
0.0
 40
91.43999999999997
 41
660.0
 46
0.0
 71
     7
 72
     1
  1
{\fＭＳ ゴシック|b0|i0|c128|p49;枠外＝1,189}
 73
     1
 44
1.0
  0
LWPOLYLINE
  5
237
330
1F
100
AcDbEntity
  8
0-B_寸法
  6
Continuous
 62
     7
370
     9
100
AcDbPolyline
 90
        4
 70
     1
 43
3.0
 10
2219.418171683581
 20
1017.943749397114
 42
0.4142135623731
 10
2217.918171683581
 20
1019.443749397114
 42
0.4142135623731
 10
2216.418171683581
 20
1017.943749397114
 42
0.4142135623731
 10
2217.918171683581
 20
1016.443749397114
 42
0.4142135623731
  0
LWPOLYLINE
  5
238
330
1F
100
AcDbEntity
  8
0-B_寸法
  6
Continuous
 62
     7
370
     9
100
AcDbPolyline
 90
        4
 70
     1
 43
3.0
 10
2075.418171683582
 20
1197.943749397114
 42
0.4142135623731
 10
2073.918171683582
 20
1199.443749397114
 42
0.4142135623731
 10
2072.418171683582
 20
1197.943749397114
 42
0.4142135623731
 10
2073.918171683582
 20
1196.443749397114
 42
0.4142135623731
  0
LWPOLYLINE
  5
239
330
1F
100
AcDbEntity
  8
0-B_寸法
  6
Continuous
 62
     7
370
     9
100
AcDbPolyline
 90
        4
 70
     1
 43
3.0
 10
2219.418171683581
 20
1197.943749397114
 42
0.4142135623731
 10
2217.918171683581
 20
1199.443749397114
 42
0.4142135623731
 10
2216.418171683581
 20
1197.943749397114
 42
0.4142135623731
 10
2217.918171683581
 20
1196.443749397114
 42
0.4142135623731
  0
LWPOLYLINE
  5
23A
330
1F
100
AcDbEntity
  8
0-B_寸法
  6
Continuous
 62
     7
370
     9
100
AcDbPolyline
 90
        4
 70
     1
 43
3.0
 10
2063.418171683583
 20
1377.943749397114
 42
0.4142135623731
 10
2061.918171683583
 20
1379.443749397114
 42
0.4142135623731
 10
2060.418171683583
 20
1377.943749397114
 42
0.4142135623731
 10
2061.918171683583
 20
1376.443749397114
 42
0.4142135623731
  0
LWPOLYLINE
  5
23B
330
1F
100
AcDbEntity
  8
0-B_寸法
  6
Continuous
 62
     7
370
     9
100
AcDbPolyline
 90
        4
 70
     1
 43
3.0
 10
2075.418171683582
 20
1377.943749397114
 42
0.4142135623731
 10
2073.918171683582
 20
1379.443749397114
 42
0.4142135623731
 10
2072.418171683582
 20
1377.943749397114
 42
0.4142135623731
 10
2073.918171683582
 20
1376.443749397114
 42
0.4142135623731
  0
LINE
  5
23C
330
1F
100
AcDbEntity
  8
0-B_寸法
  6
Continuous
 62
   120
370
     5
100
AcDbLine
 10
2061.918171683583
 20
1377.943749397114
 30
0.0
 11
2061.918171683583
 21
1917.943749397116
 31
0.0
  0
LINE
  5
23D
330
1F
100
AcDbEntity
  8
0-B_寸法
  6
Continuous
 62
   120
370
     5
100
AcDbLine
 10
2073.918171683582
 20
1197.943749397114
 30
0.0
 11
2073.918171683582
 21
1917.943749397116
 31
0.0
  0
LINE
  5
23E
330
1F
100
AcDbEntity
  8
0-B_寸法
  6
Continuous
 62
   120
370
     5
100
AcDbLine
 10
2217.918171683581
 20
1017.943749397114
 30
0.0
 11
2217.918171683581
 21
1917.943749397116
 31
0.0
  0
LINE
  5
23F
330
1F
100
AcDbEntity
  8
0-B_寸法
  6
Continuous
 62
   120
370
     5
100
AcDbLine
 10
2217.918171683581
 20
1017.943749397114
 30
0.0
 11
-2198.081828316419
 21
1017.943749397114
 31
0.0
  0
LINE
  5
240
330
1F
100
AcDbEntity
  8
0-B_寸法
  6
Continuous
 62
   120
370
     5
100
AcDbLine
 10
2217.918171683581
 20
1197.943749397114
 30
0.0
 11
-2198.081828316419
 21
1197.943749397114
 31
0.0
  0
LINE
  5
241
330
1F
100
AcDbEntity
  8
0-B_寸法
  6
Continuous
 62
   120
370
     5
100
AcDbLine
 10
2073.918171683582
 20
1377.943749397114
 30
0.0
 11
-2054.081828316416
 21
1377.943749397114
 31
0.0
  0
LINE
  5
242
330
1F
100
AcDbEntity
  8
0-2_柱
  6
Continuous
 62
     7
370
     9
100
AcDbLine
 10
-2246.08182831642
 20
2573.999683277015
 30
0.0
 11
-2516.08182831642
 21
2303.999683277021
 31
0.0
  0
LINE
  5
243
330
1F
100
AcDbEntity
  8
0-2_柱
  6
Continuous
 62
    92
370
    13
100
AcDbLine
 10
-2246.08182831642
 20
2573.999683277015
 30
0.0
 11
-2246.08182831642
 21
2303.999683277021
 31
0.0
  0
LINE
  5
244
330
1F
100
AcDbEntity
  8
0-2_柱
  6
Continuous
 62
    92
370
    13
100
AcDbLine
 10
-2516.08182831642
 20
2573.999683277028
 30
0.0
 11
-2516.08182831642
 21
2303.999683277021
 31
0.0
  0
LINE
  5
245
330
1F
100
AcDbEntity
  8
0-2_柱
  6
Continuous
 62
    92
370
    13
100
AcDbLine
 10
2535.918171683582
 20
2573.999683277028
 30
0.0
 11
2535.918171683582
 21
2303.999683277021
 31
0.0
  0
LINE
  5
246
330
1F
100
AcDbEntity
  8
0-2_柱
  6
Continuous
 62
    92
370
    13
100
AcDbLine
 10
2265.918171683581
 20
2573.999683277015
 30
0.0
 11
2265.918171683581
 21
2303.999683277021
 31
0.0
  0
LINE
  5
247
330
1F
100
AcDbEntity
  8
0-2_柱
  6
Continuous
 62
     7
370
     9
100
AcDbLine
 10
2535.918171683581
 20
2573.999683277027
 30
0.0
 11
2265.918171683581
 21
2303.999683277031
 31
0.0
  0
LINE
  5
248
330
1F
100
AcDbEntity
  8
0-2_柱
  6
Continuous
 62
    92
370
    13
100
AcDbLine
 10
-2316.856867199984
 20
-291.0001979518562
 30
0.0
 11
-2046.856867199997
 21
-291.0001979518562
 31
0.0
  0
LINE
  5
249
330
1F
100
AcDbEntity
  8
0-2_柱
  6
Continuous
 62
    92
370
    13
100
AcDbLine
 10
-2316.856867199997
 20
-21.00019795185574
 30
0.0
 11
-2046.856867199997
 21
-21.00019795185574
 31
0.0
  0
LINE
  5
24A
330
1F
100
AcDbEntity
  8
0-2_柱
  6
Continuous
 62
     7
370
     9
100
AcDbLine
 10
-2316.856867199984
 20
-287.5666897272231
 30
0.0
 11
-2046.856867199997
 21
-21.00019795185574
 31
0.0
  0
INSERT
  5
24B
330
1F
100
AcDbEntity
  8
0-7_金物
  6
Continuous
 62
     7
370
     9
100
AcDbBlockReference
  2
2@@SfigorgFlag@@4
 10
-2241.388182608429
 20
-483.9262760268672
 30
0.0
 41
30.0
 42
30.0
 50
90.0
  0
LINE
  5
24C
330
1F
100
AcDbEntity
  8
0-A_文字
  6
Continuous
 62
    92
370
    13
100
AcDbLine
 10
-5659.999495325861
 20
4000.000181455871
 30
0.0
 11
-1875.714790388424
 21
4000.000181455871
 31
0.0
  0
LINE
  5
24D
330
1F
100
AcDbEntity
  8
0-A_文字
  6
Continuous
 62
    92
370
    13
100
AcDbLine
 10
-5659.999495325861
 20
3730.000181455871
 30
0.0
 11
-1875.714790388424
 21
3730.000181455871
 31
0.0
  0
LINE
  5
24E
330
1F
100
AcDbEntity
  8
0-A_文字
  6
Continuous
 62
    92
370
    13
100
AcDbLine
 10
-1875.714790388424
 20
4000.000181455871
 30
0.0
 11
-1875.714790388424
 21
3730.000181455871
 31
0.0
  0
LINE
  5
24F
330
1F
100
AcDbEntity
  8
F-0_補助線
  6
JWW_HOJO
 62
   120
370
     5
100
AcDbLine
 10
-2025.714790388424
 20
4000.000181455871
 30
0.0
 11
-2025.714790388424
 21
3730.000181455871
 31
0.0
  0
MTEXT
  5
250
330
1F
100
AcDbEntity
  8
0-A_文字
  6
Continuous
 62
    92
370
    13
100
AcDbMText
 10
-5512.678571428572
 20
3758.977681455871
 30
0.0
 40
147.955
 41
3495.0
 46
0.0
 71
     7
 72
     1
  1
{\fＭＳ ゴシック|b0|i0|c128|p49;親子ドア　固定枠90巾　床直付けレール}
 73
     1
 44
1.0
  0
MTEXT
  5
251
330
1F
100
AcDbEntity
  8
0-B_寸法
  6
Continuous
 62
     7
370
   211
100
AcDbMText
 10
-946.713734374701
 20
-3306.585723592368
 30
0.0
 40
91.44
 41
120.0
 46
0.0
 71
     7
 72
     1
  1
{\fＭＳ ゴシック|b0|i0|c128|p49;12}
 11
6.123031769111886E-17
 21
1.0
 31
0.0
 73
     1
 44
1.0
  0
LINE
  5
252
330
1F
100
AcDbEntity
  8
F-0_補助線
  6
JWW_HOJO
 62
   120
370
     5
100
AcDbLine
 10
-5509.999495325861
 20
4000.000181455871
 30
0.0
 11
-5509.999495325861
 21
3730.000181455871
 31
0.0
  0
LINE
  5
253
330
1F
100
AcDbEntity
  8
F-0_補助線
  6
JWW_HOJO
 62
   120
370
     5
100
AcDbLine
 10
1719.918171683582
 20
-770.9999919582054
 30
0.0
 11
219.9181716835818
 21
-770.9999919582054
 31
0.0
  0
LINE
  5
254
330
1F
100
AcDbEntity
  8
F-0_補助線
  6
JWW_HOJO
 62
   120
370
     5
100
AcDbLine
 10
1719.918171683582
 20
-1710.041548837791
 30
0.0
 11
219.9181716835818
 21
-1710.041548837791
 31
0.0
  0
LINE
  5
255
330
1F
100
AcDbEntity
  8
0-4_枠
  6
Continuous
 62
   120
370
     5
100
AcDbLine
 10
699.9181716835818
 20
-770.9999919582054
 30
0.0
 11
1239.918171683582
 21
-770.9999919582054
 31
0.0
  0
LWPOLYLINE
  5
256
330
1F
100
AcDbEntity
  8
0-4_枠
  6
Continuous
 62
     7
370
     9
100
AcDbPolyline
 90
        4
 70
     1
 43
3.0
 10
701.4181716835818
 20
-770.9999919582054
 42
0.4142135623731
 10
699.9181716835818
 20
-769.4999919582054
 42
0.4142135623731
 10
698.4181716835818
 20
-770.9999919582054
 42
0.4142135623731
 10
699.9181716835818
 20
-772.4999919582054
 42
0.4142135623731
  0
LWPOLYLINE
  5
257
330
1F
100
AcDbEntity
  8
0-4_枠
  6
Continuous
 62
     7
370
     9
100
AcDbPolyline
 90
        4
 70
     1
 43
3.0
 10
1241.418171683582
 20
-770.9999919582054
 42
0.4142135623731
 10
1239.918171683582
 20
-769.4999919582054
 42
0.4142135623731
 10
1238.418171683582
 20
-770.9999919582054
 42
0.4142135623731
 10
1239.918171683582
 20
-772.4999919582054
 42
0.4142135623731
  0
LINE
  5
258
330
1F
100
AcDbEntity
  8
0-4_枠
  6
Continuous
 62
   120
370
     5
100
AcDbLine
 10
699.9181716835818
 20
-770.9999919582054
 30
0.0
 11
699.9181716835818
 21
-922.561797453351
 31
0.0
  0
LINE
  5
259
330
1F
100
AcDbEntity
  8
0-4_枠
  6
Continuous
 62
   120
370
     5
100
AcDbLine
 10
1239.918171683582
 20
-770.9999919582054
 30
0.0
 11
1239.918171683582
 21
-922.561797453351
 31
0.0
  0
MTEXT
  5
25A
330
1F
100
AcDbEntity
  8
0-4_枠
  6
Continuous
 62
     7
370
   211
100
AcDbMText
 10
906.1681716835818
 20
-767.4224919582055
 30
0.0
 40
97.15499999999999
 41
127.5
 46
0.0
 71
     7
 72
     1
  1
{\fＭＳ ゴシック|b0|i0|c128|p49;90}
 73
     1
 44
1.0
  0
LINE
  5
25B
330
1F
100
AcDbEntity
  8
0-4_枠
  6
Continuous
 62
    92
370
    13
100
AcDbLine
 10
1239.918171683582
 20
-1710.041548837791
 30
0.0
 11
699.9181716835818
 21
-1710.041548837791
 31
0.0
  0
LINE
  5
25C
330
1F
100
AcDbEntity
  8
0-4_枠
  6
Continuous
 62
    92
370
    13
100
AcDbLine
 10
1239.918171683582
 20
-982.561797453351
 30
0.0
 11
1239.918171683582
 21
-1710.041548837791
 31
0.0
  0
LINE
  5
25D
330
1F
100
AcDbEntity
  8
0-4_枠
  6
Continuous
 62
    92
370
    13
100
AcDbLine
 10
699.9181716835818
 20
-982.561797453351
 30
0.0
 11
699.9181716835818
 21
-1710.041548837791
 31
0.0
  0
MTEXT
  5
25E
330
1F
100
AcDbEntity
  8
0-A_文字
  6
Continuous
 62
     7
370
     0
100
AcDbMText
 10
-2800.365176839774
 20
-3530.514545454545
 30
0.0
 40
78.97090909090909
 41
1140.0
 46
0.0
 71
     7
 72
     1
  1
{\fＭＳ ゴシック|b0|i0|c128|p49;※(　)内寸法はハイドア}
 73
     1
 44
1.0
  0
MTEXT
  5
25F
330
1F
100
AcDbEntity
  8
F-A_文字
  6
Continuous
 62
     7
370
     0
100
AcDbMText
 10
-5087.628710189611
 20
-4045.074311078391
 30
0.0
 40
79.85124999999998
 41
3772.5
 46
0.0
 71
     7
 72
     1
  1
{\fＭＳ ゴシック|b0|i0|c128|p49;ドレタス　親子ドア　固定枠90巾　通気　床直付けレール(アルミ)　枠外W1,189}
 73
     1
 44
1.0
  0
LINE
  5
260
330
1F
100
AcDbEntity
  8
F-0_補助線
  6
JWW_HOJO
 62
     7
370
     9
100
AcDbLine
 10
1109.918584083287
 20
-3795.000003092998
 30
0.0
 11
1109.918584083287
 21
-4195.000008247994
 31
0.0
  0
LINE
  5
261
330
1F
100
AcDbEntity
  8
F-0_補助線
  6
JWW_HOJO
 62
     7
370
     9
100
AcDbLine
 10
4889.917891251784
 20
-3795.000003092998
 30
0.0
 11
4889.917891251784
 21
-4195.000008247994
 31
0.0
  0
MTEXT
  5
262
330
1F
100
AcDbEntity
  8
F-0_補助線
  6
Continuous
 62
     7
370
     0
100
AcDbMText
 10
1109.918584083287
 20
-3945.948259655243
 30
0.0
 40
78.105
 41
615.0
 46
0.0
 71
     7
 72
     1
  1
{\fＭＳ ゴシック|b0|i0|c128|p49;建具納まり図}
 73
     1
 44
1.0
  0
MTEXT
  5
263
330
1F
100
AcDbEntity
  8
F-0_補助線
  6
Continuous
 62
     7
370
     0
100
AcDbMText
 10
509.9185840832865
 20
-3945.709576962234
 30
0.0
 40
78.58125
 41
412.5
 46
0.0
 71
     7
 72
     1
  1
{\fＭＳ ゴシック|b0|i0|c128|p49;DOORETUS}
 73
     1
 44
1.0
  0
LINE
  5
264
330
1F
100
AcDbEntity
  8
0-1_通り芯
  6
JWW_CENTER1
 62
   120
370
     5
100
AcDbLine
 10
-2181.856867199997
 20
194.9998020481422
 30
0.0
 11
-2181.856867199997
 21
-3289.382548937943
 31
0.0
  0
LINE
  5
265
330
1F
100
AcDbEntity
  8
0-1_通り芯
  6
JWW_CENTER1
 62
   120
370
     5
100
AcDbLine
 10
-2049.856867199998
 20
-3087.000403945508
 30
0.0
 11
-2049.856867199998
 21
-483.0001979518568
 31
0.0
  0
MTEXT
  5
266
330
1F
100
AcDbEntity
  8
0-B_寸法
  6
Continuous
 62
     7
370
   211
100
AcDbMText
 10
-1601.336759137814
 20
2363.827183277013
 30
0.0
 40
97.15499999999999
 41
127.5
 46
0.0
 71
     7
 72
     1
  1
{\fＭＳ ゴシック|b0|i0|c128|p49;90}
 11
6.123031769111886E-17
 21
1.0
 31
0.0
 73
     1
 44
1.0
  0
MTEXT
  5
267
330
1F
100
AcDbEntity
  8
0-B_寸法
  6
Continuous
 62
     7
370
   211
100
AcDbMText
 10
-1412.02246754354
 20
2232.719683277012
 30
0.0
 40
91.44
 41
120.0
 46
0.0
 71
     7
 72
     1
  1
{\fＭＳ ゴシック|b0|i0|c128|p49;36}
 11
6.123031769111886E-17
 21
1.0
 31
0.0
 73
     1
 44
1.0
  0
LINE
  5
268
330
1F
100
AcDbEntity
  8
0-C_ハッチ
  6
Continuous
 62
   120
370
     5
100
AcDbLine
 10
-2195.081828316421
 20
2678.822789336533
 30
0.0
 11
-2102.258473181695
 21
2585.999683277015
 31
0.0
  0
LINE
  5
269
330
1F
100
AcDbEntity
  8
0-4_枠
  6
Continuous
 62
    92
370
    13
100
AcDbLine
 10
-2054.081828316421
 20
2185.970246025491
 30
0.0
 11
-2054.081828316421
 21
2429.999683277016
 31
0.0
  0
LINE
  5
26A
330
1F
100
AcDbEntity
  8
0-4_枠
  6
Continuous
 62
    92
370
    13
100
AcDbLine
 10
-2057.08139344093
 20
2187.213321588102
 30
0.0
 11
-2057.08139344093
 21
2429.999683277016
 31
0.0
  0
LINE
  5
26B
330
1F
100
AcDbEntity
  8
0-C_ハッチ
  6
Continuous
 62
   120
370
     5
100
AcDbLine
 10
-2198.081828316419
 20
2546.054831881377
 30
0.0
 11
-2104.224632385339
 21
2452.199683277016
 31
0.0
  0
LINE
  5
26C
330
1F
100
AcDbEntity
  8
0-C_ハッチ
  6
Continuous
 62
   120
370
     5
100
AcDbLine
 10
-2198.081828316419
 20
2613.940602104371
 30
0.0
 11
-2057.081393440932
 21
2472.941182253063
 31
0.0
  0
LINE
  5
26D
330
1F
100
AcDbEntity
  8
0-4_枠
  6
Continuous
 62
    92
370
    13
100
AcDbLine
 10
-2054.081828316421
 20
2692.029120528537
 30
0.0
 11
-2054.081828316421
 21
2585.999683277015
 31
0.0
  0
LINE
  5
26E
330
1F
100
AcDbEntity
  8
0-4_枠
  6
Continuous
 62
    92
370
    13
100
AcDbLine
 10
-2057.08139344093
 20
2690.786044965927
 30
0.0
 11
-2057.08139344093
 21
2585.999683277015
 31
0.0
  0
LINE
  5
26F
330
1F
100
AcDbEntity
  8
0-4_枠
  6
Continuous
 62
    92
370
    13
100
AcDbLine
 10
-2072.294871534733
 20
2171.999843494299
 30
0.0
 11
-2195.081828316421
 21
2171.999843494299
 31
0.0
  0
LINE
  5
270
330
1F
100
AcDbEntity
  8
0-4_枠
  6
Continuous
 62
    92
370
    13
100
AcDbLine
 10
-2057.08139344093
 20
2187.213321588102
 30
0.0
 11
-2072.294871534733
 21
2171.999843494299
 31
0.0
  0
LINE
  5
271
330
1F
100
AcDbEntity
  8
0-4_枠
  6
Continuous
 62
    92
370
    13
100
AcDbLine
 10
-2072.295466627506
 20
2706.000118152502
 30
0.0
 11
-2057.08139344093
 21
2690.786044965927
 31
0.0
  0
LINE
  5
272
330
1F
100
AcDbEntity
  8
0-4_枠
  6
Continuous
 62
    92
370
    13
100
AcDbLine
 10
-2072.295466627506
 20
2706.000118152502
 30
0.0
 11
-2195.081828316421
 21
2706.000118152502
 31
0.0
  0
LINE
  5
273
330
1F
100
AcDbEntity
  8
0-4_枠
  6
Continuous
 62
    92
370
    13
100
AcDbLine
 10
-2054.081828316421
 20
2185.970246025491
 30
0.0
 11
-2071.052391064897
 21
2168.999683277014
 31
0.0
  0
LINE
  5
274
330
1F
100
AcDbEntity
  8
0-4_枠
  6
Continuous
 62
    92
370
    13
100
AcDbLine
 10
-2071.052391064897
 20
2168.999683277014
 30
0.0
 11
-2198.081828316419
 21
2168.999683277014
 31
0.0
  0
LINE
  5
275
330
1F
100
AcDbEntity
  8
0-4_枠
  6
Continuous
 62
    92
370
    13
100
AcDbLine
 10
-2071.052391064897
 20
2708.999683277014
 30
0.0
 11
-2054.081828316421
 21
2692.029120528537
 31
0.0
  0
LINE
  5
276
330
1F
100
AcDbEntity
  8
0-4_枠
  6
Continuous
 62
    92
370
    13
100
AcDbLine
 10
-2071.052391064897
 20
2708.999683277014
 30
0.0
 11
-2198.081828316419
 21
2708.999683277014
 31
0.0
  0
LINE
  5
277
330
1F
100
AcDbEntity
  8
0-4_枠
  6
Continuous
 62
    92
370
    13
100
AcDbLine
 10
-2198.081828316419
 20
2708.999683277014
 30
0.0
 11
-2198.081828316419
 21
2168.999683277014
 31
0.0
  0
LINE
  5
278
330
1F
100
AcDbEntity
  8
0-4_枠
  6
Continuous
 62
    92
370
    13
100
AcDbLine
 10
-2195.081828316421
 20
2258.999683277014
 30
0.0
 11
-2195.081828316421
 21
2171.999843494299
 31
0.0
  0
LINE
  5
279
330
1F
100
AcDbEntity
  8
0-C_ハッチ
  6
Continuous
 62
   120
370
     5
100
AcDbLine
 10
-2195.081828316421
 20
2203.647344538857
 30
0.0
 11
-2163.434290424455
 21
2171.999843494299
 31
0.0
  0
LINE
  5
27A
330
1F
100
AcDbEntity
  8
0-4_枠
  6
Continuous
 62
    92
370
    13
100
AcDbLine
 10
-2195.081828316421
 20
2618.999683277014
 30
0.0
 11
-2195.081828316421
 21
2706.000118152502
 31
0.0
  0
LINE
  5
27B
330
1F
100
AcDbEntity
  8
0-4_枠
  6
Continuous
 62
    92
370
    13
100
AcDbLine
 10
-2195.081828316421
 20
2258.999683277014
 30
0.0
 11
-2198.081828316419
 21
2258.999683277014
 31
0.0
  0
LINE
  5
27C
330
1F
100
AcDbEntity
  8
0-4_枠
  6
Continuous
 62
    92
370
    13
100
AcDbLine
 10
-2195.081828316421
 20
2618.999683277014
 30
0.0
 11
-2198.081828316419
 21
2618.999683277014
 31
0.0
  0
LINE
  5
27D
330
1F
100
AcDbEntity
  8
0-C_ハッチ
  6
Continuous
 62
   120
370
     5
100
AcDbLine
 10
-2086.494321292505
 20
2706.000118152502
 30
0.0
 11
-2057.08139344093
 21
2676.587226950267
 31
0.0
  0
LINE
  5
27E
330
1F
100
AcDbEntity
  8
0-C_ハッチ
  6
Continuous
 62
   120
370
     5
100
AcDbLine
 10
-2198.081828316419
 20
2274.529496873613
 30
0.0
 11
-2095.552055561103
 21
2171.999843494299
 31
0.0
  0
LINE
  5
27F
330
1F
100
AcDbEntity
  8
0-C_ハッチ
  6
Continuous
 62
   120
370
     5
100
AcDbLine
 10
-2154.376758301858
 20
2706.000118152502
 30
0.0
 11
-2057.08139344093
 21
2608.704874524336
 31
0.0
  0
LINE
  5
280
330
1F
100
AcDbEntity
  8
0-C_ハッチ
  6
Continuous
 62
   120
370
     5
100
AcDbLine
 10
-2198.081828316419
 20
2478.17568211963
 30
0.0
 11
-2057.08139344093
 21
2337.175693828564
 31
0.0
  0
LINE
  5
281
330
1F
100
AcDbEntity
  8
0-C_ハッチ
  6
Continuous
 62
   120
370
     5
100
AcDbLine
 10
-2198.081828316419
 20
2410.293526291956
 30
0.0
 11
-2057.08139344093
 21
2269.293312693907
 31
0.0
  0
LINE
  5
282
330
1F
100
AcDbEntity
  8
0-C_ハッチ
  6
Continuous
 62
   120
370
     5
100
AcDbLine
 10
-2198.081828316419
 20
2342.411652701287
 30
0.0
 11
-2057.08139344093
 21
2201.41138199341
 31
0.0
  0
LINE
  5
283
330
1F
100
AcDbEntity
  8
0-C_ハッチ
  6
Continuous
 62
   120
370
     5
100
AcDbLine
 10
2214.918171683585
 20
2678.822789336531
 30
0.0
 11
2122.094816548859
 21
2585.999683277015
 31
0.0
  0
LINE
  5
284
330
1F
100
AcDbEntity
  8
0-C_ハッチ
  6
Continuous
 62
   120
370
     5
100
AcDbLine
 10
2099.894756978889
 20
2563.799683277014
 30
0.0
 11
2076.917736808096
 21
2540.822724761028
 31
0.0
  0
LINE
  5
285
330
1F
100
AcDbEntity
  8
0-4_枠
  6
Continuous
 62
    92
370
    13
100
AcDbLine
 10
2073.918171683585
 20
2185.970246025491
 30
0.0
 11
2073.918171683585
 21
2429.999683277016
 31
0.0
  0
LINE
  5
286
330
1F
100
AcDbEntity
  8
0-4_枠
  6
Continuous
 62
    92
370
    13
100
AcDbLine
 10
2076.917736808095
 20
2187.2133215881
 30
0.0
 11
2076.917736808095
 21
2429.999683277016
 31
0.0
  0
LINE
  5
287
330
1F
100
AcDbEntity
  8
0-C_ハッチ
  6
Continuous
 62
   120
370
     5
100
AcDbLine
 10
2101.860491488682
 20
2429.999683277016
 30
0.0
 11
2076.917736808095
 21
2405.057472677971
 31
0.0
  0
LINE
  5
288
330
1F
100
AcDbEntity
  8
0-C_ハッチ
  6
Continuous
 62
   120
370
     5
100
AcDbLine
 10
2217.918171683582
 20
2546.054831881377
 30
0.0
 11
2124.060975752504
 21
2452.199683277016
 31
0.0
  0
LINE
  5
289
330
1F
100
AcDbEntity
  8
0-C_ハッチ
  6
Continuous
 62
   120
370
     5
100
AcDbLine
 10
2217.918171683582
 20
2613.940602104371
 30
0.0
 11
2076.917736808096
 21
2472.941182253063
 31
0.0
  0
LINE
  5
28A
330
1F
100
AcDbEntity
  8
0-4_枠
  6
Continuous
 62
    92
370
    13
100
AcDbLine
 10
2073.918171683585
 20
2692.029120528535
 30
0.0
 11
2073.918171683585
 21
2585.999683277015
 31
0.0
  0
LINE
  5
28B
330
1F
100
AcDbEntity
  8
0-4_枠
  6
Continuous
 62
    92
370
    13
100
AcDbLine
 10
2076.917736808095
 20
2690.786044965927
 30
0.0
 11
2076.917736808095
 21
2585.999683277015
 31
0.0
  0
LINE
  5
28C
330
1F
100
AcDbEntity
  8
0-4_枠
  6
Continuous
 62
    92
370
    13
100
AcDbLine
 10
2073.918171683585
 20
2452.199683277015
 30
0.0
 11
2073.918171683585
 21
2563.799683277014
 31
0.0
  0
LINE
  5
28D
330
1F
100
AcDbEntity
  8
0-4_枠
  6
Continuous
 62
    92
370
    13
100
AcDbLine
 10
2076.917736808096
 20
2452.199683277015
 30
0.0
 11
2076.917736808096
 21
2563.799683277014
 31
0.0
  0
LINE
  5
28E
330
1F
100
AcDbEntity
  8
0-4_枠
  6
Continuous
 62
    92
370
    13
100
AcDbLine
 10
2124.918171683585
 20
2429.999683277015
 30
0.0
 11
2124.918171683585
 21
2452.199683277016
 31
0.0
  0
LINE
  5
28F
330
1F
100
AcDbEntity
  8
0-4_枠
  6
Continuous
 62
    92
370
    13
100
AcDbLine
 10
2124.918171683585
 20
2563.799683277014
 30
0.0
 11
2124.918171683585
 21
2585.999683277015
 31
0.0
  0
LINE
  5
290
330
1F
100
AcDbEntity
  8
0-4_枠
  6
Continuous
 62
    92
370
    13
100
AcDbLine
 10
2073.918171683585
 20
2563.799683277014
 30
0.0
 11
2124.918171683585
 21
2563.799683277014
 31
0.0
  0
LINE
  5
291
330
1F
100
AcDbEntity
  8
0-4_枠
  6
Continuous
 62
    92
370
    13
100
AcDbLine
 10
2073.918171683585
 20
2452.199683277016
 30
0.0
 11
2124.918171683585
 21
2452.199683277016
 31
0.0
  0
LINE
  5
292
330
1F
100
AcDbEntity
  8
0-4_枠
  6
Continuous
 62
    92
370
    13
100
AcDbLine
 10
2073.918171683585
 20
2429.999683277016
 30
0.0
 11
2124.918171683585
 21
2429.999683277016
 31
0.0
  0
LINE
  5
293
330
1F
100
AcDbEntity
  8
0-4_枠
  6
Continuous
 62
    92
370
    13
100
AcDbLine
 10
2092.131214901897
 20
2171.999843494298
 30
0.0
 11
2214.918171683585
 21
2171.999843494298
 31
0.0
  0
LINE
  5
294
330
1F
100
AcDbEntity
  8
0-4_枠
  6
Continuous
 62
    92
370
    13
100
AcDbLine
 10
2076.917736808095
 20
2187.2133215881
 30
0.0
 11
2092.131214901897
 21
2171.999843494298
 31
0.0
  0
LINE
  5
295
330
1F
100
AcDbEntity
  8
0-4_枠
  6
Continuous
 62
    92
370
    13
100
AcDbLine
 10
2092.131809994671
 20
2706.000118152502
 30
0.0
 11
2076.917736808095
 21
2690.786044965927
 31
0.0
  0
LINE
  5
296
330
1F
100
AcDbEntity
  8
0-4_枠
  6
Continuous
 62
    92
370
    13
100
AcDbLine
 10
2092.131809994671
 20
2706.000118152502
 30
0.0
 11
2214.918171683585
 21
2706.000118152502
 31
0.0
  0
LINE
  5
297
330
1F
100
AcDbEntity
  8
0-4_枠
  6
Continuous
 62
    92
370
    13
100
AcDbLine
 10
2073.918171683585
 20
2185.970246025491
 30
0.0
 11
2090.888734432062
 21
2168.999683277014
 31
0.0
  0
LINE
  5
298
330
1F
100
AcDbEntity
  8
0-4_枠
  6
Continuous
 62
    92
370
    13
100
AcDbLine
 10
2090.888734432062
 20
2168.999683277014
 30
0.0
 11
2217.918171683582
 21
2168.999683277014
 31
0.0
  0
LINE
  5
299
330
1F
100
AcDbEntity
  8
0-4_枠
  6
Continuous
 62
    92
370
    13
100
AcDbLine
 10
2090.888734432062
 20
2708.999683277014
 30
0.0
 11
2073.918171683585
 21
2692.029120528535
 31
0.0
  0
LINE
  5
29A
330
1F
100
AcDbEntity
  8
0-4_枠
  6
Continuous
 62
    92
370
    13
100
AcDbLine
 10
2090.888734432062
 20
2708.999683277014
 30
0.0
 11
2217.918171683582
 21
2708.999683277014
 31
0.0
  0
LINE
  5
29B
330
1F
100
AcDbEntity
  8
0-4_枠
  6
Continuous
 62
    92
370
    13
100
AcDbLine
 10
2217.918171683582
 20
2708.999683277014
 30
0.0
 11
2217.918171683582
 21
2168.999683277014
 31
0.0
  0
LINE
  5
29C
330
1F
100
AcDbEntity
  8
0-4_枠
  6
Continuous
 62
    92
370
    13
100
AcDbLine
 10
2214.918171683585
 20
2258.999683277014
 30
0.0
 11
2214.918171683585
 21
2171.999843494298
 31
0.0
  0
LINE
  5
29D
330
1F
100
AcDbEntity
  8
0-C_ハッチ
  6
Continuous
 62
   120
370
     5
100
AcDbLine
 10
2214.918171683585
 20
2203.647344538855
 30
0.0
 11
2183.270633791619
 21
2171.999843494298
 31
0.0
  0
LINE
  5
29E
330
1F
100
AcDbEntity
  8
0-4_枠
  6
Continuous
 62
    92
370
    13
100
AcDbLine
 10
2214.918171683585
 20
2618.999683277014
 30
0.0
 11
2214.918171683585
 21
2706.000118152502
 31
0.0
  0
LINE
  5
29F
330
1F
100
AcDbEntity
  8
0-4_枠
  6
Continuous
 62
    92
370
    13
100
AcDbLine
 10
2214.918171683585
 20
2258.999683277014
 30
0.0
 11
2217.918171683582
 21
2258.999683277014
 31
0.0
  0
LINE
  5
2A0
330
1F
100
AcDbEntity
  8
0-4_枠
  6
Continuous
 62
    92
370
    13
100
AcDbLine
 10
2214.918171683585
 20
2618.999683277014
 30
0.0
 11
2217.918171683582
 21
2618.999683277014
 31
0.0
  0
LINE
  5
2A1
330
1F
100
AcDbEntity
  8
0-C_ハッチ
  6
Continuous
 62
   120
370
     5
100
AcDbLine
 10
2106.330664659669
 20
2706.000118152502
 30
0.0
 11
2076.917736808095
 21
2676.587226950267
 31
0.0
  0
LINE
  5
2A2
330
1F
100
AcDbEntity
  8
0-C_ハッチ
  6
Continuous
 62
   120
370
     5
100
AcDbLine
 10
2217.918171683582
 20
2274.529496873613
 30
0.0
 11
2115.388398928268
 21
2171.999843494298
 31
0.0
  0
LINE
  5
2A3
330
1F
100
AcDbEntity
  8
0-C_ハッチ
  6
Continuous
 62
   120
370
     5
100
AcDbLine
 10
2174.213101669022
 20
2706.000118152502
 30
0.0
 11
2076.917736808095
 21
2608.704874524334
 31
0.0
  0
LINE
  5
2A4
330
1F
100
AcDbEntity
  8
0-C_ハッチ
  6
Continuous
 62
   120
370
     5
100
AcDbLine
 10
2217.918171683582
 20
2478.17568211963
 30
0.0
 11
2076.917736808095
 21
2337.175693828564
 31
0.0
  0
LINE
  5
2A5
330
1F
100
AcDbEntity
  8
0-C_ハッチ
  6
Continuous
 62
   120
370
     5
100
AcDbLine
 10
2217.918171683582
 20
2410.293526291956
 30
0.0
 11
2076.917736808095
 21
2269.293312693907
 31
0.0
  0
LINE
  5
2A6
330
1F
100
AcDbEntity
  8
0-C_ハッチ
  6
Continuous
 62
   120
370
     5
100
AcDbLine
 10
2217.918171683582
 20
2342.411652701287
 30
0.0
 11
2076.917736808095
 21
2201.41138199341
 31
0.0
  0
LINE
  5
2A7
330
1F
100
AcDbEntity
  8
0-4_枠
  6
Continuous
 62
    92
370
    13
100
AcDbLine
 10
2124.918171683585
 20
2585.999683277015
 30
0.0
 11
2073.918171683585
 21
2585.999683277015
 31
0.0
  0
LINE
  5
2A8
330
1F
100
AcDbEntity
  8
0-6_扉
  6
Continuous
 62
   200
370
    20
100
AcDbLine
 10
2061.918171683582
 20
2414.999683277014
 30
0.0
 11
2061.918171683582
 21
2198.999683277014
 31
0.0
  0
LINE
  5
2A9
330
1F
100
AcDbEntity
  8
0-B_寸法
  6
Continuous
 62
   120
370
     5
100
AcDbLine
 10
-1595.336759137815
 20
2168.999683277014
 30
0.0
 11
-1595.336759137815
 21
2708.999683277014
 31
0.0
  0
LWPOLYLINE
  5
2AA
330
1F
100
AcDbEntity
  8
0-B_寸法
  6
Continuous
 62
     7
370
     9
100
AcDbPolyline
 90
        4
 70
     1
 43
3.0
 10
-1593.836759137815
 20
2168.999683277014
 42
0.4142135623731
 10
-1595.336759137815
 20
2170.499683277014
 42
0.4142135623731
 10
-1596.836759137815
 20
2168.999683277014
 42
0.4142135623731
 10
-1595.336759137815
 20
2167.499683277014
 42
0.4142135623731
  0
LWPOLYLINE
  5
2AB
330
1F
100
AcDbEntity
  8
0-B_寸法
  6
Continuous
 62
     7
370
     9
100
AcDbPolyline
 90
        4
 70
     1
 43
3.0
 10
-1593.836759137815
 20
2708.999683277014
 42
0.4142135623731
 10
-1595.336759137815
 20
2710.499683277014
 42
0.4142135623731
 10
-1596.836759137815
 20
2708.999683277014
 42
0.4142135623731
 10
-1595.336759137815
 20
2707.499683277014
 42
0.4142135623731
  0
LINE
  5
2AC
330
1F
100
AcDbEntity
  8
0-B_寸法
  6
Continuous
 62
   120
370
     5
100
AcDbLine
 10
-1595.336759137815
 20
2168.999683277014
 30
0.0
 11
-1926.69177423151
 21
2168.999683277014
 31
0.0
  0
LINE
  5
2AD
330
1F
100
AcDbEntity
  8
0-B_寸法
  6
Continuous
 62
   120
370
     5
100
AcDbLine
 10
-1595.336759137815
 20
2708.999683277014
 30
0.0
 11
-1926.69177423151
 21
2708.999683277014
 31
0.0
  0
LINE
  5
2AE
330
1F
100
AcDbEntity
  8
0-6_扉
  6
Continuous
 62
   200
370
    20
100
AcDbLine
 10
-536.3034642003241
 20
2198.999683277014
 30
0.0
 11
702.8073537416292
 21
2198.999683277014
 31
0.0
  0
LINE
  5
2AF
330
1F
100
AcDbEntity
  8
0-6_扉
  6
Continuous
 62
   200
370
    20
100
AcDbLine
 10
-560.3034642003228
 20
2198.999683277013
 30
0.0
 11
-560.3034642003228
 21
2414.999683277014
 31
0.0
  0
LINE
  5
2B0
330
1F
100
AcDbEntity
  8
0-6_扉
  6
Continuous
 62
   200
370
    20
100
AcDbLine
 10
-536.3034642003241
 20
2198.999683277013
 30
0.0
 11
-536.3034642003241
 21
2414.999683277014
 31
0.0
  0
LINE
  5
2B1
330
1F
100
AcDbEntity
  8
0-6_扉
  6
Continuous
 62
   200
370
    20
100
AcDbLine
 10
-536.3034642003241
 20
2414.999683277014
 30
0.0
 11
702.8073537416292
 21
2414.999683277014
 31
0.0
  0
LINE
  5
2B2
330
1F
100
AcDbEntity
  8
0-B_寸法
  6
Continuous
 62
   120
370
     5
100
AcDbLine
 10
-1406.02246754354
 20
2414.999683277014
 30
0.0
 11
-1406.02246754354
 21
2198.999683277013
 31
0.0
  0
LWPOLYLINE
  5
2B3
330
1F
100
AcDbEntity
  8
0-B_寸法
  6
Continuous
 62
     7
370
     9
100
AcDbPolyline
 90
        4
 70
     1
 43
3.0
 10
-1404.52246754354
 20
2414.999683277014
 42
0.4142135623731
 10
-1406.02246754354
 20
2416.499683277014
 42
0.4142135623731
 10
-1407.52246754354
 20
2414.999683277014
 42
0.4142135623731
 10
-1406.02246754354
 20
2413.499683277014
 42
0.4142135623731
  0
LWPOLYLINE
  5
2B4
330
1F
100
AcDbEntity
  8
0-B_寸法
  6
Continuous
 62
     7
370
     9
100
AcDbPolyline
 90
        4
 70
     1
 43
3.0
 10
-1404.52246754354
 20
2198.999683277013
 42
0.4142135623731
 10
-1406.02246754354
 20
2200.499683277013
 42
0.4142135623731
 10
-1407.52246754354
 20
2198.999683277013
 42
0.4142135623731
 10
-1406.02246754354
 20
2197.499683277013
 42
0.4142135623731
  0
LINE
  5
2B5
330
1F
100
AcDbEntity
  8
0-1_通り芯
  6
JWW_CENTER1
 62
     7
370
     9
100
AcDbLine
 10
-758.5142169903033
 20
2306.999683277012
 30
0.0
 11
-507.8005259777261
 21
2306.999683277012
 31
0.0
  0
CIRCLE
  5
2B6
330
1F
100
AcDbEntity
  8
0-1_通り芯
  6
Continuous
 62
     7
370
     9
100
AcDbCircle
 10
-635.3034642003167
 20
2306.999683277012
 30
0.0
 40
42.00000000000001
  0
LINE
  5
2B7
330
1F
100
AcDbEntity
  8
0-1_通り芯
  6
JWW_CENTER1
 62
     7
370
     9
100
AcDbLine
 10
-635.3034642003167
 20
2455.77380459369
 30
0.0
 11
-635.3034642003167
 21
2160.37846567788
 31
0.0
  0
LINE
  5
2B8
330
1F
100
AcDbEntity
  8
0-6_扉
  6
Continuous
 62
   200
370
    20
100
AcDbLine
 10
822.8073537416292
 20
2198.999683277014
 30
0.0
 11
2061.918171683582
 21
2198.999683277014
 31
0.0
  0
LINE
  5
2B9
330
1F
100
AcDbEntity
  8
0-6_扉
  6
Continuous
 62
   200
370
    20
100
AcDbLine
 10
822.8073537416292
 20
2414.999683277014
 30
0.0
 11
2061.918171683582
 21
2414.999683277014
 31
0.0
  0
LINE
  5
2BA
330
1F
100
AcDbEntity
  8
0-C_ハッチ
  6
Continuous
 62
   120
370
     5
100
AcDbLine
 10
-2080.058413611726
 20
2563.799683277014
 30
0.0
 11
-2057.081393440933
 21
2540.822724761028
 31
0.0
  0
LINE
  5
2BB
330
1F
100
AcDbEntity
  8
0-C_ハッチ
  6
Continuous
 62
   120
370
     5
100
AcDbLine
 10
-2082.024148121518
 20
2429.999683277015
 30
0.0
 11
-2057.081393440931
 21
2405.05747267797
 31
0.0
  0
LINE
  5
2BC
330
1F
100
AcDbEntity
  8
0-4_枠
  6
Continuous
 62
    92
370
    13
100
AcDbLine
 10
-2054.081828316422
 20
2452.199683277015
 30
0.0
 11
-2054.081828316422
 21
2563.799683277014
 31
0.0
  0
LINE
  5
2BD
330
1F
100
AcDbEntity
  8
0-4_枠
  6
Continuous
 62
    92
370
    13
100
AcDbLine
 10
-2057.081393440933
 20
2452.199683277015
 30
0.0
 11
-2057.081393440933
 21
2563.799683277014
 31
0.0
  0
LINE
  5
2BE
330
1F
100
AcDbEntity
  8
0-4_枠
  6
Continuous
 62
    92
370
    13
100
AcDbLine
 10
-2105.081828316421
 20
2429.999683277015
 30
0.0
 11
-2105.081828316421
 21
2452.199683277015
 31
0.0
  0
LINE
  5
2BF
330
1F
100
AcDbEntity
  8
0-4_枠
  6
Continuous
 62
    92
370
    13
100
AcDbLine
 10
-2105.081828316421
 20
2563.799683277014
 30
0.0
 11
-2105.081828316421
 21
2585.999683277014
 31
0.0
  0
LINE
  5
2C0
330
1F
100
AcDbEntity
  8
0-4_枠
  6
Continuous
 62
    92
370
    13
100
AcDbLine
 10
-2054.081828316422
 20
2563.799683277014
 30
0.0
 11
-2105.081828316421
 21
2563.799683277014
 31
0.0
  0
LINE
  5
2C1
330
1F
100
AcDbEntity
  8
0-4_枠
  6
Continuous
 62
    92
370
    13
100
AcDbLine
 10
-2054.081828316422
 20
2452.199683277015
 30
0.0
 11
-2105.081828316421
 21
2452.199683277015
 31
0.0
  0
LINE
  5
2C2
330
1F
100
AcDbEntity
  8
0-4_枠
  6
Continuous
 62
    92
370
    13
100
AcDbLine
 10
-2054.081828316422
 20
2429.999683277015
 30
0.0
 11
-2105.081828316421
 21
2429.999683277015
 31
0.0
  0
LINE
  5
2C3
330
1F
100
AcDbEntity
  8
0-4_枠
  6
Continuous
 62
    92
370
    13
100
AcDbLine
 10
-2105.081828316421
 20
2585.999683277014
 30
0.0
 11
-2054.081828316422
 21
2585.999683277014
 31
0.0
  0
LINE
  5
2C4
330
1F
100
AcDbEntity
  8
0-6_扉
  6
Continuous
 62
   200
370
    20
100
AcDbLine
 10
-2042.081828316421
 20
2414.999683277014
 30
0.0
 11
-2042.081828316421
 21
2198.999683277014
 31
0.0
  0
LINE
  5
2C5
330
1F
100
AcDbEntity
  8
0-6_扉
  6
Continuous
 62
   200
370
    20
100
AcDbLine
 10
-2042.081828316421
 20
2198.999683277014
 30
0.0
 11
-560.3034642003228
 21
2198.999683277014
 31
0.0
  0
LINE
  5
2C6
330
1F
100
AcDbEntity
  8
0-6_扉
  6
Continuous
 62
   200
370
    20
100
AcDbLine
 10
-2042.081828316421
 20
2414.999683277014
 30
0.0
 11
-560.3034642003228
 21
2414.999683277014
 31
0.0
  0
INSERT
  5
2C7
330
1F
100
AcDbEntity
  8
0-7_金物
  6
Continuous
 62
     7
370
     9
100
AcDbBlockReference
  2
01@@SfigorgFlag@@4
 10
2073.040722446819
 20
2507.999683277013
 30
0.0
 41
-30.0
 42
30.0
 50
270.0
  0
CIRCLE
  5
2C8
330
1F
100
AcDbEntity
  8
0-7_金物
  6
Continuous
 62
     7
370
     9
100
AcDbCircle
 10
-2015.299703396685
 20
2151.777419682456
 30
0.0
 40
30.0
  0
CIRCLE
  5
2C9
330
1F
100
AcDbEntity
  8
0-7_金物
  6
Continuous
 62
     7
370
     9
100
AcDbCircle
 10
-2015.299703396685
 20
2151.777419682456
 30
0.0
 40
21.00000000000001
  0
CIRCLE
  5
2CA
330
1F
100
AcDbEntity
  8
0-7_金物
  6
Continuous
 62
     7
370
     9
100
AcDbCircle
 10
2052.149670819457
 20
2152.697696587203
 30
0.0
 40
21.00000000000001
  0
CIRCLE
  5
2CB
330
1F
100
AcDbEntity
  8
0-7_金物
  6
Continuous
 62
     7
370
     9
100
AcDbCircle
 10
2052.149670819457
 20
2152.697696587203
 30
0.0
 40
30.0
  0
INSERT
  5
2CC
330
1F
100
AcDbEntity
  8
0-7_金物
  6
Continuous
 62
     7
370
     9
100
AcDbBlockReference
  2
01@@SfigorgFlag@@4
 10
-2053.204379079656
 20
2507.999683277013
 30
0.0
 41
30.0
 42
30.0
 50
90.0
  0
LINE
  5
2CD
330
1F
100
AcDbEntity
  8
0-1_通り芯
  6
JWW_CENTER1
 62
   120
370
     5
100
AcDbLine
 10
-2054.081828316421
 20
2306.999683277014
 30
0.0
 11
2073.918171683585
 21
2306.999683277014
 31
0.0
  0
LINE
  5
2CE
330
1F
100
AcDbEntity
  8
0-B_寸法
  6
Continuous
 62
   120
370
     5
100
AcDbLine
 10
-1106.02246754354
 20
2306.999702453613
 30
0.0
 11
-1106.02246754354
 21
2438.999683277028
 31
0.0
  0
LWPOLYLINE
  5
2CF
330
1F
100
AcDbEntity
  8
0-B_寸法
  6
Continuous
 62
     7
370
     9
100
AcDbPolyline
 90
        4
 70
     1
 43
3.0
 10
-1104.52246754354
 20
2306.999702453613
 42
0.4142135623731
 10
-1106.02246754354
 20
2308.499702453613
 42
0.4142135623731
 10
-1107.52246754354
 20
2306.999702453613
 42
0.4142135623731
 10
-1106.02246754354
 20
2305.499702453613
 42
0.4142135623731
  0
LWPOLYLINE
  5
2D0
330
1F
100
AcDbEntity
  8
0-B_寸法
  6
Continuous
 62
     7
370
     9
100
AcDbPolyline
 90
        4
 70
     1
 43
3.0
 10
-1104.52246754354
 20
2438.999683277028
 42
0.4142135623731
 10
-1106.02246754354
 20
2440.499683277027
 42
0.4142135623731
 10
-1107.52246754354
 20
2438.999683277028
 42
0.4142135623731
 10
-1106.02246754354
 20
2437.499683277028
 42
0.4142135623731
  0
MTEXT
  5
2D1
330
1F
100
AcDbEntity
  8
0-B_寸法
  6
Continuous
 62
     7
370
   211
100
AcDbMText
 10
-1121.02246754354
 20
2294.96969286532
 30
0.0
 40
91.44
 41
120.0
 46
0.0
 71
     7
 72
     1
  1
{\fＭＳ ゴシック|b0|i0|c128|p49;22}
 11
6.123031769111886E-17
 21
1.0
 31
0.0
 73
     1
 44
1.0
  0
LINE
  5
2D2
330
1F
100
AcDbEntity
  8
0-B_寸法
  6
Continuous
 62
   120
370
     5
100
AcDbLine
 10
-2049.856867199998
 20
-1424.289094713697
 30
0.0
 11
-2181.856867199997
 21
-1424.289094713697
 31
0.0
  0
LWPOLYLINE
  5
2D3
330
1F
100
AcDbEntity
  8
0-B_寸法
  6
Continuous
 62
     7
370
     9
100
AcDbPolyline
 90
        4
 70
     1
 43
3.0
 10
-2048.356867199998
 20
-1424.289094713697
 42
0.4142135623731
 10
-2049.856867199998
 20
-1422.789094713697
 42
0.4142135623731
 10
-2051.356867199998
 20
-1424.289094713697
 42
0.4142135623731
 10
-2049.856867199998
 20
-1425.789094713697
 42
0.4142135623731
  0
LWPOLYLINE
  5
2D4
330
1F
100
AcDbEntity
  8
0-B_寸法
  6
Continuous
 62
     7
370
     9
100
AcDbPolyline
 90
        4
 70
     1
 43
3.0
 10
-2180.356867199997
 20
-1424.289094713697
 42
0.4142135623731
 10
-2181.856867199997
 20
-1422.789094713697
 42
0.4142135623731
 10
-2183.356867199997
 20
-1424.289094713697
 42
0.4142135623731
 10
-2181.856867199997
 20
-1425.789094713697
 42
0.4142135623731
  0
MTEXT
  5
2D5
330
1F
100
AcDbEntity
  8
0-B_寸法
  6
Continuous
 62
     7
370
   211
100
AcDbMText
 10
-2179.606867199998
 20
-1423.569094713697
 30
0.0
 40
91.44
 41
120.0
 46
0.0
 71
     7
 72
     1
  1
{\fＭＳ ゴシック|b0|i0|c128|p49;22}
 73
     1
 44
1.0
  0
MTEXT
  5
2D6
330
1F
100
AcDbEntity
  8
F-A_文字
  6
Continuous
 62
     7
370
     0
100
AcDbMText
 10
4889.917891251784
 20
-3945.570773120549
 30
0.0
 40
78.86699999999999
 41
517.5
 46
0.0
 71
     7
 72
     1
  1
{\fＭＳ ゴシック|b0|i0|c128|p49;2022.04.01}
 73
     1
 44
1.0
  0
ENDSEC
  0
SECTION
  2
OBJECTS
  0
DICTIONARY
  5
C
330
0
100
AcDbDictionary
281
     1
  3
ACAD_GROUP
350
D
  3
ACAD_LAYOUT
350
1A
  3
ACAD_MATERIAL
350
3B
  3
ACAD_MLEADERSTYLE
350
35E
  3
ACAD_MLINESTYLE
350
17
  3
ACAD_PLOTSETTINGS
350
19
  3
ACAD_PLOTSTYLENAME
350
E
  3
ACAD_TABLESTYLE
350
35D
  3
ACAD_VISUALSTYLE
350
2A
  0
DICTIONARY
  5
D
102
{ACAD_REACTORS
330
C
102
}
330
C
100
AcDbDictionary
281
     1
  0
DICTIONARY
  5
1A
102
{ACAD_REACTORS
330
C
102
}
330
C
100
AcDbDictionary
281
     1
  3
Layout1
350
1E
  3
Layout2
350
26
  3
Model
350
22
  0
DICTIONARY
  5
3B
102
{ACAD_REACTORS
330
C
102
}
330
C
100
AcDbDictionary
281
     1
  3
ByBlock
350
3D
  3
ByLayer
350
3C
  3
Global
350
3E
  0
DICTIONARY
  5
35E
102
{ACAD_REACTORS
330
C
102
}
330
C
100
AcDbDictionary
281
     1
  0
DICTIONARY
  5
17
102
{ACAD_REACTORS
330
C
102
}
330
C
100
AcDbDictionary
281
     1
  3
Standard
350
18
  0
DICTIONARY
  5
19
102
{ACAD_REACTORS
330
C
102
}
330
C
100
AcDbDictionary
281
     1
  0
ACDBDICTIONARYWDFLT
  5
E
102
{ACAD_REACTORS
330
C
102
}
330
C
100
AcDbDictionary
281
     1
  3
Normal
350
F
100
AcDbDictionaryWithDefault
340
F
  0
DICTIONARY
  5
35D
102
{ACAD_REACTORS
330
C
102
}
330
C
100
AcDbDictionary
281
     1
  0
DICTIONARY
  5
2A
102
{ACAD_REACTORS
330
C
102
}
330
C
100
AcDbDictionary
281
     1
  3
2dWireframe
350
2F
  3
3D Hidden
350
31
  3
3dWireframe
350
30
  3
Basic
350
32
  3
Brighten
350
36
  3
ColorChange
350
3A
  3
Conceptual
350
34
  3
Dim
350
35
  3
Facepattern
350
39
  3
Flat
350
2B
  3
FlatWithEdges
350
2C
  3
Gouraud
350
2D
  3
GouraudWithEdges
350
2E
  3
Linepattern
350
38
  3
Realistic
350
33
  3
Thicken
350
37
  0
LAYOUT
  5
1E
102
{ACAD_REACTORS
330
1A
102
}
330
1A
100
AcDbPlotSettings
  1

  2
none_device
  4

  6

 40
0.0
 41
0.0
 42
0.0
 43
0.0
 44
0.0
 45
0.0
 46
0.0
 47
0.0
 48
0.0
 49
0.0
140
0.0
141
0.0
142
1.0
143
1.0
 70
   688
 72
     0
 73
     0
 74
     5
  7

 75
    16
 76
     0
 77
     5
 78
   300
147
1.0
148
0.0
149
0.0
100
AcDbLayout
  1
Layout1
 70
     1
 71
     1
 10
0.0
 20
0.0
 11
420.0
 21
297.0
 12
0.0
 22
0.0
 32
0.0
 14
1.000000000000000E+20
 24
1.000000000000000E+20
 34
1.000000000000000E+20
 15
-1.000000000000000E+20
 25
-1.000000000000000E+20
 35
-1.000000000000000E+20
146
0.0
 13
0.0
 23
0.0
 33
0.0
 16
1.0
 26
0.0
 36
0.0
 17
0.0
 27
1.0
 37
0.0
 76
     0
330
1B
  0
LAYOUT
  5
26
102
{ACAD_REACTORS
330
1A
102
}
330
1A
100
AcDbPlotSettings
  1

  2
none_device
  4

  6

 40
0.0
 41
0.0
 42
0.0
 43
0.0
 44
0.0
 45
0.0
 46
0.0
 47
0.0
 48
0.0
 49
0.0
140
0.0
141
0.0
142
1.0
143
1.0
 70
   688
 72
     0
 73
     0
 74
     5
  7

 75
    16
 76
     0
 77
     5
 78
   300
147
1.0
148
0.0
149
0.0
100
AcDbLayout
  1
Layout2
 70
     1
 71
     2
 10
0.0
 20
0.0
 11
0.0
 21
0.0
 12
0.0
 22
0.0
 32
0.0
 14
0.0
 24
0.0
 34
0.0
 15
0.0
 25
0.0
 35
0.0
146
0.0
 13
0.0
 23
0.0
 33
0.0
 16
1.0
 26
0.0
 36
0.0
 17
0.0
 27
1.0
 37
0.0
 76
     0
330
23
  0
LAYOUT
  5
22
102
{ACAD_REACTORS
330
1A
102
}
330
1A
100
AcDbPlotSettings
  1

  2
none_device
  4

  6

 40
0.0
 41
0.0
 42
0.0
 43
0.0
 44
0.0
 45
0.0
 46
0.0
 47
0.0
 48
0.0
 49
0.0
140
0.0
141
0.0
142
1.0
143
1.0
 70
  1712
 72
     0
 73
     0
 74
     0
  7

 75
     0
 76
     0
 77
     5
 78
   300
147
1.0
148
0.0
149
0.0
100
AcDbLayout
  1
Model
 70
     1
 71
     0
 10
-8910.0
 20
-6300.0
 11
8910.0
 21
6300.0
 12
0.0
 22
0.0
 32
0.0
 14
-8910.0
 24
-6300.0
 34
0.0
 15
8910.0
 25
6300.0
 35
0.0
146
0.0
 13
0.0
 23
0.0
 33
0.0
 16
1.0
 26
0.0
 36
0.0
 17
0.0
 27
1.0
 37
0.0
 76
     0
330
1F
331
29
  0
MATERIAL
  5
3D
102
{ACAD_REACTORS
330
3B
102
}
330
3B
100
AcDbMaterial
  1
ByBlock
 72
     1
 94
      127
  0
MATERIAL
  5
3C
102
{ACAD_REACTORS
330
3B
102
}
330
3B
100
AcDbMaterial
  1
ByLayer
 72
     1
 94
      127
  0
MATERIAL
  5
3E
102
{ACAD_REACTORS
330
3B
102
}
330
3B
100
AcDbMaterial
  1
Global
 72
     1
 94
      127
  0
MLINESTYLE
  5
18
102
{ACAD_REACTORS
330
17
102
}
330
17
100
AcDbMlineStyle
  2
Standard
 70
     0
  3

 62
   256
 51
90.0
 52
90.0
 71
     2
 49
0.5
 62
   256
  6
BYLAYER
 49
-0.5
 62
   256
  6
BYLAYER
  0
ACDBPLACEHOLDER
  5
F
102
{ACAD_REACTORS
330
E
102
}
330
E
  0
VISUALSTYLE
  5
2F
102
{ACAD_REACTORS
330
2A
102
}
330
2A
100
AcDbVisualStyle
  2
2dWireframe
 70
     4
177
     2
291
     0
 71
     0
176
     1
 72
     2
176
     1
 73
     0
176
     1
 90
        0
176
     1
 40
-0.6
176
     1
 41
-30.0
176
     1
 62
     5
 63
     7
421
 16777215
176
     1
 74
     1
176
     1
 91
        4
176
     1
 64
     7
176
     1
 65
   257
176
     1
 75
     1
176
     1
175
     1
176
     1
 42
1.0
176
     1
 92
        0
176
     1
 66
   257
176
     1
 43
1.0
176
     1
 76
     1
176
     1
 77
     6
176
     1
 78
     2
176
     1
 67
     7
176
     1
 79
     5
176
     1
170
     0
176
     1
171
     0
176
     1
290
     0
176
     1
 93
        1
176
     1
 44
0.0
176
     1
173
     0
176
     1
  0
VISUALSTYLE
  5
31
102
{ACAD_REACTORS
330
2A
102
}
330
2A
100
AcDbVisualStyle
  2
3D Hidden
 70
     6
177
     2
291
     0
 71
     1
176
     1
 72
     2
176
     1
 73
     2
176
     1
 90
        0
176
     1
 40
-0.6
176
     1
 41
-30.0
176
     1
 62
     5
 63
     7
421
 16777215
176
     1
 74
     2
176
     1
 91
        2
176
     1
 64
     7
176
     1
 65
   257
176
     1
 75
     2
176
     1
175
     1
176
     1
 42
40.0
176
     1
 92
        0
176
     1
 66
   257
176
     1
 43
1.0
176
     1
 76
     1
176
     1
 77
     6
176
     1
 78
     2
176
     1
 67
     7
176
     1
 79
     3
176
     1
170
     0
176
     1
171
     0
176
     1
290
     0
176
     1
 93
        1
176
     1
 44
0.0
176
     1
173
     0
176
     1
  0
VISUALSTYLE
  5
30
102
{ACAD_REACTORS
330
2A
102
}
330
2A
100
AcDbVisualStyle
  2
3dWireframe
 70
     5
177
     2
291
     0
 71
     0
176
     1
 72
     2
176
     1
 73
     0
176
     1
 90
        0
176
     1
 40
-0.6
176
     1
 41
-30.0
176
     1
 62
     5
 63
     7
421
 16777215
176
     1
 74
     1
176
     1
 91
        4
176
     1
 64
     7
176
     1
 65
   257
176
     1
 75
     1
176
     1
175
     1
176
     1
 42
1.0
176
     1
 92
        0
176
     1
 66
   257
176
     1
 43
1.0
176
     1
 76
     1
176
     1
 77
     6
176
     1
 78
     2
176
     1
 67
     7
176
     1
 79
     5
176
     1
170
     0
176
     1
171
     0
176
     1
290
     0
176
     1
 93
        1
176
     1
 44
0.0
176
     1
173
     0
176
     1
  0
VISUALSTYLE
  5
32
102
{ACAD_REACTORS
330
2A
102
}
330
2A
100
AcDbVisualStyle
  2
Basic
 70
     7
177
     2
291
     1
 71
     1
176
     1
 72
     0
176
     1
 73
     1
176
     1
 90
        0
176
     1
 40
-0.6
176
     1
 41
-30.0
176
     1
 62
     5
 63
     7
421
 16777215
176
     1
 74
     0
176
     1
 91
        4
176
     1
 64
     7
176
     1
 65
   257
176
     1
 75
     1
176
     1
175
     1
176
     1
 42
1.0
176
     1
 92
        8
176
     1
 66
     7
176
     1
 43
1.0
176
     1
 76
     1
176
     1
 77
     6
176
     1
 78
     2
176
     1
 67
     7
176
     1
 79
     5
176
     1
170
     0
176
     1
171
     0
176
     1
290
     0
176
     1
 93
        1
176
     1
 44
0.0
176
     1
173
     0
176
     1
  0
VISUALSTYLE
  5
36
102
{ACAD_REACTORS
330
2A
102
}
330
2A
100
AcDbVisualStyle
  2
Brighten
 70
    12
177
     2
291
     1
 71
     2
176
     1
 72
     2
176
     1
 73
     0
176
     1
 90
        0
176
     1
 40
-0.6
176
     1
 41
-30.0
176
     1
 62
     5
 63
     7
421
 16777215
176
     1
 74
     1
176
     1
 91
        4
176
     1
 64
     7
176
     1
 65
   257
176
     1
 75
     1
176
     1
175
     1
176
     1
 42
1.0
176
     1
 92
        8
176
     1
 66
     7
176
     1
 43
1.0
176
     1
 76
     1
176
     1
 77
     6
176
     1
 78
     2
176
     1
 67
     7
176
     1
 79
     5
176
     1
170
     0
176
     1
171
     0
176
     1
290
     0
176
     1
 93
        1
176
     1
 44
50.0
176
     1
173
     0
176
     1
  0
VISUALSTYLE
  5
3A
102
{ACAD_REACTORS
330
2A
102
}
330
2A
100
AcDbVisualStyle
  2
ColorChange
 70
    16
177
     2
291
     1
 71
     2
176
     1
 72
     2
176
     1
 73
     3
176
     1
 90
        0
176
     1
 40
-0.6
176
     1
 41
-30.0
176
     1
 62
     5
 63
     8
421
  8421504
176
     1
 74
     1
176
     1
 91
        4
176
     1
 64
     7
176
     1
 65
   257
176
     1
 75
     1
176
     1
175
     1
176
     1
 42
1.0
176
     1
 92
        8
176
     1
 66
     8
424
  8421504
176
     1
 43
1.0
176
     1
 76
     1
176
     1
 77
     6
176
     1
 78
     2
176
     1
 67
     7
176
     1
 79
     5
176
     1
170
     0
176
     1
171
     0
176
     1
290
     0
176
     1
 93
        1
176
     1
 44
0.0
176
     1
173
     0
176
     1
  0
VISUALSTYLE
  5
34
102
{ACAD_REACTORS
330
2A
102
}
330
2A
100
AcDbVisualStyle
  2
Conceptual
 70
     9
177
     2
291
     0
 71
     3
176
     1
 72
     2
176
     1
 73
     0
176
     1
 90
        0
176
     1
 40
-0.6
176
     1
 41
-30.0
176
     1
 62
     5
 63
     7
421
 16777215
176
     1
 74
     2
176
     1
 91
        2
176
     1
 64
     7
176
     1
 65
   257
176
     1
 75
     1
176
     1
175
     1
176
     1
 42
40.0
176
     1
 92
        8
176
     1
 66
     7
176
     1
 43
1.0
176
     1
 76
     1
176
     1
 77
     6
176
     1
 78
     2
176
     1
 67
     7
176
     1
 79
     3
176
     1
170
     0
176
     1
171
     0
176
     1
290
     0
176
     1
 93
        1
176
     1
 44
0.0
176
     1
173
     0
176
     1
  0
VISUALSTYLE
  5
35
102
{ACAD_REACTORS
330
2A
102
}
330
2A
100
AcDbVisualStyle
  2
Dim
 70
    11
177
     2
291
     1
 71
     2
176
     1
 72
     2
176
     1
 73
     0
176
     1
 90
        0
176
     1
 40
-0.6
176
     1
 41
-30.0
176
     1
 62
     5
 63
     7
421
 16777215
176
     1
 74
     1
176
     1
 91
        4
176
     1
 64
     7
176
     1
 65
   257
176
     1
 75
     1
176
     1
175
     1
176
     1
 42
1.0
176
     1
 92
        8
176
     1
 66
     7
176
     1
 43
1.0
176
     1
 76
     1
176
     1
 77
     6
176
     1
 78
     2
176
     1
 67
     7
176
     1
 79
     5
176
     1
170
     0
176
     1
171
     0
176
     1
290
     0
176
     1
 93
        1
176
     1
 44
-50.0
176
     1
173
     0
176
     1
  0
VISUALSTYLE
  5
39
102
{ACAD_REACTORS
330
2A
102
}
330
2A
100
AcDbVisualStyle
  2
Facepattern
 70
    15
177
     2
291
     1
 71
     2
176
     1
 72
     2
176
     1
 73
     0
176
     1
 90
        0
176
     1
 40
-0.6
176
     1
 41
-30.0
176
     1
 62
     5
 63
     7
421
 16777215
176
     1
 74
     1
176
     1
 91
        4
176
     1
 64
     7
176
     1
 65
   257
176
     1
 75
     1
176
     1
175
     1
176
     1
 42
1.0
176
     1
 92
        8
176
     1
 66
     7
176
     1
 43
1.0
176
     1
 76
     1
176
     1
 77
     6
176
     1
 78
     2
176
     1
 67
     7
176
     1
 79
     5
176
     1
170
     0
176
     1
171
     0
176
     1
290
     0
176
     1
 93
        1
176
     1
 44
0.0
176
     1
173
     0
176
     1
  0
VISUALSTYLE
  5
2B
102
{ACAD_REACTORS
330
2A
102
}
330
2A
100
AcDbVisualStyle
  2
Flat
 70
     0
177
     2
291
     1
 71
     2
176
     1
 72
     1
176
     1
 73
     1
176
     1
 90
        2
176
     1
 40
-0.6
176
     1
 41
30.0
176
     1
 62
     5
 63
     7
421
 16777215
176
     1
 74
     0
176
     1
 91
        4
176
     1
 64
     7
176
     1
 65
   257
176
     1
 75
     1
176
     1
175
     1
176
     1
 42
1.0
176
     1
 92
        8
176
     1
 66
     7
176
     1
 43
1.0
176
     1
 76
     1
176
     1
 77
     6
176
     1
 78
     2
176
     1
 67
     7
176
     1
 79
     5
176
     1
170
     0
176
     1
171
     0
176
     1
290
     0
176
     1
 93
       13
176
     1
 44
0.0
176
     1
173
     0
176
     1
  0
VISUALSTYLE
  5
2C
102
{ACAD_REACTORS
330
2A
102
}
330
2A
100
AcDbVisualStyle
  2
FlatWithEdges
 70
     1
177
     2
291
     1
 71
     2
176
     1
 72
     1
176
     1
 73
     1
176
     1
 90
        2
176
     1
 40
-0.6
176
     1
 41
30.0
176
     1
 62
     5
 63
     7
421
 16777215
176
     1
 74
     1
176
     1
 91
        4
176
     1
 64
     7
176
     1
 65
   257
176
     1
 75
     1
176
     1
175
     1
176
     1
 42
1.0
176
     1
 92
        0
176
     1
 66
   257
176
     1
 43
1.0
176
     1
 76
     1
176
     1
 77
     6
176
     1
 78
     2
176
     1
 67
     7
176
     1
 79
     5
176
     1
170
     0
176
     1
171
     0
176
     1
290
     0
176
     1
 93
       13
176
     1
 44
0.0
176
     1
173
     0
176
     1
  0
VISUALSTYLE
  5
2D
102
{ACAD_REACTORS
330
2A
102
}
330
2A
100
AcDbVisualStyle
  2
Gouraud
 70
     2
177
     2
291
     1
 71
     2
176
     1
 72
     2
176
     1
 73
     1
176
     1
 90
        2
176
     1
 40
-0.6
176
     1
 41
30.0
176
     1
 62
     5
 63
     7
421
 16777215
176
     1
 74
     0
176
     1
 91
        4
176
     1
 64
     7
176
     1
 65
   257
176
     1
 75
     1
176
     1
175
     1
176
     1
 42
1.0
176
     1
 92
        0
176
     1
 66
     7
176
     1
 43
1.0
176
     1
 76
     1
176
     1
 77
     6
176
     1
 78
     2
176
     1
 67
     7
176
     1
 79
     5
176
     1
170
     0
176
     1
171
     0
176
     1
290
     0
176
     1
 93
       13
176
     1
 44
0.0
176
     1
173
     0
176
     1
  0
VISUALSTYLE
  5
2E
102
{ACAD_REACTORS
330
2A
102
}
330
2A
100
AcDbVisualStyle
  2
GouraudWithEdges
 70
     3
177
     2
291
     1
 71
     2
176
     1
 72
     2
176
     1
 73
     1
176
     1
 90
        2
176
     1
 40
-0.6
176
     1
 41
30.0
176
     1
 62
     5
 63
     7
421
 16777215
176
     1
 74
     1
176
     1
 91
        4
176
     1
 64
     7
176
     1
 65
   257
176
     1
 75
     1
176
     1
175
     1
176
     1
 42
1.0
176
     1
 92
        0
176
     1
 66
   257
176
     1
 43
1.0
176
     1
 76
     1
176
     1
 77
     6
176
     1
 78
     2
176
     1
 67
     7
176
     1
 79
     5
176
     1
170
     0
176
     1
171
     0
176
     1
290
     0
176
     1
 93
       13
176
     1
 44
0.0
176
     1
173
     0
176
     1
  0
VISUALSTYLE
  5
38
102
{ACAD_REACTORS
330
2A
102
}
330
2A
100
AcDbVisualStyle
  2
Linepattern
 70
    14
177
     2
291
     1
 71
     2
176
     1
 72
     2
176
     1
 73
     0
176
     1
 90
        0
176
     1
 40
-0.6
176
     1
 41
-30.0
176
     1
 62
     5
 63
     7
421
 16777215
176
     1
 74
     1
176
     1
 91
        4
176
     1
 64
     7
176
     1
 65
   257
176
     1
 75
     7
176
     1
175
     7
176
     1
 42
1.0
176
     1
 92
        8
176
     1
 66
     7
176
     1
 43
1.0
176
     1
 76
     1
176
     1
 77
     6
176
     1
 78
     2
176
     1
 67
     7
176
     1
 79
     5
176
     1
170
     0
176
     1
171
     0
176
     1
290
     0
176
     1
 93
        1
176
     1
 44
0.0
176
     1
173
     0
176
     1
  0
VISUALSTYLE
  5
33
102
{ACAD_REACTORS
330
2A
102
}
330
2A
100
AcDbVisualStyle
  2
Realistic
 70
     8
177
     2
291
     0
 71
     2
176
     1
 72
     2
176
     1
 73
     0
176
     1
 90
        0
176
     1
 40
-0.6
176
     1
 41
-30.0
176
     1
 62
     5
 63
     7
421
 16777215
176
     1
 74
     1
176
     1
 91
        0
176
     1
 64
     7
176
     1
 65
   257
176
     1
 75
     1
176
     1
175
     1
176
     1
 42
1.0
176
     1
 92
        8
176
     1
 66
     8
424
  7895160
176
     1
 43
1.0
176
     1
 76
     1
176
     1
 77
     6
176
     1
 78
     2
176
     1
 67
     7
176
     1
 79
     5
176
     1
170
     0
176
     1
171
     0
176
     1
290
     0
176
     1
 93
       13
176
     1
 44
0.0
176
     1
173
     0
176
     1
  0
VISUALSTYLE
  5
37
102
{ACAD_REACTORS
330
2A
102
}
330
2A
100
AcDbVisualStyle
  2
Thicken
 70
    13
177
     2
291
     1
 71
     2
176
     1
 72
     2
176
     1
 73
     0
176
     1
 90
        0
176
     1
 40
-0.6
176
     1
 41
-30.0
176
     1
 62
     5
 63
     7
421
 16777215
176
     1
 74
     1
176
     1
 91
        4
176
     1
 64
     7
176
     1
 65
   257
176
     1
 75
     1
176
     1
175
     1
176
     1
 42
1.0
176
     1
 92
       12
176
     1
 66
     7
176
     1
 43
1.0
176
     1
 76
     1
176
     1
 77
     6
176
     1
 78
     2
176
     1
 67
     7
176
     1
 79
     5
176
     1
170
     0
176
     1
171
     0
176
     1
290
     0
176
     1
 93
        1
176
     1
 44
0.0
176
     1
173
     0
176
     1
  0
ENDSEC
  0
EOF
