  0
SECTION
  2
HEADER
  9
$ACADVER
  1
AC1024
  9
$ACADMAINTVER
 70
     6
  9
$DWGCODEPAGE
  3
ANSI_932
  9
$INSBASE
 10
0.0
 20
0.0
 30
0.0
  9
$EXTMIN
 10
-8910.0
 20
-6300.0
 30
0.0
  9
$EXTMAX
 10
8910.0
 20
6300.0
 30
0.0
  9
$LIMMIN
 10
-8910.0
 20
-6300.0
  9
$LIMMAX
 10
8910.0
 20
6300.0
  9
$ORTHOMODE
 70
     0
  9
$REGENMODE
 70
     1
  9
$FILLMODE
 70
     1
  9
$QTEXTMODE
 70
     0
  9
$MIRRTEXT
 70
     1
  9
$LTSCALE
 40
30.0
  9
$ATTMODE
 70
     1
  9
$TEXTSIZE
 40
2.5
  9
$TRACEWID
 40
1.0
  9
$TEXTSTYLE
  7
Standard
  9
$CLAYER
  8
0
  9
$CELTYPE
  6
ByLayer
  9
$CECOLOR
 62
   256
  9
$CELTSCALE
 40
1.0
  9
$DISPSILH
 70
     0
  9
$DIMSCALE
 40
1.0
  9
$DIMASZ
 40
2.5
  9
$DIMEXO
 40
0.625
  9
$DIMDLI
 40
3.75
  9
$DIMRND
 40
0.0
  9
$DIMDLE
 40
0.0
  9
$DIMEXE
 40
1.25
  9
$DIMTP
 40
0.0
  9
$DIMTM
 40
0.0
  9
$DIMTXT
 40
2.5
  9
$DIMCEN
 40
2.5
  9
$DIMTSZ
 40
0.0
  9
$DIMTOL
 70
     0
  9
$DIMLIM
 70
     0
  9
$DIMTIH
 70
     0
  9
$DIMTOH
 70
     0
  9
$DIMSE1
 70
     0
  9
$DIMSE2
 70
     0
  9
$DIMTAD
 70
     1
  9
$DIMZIN
 70
     8
  9
$DIMBLK
  1

  9
$DIMASO
 70
     1
  9
$DIMSHO
 70
     1
  9
$DIMPOST
  1

  9
$DIMAPOST
  1

  9
$DIMALT
 70
     0
  9
$DIMALTD
 70
     3
  9
$DIMALTF
 40
0.03937007874016
  9
$DIMLFAC
 40
1.0
  9
$DIMTOFL
 70
     1
  9
$DIMTVP
 40
0.0
  9
$DIMTIX
 70
     0
  9
$DIMSOXD
 70
     0
  9
$DIMSAH
 70
     0
  9
$DIMBLK1
  1

  9
$DIMBLK2
  1

  9
$DIMSTYLE
  2
ISO-25
  9
$DIMCLRD
 70
     0
  9
$DIMCLRE
 70
     0
  9
$DIMCLRT
 70
     0
  9
$DIMTFAC
 40
1.0
  9
$DIMGAP
 40
0.625
  9
$DIMJUST
 70
     0
  9
$DIMSD1
 70
     0
  9
$DIMSD2
 70
     0
  9
$DIMTOLJ
 70
     0
  9
$DIMTZIN
 70
     8
  9
$DIMALTZ
 70
     0
  9
$DIMALTTZ
 70
     0
  9
$DIMUPT
 70
     0
  9
$DIMDEC
 70
     2
  9
$DIMTDEC
 70
     2
  9
$DIMALTU
 70
     2
  9
$DIMALTTD
 70
     3
  9
$DIMTXSTY
  7
Standard
  9
$DIMAUNIT
 70
     0
  9
$DIMADEC
 70
     0
  9
$DIMALTRND
 40
0.0
  9
$DIMAZIN
 70
     0
  9
$DIMDSEP
 70
    44
  9
$DIMATFIT
 70
     3
  9
$DIMFRAC
 70
     0
  9
$DIMLDRBLK
  1

  9
$DIMLUNIT
 70
     2
  9
$DIMLWD
 70
    -2
  9
$DIMLWE
 70
    -2
  9
$DIMTMOVE
 70
     0
  9
$DIMFXL
 40
1.0
  9
$DIMFXLON
 70
     0
  9
$DIMJOGANG
 40
0.7853981633974483
  9
$DIMTFILL
 70
     0
  9
$DIMTFILLCLR
 70
     0
  9
$DIMARCSYM
 70
     0
  9
$DIMLTYPE
  6

  9
$DIMLTEX1
  6

  9
$DIMLTEX2
  6

  9
$DIMTXTDIRECTION
 70
     0
  9
$LUNITS
 70
     2
  9
$LUPREC
 70
     4
  9
$SKETCHINC
 40
1.0
  9
$FILLETRAD
 40
10.0
  9
$AUNITS
 70
     0
  9
$AUPREC
 70
     0
  9
$MENU
  1
.
  9
$ELEVATION
 40
0.0
  9
$PELEVATION
 40
0.0
  9
$THICKNESS
 40
0.0
  9
$LIMCHECK
 70
     0
  9
$CHAMFERA
 40
10.0
  9
$CHAMFERB
 40
10.0
  9
$CHAMFERC
 40
20.0
  9
$CHAMFERD
 40
0.0
  9
$SKPOLY
 70
     0
  9
$TDCREATE
 40
2459682.471581528
  9
$TDUCREATE
 40
2459682.096581528
  9
$TDUPDATE
 40
2459682.471581539
  9
$TDUUPDATE
 40
2459682.096581539
  9
$TDINDWG
 40
0.0000000116
  9
$TDUSRTIMER
 40
0.0000000116
  9
$USRTIMER
 70
     1
  9
$ANGBASE
 50
0.0
  9
$ANGDIR
 70
     0
  9
$PDMODE
 70
     0
  9
$PDSIZE
 40
0.0
  9
$PLINEWID
 40
0.0
  9
$SPLFRAME
 70
     0
  9
$SPLINETYPE
 70
     6
  9
$SPLINESEGS
 70
     8
  9
$HANDSEED
  5
5BC
  9
$SURFTAB1
 70
     6
  9
$SURFTAB2
 70
     6
  9
$SURFTYPE
 70
     6
  9
$SURFU
 70
     6
  9
$SURFV
 70
     6
  9
$UCSBASE
  2

  9
$UCSNAME
  2

  9
$UCSORG
 10
0.0
 20
0.0
 30
0.0
  9
$UCSXDIR
 10
1.0
 20
0.0
 30
0.0
  9
$UCSYDIR
 10
0.0
 20
1.0
 30
0.0
  9
$UCSORTHOREF
  2

  9
$UCSORTHOVIEW
 70
     0
  9
$UCSORGTOP
 10
0.0
 20
0.0
 30
0.0
  9
$UCSORGBOTTOM
 10
0.0
 20
0.0
 30
0.0
  9
$UCSORGLEFT
 10
0.0
 20
0.0
 30
0.0
  9
$UCSORGRIGHT
 10
0.0
 20
0.0
 30
0.0
  9
$UCSORGFRONT
 10
0.0
 20
0.0
 30
0.0
  9
$UCSORGBACK
 10
0.0
 20
0.0
 30
0.0
  9
$PUCSBASE
  2

  9
$PUCSNAME
  2

  9
$PUCSORG
 10
0.0
 20
0.0
 30
0.0
  9
$PUCSXDIR
 10
1.0
 20
0.0
 30
0.0
  9
$PUCSYDIR
 10
0.0
 20
1.0
 30
0.0
  9
$PUCSORTHOREF
  2

  9
$PUCSORTHOVIEW
 70
     0
  9
$PUCSORGTOP
 10
0.0
 20
0.0
 30
0.0
  9
$PUCSORGBOTTOM
 10
0.0
 20
0.0
 30
0.0
  9
$PUCSORGLEFT
 10
0.0
 20
0.0
 30
0.0
  9
$PUCSORGRIGHT
 10
0.0
 20
0.0
 30
0.0
  9
$PUCSORGFRONT
 10
0.0
 20
0.0
 30
0.0
  9
$PUCSORGBACK
 10
0.0
 20
0.0
 30
0.0
  9
$USERI1
 70
     0
  9
$USERI2
 70
     0
  9
$USERI3
 70
     0
  9
$USERI4
 70
     0
  9
$USERI5
 70
     0
  9
$USERR1
 40
0.0
  9
$USERR2
 40
0.0
  9
$USERR3
 40
0.0
  9
$USERR4
 40
0.0
  9
$USERR5
 40
0.0
  9
$WORLDVIEW
 70
     1
  9
$SHADEDGE
 70
     3
  9
$SHADEDIF
 70
    70
  9
$TILEMODE
 70
     1
  9
$MAXACTVP
 70
    64
  9
$PINSBASE
 10
0.0
 20
0.0
 30
0.0
  9
$PLIMCHECK
 70
     0
  9
$PEXTMIN
 10
1.000000000000000E+20
 20
1.000000000000000E+20
 30
1.000000000000000E+20
  9
$PEXTMAX
 10
-1.000000000000000E+20
 20
-1.000000000000000E+20
 30
-1.000000000000000E+20
  9
$PLIMMIN
 10
0.0
 20
0.0
  9
$PLIMMAX
 10
420.0
 20
297.0
  9
$UNITMODE
 70
     0
  9
$VISRETAIN
 70
     1
  9
$PLINEGEN
 70
     0
  9
$PSLTSCALE
 70
     1
  9
$TREEDEPTH
 70
  3020
  9
$CMLSTYLE
  2
Standard
  9
$CMLJUST
 70
     0
  9
$CMLSCALE
 40
20.0
  9
$PROXYGRAPHICS
 70
     1
  9
$MEASUREMENT
 70
     1
  9
$CELWEIGHT
370
    -1
  9
$ENDCAPS
280
     0
  9
$JOINSTYLE
280
     0
  9
$LWDISPLAY
290
     0
  9
$INSUNITS
 70
     4
  9
$HYPERLINKBASE
  1

  9
$STYLESHEET
  1

  9
$XEDIT
290
     1
  9
$CEPSNTYPE
380
     0
  9
$PSTYLEMODE
290
     1
  9
$FINGERPRINTGUID
  2
{0708F5ED-BCFB-4810-8904-B7DC55082924}
  9
$VERSIONGUID
  2
{FAEB1C32-E019-11D5-929B-00C0DF256EC4}
  9
$EXTNAMES
290
     1
  9
$PSVPSCALE
 40
0.0
  9
$OLESTARTUP
290
     0
  9
$SORTENTS
280
   127
  9
$INDEXCTL
280
     0
  9
$HIDETEXT
280
     1
  9
$XCLIPFRAME
280
     2
  9
$HALOGAP
280
     0
  9
$OBSCOLOR
 70
   257
  9
$OBSLTYPE
280
     0
  9
$INTERSECTIONDISPLAY
280
     0
  9
$INTERSECTIONCOLOR
 70
   257
  9
$DIMASSOC
280
     2
  9
$PROJECTNAME
  1

  9
$CAMERADISPLAY
290
     0
  9
$LENSLENGTH
 40
50.0
  9
$CAMERAHEIGHT
 40
0.0
  9
$STEPSPERSEC
 40
2.0
  9
$STEPSIZE
 40
6.0
  9
$3DDWFPREC
 40
2.0
  9
$PSOLWIDTH
 40
5.0
  9
$PSOLHEIGHT
 40
80.0
  9
$LOFTANG1
 40
1.570796326794897
  9
$LOFTANG2
 40
1.570796326794897
  9
$LOFTMAG1
 40
0.0
  9
$LOFTMAG2
 40
0.0
  9
$LOFTPARAM
 70
     7
  9
$LOFTNORMALS
280
     1
  9
$LATITUDE
 40
37.795
  9
$LONGITUDE
 40
-122.394
  9
$NORTHDIRECTION
 40
0.0
  9
$TIMEZONE
 70
 -8000
  9
$LIGHTGLYPHDISPLAY
280
     1
  9
$TILEMODELIGHTSYNCH
280
     1
  9
$SOLIDHIST
280
     1
  9
$SHOWHIST
280
     1
  9
$DWFFRAME
280
     2
  9
$DGNFRAME
280
     2
  9
$REALWORLDSCALE
290
     1
  9
$INTERFERECOLOR
 62
   256
  9
$CSHADOW
280
     0
  9
$SHADOWPLANELOCATION
 40
0.0
  0
ENDSEC
  0
SECTION
  2
CLASSES
  0
CLASS
  1
ACDBDICTIONARYWDFLT
  2
AcDbDictionaryWithDefault
  3
ObjectDBX Classes
 90
        0
 91
        4
280
     0
281
     0
  0
CLASS
  1
VISUALSTYLE
  2
AcDbVisualStyle
  3
ObjectDBX Classes
 90
     4095
 91
        4
280
     0
281
     0
  0
CLASS
  1
MATERIAL
  2
AcDbMaterial
  3
ObjectDBX Classes
 90
     1153
 91
        4
280
     0
281
     0
  0
ENDSEC
  0
SECTION
  2
TABLES
  0
TABLE
  2
VPORT
  5
8
330
0
100
AcDbSymbolTable
 70
     1
  0
VPORT
  5
29
330
8
100
AcDbSymbolTableRecord
100
AcDbViewportTableRecord
  2
*Active
 70
     0
 10
0.0
 20
0.0
 11
1.0
 21
1.0
 12
0.0
 22
0.0
 13
0.0
 23
0.0
 14
10.0
 24
10.0
 15
10.0
 25
10.0
 16
0.0
 26
0.0
 36
1.0
 17
0.0
 27
0.0
 37
0.0
 40
13860.0
 41
1.414285714285714
 42
50.0
 43
0.0
 44
0.0
 50
0.0
 51
0.0
 71
     0
 72
 10000
 73
     1
 74
     3
 75
     0
 76
     0
 77
     0
 78
     0
281
     0
 65
     1
110
0.0
120
0.0
130
0.0
111
1.0
121
0.0
131
0.0
112
0.0
122
1.0
132
0.0
 79
     0
146
0.0
 60
     3
 61
     5
292
     1
282
     1
141
0.0
142
0.0
 63
   250
  0
ENDTAB
  0
TABLE
  2
LTYPE
  5
5
330
0
100
AcDbSymbolTable
 70
     5
  0
LTYPE
  5
14
330
5
100
AcDbSymbolTableRecord
100
AcDbLinetypeTableRecord
  2
ByBlock
 70
     0
  3

 72
    65
 73
     0
 40
0.0
  0
LTYPE
  5
15
330
5
100
AcDbSymbolTableRecord
100
AcDbLinetypeTableRecord
  2
ByLayer
 70
     0
  3

 72
    65
 73
     0
 40
0.0
  0
LTYPE
  5
16
330
5
100
AcDbSymbolTableRecord
100
AcDbLinetypeTableRecord
  2
Continuous
 70
     0
  3
Solid line
 72
    65
 73
     0
 40
0.0
  0
LTYPE
  5
3F
330
5
100
AcDbSymbolTableRecord
100
AcDbLinetypeTableRecord
  2
JWW_HOJO
 70
     0
  3
  -   -   -   -   -   -   -   - 
 72
    65
 73
     2
 40
1.693333333333333
 49
-1.27
 74
     0
 49
0.4233333333333333
 74
     0
  0
LTYPE
  5
40
330
5
100
AcDbSymbolTableRecord
100
AcDbLinetypeTableRecord
  2
JWW_DASHED2
 70
     0
  3
--    ----    ----    ----    --
 72
    65
 73
     2
 40
3.386666666666667
 49
1.693333333333333
 74
     0
 49
-1.693333333333333
 74
     0
  0
LTYPE
  5
41
330
5
100
AcDbSymbolTableRecord
100
AcDbLinetypeTableRecord
  2
JWW_DASHED1
 70
     0
  3
-  --  --  --  --  --  --  --  -
 72
    65
 73
     2
 40
1.693333333333333
 49
0.8466666666666667
 74
     0
 49
-0.8466666666666667
 74
     0
  0
LTYPE
  5
42
330
5
100
AcDbSymbolTableRecord
100
AcDbLinetypeTableRecord
  2
JWW_CENTER1
 70
     0
  3
-----  --  ----------  --  -----
 72
    65
 73
     4
 40
6.773333333333333
 49
4.233333333333333
 74
     0
 49
-0.8466666666666667
 74
     0
 49
0.8466666666666667
 74
     0
 49
-0.8466666666666667
 74
     0
  0
ENDTAB
  0
TABLE
  2
LAYER
  5
2
330
0
100
AcDbSymbolTable
 70
    25
  0
LAYER
  5
10
330
2
100
AcDbSymbolTableRecord
100
AcDbLayerTableRecord
  2
0
 70
     0
 62
     7
  6
Continuous
370
    -3
390
F
347
3E
  0
LAYER
  5
43
330
2
100
AcDbSymbolTableRecord
100
AcDbLayerTableRecord
  2
0-A_文字
 70
     0
 62
     7
  6
Continuous
370
    -3
390
F
347
3E
  0
LAYER
  5
44
330
2
100
AcDbSymbolTableRecord
100
AcDbLayerTableRecord
  2
0-0_補助線
 70
     0
 62
     7
  6
Continuous
370
    -3
390
F
347
3E
  0
LAYER
  5
45
330
2
100
AcDbSymbolTableRecord
100
AcDbLayerTableRecord
  2
戸当り
 70
     0
 62
     7
  6
Continuous
370
    -3
390
F
347
3E
  0
LAYER
  5
46
330
2
100
AcDbSymbolTableRecord
100
AcDbLayerTableRecord
  2
F-0_補助線
 70
     0
 62
     7
  6
Continuous
370
    -3
390
F
347
3E
  0
LAYER
  5
47
330
2
100
AcDbSymbolTableRecord
100
AcDbLayerTableRecord
  2
F-1_枠
 70
     0
 62
     7
  6
Continuous
370
    -3
390
F
347
3E
  0
LAYER
  5
48
330
2
100
AcDbSymbolTableRecord
100
AcDbLayerTableRecord
  2
F-A_文字
 70
     0
 62
     7
  6
Continuous
370
    -3
390
F
347
3E
  0
LAYER
  5
49
330
2
100
AcDbSymbolTableRecord
100
AcDbLayerTableRecord
  2
0-2_柱
 70
     0
 62
     7
  6
Continuous
370
    -3
390
F
347
3E
  0
LAYER
  5
4A
330
2
100
AcDbSymbolTableRecord
100
AcDbLayerTableRecord
  2
0-B_寸法
 70
     0
 62
     7
  6
Continuous
370
    -3
390
F
347
3E
  0
LAYER
  5
4B
330
2
100
AcDbSymbolTableRecord
100
AcDbLayerTableRecord
  2
0-C_ハッチ
 70
     0
 62
     7
  6
Continuous
370
    -3
390
F
347
3E
  0
LAYER
  5
4C
330
2
100
AcDbSymbolTableRecord
100
AcDbLayerTableRecord
  2
0-4_枠
 70
     0
 62
     7
  6
Continuous
370
    -3
390
F
347
3E
  0
LAYER
  5
4D
330
2
100
AcDbSymbolTableRecord
100
AcDbLayerTableRecord
  2
0-7_金物
 70
     0
 62
     7
  6
Continuous
370
    -3
390
F
347
3E
  0
LAYER
  5
4E
330
2
100
AcDbSymbolTableRecord
100
AcDbLayerTableRecord
  2
0-6_扉
 70
     0
 62
     7
  6
Continuous
370
    -3
390
F
347
3E
  0
LAYER
  5
4F
330
2
100
AcDbSymbolTableRecord
100
AcDbLayerTableRecord
  2
0-3_仕上げ
 70
     0
 62
     7
  6
Continuous
370
    -3
390
F
347
3E
  0
LAYER
  5
50
330
2
100
AcDbSymbolTableRecord
100
AcDbLayerTableRecord
  2
0-5_ケーシング
 70
     0
 62
     7
  6
Continuous
370
    -3
390
F
347
3E
  0
LAYER
  5
51
330
2
100
AcDbSymbolTableRecord
100
AcDbLayerTableRecord
  2
0-1_通り芯
 70
     0
 62
     7
  6
Continuous
370
    -3
390
F
347
3E
  0
LAYER
  5
52
330
2
100
AcDbSymbolTableRecord
100
AcDbLayerTableRecord
  2
1-B_寸法
 70
     0
 62
     7
  6
Continuous
370
    -3
390
F
347
3E
  0
LAYER
  5
53
330
2
100
AcDbSymbolTableRecord
100
AcDbLayerTableRecord
  2
1-4_枠
 70
     0
 62
     7
  6
Continuous
370
    -3
390
F
347
3E
  0
LAYER
  5
54
330
2
100
AcDbSymbolTableRecord
100
AcDbLayerTableRecord
  2
1-C_ハッチ
 70
     0
 62
     7
  6
Continuous
370
    -3
390
F
347
3E
  0
LAYER
  5
55
330
2
100
AcDbSymbolTableRecord
100
AcDbLayerTableRecord
  2
1-7_金物
 70
     0
 62
     7
  6
Continuous
370
    -3
390
F
347
3E
  0
LAYER
  5
56
330
2
100
AcDbSymbolTableRecord
100
AcDbLayerTableRecord
  2
1-6_扉
 70
     0
 62
     7
  6
Continuous
370
    -3
390
F
347
3E
  0
LAYER
  5
57
330
2
100
AcDbSymbolTableRecord
100
AcDbLayerTableRecord
  2
1-0_補助線
 70
     0
 62
     7
  6
Continuous
370
    -3
390
F
347
3E
  0
LAYER
  5
58
330
2
100
AcDbSymbolTableRecord
100
AcDbLayerTableRecord
  2
1-1_通り芯
 70
     0
 62
     7
  6
Continuous
370
    -3
390
F
347
3E
  0
LAYER
  5
59
330
2
100
AcDbSymbolTableRecord
100
AcDbLayerTableRecord
  2
1-A_文字
 70
     0
 62
     7
  6
Continuous
370
    -3
390
F
347
3E
  0
LAYER
  5
5A
330
2
100
AcDbSymbolTableRecord
100
AcDbLayerTableRecord
  2
1-3_仕上げ
 70
     0
 62
     7
  6
Continuous
370
    -3
390
F
347
3E
  0
ENDTAB
  0
TABLE
  2
STYLE
  5
3
330
0
100
AcDbSymbolTable
 70
     1
  0
STYLE
  5
11
330
3
100
AcDbSymbolTableRecord
100
AcDbTextStyleTableRecord
  2
Standard
 70
     0
 40
0.0
 41
1.0
 50
0.0
 71
     0
 42
2.5
  3
txt
  4

  0
ENDTAB
  0
TABLE
  2
VIEW
  5
6
330
0
100
AcDbSymbolTable
 70
     0
  0
ENDTAB
  0
TABLE
  2
UCS
  5
7
330
0
100
AcDbSymbolTable
 70
     0
  0
ENDTAB
  0
TABLE
  2
APPID
  5
9
330
0
100
AcDbSymbolTable
 70
     1
  0
APPID
  5
12
330
9
100
AcDbSymbolTableRecord
100
AcDbRegAppTableRecord
  2
ACAD
 70
     0
  0
ENDTAB
  0
TABLE
  2
DIMSTYLE
  5
A
330
0
100
AcDbSymbolTable
 70
     1
100
AcDbDimStyleTable
  0
DIMSTYLE
105
27
330
A
100
AcDbSymbolTableRecord
100
AcDbDimStyleTableRecord
  2
ISO-25
 70
     0
 41
2.5
 42
0.625
 43
3.75
 44
1.25
 73
     0
 74
     0
 77
     1
 78
     8
140
2.5
141
2.5
143
0.03937007874016
147
0.625
171
     3
172
     1
178
     0
271
     2
272
     2
274
     3
278
    44
283
     0
284
     8
340
11
  0
ENDTAB
  0
TABLE
  2
BLOCK_RECORD
  5
1
330
0
100
AcDbSymbolTable
 70
     1
  0
BLOCK_RECORD
  5
1F
330
1
100
AcDbSymbolTableRecord
100
AcDbBlockTableRecord
  2
*Model_Space
340
22
 70
     0
280
     1
281
     0
  0
BLOCK_RECORD
  5
1B
330
1
100
AcDbSymbolTableRecord
100
AcDbBlockTableRecord
  2
*Paper_Space
340
1E
 70
     0
280
     1
281
     0
  0
BLOCK_RECORD
  5
23
330
1
100
AcDbSymbolTableRecord
100
AcDbBlockTableRecord
  2
*Paper_Space0
340
26
 70
     0
280
     1
281
     0
  0
ENDTAB
  0
ENDSEC
  0
SECTION
  2
BLOCKS
  0
BLOCK
  5
20
330
1F
100
AcDbEntity
  8
0
100
AcDbBlockBegin
  2
*Model_Space
 70
     0
 10
0.0
 20
0.0
 30
0.0
  3
*Model_Space
  1

  0
ENDBLK
  5
21
330
1F
100
AcDbEntity
  8
0
100
AcDbBlockEnd
  0
BLOCK
  5
1C
330
1B
100
AcDbEntity
 67
     1
  8
0
100
AcDbBlockBegin
  2
*Paper_Space
 70
     0
 10
0.0
 20
0.0
 30
0.0
  3
*Paper_Space
  1

  0
ENDBLK
  5
1D
330
1B
100
AcDbEntity
 67
     1
  8
0
100
AcDbBlockEnd
  0
BLOCK
  5
24
330
23
100
AcDbEntity
  8
0
100
AcDbBlockBegin
  2
*Paper_Space0
 70
     0
 10
0.0
 20
0.0
 30
0.0
  3
*Paper_Space0
  1

  0
ENDBLK
  5
25
330
23
100
AcDbEntity
  8
0
100
AcDbBlockEnd
  0
ENDSEC
  0
SECTION
  2
ENTITIES
  0
LINE
  5
5B
330
1F
100
AcDbEntity
  8
0-A_文字
  6
Continuous
 62
    92
370
     5
100
AcDbLine
 10
5359.99947212838
 20
3700.00018145587
 30
0.0
 11
3535.999472128379
 21
3700.00018145587
 31
0.0
  0
LINE
  5
5C
330
1F
100
AcDbEntity
  8
0-A_文字
  6
Continuous
 62
    92
370
     5
100
AcDbLine
 10
3535.999472128379
 20
3556.000181455871
 30
0.0
 11
5359.99947212838
 21
3556.000181455871
 31
0.0
  0
LINE
  5
5D
330
1F
100
AcDbEntity
  8
0-A_文字
  6
Continuous
 62
    92
370
     5
100
AcDbLine
 10
5359.99947212838
 20
2734.000181455871
 30
0.0
 11
3535.999472128379
 21
2734.000181455871
 31
0.0
  0
LINE
  5
5E
330
1F
100
AcDbEntity
  8
0-0_補助線
  6
JWW_HOJO
 62
   120
370
     5
100
AcDbLine
 10
3991.999472128379
 20
3700.00018145587
 30
0.0
 11
3991.999472128379
 21
2734.000181455871
 31
0.0
  0
LINE
  5
5F
330
1F
100
AcDbEntity
  8
0-0_補助線
  6
JWW_HOJO
 62
   120
370
     5
100
AcDbLine
 10
4903.99947212838
 20
3700.00018145587
 30
0.0
 11
4903.99947212838
 21
2734.000181455871
 31
0.0
  0
LINE
  5
60
330
1F
100
AcDbEntity
  8
0-0_補助線
  6
JWW_HOJO
 62
   120
370
     5
100
AcDbLine
 10
3559.999472128378
 20
3700.00018145587
 30
0.0
 11
3559.999472128378
 21
2734.000181455871
 31
0.0
  0
LINE
  5
61
330
1F
100
AcDbEntity
  8
0-0_補助線
  6
JWW_HOJO
 62
   120
370
     5
100
AcDbLine
 10
4423.999472128378
 20
3700.00018145587
 30
0.0
 11
4423.999472128378
 21
2734.000181455871
 31
0.0
  0
LINE
  5
62
330
1F
100
AcDbEntity
  8
0-0_補助線
  6
JWW_HOJO
 62
   120
370
     5
100
AcDbLine
 10
4471.999472128379
 20
3700.00018145587
 30
0.0
 11
4471.999472128379
 21
2734.000181455871
 31
0.0
  0
LINE
  5
63
330
1F
100
AcDbEntity
  8
0-0_補助線
  6
JWW_HOJO
 62
   120
370
     5
100
AcDbLine
 10
5335.999472128379
 20
3700.00018145587
 30
0.0
 11
5335.999472128379
 21
2734.000181455871
 31
0.0
  0
LINE
  5
64
330
1F
100
AcDbEntity
  8
0-A_文字
  6
Continuous
 62
    92
370
     5
100
AcDbLine
 10
3535.999472128379
 20
3700.00018145587
 30
0.0
 11
3535.999472128379
 21
2734.000181455871
 31
0.0
  0
LINE
  5
65
330
1F
100
AcDbEntity
  8
0-A_文字
  6
Continuous
 62
    92
370
     5
100
AcDbLine
 10
4447.999472128378
 20
3700.00018145587
 30
0.0
 11
4447.999472128378
 21
2734.000181455871
 31
0.0
  0
LINE
  5
66
330
1F
100
AcDbEntity
  8
0-A_文字
  6
Continuous
 62
    92
370
     5
100
AcDbLine
 10
5359.99947212838
 20
3700.00018145587
 30
0.0
 11
5359.99947212838
 21
2734.000181455871
 31
0.0
  0
LINE
  5
67
330
1F
100
AcDbEntity
  8
戸当り
  6
Continuous
 62
    40
370
     5
100
AcDbLine
 10
3999.19947212838
 20
3314.723723027998
 30
0.0
 11
3999.19947212838
 21
3336.323723027998
 31
0.0
  0
LINE
  5
68
330
1F
100
AcDbEntity
  8
戸当り
  6
Continuous
 62
    40
370
     5
100
AcDbLine
 10
3559.999472128378
 20
3314.723723027998
 30
0.0
 11
3999.19947212838
 21
3314.723723027998
 31
0.0
  0
LINE
  5
69
330
1F
100
AcDbEntity
  8
戸当り
  6
Continuous
 62
    40
370
     5
100
AcDbLine
 10
3631.999472128379
 20
3336.323723027998
 30
0.0
 11
3999.19947212838
 21
3336.323723027998
 31
0.0
  0
LINE
  5
6A
330
1F
100
AcDbEntity
  8
戸当り
  6
Continuous
 62
    40
370
     5
100
AcDbLine
 10
3631.999472128379
 20
3336.323723027998
 30
0.0
 11
3631.999472128379
 21
3357.923723027997
 31
0.0
  0
LINE
  5
6B
330
1F
100
AcDbEntity
  8
戸当り
  6
JWW_DASHED2
 62
    40
370
     5
100
AcDbLine
 10
3984.799472128379
 20
3347.123723027998
 30
0.0
 11
3631.999472128379
 21
3347.123723027998
 31
0.0
  0
LINE
  5
6C
330
1F
100
AcDbEntity
  8
戸当り
  6
Continuous
 62
    40
370
     5
100
AcDbLine
 10
3631.999472128379
 20
3357.923723027997
 30
0.0
 11
3559.999472128378
 21
3357.923723027997
 31
0.0
  0
LINE
  5
6D
330
1F
100
AcDbEntity
  8
戸当り
  6
Continuous
 62
    40
370
     5
100
AcDbLine
 10
4351.999472128379
 20
3314.723723027998
 30
0.0
 11
4351.999472128379
 21
3357.923723027997
 31
0.0
  0
LINE
  5
6E
330
1F
100
AcDbEntity
  8
戸当り
  6
Continuous
 62
    40
370
     5
100
AcDbLine
 10
3984.799472128379
 20
3347.123723027998
 30
0.0
 11
4351.999472128379
 21
3347.123723027998
 31
0.0
  0
LINE
  5
6F
330
1F
100
AcDbEntity
  8
戸当り
  6
Continuous
 62
    40
370
     5
100
AcDbLine
 10
4351.999472128379
 20
3314.723723027998
 30
0.0
 11
4423.999472128378
 21
3314.723723027998
 31
0.0
  0
LINE
  5
70
330
1F
100
AcDbEntity
  8
戸当り
  6
Continuous
 62
    40
370
     5
100
AcDbLine
 10
4351.999472128379
 20
3357.923723027997
 30
0.0
 11
4423.999472128378
 21
3357.923723027997
 31
0.0
  0
LINE
  5
71
330
1F
100
AcDbEntity
  8
戸当り
  6
Continuous
 62
    92
370
     5
100
AcDbLine
 10
4175.59947212838
 20
3275.123723027997
 30
0.0
 11
4175.59947212838
 21
3419.123723027998
 31
0.0
  0
LINE
  5
72
330
1F
100
AcDbEntity
  8
戸当り
  6
Continuous
 62
    40
370
     5
100
AcDbLine
 10
4896.799472128379
 20
3314.723723027998
 30
0.0
 11
4896.799472128379
 21
3336.323723027998
 31
0.0
  0
LINE
  5
73
330
1F
100
AcDbEntity
  8
戸当り
  6
Continuous
 62
    40
370
     5
100
AcDbLine
 10
5335.999472128379
 20
3314.723723027998
 30
0.0
 11
4896.799472128379
 21
3314.723723027998
 31
0.0
  0
LINE
  5
74
330
1F
100
AcDbEntity
  8
戸当り
  6
Continuous
 62
    40
370
     5
100
AcDbLine
 10
5263.99947212838
 20
3336.323723027998
 30
0.0
 11
4896.799472128379
 21
3336.323723027998
 31
0.0
  0
LINE
  5
75
330
1F
100
AcDbEntity
  8
戸当り
  6
Continuous
 62
    40
370
     5
100
AcDbLine
 10
5263.99947212838
 20
3336.323723027998
 30
0.0
 11
5263.99947212838
 21
3357.923723027997
 31
0.0
  0
LINE
  5
76
330
1F
100
AcDbEntity
  8
戸当り
  6
JWW_DASHED2
 62
    40
370
     5
100
AcDbLine
 10
4911.199472128381
 20
3347.123723027998
 30
0.0
 11
5263.99947212838
 21
3347.123723027998
 31
0.0
  0
LINE
  5
77
330
1F
100
AcDbEntity
  8
戸当り
  6
Continuous
 62
    40
370
     5
100
AcDbLine
 10
5263.99947212838
 20
3357.923723027997
 30
0.0
 11
5335.999472128379
 21
3357.923723027997
 31
0.0
  0
LINE
  5
78
330
1F
100
AcDbEntity
  8
戸当り
  6
Continuous
 62
    40
370
     5
100
AcDbLine
 10
4543.999472128378
 20
3314.723723027998
 30
0.0
 11
4543.999472128378
 21
3357.923723027997
 31
0.0
  0
LINE
  5
79
330
1F
100
AcDbEntity
  8
戸当り
  6
Continuous
 62
    40
370
     5
100
AcDbLine
 10
4911.199472128381
 20
3347.123723027998
 30
0.0
 11
4543.999472128378
 21
3347.123723027998
 31
0.0
  0
LINE
  5
7A
330
1F
100
AcDbEntity
  8
戸当り
  6
Continuous
 62
    40
370
     5
100
AcDbLine
 10
4543.999472128378
 20
3314.723723027998
 30
0.0
 11
4471.999472128379
 21
3314.723723027998
 31
0.0
  0
LINE
  5
7B
330
1F
100
AcDbEntity
  8
戸当り
  6
Continuous
 62
    40
370
     5
100
AcDbLine
 10
4543.999472128378
 20
3357.923723027997
 30
0.0
 11
4471.999472128379
 21
3357.923723027997
 31
0.0
  0
LINE
  5
7C
330
1F
100
AcDbEntity
  8
戸当り
  6
Continuous
 62
    92
370
     5
100
AcDbLine
 10
4720.39947212838
 20
3275.123723027997
 30
0.0
 11
4720.39947212838
 21
3419.123723027998
 31
0.0
  0
ELLIPSE
  5
7D
330
1F
100
AcDbEntity
  8
戸当り
  6
Continuous
 62
    92
370
     5
100
AcDbEllipse
 10
4100.199747261195
 20
2942.884428393054
 30
0.0
 11
-17.7763823922528
 21
100.8148742797557
 31
0.0
210
0.0
220
0.0
230
1.0
 40
0.4000000000000001
 41
1.850633272656679
 42
2.442876790075129
  0
ELLIPSE
  5
7E
330
1F
100
AcDbEntity
  8
戸当り
  6
Continuous
 62
    92
370
     5
100
AcDbEllipse
 10
4100.199747261195
 20
2942.884428393054
 30
0.0
 11
-17.7763823922528
 21
100.8148742797557
 31
0.0
210
0.0
220
0.0
230
1.0
 40
0.4000000000000001
 41
3.840308517104466
 42
4.432552034522944
  0
ELLIPSE
  5
7F
330
1F
100
AcDbEntity
  8
戸当り
  6
Continuous
 62
    92
370
     5
100
AcDbEllipse
 10
4099.780001211294
 20
2945.264926534711
 30
0.0
 11
-14.67024424252691
 21
83.19908946199426
 31
0.0
210
0.0
220
0.0
230
1.0
 40
0.5
 41
4.340591432030095
 42
8.225779182329084
  0
LINE
  5
80
330
1F
100
AcDbEntity
  8
戸当り
  6
Continuous
 62
    92
370
     5
100
AcDbLine
 10
4139.749631033957
 20
2870.267379069785
 30
0.0
 11
4087.871506944422
 21
2861.119866084258
 31
0.0
  0
LINE
  5
81
330
1F
100
AcDbEntity
  8
戸当り
  6
Continuous
 62
    92
370
     5
100
AcDbLine
 10
4141.93759807256
 20
2857.858801381831
 30
0.0
 11
4090.059473983025
 21
2848.711288396305
 31
0.0
  0
ELLIPSE
  5
82
330
1F
100
AcDbEntity
  8
戸当り
  6
Continuous
 62
    92
370
     5
100
AcDbEllipse
 10
4115.998536027792
 20
2853.285044889068
 30
0.0
 11
-7.622927487939132
 21
43.23177007461331
 31
0.0
210
0.0
220
0.0
230
1.0
 40
0.6000000000000001
 41
1.570796326794897
 42
4.71238898038469
  0
ELLIPSE
  5
83
330
1F
100
AcDbEntity
  8
戸当り
  6
Continuous
 62
    92
370
     5
100
AcDbEllipse
 10
4254.660516199072
 20
2978.935263882862
 30
0.0
 11
26.49533313827761
 21
98.88192943551533
 31
0.0
210
0.0
220
0.0
230
0.9999999999999999
 40
0.4
 41
1.850633272656679
 42
2.442876790075129
  0
ELLIPSE
  5
84
330
1F
100
AcDbEntity
  8
戸当り
  6
Continuous
 62
    92
370
     5
100
AcDbEllipse
 10
4254.660516199072
 20
2978.935263882862
 30
0.0
 11
26.49533313827761
 21
98.88192943551533
 31
0.0
210
0.0
220
0.0
230
0.9999999999999999
 40
0.4
 41
3.840308517104466
 42
4.432552034522944
  0
ELLIPSE
  5
85
330
1F
100
AcDbEntity
  8
戸当り
  6
Continuous
 62
    92
370
     5
100
AcDbEllipse
 10
4255.286139072174
 20
2981.270120231654
 30
0.0
 11
21.86569797210526
 21
81.6038957748525
 31
0.0
210
0.0
220
0.0
230
1.0
 40
0.5
 41
4.340591432030095
 42
8.225779182329084
  0
LINE
  5
86
330
1F
100
AcDbEntity
  8
戸当り
  6
Continuous
 62
    92
370
     5
100
AcDbLine
 10
4259.815592680983
 20
2896.407363477467
 30
0.0
 11
4208.932138804589
 21
2910.041543851753
 31
0.0
  0
LINE
  5
87
330
1F
100
AcDbEntity
  8
戸当り
  6
Continuous
 62
    92
370
     5
100
AcDbLine
 10
4256.554472712692
 20
2884.236698066225
 30
0.0
 11
4205.671018836298
 21
2897.870878440511
 31
0.0
  0
ELLIPSE
  5
88
330
1F
100
AcDbEntity
  8
戸当り
  6
Continuous
 62
    92
370
     5
100
AcDbEllipse
 10
4231.112745774495
 20
2891.053788253369
 30
0.0
 11
11.36181697857171
 21
42.40287823032828
 31
0.0
210
0.0
220
0.0
230
0.9999999999999999
 40
0.6
 41
1.570796326794897
 42
4.71238898038469
  0
ELLIPSE
  5
89
330
1F
100
AcDbEntity
  8
戸当り
  6
Continuous
 62
    92
370
     5
100
AcDbEllipse
 10
4644.999747261196
 20
2942.884428393054
 30
0.0
 11
-17.7763823922528
 21
100.8148742797557
 31
0.0
210
0.0
220
0.0
230
1.0
 40
0.4000000000000001
 41
1.850633272656679
 42
2.442876790075129
  0
ELLIPSE
  5
8A
330
1F
100
AcDbEntity
  8
戸当り
  6
Continuous
 62
    92
370
     5
100
AcDbEllipse
 10
4644.999747261196
 20
2942.884428393054
 30
0.0
 11
-17.7763823922528
 21
100.8148742797557
 31
0.0
210
0.0
220
0.0
230
1.0
 40
0.4000000000000001
 41
3.840308517104466
 42
4.432552034522944
  0
ELLIPSE
  5
8B
330
1F
100
AcDbEntity
  8
戸当り
  6
Continuous
 62
    92
370
     5
100
AcDbEllipse
 10
4644.580001211294
 20
2945.264926534711
 30
0.0
 11
-14.67024424252691
 21
83.19908946199426
 31
0.0
210
0.0
220
0.0
230
1.0
 40
0.5
 41
4.340591432030095
 42
8.225779182329084
  0
LINE
  5
8C
330
1F
100
AcDbEntity
  8
戸当り
  6
Continuous
 62
    92
370
     5
100
AcDbLine
 10
4684.549631033958
 20
2870.267379069785
 30
0.0
 11
4632.671506944423
 21
2861.119866084258
 31
0.0
  0
LINE
  5
8D
330
1F
100
AcDbEntity
  8
戸当り
  6
Continuous
 62
    92
370
     5
100
AcDbLine
 10
4686.737598072561
 20
2857.858801381831
 30
0.0
 11
4634.859473983026
 21
2848.711288396305
 31
0.0
  0
ELLIPSE
  5
8E
330
1F
100
AcDbEntity
  8
戸当り
  6
Continuous
 62
    92
370
     5
100
AcDbEllipse
 10
4660.798536027793
 20
2853.285044889068
 30
0.0
 11
-7.622927487939132
 21
43.23177007461331
 31
0.0
210
0.0
220
0.0
230
1.0
 40
0.6000000000000001
 41
1.570796326794897
 42
4.71238898038469
  0
ELLIPSE
  5
8F
330
1F
100
AcDbEntity
  8
戸当り
  6
Continuous
 62
    92
370
     5
100
AcDbEllipse
 10
4799.460516199073
 20
2978.935263882862
 30
0.0
 11
26.49533313827761
 21
98.88192943551533
 31
0.0
210
0.0
220
0.0
230
0.9999999999999999
 40
0.4
 41
1.850633272656679
 42
2.442876790075129
  0
ELLIPSE
  5
90
330
1F
100
AcDbEntity
  8
戸当り
  6
Continuous
 62
    92
370
     5
100
AcDbEllipse
 10
4799.460516199073
 20
2978.935263882862
 30
0.0
 11
26.49533313827761
 21
98.88192943551533
 31
0.0
210
0.0
220
0.0
230
0.9999999999999999
 40
0.4
 41
3.840308517104466
 42
4.432552034522944
  0
ELLIPSE
  5
91
330
1F
100
AcDbEntity
  8
戸当り
  6
Continuous
 62
    92
370
     5
100
AcDbEllipse
 10
4800.086139072175
 20
2981.270120231654
 30
0.0
 11
21.86569797210526
 21
81.6038957748525
 31
0.0
210
0.0
220
0.0
230
1.0
 40
0.5
 41
4.340591432030095
 42
8.225779182329084
  0
LINE
  5
92
330
1F
100
AcDbEntity
  8
戸当り
  6
Continuous
 62
    92
370
     5
100
AcDbLine
 10
4804.615592680983
 20
2896.407363477467
 30
0.0
 11
4753.73213880459
 21
2910.041543851753
 31
0.0
  0
LINE
  5
93
330
1F
100
AcDbEntity
  8
戸当り
  6
Continuous
 62
    92
370
     5
100
AcDbLine
 10
4801.354472712693
 20
2884.236698066225
 30
0.0
 11
4750.471018836299
 21
2897.870878440511
 31
0.0
  0
ELLIPSE
  5
94
330
1F
100
AcDbEntity
  8
戸当り
  6
Continuous
 62
    92
370
     5
100
AcDbEllipse
 10
4775.912745774495
 20
2891.053788253369
 30
0.0
 11
11.36181697857171
 21
42.40287823032828
 31
0.0
210
0.0
220
0.0
230
0.9999999999999999
 40
0.6
 41
1.570796326794897
 42
4.71238898038469
  0
LINE
  5
95
330
1F
100
AcDbEntity
  8
F-0_補助線
  6
JWW_HOJO
 62
   120
370
     5
100
AcDbLine
 10
-6140.081333436773
 20
-4455.0
 30
0.0
 11
-6140.081333436773
 21
4424.999604096284
 31
0.0
  0
LINE
  5
96
330
1F
100
AcDbEntity
  8
F-0_補助線
  6
JWW_HOJO
 62
   120
370
     5
100
AcDbLine
 10
-6140.081333436773
 20
4424.999604096284
 30
0.0
 11
6159.917676803936
 21
4424.999604096284
 31
0.0
  0
LINE
  5
97
330
1F
100
AcDbEntity
  8
F-0_補助線
  6
JWW_HOJO
 62
   120
370
     5
100
AcDbLine
 10
6159.917676803936
 20
4424.999604096284
 30
0.0
 11
6159.917676803936
 21
-4455.0
 31
0.0
  0
LINE
  5
98
330
1F
100
AcDbEntity
  8
F-0_補助線
  6
JWW_HOJO
 62
   120
370
     5
100
AcDbLine
 10
6159.917676803936
 20
-4455.0
 30
0.0
 11
-6140.081333436773
 21
-4455.0
 31
0.0
  0
LINE
  5
99
330
1F
100
AcDbEntity
  8
F-0_補助線
  6
JWW_HOJO
 62
     7
370
     5
100
AcDbLine
 10
1009.918254163523
 20
-3795.000003092998
 30
0.0
 11
1009.918254163523
 21
-4195.000008247994
 31
0.0
  0
LINE
  5
9A
330
1F
100
AcDbEntity
  8
F-0_補助線
  6
JWW_HOJO
 62
     7
370
     5
100
AcDbLine
 10
509.9185840832865
 20
-3795.000003092998
 30
0.0
 11
509.9185840832865
 21
-4195.000008247994
 31
0.0
  0
LINE
  5
9B
330
1F
100
AcDbEntity
  8
F-1_枠
  6
Continuous
 62
   200
370
     5
100
AcDbLine
 10
5859.917429364114
 20
4174.999769056166
 30
0.0
 11
5859.917429364114
 21
-4205.000164959882
 31
0.0
  0
LINE
  5
9C
330
1F
100
AcDbEntity
  8
F-1_枠
  6
Continuous
 62
   200
370
     5
100
AcDbLine
 10
-5840.081317971782
 20
4174.999769056166
 30
0.0
 11
-5840.081317971782
 21
-4205.000164959882
 31
0.0
  0
LINE
  5
9D
330
1F
100
AcDbEntity
  8
F-1_枠
  6
Continuous
 62
   200
370
     5
100
AcDbLine
 10
5859.917429364114
 20
-4205.000002577498
 30
0.0
 11
-5840.081085996952
 21
-4205.000002577498
 31
0.0
  0
LINE
  5
9E
330
1F
100
AcDbEntity
  8
F-1_枠
  6
Continuous
 62
   200
370
     5
100
AcDbLine
 10
-5830.081323642279
 20
4174.999769056166
 30
0.0
 11
-5830.081323642279
 21
-4205.000164959882
 31
0.0
  0
LINE
  5
9F
330
1F
100
AcDbEntity
  8
F-1_枠
  6
Continuous
 62
   200
370
     5
100
AcDbLine
 10
-5835.081309208291
 20
4174.999769056166
 30
0.0
 11
-5835.081309208291
 21
-4205.000164959882
 31
0.0
  0
LINE
  5
A0
330
1F
100
AcDbEntity
  8
F-1_枠
  6
Continuous
 62
   200
370
     5
100
AcDbLine
 10
5854.917165428304
 20
4174.999769056166
 30
0.0
 11
5854.917165428304
 21
-4205.000164959882
 31
0.0
  0
LINE
  5
A1
330
1F
100
AcDbEntity
  8
F-1_枠
  6
Continuous
 62
   200
370
     5
100
AcDbLine
 10
5849.917643811961
 20
4174.999769056166
 30
0.0
 11
5849.917643811961
 21
-4205.000164959882
 31
0.0
  0
LINE
  5
A2
330
1F
100
AcDbEntity
  8
F-1_枠
  6
Continuous
 62
   200
370
     5
100
AcDbLine
 10
5859.917429364114
 20
-4199.999993814004
 30
0.0
 11
-5840.081085996952
 21
-4199.999993814004
 31
0.0
  0
LINE
  5
A3
330
1F
100
AcDbEntity
  8
F-1_枠
  6
Continuous
 62
   200
370
     5
100
AcDbLine
 10
5859.917429364114
 20
-4195.000008247994
 30
0.0
 11
-5840.081085996952
 21
-4195.000008247994
 31
0.0
  0
LINE
  5
A4
330
1F
100
AcDbEntity
  8
F-1_枠
  6
Continuous
 62
   200
370
     5
100
AcDbLine
 10
4349.917891251784
 20
-3795.000003092998
 30
0.0
 11
4349.917891251784
 21
-4195.000008247994
 31
0.0
  0
LINE
  5
A5
330
1F
100
AcDbEntity
  8
F-1_枠
  6
Continuous
 62
   200
370
     5
100
AcDbLine
 10
2849.917396372139
 20
-3795.000003092998
 30
0.0
 11
2849.917396372139
 21
-4195.000008247994
 31
0.0
  0
LINE
  5
A6
330
1F
100
AcDbEntity
  8
F-1_枠
  6
Continuous
 62
   200
370
     5
100
AcDbLine
 10
9.918542843316231
 20
-3795.000003092998
 30
0.0
 11
9.918542843316231
 21
-4195.000008247994
 31
0.0
  0
LINE
  5
A7
330
1F
100
AcDbEntity
  8
F-1_枠
  6
Continuous
 62
   200
370
     5
100
AcDbLine
 10
9.918542843316231
 20
-3994.999936078046
 30
0.0
 11
5849.917643811961
 21
-3995.005364289155
 31
0.0
  0
LINE
  5
A8
330
1F
100
AcDbEntity
  8
F-1_枠
  6
Continuous
 62
   200
370
     5
100
AcDbLine
 10
-5840.081085996952
 20
4174.999769056166
 30
0.0
 11
5859.917429364114
 21
4174.999769056166
 31
0.0
  0
LINE
  5
A9
330
1F
100
AcDbEntity
  8
F-1_枠
  6
Continuous
 62
   200
370
     5
100
AcDbLine
 10
-5840.081085996952
 20
4164.999983504013
 30
0.0
 11
5859.917429364114
 21
4164.999983504013
 31
0.0
  0
LINE
  5
AA
330
1F
100
AcDbEntity
  8
F-1_枠
  6
Continuous
 62
   200
370
     5
100
AcDbLine
 10
-5840.081085996952
 20
4169.999505120355
 30
0.0
 11
5859.917429364114
 21
4169.999505120355
 31
0.0
  0
LINE
  5
AB
330
1F
100
AcDbEntity
  8
F-0_補助線
  6
JWW_HOJO
 62
     7
370
     5
100
AcDbLine
 10
-5830.081323642279
 20
-3994.99993607839
 30
0.0
 11
9.918542843316231
 21
-3994.99993607839
 31
0.0
  0
LINE
  5
AC
330
1F
100
AcDbEntity
  8
F-0_補助線
  6
JWW_HOJO
 62
     7
370
     5
100
AcDbLine
 10
-5830.081323642279
 20
-3904.99993607839
 30
0.0
 11
9.918542843316231
 21
-3904.99993607839
 31
0.0
  0
LINE
  5
AD
330
1F
100
AcDbEntity
  8
F-0_補助線
  6
JWW_HOJO
 62
     7
370
     5
100
AcDbLine
 10
-5830.081323642279
 20
-4084.99993607839
 30
0.0
 11
9.918542843316231
 21
-4084.99993607839
 31
0.0
  0
LINE
  5
AE
330
1F
100
AcDbEntity
  8
F-0_補助線
  6
JWW_HOJO
 62
     7
370
     5
100
AcDbLine
 10
9.918408067688347
 20
-4139.999739777983
 30
0.0
 11
5849.917509036332
 21
-4140.005167989091
 31
0.0
  0
LINE
  5
AF
330
1F
100
AcDbEntity
  8
F-0_補助線
  6
JWW_HOJO
 62
     7
370
     5
100
AcDbLine
 10
9.918491721639953
 20
-4049.999739778022
 30
0.0
 11
5849.917592690284
 21
-4050.005167989131
 31
0.0
  0
LINE
  5
B0
330
1F
100
AcDbEntity
  8
F-0_補助線
  6
JWW_HOJO
 62
     7
370
     5
100
AcDbLine
 10
9.918593965360003
 20
-3939.99973721807
 30
0.0
 11
5849.917694934004
 21
-3940.005165429179
 31
0.0
  0
LINE
  5
B1
330
1F
100
AcDbEntity
  8
F-0_補助線
  6
JWW_HOJO
 62
     7
370
     5
100
AcDbLine
 10
9.918677619311609
 20
-3849.999737218109
 30
0.0
 11
5849.917778587956
 21
-3850.005165429218
 31
0.0
  0
LINE
  5
B2
330
1F
100
AcDbEntity
  8
F-0_補助線
  6
JWW_HOJO
 62
     7
370
     5
100
AcDbLine
 10
2939.917396372139
 20
-3795.000003092998
 30
0.0
 11
2939.917396372139
 21
-4195.000008247994
 31
0.0
  0
LINE
  5
B3
330
1F
100
AcDbEntity
  8
F-0_補助線
  6
JWW_HOJO
 62
     7
370
     5
100
AcDbLine
 10
99.91854284331623
 20
-3795.000003092998
 30
0.0
 11
99.91854284331623
 21
-4195.000008247994
 31
0.0
  0
LINE
  5
B4
330
1F
100
AcDbEntity
  8
F-0_補助線
  6
JWW_HOJO
 62
     7
370
     5
100
AcDbLine
 10
4439.917891251784
 20
-3795.000003092998
 30
0.0
 11
4439.917891251784
 21
-4195.000008247994
 31
0.0
  0
LINE
  5
B5
330
1F
100
AcDbEntity
  8
F-1_枠
  6
Continuous
 62
   200
370
     5
100
AcDbLine
 10
5859.917429364114
 20
-3795.000003092998
 30
0.0
 11
-5840.081085996952
 21
-3795.000003092998
 31
0.0
  0
LINE
  5
B6
330
1F
100
AcDbEntity
  8
F-1_枠
  6
Continuous
 62
   200
370
     5
100
AcDbLine
 10
5859.917429364114
 20
-3790.000017526987
 30
0.0
 11
-5840.081085996952
 21
-3790.000017526987
 31
0.0
  0
LINE
  5
B7
330
1F
100
AcDbEntity
  8
F-0_補助線
  6
JWW_HOJO
 62
     7
370
     5
100
AcDbLine
 10
-5087.628710189611
 20
-3795.000003092999
 30
0.0
 11
-5087.628710189611
 21
-4205.000164959882
 31
0.0
  0
LINE
  5
B8
330
1F
100
AcDbEntity
  8
F-0_補助線
  6
JWW_HOJO
 62
     7
370
     5
100
AcDbLine
 10
-50.08145715668377
 20
-3795.000003092998
 30
0.0
 11
-50.08145715668377
 21
-4195.000008247994
 31
0.0
  0
MTEXT
  5
B9
330
1F
100
AcDbEntity
  8
0-A_文字
  6
Continuous
 62
     7
370
     5
100
AcDbMText
 10
3535.999472128379
 20
3715.72018145587
 30
0.0
 40
91.44
 41
720.0
 46
0.0
 71
     7
 72
     1
  1
{\fＭＳ ゴシック|b0|i0|c128|p49;■引き手方向}
 73
     1
 44
1.0
  0
MTEXT
  5
BA
330
1F
100
AcDbEntity
  8
0-A_文字
  6
Continuous
 62
     7
370
     5
100
AcDbMText
 10
3789.499472128379
 20
3576.576431455871
 30
0.0
 40
77.15249999999999
 41
405.0
 46
0.0
 71
     7
 72
     1
  1
{\fＭＳ ゴシック|b0|i0|c128|p49;右引き手}
 73
     1
 44
1.0
  0
MTEXT
  5
BB
330
1F
100
AcDbEntity
  8
0-A_文字
  6
Continuous
 62
     7
370
     5
100
AcDbMText
 10
4701.49947212838
 20
3576.576431455871
 30
0.0
 40
77.15249999999999
 41
405.0
 46
0.0
 71
     7
 72
     1
  1
{\fＭＳ ゴシック|b0|i0|c128|p49;左引き手}
 73
     1
 44
1.0
  0
MTEXT
  5
BC
330
1F
100
AcDbEntity
  8
F-0_補助線
  6
Continuous
 62
     7
370
     0
100
AcDbMText
 10
509.9185840832865
 20
-3946.496666872503
 30
0.0
 40
78.58125
 41
412.5
 46
0.0
 71
     7
 72
     1
  1
{\fＭＳ ゴシック|b0|i0|c128|p49;DOORETUS}
 73
     1
 44
1.0
  0
MTEXT
  5
BD
330
1F
100
AcDbEntity
  8
F-0_補助線
  6
Continuous
 62
     7
370
     0
100
AcDbMText
 10
1110.209427605311
 20
-3946.734791872504
 30
0.0
 40
78.105
 41
615.0
 46
0.0
 71
     7
 72
     1
  1
{\fＭＳ ゴシック|b0|i0|c128|p49;建具納まり図}
 73
     1
 44
1.0
  0
MTEXT
  5
BE
330
1F
100
AcDbEntity
  8
F-A_文字
  6
Continuous
 62
     7
370
     0
100
AcDbMText
 10
99.91854284331623
 20
-3887.139820871936
 30
0.0
 40
45.72
 41
180.0
 46
0.0
 71
     7
 72
     1
  1
{\fＭＳ ゴシック|b0|i0|c128|p49;図面名}
 73
     1
 44
1.0
  0
MTEXT
  5
BF
330
1F
100
AcDbEntity
  8
F-A_文字
  6
Continuous
 62
     7
370
     0
100
AcDbMText
 10
2939.917396372139
 20
-3887.142460617774
 30
0.0
 40
45.72
 41
300.0
 46
0.0
 71
     7
 72
     1
  1
{\fＭＳ ゴシック|b0|i0|c128|p49;ＳＣＡＬＥ}
 73
     1
 44
1.0
  0
MTEXT
  5
C0
330
1F
100
AcDbEntity
  8
F-A_文字
  6
Continuous
 62
     7
370
     0
100
AcDbMText
 10
4439.917891251784
 20
-3887.143854850754
 30
0.0
 40
45.72
 41
240.0
 46
0.0
 71
     7
 72
     1
  1
{\fＭＳ ゴシック|b0|i0|c128|p49;ＤＡＴＥ}
 73
     1
 44
1.0
  0
MTEXT
  5
C1
330
1F
100
AcDbEntity
  8
F-A_文字
  6
Continuous
 62
     7
370
     0
100
AcDbMText
 10
3569.917643811961
 20
-3946.903115907308
 30
0.0
 40
76.19999999999999
 41
150.0
 46
0.0
 71
     7
 72
     1
  1
{\fＭＳ ゴシック|b0|i0|c128|p49;1/5}
 73
     1
 44
1.0
  0
MTEXT
  5
C2
330
1F
100
AcDbEntity
  8
F-A_文字
  6
Continuous
 62
     7
370
     0
100
AcDbMText
 10
2939.917396372139
 20
-4087.14246317786
 30
0.0
 40
45.72
 41
240.0
 46
0.0
 71
     7
 72
     1
  1
{\fＭＳ ゴシック|b0|i0|c128|p49;ＦＩＬＥ}
 73
     1
 44
1.0
  0
MTEXT
  5
C3
330
1F
100
AcDbEntity
  8
F-A_文字
  6
Continuous
 62
     7
370
     0
100
AcDbMText
 10
4439.917891251784
 20
-4087.143857410839
 30
0.0
 40
45.72
 41
180.0
 46
0.0
 71
     7
 72
     1
  1
{\fＭＳ ゴシック|b0|i0|c128|p49;ＮＯ．}
 73
     1
 44
1.0
  0
MTEXT
  5
C4
330
1F
100
AcDbEntity
  8
F-A_文字
  6
Continuous
 62
     7
370
     0
100
AcDbMText
 10
1394.917396372138
 20
-4096.140669266149
 30
0.0
 40
45.72
 41
120.0
 46
0.0
 71
     7
 72
     1
  1
{\fＭＳ ゴシック|b0|i0|c128|p49;株式}
 73
     1
 44
1.0
  0
MTEXT
  5
C5
330
1F
100
AcDbEntity
  8
F-A_文字
  6
Continuous
 62
     7
370
     0
100
AcDbMText
 10
1604.917396372138
 20
-4164.281754523929
 30
0.0
 40
101.44125
 41
1065.0
 46
0.0
 71
     7
 72
     1
  1
{\fＭＳ ゴシック|b0|i0|c128|p49;ウッドワン・・・}
 73
     1
 44
1.0
  0
MTEXT
  5
C6
330
1F
100
AcDbEntity
  8
F-A_文字
  6
Continuous
 62
     7
370
     0
100
AcDbMText
 10
1394.917396372138
 20
-4168.140669266187
 30
0.0
 40
45.72
 41
120.0
 46
0.0
 71
     7
 72
     1
  1
{\fＭＳ ゴシック|b0|i0|c128|p49;会社}
 73
     1
 44
1.0
  0
MTEXT
  5
C7
330
1F
100
AcDbEntity
  8
F-A_文字
  6
Continuous
 62
     7
370
     0
100
AcDbMText
 10
5768.321977672939
 20
-4314.841419020919
 30
0.0
 40
68.58
 41
90.0
 46
0.0
 71
     7
 72
     1
  1
{\fＭＳ ゴシック|b0|i0|c128|p49;）}
 73
     1
 44
1.0
  0
MTEXT
  5
C8
330
1F
100
AcDbEntity
  8
F-A_文字
  6
Continuous
 62
     7
370
     0
100
AcDbMText
 10
5350.114617405298
 20
-4316.235443869856
 30
0.0
 40
68.58
 41
45.0
 46
0.0
 71
     7
 72
     1
  1
{\fＭＳ ゴシック|b0|i0|c128|p49;,}
 73
     1
 44
1.0
  0
MTEXT
  5
C9
330
1F
100
AcDbEntity
  8
F-A_文字
  6
Continuous
 62
     7
370
     0
100
AcDbMText
 10
5083.855928478601
 20
-4314.771967288282
 30
0.0
 40
74.295
 41
97.5
 46
0.0
 71
     7
 72
     1
  1
{\fＭＳ ゴシック|b0|i0|c128|p49;$y}
 73
     1
 44
1.0
  0
MTEXT
  5
CA
330
1F
100
AcDbEntity
  8
F-A_文字
  6
Continuous
 62
     7
370
     0
100
AcDbMText
 10
5238.592649517422
 20
-4314.771967288282
 30
0.0
 40
74.295
 41
97.5
 46
0.0
 71
     7
 72
     1
  1
{\fＭＳ ゴシック|b0|i0|c128|p49;$m}
 73
     1
 44
1.0
  0
MTEXT
  5
CB
330
1F
100
AcDbEntity
  8
F-A_文字
  6
Continuous
 62
     7
370
     0
100
AcDbMText
 10
5393.32938200033
 20
-4314.771967288282
 30
0.0
 40
74.295
 41
97.5
 46
0.0
 71
     7
 72
     1
  1
{\fＭＳ ゴシック|b0|i0|c128|p49;$d}
 73
     1
 44
1.0
  0
MTEXT
  5
CC
330
1F
100
AcDbEntity
  8
F-A_文字
  6
Continuous
 62
     7
370
     0
100
AcDbMText
 10
5548.066114483239
 20
-4314.771967288282
 30
0.0
 40
74.295
 41
195.0
 46
0.0
 71
     7
 72
     1
  1
{\fＭＳ ゴシック|b0|i0|c128|p49;印刷}
 73
     1
 44
1.0
  0
MTEXT
  5
CD
330
1F
100
AcDbEntity
  8
F-A_文字
  6
Continuous
 62
     7
370
     0
100
AcDbMText
 10
4943.952040816226
 20
-4319.023493567732
 30
0.0
 40
68.58
 41
90.0
 46
0.0
 71
     7
 72
     1
  1
{\fＭＳ ゴシック|b0|i0|c128|p49;（}
 73
     1
 44
1.0
  0
MTEXT
  5
CE
330
1F
100
AcDbEntity
  8
F-A_文字
  6
Continuous
 62
     7
370
     0
100
AcDbMText
 10
5191.195810375571
 20
-4319.023493567732
 30
0.0
 40
68.58
 41
45.0
 46
0.0
 71
     7
 72
     1
  1
{\fＭＳ ゴシック|b0|i0|c128|p49;,}
 73
     1
 44
1.0
  0
LINE
  5
CF
330
1F
100
AcDbEntity
  8
0-2_柱
  6
Continuous
 62
    92
370
     5
100
AcDbLine
 10
2626.589336672863
 20
2171.96216897379
 30
0.0
 11
2626.589336672863
 21
2801.96216897379
 31
0.0
  0
LWPOLYLINE
  5
D0
330
1F
100
AcDbEntity
  8
0-B_寸法
  6
Continuous
 62
     7
370
     5
100
AcDbPolyline
 90
        4
 70
     1
 43
3.0
 10
2027.628755344643
 20
2951.96216897379
 42
0.4142135623731
 10
2026.128755344643
 20
2953.46216897379
 42
0.4142135623731
 10
2024.628755344643
 20
2951.96216897379
 42
0.4142135623731
 10
2026.128755344643
 20
2950.46216897379
 42
0.4142135623731
  0
LINE
  5
D1
330
1F
100
AcDbEntity
  8
0-C_ハッチ
  6
JWW_DASHED1
 62
   120
370
     5
100
AcDbLine
 10
1615.66477696213
 20
2096.962168973785
 30
0.0
 11
1690.664776962126
 21
2171.962168973781
 31
0.0
  0
LINE
  5
D2
330
1F
100
AcDbEntity
  8
0-C_ハッチ
  6
JWW_DASHED1
 62
   120
370
     5
100
AcDbLine
 10
1658.091183833342
 20
2096.962168973796
 30
0.0
 11
1733.091183833353
 21
2171.962168973808
 31
0.0
  0
LINE
  5
D3
330
1F
100
AcDbEntity
  8
0-C_ハッチ
  6
JWW_DASHED1
 62
   120
370
     5
100
AcDbLine
 10
1700.517590704538
 20
2096.962168973792
 30
0.0
 11
1775.517590704549
 21
2171.962168973806
 31
0.0
  0
LINE
  5
D4
330
1F
100
AcDbEntity
  8
0-C_ハッチ
  6
JWW_DASHED1
 62
   120
370
     5
100
AcDbLine
 10
1742.943997575749
 20
2096.962168973806
 30
0.0
 11
1817.943997575747
 21
2171.962168973801
 31
0.0
  0
LINE
  5
D5
330
1F
100
AcDbEntity
  8
0-C_ハッチ
  6
JWW_DASHED1
 62
   120
370
     5
100
AcDbLine
 10
1785.370404446947
 20
2096.962168973802
 30
0.0
 11
1860.370404446942
 21
2171.962168973797
 31
0.0
  0
LINE
  5
D6
330
1F
100
AcDbEntity
  8
0-C_ハッチ
  6
JWW_DASHED1
 62
   120
370
     5
100
AcDbLine
 10
1827.796811318087
 20
2096.962168973796
 30
0.0
 11
1902.79681131808
 21
2171.962168973792
 31
0.0
  0
LINE
  5
D7
330
1F
100
AcDbEntity
  8
0-C_ハッチ
  6
JWW_DASHED1
 62
   120
370
     5
100
AcDbLine
 10
1870.223218189284
 20
2096.962168973792
 30
0.0
 11
1945.223218189278
 21
2171.962168973787
 31
0.0
  0
LINE
  5
D8
330
1F
100
AcDbEntity
  8
0-C_ハッチ
  6
JWW_DASHED1
 62
   120
370
     5
100
AcDbLine
 10
1912.649625060481
 20
2096.962168973789
 30
0.0
 11
1987.649625060475
 21
2171.962168973786
 31
0.0
  0
LINE
  5
D9
330
1F
100
AcDbEntity
  8
0-C_ハッチ
  6
JWW_DASHED1
 62
   120
370
     5
100
AcDbLine
 10
1955.076031931688
 20
2096.962168973799
 30
0.0
 11
2030.076031931701
 21
2171.962168973811
 31
0.0
  0
LINE
  5
DA
330
1F
100
AcDbEntity
  8
0-C_ハッチ
  6
JWW_DASHED1
 62
   120
370
     5
100
AcDbLine
 10
1997.502438802885
 20
2096.962168973795
 30
0.0
 11
2072.502438802898
 21
2171.962168973806
 31
0.0
  0
LINE
  5
DB
330
1F
100
AcDbEntity
  8
0-C_ハッチ
  6
JWW_DASHED1
 62
   120
370
     5
100
AcDbLine
 10
2039.928845674081
 20
2096.962168973792
 30
0.0
 11
2114.928845674092
 21
2171.962168973802
 31
0.0
  0
LINE
  5
DC
330
1F
100
AcDbEntity
  8
0-C_ハッチ
  6
JWW_DASHED1
 62
   120
370
     5
100
AcDbLine
 10
2082.355252545294
 20
2096.962168973803
 30
0.0
 11
2157.355252545289
 21
2171.9621689738
 31
0.0
  0
LINE
  5
DD
330
1F
100
AcDbEntity
  8
0-C_ハッチ
  6
JWW_DASHED1
 62
   120
370
     5
100
AcDbLine
 10
2124.781659416491
 20
2096.9621689738
 30
0.0
 11
2199.781659416486
 21
2171.962168973794
 31
0.0
  0
LINE
  5
DE
330
1F
100
AcDbEntity
  8
0-C_ハッチ
  6
JWW_DASHED1
 62
   120
370
     5
100
AcDbLine
 10
2167.208066287633
 20
2096.962168973796
 30
0.0
 11
2242.20806628763
 21
2171.962168973792
 31
0.0
  0
LINE
  5
DF
330
1F
100
AcDbEntity
  8
0-C_ハッチ
  6
JWW_DASHED1
 62
   120
370
     5
100
AcDbLine
 10
2209.63447315883
 20
2096.962168973792
 30
0.0
 11
2284.634473158826
 21
2171.96216897379
 31
0.0
  0
LINE
  5
E0
330
1F
100
AcDbEntity
  8
0-C_ハッチ
  6
JWW_DASHED1
 62
   120
370
     5
100
AcDbLine
 10
2252.060880030026
 20
2096.962168973789
 30
0.0
 11
2327.060880030023
 21
2171.962168973786
 31
0.0
  0
LINE
  5
E1
330
1F
100
AcDbEntity
  8
0-C_ハッチ
  6
JWW_DASHED1
 62
   120
370
     5
100
AcDbLine
 10
2294.487286901233
 20
2096.962168973796
 30
0.0
 11
2369.487286901245
 21
2171.962168973808
 31
0.0
  0
LINE
  5
E2
330
1F
100
AcDbEntity
  8
0-C_ハッチ
  6
JWW_DASHED1
 62
   120
370
     5
100
AcDbLine
 10
2336.91369377243
 20
2096.962168973792
 30
0.0
 11
2411.91369377244
 21
2171.962168973804
 31
0.0
  0
LINE
  5
E3
330
1F
100
AcDbEntity
  8
0-C_ハッチ
  6
JWW_DASHED1
 62
   120
370
     5
100
AcDbLine
 10
2379.340100643626
 20
2096.962168973789
 30
0.0
 11
2454.340100643637
 21
2171.9621689738
 31
0.0
  0
LINE
  5
E4
330
1F
100
AcDbEntity
  8
0-C_ハッチ
  6
JWW_DASHED1
 62
   120
370
     5
100
AcDbLine
 10
2421.766507514838
 20
2096.962168973802
 30
0.0
 11
2496.766507514833
 21
2171.962168973797
 31
0.0
  0
LINE
  5
E5
330
1F
100
AcDbEntity
  8
0-C_ハッチ
  6
JWW_DASHED1
 62
   120
370
     5
100
AcDbLine
 10
2464.192914385982
 20
2096.9621689738
 30
0.0
 11
2539.192914385978
 21
2171.962168973797
 31
0.0
  0
LINE
  5
E6
330
1F
100
AcDbEntity
  8
0-C_ハッチ
  6
JWW_DASHED1
 62
   120
370
     5
100
AcDbLine
 10
2506.619321257178
 20
2096.962168973796
 30
0.0
 11
2581.619321257175
 21
2171.962168973792
 31
0.0
  0
LINE
  5
E7
330
1F
100
AcDbEntity
  8
0-C_ハッチ
  6
JWW_DASHED1
 62
   120
370
     5
100
AcDbLine
 10
2549.045728128375
 20
2096.962168973792
 30
0.0
 11
2624.045728128372
 21
2171.96216897379
 31
0.0
  0
LINE
  5
E8
330
1F
100
AcDbEntity
  8
0-C_ハッチ
  6
JWW_DASHED1
 62
   120
370
     5
100
AcDbLine
 10
2591.472134999578
 20
2096.962168973799
 30
0.0
 11
2666.472134999575
 21
2171.962168973792
 31
0.0
  0
LINE
  5
E9
330
1F
100
AcDbEntity
  8
0-C_ハッチ
  6
JWW_DASHED1
 62
   120
370
     5
100
AcDbLine
 10
2633.898541870777
 20
2096.962168973795
 30
0.0
 11
2708.898541870787
 21
2171.962168973806
 31
0.0
  0
LINE
  5
EA
330
1F
100
AcDbEntity
  8
0-C_ハッチ
  6
JWW_DASHED1
 62
   120
370
     5
100
AcDbLine
 10
2676.324948741972
 20
2096.962168973792
 30
0.0
 11
2751.324948741983
 21
2171.962168973801
 31
0.0
  0
LINE
  5
EB
330
1F
100
AcDbEntity
  8
0-C_ハッチ
  6
JWW_DASHED1
 62
   120
370
     5
100
AcDbLine
 10
2718.751355613185
 20
2096.962168973803
 30
0.0
 11
2793.751355613178
 21
2171.962168973799
 31
0.0
  0
LINE
  5
EC
330
1F
100
AcDbEntity
  8
0-C_ハッチ
  6
JWW_DASHED1
 62
   120
370
     5
100
AcDbLine
 10
2446.12875534461
 20
2842.573333613864
 30
0.0
 11
2480.517590704549
 21
2876.962168973806
 31
0.0
  0
LINE
  5
ED
330
1F
100
AcDbEntity
  8
0-C_ハッチ
  6
JWW_DASHED1
 62
   120
370
     5
100
AcDbLine
 10
2447.943997575752
 20
2801.962168973806
 30
0.0
 11
2522.943997575747
 21
2876.962168973801
 31
0.0
  0
LINE
  5
EE
330
1F
100
AcDbEntity
  8
0-C_ハッチ
  6
JWW_DASHED1
 62
   120
370
     5
100
AcDbLine
 10
2490.370404446949
 20
2801.962168973804
 30
0.0
 11
2565.370404446942
 21
2876.962168973797
 31
0.0
  0
LINE
  5
EF
330
1F
100
AcDbEntity
  8
0-C_ハッチ
  6
JWW_DASHED1
 62
   120
370
     5
100
AcDbLine
 10
2532.796811318085
 20
2801.962168973797
 30
0.0
 11
2607.79681131808
 21
2876.962168973792
 31
0.0
  0
LINE
  5
F0
330
1F
100
AcDbEntity
  8
0-C_ハッチ
  6
JWW_DASHED1
 62
   120
370
     5
100
AcDbLine
 10
2575.223218189282
 20
2801.962168973792
 30
0.0
 11
2650.223218189279
 21
2876.96216897379
 31
0.0
  0
LINE
  5
F1
330
1F
100
AcDbEntity
  8
0-C_ハッチ
  6
JWW_DASHED1
 62
   120
370
     5
100
AcDbLine
 10
2617.649625060481
 20
2801.96216897379
 30
0.0
 11
2692.649625060492
 21
2876.962168973801
 31
0.0
  0
LINE
  5
F2
330
1F
100
AcDbEntity
  8
0-C_ハッチ
  6
JWW_DASHED1
 62
   120
370
     5
100
AcDbLine
 10
2660.076031931689
 20
2801.9621689738
 30
0.0
 11
2735.076031931701
 21
2876.962168973811
 31
0.0
  0
LINE
  5
F3
330
1F
100
AcDbEntity
  8
0-C_ハッチ
  6
JWW_DASHED1
 62
   120
370
     5
100
AcDbLine
 10
2702.502438802886
 20
2801.962168973794
 30
0.0
 11
2777.502438802896
 21
2876.962168973806
 31
0.0
  0
LINE
  5
F4
330
1F
100
AcDbEntity
  8
0-C_ハッチ
  6
Continuous
 62
   120
370
     5
100
AcDbLine
 10
2269.127726613564
 20
2879.533398921509
 30
0.0
 11
2338.556496665834
 21
2948.962168973781
 31
0.0
  0
LINE
  5
F5
330
1F
100
AcDbEntity
  8
0-C_ハッチ
  6
Continuous
 62
   120
370
     5
100
AcDbLine
 10
2269.127726613559
 20
2811.651147927608
 30
0.0
 11
2406.438747659743
 21
2948.96216897379
 31
0.0
  0
LINE
  5
F6
330
1F
100
AcDbEntity
  8
0-C_ハッチ
  6
Continuous
 62
   120
370
     5
100
AcDbLine
 10
2269.12772661357
 20
2743.76889693372
 30
0.0
 11
2443.128755344624
 21
2917.769925664774
 31
0.0
  0
LINE
  5
F7
330
1F
100
AcDbEntity
  8
0-C_ハッチ
  6
Continuous
 62
   120
370
     5
100
AcDbLine
 10
2269.127726613575
 20
2404.35764196418
 30
0.0
 11
2446.128755344622
 21
2581.358670695227
 31
0.0
  0
LINE
  5
F8
330
1F
100
AcDbEntity
  8
0-4_枠
  6
Continuous
 62
    92
370
     5
100
AcDbLine
 10
2280.977403893973
 20
2951.96216897379
 30
0.0
 11
2266.128161489055
 21
2937.112926568871
 31
0.0
  0
LINE
  5
F9
330
1F
100
AcDbEntity
  8
0-4_枠
  6
Continuous
 62
    92
370
     5
100
AcDbLine
 10
2280.977403893973
 20
2951.96216897379
 30
0.0
 11
2446.128755344629
 21
2951.96216897379
 31
0.0
  0
LINE
  5
FA
330
1F
100
AcDbEntity
  8
0-4_枠
  6
Continuous
 62
    92
370
     5
100
AcDbLine
 10
2283.976969018483
 20
2948.96216897379
 30
0.0
 11
2269.127726613566
 21
2934.112926568871
 31
0.0
  0
LINE
  5
FB
330
1F
100
AcDbEntity
  8
0-4_枠
  6
Continuous
 62
    92
370
     5
100
AcDbLine
 10
2283.976969018483
 20
2948.96216897379
 30
0.0
 11
2443.128755344628
 21
2948.96216897379
 31
0.0
  0
LINE
  5
FC
330
1F
100
AcDbEntity
  8
0-4_枠
  6
Continuous
 62
    92
370
     5
100
AcDbLine
 10
2446.128755344629
 20
2861.96216897379
 30
0.0
 11
2443.128755344628
 21
2861.96216897379
 31
0.0
  0
LINE
  5
FD
330
1F
100
AcDbEntity
  8
0-4_枠
  6
Continuous
 62
    92
370
     5
100
AcDbLine
 10
2443.128755344628
 20
2948.96216897379
 30
0.0
 11
2443.128755344628
 21
2861.96216897379
 31
0.0
  0
LINE
  5
FE
330
1F
100
AcDbEntity
  8
0-B_寸法
  6
Continuous
 62
   120
370
     5
100
AcDbLine
 10
2026.315127019037
 20
2951.96216897379
 30
0.0
 11
2206.315127019037
 21
2951.96216897379
 31
0.0
  0
LINE
  5
FF
330
1F
100
AcDbEntity
  8
0-2_柱
  6
Continuous
 62
    92
370
     5
100
AcDbLine
 10
2446.128013025162
 20
2171.96216897379
 30
0.0
 11
2176.31438469957
 21
2171.96216897379
 31
0.0
  0
LINE
  5
100
330
1F
100
AcDbEntity
  8
0-2_柱
  6
Continuous
 62
     7
370
     5
100
AcDbLine
 10
2626.589336672863
 20
2801.96216897379
 30
0.0
 11
2446.128013025162
 21
2171.96216897379
 31
0.0
  0
LINE
  5
101
330
1F
100
AcDbEntity
  8
0-2_柱
  6
Continuous
 62
    92
370
     5
100
AcDbLine
 10
2446.128013025162
 20
2801.96216897379
 30
0.0
 11
2446.128013025162
 21
2171.96216897379
 31
0.0
  0
LINE
  5
102
330
1F
100
AcDbEntity
  8
0-4_枠
  6
Continuous
 62
    92
370
     5
100
AcDbLine
 10
2443.128755344628
 20
2435.962168973789
 30
0.0
 11
2446.128755344629
 21
2435.962168973789
 31
0.0
  0
LINE
  5
103
330
1F
100
AcDbEntity
  8
0-4_枠
  6
Continuous
 62
    92
370
     5
100
AcDbLine
 10
2266.128161489055
 20
2351.96216897379
 30
0.0
 11
2446.128755344629
 21
2351.96216897379
 31
0.0
  0
LINE
  5
104
330
1F
100
AcDbEntity
  8
0-4_枠
  6
Continuous
 62
    92
370
     5
100
AcDbLine
 10
2446.128755344629
 20
2351.96216897379
 30
0.0
 11
2446.128755344629
 21
2951.96216897379
 31
0.0
  0
LINE
  5
105
330
1F
100
AcDbEntity
  8
0-4_枠
  6
Continuous
 62
    92
370
     5
100
AcDbLine
 10
2443.128755344628
 20
2351.96216897379
 30
0.0
 11
2443.128755344628
 21
2435.962168973789
 31
0.0
  0
LINE
  5
106
330
1F
100
AcDbEntity
  8
0-B_寸法
  6
Continuous
 62
   120
370
     5
100
AcDbLine
 10
2022.28166021125
 20
2351.962168973802
 30
0.0
 11
2206.128755344643
 21
2351.96216897379
 31
0.0
  0
LWPOLYLINE
  5
107
330
1F
100
AcDbEntity
  8
0-B_寸法
  6
Continuous
 62
     7
370
     5
100
AcDbPolyline
 90
        4
 70
     1
 43
3.0
 10
2027.628755344643
 20
2351.96216897379
 42
0.4142135623731
 10
2026.128755344643
 20
2353.46216897379
 42
0.4142135623731
 10
2024.628755344643
 20
2351.96216897379
 42
0.4142135623731
 10
2026.128755344643
 20
2350.46216897379
 42
0.4142135623731
  0
LINE
  5
108
330
1F
100
AcDbEntity
  8
0-B_寸法
  6
Continuous
 62
   120
370
     5
100
AcDbLine
 10
2026.128755344643
 20
2951.96216897379
 30
0.0
 11
2026.128755344643
 21
2351.96216897379
 31
0.0
  0
LINE
  5
109
330
1F
100
AcDbEntity
  8
0-4_枠
  6
Continuous
 62
    92
370
     5
100
AcDbLine
 10
2305.128161489057
 20
2474.962168973789
 30
0.0
 11
2305.128161489057
 21
2726.962168973788
 31
0.0
  0
LINE
  5
10A
330
1F
100
AcDbEntity
  8
0-4_枠
  6
Continuous
 62
    92
370
     5
100
AcDbLine
 10
2302.128161489055
 20
2477.96216897379
 30
0.0
 11
2302.128161489055
 21
2723.96216897379
 31
0.0
  0
LINE
  5
10B
330
1F
100
AcDbEntity
  8
0-4_枠
  6
Continuous
 62
    92
370
     5
100
AcDbLine
 10
2302.128161489055
 20
2723.96216897379
 30
0.0
 11
2266.128161489055
 21
2723.96216897379
 31
0.0
  0
LINE
  5
10C
330
1F
100
AcDbEntity
  8
0-4_枠
  6
Continuous
 62
    92
370
     5
100
AcDbLine
 10
2266.128161489055
 20
2937.112926568871
 30
0.0
 11
2266.128161489055
 21
2723.96216897379
 31
0.0
  0
LINE
  5
10D
330
1F
100
AcDbEntity
  8
0-4_枠
  6
Continuous
 62
    92
370
     5
100
AcDbLine
 10
2305.128161489057
 20
2726.962168973788
 30
0.0
 11
2269.127726613566
 21
2726.962168973788
 31
0.0
  0
LINE
  5
10E
330
1F
100
AcDbEntity
  8
0-4_枠
  6
Continuous
 62
    92
370
     5
100
AcDbLine
 10
2269.127726613566
 20
2934.112926568871
 30
0.0
 11
2269.127726613566
 21
2726.962168973788
 31
0.0
  0
LINE
  5
10F
330
1F
100
AcDbEntity
  8
0-4_枠
  6
Continuous
 62
    92
370
     5
100
AcDbLine
 10
2266.128161489055
 20
2477.96216897379
 30
0.0
 11
2266.128161489055
 21
2351.96216897379
 31
0.0
  0
LINE
  5
110
330
1F
100
AcDbEntity
  8
0-4_枠
  6
Continuous
 62
    92
370
     5
100
AcDbLine
 10
2302.128161489055
 20
2477.96216897379
 30
0.0
 11
2266.128161489055
 21
2477.96216897379
 31
0.0
  0
LINE
  5
111
330
1F
100
AcDbEntity
  8
0-4_枠
  6
Continuous
 62
    92
370
     5
100
AcDbLine
 10
2305.128161489057
 20
2474.962168973789
 30
0.0
 11
2269.127726613566
 21
2474.962168973789
 31
0.0
  0
LINE
  5
112
330
1F
100
AcDbEntity
  8
0-4_枠
  6
Continuous
 62
    92
370
     5
100
AcDbLine
 10
2269.127726613566
 20
2474.962168973789
 30
0.0
 11
2269.127726613566
 21
2351.96216897379
 31
0.0
  0
LINE
  5
113
330
1F
100
AcDbEntity
  8
0-C_ハッチ
  6
Continuous
 62
   120
370
     5
100
AcDbLine
 10
2305.128161489057
 20
2711.887080815309
 30
0.0
 11
2446.128755344621
 21
2852.887674670873
 31
0.0
  0
LINE
  5
114
330
1F
100
AcDbEntity
  8
0-C_ハッチ
  6
Continuous
 62
   120
370
     5
100
AcDbLine
 10
2305.128161489057
 20
2508.24032783356
 30
0.0
 11
2446.128755344629
 21
2649.24092168913
 31
0.0
  0
LINE
  5
115
330
1F
100
AcDbEntity
  8
0-C_ハッチ
  6
Continuous
 62
   120
370
     5
100
AcDbLine
 10
2305.128161489057
 20
2644.004829821411
 30
0.0
 11
2446.128755344617
 21
2785.00542367697
 31
0.0
  0
LINE
  5
116
330
1F
100
AcDbEntity
  8
0-C_ハッチ
  6
Continuous
 62
   120
370
     5
100
AcDbLine
 10
2305.128161489057
 20
2576.122578827458
 30
0.0
 11
2446.128755344636
 21
2717.123172683037
 31
0.0
  0
LINE
  5
117
330
1F
100
AcDbEntity
  8
0-C_ハッチ
  6
Continuous
 62
   120
370
     5
100
AcDbLine
 10
2284.614504617083
 20
2351.96216897379
 30
0.0
 11
2446.128755344615
 21
2513.476419701322
 31
0.0
  0
LINE
  5
118
330
1F
100
AcDbEntity
  8
0-C_ハッチ
  6
Continuous
 62
   120
370
     5
100
AcDbLine
 10
2352.496755610981
 20
2351.96216897379
 30
0.0
 11
2446.128755344621
 21
2445.594168707429
 31
0.0
  0
LINE
  5
119
330
1F
100
AcDbEntity
  8
0-C_ハッチ
  6
JWW_DASHED1
 62
   120
370
     5
100
AcDbLine
 10
2210.076031931691
 20
2351.962168973787
 30
0.0
 11
2266.128755344625
 21
2408.014892386721
 31
0.0
  0
LINE
  5
11A
330
1F
100
AcDbEntity
  8
0-C_ハッチ
  6
JWW_DASHED1
 62
   120
370
     5
100
AcDbLine
 10
2252.502438802906
 20
2351.962168973787
 30
0.0
 11
2266.128161489055
 21
2365.587891659937
 31
0.0
  0
LINE
  5
11B
330
1F
100
AcDbEntity
  8
0-C_ハッチ
  6
JWW_DASHED1
 62
   120
370
     5
100
AcDbLine
 10
1616.106335735003
 20
2351.962168973804
 30
0.0
 11
1691.106335734996
 21
2426.962168973799
 31
0.0
  0
LINE
  5
11C
330
1F
100
AcDbEntity
  8
0-C_ハッチ
  6
JWW_DASHED1
 62
   120
370
     5
100
AcDbLine
 10
1658.532742606201
 20
2351.962168973802
 30
0.0
 11
1733.532742606196
 21
2426.962168973799
 31
0.0
  0
LINE
  5
11D
330
1F
100
AcDbEntity
  8
0-C_ハッチ
  6
JWW_DASHED1
 62
   120
370
     5
100
AcDbLine
 10
1700.9591494774
 20
2351.9621689738
 30
0.0
 11
1775.959149477394
 21
2426.962168973797
 31
0.0
  0
LINE
  5
11E
330
1F
100
AcDbEntity
  8
0-C_ハッチ
  6
JWW_DASHED1
 62
   120
370
     5
100
AcDbLine
 10
1743.385556348596
 20
2351.962168973797
 30
0.0
 11
1818.385556348591
 21
2426.962168973792
 31
0.0
  0
LINE
  5
11F
330
1F
100
AcDbEntity
  8
0-C_ハッチ
  6
JWW_DASHED1
 62
   120
370
     5
100
AcDbLine
 10
1785.811963219733
 20
2351.962168973788
 30
0.0
 11
1860.811963219745
 21
2426.962168973801
 31
0.0
  0
LINE
  5
120
330
1F
100
AcDbEntity
  8
0-C_ハッチ
  6
JWW_DASHED1
 62
   120
370
     5
100
AcDbLine
 10
1828.238370090929
 20
2351.962168973786
 30
0.0
 11
1903.238370090942
 21
2426.962168973797
 31
0.0
  0
LINE
  5
121
330
1F
100
AcDbEntity
  8
0-C_ハッチ
  6
JWW_DASHED1
 62
   120
370
     5
100
AcDbLine
 10
1870.664776962142
 20
2351.962168973799
 30
0.0
 11
1945.66477696214
 21
2426.962168973794
 31
0.0
  0
LINE
  5
122
330
1F
100
AcDbEntity
  8
0-C_ハッチ
  6
JWW_DASHED1
 62
   120
370
     5
100
AcDbLine
 10
1913.091183833347
 20
2351.962168973802
 30
0.0
 11
1988.091183833342
 21
2426.962168973797
 31
0.0
  0
LINE
  5
123
330
1F
100
AcDbEntity
  8
0-C_ハッチ
  6
JWW_DASHED1
 62
   120
370
     5
100
AcDbLine
 10
1955.517590704542
 20
2351.962168973799
 30
0.0
 11
2030.517590704539
 21
2426.962168973792
 31
0.0
  0
LINE
  5
124
330
1F
100
AcDbEntity
  8
0-C_ハッチ
  6
JWW_DASHED1
 62
   120
370
     5
100
AcDbLine
 10
1997.943997575749
 20
2351.962168973806
 30
0.0
 11
2072.943997575745
 21
2426.962168973801
 31
0.0
  0
LINE
  5
125
330
1F
100
AcDbEntity
  8
0-C_ハッチ
  6
JWW_DASHED1
 62
   120
370
     5
100
AcDbLine
 10
2040.370404446947
 20
2351.962168973801
 30
0.0
 11
2115.370404446942
 21
2426.962168973797
 31
0.0
  0
LINE
  5
126
330
1F
100
AcDbEntity
  8
0-C_ハッチ
  6
JWW_DASHED1
 62
   120
370
     5
100
AcDbLine
 10
2082.796811318085
 20
2351.962168973794
 30
0.0
 11
2157.796811318095
 21
2426.962168973806
 31
0.0
  0
LINE
  5
127
330
1F
100
AcDbEntity
  8
0-C_ハッチ
  6
JWW_DASHED1
 62
   120
370
     5
100
AcDbLine
 10
2125.22321818928
 20
2351.96216897379
 30
0.0
 11
2200.223218189294
 21
2426.962168973804
 31
0.0
  0
LINE
  5
128
330
1F
100
AcDbEntity
  8
0-C_ハッチ
  6
JWW_DASHED1
 62
   120
370
     5
100
AcDbLine
 10
2167.649625060479
 20
2351.962168973787
 30
0.0
 11
2242.649625060491
 21
2426.9621689738
 31
0.0
  0
LINE
  5
129
330
1F
100
AcDbEntity
  8
0-2_柱
  6
Continuous
 62
     7
370
     5
100
AcDbLine
 10
2446.128013025162
 20
2351.96216897379
 30
0.0
 11
2176.31438469957
 21
2171.96216897379
 31
0.0
  0
LINE
  5
12A
330
1F
100
AcDbEntity
  8
0-2_柱
  6
Continuous
 62
    92
370
     5
100
AcDbLine
 10
2176.31438469957
 20
2171.96216897379
 30
0.0
 11
2176.31438469957
 21
2351.96216897379
 31
0.0
  0
LINE
  5
12B
330
1F
100
AcDbEntity
  8
0-2_柱
  6
Continuous
 62
    92
370
     5
100
AcDbLine
 10
2176.31438469957
 20
2351.96216897379
 30
0.0
 11
2446.128013025162
 21
2351.96216897379
 31
0.0
  0
LINE
  5
12C
330
1F
100
AcDbEntity
  8
0-C_ハッチ
  6
Continuous
 62
   120
370
     5
100
AcDbLine
 10
2420.379006604934
 20
2351.96216897379
 30
0.0
 11
2443.128755344628
 21
2374.711917713483
 31
0.0
  0
LINE
  5
12D
330
1F
100
AcDbEntity
  8
0-7_金物
  6
Continuous
 62
     7
370
     5
100
AcDbLine
 10
2332.128161489055
 20
2615.962168973789
 30
0.0
 11
2332.128161489055
 21
2585.962168973789
 31
0.0
  0
LINE
  5
12E
330
1F
100
AcDbEntity
  8
0-7_金物
  6
Continuous
 62
     7
370
     5
100
AcDbLine
 10
2302.128161489055
 20
2645.962168973789
 30
0.0
 11
2284.128161489058
 21
2645.962168973789
 31
0.0
  0
LINE
  5
12F
330
1F
100
AcDbEntity
  8
0-7_金物
  6
Continuous
 62
     7
370
     5
100
AcDbLine
 10
2284.128161489058
 20
2555.962168973789
 30
0.0
 11
2302.128161489055
 21
2555.962168973789
 31
0.0
  0
LINE
  5
130
330
1F
100
AcDbEntity
  8
0-7_金物
  6
Continuous
 62
     7
370
     5
100
AcDbLine
 10
2302.128161489055
 20
2555.962168973789
 30
0.0
 11
2302.128161489055
 21
2645.962168973789
 31
0.0
  0
LINE
  5
131
330
1F
100
AcDbEntity
  8
0-7_金物
  6
Continuous
 62
     7
370
     5
100
AcDbLine
 10
2302.128161489055
 20
2615.962168973789
 30
0.0
 11
2332.128161489055
 21
2615.962168973789
 31
0.0
  0
LINE
  5
132
330
1F
100
AcDbEntity
  8
0-7_金物
  6
Continuous
 62
     7
370
     5
100
AcDbLine
 10
2332.128161489055
 20
2585.962168973789
 30
0.0
 11
2302.128161489055
 21
2585.962168973789
 31
0.0
  0
ARC
  5
133
330
1F
100
AcDbEntity
  8
0-7_金物
  6
Continuous
 62
     7
370
     5
100
AcDbCircle
 10
2449.878161489054
 20
2600.962168973789
 30
0.0
 40
171.7499999999977
100
AcDbArc
 50
164.8107132628169
 51
195.1892867371831
  0
LINE
  5
134
330
1F
100
AcDbEntity
  8
0-6_扉
  6
JWW_DASHED2
 62
    40
370
     5
100
AcDbLine
 10
2284.128161489058
 20
2510.962168973789
 30
0.0
 11
2284.128161489058
 21
2690.962168973789
 31
0.0
  0
LWPOLYLINE
  5
135
330
1F
100
AcDbEntity
  8
0-B_寸法
  6
Continuous
 62
     7
370
     5
100
AcDbPolyline
 90
        4
 70
     1
 43
3.0
 10
2267.628161489055
 20
1481.962168806181
 42
0.4142135623731
 10
2266.128161489055
 20
1483.462168806181
 42
0.4142135623731
 10
2264.628161489055
 20
1481.962168806181
 42
0.4142135623731
 10
2266.128161489055
 20
1480.462168806181
 42
0.4142135623731
  0
LINE
  5
136
330
1F
100
AcDbEntity
  8
0-B_寸法
  6
Continuous
 62
   120
370
     5
100
AcDbLine
 10
2266.128161489055
 20
1271.962168806181
 30
0.0
 11
2266.128161489055
 21
1841.962168806181
 31
0.0
  0
LINE
  5
137
330
1F
100
AcDbEntity
  8
0-B_寸法
  6
Continuous
 62
   120
370
     5
100
AcDbLine
 10
2446.128013025162
 20
1271.962168806181
 30
0.0
 11
2266.128161489055
 21
1271.962168806181
 31
0.0
  0
LWPOLYLINE
  5
138
330
1F
100
AcDbEntity
  8
0-B_寸法
  6
Continuous
 62
     7
370
     5
100
AcDbPolyline
 90
        4
 70
     1
 43
3.0
 10
2447.628013025161
 20
1271.962168806181
 42
0.4142135623731
 10
2446.128013025162
 20
1273.462168806181
 42
0.4142135623731
 10
2444.628013025162
 20
1271.962168806181
 42
0.4142135623731
 10
2446.128013025162
 20
1270.462168806181
 42
0.4142135623731
  0
LWPOLYLINE
  5
139
330
1F
100
AcDbEntity
  8
0-B_寸法
  6
Continuous
 62
     7
370
     5
100
AcDbPolyline
 90
        4
 70
     1
 43
3.0
 10
2267.628161489055
 20
1271.962168806181
 42
0.4142135623731
 10
2266.128161489055
 20
1273.462168806181
 42
0.4142135623731
 10
2264.628161489055
 20
1271.962168806181
 42
0.4142135623731
 10
2266.128161489055
 20
1270.462168806181
 42
0.4142135623731
  0
LINE
  5
13A
330
1F
100
AcDbEntity
  8
0-B_寸法
  6
Continuous
 62
   120
370
     5
100
AcDbLine
 10
2446.128013025162
 20
1061.962168806181
 30
0.0
 11
2446.128013025162
 21
1841.962168806181
 31
0.0
  0
MTEXT
  5
13B
330
1F
100
AcDbEntity
  8
0-B_寸法
  6
Continuous
 62
     7
370
   211
100
AcDbMText
 10
2292.378087257108
 20
1260.539668806181
 30
0.0
 40
97.15499999999999
 41
127.5
 46
0.0
 71
     7
 72
     1
  1
{\fＭＳ ゴシック|b0|i0|c128|p49;30}
 73
     1
 44
1.0
  0
LWPOLYLINE
  5
13C
330
1F
100
AcDbEntity
  8
0-B_寸法
  6
Continuous
 62
     7
370
     5
100
AcDbPolyline
 90
        4
 70
     1
 43
3.0
 10
2447.628013025161
 20
1061.962168806181
 42
0.4142135623731
 10
2446.128013025162
 20
1063.462168806181
 42
0.4142135623731
 10
2444.628013025162
 20
1061.962168806181
 42
0.4142135623731
 10
2446.128013025162
 20
1060.462168806181
 42
0.4142135623731
  0
LINE
  5
13D
330
1F
100
AcDbEntity
  8
0-0_補助線
  6
JWW_HOJO
 62
   120
370
     5
100
AcDbLine
 10
2806.589336672863
 20
1061.962168806181
 30
0.0
 11
2806.589336672863
 21
3131.96162460618
 31
0.0
  0
LINE
  5
13E
330
1F
100
AcDbEntity
  8
0-C_ハッチ
  6
JWW_DASHED1
 62
   120
370
     5
100
AcDbLine
 10
2803.604169355529
 20
2096.962168973802
 30
0.0
 11
2806.589336672863
 21
2099.947336291137
 31
0.0
  0
LINE
  5
13F
330
1F
100
AcDbEntity
  8
0-3_仕上げ
  6
Continuous
 62
    40
370
     5
100
AcDbLine
 10
2446.128013025162
 20
2876.96216897379
 30
0.0
 11
2806.589336672863
 21
2876.96216897379
 31
0.0
  0
LINE
  5
140
330
1F
100
AcDbEntity
  8
0-C_ハッチ
  6
JWW_DASHED1
 62
   120
370
     5
100
AcDbLine
 10
2761.177762484382
 20
2096.9621689738
 30
0.0
 11
2806.589336672863
 21
2142.373743162282
 31
0.0
  0
LINE
  5
141
330
1F
100
AcDbEntity
  8
0-C_ハッチ
  6
JWW_DASHED1
 62
   120
370
     5
100
AcDbLine
 10
2744.928845674098
 20
2801.962168973806
 30
0.0
 11
2806.589336672863
 21
2863.622659972573
 31
0.0
  0
LINE
  5
142
330
1F
100
AcDbEntity
  8
0-C_ハッチ
  6
JWW_DASHED1
 62
   120
370
     5
100
AcDbLine
 10
2787.355252545294
 20
2801.962168973804
 30
0.0
 11
2806.589336672863
 21
2821.196253101374
 31
0.0
  0
LINE
  5
143
330
1F
100
AcDbEntity
  8
0-3_仕上げ
  6
Continuous
 62
    40
370
     5
100
AcDbLine
 10
2446.128013025162
 20
2801.96216897379
 30
0.0
 11
2806.589336672863
 21
2801.96216897379
 31
0.0
  0
MTEXT
  5
144
330
1F
100
AcDbEntity
  8
0-B_寸法
  6
Continuous
 62
     7
370
     5
100
AcDbMText
 10
2086.589336672863
 20
886.5239004170076
 30
0.0
 40
68.58000000000001
 41
720.0
 46
0.0
 71
     7
 72
     1
  1
{\fＭＳ ゴシック|b0|i0|c128|p49;※図示：左引き手}
 73
     1
 44
1.0
  0
MTEXT
  5
145
330
1F
100
AcDbEntity
  8
0-B_寸法
  6
Continuous
 62
     7
370
   211
100
AcDbMText
 10
2026.128755344643
 20
2581.49216897379
 30
0.0
 40
99.06
 41
195.0
 46
0.0
 71
     7
 72
     1
  1
{\fＭＳ ゴシック|b0|i0|c128|p49;100}
 11
6.123031769111886E-17
 21
1.0
 31
0.0
 73
     1
 44
1.0
  0
LINE
  5
146
330
1F
100
AcDbEntity
  8
0-5_ケーシング
  6
Continuous
 62
    92
370
     5
100
AcDbLine
 10
-2084.291075802424
 20
2498.96216897379
 30
0.0
 11
-2084.291075802424
 21
2510.962168973789
 31
0.0
  0
LINE
  5
147
330
1F
100
AcDbEntity
  8
0-5_ケーシング
  6
Continuous
 62
    92
370
     5
100
AcDbLine
 10
-2084.291075802424
 20
2702.962168973789
 30
0.0
 11
-2084.291075802424
 21
2690.962168973789
 31
0.0
  0
LINE
  5
148
330
1F
100
AcDbEntity
  8
0-6_扉
  6
Continuous
 62
   200
370
     5
100
AcDbLine
 10
-2264.291075802424
 20
2690.962168973789
 30
0.0
 11
-2264.291075802424
 21
2510.962168973789
 31
0.0
  0
ARC
  5
149
330
1F
100
AcDbEntity
  8
0-5_ケーシング
  6
Continuous
 62
    92
370
     5
100
AcDbCircle
 10
-1838.291075802422
 20
2498.96216897379
 30
0.0
 40
6.0
100
AcDbArc
 50
270.0
 51
0.0
  0
LINE
  5
14A
330
1F
100
AcDbEntity
  8
0-5_ケーシング
  6
Continuous
 62
    92
370
     5
100
AcDbLine
 10
-1832.291075802427
 20
2498.96216897379
 30
0.0
 11
-1832.291075802427
 21
2510.962168973789
 31
0.0
  0
LINE
  5
14B
330
1F
100
AcDbEntity
  8
0-5_ケーシング
  6
Continuous
 62
    92
370
     5
100
AcDbLine
 10
-1838.291075802422
 20
2492.96216897379
 30
0.0
 11
-2078.291075802422
 21
2492.96216897379
 31
0.0
  0
ARC
  5
14C
330
1F
100
AcDbEntity
  8
0-5_ケーシング
  6
Continuous
 62
    92
370
     5
100
AcDbCircle
 10
-2078.291075802422
 20
2498.96216897379
 30
0.0
 40
6.0
100
AcDbArc
 50
180.0
 51
270.0
  0
CIRCLE
  5
14D
330
1F
100
AcDbEntity
  8
0-5_ケーシング
  6
JWW_DASHED1
 62
    92
370
     5
100
AcDbCircle
 10
-1958.291075802422
 20
2186.96216897379
 30
0.0
 40
66.0
  0
LINE
  5
14E
330
1F
100
AcDbEntity
  8
0-5_ケーシング
  6
Continuous
 62
    92
370
     5
100
AcDbLine
 10
-2013.791075802426
 20
2265.293197308672
 30
0.0
 11
-2039.291075802423
 21
2492.96216897379
 31
0.0
  0
LINE
  5
14F
330
1F
100
AcDbEntity
  8
0-5_ケーシング
  6
Continuous
 62
    92
370
     5
100
AcDbLine
 10
-1902.791075802425
 20
2265.293197308672
 30
0.0
 11
-1877.291075802427
 21
2492.96216897379
 31
0.0
  0
LINE
  5
150
330
1F
100
AcDbEntity
  8
0-5_ケーシング
  6
Continuous
 62
    92
370
     5
100
AcDbLine
 10
-1832.291075802427
 20
2510.962168973789
 30
0.0
 11
-2084.291075802424
 21
2510.962168973789
 31
0.0
  0
CIRCLE
  5
151
330
1F
100
AcDbEntity
  8
0-5_ケーシング
  6
Continuous
 62
    92
370
     5
100
AcDbCircle
 10
-1958.291075802422
 20
2186.96216897379
 30
0.0
 40
96.0
  0
ARC
  5
152
330
1F
100
AcDbEntity
  8
0-5_ケーシング
  6
Continuous
 62
    92
370
     5
100
AcDbCircle
 10
-2078.291075802422
 20
2702.962168973789
 30
0.0
 40
6.0
100
AcDbArc
 50
90.0
 51
180.0
  0
LINE
  5
153
330
1F
100
AcDbEntity
  8
0-5_ケーシング
  6
Continuous
 62
    92
370
     5
100
AcDbLine
 10
-2078.291075802422
 20
2708.96216897379
 30
0.0
 11
-1838.291075802422
 21
2708.96216897379
 31
0.0
  0
ARC
  5
154
330
1F
100
AcDbEntity
  8
0-5_ケーシング
  6
Continuous
 62
    92
370
     5
100
AcDbCircle
 10
-1838.291075802422
 20
2702.962168973789
 30
0.0
 40
6.0
100
AcDbArc
 50
0.0
 51
90.0
  0
LINE
  5
155
330
1F
100
AcDbEntity
  8
0-5_ケーシング
  6
Continuous
 62
    92
370
     5
100
AcDbLine
 10
-1832.291075802427
 20
2702.962168973789
 30
0.0
 11
-1832.291075802427
 21
2690.962168973789
 31
0.0
  0
CIRCLE
  5
156
330
1F
100
AcDbEntity
  8
0-5_ケーシング
  6
JWW_DASHED1
 62
    92
370
     5
100
AcDbCircle
 10
-1958.291075802422
 20
3014.962168973789
 30
0.0
 40
66.0
  0
LINE
  5
157
330
1F
100
AcDbEntity
  8
0-5_ケーシング
  6
Continuous
 62
    92
370
     5
100
AcDbLine
 10
-1902.791075802425
 20
2936.631140638907
 30
0.0
 11
-1877.291075802427
 21
2708.96216897379
 31
0.0
  0
LINE
  5
158
330
1F
100
AcDbEntity
  8
0-5_ケーシング
  6
Continuous
 62
    92
370
     5
100
AcDbLine
 10
-2013.791075802426
 20
2936.631140638907
 30
0.0
 11
-2039.291075802423
 21
2708.96216897379
 31
0.0
  0
LINE
  5
159
330
1F
100
AcDbEntity
  8
0-5_ケーシング
  6
Continuous
 62
    92
370
     5
100
AcDbLine
 10
-2084.291075802424
 20
2690.962168973789
 30
0.0
 11
-1832.291075802427
 21
2690.962168973789
 31
0.0
  0
CIRCLE
  5
15A
330
1F
100
AcDbEntity
  8
0-5_ケーシング
  6
Continuous
 62
    92
370
     5
100
AcDbCircle
 10
-1958.291075802422
 20
3014.962168973789
 30
0.0
 40
96.0
  0
LINE
  5
15B
330
1F
100
AcDbEntity
  8
0-6_扉
  6
Continuous
 62
   200
370
     5
100
AcDbLine
 10
-2264.291075802424
 20
2510.962168973789
 30
0.0
 11
-2226.516279170534
 21
2510.962168973789
 31
0.0
  0
LINE
  5
15C
330
1F
100
AcDbEntity
  8
0-C_ハッチ
  6
JWW_DASHED1
 62
   120
370
     5
100
AcDbLine
 10
-2448.156278707044
 20
2096.962168973802
 30
0.0
 11
-2426.290927338543
 21
2118.8275203423
 31
0.0
  0
LINE
  5
15D
330
1F
100
AcDbEntity
  8
0-C_ハッチ
  6
JWW_DASHED1
 62
   120
370
     5
100
AcDbLine
 10
-2490.582685578257
 20
2096.962168973788
 30
0.0
 11
-2426.290927338543
 21
2161.253927213501
 31
0.0
  0
LINE
  5
15E
330
1F
100
AcDbEntity
  8
0-C_ハッチ
  6
JWW_DASHED1
 62
   120
370
     5
100
AcDbLine
 10
-2533.009092449451
 20
2096.962168973789
 30
0.0
 11
-2458.009092449437
 21
2171.962168973804
 31
0.0
  0
LINE
  5
15F
330
1F
100
AcDbEntity
  8
0-C_ハッチ
  6
JWW_DASHED1
 62
   120
370
     5
100
AcDbLine
 10
-2575.435499320603
 20
2096.962168973787
 30
0.0
 11
-2500.43549932061
 21
2171.962168973781
 31
0.0
  0
LINE
  5
160
330
1F
100
AcDbEntity
  8
0-C_ハッチ
  6
JWW_DASHED1
 62
   120
370
     5
100
AcDbLine
 10
-2617.861906191796
 20
2096.96216897379
 30
0.0
 11
-2542.861906191803
 21
2171.962168973786
 31
0.0
  0
LINE
  5
161
330
1F
100
AcDbEntity
  8
0-C_ハッチ
  6
JWW_DASHED1
 62
   120
370
     5
100
AcDbLine
 10
-2660.288313063003
 20
2096.962168973785
 30
0.0
 11
-2585.288313063003
 21
2171.962168973783
 31
0.0
  0
LINE
  5
162
330
1F
100
AcDbEntity
  8
0-C_ハッチ
  6
JWW_DASHED1
 62
   120
370
     5
100
AcDbLine
 10
-2702.714719934203
 20
2096.962168973786
 30
0.0
 11
-2627.714719934203
 21
2171.962168973785
 31
0.0
  0
LINE
  5
163
330
1F
100
AcDbEntity
  8
0-C_ハッチ
  6
JWW_DASHED1
 62
   120
370
     5
100
AcDbLine
 10
-2745.141126805403
 20
2096.962168973788
 30
0.0
 11
-2670.141126805403
 21
2171.962168973786
 31
0.0
  0
LINE
  5
164
330
1F
100
AcDbEntity
  8
0-C_ハッチ
  6
JWW_DASHED1
 62
   120
370
     5
100
AcDbLine
 10
-2786.290927338522
 20
2098.238775311866
 30
0.0
 11
-2712.567533676603
 21
2171.962168973788
 31
0.0
  0
LINE
  5
165
330
1F
100
AcDbEntity
  8
0-C_ハッチ
  6
JWW_DASHED1
 62
   120
370
     5
100
AcDbLine
 10
-2786.290927338515
 20
2140.665182183071
 30
0.0
 11
-2754.993940547796
 21
2171.96216897379
 31
0.0
  0
LINE
  5
166
330
1F
100
AcDbEntity
  8
0-3_仕上げ
  6
Continuous
 62
    40
370
     5
100
AcDbLine
 10
-2786.290927338522
 20
2096.962168973789
 30
0.0
 11
-2426.290927338529
 21
2096.962168973789
 31
0.0
  0
LINE
  5
167
330
1F
100
AcDbEntity
  8
0-3_仕上げ
  6
Continuous
 62
    40
370
     5
100
AcDbLine
 10
-2426.290927338529
 20
2096.962168973789
 30
0.0
 11
-2426.290927338529
 21
2171.96216897379
 31
0.0
  0
LINE
  5
168
330
1F
100
AcDbEntity
  8
0-3_仕上げ
  6
Continuous
 62
    40
370
     5
100
AcDbLine
 10
-2786.290927338522
 20
2171.96216897379
 30
0.0
 11
-2426.290927338529
 21
2171.96216897379
 31
0.0
  0
LINE
  5
169
330
1F
100
AcDbEntity
  8
0-3_仕上げ
  6
Continuous
 62
    40
370
     5
100
AcDbLine
 10
-2786.290927338522
 20
2876.96216897379
 30
0.0
 11
-2426.290927338529
 21
2876.96216897379
 31
0.0
  0
LINE
  5
16A
330
1F
100
AcDbEntity
  8
0-3_仕上げ
  6
Continuous
 62
    40
370
     5
100
AcDbLine
 10
-2786.290927338522
 20
2801.96216897379
 30
0.0
 11
-2426.290927338529
 21
2801.96216897379
 31
0.0
  0
LINE
  5
16B
330
1F
100
AcDbEntity
  8
0-3_仕上げ
  6
Continuous
 62
    40
370
     5
100
AcDbLine
 10
-2426.290927338529
 20
2801.96216897379
 30
0.0
 11
-2426.290927338529
 21
2876.96216897379
 31
0.0
  0
LINE
  5
16C
330
1F
100
AcDbEntity
  8
0-C_ハッチ
  6
JWW_DASHED1
 62
   120
370
     5
100
AcDbLine
 10
-2466.537229873294
 20
2801.962168973786
 30
0.0
 11
-2426.290927338536
 21
2842.208471508543
 31
0.0
  0
LINE
  5
16D
330
1F
100
AcDbEntity
  8
0-C_ハッチ
  6
JWW_DASHED1
 62
   120
370
     5
100
AcDbLine
 10
-2508.963636744494
 20
2801.962168973788
 30
0.0
 11
-2433.96363674448
 21
2876.962168973804
 31
0.0
  0
LINE
  5
16E
330
1F
100
AcDbEntity
  8
0-C_ハッチ
  6
JWW_DASHED1
 62
   120
370
     5
100
AcDbLine
 10
-2551.390043615687
 20
2801.96216897379
 30
0.0
 11
-2476.390043615694
 21
2876.962168973788
 31
0.0
  0
LINE
  5
16F
330
1F
100
AcDbEntity
  8
0-C_ハッチ
  6
JWW_DASHED1
 62
   120
370
     5
100
AcDbLine
 10
-2593.816450486887
 20
2801.962168973792
 30
0.0
 11
-2518.816450486887
 21
2876.962168973792
 31
0.0
  0
LINE
  5
170
330
1F
100
AcDbEntity
  8
0-C_ハッチ
  6
JWW_DASHED1
 62
   120
370
     5
100
AcDbLine
 10
-2636.242857358033
 20
2801.962168973792
 30
0.0
 11
-2561.24285735804
 21
2876.962168973787
 31
0.0
  0
LINE
  5
171
330
1F
100
AcDbEntity
  8
0-C_ハッチ
  6
JWW_DASHED1
 62
   120
370
     5
100
AcDbLine
 10
-2678.669264229233
 20
2801.962168973795
 30
0.0
 11
-2603.669264229233
 21
2876.962168973792
 31
0.0
  0
LINE
  5
172
330
1F
100
AcDbEntity
  8
0-C_ハッチ
  6
JWW_DASHED1
 62
   120
370
     5
100
AcDbLine
 10
-2721.09567110044
 20
2801.962168973787
 30
0.0
 11
-2646.09567110044
 21
2876.962168973786
 31
0.0
  0
LINE
  5
173
330
1F
100
AcDbEntity
  8
0-C_ハッチ
  6
JWW_DASHED1
 62
   120
370
     5
100
AcDbLine
 10
-2763.522077971653
 20
2801.962168973772
 30
0.0
 11
-2688.52207797164
 21
2876.962168973787
 31
0.0
  0
LINE
  5
174
330
1F
100
AcDbEntity
  8
0-C_ハッチ
  6
JWW_DASHED1
 62
   120
370
     5
100
AcDbLine
 10
-2786.290927338515
 20
2821.619726478114
 30
0.0
 11
-2730.94848484284
 21
2876.962168973788
 31
0.0
  0
LINE
  5
175
330
1F
100
AcDbEntity
  8
0-C_ハッチ
  6
JWW_DASHED1
 62
   120
370
     5
100
AcDbLine
 10
-2786.290927338522
 20
2864.046133349303
 30
0.0
 11
-2773.374891714033
 21
2876.96216897379
 31
0.0
  0
LINE
  5
176
330
1F
100
AcDbEntity
  8
0-2_柱
  6
Continuous
 62
    92
370
     5
100
AcDbLine
 10
-2426.290927338529
 20
2171.96216897379
 30
0.0
 11
-2606.290927338529
 21
2171.96216897379
 31
0.0
  0
LINE
  5
177
330
1F
100
AcDbEntity
  8
0-2_柱
  6
Continuous
 62
    92
370
     5
100
AcDbLine
 10
-2606.290927338529
 20
2801.96216897379
 30
0.0
 11
-2426.290927338529
 21
2801.96216897379
 31
0.0
  0
LINE
  5
178
330
1F
100
AcDbEntity
  8
0-2_柱
  6
Continuous
 62
     7
370
     5
100
AcDbLine
 10
-2606.290927338529
 20
2171.96216897379
 30
0.0
 11
-2426.290927338529
 21
2801.96216897379
 31
0.0
  0
LINE
  5
179
330
1F
100
AcDbEntity
  8
0-2_柱
  6
Continuous
 62
    92
370
     5
100
AcDbLine
 10
-2606.290927338529
 20
2171.96216897379
 30
0.0
 11
-2606.290927338529
 21
2801.96216897379
 31
0.0
  0
LINE
  5
17A
330
1F
100
AcDbEntity
  8
0-2_柱
  6
Continuous
 62
    92
370
     5
100
AcDbLine
 10
-2426.290927338529
 20
2801.96216897379
 30
0.0
 11
-2426.290927338529
 21
2171.96216897379
 31
0.0
  0
LINE
  5
17B
330
1F
100
AcDbEntity
  8
0-C_ハッチ
  6
Continuous
 62
   120
370
     5
100
AcDbLine
 10
-2426.29092733854
 20
2902.712398112418
 30
0.0
 11
-2380.041316694441
 21
2948.962008756517
 31
0.0
  0
LINE
  5
17C
330
1F
100
AcDbEntity
  8
0-C_ハッチ
  6
Continuous
 62
   120
370
     5
100
AcDbLine
 10
-2426.290927338514
 20
2834.830147118545
 30
0.0
 11
-2312.159065700556
 21
2948.962008756504
 31
0.0
  0
LINE
  5
17D
330
1F
100
AcDbEntity
  8
0-C_ハッチ
  6
Continuous
 62
   120
370
     5
100
AcDbLine
 10
-2426.290927338528
 20
2699.06564513068
 30
0.0
 11
-2249.290640926939
 21
2876.06593154227
 31
0.0
  0
LINE
  5
17E
330
1F
100
AcDbEntity
  8
0-C_ハッチ
  6
Continuous
 62
   120
370
     5
100
AcDbLine
 10
-2426.290927338528
 20
2291.772139167236
 30
0.0
 11
-2249.290640926942
 21
2468.772425578823
 31
0.0
  0
LINE
  5
17F
330
1F
100
AcDbEntity
  8
0-C_ハッチ
  6
Continuous
 62
   120
370
     5
100
AcDbLine
 10
-2426.290927338533
 20
2223.889888173333
 30
0.0
 11
-2249.29064092693
 21
2400.890174584934
 31
0.0
  0
LINE
  5
180
330
1F
100
AcDbEntity
  8
0-C_ハッチ
  6
Continuous
 62
   120
370
     5
100
AcDbLine
 10
-2426.290927338508
 20
2156.00763717946
 30
0.0
 11
-2249.290640926936
 21
2333.007923591032
 31
0.0
  0
LINE
  5
181
330
1F
100
AcDbEntity
  8
0-C_ハッチ
  6
Continuous
 62
   120
370
     5
100
AcDbLine
 10
-2426.290927338514
 20
2088.1253861855
 30
0.0
 11
-2249.290640926938
 21
2265.125672597077
 31
0.0
  0
LINE
  5
182
330
1F
100
AcDbEntity
  8
0-C_ハッチ
  6
Continuous
 62
   120
370
     5
100
AcDbLine
 10
-2421.572328431825
 20
2024.961734098291
 30
0.0
 11
-2249.290640926934
 21
2197.243421603183
 31
0.0
  0
LINE
  5
183
330
1F
100
AcDbEntity
  8
0-C_ハッチ
  6
Continuous
 62
   120
370
     5
100
AcDbLine
 10
-2353.69007743792
 20
2024.961734098299
 30
0.0
 11
-2249.290640926938
 21
2129.361170609281
 31
0.0
  0
LINE
  5
184
330
1F
100
AcDbEntity
  8
0-C_ハッチ
  6
Continuous
 62
   120
370
     5
100
AcDbLine
 10
-2285.807826444013
 20
2024.961734098306
 30
0.0
 11
-2249.290640926943
 21
2061.478919615378
 31
0.0
  0
LINE
  5
185
330
1F
100
AcDbEntity
  8
0-B_寸法
  6
Continuous
 62
   120
370
     5
100
AcDbLine
 10
-2098.333601271231
 20
2951.96216897379
 30
0.0
 11
-2218.333601271233
 21
2951.96216897379
 31
0.0
  0
LINE
  5
186
330
1F
100
AcDbEntity
  8
0-B_寸法
  6
Continuous
 62
   120
370
     5
100
AcDbLine
 10
-2098.333601271233
 20
2021.962168973789
 30
0.0
 11
-2218.333601271233
 21
2021.962168973789
 31
0.0
  0
LWPOLYLINE
  5
187
330
1F
100
AcDbEntity
  8
0-B_寸法
  6
Continuous
 62
     7
370
     5
100
AcDbPolyline
 90
        4
 70
     1
 43
3.0
 10
-2096.833601271232
 20
2951.96216897379
 42
0.4142135623731
 10
-2098.333601271231
 20
2953.46216897379
 42
0.4142135623731
 10
-2099.833601271231
 20
2951.96216897379
 42
0.4142135623731
 10
-2098.333601271231
 20
2950.46216897379
 42
0.4142135623731
  0
LWPOLYLINE
  5
188
330
1F
100
AcDbEntity
  8
0-B_寸法
  6
Continuous
 62
     7
370
     5
100
AcDbPolyline
 90
        4
 70
     1
 43
3.0
 10
-2096.833601271233
 20
2021.962168973789
 42
0.4142135623731
 10
-2098.333601271233
 20
2023.462168973789
 42
0.4142135623731
 10
-2099.833601271233
 20
2021.962168973789
 42
0.4142135623731
 10
-2098.333601271233
 20
2020.462168973789
 42
0.4142135623731
  0
LINE
  5
189
330
1F
100
AcDbEntity
  8
0-4_枠
  6
Continuous
 62
    92
370
     5
100
AcDbLine
 10
-2426.290927338529
 20
2951.96216897379
 30
0.0
 11
-2426.290927338529
 21
2021.962168973789
 31
0.0
  0
LINE
  5
18A
330
1F
100
AcDbEntity
  8
0-4_枠
  6
Continuous
 62
    92
370
     5
100
AcDbLine
 10
-2285.291075802425
 20
2726.96216897379
 30
0.0
 11
-2285.291075802425
 21
2474.96216897379
 31
0.0
  0
LINE
  5
18B
330
1F
100
AcDbEntity
  8
0-4_枠
  6
Continuous
 62
    92
370
     5
100
AcDbLine
 10
-2282.291075802423
 20
2723.96216897379
 30
0.0
 11
-2282.291075802423
 21
2477.96216897379
 31
0.0
  0
LINE
  5
18C
330
1F
100
AcDbEntity
  8
0-4_枠
  6
Continuous
 62
    92
370
     5
100
AcDbLine
 10
-2282.291075802423
 20
2477.96216897379
 30
0.0
 11
-2246.291075802423
 21
2477.96216897379
 31
0.0
  0
LINE
  5
18D
330
1F
100
AcDbEntity
  8
0-4_枠
  6
Continuous
 62
    92
370
     5
100
AcDbLine
 10
-2285.291075802425
 20
2474.96216897379
 30
0.0
 11
-2249.290640926934
 21
2474.96216897379
 31
0.0
  0
LINE
  5
18E
330
1F
100
AcDbEntity
  8
0-4_枠
  6
Continuous
 62
    92
370
     5
100
AcDbLine
 10
-2282.291075802423
 20
2723.96216897379
 30
0.0
 11
-2246.291075802423
 21
2723.96216897379
 31
0.0
  0
LINE
  5
18F
330
1F
100
AcDbEntity
  8
0-4_枠
  6
Continuous
 62
    92
370
     5
100
AcDbLine
 10
-2285.291075802425
 20
2726.96216897379
 30
0.0
 11
-2249.290640926934
 21
2726.96216897379
 31
0.0
  0
LINE
  5
190
330
1F
100
AcDbEntity
  8
0-7_金物
  6
Continuous
 62
     7
370
     5
100
AcDbLine
 10
-2312.291075802423
 20
2585.962168973791
 30
0.0
 11
-2312.291075802423
 21
2615.962168973791
 31
0.0
  0
LINE
  5
191
330
1F
100
AcDbEntity
  8
0-7_金物
  6
Continuous
 62
     7
370
     5
100
AcDbLine
 10
-2282.291075802423
 20
2555.962168973791
 30
0.0
 11
-2264.291075802425
 21
2555.962168973791
 31
0.0
  0
LINE
  5
192
330
1F
100
AcDbEntity
  8
0-7_金物
  6
Continuous
 62
     7
370
     5
100
AcDbLine
 10
-2264.291075802425
 20
2645.962168973791
 30
0.0
 11
-2282.291075802423
 21
2645.962168973791
 31
0.0
  0
LINE
  5
193
330
1F
100
AcDbEntity
  8
0-7_金物
  6
Continuous
 62
     7
370
     5
100
AcDbLine
 10
-2282.291075802423
 20
2645.962168973791
 30
0.0
 11
-2282.291075802423
 21
2555.962168973791
 31
0.0
  0
LINE
  5
194
330
1F
100
AcDbEntity
  8
0-7_金物
  6
Continuous
 62
     7
370
     5
100
AcDbLine
 10
-2282.291075802423
 20
2585.962168973791
 30
0.0
 11
-2312.291075802423
 21
2585.962168973791
 31
0.0
  0
LINE
  5
195
330
1F
100
AcDbEntity
  8
0-7_金物
  6
Continuous
 62
     7
370
     5
100
AcDbLine
 10
-2312.291075802423
 20
2615.962168973791
 30
0.0
 11
-2282.291075802423
 21
2615.962168973791
 31
0.0
  0
ARC
  5
196
330
1F
100
AcDbEntity
  8
0-7_金物
  6
Continuous
 62
     7
370
     5
100
AcDbCircle
 10
-2430.041075802421
 20
2600.962168973791
 30
0.0
 40
171.7499999999977
100
AcDbArc
 50
344.8107132628169
 51
15.1892867371831
  0
LINE
  5
197
330
1F
100
AcDbEntity
  8
0-4_枠
  6
Continuous
 62
    92
370
     5
100
AcDbLine
 10
-2264.291075802423
 20
2951.96216897379
 30
0.0
 11
-2426.290927338529
 21
2951.96216897379
 31
0.0
  0
LINE
  5
198
330
1F
100
AcDbEntity
  8
0-4_枠
  6
Continuous
 62
    92
370
     5
100
AcDbLine
 10
-2246.291075802423
 20
2933.96216897379
 30
0.0
 11
-2246.291075802423
 21
2723.96216897379
 31
0.0
  0
LINE
  5
199
330
1F
100
AcDbEntity
  8
0-4_枠
  6
Continuous
 62
    92
370
     5
100
AcDbLine
 10
-2264.291075802423
 20
2951.96216897379
 30
0.0
 11
-2246.291075802423
 21
2933.96216897379
 31
0.0
  0
LINE
  5
19A
330
1F
100
AcDbEntity
  8
0-4_枠
  6
Continuous
 62
    92
370
     5
100
AcDbLine
 10
-2264.291075802423
 20
2021.962168973789
 30
0.0
 11
-2426.290927338529
 21
2021.962168973789
 31
0.0
  0
LINE
  5
19B
330
1F
100
AcDbEntity
  8
0-4_枠
  6
Continuous
 62
    92
370
     5
100
AcDbLine
 10
-2246.291075802423
 20
2039.962168973789
 30
0.0
 11
-2246.291075802423
 21
2477.96216897379
 31
0.0
  0
LINE
  5
19C
330
1F
100
AcDbEntity
  8
0-4_枠
  6
Continuous
 62
    92
370
     5
100
AcDbLine
 10
-2264.291075802423
 20
2021.962168973789
 30
0.0
 11
-2246.291075802423
 21
2039.962168973789
 31
0.0
  0
LINE
  5
19D
330
1F
100
AcDbEntity
  8
0-4_枠
  6
Continuous
 62
    92
370
     5
100
AcDbLine
 10
-2265.533556272256
 20
2948.962008756504
 30
0.0
 11
-2426.290927338529
 21
2948.962008756504
 31
0.0
  0
LINE
  5
19E
330
1F
100
AcDbEntity
  8
0-0_補助線
  6
Continuous
 62
    92
370
     5
100
AcDbLine
 10
-2265.533556272256
 20
2948.962008756504
 30
0.0
 11
-2249.290640926936
 21
2932.719093411184
 31
0.0
  0
LINE
  5
19F
330
1F
100
AcDbEntity
  8
0-4_枠
  6
Continuous
 62
    92
370
     5
100
AcDbLine
 10
-2249.290640926936
 20
2932.719093411184
 30
0.0
 11
-2249.290640926936
 21
2726.96216897379
 31
0.0
  0
LINE
  5
1A0
330
1F
100
AcDbEntity
  8
0-C_ハッチ
  6
Continuous
 62
   120
370
     5
100
AcDbLine
 10
-2426.290927338518
 20
2766.947896124642
 30
0.0
 11
-2254.905185489457
 21
2938.333637973704
 31
0.0
  0
LINE
  5
1A1
330
1F
100
AcDbEntity
  8
0-4_枠
  6
Continuous
 62
    92
370
     5
100
AcDbLine
 10
-2265.534151365031
 20
2024.9617340983
 30
0.0
 11
-2426.290927338529
 21
2024.9617340983
 31
0.0
  0
LINE
  5
1A2
330
1F
100
AcDbEntity
  8
0-4_枠
  6
Continuous
 62
    92
370
     5
100
AcDbLine
 10
-2249.290640926936
 20
2041.205244536397
 30
0.0
 11
-2249.290640926936
 21
2474.96216897379
 31
0.0
  0
LINE
  5
1A3
330
1F
100
AcDbEntity
  8
0-0_補助線
  6
Continuous
 62
    92
370
     5
100
AcDbLine
 10
-2265.534151365031
 20
2024.9617340983
 30
0.0
 11
-2249.290640926936
 21
2041.205244536397
 31
0.0
  0
LINE
  5
1A4
330
1F
100
AcDbEntity
  8
0-C_ハッチ
  6
Continuous
 62
   120
370
     5
100
AcDbLine
 10
-2426.290927338532
 20
2631.183394136779
 30
0.0
 11
-2249.290640926936
 21
2808.183680548374
 31
0.0
  0
LINE
  5
1A5
330
1F
100
AcDbEntity
  8
0-C_ハッチ
  6
Continuous
 62
   120
370
     5
100
AcDbLine
 10
-2426.290927338537
 20
2563.301143142875
 30
0.0
 11
-2285.291075802425
 21
2704.300994678987
 31
0.0
  0
LINE
  5
1A6
330
1F
100
AcDbEntity
  8
0-C_ハッチ
  6
Continuous
 62
   120
370
     5
100
AcDbLine
 10
-2426.290927338523
 20
2359.654390161139
 30
0.0
 11
-2285.291075802425
 21
2500.654241697237
 31
0.0
  0
LINE
  5
1A7
330
1F
100
AcDbEntity
  8
0-C_ハッチ
  6
Continuous
 62
   120
370
     5
100
AcDbLine
 10
-2426.290927338509
 20
2495.418892149004
 30
0.0
 11
-2285.291075802425
 21
2636.418743685088
 31
0.0
  0
LINE
  5
1A8
330
1F
100
AcDbEntity
  8
0-C_ハッチ
  6
Continuous
 62
   120
370
     5
100
AcDbLine
 10
-2426.290927338519
 20
2427.536641155042
 30
0.0
 11
-2285.291075802425
 21
2568.536492691136
 31
0.0
  0
LINE
  5
1A9
330
1F
100
AcDbEntity
  8
0-0_補助線
  6
JWW_HOJO
 62
   120
370
     5
100
AcDbLine
 10
-1958.291075802422
 20
2510.962168973789
 30
0.0
 11
-1958.291075802422
 21
2690.962168973789
 31
0.0
  0
LINE
  5
1AA
330
1F
100
AcDbEntity
  8
0-0_補助線
  6
JWW_HOJO
 62
   120
370
     5
100
AcDbLine
 10
-2786.290927338522
 20
1061.962168806181
 30
0.0
 11
-2786.290927338522
 21
3131.96162460618
 31
0.0
  0
LWPOLYLINE
  5
1AB
330
1F
100
AcDbEntity
  8
0-B_寸法
  6
Continuous
 62
     7
370
     5
100
AcDbPolyline
 90
        4
 70
     1
 43
3.0
 10
-2244.791075802423
 20
1481.962168806181
 42
0.4142135623731
 10
-2246.291075802423
 20
1483.462168806181
 42
0.4142135623731
 10
-2247.791075802423
 20
1481.962168806181
 42
0.4142135623731
 10
-2246.291075802423
 20
1480.462168806181
 42
0.4142135623731
  0
LINE
  5
1AC
330
1F
100
AcDbEntity
  8
0-B_寸法
  6
Continuous
 62
   120
370
     5
100
AcDbLine
 10
-2246.291075802423
 20
1271.962168806181
 30
0.0
 11
-2246.291075802423
 21
1841.962168806181
 31
0.0
  0
LINE
  5
1AD
330
1F
100
AcDbEntity
  8
0-B_寸法
  6
Continuous
 62
   120
370
     5
100
AcDbLine
 10
2266.128161489055
 20
1271.962168806181
 30
0.0
 11
-2246.291075802423
 21
1271.962168806181
 31
0.0
  0
LWPOLYLINE
  5
1AE
330
1F
100
AcDbEntity
  8
0-B_寸法
  6
Continuous
 62
     7
370
     5
100
AcDbPolyline
 90
        4
 70
     1
 43
3.0
 10
-2244.791075802423
 20
1271.962168806181
 42
0.4142135623731
 10
-2246.291075802423
 20
1273.462168806181
 42
0.4142135623731
 10
-2247.791075802423
 20
1271.962168806181
 42
0.4142135623731
 10
-2246.291075802423
 20
1270.462168806181
 42
0.4142135623731
  0
LINE
  5
1AF
330
1F
100
AcDbEntity
  8
0-B_寸法
  6
Continuous
 62
   120
370
     5
100
AcDbLine
 10
-2246.291075802423
 20
1271.962168806181
 30
0.0
 11
-2426.290927338529
 21
1271.962168806181
 31
0.0
  0
LWPOLYLINE
  5
1B0
330
1F
100
AcDbEntity
  8
0-B_寸法
  6
Continuous
 62
     7
370
     5
100
AcDbPolyline
 90
        4
 70
     1
 43
3.0
 10
-2424.790927338529
 20
1271.962168806181
 42
0.4142135623731
 10
-2426.290927338529
 20
1273.462168806181
 42
0.4142135623731
 10
-2427.790927338529
 20
1271.962168806181
 42
0.4142135623731
 10
-2426.290927338529
 20
1270.462168806181
 42
0.4142135623731
  0
LINE
  5
1B1
330
1F
100
AcDbEntity
  8
0-B_寸法
  6
Continuous
 62
   120
370
     5
100
AcDbLine
 10
-2426.290927338529
 20
1061.962168806181
 30
0.0
 11
-2426.290927338529
 21
1841.962168806181
 31
0.0
  0
MTEXT
  5
1B2
330
1F
100
AcDbEntity
  8
0-B_寸法
  6
Continuous
 62
     7
370
   211
100
AcDbMText
 10
-2400.041001570476
 20
1260.539668806181
 30
0.0
 40
97.15499999999999
 41
127.5
 46
0.0
 71
     7
 72
     1
  1
{\fＭＳ ゴシック|b0|i0|c128|p49;30}
 73
     1
 44
1.0
  0
LINE
  5
1B3
330
1F
100
AcDbEntity
  8
0-B_寸法
  6
Continuous
 62
   120
370
     5
100
AcDbLine
 10
-2426.290927338529
 20
1061.962168806181
 30
0.0
 11
2446.128013025162
 21
1061.962168806181
 31
0.0
  0
LWPOLYLINE
  5
1B4
330
1F
100
AcDbEntity
  8
0-B_寸法
  6
Continuous
 62
     7
370
     5
100
AcDbPolyline
 90
        4
 70
     1
 43
3.0
 10
-2424.790927338529
 20
1061.962168806181
 42
0.4142135623731
 10
-2426.290927338529
 20
1063.462168806181
 42
0.4142135623731
 10
-2427.790927338529
 20
1061.962168806181
 42
0.4142135623731
 10
-2426.290927338529
 20
1060.462168806181
 42
0.4142135623731
  0
LINE
  5
1B5
330
1F
100
AcDbEntity
  8
0-0_補助線
  6
JWW_HOJO
 62
   120
370
     5
100
AcDbLine
 10
2806.589336672863
 20
3131.96162460618
 30
0.0
 11
-2786.290927338522
 21
3131.96162460618
 31
0.0
  0
LINE
  5
1B6
330
1F
100
AcDbEntity
  8
0-0_補助線
  6
JWW_HOJO
 62
   120
370
     5
100
AcDbLine
 10
-2786.290927338522
 20
1061.962168806181
 30
0.0
 11
2806.589336672863
 21
1061.962168806181
 31
0.0
  0
LINE
  5
1B7
330
1F
100
AcDbEntity
  8
0-0_補助線
  6
JWW_HOJO
 62
   120
370
     5
100
AcDbLine
 10
2806.589336672863
 20
1841.962168806181
 30
0.0
 11
-2786.290927338522
 21
1841.962168806181
 31
0.0
  0
LINE
  5
1B8
330
1F
100
AcDbEntity
  8
0-0_補助線
  6
JWW_HOJO
 62
   120
370
     5
100
AcDbLine
 10
-2786.290927338522
 20
1481.962168806181
 30
0.0
 11
2806.589336672863
 21
1481.962168806181
 31
0.0
  0
LINE
  5
1B9
330
1F
100
AcDbEntity
  8
0-0_補助線
  6
JWW_HOJO
 62
   120
370
     5
100
AcDbLine
 10
-2786.290927338522
 20
1271.962168806181
 30
0.0
 11
2806.589336672863
 21
1271.962168806181
 31
0.0
  0
LINE
  5
1BA
330
1F
100
AcDbEntity
  8
0-1_通り芯
  6
JWW_CENTER1
 62
   120
370
     5
100
AcDbLine
 10
-2786.290927338522
 20
2486.96216897379
 30
0.0
 11
2806.589336672863
 21
2486.96216897379
 31
0.0
  0
MTEXT
  5
1BB
330
1F
100
AcDbEntity
  8
0-A_文字
  6
Continuous
 62
     7
370
     5
100
AcDbMText
 10
-2786.290927338522
 20
3186.514044362122
 30
0.0
 40
100.584
 41
660.0
 46
0.0
 71
     7
 72
     1
  1
{\fＭＳ ゴシック|b0|i0|c128|p49;■横断面図}
 73
     1
 44
1.0
  0
MTEXT
  5
1BC
330
1F
100
AcDbEntity
  8
0-B_寸法
  6
Continuous
 62
     7
370
     0
100
AcDbMText
 10
-2113.333601271233
 20
2382.682168973788
 30
0.0
 40
91.44
 41
180.0
 46
0.0
 71
     7
 72
     1
  1
{\fＭＳ ゴシック|b0|i0|c128|p49;155}
 11
6.123031769111886E-17
 21
1.0
 31
0.0
 73
     1
 44
1.0
  0
LINE
  5
1BD
330
1F
100
AcDbEntity
  8
0-B_寸法
  6
Continuous
 62
   120
370
     5
100
AcDbLine
 10
-2098.333601271233
 20
2021.962168973789
 30
0.0
 11
-2098.333601271231
 21
2951.96216897379
 31
0.0
  0
LINE
  5
1BE
330
1F
100
AcDbEntity
  8
0-0_補助線
  6
JWW_HOJO
 62
   120
370
     5
100
AcDbLine
 10
-1142.232729492244
 20
3131.96162460618
 30
0.0
 11
-1142.232729492244
 21
1841.962168806181
 31
0.0
  0
LINE
  5
1BF
330
1F
100
AcDbEntity
  8
0-0_補助線
  6
JWW_HOJO
 62
   120
370
     5
100
AcDbLine
 10
-1022.232729492244
 20
3131.96162460618
 30
0.0
 11
-1022.232729492244
 21
1841.962168806181
 31
0.0
  0
LINE
  5
1C0
330
1F
100
AcDbEntity
  8
0-6_扉
  6
Continuous
 62
   200
370
     5
100
AcDbLine
 10
-2089.273991390613
 20
2510.962168973789
 30
0.0
 11
-1142.232729492244
 21
2510.962168973789
 31
0.0
  0
LINE
  5
1C1
330
1F
100
AcDbEntity
  8
0-6_扉
  6
Continuous
 62
   200
370
     5
100
AcDbLine
 10
-1142.232729492244
 20
2690.962168973789
 30
0.0
 11
-2264.291075802424
 21
2690.962168973789
 31
0.0
  0
LINE
  5
1C2
330
1F
100
AcDbEntity
  8
0-C_ハッチ
  6
JWW_DASHED1
 62
   120
370
     5
100
AcDbLine
 10
881.3846539963426
 20
2096.962168973789
 30
0.0
 11
956.3846539963547
 21
2171.962168973801
 31
0.0
  0
LINE
  5
1C3
330
1F
100
AcDbEntity
  8
0-C_ハッチ
  6
JWW_DASHED1
 62
   120
370
     5
100
AcDbLine
 10
474.9185428433137
 20
2157.186533403907
 30
0.0
 11
489.6941784131937
 21
2171.962168973786
 31
0.0
  0
LINE
  5
1C4
330
1F
100
AcDbEntity
  8
0-C_ハッチ
  6
JWW_DASHED1
 62
   120
370
     5
100
AcDbLine
 10
474.9185428433137
 20
2114.760126532706
 30
0.0
 11
532.1205852843971
 21
2171.962168973792
 31
0.0
  0
LINE
  5
1C5
330
1F
100
AcDbEntity
  8
0-C_ハッチ
  6
JWW_DASHED1
 62
   120
370
     5
100
AcDbLine
 10
499.5469921555971
 20
2096.962168973792
 30
0.0
 11
574.5469921556107
 21
2171.962168973804
 31
0.0
  0
LINE
  5
1C6
330
1F
100
AcDbEntity
  8
0-C_ハッチ
  6
JWW_DASHED1
 62
   120
370
     5
100
AcDbLine
 10
541.9733990267955
 20
2096.962168973788
 30
0.0
 11
616.9733990268073
 21
2171.9621689738
 31
0.0
  0
LINE
  5
1C7
330
1F
100
AcDbEntity
  8
0-C_ハッチ
  6
JWW_DASHED1
 62
   120
370
     5
100
AcDbLine
 10
584.3998058980092
 20
2096.962168973802
 30
0.0
 11
659.3998058980039
 21
2171.962168973797
 31
0.0
  0
LINE
  5
1C8
330
1F
100
AcDbEntity
  8
0-C_ハッチ
  6
JWW_DASHED1
 62
   120
370
     5
100
AcDbLine
 10
626.826212769204
 20
2096.962168973799
 30
0.0
 11
701.8262127692005
 21
2171.962168973792
 31
0.0
  0
LINE
  5
1C9
330
1F
100
AcDbEntity
  8
0-C_ハッチ
  6
JWW_DASHED1
 62
   120
370
     5
100
AcDbLine
 10
669.2526196403478
 20
2096.962168973795
 30
0.0
 11
744.2526196403426
 21
2171.96216897379
 31
0.0
  0
LINE
  5
1CA
330
1F
100
AcDbEntity
  8
0-C_ハッチ
  6
JWW_DASHED1
 62
   120
370
     5
100
AcDbLine
 10
711.6790265115426
 20
2096.962168973789
 30
0.0
 11
786.6790265115376
 21
2171.962168973786
 31
0.0
  0
LINE
  5
1CB
330
1F
100
AcDbEntity
  8
0-C_ハッチ
  6
JWW_DASHED1
 62
   120
370
     5
100
AcDbLine
 10
754.1054333827528
 20
2096.9621689738
 30
0.0
 11
829.1054333827494
 21
2171.962168973797
 31
0.0
  0
LINE
  5
1CC
330
1F
100
AcDbEntity
  8
0-C_ハッチ
  6
JWW_DASHED1
 62
   120
370
     5
100
AcDbLine
 10
838.958247125146
 20
2096.962168973792
 30
0.0
 11
913.9582471251395
 21
2171.96216897379
 31
0.0
  0
LINE
  5
1CD
330
1F
100
AcDbEntity
  8
0-C_ハッチ
  6
JWW_DASHED1
 62
   120
370
     5
100
AcDbLine
 10
796.5318402539494
 20
2096.962168973796
 30
0.0
 11
871.5318402539615
 21
2171.962168973808
 31
0.0
  0
LINE
  5
1CE
330
1F
100
AcDbEntity
  8
0-4_枠
  6
Continuous
 62
    92
370
     5
100
AcDbLine
 10
474.9185428433137
 20
2111.962168973789
 30
0.0
 11
471.918542843313
 21
2111.962168973789
 31
0.0
  0
LINE
  5
1CF
330
1F
100
AcDbEntity
  8
0-C_ハッチ
  6
Continuous
 62
   120
370
     5
100
AcDbLine
 10
297.9183201474711
 20
2055.602800217264
 30
0.0
 11
474.9185428433201
 21
2232.603022913112
 31
0.0
  0
LINE
  5
1D0
330
1F
100
AcDbEntity
  8
0-C_ハッチ
  6
Continuous
 62
   120
370
     5
100
AcDbLine
 10
335.1599398978951
 20
2024.962168973789
 30
0.0
 11
474.918542843329
 21
2164.720771919222
 31
0.0
  0
LINE
  5
1D1
330
1F
100
AcDbEntity
  8
0-4_枠
  6
Continuous
 62
    92
370
     5
100
AcDbLine
 10
471.918542843313
 20
2111.962168973789
 30
0.0
 11
471.918542843313
 21
2024.962168973789
 31
0.0
  0
LINE
  5
1D2
330
1F
100
AcDbEntity
  8
0-C_ハッチ
  6
Continuous
 62
   120
370
     5
100
AcDbLine
 10
403.0421908918478
 20
2024.962168973789
 30
0.0
 11
471.918542843313
 21
2093.838520925254
 31
0.0
  0
LINE
  5
1D3
330
1F
100
AcDbEntity
  8
0-4_枠
  6
Continuous
 62
    92
370
     5
100
AcDbLine
 10
307.6464649046687
 20
2021.962168973789
 30
0.0
 11
474.9185428433137
 21
2021.962168973789
 31
0.0
  0
LINE
  5
1D4
330
1F
100
AcDbEntity
  8
0-4_枠
  6
Continuous
 62
    92
370
     5
100
AcDbLine
 10
294.918320147473
 20
2034.690313730986
 30
0.0
 11
307.6464649046687
 21
2021.962168973789
 31
0.0
  0
LINE
  5
1D5
330
1F
100
AcDbEntity
  8
0-4_枠
  6
Continuous
 62
    92
370
     5
100
AcDbLine
 10
297.9183201474737
 20
2035.932954418105
 30
0.0
 11
308.8891055917884
 21
2024.962168973789
 31
0.0
  0
LINE
  5
1D6
330
1F
100
AcDbEntity
  8
0-4_枠
  6
Continuous
 62
    92
370
     5
100
AcDbLine
 10
308.8891055917884
 20
2024.962168973789
 30
0.0
 11
471.918542843313
 21
2024.962168973789
 31
0.0
  0
LWPOLYLINE
  5
1D7
330
1F
100
AcDbEntity
  8
0-B_寸法
  6
Continuous
 62
     7
370
     5
100
AcDbPolyline
 90
        4
 70
     1
 43
3.0
 10
116.1387780432931
 20
2021.962168973789
 42
0.4142135623731
 10
114.6387780432931
 20
2023.462168973789
 42
0.4142135623731
 10
113.1387780432931
 20
2021.962168973789
 42
0.4142135623731
 10
114.6387780432931
 20
2020.462168973789
 42
0.4142135623731
  0
LINE
  5
1D8
330
1F
100
AcDbEntity
  8
0-B_寸法
  6
Continuous
 62
   120
370
     5
100
AcDbLine
 10
264.9165292441992
 20
2021.962168973789
 30
0.0
 11
114.6387780432931
 21
2021.962168973789
 31
0.0
  0
MTEXT
  5
1D9
330
1F
100
AcDbEntity
  8
0-B_寸法
  6
Continuous
 62
     7
370
   211
100
AcDbMText
 10
99.63877804329314
 20
2526.682168973789
 30
0.0
 40
91.44
 41
120.0
 46
0.0
 71
     7
 72
     1
  1
{\fＭＳ ゴシック|b0|i0|c128|p49;30}
 11
6.123031769111886E-17
 21
1.0
 31
0.0
 73
     1
 44
1.0
  0
LINE
  5
1DA
330
1F
100
AcDbEntity
  8
0-B_寸法
  6
Continuous
 62
   120
370
     5
100
AcDbLine
 10
114.6387780432931
 20
2510.962168973789
 30
0.0
 11
264.9165292441992
 21
2510.962168973789
 31
0.0
  0
LWPOLYLINE
  5
1DB
330
1F
100
AcDbEntity
  8
0-B_寸法
  6
Continuous
 62
     7
370
     5
100
AcDbPolyline
 90
        4
 70
     1
 43
3.0
 10
116.1387780432931
 20
2510.962168973789
 42
0.4142135623731
 10
114.6387780432931
 20
2512.462168973789
 42
0.4142135623731
 10
113.1387780432931
 20
2510.962168973789
 42
0.4142135623731
 10
114.6387780432931
 20
2509.462168973789
 42
0.4142135623731
  0
LWPOLYLINE
  5
1DC
330
1F
100
AcDbEntity
  8
0-B_寸法
  6
Continuous
 62
     7
370
     5
100
AcDbPolyline
 90
        4
 70
     1
 43
3.0
 10
116.1387780432931
 20
2690.962168973789
 42
0.4142135623731
 10
114.6387780432931
 20
2692.462168973789
 42
0.4142135623731
 10
113.1387780432931
 20
2690.962168973789
 42
0.4142135623731
 10
114.6387780432931
 20
2689.462168973789
 42
0.4142135623731
  0
LINE
  5
1DD
330
1F
100
AcDbEntity
  8
0-B_寸法
  6
Continuous
 62
   120
370
     5
100
AcDbLine
 10
114.6387780432931
 20
2690.962168973789
 30
0.0
 11
264.9165292441992
 21
2690.962168973789
 31
0.0
  0
LINE
  5
1DE
330
1F
100
AcDbEntity
  8
0-4_枠
  6
Continuous
 62
    92
370
     5
100
AcDbLine
 10
420.918542843315
 20
2468.96216897379
 30
0.0
 11
471.918542843313
 21
2468.96216897379
 31
0.0
  0
LINE
  5
1DF
330
1F
100
AcDbEntity
  8
0-4_枠
  6
Continuous
 62
    92
370
     5
100
AcDbLine
 10
420.918542843315
 20
2471.96216897379
 30
0.0
 11
474.9185428433137
 21
2471.96216897379
 31
0.0
  0
LINE
  5
1E0
330
1F
100
AcDbEntity
  8
0-4_枠
  6
Continuous
 62
    92
370
     5
100
AcDbLine
 10
348.9185428433174
 20
2468.96216897379
 30
0.0
 11
297.9183201474737
 21
2468.96216897379
 31
0.0
  0
LINE
  5
1E1
330
1F
100
AcDbEntity
  8
0-4_枠
  6
Continuous
 62
    92
370
     5
100
AcDbLine
 10
348.9185428433174
 20
2471.96216897379
 30
0.0
 11
294.918320147473
 21
2471.96216897379
 31
0.0
  0
LINE
  5
1E2
330
1F
100
AcDbEntity
  8
0-4_枠
  6
Continuous
 62
    92
370
     5
100
AcDbLine
 10
420.918542843315
 20
2456.962168973788
 30
0.0
 11
420.918542843315
 21
2471.96216897379
 31
0.0
  0
LINE
  5
1E3
330
1F
100
AcDbEntity
  8
0-4_枠
  6
Continuous
 62
    92
370
     5
100
AcDbLine
 10
348.9185428433174
 20
2471.96216897379
 30
0.0
 11
348.9185428433174
 21
2456.962168973788
 31
0.0
  0
LINE
  5
1E4
330
1F
100
AcDbEntity
  8
0-4_枠
  6
Continuous
 62
    92
370
     5
100
AcDbLine
 10
420.918542843315
 20
2456.962168973788
 30
0.0
 11
348.9185428433174
 21
2456.962168973788
 31
0.0
  0
LINE
  5
1E5
330
1F
100
AcDbEntity
  8
0-4_枠
  6
Continuous
 62
    92
370
     5
100
AcDbLine
 10
294.918320147473
 20
2034.690313730986
 30
0.0
 11
294.918320147473
 21
2471.96216897379
 31
0.0
  0
LINE
  5
1E6
330
1F
100
AcDbEntity
  8
0-4_枠
  6
Continuous
 62
    92
370
     5
100
AcDbLine
 10
297.9183201474737
 20
2035.932954418105
 30
0.0
 11
297.9183201474737
 21
2468.96216897379
 31
0.0
  0
LWPOLYLINE
  5
1E7
330
1F
100
AcDbEntity
  8
0-B_寸法
  6
Continuous
 62
     7
370
     5
100
AcDbPolyline
 90
        4
 70
     1
 43
3.0
 10
116.1387780432931
 20
2471.96216897379
 42
0.4142135623731
 10
114.6387780432931
 20
2473.46216897379
 42
0.4142135623731
 10
113.1387780432931
 20
2471.96216897379
 42
0.4142135623731
 10
114.6387780432931
 20
2470.46216897379
 42
0.4142135623731
  0
LINE
  5
1E8
330
1F
100
AcDbEntity
  8
0-B_寸法
  6
Continuous
 62
   120
370
     5
100
AcDbLine
 10
264.9165292441992
 20
2471.96216897379
 30
0.0
 11
114.6387780432931
 21
2471.96216897379
 31
0.0
  0
LINE
  5
1E9
330
1F
100
AcDbEntity
  8
0-4_枠
  6
Continuous
 62
    92
370
     5
100
AcDbLine
 10
474.9185428433137
 20
2021.962168973789
 30
0.0
 11
474.9185428433137
 21
2471.96216897379
 31
0.0
  0
LINE
  5
1EA
330
1F
100
AcDbEntity
  8
0-B_寸法
  6
Continuous
 62
   120
370
     5
100
AcDbLine
 10
114.6387780432931
 20
2021.962168973789
 30
0.0
 11
114.6387780432931
 21
2690.962168973789
 31
0.0
  0
MTEXT
  5
1EB
330
1F
100
AcDbEntity
  8
0-B_寸法
  6
Continuous
 62
     7
370
   211
100
AcDbMText
 10
249.890121005088
 20
2373.847427042467
 30
0.0
 40
91.44
 41
180.0
 46
0.0
 71
     7
 72
     1
  1
{\fＭＳ ゴシック|b0|i0|c128|p49;6.5}
 11
6.123031769111886E-17
 21
1.0
 31
0.0
 73
     1
 44
1.0
  0
LINE
  5
1EC
330
1F
100
AcDbEntity
  8
0-C_ハッチ
  6
Continuous
 62
   120
370
     5
100
AcDbLine
 10
297.9183201474792
 20
2259.249553198966
 30
0.0
 11
471.918542843313
 21
2433.249775894798
 31
0.0
  0
LINE
  5
1ED
330
1F
100
AcDbEntity
  8
0-C_ハッチ
  6
Continuous
 62
   120
370
     5
100
AcDbLine
 10
297.9183201475061
 20
2462.896306180852
 30
0.0
 11
303.9841829404435
 21
2468.96216897379
 31
0.0
  0
LINE
  5
1EE
330
1F
100
AcDbEntity
  8
0-C_ハッチ
  6
Continuous
 62
   120
370
     5
100
AcDbLine
 10
297.9183201474882
 20
2327.131804192928
 30
0.0
 11
439.7486849283495
 21
2468.96216897379
 31
0.0
  0
LINE
  5
1EF
330
1F
100
AcDbEntity
  8
0-C_ハッチ
  6
Continuous
 62
   120
370
     5
100
AcDbLine
 10
297.9183201474972
 20
2395.01405518689
 30
0.0
 11
359.8664339343952
 21
2456.962168973788
 31
0.0
  0
LINE
  5
1F0
330
1F
100
AcDbEntity
  8
0-C_ハッチ
  6
JWW_DASHED1
 62
   120
370
     5
100
AcDbLine
 10
881.8262127692005
 20
2351.962168973794
 30
0.0
 11
953.4496047890482
 21
2423.585560993641
 31
0.0
  0
LINE
  5
1F1
330
1F
100
AcDbEntity
  8
0-C_ハッチ
  6
JWW_DASHED1
 62
   120
370
     5
100
AcDbLine
 10
474.9185428433137
 20
2369.318567759852
 30
0.0
 11
532.5621440572568
 21
2426.962168973794
 31
0.0
  0
LINE
  5
1F2
330
1F
100
AcDbEntity
  8
0-C_ハッチ
  6
JWW_DASHED1
 62
   120
370
     5
100
AcDbLine
 10
474.9185428433137
 20
2411.744974631054
 30
0.0
 11
490.1357371860584
 21
2426.962168973799
 31
0.0
  0
LINE
  5
1F3
330
1F
100
AcDbEntity
  8
0-C_ハッチ
  6
JWW_DASHED1
 62
   120
370
     5
100
AcDbLine
 10
499.9885509284567
 20
2351.962168973795
 30
0.0
 11
574.9885509284516
 21
2426.962168973792
 31
0.0
  0
LINE
  5
1F4
330
1F
100
AcDbEntity
  8
0-C_ハッチ
  6
JWW_DASHED1
 62
   120
370
     5
100
AcDbLine
 10
542.4149577996534
 20
2351.962168973792
 30
0.0
 11
617.41495779965
 21
2426.96216897379
 31
0.0
  0
LINE
  5
1F5
330
1F
100
AcDbEntity
  8
0-C_ハッチ
  6
JWW_DASHED1
 62
   120
370
     5
100
AcDbLine
 10
584.841364670797
 20
2351.962168973792
 30
0.0
 11
659.8413646708091
 21
2426.962168973801
 31
0.0
  0
LINE
  5
1F6
330
1F
100
AcDbEntity
  8
0-C_ハッチ
  6
JWW_DASHED1
 62
   120
370
     5
100
AcDbLine
 10
627.2677715419936
 20
2351.962168973787
 30
0.0
 11
702.2677715420039
 21
2426.962168973797
 31
0.0
  0
LINE
  5
1F7
330
1F
100
AcDbEntity
  8
0-C_ハッチ
  6
JWW_DASHED1
 62
   120
370
     5
100
AcDbLine
 10
669.6941784131902
 20
2351.962168973783
 30
0.0
 11
744.6941784132005
 21
2426.962168973794
 31
0.0
  0
LINE
  5
1F8
330
1F
100
AcDbEntity
  8
0-C_ハッチ
  6
JWW_DASHED1
 62
   120
370
     5
100
AcDbLine
 10
712.1205852844141
 20
2351.962168973806
 30
0.0
 11
787.1205852844107
 21
2426.962168973804
 31
0.0
  0
LINE
  5
1F9
330
1F
100
AcDbEntity
  8
0-C_ハッチ
  6
JWW_DASHED1
 62
   120
370
     5
100
AcDbLine
 10
754.5469921556107
 20
2351.962168973804
 30
0.0
 11
829.5469921556073
 21
2426.9621689738
 31
0.0
  0
LINE
  5
1FA
330
1F
100
AcDbEntity
  8
0-C_ハッチ
  6
JWW_DASHED1
 62
   120
370
     5
100
AcDbLine
 10
839.3998058980039
 20
2351.962168973797
 30
0.0
 11
914.3998058979982
 21
2426.96216897379
 31
0.0
  0
LINE
  5
1FB
330
1F
100
AcDbEntity
  8
0-C_ハッチ
  6
JWW_DASHED1
 62
   120
370
     5
100
AcDbLine
 10
796.9733990268073
 20
2351.962168973801
 30
0.0
 11
871.9733990268039
 21
2426.962168973797
 31
0.0
  0
LINE
  5
1FC
330
1F
100
AcDbEntity
  8
0-2_柱
  6
Continuous
 62
     7
370
     5
100
AcDbLine
 10
744.9185428433136
 20
2351.96216897379
 30
0.0
 11
474.9185428433137
 21
2171.96216897379
 31
0.0
  0
LINE
  5
1FD
330
1F
100
AcDbEntity
  8
0-2_柱
  6
Continuous
 62
    92
370
     5
100
AcDbLine
 10
744.9185428433136
 20
2171.96216897379
 30
0.0
 11
744.9185428433136
 21
2351.96216897379
 31
0.0
  0
LINE
  5
1FE
330
1F
100
AcDbEntity
  8
0-6_扉
  6
JWW_DASHED2
 62
    40
370
     5
100
AcDbLine
 10
-455.0814571566863
 20
2510.962168973789
 30
0.0
 11
-455.0814571566863
 21
2690.962168973789
 31
0.0
  0
LINE
  5
1FF
330
1F
100
AcDbEntity
  8
0-6_扉
  6
Continuous
 62
   200
370
     5
100
AcDbLine
 10
474.9185428433137
 20
2510.962168973789
 30
0.0
 11
474.9185428433137
 21
2690.962168973789
 31
0.0
  0
CIRCLE
  5
200
330
1F
100
AcDbEntity
  8
0-5_ケーシング
  6
JWW_DASHED1
 62
    92
370
     5
100
AcDbCircle
 10
-149.0814571566867
 20
2186.96216897379
 30
0.0
 40
66.0
  0
CIRCLE
  5
201
330
1F
100
AcDbEntity
  8
0-5_ケーシング
  6
JWW_DASHED1
 62
    92
370
     5
100
AcDbCircle
 10
-149.0814571566867
 20
3014.962168973789
 30
0.0
 40
66.0
  0
ARC
  5
202
330
1F
100
AcDbEntity
  8
0-5_ケーシング
  6
JWW_DASHED2
 62
    92
370
     5
100
AcDbCircle
 10
-29.08145715668667
 20
2498.96216897379
 30
0.0
 40
6.0
100
AcDbArc
 50
270.0
 51
0.0
  0
LINE
  5
203
330
1F
100
AcDbEntity
  8
0-5_ケーシング
  6
JWW_DASHED2
 62
    92
370
     5
100
AcDbLine
 10
-23.08145715669212
 20
2498.96216897379
 30
0.0
 11
-23.08145715669212
 21
2510.962168973789
 31
0.0
  0
LINE
  5
204
330
1F
100
AcDbEntity
  8
0-5_ケーシング
  6
JWW_DASHED2
 62
    92
370
     5
100
AcDbLine
 10
-29.08145715668667
 20
2492.96216897379
 30
0.0
 11
-269.0814571566867
 21
2492.96216897379
 31
0.0
  0
ARC
  5
205
330
1F
100
AcDbEntity
  8
0-5_ケーシング
  6
JWW_DASHED2
 62
    92
370
     5
100
AcDbCircle
 10
-269.0814571566867
 20
2498.96216897379
 30
0.0
 40
6.0
100
AcDbArc
 50
180.0
 51
270.0
  0
LINE
  5
206
330
1F
100
AcDbEntity
  8
0-5_ケーシング
  6
JWW_DASHED2
 62
    92
370
     5
100
AcDbLine
 10
-275.081457156688
 20
2498.96216897379
 30
0.0
 11
-275.081457156688
 21
2510.962168973789
 31
0.0
  0
LINE
  5
207
330
1F
100
AcDbEntity
  8
0-5_ケーシング
  6
JWW_DASHED2
 62
    92
370
     5
100
AcDbLine
 10
-204.5814571566908
 20
2265.293197308672
 30
0.0
 11
-230.081457156688
 21
2492.96216897379
 31
0.0
  0
LINE
  5
208
330
1F
100
AcDbEntity
  8
0-5_ケーシング
  6
JWW_DASHED2
 62
    92
370
     5
100
AcDbLine
 10
-93.5814571566894
 20
2265.293197308672
 30
0.0
 11
-68.08145715669212
 21
2492.96216897379
 31
0.0
  0
LINE
  5
209
330
1F
100
AcDbEntity
  8
0-5_ケーシング
  6
JWW_DASHED2
 62
    92
370
     5
100
AcDbLine
 10
-23.08145715669212
 20
2510.962168973789
 30
0.0
 11
-275.081457156688
 21
2510.962168973789
 31
0.0
  0
ARC
  5
20A
330
1F
100
AcDbEntity
  8
0-5_ケーシング
  6
JWW_DASHED2
 62
    92
370
     5
100
AcDbCircle
 10
-269.0814571566867
 20
2702.962168973789
 30
0.0
 40
6.0
100
AcDbArc
 50
90.0
 51
180.0
  0
LINE
  5
20B
330
1F
100
AcDbEntity
  8
0-5_ケーシング
  6
JWW_DASHED2
 62
    92
370
     5
100
AcDbLine
 10
-275.081457156688
 20
2702.962168973789
 30
0.0
 11
-275.081457156688
 21
2690.962168973789
 31
0.0
  0
LINE
  5
20C
330
1F
100
AcDbEntity
  8
0-5_ケーシング
  6
JWW_DASHED2
 62
    92
370
     5
100
AcDbLine
 10
-269.0814571566867
 20
2708.96216897379
 30
0.0
 11
-29.08145715668667
 21
2708.96216897379
 31
0.0
  0
ARC
  5
20D
330
1F
100
AcDbEntity
  8
0-5_ケーシング
  6
JWW_DASHED2
 62
    92
370
     5
100
AcDbCircle
 10
-29.08145715668667
 20
2702.962168973789
 30
0.0
 40
6.0
100
AcDbArc
 50
0.0
 51
90.0
  0
LINE
  5
20E
330
1F
100
AcDbEntity
  8
0-5_ケーシング
  6
JWW_DASHED2
 62
    92
370
     5
100
AcDbLine
 10
-23.08145715669212
 20
2702.962168973789
 30
0.0
 11
-23.08145715669212
 21
2690.962168973789
 31
0.0
  0
LINE
  5
20F
330
1F
100
AcDbEntity
  8
0-5_ケーシング
  6
JWW_DASHED2
 62
    92
370
     5
100
AcDbLine
 10
-93.5814571566894
 20
2936.631140638907
 30
0.0
 11
-68.08145715669212
 21
2708.96216897379
 31
0.0
  0
LINE
  5
210
330
1F
100
AcDbEntity
  8
0-5_ケーシング
  6
JWW_DASHED2
 62
    92
370
     5
100
AcDbLine
 10
-204.5814571566908
 20
2936.631140638907
 30
0.0
 11
-230.081457156688
 21
2708.96216897379
 31
0.0
  0
LINE
  5
211
330
1F
100
AcDbEntity
  8
0-5_ケーシング
  6
JWW_DASHED2
 62
    92
370
     5
100
AcDbLine
 10
-275.081457156688
 20
2690.962168973789
 30
0.0
 11
-23.08145715669212
 21
2690.962168973789
 31
0.0
  0
CIRCLE
  5
212
330
1F
100
AcDbEntity
  8
0-5_ケーシング
  6
JWW_DASHED2
 62
    92
370
     5
100
AcDbCircle
 10
-149.0814571566867
 20
3014.962168973789
 30
0.0
 40
96.0
  0
CIRCLE
  5
213
330
1F
100
AcDbEntity
  8
0-5_ケーシング
  6
JWW_DASHED2
 62
    92
370
     5
100
AcDbCircle
 10
-149.0814571566867
 20
2186.96216897379
 30
0.0
 40
96.0
  0
LINE
  5
214
330
1F
100
AcDbEntity
  8
0-0_補助線
  6
JWW_HOJO
 62
   120
370
     5
100
AcDbLine
 10
-149.0814571566833
 20
2510.962168973789
 30
0.0
 11
-149.0814571566833
 21
2690.962168973789
 31
0.0
  0
LWPOLYLINE
  5
215
330
1F
100
AcDbEntity
  8
0-B_寸法
  6
Continuous
 62
     7
370
     5
100
AcDbPolyline
 90
        4
 70
     1
 43
3.0
 10
-453.5814571566863
 20
1481.962168806181
 42
0.4142135623731
 10
-455.0814571566863
 20
1483.462168806181
 42
0.4142135623731
 10
-456.5814571566863
 20
1481.962168806181
 42
0.4142135623731
 10
-455.0814571566863
 20
1480.462168806181
 42
0.4142135623731
  0
LINE
  5
216
330
1F
100
AcDbEntity
  8
0-B_寸法
  6
Continuous
 62
   120
370
     5
100
AcDbLine
 10
-455.0814571566863
 20
1481.962168806181
 30
0.0
 11
-455.0814571566863
 21
1841.962168806181
 31
0.0
  0
LINE
  5
217
330
1F
100
AcDbEntity
  8
0-B_寸法
  6
Continuous
 62
   120
370
     5
100
AcDbLine
 10
-455.0814571566863
 20
1481.962168806181
 30
0.0
 11
294.918320147473
 21
1481.962168806181
 31
0.0
  0
LWPOLYLINE
  5
218
330
1F
100
AcDbEntity
  8
0-B_寸法
  6
Continuous
 62
     7
370
     5
100
AcDbPolyline
 90
        4
 70
     1
 43
3.0
 10
296.418320147473
 20
1481.962168806181
 42
0.4142135623731
 10
294.918320147473
 20
1483.462168806181
 42
0.4142135623731
 10
293.418320147473
 20
1481.962168806181
 42
0.4142135623731
 10
294.918320147473
 20
1480.462168806181
 42
0.4142135623731
  0
LINE
  5
219
330
1F
100
AcDbEntity
  8
0-B_寸法
  6
Continuous
 62
   120
370
     5
100
AcDbLine
 10
294.918320147473
 20
1481.962168806181
 30
0.0
 11
294.918320147473
 21
1841.962168806181
 31
0.0
  0
LINE
  5
21A
330
1F
100
AcDbEntity
  8
0-B_寸法
  6
Continuous
 62
   120
370
     5
100
AcDbLine
 10
294.918320147473
 20
1481.962168806181
 30
0.0
 11
474.9185428433137
 21
1481.962168806181
 31
0.0
  0
LWPOLYLINE
  5
21B
330
1F
100
AcDbEntity
  8
0-B_寸法
  6
Continuous
 62
     7
370
     5
100
AcDbPolyline
 90
        4
 70
     1
 43
3.0
 10
476.4185428433137
 20
1481.962168806181
 42
0.4142135623731
 10
474.9185428433137
 20
1483.462168806181
 42
0.4142135623731
 10
473.4185428433137
 20
1481.962168806181
 42
0.4142135623731
 10
474.9185428433137
 20
1480.462168806181
 42
0.4142135623731
  0
LINE
  5
21C
330
1F
100
AcDbEntity
  8
0-B_寸法
  6
Continuous
 62
   120
370
     5
100
AcDbLine
 10
474.9185428433137
 20
1481.962168806181
 30
0.0
 11
474.9185428433137
 21
1841.962168806181
 31
0.0
  0
MTEXT
  5
21D
330
1F
100
AcDbEntity
  8
0-B_寸法
  6
Continuous
 62
     7
370
   211
100
AcDbMText
 10
321.1684314953933
 20
1470.539668806181
 30
0.0
 40
97.15499999999999
 41
127.5
 46
0.0
 71
     7
 72
     1
  1
{\fＭＳ ゴシック|b0|i0|c128|p49;30}
 73
     1
 44
1.0
  0
LINE
  5
21E
330
1F
100
AcDbEntity
  8
0-B_寸法
  6
Continuous
 62
   120
370
     5
100
AcDbLine
 10
474.9185428433137
 20
1481.962168806181
 30
0.0
 11
2266.128161489055
 21
1481.962168806181
 31
0.0
  0
MTEXT
  5
21F
330
1F
100
AcDbEntity
  8
0-B_寸法
  6
Continuous
 62
     7
370
     0
100
AcDbMText
 10
99.63872855532742
 20
2172.68216897379
 30
0.0
 40
91.44
 41
120.0
 46
0.0
 71
     7
 72
     1
  1
{\fＭＳ ゴシック|b0|i0|c128|p49;75}
 11
6.123031769111886E-17
 21
1.0
 31
0.0
 73
     1
 44
1.0
  0
LINE
  5
220
330
1F
100
AcDbEntity
  8
0-4_枠
  6
Continuous
 62
    92
370
     5
100
AcDbLine
 10
474.9185428433137
 20
2381.96216897379
 30
0.0
 11
471.918542843313
 21
2381.96216897379
 31
0.0
  0
LINE
  5
221
330
1F
100
AcDbEntity
  8
0-4_枠
  6
Continuous
 62
    92
370
     5
100
AcDbLine
 10
471.918542843313
 20
2381.96216897379
 30
0.0
 11
471.918542843313
 21
2468.96216897379
 31
0.0
  0
LINE
  5
222
330
1F
100
AcDbEntity
  8
0-C_ハッチ
  6
Continuous
 62
   120
370
     5
100
AcDbLine
 10
297.9183201474746
 20
2191.367302205063
 30
0.0
 11
474.9185428433137
 21
2368.367524900901
 31
0.0
  0
LINE
  5
223
330
1F
100
AcDbEntity
  8
0-C_ハッチ
  6
Continuous
 62
   120
370
     5
100
AcDbLine
 10
297.9183201474707
 20
2123.485051211161
 30
0.0
 11
474.9185428433137
 21
2300.485273907005
 31
0.0
  0
LINE
  5
224
330
1F
100
AcDbEntity
  8
0-B_寸法
  6
Continuous
 62
   120
370
     5
100
AcDbLine
 10
-2246.291075802423
 20
1481.962168806181
 30
0.0
 11
-455.0814571566863
 21
1481.962168806181
 31
0.0
  0
LINE
  5
225
330
1F
100
AcDbEntity
  8
0-6_扉
  6
Continuous
 62
   200
370
     5
100
AcDbLine
 10
474.9185428433137
 20
2690.962168973789
 30
0.0
 11
-1022.232729492244
 21
2690.962168973789
 31
0.0
  0
LINE
  5
226
330
1F
100
AcDbEntity
  8
0-6_扉
  6
Continuous
 62
   200
370
     5
100
AcDbLine
 10
-1022.232729492244
 20
2510.962168973789
 30
0.0
 11
474.9185428433137
 21
2510.962168973789
 31
0.0
  0
LINE
  5
227
330
1F
100
AcDbEntity
  8
0-6_扉
  6
JWW_DASHED2
 62
    40
370
     5
100
AcDbLine
 10
2284.128161489058
 20
2690.962168973789
 30
0.0
 11
1161.883684758309
 21
2690.962168973789
 31
0.0
  0
LINE
  5
228
330
1F
100
AcDbEntity
  8
0-6_扉
  6
JWW_DASHED2
 62
    40
370
     5
100
AcDbLine
 10
1161.883684758309
 20
2510.962168973789
 30
0.0
 11
2284.128161489058
 21
2510.962168973789
 31
0.0
  0
LINE
  5
229
330
1F
100
AcDbEntity
  8
0-0_補助線
  6
JWW_HOJO
 62
   120
370
     5
100
AcDbLine
 10
1161.883684758309
 20
1841.962168806181
 30
0.0
 11
1161.883684758309
 21
3131.96162460618
 31
0.0
  0
LINE
  5
22A
330
1F
100
AcDbEntity
  8
0-6_扉
  6
JWW_DASHED2
 62
    40
370
     5
100
AcDbLine
 10
1041.883684758309
 20
2690.962168973789
 30
0.0
 11
-455.0814571566863
 21
2690.962168973789
 31
0.0
  0
LINE
  5
22B
330
1F
100
AcDbEntity
  8
0-6_扉
  6
JWW_DASHED2
 62
    40
370
     5
100
AcDbLine
 10
-455.0814571566863
 20
2510.962168973789
 30
0.0
 11
1041.883684758309
 21
2510.962168973789
 31
0.0
  0
LINE
  5
22C
330
1F
100
AcDbEntity
  8
0-0_補助線
  6
JWW_HOJO
 62
   120
370
     5
100
AcDbLine
 10
1041.883684758309
 20
1841.962168806181
 30
0.0
 11
1041.883684758309
 21
3131.96162460618
 31
0.0
  0
LINE
  5
22D
330
1F
100
AcDbEntity
  8
0-3_仕上げ
  6
Continuous
 62
    40
370
     5
100
AcDbLine
 10
1041.883684758309
 20
2096.962168973789
 30
0.0
 11
474.9185428433137
 21
2096.962168973789
 31
0.0
  0
LINE
  5
22E
330
1F
100
AcDbEntity
  8
0-3_仕上げ
  6
Continuous
 62
    40
370
     5
100
AcDbLine
 10
474.9185428433137
 20
2426.96216897379
 30
0.0
 11
1041.883684758309
 21
2426.96216897379
 31
0.0
  0
LINE
  5
22F
330
1F
100
AcDbEntity
  8
0-3_仕上げ
  6
Continuous
 62
    40
370
     5
100
AcDbLine
 10
1041.883684758309
 20
2171.96216897379
 30
0.0
 11
474.9185428433137
 21
2171.96216897379
 31
0.0
  0
LINE
  5
230
330
1F
100
AcDbEntity
  8
0-3_仕上げ
  6
Continuous
 62
    40
370
     5
100
AcDbLine
 10
474.9185428433137
 20
2351.96216897379
 30
0.0
 11
1041.883684758309
 21
2351.96216897379
 31
0.0
  0
LINE
  5
231
330
1F
100
AcDbEntity
  8
0-3_仕上げ
  6
Continuous
 62
    40
370
     5
100
AcDbLine
 10
1161.883684758309
 20
2426.96216897379
 30
0.0
 11
2266.128161489055
 21
2426.96216897379
 31
0.0
  0
LINE
  5
232
330
1F
100
AcDbEntity
  8
0-3_仕上げ
  6
Continuous
 62
    40
370
     5
100
AcDbLine
 10
2806.589336672863
 20
2096.962168973789
 30
0.0
 11
1161.883684758309
 21
2096.962168973789
 31
0.0
  0
LINE
  5
233
330
1F
100
AcDbEntity
  8
0-3_仕上げ
  6
Continuous
 62
    40
370
     5
100
AcDbLine
 10
1161.883684758309
 20
2351.96216897379
 30
0.0
 11
2266.128161489055
 21
2351.96216897379
 31
0.0
  0
LINE
  5
234
330
1F
100
AcDbEntity
  8
0-3_仕上げ
  6
Continuous
 62
    40
370
     5
100
AcDbLine
 10
2806.589336672863
 20
2171.96216897379
 30
0.0
 11
1161.883684758309
 21
2171.96216897379
 31
0.0
  0
LINE
  5
235
330
1F
100
AcDbEntity
  8
0-C_ハッチ
  6
JWW_DASHED1
 62
   120
370
     5
100
AcDbLine
 10
923.8110608675504
 20
2096.962168973792
 30
0.0
 11
998.8110608675438
 21
2171.96216897379
 31
0.0
  0
LINE
  5
236
330
1F
100
AcDbEntity
  8
0-C_ハッチ
  6
JWW_DASHED1
 62
   120
370
     5
100
AcDbLine
 10
924.2526196404083
 20
2351.962168973797
 30
0.0
 11
999.2526196404025
 21
2426.96216897379
 31
0.0
  0
LINE
  5
237
330
1F
100
AcDbEntity
  8
0-C_ハッチ
  6
JWW_DASHED1
 62
   120
370
     5
100
AcDbLine
 10
1573.238370090932
 20
2096.962168973785
 30
0.0
 11
1648.238370090928
 21
2171.962168973781
 31
0.0
  0
LINE
  5
238
330
1F
100
AcDbEntity
  8
0-C_ハッチ
  6
JWW_DASHED1
 62
   120
370
     5
100
AcDbLine
 10
1573.679928863804
 20
2351.962168973804
 30
0.0
 11
1648.679928863798
 21
2426.962168973799
 31
0.0
  0
LINE
  5
239
330
1F
100
AcDbEntity
  8
0-C_ハッチ
  6
JWW_DASHED1
 62
   120
370
     5
100
AcDbLine
 10
1530.811963219733
 20
2096.962168973785
 30
0.0
 11
1605.811963219729
 21
2171.962168973781
 31
0.0
  0
LINE
  5
23A
330
1F
100
AcDbEntity
  8
0-C_ハッチ
  6
JWW_DASHED1
 62
   120
370
     5
100
AcDbLine
 10
1531.253521992606
 20
2351.962168973804
 30
0.0
 11
1606.2535219926
 21
2426.962168973799
 31
0.0
  0
LINE
  5
23B
330
1F
100
AcDbEntity
  8
0-C_ハッチ
  6
JWW_DASHED1
 62
   120
370
     5
100
AcDbLine
 10
1488.385556348535
 20
2096.962168973785
 30
0.0
 11
1563.385556348532
 21
2171.962168973781
 31
0.0
  0
LINE
  5
23C
330
1F
100
AcDbEntity
  8
0-C_ハッチ
  6
JWW_DASHED1
 62
   120
370
     5
100
AcDbLine
 10
1488.827115121408
 20
2351.962168973804
 30
0.0
 11
1563.827115121401
 21
2426.962168973799
 31
0.0
  0
LINE
  5
23D
330
1F
100
AcDbEntity
  8
0-C_ハッチ
  6
JWW_DASHED1
 62
   120
370
     5
100
AcDbLine
 10
1445.959149477336
 20
2096.962168973785
 30
0.0
 11
1520.959149477333
 21
2171.962168973781
 31
0.0
  0
LINE
  5
23E
330
1F
100
AcDbEntity
  8
0-C_ハッチ
  6
JWW_DASHED1
 62
   120
370
     5
100
AcDbLine
 10
1446.40070825021
 20
2351.962168973804
 30
0.0
 11
1521.400708250203
 21
2426.962168973799
 31
0.0
  0
LINE
  5
23F
330
1F
100
AcDbEntity
  8
0-C_ハッチ
  6
JWW_DASHED1
 62
   120
370
     5
100
AcDbLine
 10
1403.532742606138
 20
2096.962168973785
 30
0.0
 11
1478.532742606135
 21
2171.962168973781
 31
0.0
  0
LINE
  5
240
330
1F
100
AcDbEntity
  8
0-C_ハッチ
  6
JWW_DASHED1
 62
   120
370
     5
100
AcDbLine
 10
1403.974301379011
 20
2351.962168973804
 30
0.0
 11
1478.974301379004
 21
2426.962168973799
 31
0.0
  0
LINE
  5
241
330
1F
100
AcDbEntity
  8
0-C_ハッチ
  6
JWW_DASHED1
 62
   120
370
     5
100
AcDbLine
 10
1361.10633573494
 20
2096.962168973785
 30
0.0
 11
1436.106335734936
 21
2171.962168973781
 31
0.0
  0
LINE
  5
242
330
1F
100
AcDbEntity
  8
0-C_ハッチ
  6
JWW_DASHED1
 62
   120
370
     5
100
AcDbLine
 10
1361.547894507813
 20
2351.962168973804
 30
0.0
 11
1436.547894507806
 21
2426.962168973799
 31
0.0
  0
LINE
  5
243
330
1F
100
AcDbEntity
  8
0-C_ハッチ
  6
JWW_DASHED1
 62
   120
370
     5
100
AcDbLine
 10
1318.679928863741
 20
2096.962168973785
 30
0.0
 11
1393.679928863738
 21
2171.962168973781
 31
0.0
  0
LINE
  5
244
330
1F
100
AcDbEntity
  8
0-C_ハッチ
  6
JWW_DASHED1
 62
   120
370
     5
100
AcDbLine
 10
1319.121487636615
 20
2351.962168973804
 30
0.0
 11
1394.121487636608
 21
2426.962168973799
 31
0.0
  0
LINE
  5
245
330
1F
100
AcDbEntity
  8
0-C_ハッチ
  6
JWW_DASHED1
 62
   120
370
     5
100
AcDbLine
 10
1276.253521992543
 20
2096.962168973785
 30
0.0
 11
1351.25352199254
 21
2171.962168973781
 31
0.0
  0
LINE
  5
246
330
1F
100
AcDbEntity
  8
0-C_ハッチ
  6
JWW_DASHED1
 62
   120
370
     5
100
AcDbLine
 10
1276.695080765416
 20
2351.962168973804
 30
0.0
 11
1351.69508076541
 21
2426.962168973799
 31
0.0
  0
LINE
  5
247
330
1F
100
AcDbEntity
  8
0-C_ハッチ
  6
JWW_DASHED1
 62
   120
370
     5
100
AcDbLine
 10
1233.827115121345
 20
2096.962168973785
 30
0.0
 11
1308.827115121341
 21
2171.962168973781
 31
0.0
  0
LINE
  5
248
330
1F
100
AcDbEntity
  8
0-C_ハッチ
  6
JWW_DASHED1
 62
   120
370
     5
100
AcDbLine
 10
1234.268673894218
 20
2351.962168973804
 30
0.0
 11
1309.268673894211
 21
2426.962168973799
 31
0.0
  0
LINE
  5
249
330
1F
100
AcDbEntity
  8
0-C_ハッチ
  6
JWW_DASHED1
 62
   120
370
     5
100
AcDbLine
 10
1191.400708250146
 20
2096.962168973785
 30
0.0
 11
1266.400708250143
 21
2171.962168973781
 31
0.0
  0
LINE
  5
24A
330
1F
100
AcDbEntity
  8
0-C_ハッチ
  6
JWW_DASHED1
 62
   120
370
     5
100
AcDbLine
 10
1191.84226702302
 20
2351.962168973804
 30
0.0
 11
1266.842267023013
 21
2426.962168973799
 31
0.0
  0
LINE
  5
24B
330
1F
100
AcDbEntity
  8
0-C_ハッチ
  6
JWW_DASHED1
 62
   120
370
     5
100
AcDbLine
 10
966.6790265116049
 20
2351.962168973794
 30
0.0
 11
1041.883684758309
 21
2427.166827220498
 31
0.0
  0
LINE
  5
24C
330
1F
100
AcDbEntity
  8
0-C_ハッチ
  6
JWW_DASHED1
 62
   120
370
     5
100
AcDbLine
 10
1008.663874609955
 20
2096.962168973792
 30
0.0
 11
1041.883684758309
 21
2130.181979122148
 31
0.0
  0
LINE
  5
24D
330
1F
100
AcDbEntity
  8
0-C_ハッチ
  6
JWW_DASHED1
 62
   120
370
     5
100
AcDbLine
 10
966.237467738747
 20
2096.962168973789
 30
0.0
 11
1041.883684758309
 21
2172.608385993352
 31
0.0
  0
LINE
  5
24E
330
1F
100
AcDbEntity
  8
0-C_ハッチ
  6
JWW_DASHED1
 62
   120
370
     5
100
AcDbLine
 10
1009.105433382813
 20
2351.962168973797
 30
0.0
 11
1041.883684758309
 21
2384.740420349292
 31
0.0
  0
LINE
  5
24F
330
1F
100
AcDbEntity
  8
0-C_ハッチ
  6
JWW_DASHED1
 62
   120
370
     5
100
AcDbLine
 10
1161.883684758309
 20
2406.85640045149
 30
0.0
 11
1181.989453280616
 21
2426.962168973799
 31
0.0
  0
LINE
  5
250
330
1F
100
AcDbEntity
  8
0-C_ハッチ
  6
JWW_DASHED1
 62
   120
370
     5
100
AcDbLine
 10
1161.883684758309
 20
2109.871552353146
 30
0.0
 11
1223.974301378945
 21
2171.962168973781
 31
0.0
  0
LINE
  5
251
330
1F
100
AcDbEntity
  8
0-C_ハッチ
  6
JWW_DASHED1
 62
   120
370
     5
100
AcDbLine
 10
1161.883684758309
 20
2364.429993580291
 30
0.0
 11
1224.415860151815
 21
2426.962168973799
 31
0.0
  0
LINE
  5
252
330
1F
100
AcDbEntity
  8
0-C_ハッチ
  6
JWW_DASHED1
 62
   120
370
     5
100
AcDbLine
 10
1161.883684758309
 20
2152.297959224344
 30
0.0
 11
1181.547894507746
 21
2171.962168973781
 31
0.0
  0
LINE
  5
253
330
1F
100
AcDbEntity
  8
0-A_文字
  6
Continuous
 62
    92
370
     5
100
AcDbLine
 10
-3315.544902395466
 20
-3258.848919265033
 30
0.0
 11
-3315.544902395466
 21
-468.8489192650321
 31
0.0
  0
LINE
  5
254
330
1F
100
AcDbEntity
  8
0-A_文字
  6
Continuous
 62
    92
370
     5
100
AcDbLine
 10
-45.54490239546816
 20
-3258.848919265033
 30
0.0
 11
-45.54490239546816
 21
-468.8489192650321
 31
0.0
  0
LINE
  5
255
330
1F
100
AcDbEntity
  8
0-A_文字
  6
Continuous
 62
    92
370
     5
100
AcDbLine
 10
-3315.544902395466
 20
-468.8489192650321
 30
0.0
 11
-45.54490239546816
 21
-468.8489192650321
 31
0.0
  0
LINE
  5
256
330
1F
100
AcDbEntity
  8
0-A_文字
  6
Continuous
 62
    92
370
     5
100
AcDbLine
 10
-3315.544902395466
 20
-648.8489192650321
 30
0.0
 11
-45.54490239546816
 21
-648.8489192650321
 31
0.0
  0
LINE
  5
257
330
1F
100
AcDbEntity
  8
0-A_文字
  6
Continuous
 62
    92
370
     5
100
AcDbLine
 10
-3315.544902395466
 20
-3258.848919265033
 30
0.0
 11
-45.54490239546816
 21
-3258.848919265033
 31
0.0
  0
MTEXT
  5
258
330
1F
100
AcDbEntity
  8
0-A_文字
  6
Continuous
 62
     7
370
     5
100
AcDbMText
 10
-2430.544902395467
 20
-633.1289192650321
 30
0.0
 40
91.44
 41
1500.0
 46
0.0
 71
     7
 72
     1
  1
{\fＭＳ ゴシック|b0|i0|c128|p49;鴨居詳細断面図（Ｓ＝1/2）}
 73
     1
 44
1.0
  0
LINE
  5
259
330
1F
100
AcDbEntity
  8
1-B_寸法
  6
Continuous
 62
   120
370
     5
100
AcDbLine
 10
-1696.696189650279
 20
-3119.707175428547
 30
0.0
 11
-1696.696189650279
 21
-2894.707175428547
 31
0.0
  0
LINE
  5
25A
330
1F
100
AcDbEntity
  8
1-B_寸法
  6
Continuous
 62
   120
370
     5
100
AcDbLine
 10
-1599.196189650279
 20
-3119.707175428547
 30
0.0
 11
-1599.196189650279
 21
-2894.707175428547
 31
0.0
  0
LINE
  5
25B
330
1F
100
AcDbEntity
  8
1-B_寸法
  6
Continuous
 62
   120
370
     5
100
AcDbLine
 10
-2229.847874088752
 20
-1587.274950832803
 30
0.0
 11
-1929.847874088752
 21
-1587.274950832803
 31
0.0
  0
LINE
  5
25C
330
1F
100
AcDbEntity
  8
1-4_枠
  6
Continuous
 62
    92
370
     5
100
AcDbLine
 10
-2761.696189650279
 20
-1819.762365989653
 30
0.0
 11
-2761.696189650279
 21
-1369.762365989653
 31
0.0
  0
LINE
  5
25D
330
1F
100
AcDbEntity
  8
1-4_枠
  6
Continuous
 62
    92
370
     5
100
AcDbLine
 10
-2761.696189650279
 20
-1369.762365989653
 30
0.0
 11
-556.6961896502771
 21
-1369.762365989653
 31
0.0
  0
LINE
  5
25E
330
1F
100
AcDbEntity
  8
1-4_枠
  6
Continuous
 62
    92
370
     5
100
AcDbLine
 10
-556.6961896502771
 20
-1369.762365989653
 30
0.0
 11
-556.6961896502771
 21
-1819.762365989653
 31
0.0
  0
LINE
  5
25F
330
1F
100
AcDbEntity
  8
1-4_枠
  6
Continuous
 62
    92
370
     5
100
AcDbLine
 10
-2754.196189650279
 20
-1812.262365989654
 30
0.0
 11
-2754.196189650279
 21
-1369.762365989653
 31
0.0
  0
LINE
  5
260
330
1F
100
AcDbEntity
  8
1-C_ハッチ
  6
Continuous
 62
   120
370
     5
100
AcDbLine
 10
-2018.278439259432
 20
-1812.262365989654
 30
0.0
 11
-1575.778439259408
 21
-1369.762365989628
 31
0.0
  0
LINE
  5
261
330
1F
100
AcDbEntity
  8
1-C_ハッチ
  6
Continuous
 62
   120
370
     5
100
AcDbLine
 10
-978.8314709151949
 20
-1812.262365989656
 30
0.0
 11
-564.1961896502763
 21
-1397.627084724744
 31
0.0
  0
LINE
  5
262
330
1F
100
AcDbEntity
  8
1-C_ハッチ
  6
Continuous
 62
   120
370
     5
100
AcDbLine
 10
-681.8466228169585
 20
-1812.262365989656
 30
0.0
 11
-564.1961896502763
 21
-1694.611932822976
 31
0.0
  0
LINE
  5
263
330
1F
100
AcDbEntity
  8
1-C_ハッチ
  6
Continuous
 62
   120
370
     5
100
AcDbLine
 10
-830.3390468660767
 20
-1812.262365989656
 30
0.0
 11
-564.1961896502763
 21
-1546.119508773859
 31
0.0
  0
LINE
  5
264
330
1F
100
AcDbEntity
  8
1-C_ハッチ
  6
Continuous
 62
   120
370
     5
100
AcDbLine
 10
-2754.196189650279
 20
-1508.733148036118
 30
0.0
 11
-2615.225407603803
 21
-1369.762365989632
 31
0.0
  0
LINE
  5
265
330
1F
100
AcDbEntity
  8
1-C_ハッチ
  6
Continuous
 62
   120
370
     5
100
AcDbLine
 10
-2754.196189650279
 20
-1657.225572085379
 30
0.0
 11
-2466.732983554549
 21
-1369.762365989632
 31
0.0
  0
LINE
  5
266
330
1F
100
AcDbEntity
  8
1-4_枠
  6
Continuous
 62
    92
370
     5
100
AcDbLine
 10
-564.1961896502763
 20
-1369.762365989653
 30
0.0
 11
-564.1961896502763
 21
-1812.262365969941
 31
0.0
  0
LINE
  5
267
330
1F
100
AcDbEntity
  8
1-4_枠
  6
Continuous
 62
   120
370
     5
100
AcDbLine
 10
-2821.696189650279
 20
-1369.762365989653
 30
0.0
 11
-2761.696189650279
 21
-1369.762365989653
 31
0.0
  0
LINE
  5
268
330
1F
100
AcDbEntity
  8
1-4_枠
  6
Continuous
 62
   120
370
     5
100
AcDbLine
 10
-556.6961896502771
 20
-1369.762365989653
 30
0.0
 11
-496.696189650278
 21
-1369.762365989653
 31
0.0
  0
LINE
  5
269
330
1F
100
AcDbEntity
  8
1-7_金物
  6
Continuous
 62
     7
370
     5
100
AcDbLine
 10
-894.8478740887375
 20
-1819.762365989654
 30
0.0
 11
-1074.847874088745
 21
-1819.762365989654
 31
0.0
  0
LINE
  5
26A
330
1F
100
AcDbEntity
  8
1-7_金物
  6
Continuous
 62
     7
370
     5
100
AcDbLine
 10
-1854.847874088752
 20
-1819.762365989654
 30
0.0
 11
-1674.847874088745
 21
-1819.762365989654
 31
0.0
  0
LINE
  5
26B
330
1F
100
AcDbEntity
  8
1-7_金物
  6
Continuous
 62
     7
370
     5
100
AcDbLine
 10
-894.8478740887375
 20
-2419.762365989654
 30
0.0
 11
-894.8478740887375
 21
-1819.762365989654
 31
0.0
  0
LINE
  5
26C
330
1F
100
AcDbEntity
  8
1-7_金物
  6
Continuous
 62
     7
370
     5
100
AcDbLine
 10
-917.3478740887512
 20
-2419.762365989654
 30
0.0
 11
-917.3478740887512
 21
-1842.262365989655
 31
0.0
  0
LINE
  5
26D
330
1F
100
AcDbEntity
  8
1-7_金物
  6
Continuous
 62
     7
370
     5
100
AcDbLine
 10
-1832.347874088747
 20
-2419.762365989654
 30
0.0
 11
-1832.347874088747
 21
-1842.262365989655
 31
0.0
  0
LINE
  5
26E
330
1F
100
AcDbEntity
  8
1-7_金物
  6
Continuous
 62
     7
370
     5
100
AcDbLine
 10
-1854.847874088752
 20
-2419.762365989654
 30
0.0
 11
-1854.847874088752
 21
-1819.762365989654
 31
0.0
  0
LINE
  5
26F
330
1F
100
AcDbEntity
  8
1-7_金物
  6
Continuous
 62
     7
370
     5
100
AcDbLine
 10
-894.8478740887375
 20
-2419.762365989654
 30
0.0
 11
-917.3478740887512
 21
-2419.762365989654
 31
0.0
  0
LINE
  5
270
330
1F
100
AcDbEntity
  8
1-7_金物
  6
Continuous
 62
     7
370
     5
100
AcDbLine
 10
-1854.847874088752
 20
-2419.762365989654
 30
0.0
 11
-1832.347874088747
 21
-2419.762365989654
 31
0.0
  0
LINE
  5
271
330
1F
100
AcDbEntity
  8
1-7_金物
  6
Continuous
 62
     7
370
     5
100
AcDbLine
 10
-917.3478740887512
 20
-1842.262365989655
 30
0.0
 11
-1074.847874088745
 21
-1842.262365989655
 31
0.0
  0
LINE
  5
272
330
1F
100
AcDbEntity
  8
1-7_金物
  6
Continuous
 62
     7
370
     5
100
AcDbLine
 10
-1832.347874088747
 20
-1842.262365989655
 30
0.0
 11
-1674.847874088745
 21
-1842.262365989655
 31
0.0
  0
LINE
  5
273
330
1F
100
AcDbEntity
  8
1-7_金物
  6
Continuous
 62
     7
370
     5
100
AcDbLine
 10
-1674.847874088745
 20
-1587.262365989652
 30
0.0
 11
-1674.847874088745
 21
-2206.762365989652
 31
0.0
  0
LINE
  5
274
330
1F
100
AcDbEntity
  8
1-7_金物
  6
Continuous
 62
     7
370
     5
100
AcDbLine
 10
-1074.847874088745
 20
-1587.262365989652
 30
0.0
 11
-1074.847874088745
 21
-2206.762365989652
 31
0.0
  0
LINE
  5
275
330
1F
100
AcDbEntity
  8
1-7_金物
  6
Continuous
 62
     7
370
     5
100
AcDbLine
 10
-1074.847874088745
 20
-1587.262365989652
 30
0.0
 11
-1674.847874088745
 21
-1587.262365989652
 31
0.0
  0
LINE
  5
276
330
1F
100
AcDbEntity
  8
1-7_金物
  6
Continuous
 62
     7
370
     5
100
AcDbLine
 10
-1074.847874088745
 20
-1587.262365989652
 30
0.0
 11
-1674.847874088745
 21
-2206.762365989652
 31
0.0
  0
LINE
  5
277
330
1F
100
AcDbEntity
  8
1-7_金物
  6
Continuous
 62
     7
370
     5
100
AcDbLine
 10
-1674.847874088745
 20
-1587.262365989652
 30
0.0
 11
-1074.847874088745
 21
-2206.762365989652
 31
0.0
  0
LINE
  5
278
330
1F
100
AcDbEntity
  8
1-7_金物
  6
Continuous
 62
     7
370
     5
100
AcDbLine
 10
-1074.847874088745
 20
-2206.762365989652
 30
0.0
 11
-1674.847874088745
 21
-2206.762365989652
 31
0.0
  0
ARC
  5
279
330
1F
100
AcDbEntity
  8
1-7_金物
  6
Continuous
 62
     7
370
     5
100
AcDbCircle
 10
-1374.835685378672
 20
-2757.262363618126
 30
0.0
 40
95.9999993675921
100
AcDbArc
 50
167.8242658972536
 51
198.2099568642824
  0
ARC
  5
27A
330
1F
100
AcDbEntity
  8
1-7_金物
  6
Continuous
 62
     7
370
     5
100
AcDbCircle
 10
-1374.835685378672
 20
-2757.262363618126
 30
0.0
 40
95.9999993675921
100
AcDbArc
 50
341.7900431357177
 51
12.17573410274985
  0
CIRCLE
  5
27B
330
1F
100
AcDbEntity
  8
1-7_金物
  6
Continuous
 62
     7
370
     5
100
AcDbCircle
 10
-1374.835685378672
 20
-2757.262363618126
 30
0.0
 40
74.99999950593133
  0
LINE
  5
27C
330
1F
100
AcDbEntity
  8
1-7_金物
  6
Continuous
 62
     7
370
     5
100
AcDbLine
 10
-1459.688498562072
 20
-2727.262363815756
 30
0.0
 11
-1487.335684637573
 21
-2757.262363618126
 31
0.0
  0
LINE
  5
27D
330
1F
100
AcDbEntity
  8
1-7_金物
  6
Continuous
 62
     7
370
     5
100
AcDbLine
 10
-1470.835684746276
 20
-2757.262363618126
 30
0.0
 11
-1487.335684637573
 21
-2757.262363618126
 31
0.0
  0
LINE
  5
27E
330
1F
100
AcDbEntity
  8
1-7_金物
  6
Continuous
 62
     7
370
     5
100
AcDbLine
 10
-1278.835686011077
 20
-2757.262363618126
 30
0.0
 11
-1262.335686119771
 21
-2757.262363618126
 31
0.0
  0
LINE
  5
27F
330
1F
100
AcDbEntity
  8
1-7_金物
  6
Continuous
 62
     7
370
     5
100
AcDbLine
 10
-1289.982872195255
 20
-2727.262363815756
 30
0.0
 11
-1262.335686119771
 21
-2757.262363618126
 31
0.0
  0
LINE
  5
280
330
1F
100
AcDbEntity
  8
1-7_金物
  6
Continuous
 62
     7
370
     5
100
AcDbLine
 10
-1367.545229692816
 20
-2720.512363860219
 30
0.0
 11
-1382.126141064537
 21
-2720.512363860219
 31
0.0
  0
LINE
  5
281
330
1F
100
AcDbEntity
  8
1-7_金物
  6
Continuous
 62
     7
370
     5
100
AcDbLine
 10
-1382.6315375899
 20
-2749.466511406898
 30
0.0
 11
-1382.126141064537
 21
-2720.512363860219
 31
0.0
  0
LINE
  5
282
330
1F
100
AcDbEntity
  8
1-7_金物
  6
Continuous
 62
     7
370
     5
100
AcDbLine
 10
-1367.039833167452
 20
-2749.466511406898
 30
0.0
 11
-1367.545229692816
 21
-2720.512363860219
 31
0.0
  0
LINE
  5
283
330
1F
100
AcDbEntity
  8
1-7_金物
  6
Continuous
 62
     7
370
     5
100
AcDbLine
 10
-1338.085685620764
 20
-2764.552819303986
 30
0.0
 11
-1338.085685620764
 21
-2749.97190793227
 31
0.0
  0
LINE
  5
284
330
1F
100
AcDbEntity
  8
1-7_金物
  6
Continuous
 62
     7
370
     5
100
AcDbLine
 10
-1367.039833167452
 20
-2749.466511406898
 30
0.0
 11
-1338.085685620764
 21
-2749.97190793227
 31
0.0
  0
LINE
  5
285
330
1F
100
AcDbEntity
  8
1-7_金物
  6
Continuous
 62
     7
370
     5
100
AcDbLine
 10
-1367.039833167452
 20
-2765.05821582935
 30
0.0
 11
-1338.085685620764
 21
-2764.552819303986
 31
0.0
  0
LINE
  5
286
330
1F
100
AcDbEntity
  8
1-7_金物
  6
Continuous
 62
     7
370
     5
100
AcDbLine
 10
-1382.126141064537
 20
-2794.012363376034
 30
0.0
 11
-1367.545229692816
 21
-2794.012363376034
 31
0.0
  0
LINE
  5
287
330
1F
100
AcDbEntity
  8
1-7_金物
  6
Continuous
 62
     7
370
     5
100
AcDbLine
 10
-1367.039833167452
 20
-2765.05821582935
 30
0.0
 11
-1367.545229692816
 21
-2794.012363376034
 31
0.0
  0
LINE
  5
288
330
1F
100
AcDbEntity
  8
1-7_金物
  6
Continuous
 62
     7
370
     5
100
AcDbLine
 10
-1382.6315375899
 20
-2765.05821582935
 30
0.0
 11
-1382.126141064537
 21
-2794.012363376034
 31
0.0
  0
LINE
  5
289
330
1F
100
AcDbEntity
  8
1-7_金物
  6
Continuous
 62
     7
370
     5
100
AcDbLine
 10
-1411.585685136588
 20
-2749.97190793227
 30
0.0
 11
-1411.585685136588
 21
-2764.552819303986
 31
0.0
  0
LINE
  5
28A
330
1F
100
AcDbEntity
  8
1-7_金物
  6
Continuous
 62
     7
370
     5
100
AcDbLine
 10
-1382.6315375899
 20
-2765.05821582935
 30
0.0
 11
-1411.585685136588
 21
-2764.552819303986
 31
0.0
  0
LINE
  5
28B
330
1F
100
AcDbEntity
  8
1-7_金物
  6
Continuous
 62
     7
370
     5
100
AcDbLine
 10
-1382.6315375899
 20
-2749.466511406898
 30
0.0
 11
-1411.585685136588
 21
-2749.97190793227
 31
0.0
  0
LINE
  5
28C
330
1F
100
AcDbEntity
  8
1-7_金物
  6
Continuous
 62
     7
370
     5
100
AcDbLine
 10
-1337.347874088745
 20
-2569.762365742619
 30
0.0
 11
-1278.835685961674
 21
-2569.762365742619
 31
0.0
  0
LINE
  5
28D
330
1F
100
AcDbEntity
  8
1-7_金物
  6
Continuous
 62
     7
370
     5
100
AcDbLine
 10
-1470.83568479567
 20
-2569.762365742619
 30
0.0
 11
-1412.347874088745
 21
-2569.762365742619
 31
0.0
  0
LINE
  5
28E
330
1F
100
AcDbEntity
  8
1-7_金物
  6
Continuous
 62
     7
370
     5
100
AcDbLine
 10
-1485.835684696851
 20
-2307.262365989652
 30
0.0
 11
-1485.835684696851
 21
-2554.762365841434
 31
0.0
  0
ARC
  5
28F
330
1F
100
AcDbEntity
  8
1-7_金物
  6
Continuous
 62
     7
370
     5
100
AcDbCircle
 10
-1470.83568479567
 20
-2554.762365841434
 30
0.0
 40
14.99999990118626
100
AcDbArc
 50
180.0
 51
270.0
  0
LINE
  5
290
330
1F
100
AcDbEntity
  8
1-7_金物
  6
Continuous
 62
     7
370
     5
100
AcDbLine
 10
-1263.835686060502
 20
-2307.262365989652
 30
0.0
 11
-1263.835686060502
 21
-2554.762365841434
 31
0.0
  0
ARC
  5
291
330
1F
100
AcDbEntity
  8
1-7_金物
  6
Continuous
 62
     7
370
     5
100
AcDbCircle
 10
-1278.835685961674
 20
-2554.762365841434
 30
0.0
 40
14.99999990118626
100
AcDbArc
 50
270.0
 51
0.0
  0
LINE
  5
292
330
1F
100
AcDbEntity
  8
1-7_金物
  6
Continuous
 62
     7
370
     5
100
AcDbLine
 10
-1337.347874088745
 20
-2382.262365989654
 30
0.0
 11
-1337.347874088745
 21
-2569.762365742619
 31
0.0
  0
LINE
  5
293
330
1F
100
AcDbEntity
  8
1-7_金物
  6
Continuous
 62
     7
370
     5
100
AcDbLine
 10
-1412.347874088745
 20
-2382.262365989654
 30
0.0
 11
-1412.347874088745
 21
-2569.762365742619
 31
0.0
  0
LINE
  5
294
330
1F
100
AcDbEntity
  8
1-7_金物
  6
Continuous
 62
     7
370
     5
100
AcDbLine
 10
-1412.347874088745
 20
-2382.262365989654
 30
0.0
 11
-1337.347874088745
 21
-2382.262365989654
 31
0.0
  0
LINE
  5
295
330
1F
100
AcDbEntity
  8
1-7_金物
  6
Continuous
 62
     7
370
     5
100
AcDbLine
 10
-1419.847872705337
 20
-2307.262365989652
 30
0.0
 11
-1419.847872705337
 21
-2206.762365989652
 31
0.0
  0
LINE
  5
296
330
1F
100
AcDbEntity
  8
1-7_金物
  6
Continuous
 62
     7
370
     5
100
AcDbLine
 10
-1329.847872705342
 20
-2206.762365989652
 30
0.0
 11
-1329.847872705342
 21
-2307.262365989652
 31
0.0
  0
LINE
  5
297
330
1F
100
AcDbEntity
  8
1-7_金物
  6
Continuous
 62
     7
370
     5
100
AcDbLine
 10
-1254.097874088744
 20
-2825.512365989654
 30
0.0
 11
-1254.097874088744
 21
-2307.262365989652
 31
0.0
  0
LINE
  5
298
330
1F
100
AcDbEntity
  8
1-7_金物
  6
Continuous
 62
     7
370
     5
100
AcDbLine
 10
-1495.597874088738
 20
-2825.512365989654
 30
0.0
 11
-1495.597874088738
 21
-2307.262365989652
 31
0.0
  0
ARC
  5
299
330
1F
100
AcDbEntity
  8
1-7_金物
  6
Continuous
 62
     7
370
     5
100
AcDbCircle
 10
-1374.847874088745
 20
-2825.512365989654
 30
0.0
 40
120.75
100
AcDbArc
 50
270.0
 51
0.0
  0
ARC
  5
29A
330
1F
100
AcDbEntity
  8
1-7_金物
  6
Continuous
 62
     7
370
     5
100
AcDbCircle
 10
-1374.847874088745
 20
-2825.512365989654
 30
0.0
 40
120.75
100
AcDbArc
 50
180.0
 51
270.0
  0
LINE
  5
29B
330
1F
100
AcDbEntity
  8
1-7_金物
  6
Continuous
 62
     7
370
     5
100
AcDbLine
 10
-1492.696188869654
 20
-2307.262365989652
 30
0.0
 11
-1255.696190430904
 21
-2307.262365989652
 31
0.0
  0
LINE
  5
29C
330
1F
100
AcDbEntity
  8
1-6_扉
  6
Continuous
 62
   200
370
     5
100
AcDbLine
 10
-1599.196189650279
 20
-2307.262365989652
 30
0.0
 11
-1149.196189650279
 21
-2307.262365989652
 31
0.0
  0
LINE
  5
29D
330
1F
100
AcDbEntity
  8
1-4_枠
  6
Continuous
 62
    92
370
     5
100
AcDbLine
 10
-1074.860062798822
 20
-1819.76236440863
 30
0.0
 11
-556.6961896502771
 21
-1819.762365989653
 31
0.0
  0
LINE
  5
29E
330
1F
100
AcDbEntity
  8
1-4_枠
  6
Continuous
 62
    92
370
     5
100
AcDbLine
 10
-1074.860062779109
 20
-1812.262364408632
 30
0.0
 11
-564.1961896502763
 21
-1812.262365969941
 31
0.0
  0
LINE
  5
29F
330
1F
100
AcDbEntity
  8
1-4_枠
  6
Continuous
 62
    92
370
     5
100
AcDbLine
 10
-1074.847874088745
 20
-1587.262365989652
 30
0.0
 11
-1074.847874088745
 21
-1819.762365989653
 31
0.0
  0
LINE
  5
2A0
330
1F
100
AcDbEntity
  8
1-4_枠
  6
Continuous
 62
    92
370
     5
100
AcDbLine
 10
-1674.835685378672
 20
-1819.762365989653
 30
0.0
 11
-1674.835685378672
 21
-1587.262365989652
 31
0.0
  0
LINE
  5
2A1
330
1F
100
AcDbEntity
  8
1-4_枠
  6
Continuous
 62
    92
370
     5
100
AcDbLine
 10
-1674.835685378672
 20
-1587.262365989652
 30
0.0
 11
-1074.847874088745
 21
-1587.262365989652
 31
0.0
  0
LINE
  5
2A2
330
1F
100
AcDbEntity
  8
1-C_ハッチ
  6
Continuous
 62
   120
370
     5
100
AcDbLine
 10
-1074.847874088745
 20
-1611.2939210649
 30
0.0
 11
-833.3163190134868
 21
-1369.762365989653
 31
0.0
  0
LINE
  5
2A3
330
1F
100
AcDbEntity
  8
1-C_ハッチ
  6
Continuous
 62
   120
370
     5
100
AcDbLine
 10
-1074.847874088745
 20
-1759.786345114087
 30
0.0
 11
-684.8238949643114
 21
-1369.762365989653
 31
0.0
  0
LINE
  5
2A4
330
1F
100
AcDbEntity
  8
1-C_ハッチ
  6
Continuous
 62
   120
370
     5
100
AcDbLine
 10
-1496.293591161059
 20
-1587.262365989652
 30
0.0
 11
-1278.793591161043
 21
-1369.762365989639
 31
0.0
  0
LINE
  5
2A5
330
1F
100
AcDbEntity
  8
1-C_ハッチ
  6
Continuous
 62
   120
370
     5
100
AcDbLine
 10
-1199.308743062681
 20
-1587.262365989652
 30
0.0
 11
-981.8087430626842
 21
-1369.762365989653
 31
0.0
  0
LINE
  5
2A6
330
1F
100
AcDbEntity
  8
1-C_ハッチ
  6
Continuous
 62
   120
370
     5
100
AcDbLine
 10
-1347.801167111801
 20
-1587.262365989652
 30
0.0
 11
-1130.301167111789
 21
-1369.762365989641
 31
0.0
  0
LINE
  5
2A7
330
1F
100
AcDbEntity
  8
1-C_ハッチ
  6
Continuous
 62
   120
370
     5
100
AcDbLine
 10
-1644.786015210172
 20
-1587.262365989652
 30
0.0
 11
-1427.286015210153
 21
-1369.762365989628
 31
0.0
  0
LINE
  5
2A8
330
1F
100
AcDbEntity
  8
1-C_ハッチ
  6
Continuous
 62
   120
370
     5
100
AcDbLine
 10
-1869.786015210168
 20
-1812.262365989654
 30
0.0
 11
-1674.835685378672
 21
-1617.312036158152
 31
0.0
  0
LINE
  5
2A9
330
1F
100
AcDbEntity
  8
1-C_ハッチ
  6
Continuous
 62
   120
370
     5
100
AcDbLine
 10
-1721.293591161059
 20
-1812.262365989654
 30
0.0
 11
-1674.847874088745
 21
-1765.816648917339
 31
0.0
  0
LINE
  5
2AA
330
1F
100
AcDbEntity
  8
1-0_補助線
  6
JWW_HOJO
 62
   120
370
     5
100
AcDbLine
 10
-819.8478740887375
 20
-2494.762365989654
 30
0.0
 11
-819.8478740887375
 21
-1819.762365989654
 31
0.0
  0
LINE
  5
2AB
330
1F
100
AcDbEntity
  8
1-0_補助線
  6
JWW_HOJO
 62
   120
370
     5
100
AcDbLine
 10
-669.8478740887375
 20
-2644.762365989654
 30
0.0
 11
-669.8478740887375
 21
-1819.762365989654
 31
0.0
  0
LINE
  5
2AC
330
1F
100
AcDbEntity
  8
1-0_補助線
  6
JWW_HOJO
 62
   120
370
     5
100
AcDbLine
 10
-1929.847874088752
 20
-2644.762365989654
 30
0.0
 11
-1929.847874088752
 21
-1819.762365989654
 31
0.0
  0
LINE
  5
2AD
330
1F
100
AcDbEntity
  8
1-0_補助線
  6
JWW_HOJO
 62
   120
370
     5
100
AcDbLine
 10
-2229.847874088752
 20
-2644.762365989654
 30
0.0
 11
-2229.847874088752
 21
-1819.762365989654
 31
0.0
  0
LINE
  5
2AE
330
1F
100
AcDbEntity
  8
1-0_補助線
  6
JWW_HOJO
 62
   120
370
     5
100
AcDbLine
 10
-2079.847874088752
 20
-2644.762365989654
 30
0.0
 11
-2079.847874088752
 21
-1819.762365989654
 31
0.0
  0
LINE
  5
2AF
330
1F
100
AcDbEntity
  8
1-0_補助線
  6
JWW_HOJO
 62
   120
370
     5
100
AcDbLine
 10
-819.8478740887375
 20
-2494.762365989654
 30
0.0
 11
-2229.847874088752
 21
-2494.762365989654
 31
0.0
  0
LINE
  5
2B0
330
1F
100
AcDbEntity
  8
1-0_補助線
  6
JWW_HOJO
 62
   120
370
     5
100
AcDbLine
 10
-669.8478740887375
 20
-2644.762365989654
 30
0.0
 11
-2229.847874088752
 21
-2644.762365989654
 31
0.0
  0
LINE
  5
2B1
330
1F
100
AcDbEntity
  8
1-0_補助線
  6
JWW_HOJO
 62
   120
370
     5
100
AcDbLine
 10
-3121.696189650279
 20
-844.7623659896526
 30
0.0
 11
-196.696189650278
 21
-844.7623659896526
 31
0.0
  0
LINE
  5
2B2
330
1F
100
AcDbEntity
  8
1-0_補助線
  6
JWW_HOJO
 62
   120
370
     5
100
AcDbLine
 10
-3121.696189650279
 20
-1294.762365989653
 30
0.0
 11
-196.696189650278
 21
-1294.762365989653
 31
0.0
  0
LINE
  5
2B3
330
1F
100
AcDbEntity
  8
1-0_補助線
  6
JWW_HOJO
 62
   120
370
     5
100
AcDbLine
 10
-3121.696189650279
 20
-1069.762365989653
 30
0.0
 11
-196.696189650278
 21
-1069.762365989653
 31
0.0
  0
LINE
  5
2B4
330
1F
100
AcDbEntity
  8
1-B_寸法
  6
Continuous
 62
   120
370
     5
100
AcDbLine
 10
-2761.696189650279
 20
-1069.762365989653
 30
0.0
 11
-1674.835685378672
 21
-1069.762365989653
 31
0.0
  0
LWPOLYLINE
  5
2B5
330
1F
100
AcDbEntity
  8
1-B_寸法
  6
Continuous
 62
     7
370
     5
100
AcDbPolyline
 90
        4
 70
     1
 43
3.0
 10
-2760.196189650279
 20
-1069.762365989653
 42
0.4142135623731
 10
-2761.696189650279
 20
-1068.262365989653
 42
0.4142135623731
 10
-2763.196189650279
 20
-1069.762365989653
 42
0.4142135623731
 10
-2761.696189650279
 20
-1071.262365989653
 42
0.4142135623731
  0
LWPOLYLINE
  5
2B6
330
1F
100
AcDbEntity
  8
1-B_寸法
  6
Continuous
 62
     7
370
     5
100
AcDbPolyline
 90
        4
 70
     1
 43
3.0
 10
-1673.335685378672
 20
-1069.762365989653
 42
0.4142135623731
 10
-1674.835685378672
 20
-1068.262365989653
 42
0.4142135623731
 10
-1676.335685378672
 20
-1069.762365989653
 42
0.4142135623731
 10
-1674.835685378672
 20
-1071.262365989653
 42
0.4142135623731
  0
LINE
  5
2B7
330
1F
100
AcDbEntity
  8
1-B_寸法
  6
Continuous
 62
   120
370
     5
100
AcDbLine
 10
-2761.696189650279
 20
-844.7623659896526
 30
0.0
 11
-2761.696189650279
 21
-1294.762365989653
 31
0.0
  0
LINE
  5
2B8
330
1F
100
AcDbEntity
  8
1-B_寸法
  6
Continuous
 62
   120
370
     5
100
AcDbLine
 10
-1674.835685378672
 20
-1069.762365989653
 30
0.0
 11
-1674.835685378672
 21
-1294.762365989653
 31
0.0
  0
MTEXT
  5
2B9
330
1F
100
AcDbEntity
  8
1-B_寸法
  6
Continuous
 62
     7
370
   211
100
AcDbMText
 10
-2349.515937514476
 20
-1064.756115989653
 30
0.0
 40
100.0125
 41
262.5
 46
0.0
 71
     7
 72
     1
  1
{\fＭＳ ゴシック|b0|i0|c128|p49;72.5}
 73
     1
 44
1.0
  0
LINE
  5
2BA
330
1F
100
AcDbEntity
  8
1-B_寸法
  6
Continuous
 62
   120
370
     5
100
AcDbLine
 10
-1674.835685378672
 20
-1069.762365989653
 30
0.0
 11
-1074.847874088745
 21
-1069.762365989653
 31
0.0
  0
LWPOLYLINE
  5
2BB
330
1F
100
AcDbEntity
  8
1-B_寸法
  6
Continuous
 62
     7
370
     5
100
AcDbPolyline
 90
        4
 70
     1
 43
3.0
 10
-1073.347874088745
 20
-1069.762365989653
 42
0.4142135623731
 10
-1074.847874088745
 20
-1068.262365989653
 42
0.4142135623731
 10
-1076.347874088745
 20
-1069.762365989653
 42
0.4142135623731
 10
-1074.847874088745
 20
-1071.262365989653
 42
0.4142135623731
  0
LINE
  5
2BC
330
1F
100
AcDbEntity
  8
1-B_寸法
  6
Continuous
 62
   120
370
     5
100
AcDbLine
 10
-1074.847874088745
 20
-1069.762365989653
 30
0.0
 11
-1074.847874088745
 21
-1294.762365989653
 31
0.0
  0
MTEXT
  5
2BD
330
1F
100
AcDbEntity
  8
1-B_寸法
  6
Continuous
 62
     7
370
   211
100
AcDbMText
 10
-1438.591779733709
 20
-1066.184865989653
 30
0.0
 40
97.15499999999999
 41
127.5
 46
0.0
 71
     7
 72
     1
  1
{\fＭＳ ゴシック|b0|i0|c128|p49;40}
 73
     1
 44
1.0
  0
LINE
  5
2BE
330
1F
100
AcDbEntity
  8
1-B_寸法
  6
Continuous
 62
   120
370
     5
100
AcDbLine
 10
-1074.847874088745
 20
-1069.762365989653
 30
0.0
 11
-556.6961896502771
 21
-1069.762365989653
 31
0.0
  0
LWPOLYLINE
  5
2BF
330
1F
100
AcDbEntity
  8
1-B_寸法
  6
Continuous
 62
     7
370
     5
100
AcDbPolyline
 90
        4
 70
     1
 43
3.0
 10
-555.1961896502771
 20
-1069.762365989653
 42
0.4142135623731
 10
-556.6961896502771
 20
-1068.262365989653
 42
0.4142135623731
 10
-558.1961896502772
 20
-1069.762365989653
 42
0.4142135623731
 10
-556.6961896502771
 20
-1071.262365989653
 42
0.4142135623731
  0
LINE
  5
2C0
330
1F
100
AcDbEntity
  8
1-B_寸法
  6
Continuous
 62
   120
370
     5
100
AcDbLine
 10
-556.6961896502771
 20
-844.7623659896526
 30
0.0
 11
-556.6961896502771
 21
-1294.762365989653
 31
0.0
  0
MTEXT
  5
2C1
330
1F
100
AcDbEntity
  8
1-B_寸法
  6
Continuous
 62
     7
370
   211
100
AcDbMText
 10
-947.0220318695111
 20
-1064.756115989653
 30
0.0
 40
100.0125
 41
262.5
 46
0.0
 71
     7
 72
     1
  1
{\fＭＳ ゴシック|b0|i0|c128|p49;34.5}
 73
     1
 44
1.0
  0
LINE
  5
2C2
330
1F
100
AcDbEntity
  8
1-B_寸法
  6
Continuous
 62
   120
370
     5
100
AcDbLine
 10
-556.6961896502771
 20
-844.7623659896526
 30
0.0
 11
-2761.696189650279
 21
-844.7623659896526
 31
0.0
  0
LWPOLYLINE
  5
2C3
330
1F
100
AcDbEntity
  8
1-B_寸法
  6
Continuous
 62
     7
370
     5
100
AcDbPolyline
 90
        4
 70
     1
 43
3.0
 10
-555.1961896502771
 20
-844.7623659896526
 42
0.4142135623731
 10
-556.6961896502771
 20
-843.2623659896526
 42
0.4142135623731
 10
-558.1961896502772
 20
-844.7623659896526
 42
0.4142135623731
 10
-556.6961896502771
 20
-846.2623659896526
 42
0.4142135623731
  0
LWPOLYLINE
  5
2C4
330
1F
100
AcDbEntity
  8
1-B_寸法
  6
Continuous
 62
     7
370
     5
100
AcDbPolyline
 90
        4
 70
     1
 43
3.0
 10
-2760.196189650279
 20
-844.7623659896526
 42
0.4142135623731
 10
-2761.696189650279
 20
-843.2623659896526
 42
0.4142135623731
 10
-2763.196189650279
 20
-844.7623659896526
 42
0.4142135623731
 10
-2761.696189650279
 20
-846.2623659896526
 42
0.4142135623731
  0
MTEXT
  5
2C5
330
1F
100
AcDbEntity
  8
1-B_寸法
  6
Continuous
 62
     7
370
   211
100
AcDbMText
 10
-1756.696189650279
 20
-840.2323659896526
 30
0.0
 40
99.05999999999989
 41
194.9999999999998
 46
0.0
 71
     7
 72
     1
  1
{\fＭＳ ゴシック|b0|i0|c128|p49;147}
 73
     1
 44
1.0
  0
LINE
  5
2C6
330
1F
100
AcDbEntity
  8
1-B_寸法
  6
Continuous
 62
   120
370
     5
100
AcDbLine
 10
-3121.696189650279
 20
-1369.762365989653
 30
0.0
 11
-3121.696189650279
 21
-1819.762365989653
 31
0.0
  0
LWPOLYLINE
  5
2C7
330
1F
100
AcDbEntity
  8
1-B_寸法
  6
Continuous
 62
     7
370
     5
100
AcDbPolyline
 90
        4
 70
     1
 43
3.0
 10
-3120.196189650279
 20
-1369.762365989653
 42
0.4142135623731
 10
-3121.696189650279
 20
-1368.262365989653
 42
0.4142135623731
 10
-3123.196189650279
 20
-1369.762365989653
 42
0.4142135623731
 10
-3121.696189650279
 20
-1371.262365989653
 42
0.4142135623731
  0
LWPOLYLINE
  5
2C8
330
1F
100
AcDbEntity
  8
1-B_寸法
  6
Continuous
 62
     7
370
     5
100
AcDbPolyline
 90
        4
 70
     1
 43
3.0
 10
-3120.196189650279
 20
-1819.762365989653
 42
0.4142135623731
 10
-3121.696189650279
 20
-1818.262365989653
 42
0.4142135623731
 10
-3123.196189650279
 20
-1819.762365989653
 42
0.4142135623731
 10
-3121.696189650279
 20
-1821.262365989653
 42
0.4142135623731
  0
LINE
  5
2C9
330
1F
100
AcDbEntity
  8
1-B_寸法
  6
Continuous
 62
   120
370
     5
100
AcDbLine
 10
-3121.696189650279
 20
-1369.762365989653
 30
0.0
 11
-2896.696189650279
 21
-1369.762365989653
 31
0.0
  0
LINE
  5
2CA
330
1F
100
AcDbEntity
  8
1-B_寸法
  6
Continuous
 62
   120
370
     5
100
AcDbLine
 10
-3121.696189650279
 20
-1819.762365989653
 30
0.0
 11
-2896.696189650279
 21
-1819.762365989653
 31
0.0
  0
MTEXT
  5
2CB
330
1F
100
AcDbEntity
  8
1-B_寸法
  6
Continuous
 62
     7
370
   211
100
AcDbMText
 10
-3136.696189650279
 20
-1669.934865989653
 30
0.0
 40
97.15499999999999
 41
127.5
 46
0.0
 71
     7
 72
     1
  1
{\fＭＳ ゴシック|b0|i0|c128|p49;30}
 11
6.123031769111886E-17
 21
1.0
 31
0.0
 73
     1
 44
1.0
  0
LINE
  5
2CC
330
1F
100
AcDbEntity
  8
1-B_寸法
  6
Continuous
 62
   120
370
     5
100
AcDbLine
 10
-3121.696189650279
 20
-1819.762365989653
 30
0.0
 11
-3121.696189650279
 21
-2419.762365989654
 31
0.0
  0
LWPOLYLINE
  5
2CD
330
1F
100
AcDbEntity
  8
1-B_寸法
  6
Continuous
 62
     7
370
     5
100
AcDbPolyline
 90
        4
 70
     1
 43
3.0
 10
-3120.196189650279
 20
-2419.762365989654
 42
0.4142135623731
 10
-3121.696189650279
 20
-2418.262365989654
 42
0.4142135623731
 10
-3123.196189650279
 20
-2419.762365989654
 42
0.4142135623731
 10
-3121.696189650279
 20
-2421.262365989654
 42
0.4142135623731
  0
LINE
  5
2CE
330
1F
100
AcDbEntity
  8
1-B_寸法
  6
Continuous
 62
   120
370
     5
100
AcDbLine
 10
-3121.696189650279
 20
-2419.762365989654
 30
0.0
 11
-2896.696189650279
 21
-2419.762365989654
 31
0.0
  0
MTEXT
  5
2CF
330
1F
100
AcDbEntity
  8
1-B_寸法
  6
Continuous
 62
     7
370
   211
100
AcDbMText
 10
-3136.696189650279
 20
-2194.934865989654
 30
0.0
 40
97.15499999999999
 41
127.5
 46
0.0
 71
     7
 72
     1
  1
{\fＭＳ ゴシック|b0|i0|c128|p49;40}
 11
6.123031769111886E-17
 21
1.0
 31
0.0
 73
     1
 44
1.0
  0
LINE
  5
2D0
330
1F
100
AcDbEntity
  8
1-B_寸法
  6
Continuous
 62
   120
370
     5
100
AcDbLine
 10
-2079.847874088752
 20
-2206.762365989652
 30
0.0
 11
-2079.847874088752
 21
-1819.762365989654
 31
0.0
  0
LWPOLYLINE
  5
2D1
330
1F
100
AcDbEntity
  8
1-B_寸法
  6
Continuous
 62
     7
370
     5
100
AcDbPolyline
 90
        4
 70
     1
 43
3.0
 10
-2078.347874088752
 20
-2206.762365989652
 42
0.4142135623731
 10
-2079.847874088752
 20
-2205.262365989652
 42
0.4142135623731
 10
-2081.347874088752
 20
-2206.762365989652
 42
0.4142135623731
 10
-2079.847874088752
 20
-2208.262365989652
 42
0.4142135623731
  0
LWPOLYLINE
  5
2D2
330
1F
100
AcDbEntity
  8
1-B_寸法
  6
Continuous
 62
     7
370
     5
100
AcDbPolyline
 90
        4
 70
     1
 43
3.0
 10
-2078.347874088752
 20
-1819.762365989654
 42
0.4142135623731
 10
-2079.847874088752
 20
-1818.262365989654
 42
0.4142135623731
 10
-2081.347874088752
 20
-1819.762365989654
 42
0.4142135623731
 10
-2079.847874088752
 20
-1821.262365989654
 42
0.4142135623731
  0
LINE
  5
2D3
330
1F
100
AcDbEntity
  8
1-B_寸法
  6
Continuous
 62
   120
370
     5
100
AcDbLine
 10
-2229.847874088752
 20
-2206.762365989652
 30
0.0
 11
-1929.847874088752
 21
-2206.762365989652
 31
0.0
  0
LINE
  5
2D4
330
1F
100
AcDbEntity
  8
1-B_寸法
  6
Continuous
 62
   120
370
     5
100
AcDbLine
 10
-2079.847874088752
 20
-1819.762365989654
 30
0.0
 11
-1929.847874088752
 21
-1819.762365989654
 31
0.0
  0
MTEXT
  5
2D5
330
1F
100
AcDbEntity
  8
1-B_寸法
  6
Continuous
 62
     7
370
   211
100
AcDbMText
 10
-2094.847874088752
 20
-2154.506115989653
 30
0.0
 40
100.0125
 41
262.5
 46
0.0
 71
     7
 72
     1
  1
{\fＭＳ ゴシック|b0|i0|c128|p49;25.8}
 11
6.123031769111886E-17
 21
1.0
 31
0.0
 73
     1
 44
1.0
  0
LINE
  5
2D6
330
1F
100
AcDbEntity
  8
1-B_寸法
  6
Continuous
 62
   120
370
     5
100
AcDbLine
 10
-2079.847874088752
 20
-1819.762365989654
 30
0.0
 11
-2079.847874088752
 21
-1587.274950832803
 31
0.0
  0
LWPOLYLINE
  5
2D7
330
1F
100
AcDbEntity
  8
1-B_寸法
  6
Continuous
 62
     7
370
     5
100
AcDbPolyline
 90
        4
 70
     1
 43
3.0
 10
-2078.347874088752
 20
-1587.274950832803
 42
0.4142135623731
 10
-2079.847874088752
 20
-1585.774950832803
 42
0.4142135623731
 10
-2081.347874088752
 20
-1587.274950832803
 42
0.4142135623731
 10
-2079.847874088752
 20
-1588.774950832803
 42
0.4142135623731
  0
LINE
  5
2D8
330
1F
100
AcDbEntity
  8
1-B_寸法
  6
Continuous
 62
   120
370
     5
100
AcDbLine
 10
-2229.847874088752
 20
-2307.262365989652
 30
0.0
 11
-2229.847874088752
 21
-2206.762365989652
 31
0.0
  0
LWPOLYLINE
  5
2D9
330
1F
100
AcDbEntity
  8
1-B_寸法
  6
Continuous
 62
     7
370
     5
100
AcDbPolyline
 90
        4
 70
     1
 43
3.0
 10
-2228.347874088752
 20
-2307.262365989652
 42
0.4142135623731
 10
-2229.847874088752
 20
-2305.762365989652
 42
0.4142135623731
 10
-2231.347874088752
 20
-2307.262365989652
 42
0.4142135623731
 10
-2229.847874088752
 20
-2308.762365989652
 42
0.4142135623731
  0
LWPOLYLINE
  5
2DA
330
1F
100
AcDbEntity
  8
1-B_寸法
  6
Continuous
 62
     7
370
     5
100
AcDbPolyline
 90
        4
 70
     1
 43
3.0
 10
-2228.347874088752
 20
-2206.762365989652
 42
0.4142135623731
 10
-2229.847874088752
 20
-2205.262365989652
 42
0.4142135623731
 10
-2231.347874088752
 20
-2206.762365989652
 42
0.4142135623731
 10
-2229.847874088752
 20
-2208.262365989652
 42
0.4142135623731
  0
LINE
  5
2DB
330
1F
100
AcDbEntity
  8
1-B_寸法
  6
Continuous
 62
   120
370
     5
100
AcDbLine
 10
-2229.847874088752
 20
-2307.262365989652
 30
0.0
 11
-1929.847874088752
 21
-2307.262365989652
 31
0.0
  0
MTEXT
  5
2DC
330
1F
100
AcDbEntity
  8
1-B_寸法
  6
Continuous
 62
     7
370
   211
100
AcDbMText
 10
-2244.847874088752
 20
-2364.982365989651
 30
0.0
 40
99.06
 41
195.0
 46
0.0
 71
     7
 72
     1
  1
{\fＭＳ ゴシック|b0|i0|c128|p49;6.7}
 11
6.123031769111886E-17
 21
1.0
 31
0.0
 73
     1
 44
1.0
  0
LINE
  5
2DD
330
1F
100
AcDbEntity
  8
1-B_寸法
  6
Continuous
 62
   120
370
     5
100
AcDbLine
 10
-2229.847874088752
 20
-2206.762365989652
 30
0.0
 11
-2229.847874088752
 21
-1587.274950832803
 31
0.0
  0
LWPOLYLINE
  5
2DE
330
1F
100
AcDbEntity
  8
1-B_寸法
  6
Continuous
 62
     7
370
     5
100
AcDbPolyline
 90
        4
 70
     1
 43
3.0
 10
-2228.347874088752
 20
-1587.274950832803
 42
0.4142135623731
 10
-2229.847874088752
 20
-1585.774950832803
 42
0.4142135623731
 10
-2231.347874088752
 20
-1587.274950832803
 42
0.4142135623731
 10
-2229.847874088752
 20
-1588.774950832803
 42
0.4142135623731
  0
MTEXT
  5
2DF
330
1F
100
AcDbEntity
  8
1-B_寸法
  6
Continuous
 62
     7
370
   211
100
AcDbMText
 10
-2244.847874088752
 20
-2038.262408411227
 30
0.0
 40
100.0125
 41
262.5
 46
0.0
 71
     7
 72
     1
  1
{\fＭＳ ゴシック|b0|i0|c128|p49;41.3}
 11
6.123031769111886E-17
 21
1.0
 31
0.0
 73
     1
 44
1.0
  0
LINE
  5
2E0
330
1F
100
AcDbEntity
  8
1-B_寸法
  6
Continuous
 62
   120
370
     5
100
AcDbLine
 10
-2229.847874088752
 20
-1587.274950832803
 30
0.0
 11
-2229.847874088752
 21
-1369.762365989653
 31
0.0
  0
LWPOLYLINE
  5
2E1
330
1F
100
AcDbEntity
  8
1-B_寸法
  6
Continuous
 62
     7
370
     5
100
AcDbPolyline
 90
        4
 70
     1
 43
3.0
 10
-2228.347874088752
 20
-1369.762365989653
 42
0.4142135623731
 10
-2229.847874088752
 20
-1368.262365989653
 42
0.4142135623731
 10
-2231.347874088752
 20
-1369.762365989653
 42
0.4142135623731
 10
-2229.847874088752
 20
-1371.262365989653
 42
0.4142135623731
  0
LINE
  5
2E2
330
1F
100
AcDbEntity
  8
1-B_寸法
  6
Continuous
 62
   120
370
     5
100
AcDbLine
 10
-2229.847874088752
 20
-1369.762365989653
 30
0.0
 11
-1929.847874088752
 21
-1369.762365989653
 31
0.0
  0
MTEXT
  5
2E3
330
1F
100
AcDbEntity
  8
1-B_寸法
  6
Continuous
 62
     7
370
   211
100
AcDbMText
 10
-2244.847874088752
 20
-1654.940987011926
 30
0.0
 40
100.0125
 41
262.5
 46
0.0
 71
     7
 72
     1
  1
{\fＭＳ ゴシック|b0|i0|c128|p49;14.5}
 11
6.123031769111886E-17
 21
1.0
 31
0.0
 73
     1
 44
1.0
  0
MTEXT
  5
2E4
330
1F
100
AcDbEntity
  8
1-B_寸法
  6
Continuous
 62
     7
370
   211
100
AcDbMText
 10
-2094.847874088752
 20
-1775.779758438011
 30
0.0
 40
100.0125
 41
262.5
 46
0.0
 71
     7
 72
     1
  1
{\fＭＳ ゴシック|b0|i0|c128|p49;15.5}
 11
6.123031769111886E-17
 21
1.0
 31
0.0
 73
     1
 44
1.0
  0
LINE
  5
2E5
330
1F
100
AcDbEntity
  8
1-4_枠
  6
Continuous
 62
    92
370
     5
100
AcDbLine
 10
-2373.010480203942
 20
-1812.262365989654
 30
0.0
 11
-2754.196189650279
 21
-1812.262365989654
 31
0.0
  0
LINE
  5
2E6
330
1F
100
AcDbEntity
  8
1-4_枠
  6
Continuous
 62
    92
370
     5
100
AcDbLine
 10
-1674.847874088745
 20
-1812.262365989654
 30
0.0
 11
-2239.178292495481
 21
-1812.262365989654
 31
0.0
  0
LINE
  5
2E7
330
1F
100
AcDbEntity
  8
1-4_枠
  6
Continuous
 62
    92
370
     5
100
AcDbLine
 10
-2373.010480203942
 20
-1819.762365989653
 30
0.0
 11
-2761.696189650279
 21
-1819.762365989653
 31
0.0
  0
LINE
  5
2E8
330
1F
100
AcDbEntity
  8
1-4_枠
  6
Continuous
 62
    92
370
     5
100
AcDbLine
 10
-1674.835685378672
 20
-1819.762365989653
 30
0.0
 11
-2239.178292495481
 21
-1819.762365989653
 31
0.0
  0
LINE
  5
2E9
330
1F
100
AcDbEntity
  8
1-B_寸法
  6
Continuous
 62
   120
370
     5
100
AcDbLine
 10
-1074.847874088745
 20
-2644.762365989654
 30
0.0
 11
-894.8478740887375
 21
-2644.762365989654
 31
0.0
  0
LWPOLYLINE
  5
2EA
330
1F
100
AcDbEntity
  8
1-B_寸法
  6
Continuous
 62
     7
370
     5
100
AcDbPolyline
 90
        4
 70
     1
 43
3.0
 10
-1073.347874088745
 20
-2644.762365989654
 42
0.4142135623731
 10
-1074.847874088745
 20
-2643.262365989654
 42
0.4142135623731
 10
-1076.347874088745
 20
-2644.762365989654
 42
0.4142135623731
 10
-1074.847874088745
 20
-2646.262365989654
 42
0.4142135623731
  0
LWPOLYLINE
  5
2EB
330
1F
100
AcDbEntity
  8
1-B_寸法
  6
Continuous
 62
     7
370
     5
100
AcDbPolyline
 90
        4
 70
     1
 43
3.0
 10
-893.3478740887375
 20
-2644.762365989654
 42
0.4142135623731
 10
-894.8478740887375
 20
-2643.262365989654
 42
0.4142135623731
 10
-896.3478740887375
 20
-2644.762365989654
 42
0.4142135623731
 10
-894.8478740887375
 20
-2646.262365989654
 42
0.4142135623731
  0
LINE
  5
2EC
330
1F
100
AcDbEntity
  8
1-B_寸法
  6
Continuous
 62
   120
370
     5
100
AcDbLine
 10
-1074.847874088745
 20
-2644.762365989654
 30
0.0
 11
-1074.847874088745
 21
-2494.762365989654
 31
0.0
  0
LINE
  5
2ED
330
1F
100
AcDbEntity
  8
1-B_寸法
  6
Continuous
 62
   120
370
     5
100
AcDbLine
 10
-894.8478740887375
 20
-2644.762365989654
 30
0.0
 11
-894.8478740887375
 21
-2494.762365989654
 31
0.0
  0
MTEXT
  5
2EE
330
1F
100
AcDbEntity
  8
1-B_寸法
  6
Continuous
 62
     7
370
   211
100
AcDbMText
 10
-1048.597874088742
 20
-2641.184865989655
 30
0.0
 40
97.15499999999999
 41
127.5
 46
0.0
 71
     7
 72
     1
  1
{\fＭＳ ゴシック|b0|i0|c128|p49;12}
 73
     1
 44
1.0
  0
LINE
  5
2EF
330
1F
100
AcDbEntity
  8
1-C_ハッチ
  6
Continuous
 62
   120
370
     5
100
AcDbLine
 10
-2133.569885773255
 20
-1482.076540355991
 30
0.0
 11
-2021.255711406907
 21
-1369.762365989645
 31
0.0
  0
LINE
  5
2F0
330
1F
100
AcDbEntity
  8
1-C_ハッチ
  6
Continuous
 62
   120
370
     5
100
AcDbLine
 10
-2092.054922714841
 20
-1737.546425395945
 30
0.0
 11
-1724.270863308534
 21
-1369.762365989641
 31
0.0
  0
LINE
  5
2F1
330
1F
100
AcDbEntity
  8
1-C_ハッチ
  6
Continuous
 62
   120
370
     5
100
AcDbLine
 10
-2166.77086330855
 20
-1812.262365989654
 30
0.0
 11
-2125.038879143607
 21
-1770.530381824711
 31
0.0
  0
LINE
  5
2F2
330
1F
100
AcDbEntity
  8
1-C_ハッチ
  6
Continuous
 62
   120
370
     5
100
AcDbLine
 10
-2092.054922714841
 20
-1589.054001346834
 30
0.0
 11
-1872.763287357661
 21
-1369.762365989645
 31
0.0
  0
LINE
  5
2F3
330
1F
100
AcDbEntity
  8
1-C_ハッチ
  6
Continuous
 62
   120
370
     5
100
AcDbLine
 10
-2239.178292495481
 20
-1736.177371127481
 30
0.0
 11
-2218.524174529955
 21
-1715.523253161954
 31
0.0
  0
LINE
  5
2F4
330
1F
100
AcDbEntity
  8
1-C_ハッチ
  6
Continuous
 62
   120
370
     5
100
AcDbLine
 10
-2243.644779342548
 20
-1443.659009876163
 30
0.0
 11
-2169.748135456017
 21
-1369.762365989632
 31
0.0
  0
LINE
  5
2F5
330
1F
100
AcDbEntity
  8
1-C_ハッチ
  6
Continuous
 62
   120
370
     5
100
AcDbLine
 10
-2612.24813545604
 20
-1812.262365989654
 30
0.0
 11
-2370.114031157661
 21
-1570.128261691277
 31
0.0
  0
LINE
  5
2F6
330
1F
100
AcDbEntity
  8
1-C_ハッチ
  6
Continuous
 62
   120
370
     5
100
AcDbLine
 10
-2327.47363136479
 20
-1378.995437849151
 30
0.0
 11
-2318.240559505272
 21
-1369.762365989632
 31
0.0
  0
LINE
  5
2F7
330
1F
100
AcDbEntity
  8
1-C_ハッチ
  6
Continuous
 62
   120
370
     5
100
AcDbLine
 10
-2754.196189650279
 20
-1805.717996134665
 30
0.0
 11
-2370.114031157661
 21
-1421.635837642025
 31
0.0
  0
LINE
  5
2F8
330
1F
100
AcDbEntity
  8
1-C_ハッチ
  6
Continuous
 62
   120
370
     5
100
AcDbLine
 10
-2243.644779342548
 20
-1592.151433925283
 30
0.0
 11
-2218.524174529955
 21
-1567.030829112691
 31
0.0
  0
LINE
  5
2F9
330
1F
100
AcDbEntity
  8
1-C_ハッチ
  6
Continuous
 62
   120
370
     5
100
AcDbLine
 10
-2463.755711406923
 20
-1812.262365989656
 30
0.0
 11
-2319.808852487296
 21
-1668.315507070029
 31
0.0
  0
LINE
  5
2FA
330
1F
100
AcDbEntity
  8
1-0_補助線
  6
JWW_HOJO
 62
   120
370
     5
100
AcDbLine
 10
-3121.696189650279
 20
-2894.707175428547
 30
0.0
 11
-196.696189650278
 21
-2894.707175428547
 31
0.0
  0
LINE
  5
2FB
330
1F
100
AcDbEntity
  8
1-0_補助線
  6
JWW_HOJO
 62
   120
370
     5
100
AcDbLine
 10
-3121.696189650279
 20
-3119.707175428547
 30
0.0
 11
-196.696189650278
 21
-3119.707175428547
 31
0.0
  0
LINE
  5
2FC
330
1F
100
AcDbEntity
  8
1-B_寸法
  6
Continuous
 62
   120
370
     5
100
AcDbLine
 10
-2761.696189650279
 20
-2894.707175428547
 30
0.0
 11
-1374.847874088745
 21
-2894.707175428547
 31
0.0
  0
LWPOLYLINE
  5
2FD
330
1F
100
AcDbEntity
  8
1-B_寸法
  6
Continuous
 62
     7
370
     5
100
AcDbPolyline
 90
        4
 70
     1
 43
3.0
 10
-2760.196189650279
 20
-2894.707175428547
 42
0.4142135623731
 10
-2761.696189650279
 20
-2893.207175428547
 42
0.4142135623731
 10
-2763.196189650279
 20
-2894.707175428547
 42
0.4142135623731
 10
-2761.696189650279
 20
-2896.207175428547
 42
0.4142135623731
  0
LWPOLYLINE
  5
2FE
330
1F
100
AcDbEntity
  8
1-B_寸法
  6
Continuous
 62
     7
370
     5
100
AcDbPolyline
 90
        4
 70
     1
 43
3.0
 10
-1373.347874088745
 20
-2894.707175428547
 42
0.4142135623731
 10
-1374.847874088745
 20
-2893.207175428547
 42
0.4142135623731
 10
-1376.347874088745
 20
-2894.707175428547
 42
0.4142135623731
 10
-1374.847874088745
 20
-2896.207175428547
 42
0.4142135623731
  0
LINE
  5
2FF
330
1F
100
AcDbEntity
  8
1-B_寸法
  6
Continuous
 62
   120
370
     5
100
AcDbLine
 10
-2761.696189650279
 20
-2894.707175428547
 30
0.0
 11
-2761.696189650279
 21
-2669.707175428547
 31
0.0
  0
LINE
  5
300
330
1F
100
AcDbEntity
  8
1-B_寸法
  6
Continuous
 62
   120
370
     5
100
AcDbLine
 10
-1374.847874088745
 20
-2894.707175428547
 30
0.0
 11
-1374.847874088745
 21
-2669.707175428547
 31
0.0
  0
MTEXT
  5
301
330
1F
100
AcDbEntity
  8
1-B_寸法
  6
Continuous
 62
     7
370
   211
100
AcDbMText
 10
-2199.522031869511
 20
-2889.700925428547
 30
0.0
 40
100.0125
 41
262.5
 46
0.0
 71
     7
 72
     1
  1
{\fＭＳ ゴシック|b0|i0|c128|p49;92.5}
 73
     1
 44
1.0
  0
LINE
  5
302
330
1F
100
AcDbEntity
  8
1-B_寸法
  6
Continuous
 62
   120
370
     5
100
AcDbLine
 10
-2821.696189650279
 20
-3119.707175428547
 30
0.0
 11
-1696.696189650279
 21
-3119.707175428547
 31
0.0
  0
LWPOLYLINE
  5
303
330
1F
100
AcDbEntity
  8
1-B_寸法
  6
Continuous
 62
     7
370
     5
100
AcDbPolyline
 90
        4
 70
     1
 43
3.0
 10
-2820.196189650279
 20
-3119.707175428547
 42
0.4142135623731
 10
-2821.696189650279
 20
-3118.207175428547
 42
0.4142135623731
 10
-2823.196189650279
 20
-3119.707175428547
 42
0.4142135623731
 10
-2821.696189650279
 20
-3121.207175428547
 42
0.4142135623731
  0
LWPOLYLINE
  5
304
330
1F
100
AcDbEntity
  8
1-B_寸法
  6
Continuous
 62
     7
370
     5
100
AcDbPolyline
 90
        4
 70
     1
 43
3.0
 10
-1695.196189650279
 20
-3119.707175428547
 42
0.4142135623731
 10
-1696.696189650279
 20
-3118.207175428547
 42
0.4142135623731
 10
-1698.196189650278
 20
-3119.707175428547
 42
0.4142135623731
 10
-1696.696189650279
 20
-3121.207175428547
 42
0.4142135623731
  0
LINE
  5
305
330
1F
100
AcDbEntity
  8
1-B_寸法
  6
Continuous
 62
   120
370
     5
100
AcDbLine
 10
-2821.696189650279
 20
-3119.707175428547
 30
0.0
 11
-2821.696189650279
 21
-2894.707175428547
 31
0.0
  0
MTEXT
  5
306
330
1F
100
AcDbEntity
  8
1-B_寸法
  6
Continuous
 62
     7
370
   211
100
AcDbMText
 10
-2322.946189650279
 20
-3116.129675428547
 30
0.0
 40
97.15499999999999
 41
127.5
 46
0.0
 71
     7
 72
     1
  1
{\fＭＳ ゴシック|b0|i0|c128|p49;75}
 73
     1
 44
1.0
  0
LINE
  5
307
330
1F
100
AcDbEntity
  8
1-B_寸法
  6
Continuous
 62
   120
370
     5
100
AcDbLine
 10
-1696.696189650279
 20
-3119.707175428547
 30
0.0
 11
-1599.196189650279
 21
-3119.707175428547
 31
0.0
  0
LWPOLYLINE
  5
308
330
1F
100
AcDbEntity
  8
1-B_寸法
  6
Continuous
 62
     7
370
     5
100
AcDbPolyline
 90
        4
 70
     1
 43
3.0
 10
-1597.696189650279
 20
-3119.707175428547
 42
0.4142135623731
 10
-1599.196189650279
 20
-3118.207175428547
 42
0.4142135623731
 10
-1600.696189650279
 20
-3119.707175428547
 42
0.4142135623731
 10
-1599.196189650279
 20
-3121.207175428547
 42
0.4142135623731
  0
LINE
  5
309
330
1F
100
AcDbEntity
  8
1-B_寸法
  6
Continuous
 62
   120
370
     5
100
AcDbLine
 10
-1599.196189650279
 20
-3119.707175428547
 30
0.0
 11
-1149.196189650279
 21
-3119.707175428547
 31
0.0
  0
LWPOLYLINE
  5
30A
330
1F
100
AcDbEntity
  8
1-B_寸法
  6
Continuous
 62
     7
370
     5
100
AcDbPolyline
 90
        4
 70
     1
 43
3.0
 10
-1147.696189650279
 20
-3119.707175428547
 42
0.4142135623731
 10
-1149.196189650279
 20
-3118.207175428547
 42
0.4142135623731
 10
-1150.696189650279
 20
-3119.707175428547
 42
0.4142135623731
 10
-1149.196189650279
 20
-3121.207175428547
 42
0.4142135623731
  0
LINE
  5
30B
330
1F
100
AcDbEntity
  8
1-B_寸法
  6
Continuous
 62
   120
370
     5
100
AcDbLine
 10
-1149.196189650279
 20
-3119.707175428547
 30
0.0
 11
-1149.196189650279
 21
-2894.707175428547
 31
0.0
  0
MTEXT
  5
30C
330
1F
100
AcDbEntity
  8
1-B_寸法
  6
Continuous
 62
     7
370
   211
100
AcDbMText
 10
-1437.946189650279
 20
-3116.129675428547
 30
0.0
 40
97.15499999999999
 41
127.5
 46
0.0
 71
     7
 72
     1
  1
{\fＭＳ ゴシック|b0|i0|c128|p49;30}
 73
     1
 44
1.0
  0
MTEXT
  5
30D
330
1F
100
AcDbEntity
  8
1-B_寸法
  6
Continuous
 62
     7
370
   211
100
AcDbMText
 10
-1910.873213075157
 20
-3115.177175428547
 30
0.0
 40
99.06
 41
195.0
 46
0.0
 71
     7
 72
     1
  1
{\fＭＳ ゴシック|b0|i0|c128|p49;6.5}
 73
     1
 44
1.0
  0
LINE
  5
30E
330
1F
100
AcDbEntity
  8
1-0_補助線
  6
JWW_HOJO
 62
   120
370
     5
100
AcDbLine
 10
-3121.696189650279
 20
-3213.848919265033
 30
0.0
 11
-3121.696189650279
 21
-844.7623659896526
 31
0.0
  0
LINE
  5
30F
330
1F
100
AcDbEntity
  8
1-0_補助線
  6
JWW_HOJO
 62
   120
370
     5
100
AcDbLine
 10
-196.696189650278
 20
-3213.848919265033
 30
0.0
 11
-196.696189650278
 21
-844.7623659896526
 31
0.0
  0
LINE
  5
310
330
1F
100
AcDbEntity
  8
1-4_枠
  6
Continuous
 62
   120
370
     5
100
AcDbLine
 10
-2821.696189650279
 20
-3213.848919265033
 30
0.0
 11
-2821.696189650279
 21
-1369.762365989653
 31
0.0
  0
LINE
  5
311
330
1F
100
AcDbEntity
  8
1-4_枠
  6
Continuous
 62
   120
370
     5
100
AcDbLine
 10
-496.696189650278
 20
-3213.848919265033
 30
0.0
 11
-496.696189650278
 21
-1369.762365989653
 31
0.0
  0
LINE
  5
312
330
1F
100
AcDbEntity
  8
1-6_扉
  6
Continuous
 62
   200
370
     5
100
AcDbLine
 10
-1149.196189650279
 20
-2307.262365989652
 30
0.0
 11
-1149.196189650279
 21
-3213.848919265033
 31
0.0
  0
LINE
  5
313
330
1F
100
AcDbEntity
  8
1-6_扉
  6
Continuous
 62
   200
370
     5
100
AcDbLine
 10
-1599.196189650279
 20
-2307.262365989652
 30
0.0
 11
-1599.196189650279
 21
-3213.848919265033
 31
0.0
  0
LINE
  5
314
330
1F
100
AcDbEntity
  8
1-4_枠
  6
Continuous
 62
   120
370
     5
100
AcDbLine
 10
-1696.696189650279
 20
-3213.848919265033
 30
0.0
 11
-1696.696189650279
 21
-1842.262365989655
 31
0.0
  0
LINE
  5
315
330
1F
100
AcDbEntity
  8
1-0_補助線
  6
JWW_HOJO
 62
   120
370
     5
100
AcDbLine
 10
-2896.696189650279
 20
-3213.848919265033
 30
0.0
 11
-2896.696189650279
 21
-844.7623659896526
 31
0.0
  0
LINE
  5
316
330
1F
100
AcDbEntity
  8
1-0_補助線
  6
JWW_HOJO
 62
   120
370
     5
100
AcDbLine
 10
-421.696189650278
 20
-3213.848919265033
 30
0.0
 11
-421.696189650278
 21
-844.7623659896526
 31
0.0
  0
LINE
  5
317
330
1F
100
AcDbEntity
  8
1-1_通り芯
  6
JWW_CENTER1
 62
   120
370
     5
100
AcDbLine
 10
-1374.847874088745
 20
-3213.848919265033
 30
0.0
 11
-1374.847874088745
 21
-1294.762365989653
 31
0.0
  0
LINE
  5
318
330
1F
100
AcDbEntity
  8
0-4_枠
  6
Continuous
 62
   120
370
     5
100
AcDbLine
 10
-4920.544902395466
 20
-3186.849125258687
 30
0.0
 11
-4920.544902395466
 21
-1977.848816268201
 31
0.0
  0
LINE
  5
319
330
1F
100
AcDbEntity
  8
0-A_文字
  6
Continuous
 62
     7
370
     5
100
AcDbLine
 10
-5473.503786453264
 20
-3133.967627326099
 30
0.0
 11
-5503.503786453261
 21
-3185.929151553166
 31
0.0
  0
LINE
  5
31A
330
1F
100
AcDbEntity
  8
0-A_文字
  6
Continuous
 62
     7
370
     5
100
AcDbLine
 10
-5533.503786453264
 20
-3133.967627326099
 30
0.0
 11
-5473.503786453264
 21
-3133.967627326099
 31
0.0
  0
LINE
  5
31B
330
1F
100
AcDbEntity
  8
0-A_文字
  6
Continuous
 62
     7
370
     5
100
AcDbLine
 10
-5533.503786453264
 20
-3133.967627326099
 30
0.0
 11
-5503.503786453264
 21
-3185.929151553166
 31
0.0
  0
LINE
  5
31C
330
1F
100
AcDbEntity
  8
0-3_仕上げ
  6
Continuous
 62
    40
370
     5
100
AcDbLine
 10
-5566.890890453675
 20
-3186.849125258687
 30
0.0
 11
-4155.544902395466
 21
-3186.849125258687
 31
0.0
  0
LINE
  5
31D
330
1F
100
AcDbEntity
  8
0-3_仕上げ
  6
Continuous
 62
    40
370
     5
100
AcDbLine
 10
-5566.890890453675
 20
-3258.84912525869
 30
0.0
 11
-4155.544902395466
 21
-3258.84912525869
 31
0.0
  0
LINE
  5
31E
330
1F
100
AcDbEntity
  8
0-3_仕上げ
  6
Continuous
 62
     7
370
     5
100
AcDbLine
 10
-5566.890890453675
 20
-3249.849125258688
 30
0.0
 11
-4155.544902395466
 21
-3249.849125258688
 31
0.0
  0
LINE
  5
31F
330
1F
100
AcDbEntity
  8
0-3_仕上げ
  6
Continuous
 62
     7
370
     5
100
AcDbLine
 10
-5566.890890453675
 20
-3231.849125258687
 30
0.0
 11
-4155.544902395466
 21
-3231.849125258687
 31
0.0
  0
LINE
  5
320
330
1F
100
AcDbEntity
  8
0-3_仕上げ
  6
Continuous
 62
     7
370
     5
100
AcDbLine
 10
-5566.890890453675
 20
-3240.849125258685
 30
0.0
 11
-4155.544902395466
 21
-3240.849125258685
 31
0.0
  0
LINE
  5
321
330
1F
100
AcDbEntity
  8
0-3_仕上げ
  6
Continuous
 62
     7
370
     5
100
AcDbLine
 10
-5566.890890453675
 20
-3222.849125258685
 30
0.0
 11
-4155.544902395466
 21
-3222.849125258685
 31
0.0
  0
LINE
  5
322
330
1F
100
AcDbEntity
  8
0-3_仕上げ
  6
Continuous
 62
     7
370
     5
100
AcDbLine
 10
-5566.890890453675
 20
-3213.849125258686
 30
0.0
 11
-4155.544902395466
 21
-3213.849125258686
 31
0.0
  0
LINE
  5
323
330
1F
100
AcDbEntity
  8
0-3_仕上げ
  6
Continuous
 62
     7
370
     5
100
AcDbLine
 10
-5566.890890453675
 20
-3204.849125258688
 30
0.0
 11
-4155.544902395466
 21
-3204.849125258688
 31
0.0
  0
LINE
  5
324
330
1F
100
AcDbEntity
  8
0-3_仕上げ
  6
Continuous
 62
     7
370
     5
100
AcDbLine
 10
-5566.890890453675
 20
-3195.849125258685
 30
0.0
 11
-4155.544902395466
 21
-3195.849125258685
 31
0.0
  0
LINE
  5
325
330
1F
100
AcDbEntity
  8
0-0_補助線
  6
JWW_HOJO
 62
   120
370
     5
100
AcDbLine
 10
-5566.890890453675
 20
-3258.848919265033
 30
0.0
 11
-4155.544902395466
 21
-3258.848919265033
 31
0.0
  0
LINE
  5
326
330
1F
100
AcDbEntity
  8
0-C_ハッチ
  6
Continuous
 62
   120
370
     5
100
AcDbLine
 10
-4797.582576404044
 20
-3186.604545844901
 30
0.0
 11
-4782.784904868849
 21
-3171.806874309703
 31
0.0
  0
LINE
  5
327
330
1F
100
AcDbEntity
  8
0-C_ハッチ
  6
Continuous
 62
   120
370
     5
100
AcDbLine
 10
-4823.282999940579
 20
-3186.849125258676
 30
0.0
 11
-4805.283597027855
 21
-3168.849722345956
 31
0.0
  0
LINE
  5
328
330
1F
100
AcDbEntity
  8
0-C_ハッチ
  6
Continuous
 62
   120
370
     5
100
AcDbLine
 10
-4800.544902395472
 20
-3164.111027713569
 30
0.0
 11
-4782.544902395457
 21
-3146.111027713559
 31
0.0
  0
LINE
  5
329
330
1F
100
AcDbEntity
  8
0-C_ハッチ
  6
Continuous
 62
   120
370
     5
100
AcDbLine
 10
-4848.73884406328
 20
-3186.849125258685
 30
0.0
 11
-4830.739441150567
 21
-3168.849722345966
 31
0.0
  0
LINE
  5
32A
330
1F
100
AcDbEntity
  8
0-C_ハッチ
  6
Continuous
 62
   120
370
     5
100
AcDbLine
 10
-4800.544902395461
 20
-3138.655183590864
 30
0.0
 11
-4782.544902395453
 21
-3120.655183590858
 31
0.0
  0
LINE
  5
32B
330
1F
100
AcDbEntity
  8
0-C_ハッチ
  6
Continuous
 62
   120
370
     5
100
AcDbLine
 10
-4874.194688185981
 20
-3186.849125258688
 30
0.0
 11
-4856.195285273271
 21
-3168.849722345976
 31
0.0
  0
LINE
  5
32C
330
1F
100
AcDbEntity
  8
0-C_ハッチ
  6
Continuous
 62
   120
370
     5
100
AcDbLine
 10
-4800.544902395451
 20
-3113.199339468157
 30
0.0
 11
-4782.544902395447
 21
-3095.199339468152
 31
0.0
  0
LINE
  5
32D
330
1F
100
AcDbEntity
  8
0-C_ハッチ
  6
Continuous
 62
   120
370
     5
100
AcDbLine
 10
-4800.544902395458
 20
-3087.743495345413
 30
0.0
 11
-4782.54490239545
 21
-3069.743495345404
 31
0.0
  0
LINE
  5
32E
330
1F
100
AcDbEntity
  8
0-C_ハッチ
  6
Continuous
 62
   120
370
     5
100
AcDbLine
 10
-4890.544902395466
 20
-3177.743495345418
 30
0.0
 11
-4881.651129396007
 21
-3168.849722345959
 31
0.0
  0
LINE
  5
32F
330
1F
100
AcDbEntity
  8
0-7_金物
  6
Continuous
 62
     7
370
     5
100
AcDbLine
 10
-4811.044902395465
 20
-3135.849125258687
 30
0.0
 11
-4811.044902395465
 21
-3027.849125258687
 31
0.0
  0
LINE
  5
330
330
1F
100
AcDbEntity
  8
0-7_金物
  6
Continuous
 62
     7
370
     5
100
AcDbLine
 10
-4829.044902395466
 20
-3135.849125258687
 30
0.0
 11
-4811.044902395465
 21
-3135.849125258687
 31
0.0
  0
LINE
  5
331
330
1F
100
AcDbEntity
  8
0-7_金物
  6
Continuous
 62
     7
370
     5
100
AcDbLine
 10
-4829.044902395466
 20
-3141.849125258685
 30
0.0
 11
-4829.044902395466
 21
-3135.849125258687
 31
0.0
  0
LINE
  5
332
330
1F
100
AcDbEntity
  8
0-7_金物
  6
Continuous
 62
     7
370
     5
100
AcDbLine
 10
-4805.044902395464
 20
-3141.849125258685
 30
0.0
 11
-4805.044902395464
 21
-3033.849125258687
 31
0.0
  0
LINE
  5
333
330
1F
100
AcDbEntity
  8
0-7_金物
  6
Continuous
 62
     7
370
     5
100
AcDbLine
 10
-4805.044902395464
 20
-3141.849125258685
 30
0.0
 11
-4829.044902395466
 21
-3141.849125258685
 31
0.0
  0
LINE
  5
334
330
1F
100
AcDbEntity
  8
0-7_金物
  6
Continuous
 62
     7
370
     5
100
AcDbLine
 10
-4772.044902395465
 20
-3027.849125258687
 30
0.0
 11
-4772.044902395465
 21
-3135.849125258687
 31
0.0
  0
LINE
  5
335
330
1F
100
AcDbEntity
  8
0-7_金物
  6
Continuous
 62
     7
370
     5
100
AcDbLine
 10
-4778.044902395466
 20
-3033.849125258687
 30
0.0
 11
-4778.044902395466
 21
-3141.849125258685
 31
0.0
  0
LINE
  5
336
330
1F
100
AcDbEntity
  8
0-7_金物
  6
Continuous
 62
     7
370
     5
100
AcDbLine
 10
-4811.044902395465
 20
-3027.849125258687
 30
0.0
 11
-4772.044902395465
 21
-3027.849125258687
 31
0.0
  0
LINE
  5
337
330
1F
100
AcDbEntity
  8
0-7_金物
  6
Continuous
 62
     7
370
     5
100
AcDbLine
 10
-4778.044902395466
 20
-3033.849125258687
 30
0.0
 11
-4805.044902395464
 21
-3033.849125258687
 31
0.0
  0
LINE
  5
338
330
1F
100
AcDbEntity
  8
0-7_金物
  6
Continuous
 62
     7
370
     5
100
AcDbLine
 10
-4778.044902395466
 20
-3141.849125258685
 30
0.0
 11
-4754.044902395466
 21
-3141.849125258685
 31
0.0
  0
LINE
  5
339
330
1F
100
AcDbEntity
  8
0-7_金物
  6
Continuous
 62
     7
370
     5
100
AcDbLine
 10
-4754.044902395466
 20
-3135.849125258687
 30
0.0
 11
-4754.044902395466
 21
-3141.849125258685
 31
0.0
  0
LINE
  5
33A
330
1F
100
AcDbEntity
  8
0-7_金物
  6
Continuous
 62
     7
370
     5
100
AcDbLine
 10
-4772.044902395465
 20
-3135.849125258687
 30
0.0
 11
-4754.044902395466
 21
-3135.849125258687
 31
0.0
  0
LINE
  5
33B
330
1F
100
AcDbEntity
  8
0-7_金物
  6
Continuous
 62
    92
370
     5
100
AcDbLine
 10
-4890.544902395466
 20
-3168.849125258686
 30
0.0
 11
-4890.544902395466
 21
-3186.849125258685
 31
0.0
  0
LINE
  5
33C
330
1F
100
AcDbEntity
  8
0-7_金物
  6
Continuous
 62
    92
370
     5
100
AcDbLine
 10
-4890.544902395466
 20
-3168.849125258686
 30
0.0
 11
-4800.544902395456
 21
-3168.849125258686
 31
0.0
  0
LINE
  5
33D
330
1F
100
AcDbEntity
  8
0-7_金物
  6
Continuous
 62
    92
370
     5
100
AcDbLine
 10
-4800.544902395456
 20
-3066.849125258685
 30
0.0
 11
-4782.544902395457
 21
-3066.849125258685
 31
0.0
  0
LINE
  5
33E
330
1F
100
AcDbEntity
  8
0-7_金物
  6
Continuous
 62
    92
370
     5
100
AcDbLine
 10
-4800.544902395456
 20
-3066.849125258685
 30
0.0
 11
-4800.544902395456
 21
-3168.849125258686
 31
0.0
  0
LINE
  5
33F
330
1F
100
AcDbEntity
  8
0-7_金物
  6
Continuous
 62
    92
370
     5
100
AcDbLine
 10
-4800.544902395456
 20
-3186.849125258685
 30
0.0
 11
-4890.544902395466
 21
-3186.849125258685
 31
0.0
  0
LINE
  5
340
330
1F
100
AcDbEntity
  8
0-7_金物
  6
Continuous
 62
    92
370
     5
100
AcDbLine
 10
-4782.544902395457
 20
-3168.849125258686
 30
0.0
 11
-4782.544902395457
 21
-3066.849125258685
 31
0.0
  0
ARC
  5
341
330
1F
100
AcDbEntity
  8
0-7_金物
  6
Continuous
 62
    92
370
     5
100
AcDbCircle
 10
-4800.544902395456
 20
-3168.849125258686
 30
0.0
 40
18.0
100
AcDbArc
 50
270.0
 51
0.0
  0
LINE
  5
342
330
1F
100
AcDbEntity
  8
0-6_扉
  6
Continuous
 62
   200
370
     5
100
AcDbLine
 10
-4772.044902395465
 20
-3027.849125258687
 30
0.0
 11
-4772.044902395465
 21
-3135.849125258687
 31
0.0
  0
LINE
  5
343
330
1F
100
AcDbEntity
  8
0-6_扉
  6
Continuous
 62
   200
370
     5
100
AcDbLine
 10
-4811.044902395467
 20
-3027.849125258687
 30
0.0
 11
-4811.044902395467
 21
-3135.849125258687
 31
0.0
  0
LINE
  5
344
330
1F
100
AcDbEntity
  8
0-6_扉
  6
Continuous
 62
   200
370
     5
100
AcDbLine
 10
-4772.044902395465
 20
-3027.849125258687
 30
0.0
 11
-4811.044902395467
 21
-3027.849125258687
 31
0.0
  0
LINE
  5
345
330
1F
100
AcDbEntity
  8
0-6_扉
  6
Continuous
 62
   200
370
     5
100
AcDbLine
 10
-4811.044902395467
 20
-3135.849125258687
 30
0.0
 11
-4881.544902395466
 21
-3135.849125258687
 31
0.0
  0
LINE
  5
346
330
1F
100
AcDbEntity
  8
0-6_扉
  6
Continuous
 62
   200
370
     5
100
AcDbLine
 10
-4701.544902395466
 20
-3135.849125258687
 30
0.0
 11
-4772.044902395465
 21
-3135.849125258687
 31
0.0
  0
LINE
  5
347
330
1F
100
AcDbEntity
  8
0-0_補助線
  6
JWW_HOJO
 62
   120
370
     5
100
AcDbLine
 10
-4742.044902395466
 20
-2997.849125258686
 30
0.0
 11
-4742.044902395466
 21
-3261.849312724097
 31
0.0
  0
LWPOLYLINE
  5
348
330
1F
100
AcDbEntity
  8
0-B_寸法
  6
Continuous
 62
     7
370
     5
100
AcDbPolyline
 90
        4
 70
     1
 43
3.0
 10
-4776.544902395455
 20
-2937.849125258686
 42
0.4142135623731
 10
-4778.044902395456
 20
-2936.349125258686
 42
0.4142135623731
 10
-4779.544902395456
 20
-2937.849125258686
 42
0.4142135623731
 10
-4778.044902395456
 20
-2939.349125258685
 42
0.4142135623731
  0
LINE
  5
349
330
1F
100
AcDbEntity
  8
0-B_寸法
  6
Continuous
 62
   120
370
     5
100
AcDbLine
 10
-4778.044902395456
 20
-2937.849125258686
 30
0.0
 11
-4778.044902395456
 21
-2997.849125258686
 31
0.0
  0
LWPOLYLINE
  5
34A
330
1F
100
AcDbEntity
  8
0-B_寸法
  6
Continuous
 62
     7
370
     5
100
AcDbPolyline
 90
        4
 70
     1
 43
3.0
 10
-4803.544902395455
 20
-2937.849125258686
 42
0.4142135623731
 10
-4805.044902395455
 20
-2936.349125258686
 42
0.4142135623731
 10
-4806.544902395455
 20
-2937.849125258686
 42
0.4142135623731
 10
-4805.044902395455
 20
-2939.349125258685
 42
0.4142135623731
  0
LINE
  5
34B
330
1F
100
AcDbEntity
  8
0-B_寸法
  6
Continuous
 62
   120
370
     5
100
AcDbLine
 10
-4805.044902395455
 20
-2937.849125258686
 30
0.0
 11
-4805.044902395455
 21
-2997.849125258686
 31
0.0
  0
LINE
  5
34C
330
1F
100
AcDbEntity
  8
0-B_寸法
  6
Continuous
 62
   120
370
     5
100
AcDbLine
 10
-4805.044902395455
 20
-2937.849125258686
 30
0.0
 11
-4778.044902395456
 21
-2937.849125258686
 31
0.0
  0
MTEXT
  5
34D
330
1F
100
AcDbEntity
  8
0-B_寸法
  6
Continuous
 62
     7
370
   211
100
AcDbMText
 10
-4869.544902395456
 20
-2929.749125258686
 30
0.0
 40
76.19999999999999
 41
150.0
 46
0.0
 71
     7
 72
     1
  1
{\fＭＳ ゴシック|b0|i0|c128|p49;4.5}
 73
     1
 44
1.0
  0
LINE
  5
34E
330
1F
100
AcDbEntity
  8
0-0_補助線
  6
JWW_HOJO
 62
   120
370
     5
100
AcDbLine
 10
-4671.544902395466
 20
-2997.849125258686
 30
0.0
 11
-4671.544902395466
 21
-3261.849312724097
 31
0.0
  0
MTEXT
  5
34F
330
1F
100
AcDbEntity
  8
0-B_寸法
  6
Continuous
 62
     7
370
   211
100
AcDbMText
 10
-4536.544902395466
 20
-3156.129125258688
 30
0.0
 40
91.44
 41
120.0
 46
0.0
 71
     7
 72
     1
  1
{\fＭＳ ゴシック|b0|i0|c128|p49;18}
 11
6.123031769111886E-17
 21
1.0
 31
0.0
 73
     1
 44
1.0
  0
LINE
  5
350
330
1F
100
AcDbEntity
  8
0-B_寸法
  6
Continuous
 62
   120
370
     5
100
AcDbLine
 10
-4521.544902395466
 20
-3135.849125258687
 30
0.0
 11
-4521.544902395466
 21
-3027.849125258687
 31
0.0
  0
LWPOLYLINE
  5
351
330
1F
100
AcDbEntity
  8
0-B_寸法
  6
Continuous
 62
     7
370
     5
100
AcDbPolyline
 90
        4
 70
     1
 43
3.0
 10
-4520.044902395465
 20
-3135.849125258687
 42
0.4142135623731
 10
-4521.544902395466
 20
-3134.349125258687
 42
0.4142135623731
 10
-4523.044902395466
 20
-3135.849125258687
 42
0.4142135623731
 10
-4521.544902395466
 20
-3137.349125258687
 42
0.4142135623731
  0
LWPOLYLINE
  5
352
330
1F
100
AcDbEntity
  8
0-B_寸法
  6
Continuous
 62
     7
370
     5
100
AcDbPolyline
 90
        4
 70
     1
 43
3.0
 10
-4520.044902395465
 20
-3027.849125258687
 42
0.4142135623731
 10
-4521.544902395466
 20
-3026.349125258687
 42
0.4142135623731
 10
-4523.044902395466
 20
-3027.849125258687
 42
0.4142135623731
 10
-4521.544902395466
 20
-3029.349125258687
 42
0.4142135623731
  0
LINE
  5
353
330
1F
100
AcDbEntity
  8
0-B_寸法
  6
Continuous
 62
   120
370
     5
100
AcDbLine
 10
-4521.544902395466
 20
-3135.849125258687
 30
0.0
 11
-4641.544902395466
 21
-3135.849125258687
 31
0.0
  0
LINE
  5
354
330
1F
100
AcDbEntity
  8
0-B_寸法
  6
Continuous
 62
   120
370
     5
100
AcDbLine
 10
-4521.544902395466
 20
-3027.849125258687
 30
0.0
 11
-4641.544902395466
 21
-3027.849125258687
 31
0.0
  0
LINE
  5
355
330
1F
100
AcDbEntity
  8
0-0_補助線
  6
JWW_HOJO
 62
   120
370
     5
100
AcDbLine
 10
-4841.044902395446
 20
-2997.849125258686
 30
0.0
 11
-4841.044902395446
 21
-3261.849312724097
 31
0.0
  0
LINE
  5
356
330
1F
100
AcDbEntity
  8
0-B_寸法
  6
Continuous
 62
   120
370
     5
100
AcDbLine
 10
-5031.544902395464
 20
-3186.849125258686
 30
0.0
 11
-4911.544902395464
 21
-3186.849125258686
 31
0.0
  0
LWPOLYLINE
  5
357
330
1F
100
AcDbEntity
  8
0-B_寸法
  6
Continuous
 62
     7
370
     5
100
AcDbPolyline
 90
        4
 70
     1
 43
3.0
 10
-5030.044902395464
 20
-3186.849125258686
 42
0.4142135623731
 10
-5031.544902395464
 20
-3185.349125258686
 42
0.4142135623731
 10
-5033.044902395464
 20
-3186.849125258686
 42
0.4142135623731
 10
-5031.544902395464
 20
-3188.349125258686
 42
0.4142135623731
  0
LINE
  5
358
330
1F
100
AcDbEntity
  8
0-0_補助線
  6
JWW_HOJO
 62
   120
370
     5
100
AcDbLine
 10
-4671.544902395466
 20
-2997.849125258686
 30
0.0
 11
-4911.544902395464
 21
-2997.849125258686
 31
0.0
  0
LINE
  5
359
330
1F
100
AcDbEntity
  8
0-0_補助線
  6
JWW_HOJO
 62
   120
370
     5
100
AcDbLine
 10
-4911.544902395464
 20
-2997.849125258686
 30
0.0
 11
-4911.544902395464
 21
-3261.849312724097
 31
0.0
  0
MTEXT
  5
35A
330
1F
100
AcDbEntity
  8
0-B_寸法
  6
Continuous
 62
     7
370
   211
100
AcDbMText
 10
-5046.544902395464
 20
-3190.369462213001
 30
0.0
 40
91.43999999999934
 41
119.9999999999991
 46
0.0
 71
     7
 72
     1
  1
{\fＭＳ ゴシック|b0|i0|c128|p49;20}
 11
6.123031769111886E-17
 21
1.0
 31
0.0
 73
     1
 44
1.0
  0
LINE
  5
35B
330
1F
100
AcDbEntity
  8
0-B_寸法
  6
Continuous
 62
   120
370
     5
100
AcDbLine
 10
-5031.544902395464
 20
-3066.849125258685
 30
0.0
 11
-4911.544902395464
 21
-3066.849125258685
 31
0.0
  0
LWPOLYLINE
  5
35C
330
1F
100
AcDbEntity
  8
0-B_寸法
  6
Continuous
 62
     7
370
     5
100
AcDbPolyline
 90
        4
 70
     1
 43
3.0
 10
-5030.044902395464
 20
-3066.849125258685
 42
0.4142135623731
 10
-5031.544902395464
 20
-3065.349125258686
 42
0.4142135623731
 10
-5033.044902395464
 20
-3066.849125258685
 42
0.4142135623731
 10
-5031.544902395464
 20
-3068.349125258685
 42
0.4142135623731
  0
LINE
  5
35D
330
1F
100
AcDbEntity
  8
0-B_寸法
  6
Continuous
 62
   120
370
     5
100
AcDbLine
 10
-5031.544902395464
 20
-3186.849125258686
 30
0.0
 11
-5031.544902395464
 21
-3066.849125258685
 31
0.0
  0
MTEXT
  5
35E
330
1F
100
AcDbEntity
  8
0-B_寸法
  6
Continuous
 62
     7
370
   211
100
AcDbMText
 10
-5003.044902395466
 20
-1285.143709714557
 30
0.0
 40
99.06
 41
195.0
 46
0.0
 71
     7
 72
     1
  1
{\fＭＳ ゴシック|b0|i0|c128|p49;147}
 73
     1
 44
1.0
  0
LINE
  5
35F
330
1F
100
AcDbEntity
  8
0-C_ハッチ
  6
JWW_DASHED1
 62
   120
370
     5
100
AcDbLine
 10
-4590.544902395462
 20
-264.9183962892138
 30
0.0
 11
-4515.544902395462
 21
-189.9183962892138
 31
0.0
  0
LINE
  5
360
330
1F
100
AcDbEntity
  8
0-C_ハッチ
  6
JWW_DASHED1
 62
   120
370
     5
100
AcDbLine
 10
-4590.544902395462
 20
-307.3448031604121
 30
0.0
 11
-4515.544902395462
 21
-232.3448031604121
 31
0.0
  0
LINE
  5
361
330
1F
100
AcDbEntity
  8
0-C_ハッチ
  6
JWW_DASHED1
 62
   120
370
     5
100
AcDbLine
 10
-4590.54490239547
 20
-349.771210031619
 30
0.0
 11
-4515.544902395473
 21
-274.771210031622
 31
0.0
  0
LINE
  5
362
330
1F
100
AcDbEntity
  8
0-C_ハッチ
  6
JWW_DASHED1
 62
   120
370
     5
100
AcDbLine
 10
-4590.544902395466
 20
-392.1976169028152
 30
0.0
 11
-4515.54490239547
 21
-317.197616902819
 31
0.0
  0
LINE
  5
363
330
1F
100
AcDbEntity
  8
0-C_ハッチ
  6
JWW_DASHED1
 62
   120
370
     5
100
AcDbLine
 10
-4590.544902395462
 20
-434.6240237740122
 30
0.0
 11
-4515.544902395466
 21
-359.6240237740152
 31
0.0
  0
LINE
  5
364
330
1F
100
AcDbEntity
  8
0-C_ハッチ
  6
JWW_DASHED1
 62
   120
370
     5
100
AcDbLine
 10
-4590.54490239546
 20
-477.0504306452084
 30
0.0
 11
-4515.544902395462
 21
-402.0504306452122
 31
0.0
  0
LINE
  5
365
330
1F
100
AcDbEntity
  8
0-C_ハッチ
  6
JWW_DASHED1
 62
   120
370
     5
100
AcDbLine
 10
-4590.544902395473
 20
-519.4768375164211
 30
0.0
 11
-4515.54490239546
 21
-444.4768375164097
 31
0.0
  0
LINE
  5
366
330
1F
100
AcDbEntity
  8
0-C_ハッチ
  6
JWW_DASHED1
 62
   120
370
     5
100
AcDbLine
 10
-4590.54490239547
 20
-180.0655825468743
 30
0.0
 11
-4577.245576499373
 21
-166.7662566507759
 31
0.0
  0
LINE
  5
367
330
1F
100
AcDbEntity
  8
0-C_ハッチ
  6
JWW_DASHED1
 62
   120
370
     5
100
AcDbLine
 10
-4590.54490239547
 20
-222.4919894180709
 30
0.0
 11
-4534.819169628173
 21
-166.7662566507759
 31
0.0
  0
LINE
  5
368
330
1F
100
AcDbEntity
  8
0-3_仕上げ
  6
Continuous
 62
    40
370
     5
100
AcDbLine
 10
-4590.544902395466
 20
-554.6737097145568
 30
0.0
 11
-4515.544902395466
 21
-554.6737097145568
 31
0.0
  0
LINE
  5
369
330
1F
100
AcDbEntity
  8
0-3_仕上げ
  6
Continuous
 62
    40
370
     5
100
AcDbLine
 10
-4590.544902395466
 20
-554.6737097145568
 30
0.0
 11
-4590.544902395466
 21
-166.7662566507759
 31
0.0
  0
LINE
  5
36A
330
1F
100
AcDbEntity
  8
0-3_仕上げ
  6
Continuous
 62
    40
370
     5
100
AcDbLine
 10
-4515.544902395466
 20
-554.6737097145568
 30
0.0
 11
-4515.544902395466
 21
-166.7662566507759
 31
0.0
  0
LINE
  5
36B
330
1F
100
AcDbEntity
  8
0-C_ハッチ
  6
JWW_DASHED1
 62
   120
370
     5
100
AcDbLine
 10
-4583.315367722408
 20
-554.6737097145568
 30
0.0
 11
-4515.544902395456
 21
-486.9032443876063
 31
0.0
  0
LINE
  5
36C
330
1F
100
AcDbEntity
  8
0-C_ハッチ
  6
JWW_DASHED1
 62
   120
370
     5
100
AcDbLine
 10
-4540.888960851263
 20
-554.6737097145568
 30
0.0
 11
-4515.54490239548
 21
-529.3296512587756
 31
0.0
  0
LINE
  5
36D
330
1F
100
AcDbEntity
  8
0-C_ハッチ
  6
JWW_DASHED1
 62
   120
370
     5
100
AcDbLine
 10
-5295.544902395462
 20
-264.9183962892138
 30
0.0
 11
-5220.544902395462
 21
-189.9183962892138
 31
0.0
  0
LINE
  5
36E
330
1F
100
AcDbEntity
  8
0-C_ハッチ
  6
JWW_DASHED1
 62
   120
370
     5
100
AcDbLine
 10
-5295.544902395462
 20
-307.3448031604121
 30
0.0
 11
-5220.544902395462
 21
-232.3448031604121
 31
0.0
  0
LINE
  5
36F
330
1F
100
AcDbEntity
  8
0-C_ハッチ
  6
JWW_DASHED1
 62
   120
370
     5
100
AcDbLine
 10
-5295.54490239547
 20
-349.771210031619
 30
0.0
 11
-5220.544902395473
 21
-274.771210031622
 31
0.0
  0
LINE
  5
370
330
1F
100
AcDbEntity
  8
0-C_ハッチ
  6
JWW_DASHED1
 62
   120
370
     5
100
AcDbLine
 10
-5295.544902395466
 20
-392.1976169028152
 30
0.0
 11
-5220.54490239547
 21
-317.197616902819
 31
0.0
  0
LINE
  5
371
330
1F
100
AcDbEntity
  8
0-C_ハッチ
  6
JWW_DASHED1
 62
   120
370
     5
100
AcDbLine
 10
-5295.544902395462
 20
-434.6240237740122
 30
0.0
 11
-5220.544902395466
 21
-359.6240237740152
 31
0.0
  0
LINE
  5
372
330
1F
100
AcDbEntity
  8
0-C_ハッチ
  6
JWW_DASHED1
 62
   120
370
     5
100
AcDbLine
 10
-5295.54490239546
 20
-477.0504306452084
 30
0.0
 11
-5220.544902395462
 21
-402.0504306452122
 31
0.0
  0
LINE
  5
373
330
1F
100
AcDbEntity
  8
0-C_ハッチ
  6
JWW_DASHED1
 62
   120
370
     5
100
AcDbLine
 10
-5295.544902395473
 20
-519.4768375164211
 30
0.0
 11
-5220.54490239546
 21
-444.4768375164097
 31
0.0
  0
LINE
  5
374
330
1F
100
AcDbEntity
  8
0-C_ハッチ
  6
JWW_DASHED1
 62
   120
370
     5
100
AcDbLine
 10
-5295.54490239547
 20
-180.0655825468743
 30
0.0
 11
-5282.245576499373
 21
-166.7662566507759
 31
0.0
  0
LINE
  5
375
330
1F
100
AcDbEntity
  8
0-C_ハッチ
  6
JWW_DASHED1
 62
   120
370
     5
100
AcDbLine
 10
-5295.54490239547
 20
-222.4919894180709
 30
0.0
 11
-5239.819169628173
 21
-166.7662566507759
 31
0.0
  0
LINE
  5
376
330
1F
100
AcDbEntity
  8
0-3_仕上げ
  6
Continuous
 62
    40
370
     5
100
AcDbLine
 10
-5295.544902395466
 20
-554.6737097145568
 30
0.0
 11
-5220.544902395466
 21
-554.6737097145568
 31
0.0
  0
LINE
  5
377
330
1F
100
AcDbEntity
  8
0-3_仕上げ
  6
Continuous
 62
    40
370
     5
100
AcDbLine
 10
-5295.544902395466
 20
-554.6737097145568
 30
0.0
 11
-5295.544902395466
 21
-166.7662566507759
 31
0.0
  0
LINE
  5
378
330
1F
100
AcDbEntity
  8
0-3_仕上げ
  6
Continuous
 62
    40
370
     5
100
AcDbLine
 10
-5220.544902395466
 20
-554.6737097145568
 30
0.0
 11
-5220.544902395466
 21
-166.7662566507759
 31
0.0
  0
LINE
  5
379
330
1F
100
AcDbEntity
  8
0-C_ハッチ
  6
JWW_DASHED1
 62
   120
370
     5
100
AcDbLine
 10
-5288.315367722408
 20
-554.6737097145568
 30
0.0
 11
-5220.544902395456
 21
-486.9032443876063
 31
0.0
  0
LINE
  5
37A
330
1F
100
AcDbEntity
  8
0-C_ハッチ
  6
JWW_DASHED1
 62
   120
370
     5
100
AcDbLine
 10
-5245.888960851263
 20
-554.6737097145568
 30
0.0
 11
-5220.54490239548
 21
-529.3296512587756
 31
0.0
  0
LINE
  5
37B
330
1F
100
AcDbEntity
  8
0-0_補助線
  6
JWW_HOJO
 62
   120
370
     5
100
AcDbLine
 10
-4155.544902395466
 20
-166.7662566507759
 30
0.0
 11
-4155.544902395466
 21
-3258.848919265033
 31
0.0
  0
LINE
  5
37C
330
1F
100
AcDbEntity
  8
0-4_枠
  6
Continuous
 62
    92
370
     5
100
AcDbLine
 10
-5346.544902395466
 20
-734.6737097145568
 30
0.0
 11
-5346.544902395466
 21
-554.6737097145568
 31
0.0
  0
LINE
  5
37D
330
1F
100
AcDbEntity
  8
0-4_枠
  6
Continuous
 62
    92
370
     5
100
AcDbLine
 10
-5346.544902395466
 20
-554.6737097145568
 30
0.0
 11
-4464.544902395465
 21
-554.6737097145568
 31
0.0
  0
LINE
  5
37E
330
1F
100
AcDbEntity
  8
0-4_枠
  6
Continuous
 62
    92
370
     5
100
AcDbLine
 10
-4464.544902395465
 20
-554.6737097145568
 30
0.0
 11
-4464.544902395465
 21
-734.6737097145568
 31
0.0
  0
LINE
  5
37F
330
1F
100
AcDbEntity
  8
0-4_枠
  6
Continuous
 62
    92
370
     5
100
AcDbLine
 10
-5343.544902395467
 20
-731.6737097145574
 30
0.0
 11
-5343.544902395467
 21
-554.6737097145568
 31
0.0
  0
LINE
  5
380
330
1F
100
AcDbEntity
  8
0-C_ハッチ
  6
Continuous
 62
   120
370
     5
100
AcDbLine
 10
-5227.368711098124
 20
-731.6737097145583
 30
0.0
 11
-5050.368711098117
 21
-554.6737097145538
 31
0.0
  0
LINE
  5
381
330
1F
100
AcDbEntity
  8
0-C_ハッチ
  6
Continuous
 62
   120
370
     5
100
AcDbLine
 10
-5167.971741478415
 20
-731.6737097145574
 30
0.0
 11
-4990.971741478419
 21
-554.6737097145538
 31
0.0
  0
LINE
  5
382
330
1F
100
AcDbEntity
  8
0-C_ハッチ
  6
Continuous
 62
   120
370
     5
100
AcDbLine
 10
-5108.574771858775
 20
-731.6737097145574
 30
0.0
 11
-4931.574771858768
 21
-554.6737097145522
 31
0.0
  0
LINE
  5
383
330
1F
100
AcDbEntity
  8
0-C_ハッチ
  6
Continuous
 62
   120
370
     5
100
AcDbLine
 10
-5049.177802239127
 20
-731.6737097145574
 30
0.0
 11
-4872.177802239117
 21
-554.6737097145469
 31
0.0
  0
LINE
  5
384
330
1F
100
AcDbEntity
  8
0-C_ハッチ
  6
Continuous
 62
   120
370
     5
100
AcDbLine
 10
-5286.765680717769
 20
-731.6737097145574
 30
0.0
 11
-5109.765680717761
 21
-554.6737097145487
 31
0.0
  0
LINE
  5
385
330
1F
100
AcDbEntity
  8
0-C_ハッチ
  6
Continuous
 62
   120
370
     5
100
AcDbLine
 10
-4633.399014901433
 20
-731.6737097145583
 30
0.0
 11
-4467.544902395465
 21
-565.8195972085932
 31
0.0
  0
LINE
  5
386
330
1F
100
AcDbEntity
  8
0-C_ハッチ
  6
Continuous
 62
   120
370
     5
100
AcDbLine
 10
-4514.605075662138
 20
-731.6737097145583
 30
0.0
 11
-4467.544902395465
 21
-684.613536447886
 31
0.0
  0
LINE
  5
387
330
1F
100
AcDbEntity
  8
0-C_ハッチ
  6
Continuous
 62
   120
370
     5
100
AcDbLine
 10
-4574.002045281785
 20
-731.6737097145583
 30
0.0
 11
-4467.544902395465
 21
-625.2165668282396
 31
0.0
  0
LINE
  5
388
330
1F
100
AcDbEntity
  8
0-C_ハッチ
  6
Continuous
 62
   120
370
     5
100
AcDbLine
 10
-5343.544902395467
 20
-610.262022533143
 30
0.0
 11
-5287.956589576876
 21
-554.6737097145487
 31
0.0
  0
LINE
  5
389
330
1F
100
AcDbEntity
  8
0-C_ハッチ
  6
Continuous
 62
   120
370
     5
100
AcDbLine
 10
-5343.544902395467
 20
-669.6589921528473
 30
0.0
 11
-5228.559619957174
 21
-554.6737097145487
 31
0.0
  0
LINE
  5
38A
330
1F
100
AcDbEntity
  8
0-2_柱
  6
Continuous
 62
    92
370
     5
100
AcDbLine
 10
-5220.544902395466
 20
-554.6737097145568
 30
0.0
 11
-4590.544902395466
 21
-554.6737097145568
 31
0.0
  0
LINE
  5
38B
330
1F
100
AcDbEntity
  8
0-2_柱
  6
Continuous
 62
    92
370
     5
100
AcDbLine
 10
-4590.544902395466
 20
-554.6737097145568
 30
0.0
 11
-4590.544902395466
 21
-392.6737097145566
 31
0.0
  0
LINE
  5
38C
330
1F
100
AcDbEntity
  8
0-2_柱
  6
Continuous
 62
    92
370
     5
100
AcDbLine
 10
-4590.544902395466
 20
-392.6737097145566
 30
0.0
 11
-5220.544902395466
 21
-392.6737097145566
 31
0.0
  0
LINE
  5
38D
330
1F
100
AcDbEntity
  8
0-2_柱
  6
Continuous
 62
    92
370
     5
100
AcDbLine
 10
-5220.544902395466
 20
-392.6737097145566
 30
0.0
 11
-5220.544902395466
 21
-554.6737097145568
 31
0.0
  0
LINE
  5
38E
330
1F
100
AcDbEntity
  8
0-2_柱
  6
Continuous
 62
     7
370
     5
100
AcDbLine
 10
-4590.544902395466
 20
-392.6737097145566
 30
0.0
 11
-5220.544902395466
 21
-554.6737097145568
 31
0.0
  0
LINE
  5
38F
330
1F
100
AcDbEntity
  8
0-0_補助線
  6
JWW_HOJO
 62
   120
370
     5
100
AcDbLine
 10
-5566.890890453675
 20
-166.7662566507759
 30
0.0
 11
-5566.890890453675
 21
-3258.848919265033
 31
0.0
  0
LINE
  5
390
330
1F
100
AcDbEntity
  8
0-0_補助線
  6
JWW_HOJO
 62
   120
370
     5
100
AcDbLine
 10
-5566.890890453675
 20
-166.7662566507759
 30
0.0
 11
-4155.544902395466
 21
-166.7662566507759
 31
0.0
  0
LINE
  5
391
330
1F
100
AcDbEntity
  8
0-C_ハッチ
  6
Continuous
 62
   120
370
     5
100
AcDbLine
 10
-5343.544902395467
 20
-729.0559617725615
 30
0.0
 11
-5169.162650337463
 21
-554.6737097145487
 31
0.0
  0
LINE
  5
392
330
1F
100
AcDbEntity
  8
0-4_枠
  6
Continuous
 62
    92
370
     5
100
AcDbLine
 10
-4467.544902395465
 20
-554.6737097145568
 30
0.0
 11
-4467.544902395465
 21
-731.6737097066721
 31
0.0
  0
LINE
  5
393
330
1F
100
AcDbEntity
  8
0-4_枠
  6
Continuous
 62
   120
370
     5
100
AcDbLine
 10
-5370.544902395466
 20
-554.6737097145568
 30
0.0
 11
-5346.544902395466
 21
-554.6737097145568
 31
0.0
  0
LINE
  5
394
330
1F
100
AcDbEntity
  8
0-4_枠
  6
Continuous
 62
   120
370
     5
100
AcDbLine
 10
-4464.544902395465
 20
-554.6737097145568
 30
0.0
 11
-4440.544902395466
 21
-554.6737097145568
 31
0.0
  0
LWPOLYLINE
  5
395
330
1F
100
AcDbEntity
  8
0-B_寸法
  6
Continuous
 62
     7
370
     5
100
AcDbPolyline
 90
        4
 70
     1
 43
3.0
 10
-4463.044902395464
 20
-1274.673709714557
 42
0.4142135623731
 10
-4464.544902395465
 20
-1273.173709714557
 42
0.4142135623731
 10
-4466.044902395465
 20
-1274.673709714557
 42
0.4142135623731
 10
-4464.544902395465
 20
-1276.173709714557
 42
0.4142135623731
  0
LINE
  5
396
330
1F
100
AcDbEntity
  8
0-B_寸法
  6
Continuous
 62
   120
370
     5
100
AcDbLine
 10
-4464.544902395465
 20
-1274.673709714557
 30
0.0
 11
-4464.544902395465
 21
-1094.673709714557
 31
0.0
  0
LWPOLYLINE
  5
397
330
1F
100
AcDbEntity
  8
0-B_寸法
  6
Continuous
 62
     7
370
     5
100
AcDbPolyline
 90
        4
 70
     1
 43
3.0
 10
-5345.044902395465
 20
-1274.673709714557
 42
0.4142135623731
 10
-5346.544902395466
 20
-1273.173709714557
 42
0.4142135623731
 10
-5348.044902395466
 20
-1274.673709714557
 42
0.4142135623731
 10
-5346.544902395466
 20
-1276.173709714557
 42
0.4142135623731
  0
LINE
  5
398
330
1F
100
AcDbEntity
  8
0-B_寸法
  6
Continuous
 62
   120
370
     5
100
AcDbLine
 10
-5346.544902395466
 20
-1274.673709714557
 30
0.0
 11
-5346.544902395466
 21
-1094.673709714557
 31
0.0
  0
LINE
  5
399
330
1F
100
AcDbEntity
  8
0-B_寸法
  6
Continuous
 62
   120
370
     5
100
AcDbLine
 10
-4464.544902395465
 20
-1274.673709714557
 30
0.0
 11
-5346.544902395466
 21
-1274.673709714557
 31
0.0
  0
LINE
  5
39A
330
1F
100
AcDbEntity
  8
0-4_枠
  6
Continuous
 62
   120
370
     5
100
AcDbLine
 10
-5370.544902395466
 20
-3186.849125258687
 30
0.0
 11
-5370.544902395466
 21
-1977.848816268201
 31
0.0
  0
LINE
  5
39B
330
1F
100
AcDbEntity
  8
0-4_枠
  6
Continuous
 62
   120
370
     5
100
AcDbLine
 10
-4440.544902395466
 20
-3186.849125258687
 30
0.0
 11
-4440.544902395466
 21
-1977.848816268201
 31
0.0
  0
LINE
  5
39C
330
1F
100
AcDbEntity
  8
0-0_補助線
  6
JWW_HOJO
 62
   120
370
     5
100
AcDbLine
 10
-4314.544902395465
 20
-1977.848816268201
 30
0.0
 11
-5496.544902395466
 21
-1977.848816268201
 31
0.0
  0
LINE
  5
39D
330
1F
100
AcDbEntity
  8
0-0_補助線
  6
JWW_HOJO
 62
   120
370
     5
100
AcDbLine
 10
-4314.544902395465
 20
-1857.848816268201
 30
0.0
 11
-5496.544902395466
 21
-1857.848816268201
 31
0.0
  0
LINE
  5
39E
330
1F
100
AcDbEntity
  8
0-6_扉
  6
Continuous
 62
   200
370
     5
100
AcDbLine
 10
-4881.544902395466
 20
-1977.848816268201
 30
0.0
 11
-4881.544902395466
 21
-3135.849125258687
 31
0.0
  0
LINE
  5
39F
330
1F
100
AcDbEntity
  8
0-6_扉
  6
Continuous
 62
   200
370
     5
100
AcDbLine
 10
-4701.544902395466
 20
-1977.848816268201
 30
0.0
 11
-4701.544902395466
 21
-3135.849125258687
 31
0.0
  0
LINE
  5
3A0
330
1F
100
AcDbEntity
  8
0-4_枠
  6
Continuous
 62
   120
370
     5
100
AcDbLine
 10
-5370.544902395466
 20
-1857.848816268201
 30
0.0
 11
-5370.544902395466
 21
-554.6737097145568
 31
0.0
  0
LINE
  5
3A1
330
1F
100
AcDbEntity
  8
0-4_枠
  6
Continuous
 62
   120
370
     5
100
AcDbLine
 10
-4440.544902395466
 20
-1857.848816268201
 30
0.0
 11
-4440.544902395466
 21
-554.6737097145568
 31
0.0
  0
LINE
  5
3A2
330
1F
100
AcDbEntity
  8
0-6_扉
  6
Continuous
 62
   200
370
     5
100
AcDbLine
 10
-4881.544902395466
 20
-1288.859873557741
 30
0.0
 11
-4881.544902395466
 21
-1857.848816268201
 31
0.0
  0
MTEXT
  5
3A3
330
1F
100
AcDbEntity
  8
0-B_寸法
  6
Continuous
 62
     7
370
   211
100
AcDbMText
 10
-4855.294902395466
 20
-1536.27134022203
 30
0.0
 40
97.15499999999999
 41
127.5
 46
0.0
 71
     7
 72
     1
  1
{\fＭＳ ゴシック|b0|i0|c128|p49;30}
 73
     1
 44
1.0
  0
LWPOLYLINE
  5
3A4
330
1F
100
AcDbEntity
  8
0-B_寸法
  6
Continuous
 62
     7
370
     5
100
AcDbPolyline
 90
        4
 70
     1
 43
3.0
 10
-4880.044902395465
 20
-1524.84884022203
 42
0.4142135623731
 10
-4881.544902395466
 20
-1523.348840222031
 42
0.4142135623731
 10
-4883.044902395466
 20
-1524.84884022203
 42
0.4142135623731
 10
-4881.544902395466
 20
-1526.34884022203
 42
0.4142135623731
  0
LINE
  5
3A5
330
1F
100
AcDbEntity
  8
0-B_寸法
  6
Continuous
 62
   120
370
     5
100
AcDbLine
 10
-4881.544902395466
 20
-1524.84884022203
 30
0.0
 11
-4701.544902395466
 21
-1524.84884022203
 31
0.0
  0
LWPOLYLINE
  5
3A6
330
1F
100
AcDbEntity
  8
0-B_寸法
  6
Continuous
 62
     7
370
     5
100
AcDbPolyline
 90
        4
 70
     1
 43
3.0
 10
-4700.044902395465
 20
-1524.84884022203
 42
0.4142135623731
 10
-4701.544902395466
 20
-1523.348840222031
 42
0.4142135623731
 10
-4703.044902395466
 20
-1524.84884022203
 42
0.4142135623731
 10
-4701.544902395466
 20
-1526.34884022203
 42
0.4142135623731
  0
MTEXT
  5
3A7
330
1F
100
AcDbEntity
  8
0-A_文字
  6
Continuous
 62
     7
370
     5
100
AcDbMText
 10
-5566.890890453675
 20
-112.2138368948345
 30
0.0
 40
100.584
 41
660.0
 46
0.0
 71
     7
 72
     1
  1
{\fＭＳ ゴシック|b0|i0|c128|p49;■縦断面図}
 73
     1
 44
1.0
  0
LINE
  5
3A8
330
1F
100
AcDbEntity
  8
0-7_金物
  6
Continuous
 62
     7
370
     5
100
AcDbLine
 10
-4599.805576170849
 20
-734.6737097145574
 30
0.0
 11
-4671.805576170853
 21
-734.6737097145574
 31
0.0
  0
LINE
  5
3A9
330
1F
100
AcDbEntity
  8
0-7_金物
  6
Continuous
 62
     7
370
     5
100
AcDbLine
 10
-4983.805576170855
 20
-734.6737097145574
 30
0.0
 11
-4911.805576170853
 21
-734.6737097145574
 31
0.0
  0
LINE
  5
3AA
330
1F
100
AcDbEntity
  8
0-7_金物
  6
Continuous
 62
     7
370
     5
100
AcDbLine
 10
-4599.805576170849
 20
-974.6737097145574
 30
0.0
 11
-4599.805576170849
 21
-734.6737097145574
 31
0.0
  0
LINE
  5
3AB
330
1F
100
AcDbEntity
  8
0-7_金物
  6
Continuous
 62
     7
370
     5
100
AcDbLine
 10
-4608.805576170855
 20
-974.6737097145574
 30
0.0
 11
-4608.805576170855
 21
-743.6737097145577
 31
0.0
  0
LINE
  5
3AC
330
1F
100
AcDbEntity
  8
0-7_金物
  6
Continuous
 62
     7
370
     5
100
AcDbLine
 10
-4974.805576170853
 20
-974.6737097145574
 30
0.0
 11
-4974.805576170853
 21
-743.6737097145577
 31
0.0
  0
LINE
  5
3AD
330
1F
100
AcDbEntity
  8
0-7_金物
  6
Continuous
 62
     7
370
     5
100
AcDbLine
 10
-4983.805576170855
 20
-974.6737097145574
 30
0.0
 11
-4983.805576170855
 21
-734.6737097145574
 31
0.0
  0
LINE
  5
3AE
330
1F
100
AcDbEntity
  8
0-7_金物
  6
Continuous
 62
     7
370
     5
100
AcDbLine
 10
-4599.805576170849
 20
-974.6737097145574
 30
0.0
 11
-4608.805576170855
 21
-974.6737097145574
 31
0.0
  0
LINE
  5
3AF
330
1F
100
AcDbEntity
  8
0-7_金物
  6
Continuous
 62
     7
370
     5
100
AcDbLine
 10
-4983.805576170855
 20
-974.6737097145574
 30
0.0
 11
-4974.805576170853
 21
-974.6737097145574
 31
0.0
  0
LINE
  5
3B0
330
1F
100
AcDbEntity
  8
0-7_金物
  6
Continuous
 62
     7
370
     5
100
AcDbLine
 10
-4608.805576170855
 20
-743.6737097145577
 30
0.0
 11
-4671.805576170853
 21
-743.6737097145577
 31
0.0
  0
LINE
  5
3B1
330
1F
100
AcDbEntity
  8
0-7_金物
  6
Continuous
 62
     7
370
     5
100
AcDbLine
 10
-4974.805576170853
 20
-743.6737097145577
 30
0.0
 11
-4911.805576170853
 21
-743.6737097145577
 31
0.0
  0
LINE
  5
3B2
330
1F
100
AcDbEntity
  8
0-7_金物
  6
Continuous
 62
     7
370
     5
100
AcDbLine
 10
-4911.805576170853
 20
-641.6737097145567
 30
0.0
 11
-4911.805576170853
 21
-889.4737097145564
 31
0.0
  0
LINE
  5
3B3
330
1F
100
AcDbEntity
  8
0-7_金物
  6
Continuous
 62
     7
370
     5
100
AcDbLine
 10
-4671.805576170853
 20
-641.6737097145567
 30
0.0
 11
-4671.805576170853
 21
-889.4737097145564
 31
0.0
  0
LINE
  5
3B4
330
1F
100
AcDbEntity
  8
0-7_金物
  6
Continuous
 62
     7
370
     5
100
AcDbLine
 10
-4671.805576170853
 20
-641.6737097145567
 30
0.0
 11
-4911.805576170853
 21
-641.6737097145567
 31
0.0
  0
LINE
  5
3B5
330
1F
100
AcDbEntity
  8
0-7_金物
  6
Continuous
 62
     7
370
     5
100
AcDbLine
 10
-4671.805576170853
 20
-641.6737097145567
 30
0.0
 11
-4911.805576170853
 21
-889.4737097145564
 31
0.0
  0
LINE
  5
3B6
330
1F
100
AcDbEntity
  8
0-7_金物
  6
Continuous
 62
     7
370
     5
100
AcDbLine
 10
-4911.805576170853
 20
-641.6737097145567
 30
0.0
 11
-4671.805576170853
 21
-889.4737097145564
 31
0.0
  0
LINE
  5
3B7
330
1F
100
AcDbEntity
  8
0-7_金物
  6
Continuous
 62
     7
370
     5
100
AcDbLine
 10
-4671.805576170853
 20
-889.4737097145564
 30
0.0
 11
-4911.805576170853
 21
-889.4737097145564
 31
0.0
  0
ARC
  5
3B8
330
1F
100
AcDbEntity
  8
0-7_金物
  6
Continuous
 62
     7
370
     5
100
AcDbCircle
 10
-4791.800700686823
 20
-1109.673708765946
 30
0.0
 40
38.39999974703684
100
AcDbArc
 50
167.8242658972536
 51
198.2099568642824
  0
ARC
  5
3B9
330
1F
100
AcDbEntity
  8
0-7_金物
  6
Continuous
 62
     7
370
     5
100
AcDbCircle
 10
-4791.800700686823
 20
-1109.673708765946
 30
0.0
 40
38.39999974703684
100
AcDbArc
 50
341.7900431357177
 51
12.17573410274985
  0
CIRCLE
  5
3BA
330
1F
100
AcDbEntity
  8
0-7_金物
  6
Continuous
 62
     7
370
     5
100
AcDbCircle
 10
-4791.800700686823
 20
-1109.673708765946
 30
0.0
 40
29.99999980237253
  0
LINE
  5
3BB
330
1F
100
AcDbEntity
  8
0-7_金物
  6
Continuous
 62
     7
370
     5
100
AcDbLine
 10
-4825.741825960184
 20
-1097.673708844998
 30
0.0
 11
-4836.800700390384
 21
-1109.673708765946
 31
0.0
  0
LINE
  5
3BC
330
1F
100
AcDbEntity
  8
0-7_金物
  6
Continuous
 62
     7
370
     5
100
AcDbLine
 10
-4830.200700433865
 20
-1109.673708765946
 30
0.0
 11
-4836.800700390384
 21
-1109.673708765946
 31
0.0
  0
LINE
  5
3BD
330
1F
100
AcDbEntity
  8
0-7_金物
  6
Continuous
 62
     7
370
     5
100
AcDbLine
 10
-4753.400700939785
 20
-1109.673708765946
 30
0.0
 11
-4746.800700983263
 21
-1109.673708765946
 31
0.0
  0
LINE
  5
3BE
330
1F
100
AcDbEntity
  8
0-7_金物
  6
Continuous
 62
     7
370
     5
100
AcDbLine
 10
-4757.859575413457
 20
-1097.673708844998
 30
0.0
 11
-4746.800700983263
 21
-1109.673708765946
 31
0.0
  0
LINE
  5
3BF
330
1F
100
AcDbEntity
  8
0-7_金物
  6
Continuous
 62
     7
370
     5
100
AcDbLine
 10
-4788.88451841248
 20
-1094.973708862783
 30
0.0
 11
-4794.716882961169
 21
-1094.973708862783
 31
0.0
  0
LINE
  5
3C0
330
1F
100
AcDbEntity
  8
0-7_金物
  6
Continuous
 62
     7
370
     5
100
AcDbLine
 10
-4794.919041571315
 20
-1106.555367881455
 30
0.0
 11
-4794.716882961169
 21
-1094.973708862783
 31
0.0
  0
LINE
  5
3C1
330
1F
100
AcDbEntity
  8
0-7_金物
  6
Continuous
 62
     7
370
     5
100
AcDbLine
 10
-4788.682359802335
 20
-1106.555367881455
 30
0.0
 11
-4788.88451841248
 21
-1094.973708862783
 31
0.0
  0
LINE
  5
3C2
330
1F
100
AcDbEntity
  8
0-7_金物
  6
Continuous
 62
     7
370
     5
100
AcDbLine
 10
-4777.10070078366
 20
-1112.58989104029
 30
0.0
 11
-4777.10070078366
 21
-1106.757526491604
 31
0.0
  0
LINE
  5
3C3
330
1F
100
AcDbEntity
  8
0-7_金物
  6
Continuous
 62
     7
370
     5
100
AcDbLine
 10
-4788.682359802335
 20
-1106.555367881455
 30
0.0
 11
-4777.10070078366
 21
-1106.757526491604
 31
0.0
  0
LINE
  5
3C4
330
1F
100
AcDbEntity
  8
0-7_金物
  6
Continuous
 62
     7
370
     5
100
AcDbLine
 10
-4788.682359802335
 20
-1112.792049650436
 30
0.0
 11
-4777.10070078366
 21
-1112.58989104029
 31
0.0
  0
LINE
  5
3C5
330
1F
100
AcDbEntity
  8
0-7_金物
  6
Continuous
 62
     7
370
     5
100
AcDbLine
 10
-4794.716882961169
 20
-1124.373708669109
 30
0.0
 11
-4788.88451841248
 21
-1124.373708669109
 31
0.0
  0
LINE
  5
3C6
330
1F
100
AcDbEntity
  8
0-7_金物
  6
Continuous
 62
     7
370
     5
100
AcDbLine
 10
-4788.682359802335
 20
-1112.792049650436
 30
0.0
 11
-4788.88451841248
 21
-1124.373708669109
 31
0.0
  0
LINE
  5
3C7
330
1F
100
AcDbEntity
  8
0-7_金物
  6
Continuous
 62
     7
370
     5
100
AcDbLine
 10
-4794.919041571315
 20
-1112.792049650436
 30
0.0
 11
-4794.716882961169
 21
-1124.373708669109
 31
0.0
  0
LINE
  5
3C8
330
1F
100
AcDbEntity
  8
0-7_金物
  6
Continuous
 62
     7
370
     5
100
AcDbLine
 10
-4806.50070058999
 20
-1106.757526491604
 30
0.0
 11
-4806.50070058999
 21
-1112.58989104029
 31
0.0
  0
LINE
  5
3C9
330
1F
100
AcDbEntity
  8
0-7_金物
  6
Continuous
 62
     7
370
     5
100
AcDbLine
 10
-4794.919041571315
 20
-1112.792049650436
 30
0.0
 11
-4806.50070058999
 21
-1112.58989104029
 31
0.0
  0
LINE
  5
3CA
330
1F
100
AcDbEntity
  8
0-7_金物
  6
Continuous
 62
     7
370
     5
100
AcDbLine
 10
-4794.919041571315
 20
-1106.555367881455
 30
0.0
 11
-4806.50070058999
 21
-1106.757526491604
 31
0.0
  0
LINE
  5
3CB
330
1F
100
AcDbEntity
  8
0-7_金物
  6
Continuous
 62
     7
370
     5
100
AcDbLine
 10
-4776.805576170853
 20
-1034.673709615744
 30
0.0
 11
-4753.400700920024
 21
-1034.673709615744
 31
0.0
  0
LINE
  5
3CC
330
1F
100
AcDbEntity
  8
0-7_金物
  6
Continuous
 62
     7
370
     5
100
AcDbLine
 10
-4830.200700453623
 20
-1034.673709615744
 30
0.0
 11
-4806.805576170853
 21
-1034.673709615744
 31
0.0
  0
LINE
  5
3CD
330
1F
100
AcDbEntity
  8
0-7_金物
  6
Continuous
 62
     7
370
     5
100
AcDbLine
 10
-4836.200700414094
 20
-929.6737097145566
 30
0.0
 11
-4836.200700414094
 21
-1028.673709655269
 31
0.0
  0
ARC
  5
3CE
330
1F
100
AcDbEntity
  8
0-7_金物
  6
Continuous
 62
     7
370
     5
100
AcDbCircle
 10
-4830.200700453623
 20
-1028.673709655269
 30
0.0
 40
5.999999960474506
100
AcDbArc
 50
180.0
 51
270.0
  0
LINE
  5
3CF
330
1F
100
AcDbEntity
  8
0-7_金物
  6
Continuous
 62
     7
370
     5
100
AcDbLine
 10
-4747.400700959555
 20
-929.6737097145566
 30
0.0
 11
-4747.400700959555
 21
-1028.673709655269
 31
0.0
  0
ARC
  5
3D0
330
1F
100
AcDbEntity
  8
0-7_金物
  6
Continuous
 62
     7
370
     5
100
AcDbCircle
 10
-4753.400700920024
 20
-1028.673709655269
 30
0.0
 40
5.999999960474506
100
AcDbArc
 50
270.0
 51
0.0
  0
LINE
  5
3D1
330
1F
100
AcDbEntity
  8
0-7_金物
  6
Continuous
 62
     7
370
     5
100
AcDbLine
 10
-4776.805576170853
 20
-959.6737097145574
 30
0.0
 11
-4776.805576170853
 21
-1034.673709615744
 31
0.0
  0
LINE
  5
3D2
330
1F
100
AcDbEntity
  8
0-7_金物
  6
Continuous
 62
     7
370
     5
100
AcDbLine
 10
-4806.805576170853
 20
-959.6737097145574
 30
0.0
 11
-4806.805576170853
 21
-1034.673709615744
 31
0.0
  0
LINE
  5
3D3
330
1F
100
AcDbEntity
  8
0-7_金物
  6
Continuous
 62
     7
370
     5
100
AcDbLine
 10
-4806.805576170853
 20
-959.6737097145574
 30
0.0
 11
-4776.805576170853
 21
-959.6737097145574
 31
0.0
  0
LINE
  5
3D4
330
1F
100
AcDbEntity
  8
0-7_金物
  6
Continuous
 62
     7
370
     5
100
AcDbLine
 10
-4809.805575617489
 20
-929.6737097145566
 30
0.0
 11
-4809.805575617489
 21
-889.4737097145564
 31
0.0
  0
LINE
  5
3D5
330
1F
100
AcDbEntity
  8
0-7_金物
  6
Continuous
 62
     7
370
     5
100
AcDbLine
 10
-4773.805575617491
 20
-889.4737097145564
 30
0.0
 11
-4773.805575617491
 21
-929.6737097145566
 31
0.0
  0
LINE
  5
3D6
330
1F
100
AcDbEntity
  8
0-7_金物
  6
Continuous
 62
     7
370
     5
100
AcDbLine
 10
-4743.505576170852
 20
-1136.973709714557
 30
0.0
 11
-4743.505576170852
 21
-929.6737097145566
 31
0.0
  0
LINE
  5
3D7
330
1F
100
AcDbEntity
  8
0-7_金物
  6
Continuous
 62
     7
370
     5
100
AcDbLine
 10
-4840.105576170849
 20
-1136.973709714557
 30
0.0
 11
-4840.105576170849
 21
-929.6737097145566
 31
0.0
  0
ARC
  5
3D8
330
1F
100
AcDbEntity
  8
0-7_金物
  6
Continuous
 62
     7
370
     5
100
AcDbCircle
 10
-4791.805576170853
 20
-1136.973709714557
 30
0.0
 40
48.30000000000001
100
AcDbArc
 50
270.0
 51
0.0
  0
ARC
  5
3D9
330
1F
100
AcDbEntity
  8
0-7_金物
  6
Continuous
 62
     7
370
     5
100
AcDbCircle
 10
-4791.805576170853
 20
-1136.973709714557
 30
0.0
 40
48.30000000000001
100
AcDbArc
 50
180.0
 51
270.0
  0
LINE
  5
3DA
330
1F
100
AcDbEntity
  8
0-7_金物
  6
Continuous
 62
     7
370
     5
100
AcDbLine
 10
-4838.944902083216
 20
-929.6737097145566
 30
0.0
 11
-4744.144902707716
 21
-929.6737097145566
 31
0.0
  0
LINE
  5
3DB
330
1F
100
AcDbEntity
  8
0-6_扉
  6
Continuous
 62
   200
370
     5
100
AcDbLine
 10
-4881.544902395466
 20
-929.6737097145566
 30
0.0
 11
-4701.544902395466
 21
-929.6737097145566
 31
0.0
  0
LINE
  5
3DC
330
1F
100
AcDbEntity
  8
0-6_扉
  6
Continuous
 62
   200
370
     5
100
AcDbLine
 10
-4881.544902395466
 20
-929.6737097145566
 30
0.0
 11
-4881.544902395466
 21
-1153.854126763862
 31
0.0
  0
LINE
  5
3DD
330
1F
100
AcDbEntity
  8
0-4_枠
  6
Continuous
 62
   120
370
     5
100
AcDbLine
 10
-4920.544902395466
 20
-1857.848816268201
 30
0.0
 11
-4920.544902395466
 21
-743.6737097145577
 31
0.0
  0
LINE
  5
3DE
330
1F
100
AcDbEntity
  8
0-4_枠
  6
Continuous
 62
    92
370
     5
100
AcDbLine
 10
-4671.810451654884
 20
-734.6737090821479
 30
0.0
 11
-4464.544902395465
 21
-734.6737097145568
 31
0.0
  0
LINE
  5
3DF
330
1F
100
AcDbEntity
  8
0-4_枠
  6
Continuous
 62
    92
370
     5
100
AcDbLine
 10
-4671.810451646998
 20
-731.6737090821484
 30
0.0
 11
-4467.544902395465
 21
-731.6737097066721
 31
0.0
  0
LINE
  5
3E0
330
1F
100
AcDbEntity
  8
0-4_枠
  6
Continuous
 62
    92
370
     5
100
AcDbLine
 10
-4911.805576170853
 20
-731.6737097145574
 30
0.0
 11
-5343.544902395467
 21
-731.6737097145574
 31
0.0
  0
LINE
  5
3E1
330
1F
100
AcDbEntity
  8
0-4_枠
  6
Continuous
 62
    92
370
     5
100
AcDbLine
 10
-4911.800700686823
 20
-734.6737097145568
 30
0.0
 11
-5346.544902395466
 21
-734.6737097145568
 31
0.0
  0
LINE
  5
3E2
330
1F
100
AcDbEntity
  8
0-4_枠
  6
Continuous
 62
    92
370
     5
100
AcDbLine
 10
-4671.805576170853
 20
-641.6737097145567
 30
0.0
 11
-4671.805576170853
 21
-734.6737097145568
 31
0.0
  0
LINE
  5
3E3
330
1F
100
AcDbEntity
  8
0-4_枠
  6
Continuous
 62
    92
370
     5
100
AcDbLine
 10
-4911.800700686823
 20
-734.6737097145568
 30
0.0
 11
-4911.800700686823
 21
-641.6737097145567
 31
0.0
  0
LINE
  5
3E4
330
1F
100
AcDbEntity
  8
0-4_枠
  6
Continuous
 62
    92
370
     5
100
AcDbLine
 10
-4911.800700686823
 20
-641.6737097145567
 30
0.0
 11
-4671.805576170853
 21
-641.6737097145567
 31
0.0
  0
LINE
  5
3E5
330
1F
100
AcDbEntity
  8
0-C_ハッチ
  6
Continuous
 62
   120
370
     5
100
AcDbLine
 10
-4671.805576170853
 20
-651.2863317446557
 30
0.0
 11
-4575.19295414075
 21
-554.6737097145568
 31
0.0
  0
LINE
  5
3E6
330
1F
100
AcDbEntity
  8
0-C_ハッチ
  6
Continuous
 62
   120
370
     5
100
AcDbLine
 10
-4671.805576170853
 20
-710.6833013643306
 30
0.0
 11
-4515.795984521079
 21
-554.6737097145568
 31
0.0
  0
LINE
  5
3E7
330
1F
100
AcDbEntity
  8
0-C_ハッチ
  6
Continuous
 62
   120
370
     5
100
AcDbLine
 10
-4840.383862999778
 20
-641.6737097145567
 30
0.0
 11
-4753.383862999772
 21
-554.6737097145513
 31
0.0
  0
LINE
  5
3E8
330
1F
100
AcDbEntity
  8
0-C_ハッチ
  6
Continuous
 62
   120
370
     5
100
AcDbLine
 10
-4721.589923760427
 20
-641.6737097145567
 30
0.0
 11
-4634.589923760428
 21
-554.6737097145568
 31
0.0
  0
LINE
  5
3E9
330
1F
100
AcDbEntity
  8
0-C_ハッチ
  6
Continuous
 62
   120
370
     5
100
AcDbLine
 10
-4780.986893380074
 20
-641.6737097145567
 30
0.0
 11
-4693.98689338007
 21
-554.6737097145522
 31
0.0
  0
LINE
  5
3EA
330
1F
100
AcDbEntity
  8
0-C_ハッチ
  6
Continuous
 62
   120
370
     5
100
AcDbLine
 10
-4899.780832619424
 20
-641.6737097145566
 30
0.0
 11
-4812.780832619415
 21
-554.6737097145469
 31
0.0
  0
LINE
  5
3EB
330
1F
100
AcDbEntity
  8
0-C_ハッチ
  6
Continuous
 62
   120
370
     5
100
AcDbLine
 10
-4989.780832619422
 20
-731.6737097145574
 30
0.0
 11
-4911.800700686823
 21
-653.6935777819565
 31
0.0
  0
LINE
  5
3EC
330
1F
100
AcDbEntity
  8
0-C_ハッチ
  6
Continuous
 62
   120
370
     5
100
AcDbLine
 10
-4930.383862999778
 20
-731.6737097145574
 30
0.0
 11
-4911.805576170853
 21
-713.0954228856315
 31
0.0
  0
MTEXT
  5
3ED
330
1F
100
AcDbEntity
  8
0-B_寸法
  6
Continuous
 62
     7
370
   211
100
AcDbMText
 10
-3945.544902395466
 20
-3134.319125258687
 30
0.0
 40
99.06
 41
195.0
 46
0.0
 71
     7
 72
     1
  1
{\fＭＳ ゴシック|b0|i0|c128|p49;8.5}
 11
6.123031769111886E-17
 21
1.0
 31
0.0
 73
     1
 44
1.0
  0
MTEXT
  5
3EE
330
1F
100
AcDbEntity
  8
0-B_寸法
  6
Continuous
 62
     7
370
   211
100
AcDbMText
 10
-3525.544902395466
 20
-3186.271625258687
 30
0.0
 40
97.15499999999999
 41
127.5
 46
0.0
 71
     7
 72
     1
  1
{\fＭＳ ゴシック|b0|i0|c128|p49;12}
 11
6.123031769111886E-17
 21
1.0
 31
0.0
 73
     1
 44
1.0
  0
LWPOLYLINE
  5
3EF
330
1F
100
AcDbEntity
  8
0-B_寸法
  6
Continuous
 62
     7
370
     5
100
AcDbPolyline
 90
        4
 70
     1
 43
3.0
 10
-3944.044902395466
 20
-3186.849125258687
 42
0.4142135623731
 10
-3945.544902395466
 20
-3185.349125258687
 42
0.4142135623731
 10
-3947.044902395467
 20
-3186.849125258687
 42
0.4142135623731
 10
-3945.544902395466
 20
-3188.349125258687
 42
0.4142135623731
  0
LINE
  5
3F0
330
1F
100
AcDbEntity
  8
0-B_寸法
  6
Continuous
 62
   120
370
     5
100
AcDbLine
 10
-3525.544902395466
 20
-3186.849125258687
 30
0.0
 11
-4155.544902395466
 21
-3186.849125258687
 31
0.0
  0
LWPOLYLINE
  5
3F1
330
1F
100
AcDbEntity
  8
0-B_寸法
  6
Continuous
 62
     7
370
     5
100
AcDbPolyline
 90
        4
 70
     1
 43
3.0
 10
-3734.044902395466
 20
-3186.849125258687
 42
0.4142135623731
 10
-3735.544902395466
 20
-3185.349125258687
 42
0.4142135623731
 10
-3737.044902395466
 20
-3186.849125258687
 42
0.4142135623731
 10
-3735.544902395466
 20
-3188.349125258687
 42
0.4142135623731
  0
LWPOLYLINE
  5
3F2
330
1F
100
AcDbEntity
  8
0-B_寸法
  6
Continuous
 62
     7
370
     5
100
AcDbPolyline
 90
        4
 70
     1
 43
3.0
 10
-3524.044902395466
 20
-3186.849125258687
 42
0.4142135623731
 10
-3525.544902395466
 20
-3185.349125258687
 42
0.4142135623731
 10
-3527.044902395466
 20
-3186.849125258687
 42
0.4142135623731
 10
-3525.544902395466
 20
-3188.349125258687
 42
0.4142135623731
  0
LINE
  5
3F3
330
1F
100
AcDbEntity
  8
0-B_寸法
  6
Continuous
 62
   120
370
     5
100
AcDbLine
 10
-3525.544902395466
 20
-3186.849125258687
 30
0.0
 11
-3525.544902395466
 21
-3258.84912525869
 31
0.0
  0
LWPOLYLINE
  5
3F4
330
1F
100
AcDbEntity
  8
0-B_寸法
  6
Continuous
 62
     7
370
     5
100
AcDbPolyline
 90
        4
 70
     1
 43
3.0
 10
-3524.044902395466
 20
-3258.84912525869
 42
0.4142135623731
 10
-3525.544902395466
 20
-3257.34912525869
 42
0.4142135623731
 10
-3527.044902395466
 20
-3258.84912525869
 42
0.4142135623731
 10
-3525.544902395466
 20
-3260.34912525869
 42
0.4142135623731
  0
LINE
  5
3F5
330
1F
100
AcDbEntity
  8
0-B_寸法
  6
Continuous
 62
   120
370
     5
100
AcDbLine
 10
-3525.544902395466
 20
-3258.84912525869
 30
0.0
 11
-4155.544902395466
 21
-3258.84912525869
 31
0.0
  0
LWPOLYLINE
  5
3F6
330
1F
100
AcDbEntity
  8
0-B_寸法
  6
Continuous
 62
     7
370
     5
100
AcDbPolyline
 90
        4
 70
     1
 43
3.0
 10
-3944.044902395466
 20
-3135.849125258687
 42
0.4142135623731
 10
-3945.544902395466
 20
-3134.349125258687
 42
0.4142135623731
 10
-3947.044902395467
 20
-3135.849125258687
 42
0.4142135623731
 10
-3945.544902395466
 20
-3137.349125258687
 42
0.4142135623731
  0
LINE
  5
3F7
330
1F
100
AcDbEntity
  8
0-B_寸法
  6
Continuous
 62
   120
370
     5
100
AcDbLine
 10
-3945.544902395466
 20
-3135.849125258687
 30
0.0
 11
-4155.544902395466
 21
-3135.849125258687
 31
0.0
  0
LINE
  5
3F8
330
1F
100
AcDbEntity
  8
0-B_寸法
  6
Continuous
 62
   120
370
     5
100
AcDbLine
 10
-3945.544902395466
 20
-3135.849125258687
 30
0.0
 11
-3945.544902395466
 21
-3186.849125258687
 31
0.0
  0
LINE
  5
3F9
330
1F
100
AcDbEntity
  8
0-1_通り芯
  6
JWW_CENTER1
 62
   120
370
     5
100
AcDbLine
 10
-5680.890890453673
 20
-3258.848919265033
 30
0.0
 11
-3411.544902395466
 21
-3258.848919265033
 31
0.0
  0
MTEXT
  5
3FA
330
1F
100
AcDbEntity
  8
0-B_寸法
  6
Continuous
 62
     7
370
   211
100
AcDbMText
 10
-3735.544902395466
 20
-719.8462097145568
 30
0.0
 40
97.15499999999999
 41
127.5
 46
0.0
 71
     7
 72
     1
  1
{\fＭＳ ゴシック|b0|i0|c128|p49;30}
 11
6.123031769111886E-17
 21
1.0
 31
0.0
 73
     1
 44
1.0
  0
LWPOLYLINE
  5
3FB
330
1F
100
AcDbEntity
  8
0-B_寸法
  6
Continuous
 62
     7
370
     5
100
AcDbPolyline
 90
        4
 70
     1
 43
3.0
 10
-3944.044902395466
 20
-734.6737097145568
 42
0.4142135623731
 10
-3945.544902395466
 20
-733.1737097145568
 42
0.4142135623731
 10
-3947.044902395467
 20
-734.6737097145568
 42
0.4142135623731
 10
-3945.544902395466
 20
-736.1737097145568
 42
0.4142135623731
  0
LINE
  5
3FC
330
1F
100
AcDbEntity
  8
0-B_寸法
  6
Continuous
 62
   120
370
     5
100
AcDbLine
 10
-3735.544902395466
 20
-3186.849125258687
 30
0.0
 11
-3735.544902395466
 21
-734.6737097145568
 31
0.0
  0
LWPOLYLINE
  5
3FD
330
1F
100
AcDbEntity
  8
0-B_寸法
  6
Continuous
 62
     7
370
     5
100
AcDbPolyline
 90
        4
 70
     1
 43
3.0
 10
-3734.044902395466
 20
-734.6737097145568
 42
0.4142135623731
 10
-3735.544902395466
 20
-733.1737097145568
 42
0.4142135623731
 10
-3737.044902395466
 20
-734.6737097145568
 42
0.4142135623731
 10
-3735.544902395466
 20
-736.1737097145568
 42
0.4142135623731
  0
LINE
  5
3FE
330
1F
100
AcDbEntity
  8
0-B_寸法
  6
Continuous
 62
   120
370
     5
100
AcDbLine
 10
-3735.544902395466
 20
-734.6737097145568
 30
0.0
 11
-3735.544902395466
 21
-554.6737097145568
 31
0.0
  0
LWPOLYLINE
  5
3FF
330
1F
100
AcDbEntity
  8
0-B_寸法
  6
Continuous
 62
     7
370
     5
100
AcDbPolyline
 90
        4
 70
     1
 43
3.0
 10
-3734.044902395466
 20
-554.6737097145568
 42
0.4142135623731
 10
-3735.544902395466
 20
-553.1737097145568
 42
0.4142135623731
 10
-3737.044902395466
 20
-554.6737097145568
 42
0.4142135623731
 10
-3735.544902395466
 20
-556.1737097145568
 42
0.4142135623731
  0
LINE
  5
400
330
1F
100
AcDbEntity
  8
0-B_寸法
  6
Continuous
 62
   120
370
     5
100
AcDbLine
 10
-3525.544902395466
 20
-554.6737097145568
 30
0.0
 11
-4155.544902395466
 21
-554.6737097145568
 31
0.0
  0
LINE
  5
401
330
1F
100
AcDbEntity
  8
0-B_寸法
  6
Continuous
 62
   120
370
     5
100
AcDbLine
 10
-3525.544902395466
 20
-3186.849125258687
 30
0.0
 11
-3525.544902395466
 21
-554.6737097145568
 31
0.0
  0
LWPOLYLINE
  5
402
330
1F
100
AcDbEntity
  8
0-B_寸法
  6
Continuous
 62
     7
370
     5
100
AcDbPolyline
 90
        4
 70
     1
 43
3.0
 10
-3524.044902395466
 20
-554.6737097145568
 42
0.4142135623731
 10
-3525.544902395466
 20
-553.1737097145568
 42
0.4142135623731
 10
-3527.044902395466
 20
-554.6737097145568
 42
0.4142135623731
 10
-3525.544902395466
 20
-556.1737097145568
 42
0.4142135623731
  0
LINE
  5
403
330
1F
100
AcDbEntity
  8
0-B_寸法
  6
Continuous
 62
   120
370
     5
100
AcDbLine
 10
-3945.544902395466
 20
-3135.849125258687
 30
0.0
 11
-3945.544902395466
 21
-929.6737097145568
 31
0.0
  0
LWPOLYLINE
  5
404
330
1F
100
AcDbEntity
  8
0-B_寸法
  6
Continuous
 62
     7
370
     5
100
AcDbPolyline
 90
        4
 70
     1
 43
3.0
 10
-3944.044902395466
 20
-929.6737097145568
 42
0.4142135623731
 10
-3945.544902395466
 20
-928.1737097145568
 42
0.4142135623731
 10
-3947.044902395467
 20
-929.6737097145568
 42
0.4142135623731
 10
-3945.544902395466
 20
-931.1737097145568
 42
0.4142135623731
  0
LINE
  5
405
330
1F
100
AcDbEntity
  8
0-B_寸法
  6
Continuous
 62
   120
370
     5
100
AcDbLine
 10
-3945.544902395466
 20
-929.6737097145568
 30
0.0
 11
-4155.544902395466
 21
-929.6737097145568
 31
0.0
  0
LINE
  5
406
330
1F
100
AcDbEntity
  8
0-B_寸法
  6
Continuous
 62
   120
370
     5
100
AcDbLine
 10
-3945.544902395466
 20
-929.6737097145568
 30
0.0
 11
-3945.544902395466
 21
-889.4737097145567
 31
0.0
  0
LWPOLYLINE
  5
407
330
1F
100
AcDbEntity
  8
0-B_寸法
  6
Continuous
 62
     7
370
     5
100
AcDbPolyline
 90
        4
 70
     1
 43
3.0
 10
-3944.044902395466
 20
-889.4737097145567
 42
0.4142135623731
 10
-3945.544902395466
 20
-887.9737097145567
 42
0.4142135623731
 10
-3947.044902395467
 20
-889.4737097145567
 42
0.4142135623731
 10
-3945.544902395466
 20
-890.9737097145567
 42
0.4142135623731
  0
LINE
  5
408
330
1F
100
AcDbEntity
  8
0-B_寸法
  6
Continuous
 62
   120
370
     5
100
AcDbLine
 10
-3945.544902395466
 20
-889.4737097145567
 30
0.0
 11
-4155.544902395466
 21
-889.4737097145567
 31
0.0
  0
LINE
  5
409
330
1F
100
AcDbEntity
  8
0-B_寸法
  6
Continuous
 62
   120
370
     5
100
AcDbLine
 10
-3945.544902395466
 20
-889.4737097145567
 30
0.0
 11
-3945.544902395466
 21
-734.6737097145568
 31
0.0
  0
MTEXT
  5
40A
330
1F
100
AcDbEntity
  8
0-B_寸法
  6
Continuous
 62
     7
370
   211
100
AcDbMText
 10
-3960.544902395466
 20
-888.0418407724164
 30
0.0
 40
100.0125
 41
262.5
 46
0.0
 71
     7
 72
     1
  1
{\fＭＳ ゴシック|b0|i0|c128|p49;25.8}
 11
6.123031769111886E-17
 21
1.0
 31
0.0
 73
     1
 44
1.0
  0
LINE
  5
40B
330
1F
100
AcDbEntity
  8
0-B_寸法
  6
Continuous
 62
   120
370
     5
100
AcDbLine
 10
-4089.941335357265
 20
-734.6737097145568
 30
0.0
 11
-4155.544902395466
 21
-734.6737097145568
 31
0.0
  0
LINE
  5
40C
330
1F
100
AcDbEntity
  8
0-B_寸法
  6
Continuous
 62
   120
370
     5
100
AcDbLine
 10
-3735.544902395466
 20
-734.6737097145568
 30
0.0
 11
-3959.140944781359
 21
-734.6737097145568
 31
0.0
  0
MTEXT
  5
40D
330
1F
100
AcDbEntity
  8
0-B_寸法
  6
Continuous
 62
     7
370
   211
100
AcDbMText
 10
-3960.544902395466
 20
-1156.576276753577
 30
0.0
 40
99.06
 41
195.0
 46
0.0
 71
     7
 72
     1
  1
{\fＭＳ ゴシック|b0|i0|c128|p49;6.7}
 11
6.123031769111886E-17
 21
1.0
 31
0.0
 73
     1
 44
1.0
  0
MTEXT
  5
40E
330
1F
100
AcDbEntity
  8
0-A_文字
  6
Continuous
 62
     7
370
     5
100
AcDbMText
 10
-4455.544902395466
 20
-3444.47912525869
 30
0.0
 40
78.74000000000001
 41
930.0
 46
0.0
 71
     7
 72
     1
  1
{\fＭＳ ゴシック|b0|i0|c128|p49;※戸先に振止金具付}
 73
     1
 44
1.0
  0
LINE
  5
40F
330
1F
100
AcDbEntity
  8
1-B_寸法
  6
Continuous
 62
   120
370
     5
100
AcDbLine
 10
602.5245023195308
 20
-1152.308082143742
 30
0.0
 11
602.5245023195308
 21
-1597.755973211092
 31
0.0
  0
LWPOLYLINE
  5
410
330
1F
100
AcDbEntity
  8
1-B_寸法
  6
Continuous
 62
     7
370
     5
100
AcDbPolyline
 90
        4
 70
     1
 43
3.0
 10
604.0245023195308
 20
-1152.308082143742
 42
0.4142135623731
 10
602.5245023195308
 20
-1150.808082143742
 42
0.4142135623731
 10
601.0245023195308
 20
-1152.308082143742
 42
0.4142135623731
 10
602.5245023195308
 20
-1153.808082143742
 42
0.4142135623731
  0
LWPOLYLINE
  5
411
330
1F
100
AcDbEntity
  8
1-B_寸法
  6
Continuous
 62
     7
370
     5
100
AcDbPolyline
 90
        4
 70
     1
 43
3.0
 10
604.0245023195308
 20
-1364.353512221486
 42
0.4142135623731
 10
602.5245023195308
 20
-1362.853512221486
 42
0.4142135623731
 10
601.0245023195308
 20
-1364.353512221486
 42
0.4142135623731
 10
602.5245023195308
 20
-1365.853512221486
 42
0.4142135623731
  0
LINE
  5
412
330
1F
100
AcDbEntity
  8
1-4_枠
  6
Continuous
 62
    92
370
     5
100
AcDbLine
 10
602.5245023195308
 20
-2617.093314422215
 30
0.0
 11
602.5245023195308
 21
-920.4390626380712
 31
0.0
  0
MTEXT
  5
413
330
1F
100
AcDbEntity
  8
1-A_文字
  6
Continuous
 62
     7
370
     5
100
AcDbMText
 10
452.5142509124587
 20
-2781.37279943807
 30
0.0
 40
91.44
 41
480.0
 46
0.0
 71
     7
 72
     1
  1
{\fＭＳ ゴシック|b0|i0|c128|p49;フロアー}
 73
     1
 44
1.0
  0
LINE
  5
414
330
1F
100
AcDbEntity
  8
0-A_文字
  6
Continuous
 62
    92
370
     5
100
AcDbLine
 10
74.45509760453184
 20
-3258.848919265033
 30
0.0
 11
74.45509760453184
 21
-468.8489192650321
 31
0.0
  0
LINE
  5
415
330
1F
100
AcDbEntity
  8
1-6_扉
  6
JWW_DASHED2
 62
     7
370
     5
100
AcDbLine
 10
1825.024503702929
 20
-920.4390626380712
 30
0.0
 11
1825.024503702929
 21
-1027.804465311936
 31
0.0
  0
LINE
  5
416
330
1F
100
AcDbEntity
  8
1-4_枠
  6
Continuous
 62
    92
370
     5
100
AcDbLine
 10
1727.524502319531
 20
-1027.804465311936
 30
0.0
 11
1727.524502319531
 21
-920.4390626380712
 31
0.0
  0
LINE
  5
417
330
1F
100
AcDbEntity
  8
1-B_寸法
  6
Continuous
 62
   120
370
     5
100
AcDbLine
 10
2275.024503702929
 20
-1364.353512221486
 30
0.0
 11
2275.024503702929
 21
-1597.755973211092
 31
0.0
  0
LWPOLYLINE
  5
418
330
1F
100
AcDbEntity
  8
1-B_寸法
  6
Continuous
 62
     7
370
     5
100
AcDbPolyline
 90
        4
 70
     1
 43
3.0
 10
2276.524503702929
 20
-1364.353512221486
 42
0.4142135623731
 10
2275.024503702929
 20
-1362.853512221486
 42
0.4142135623731
 10
2273.524503702929
 20
-1364.353512221486
 42
0.4142135623731
 10
2275.024503702929
 20
-1365.853512221486
 42
0.4142135623731
  0
LINE
  5
419
330
1F
100
AcDbEntity
  8
1-B_寸法
  6
Continuous
 62
   120
370
     5
100
AcDbLine
 10
1825.024503702929
 20
-1364.353512221486
 30
0.0
 11
2275.024503702929
 21
-1364.353512221486
 31
0.0
  0
LINE
  5
41A
330
1F
100
AcDbEntity
  8
1-B_寸法
  6
Continuous
 62
   120
370
     5
100
AcDbLine
 10
1825.024503702929
 20
-1364.353512221486
 30
0.0
 11
1825.024503702929
 21
-1597.755973211092
 31
0.0
  0
LWPOLYLINE
  5
41B
330
1F
100
AcDbEntity
  8
1-B_寸法
  6
Continuous
 62
     7
370
     5
100
AcDbPolyline
 90
        4
 70
     1
 43
3.0
 10
1826.524503702929
 20
-1364.353512221486
 42
0.4142135623731
 10
1825.024503702929
 20
-1362.853512221486
 42
0.4142135623731
 10
1823.524503702929
 20
-1364.353512221486
 42
0.4142135623731
 10
1825.024503702929
 20
-1365.853512221486
 42
0.4142135623731
  0
LINE
  5
41C
330
1F
100
AcDbEntity
  8
1-B_寸法
  6
Continuous
 62
   120
370
     5
100
AcDbLine
 10
1727.524502319531
 20
-1364.353512221486
 30
0.0
 11
1825.024503702929
 21
-1364.353512221486
 31
0.0
  0
LINE
  5
41D
330
1F
100
AcDbEntity
  8
1-B_寸法
  6
Continuous
 62
   120
370
     5
100
AcDbLine
 10
1727.524502319531
 20
-1364.353512221486
 30
0.0
 11
1727.524502319531
 21
-1597.755973211092
 31
0.0
  0
LWPOLYLINE
  5
41E
330
1F
100
AcDbEntity
  8
1-B_寸法
  6
Continuous
 62
     7
370
     5
100
AcDbPolyline
 90
        4
 70
     1
 43
3.0
 10
1729.024502319531
 20
-1364.353512221486
 42
0.4142135623731
 10
1727.524502319531
 20
-1362.853512221486
 42
0.4142135623731
 10
1726.024502319531
 20
-1364.353512221486
 42
0.4142135623731
 10
1727.524502319531
 20
-1365.853512221486
 42
0.4142135623731
  0
LINE
  5
41F
330
1F
100
AcDbEntity
  8
1-B_寸法
  6
Continuous
 62
   120
370
     5
100
AcDbLine
 10
602.5245023195308
 20
-1364.353512221486
 30
0.0
 11
1727.524502319531
 21
-1364.353512221486
 31
0.0
  0
LINE
  5
420
330
1F
100
AcDbEntity
  8
1-0_補助線
  6
JWW_HOJO
 62
   120
370
     5
100
AcDbLine
 10
2050.03059805797
 20
-920.4390626380712
 30
0.0
 11
2050.03059805797
 21
-2797.092284453937
 31
0.0
  0
MTEXT
  5
421
330
1F
100
AcDbEntity
  8
1-B_寸法
  6
Continuous
 62
     7
370
   211
100
AcDbMText
 10
1678.77450301123
 20
-1374.823512221486
 30
0.0
 40
99.0600000000001
 41
195.0000000000002
 46
0.0
 71
     7
 72
     1
  1
{\fＭＳ ゴシック|b0|i0|c128|p49;6.5}
 73
     1
 44
1.0
  0
MTEXT
  5
422
330
1F
100
AcDbEntity
  8
1-B_寸法
  6
Continuous
 62
     7
370
   211
100
AcDbMText
 10
1986.274503702929
 20
-1375.776012221486
 30
0.0
 40
97.15499999999999
 41
127.5
 46
0.0
 71
     7
 72
     1
  1
{\fＭＳ ゴシック|b0|i0|c128|p49;30}
 73
     1
 44
1.0
  0
MTEXT
  5
423
330
1F
100
AcDbEntity
  8
1-B_寸法
  6
Continuous
 62
     7
370
   211
100
AcDbMText
 10
1127.524502319531
 20
-1375.776012221486
 30
0.0
 40
97.15499999999999
 41
127.5
 46
0.0
 71
     7
 72
     1
  1
{\fＭＳ ゴシック|b0|i0|c128|p49;75}
 73
     1
 44
1.0
  0
LINE
  5
424
330
1F
100
AcDbEntity
  8
1-3_仕上げ
  6
Continuous
 62
    40
370
     5
100
AcDbLine
 10
393.9867966695309
 20
-2797.093314422222
 30
0.0
 11
3024.923398539531
 21
-2797.093314422222
 31
0.0
  0
LINE
  5
425
330
1F
100
AcDbEntity
  8
1-3_仕上げ
  6
Continuous
 62
    40
370
     5
100
AcDbLine
 10
393.9867966695309
 20
-2617.093314422215
 30
0.0
 11
3024.923398539531
 21
-2617.093314422215
 31
0.0
  0
LINE
  5
426
330
1F
100
AcDbEntity
  8
0-A_文字
  6
Continuous
 62
    92
370
     5
100
AcDbLine
 10
3344.45509760453
 20
-3258.848919265033
 30
0.0
 11
3344.45509760453
 21
-468.8489192650321
 31
0.0
  0
LINE
  5
427
330
1F
100
AcDbEntity
  8
0-A_文字
  6
Continuous
 62
    92
370
     5
100
AcDbLine
 10
74.45509760453184
 20
-468.8489192650321
 30
0.0
 11
3344.45509760453
 21
-468.8489192650321
 31
0.0
  0
LINE
  5
428
330
1F
100
AcDbEntity
  8
0-A_文字
  6
Continuous
 62
    92
370
     5
100
AcDbLine
 10
74.45509760453184
 20
-3258.848919265033
 30
0.0
 11
3344.45509760453
 21
-3258.848919265033
 31
0.0
  0
LINE
  5
429
330
1F
100
AcDbEntity
  8
0-A_文字
  6
Continuous
 62
    92
370
     5
100
AcDbLine
 10
74.45509760453184
 20
-648.8489192650321
 30
0.0
 11
3344.45509760453
 21
-648.8489192650321
 31
0.0
  0
LINE
  5
42A
330
1F
100
AcDbEntity
  8
1-B_寸法
  6
Continuous
 62
   120
370
     5
100
AcDbLine
 10
2927.524502319531
 20
-1152.308082143742
 30
0.0
 11
2927.524502319531
 21
-1597.755973211092
 31
0.0
  0
LWPOLYLINE
  5
42B
330
1F
100
AcDbEntity
  8
1-B_寸法
  6
Continuous
 62
     7
370
     5
100
AcDbPolyline
 90
        4
 70
     1
 43
3.0
 10
2929.024502319531
 20
-1152.308082143742
 42
0.4142135623731
 10
2927.524502319531
 20
-1150.808082143742
 42
0.4142135623731
 10
2926.024502319531
 20
-1152.308082143742
 42
0.4142135623731
 10
2927.524502319531
 20
-1153.808082143742
 42
0.4142135623731
  0
LINE
  5
42C
330
1F
100
AcDbEntity
  8
1-B_寸法
  6
Continuous
 62
   120
370
     5
100
AcDbLine
 10
602.5245023195308
 20
-1152.308082143742
 30
0.0
 11
2927.524502319531
 21
-1152.308082143742
 31
0.0
  0
LINE
  5
42D
330
1F
100
AcDbEntity
  8
1-4_枠
  6
Continuous
 62
    92
370
     5
100
AcDbLine
 10
2927.524502319531
 20
-2617.093314422215
 30
0.0
 11
2927.524502319531
 21
-920.4390626380712
 31
0.0
  0
LINE
  5
42E
330
1F
100
AcDbEntity
  8
1-4_枠
  6
Continuous
 62
    92
370
     5
100
AcDbLine
 10
1727.524502319531
 20
-1223.776802413304
 30
0.0
 11
1727.524502319531
 21
-1173.281290358654
 31
0.0
  0
LINE
  5
42F
330
1F
100
AcDbEntity
  8
1-4_枠
  6
Continuous
 62
    92
370
     5
100
AcDbLine
 10
1727.524502319531
 20
-2617.093314422215
 30
0.0
 11
1727.524502319531
 21
-1355.986872974629
 31
0.0
  0
MTEXT
  5
430
330
1F
100
AcDbEntity
  8
0-A_文字
  6
Continuous
 62
     7
370
     5
100
AcDbMText
 10
659.455097604531
 20
-633.1289192650321
 30
0.0
 40
91.43999999999998
 41
2100.0
 46
0.0
 71
     7
 72
     1
  1
{\fＭＳ ゴシック|b0|i0|c128|p49;振れ止め金具取り付け位置（Ｓ＝1/2）}
 73
     1
 44
1.0
  0
MTEXT
  5
431
330
1F
100
AcDbEntity
  8
1-B_寸法
  6
Continuous
 62
     7
370
   211
100
AcDbMText
 10
1667.524502319532
 20
-1162.778082143742
 30
0.0
 40
99.05999999999989
 41
194.9999999999998
 46
0.0
 71
     7
 72
     1
  1
{\fＭＳ ゴシック|b0|i0|c128|p49;155}
 73
     1
 44
1.0
  0
LINE
  5
432
330
1F
100
AcDbEntity
  8
1-6_扉
  6
JWW_DASHED2
 62
     7
370
     5
100
AcDbLine
 10
1825.024503702929
 20
-1173.281290358654
 30
0.0
 11
1825.024503702929
 21
-2489.593314422215
 31
0.0
  0
LWPOLYLINE
  5
433
330
1F
100
AcDbEntity
  8
1-B_寸法
  6
Continuous
 62
     7
370
     5
100
AcDbPolyline
 90
        4
 70
     1
 43
3.0
 10
1598.34646709727
 20
-2617.093314422215
 42
0.4142135623731
 10
1596.84646709727
 20
-2615.593314422216
 42
0.4142135623731
 10
1595.34646709727
 20
-2617.093314422215
 42
0.4142135623731
 10
1596.84646709727
 20
-2618.593314422215
 42
0.4142135623731
  0
LINE
  5
434
330
1F
100
AcDbEntity
  8
1-B_寸法
  6
Continuous
 62
   120
370
     5
100
AcDbLine
 10
1596.84646709727
 20
-2617.093314422215
 30
0.0
 11
1690.024503702928
 21
-2617.093314422215
 31
0.0
  0
LINE
  5
435
330
1F
100
AcDbEntity
  8
1-7_金物
  6
Continuous
 62
   120
370
     5
100
AcDbLine
 10
2034.932478753779
 20
-2616.481865887753
 30
0.0
 11
2071.926657591765
 21
-2579.487687049758
 31
0.0
  0
LINE
  5
436
330
1F
100
AcDbEntity
  8
1-7_金物
  6
Continuous
 62
   120
370
     5
100
AcDbLine
 10
1970.681419912443
 20
-2617.093314422192
 30
0.0
 11
2015.679927194253
 21
-2572.094807140391
 31
0.0
  0
LINE
  5
437
330
1F
100
AcDbEntity
  8
1-7_金物
  6
Continuous
 62
   120
370
     5
100
AcDbLine
 10
2027.526663775211
 20
-2560.248070559423
 30
0.0
 11
2072.526663775247
 21
-2515.2480705594
 31
0.0
  0
LINE
  5
438
330
1F
100
AcDbEntity
  8
1-7_金物
  6
Continuous
 62
   120
370
     5
100
AcDbLine
 10
1907.041809605689
 20
-2617.093314422214
 30
0.0
 11
1952.040316887473
 21
-2572.094807140417
 31
0.0
  0
LINE
  5
439
330
1F
100
AcDbEntity
  8
1-7_金物
  6
Continuous
 62
   120
370
     5
100
AcDbLine
 10
2027.526663775236
 20
-2496.60846025266
 30
0.0
 11
2072.526663775255
 21
-2451.608460252646
 31
0.0
  0
LINE
  5
43A
330
1F
100
AcDbEntity
  8
1-7_金物
  6
Continuous
 62
   120
370
     5
100
AcDbLine
 10
1843.402199298935
 20
-2617.093314422222
 30
0.0
 11
1888.400706580711
 21
-2572.094807140442
 31
0.0
  0
LINE
  5
43B
330
1F
100
AcDbEntity
  8
1-7_金物
  6
Continuous
 62
   120
370
     5
100
AcDbLine
 10
2027.526663775262
 20
-2432.968849945893
 30
0.0
 11
2072.526663775272
 21
-2387.968849945881
 31
0.0
  0
LINE
  5
43C
330
1F
100
AcDbEntity
  8
1-7_金物
  6
Continuous
 62
   120
370
     5
100
AcDbLine
 10
2027.526663775245
 20
-2369.329239639033
 30
0.0
 11
2072.526663775263
 21
-2324.32923963901
 31
0.0
  0
LINE
  5
43D
330
1F
100
AcDbEntity
  8
1-7_金物
  6
Continuous
 62
   120
370
     5
100
AcDbLine
 10
1802.526663775223
 20
-2594.329239639046
 30
0.0
 11
1824.761096273872
 21
-2572.094807140398
 31
0.0
  0
LINE
  5
43E
330
1F
100
AcDbEntity
  8
1-7_金物
  6
Continuous
 62
    92
370
     5
100
AcDbLine
 10
1802.526663775223
 20
-2572.093314422215
 30
0.0
 11
1802.526663775223
 21
-2617.093314422215
 31
0.0
  0
LINE
  5
43F
330
1F
100
AcDbEntity
  8
1-7_金物
  6
Continuous
 62
    92
370
     5
100
AcDbLine
 10
1802.526663775223
 20
-2572.093314422215
 30
0.0
 11
2027.526663775247
 21
-2572.093314422215
 31
0.0
  0
LINE
  5
440
330
1F
100
AcDbEntity
  8
1-7_金物
  6
Continuous
 62
    92
370
     5
100
AcDbLine
 10
2027.526663775247
 20
-2317.093314422215
 30
0.0
 11
2072.526663775247
 21
-2317.093314422215
 31
0.0
  0
LINE
  5
441
330
1F
100
AcDbEntity
  8
1-7_金物
  6
Continuous
 62
    92
370
     5
100
AcDbLine
 10
2027.526663775247
 20
-2317.093314422215
 30
0.0
 11
2027.526663775247
 21
-2572.093314422215
 31
0.0
  0
LINE
  5
442
330
1F
100
AcDbEntity
  8
1-7_金物
  6
Continuous
 62
    92
370
     5
100
AcDbLine
 10
2027.526663775247
 20
-2617.093314422215
 30
0.0
 11
1802.526663775223
 21
-2617.093314422215
 31
0.0
  0
LINE
  5
443
330
1F
100
AcDbEntity
  8
1-7_金物
  6
Continuous
 62
    92
370
     5
100
AcDbLine
 10
2072.526663775247
 20
-2572.093314422215
 30
0.0
 11
2072.526663775247
 21
-2317.093314422215
 31
0.0
  0
ARC
  5
444
330
1F
100
AcDbEntity
  8
1-7_金物
  6
Continuous
 62
    92
370
     5
100
AcDbCircle
 10
2027.526663775247
 20
-2572.093314422215
 30
0.0
 40
45.0
100
AcDbArc
 50
270.0
 51
0.0
  0
MTEXT
  5
445
330
1F
100
AcDbEntity
  8
1-B_寸法
  6
Continuous
 62
     7
370
   211
100
AcDbMText
 10
1581.84646709727
 20
-2483.774377810627
 30
0.0
 40
91.44000000000064
 41
120.0000000000009
 46
0.0
 71
     7
 72
     1
  1
{\fＭＳ ゴシック|b0|i0|c128|p49;20}
 11
6.123031769111886E-17
 21
1.0
 31
0.0
 73
     1
 44
1.0
  0
LINE
  5
446
330
1F
100
AcDbEntity
  8
1-B_寸法
  6
Continuous
 62
   120
370
     5
100
AcDbLine
 10
1596.84646709727
 20
-2617.093314422215
 30
0.0
 11
1596.84646709727
 21
-2317.093314422215
 31
0.0
  0
LWPOLYLINE
  5
447
330
1F
100
AcDbEntity
  8
1-B_寸法
  6
Continuous
 62
     7
370
     5
100
AcDbPolyline
 90
        4
 70
     1
 43
3.0
 10
1598.34646709727
 20
-2317.093314422215
 42
0.4142135623731
 10
1596.84646709727
 20
-2315.593314422216
 42
0.4142135623731
 10
1595.34646709727
 20
-2317.093314422215
 42
0.4142135623731
 10
1596.84646709727
 20
-2318.593314422215
 42
0.4142135623731
  0
LINE
  5
448
330
1F
100
AcDbEntity
  8
1-B_寸法
  6
Continuous
 62
   120
370
     5
100
AcDbLine
 10
1596.84646709727
 20
-2317.093314422215
 30
0.0
 11
1690.024503702928
 21
-2317.093314422215
 31
0.0
  0
LINE
  5
449
330
1F
100
AcDbEntity
  8
1-B_寸法
  6
Continuous
 62
   120
370
     5
100
AcDbLine
 10
2072.526663775247
 20
-2003.442208118457
 30
0.0
 11
1802.526663775223
 21
-2003.442208118457
 31
0.0
  0
LWPOLYLINE
  5
44A
330
1F
100
AcDbEntity
  8
1-B_寸法
  6
Continuous
 62
     7
370
     5
100
AcDbPolyline
 90
        4
 70
     1
 43
3.0
 10
2074.026663775247
 20
-2003.442208118457
 42
0.4142135623731
 10
2072.526663775247
 20
-2001.942208118457
 42
0.4142135623731
 10
2071.026663775247
 20
-2003.442208118457
 42
0.4142135623731
 10
2072.526663775247
 20
-2004.942208118457
 42
0.4142135623731
  0
LWPOLYLINE
  5
44B
330
1F
100
AcDbEntity
  8
1-B_寸法
  6
Continuous
 62
     7
370
     5
100
AcDbPolyline
 90
        4
 70
     1
 43
3.0
 10
1804.026663775223
 20
-2003.442208118457
 42
0.4142135623731
 10
1802.526663775223
 20
-2001.942208118457
 42
0.4142135623731
 10
1801.026663775224
 20
-2003.442208118457
 42
0.4142135623731
 10
1802.526663775223
 20
-2004.942208118457
 42
0.4142135623731
  0
LINE
  5
44C
330
1F
100
AcDbEntity
  8
1-B_寸法
  6
Continuous
 62
   120
370
     5
100
AcDbLine
 10
2072.526663775247
 20
-2003.442208118457
 30
0.0
 11
2072.526663775247
 21
-2153.442208118457
 31
0.0
  0
LINE
  5
44D
330
1F
100
AcDbEntity
  8
1-B_寸法
  6
Continuous
 62
   120
370
     5
100
AcDbLine
 10
1802.526663775223
 20
-2003.442208118457
 30
0.0
 11
1802.526663775223
 21
-2153.442208118457
 31
0.0
  0
MTEXT
  5
44E
330
1F
100
AcDbEntity
  8
1-B_寸法
  6
Continuous
 62
     7
370
   211
100
AcDbMText
 10
1873.776663775235
 20
-1999.864708118457
 30
0.0
 40
97.15499999999999
 41
127.5
 46
0.0
 71
     7
 72
     1
  1
{\fＭＳ ゴシック|b0|i0|c128|p49;18}
 73
     1
 44
1.0
  0
LINE
  5
44F
330
1F
100
AcDbEntity
  8
1-B_寸法
  6
Continuous
 62
   120
370
     5
100
AcDbLine
 10
1802.526663775223
 20
-2003.442208118457
 30
0.0
 11
1727.524503702928
 21
-2003.442208118457
 31
0.0
  0
LWPOLYLINE
  5
450
330
1F
100
AcDbEntity
  8
1-B_寸法
  6
Continuous
 62
     7
370
     5
100
AcDbPolyline
 90
        4
 70
     1
 43
3.0
 10
1729.024503702928
 20
-2003.442208118457
 42
0.4142135623731
 10
1727.524503702928
 20
-2001.942208118457
 42
0.4142135623731
 10
1726.024503702928
 20
-2003.442208118457
 42
0.4142135623731
 10
1727.524503702928
 20
-2004.942208118457
 42
0.4142135623731
  0
LINE
  5
451
330
1F
100
AcDbEntity
  8
1-B_寸法
  6
Continuous
 62
   120
370
     5
100
AcDbLine
 10
1727.524503702928
 20
-2003.442208118457
 30
0.0
 11
1727.524503702928
 21
-2153.442208118457
 31
0.0
  0
MTEXT
  5
452
330
1F
100
AcDbEntity
  8
1-B_寸法
  6
Continuous
 62
     7
370
   211
100
AcDbMText
 10
1735.025583739076
 20
-2002.722208118457
 30
0.0
 40
91.43999999999967
 41
59.99999999999979
 46
0.0
 71
     7
 72
     1
  1
{\fＭＳ ゴシック|b0|i0|c128|p49;5}
 73
     1
 44
1.0
  0
LINE
  5
453
330
1F
100
AcDbEntity
  8
1-6_扉
  6
JWW_DASHED2
 62
     7
370
     5
100
AcDbLine
 10
2001.272386545942
 20
-2489.593314422212
 30
0.0
 11
2001.272386545942
 21
-2219.593314422212
 31
0.0
  0
LINE
  5
454
330
1F
100
AcDbEntity
  8
1-6_扉
  6
JWW_DASHED2
 62
     7
370
     5
100
AcDbLine
 10
2098.774503702925
 20
-2219.593314422212
 30
0.0
 11
2098.774503702925
 21
-2489.593314422212
 31
0.0
  0
LINE
  5
455
330
1F
100
AcDbEntity
  8
1-6_扉
  6
JWW_DASHED2
 62
     7
370
     5
100
AcDbLine
 10
2098.774503702925
 20
-2219.593314422212
 30
0.0
 11
2001.272386545942
 21
-2219.593314422212
 31
0.0
  0
LINE
  5
456
330
1F
100
AcDbEntity
  8
1-7_金物
  6
Continuous
 62
     7
370
     5
100
AcDbLine
 10
2001.276663775226
 20
-2489.593314422215
 30
0.0
 11
2001.276663775226
 21
-2219.593314422216
 31
0.0
  0
LINE
  5
457
330
1F
100
AcDbEntity
  8
1-7_金物
  6
Continuous
 62
     7
370
     5
100
AcDbLine
 10
1956.276663775224
 20
-2489.593314422215
 30
0.0
 11
2001.276663775226
 21
-2489.593314422215
 31
0.0
  0
LINE
  5
458
330
1F
100
AcDbEntity
  8
1-7_金物
  6
Continuous
 62
     7
370
     5
100
AcDbLine
 10
1956.276663775224
 20
-2504.593314422213
 30
0.0
 11
1956.276663775224
 21
-2489.593314422215
 31
0.0
  0
LINE
  5
459
330
1F
100
AcDbEntity
  8
1-7_金物
  6
Continuous
 62
     7
370
     5
100
AcDbLine
 10
2016.27666377523
 20
-2504.593314422213
 30
0.0
 11
2016.27666377523
 21
-2234.593314422215
 31
0.0
  0
LINE
  5
45A
330
1F
100
AcDbEntity
  8
1-7_金物
  6
Continuous
 62
     7
370
     5
100
AcDbLine
 10
2016.27666377523
 20
-2504.593314422213
 30
0.0
 11
1956.276663775224
 21
-2504.593314422213
 31
0.0
  0
LINE
  5
45B
330
1F
100
AcDbEntity
  8
1-7_金物
  6
Continuous
 62
     7
370
     5
100
AcDbLine
 10
2098.776663775227
 20
-2219.593314422216
 30
0.0
 11
2098.776663775227
 21
-2489.593314422215
 31
0.0
  0
LINE
  5
45C
330
1F
100
AcDbEntity
  8
1-7_金物
  6
Continuous
 62
     7
370
     5
100
AcDbLine
 10
2083.776663775223
 20
-2234.593314422215
 30
0.0
 11
2083.776663775223
 21
-2504.593314422213
 31
0.0
  0
LINE
  5
45D
330
1F
100
AcDbEntity
  8
1-7_金物
  6
Continuous
 62
     7
370
     5
100
AcDbLine
 10
2001.276663775226
 20
-2219.593314422216
 30
0.0
 11
2098.776663775227
 21
-2219.593314422216
 31
0.0
  0
LINE
  5
45E
330
1F
100
AcDbEntity
  8
1-7_金物
  6
Continuous
 62
     7
370
     5
100
AcDbLine
 10
2083.776663775223
 20
-2234.593314422215
 30
0.0
 11
2016.27666377523
 21
-2234.593314422215
 31
0.0
  0
LINE
  5
45F
330
1F
100
AcDbEntity
  8
1-7_金物
  6
Continuous
 62
     7
370
     5
100
AcDbLine
 10
2083.776663775223
 20
-2504.593314422213
 30
0.0
 11
2143.776663775224
 21
-2504.593314422213
 31
0.0
  0
LINE
  5
460
330
1F
100
AcDbEntity
  8
1-7_金物
  6
Continuous
 62
     7
370
     5
100
AcDbLine
 10
2143.776663775224
 20
-2489.593314422215
 30
0.0
 11
2143.776663775224
 21
-2504.593314422213
 31
0.0
  0
LINE
  5
461
330
1F
100
AcDbEntity
  8
1-7_金物
  6
Continuous
 62
     7
370
     5
100
AcDbLine
 10
2098.776663775227
 20
-2489.593314422215
 30
0.0
 11
2143.776663775224
 21
-2489.593314422215
 31
0.0
  0
LINE
  5
462
330
1F
100
AcDbEntity
  8
1-6_扉
  6
JWW_DASHED2
 62
     7
370
     5
100
AcDbLine
 10
2218.776663775224
 20
-2489.593314422215
 30
0.0
 11
2098.776663775227
 21
-2489.593314422215
 31
0.0
  0
LINE
  5
463
330
1F
100
AcDbEntity
  8
1-6_扉
  6
JWW_DASHED2
 62
     7
370
     5
100
AcDbLine
 10
2001.272386545942
 20
-2489.593314422215
 30
0.0
 11
1825.024503702929
 21
-2489.593314422215
 31
0.0
  0
LINE
  5
464
330
1F
100
AcDbEntity
  8
1-B_寸法
  6
Continuous
 62
   120
370
     5
100
AcDbLine
 10
2518.776663775224
 20
-2617.093314422215
 30
0.0
 11
2218.776663775224
 21
-2617.093314422215
 31
0.0
  0
LINE
  5
465
330
1F
100
AcDbEntity
  8
1-B_寸法
  6
Continuous
 62
   120
370
     5
100
AcDbLine
 10
2218.776663775224
 20
-2572.093314422215
 30
0.0
 11
2368.776663775224
 21
-2572.093314422215
 31
0.0
  0
LINE
  5
466
330
1F
100
AcDbEntity
  8
1-B_寸法
  6
Continuous
 62
   120
370
     5
100
AcDbLine
 10
2368.776663775224
 20
-2572.093314422215
 30
0.0
 11
2368.776663775224
 21
-2617.093314422215
 31
0.0
  0
LINE
  5
467
330
1F
100
AcDbEntity
  8
1-B_寸法
  6
Continuous
 62
   120
370
     5
100
AcDbLine
 10
2518.776663775224
 20
-2617.093314422215
 30
0.0
 11
2518.776663775224
 21
-2797.093314422214
 31
0.0
  0
LINE
  5
468
330
1F
100
AcDbEntity
  8
1-B_寸法
  6
Continuous
 62
   120
370
     5
100
AcDbLine
 10
2518.776663775224
 20
-2797.093314422214
 30
0.0
 11
2218.776663775224
 21
-2797.093314422214
 31
0.0
  0
MTEXT
  5
469
330
1F
100
AcDbEntity
  8
1-B_寸法
  6
Continuous
 62
     7
370
   211
100
AcDbMText
 10
2353.776663775224
 20
-2638.873314422216
 30
0.0
 40
91.44
 41
60.0
 46
0.0
 71
     7
 72
     1
  1
{\fＭＳ ゴシック|b0|i0|c128|p49;3}
 11
6.123031769111886E-17
 21
1.0
 31
0.0
 73
     1
 44
1.0
  0
LWPOLYLINE
  5
46A
330
1F
100
AcDbEntity
  8
1-B_寸法
  6
Continuous
 62
     7
370
     5
100
AcDbPolyline
 90
        4
 70
     1
 43
3.0
 10
2370.276663775224
 20
-2617.093314422215
 42
0.4142135623731
 10
2368.776663775224
 20
-2615.593314422216
 42
0.4142135623731
 10
2367.276663775224
 20
-2617.093314422215
 42
0.4142135623731
 10
2368.776663775224
 20
-2618.593314422215
 42
0.4142135623731
  0
LWPOLYLINE
  5
46B
330
1F
100
AcDbEntity
  8
1-B_寸法
  6
Continuous
 62
     7
370
     5
100
AcDbPolyline
 90
        4
 70
     1
 43
3.0
 10
2370.276663775224
 20
-2572.093314422215
 42
0.4142135623731
 10
2368.776663775224
 20
-2570.593314422216
 42
0.4142135623731
 10
2367.276663775224
 20
-2572.093314422215
 42
0.4142135623731
 10
2368.776663775224
 20
-2573.593314422215
 42
0.4142135623731
  0
LWPOLYLINE
  5
46C
330
1F
100
AcDbEntity
  8
1-B_寸法
  6
Continuous
 62
     7
370
     5
100
AcDbPolyline
 90
        4
 70
     1
 43
3.0
 10
2520.276663775224
 20
-2797.093314422214
 42
0.4142135623731
 10
2518.776663775224
 20
-2795.593314422215
 42
0.4142135623731
 10
2517.276663775224
 20
-2797.093314422214
 42
0.4142135623731
 10
2518.776663775224
 20
-2798.593314422214
 42
0.4142135623731
  0
LWPOLYLINE
  5
46D
330
1F
100
AcDbEntity
  8
1-B_寸法
  6
Continuous
 62
     7
370
     5
100
AcDbPolyline
 90
        4
 70
     1
 43
3.0
 10
2520.276663775224
 20
-2617.093314422215
 42
0.4142135623731
 10
2518.776663775224
 20
-2615.593314422216
 42
0.4142135623731
 10
2517.276663775224
 20
-2617.093314422215
 42
0.4142135623731
 10
2518.776663775224
 20
-2618.593314422215
 42
0.4142135623731
  0
MTEXT
  5
46E
330
1F
100
AcDbEntity
  8
1-B_寸法
  6
Continuous
 62
     7
370
   211
100
AcDbMText
 10
2503.776663775224
 20
-2781.373314422215
 30
0.0
 40
91.44
 41
120.0
 46
0.0
 71
     7
 72
     1
  1
{\fＭＳ ゴシック|b0|i0|c128|p49;12}
 11
6.123031769111886E-17
 21
1.0
 31
0.0
 73
     1
 44
1.0
  0
LINE
  5
46F
330
1F
100
AcDbEntity
  8
1-B_寸法
  6
Continuous
 62
   120
370
     5
100
AcDbLine
 10
2218.776663775224
 20
-2489.593314422215
 30
0.0
 11
2518.776663775224
 21
-2489.593314422215
 31
0.0
  0
LINE
  5
470
330
1F
100
AcDbEntity
  8
1-B_寸法
  6
Continuous
 62
   120
370
     5
100
AcDbLine
 10
2368.776663775224
 20
-2572.093314422215
 30
0.0
 11
2368.776663775224
 21
-2298.533875381034
 31
0.0
  0
LINE
  5
471
330
1F
100
AcDbEntity
  8
1-B_寸法
  6
Continuous
 62
   120
370
     5
100
AcDbLine
 10
2518.776663775224
 20
-2298.533875381034
 30
0.0
 11
2518.776663775224
 21
-2617.093314422215
 31
0.0
  0
LWPOLYLINE
  5
472
330
1F
100
AcDbEntity
  8
1-B_寸法
  6
Continuous
 62
     7
370
     5
100
AcDbPolyline
 90
        4
 70
     1
 43
3.0
 10
2370.276663775224
 20
-2489.593314422215
 42
0.4142135623731
 10
2368.776663775224
 20
-2488.093314422216
 42
0.4142135623731
 10
2367.276663775224
 20
-2489.593314422215
 42
0.4142135623731
 10
2368.776663775224
 20
-2491.093314422215
 42
0.4142135623731
  0
MTEXT
  5
473
330
1F
100
AcDbEntity
  8
1-B_寸法
  6
Continuous
 62
     7
370
   211
100
AcDbMText
 10
2353.776663775224
 20
-2492.813875381034
 30
0.0
 40
91.44
 41
180.0
 46
0.0
 71
     7
 72
     1
  1
{\fＭＳ ゴシック|b0|i0|c128|p49;5.5}
 11
6.123031769111886E-17
 21
1.0
 31
0.0
 73
     1
 44
1.0
  0
LWPOLYLINE
  5
474
330
1F
100
AcDbEntity
  8
1-B_寸法
  6
Continuous
 62
     7
370
     5
100
AcDbPolyline
 90
        4
 70
     1
 43
3.0
 10
2520.276663775224
 20
-2489.593314422215
 42
0.4142135623731
 10
2518.776663775224
 20
-2488.093314422216
 42
0.4142135623731
 10
2517.276663775224
 20
-2489.593314422215
 42
0.4142135623731
 10
2518.776663775224
 20
-2491.093314422215
 42
0.4142135623731
  0
MTEXT
  5
475
330
1F
100
AcDbEntity
  8
1-B_寸法
  6
Continuous
 62
     7
370
   211
100
AcDbMText
 10
2503.776663775224
 20
-2490.662432687187
 30
0.0
 40
91.43999999999956
 41
179.9999999999991
 46
0.0
 71
     7
 72
     1
  1
{\fＭＳ ゴシック|b0|i0|c128|p49;8.5}
 11
6.123031769111886E-17
 21
1.0
 31
0.0
 73
     1
 44
1.0
  0
MTEXT
  5
476
330
1F
100
AcDbEntity
  8
1-B_寸法
  6
Continuous
 62
     7
370
   211
100
AcDbMText
 10
1423.349440536599
 20
-2428.873314422216
 30
0.0
 40
91.44
 41
120.0
 46
0.0
 71
     7
 72
     1
  1
{\fＭＳ ゴシック|b0|i0|c128|p49;18}
 11
6.123031769111886E-17
 21
1.0
 31
0.0
 73
     1
 44
1.0
  0
LINE
  5
477
330
1F
100
AcDbEntity
  8
1-B_寸法
  6
Continuous
 62
   120
370
     5
100
AcDbLine
 10
1438.349440536599
 20
-2489.593314422215
 30
0.0
 11
1581.028309089009
 21
-2489.593314422215
 31
0.0
  0
LINE
  5
478
330
1F
100
AcDbEntity
  8
1-B_寸法
  6
Continuous
 62
   120
370
     5
100
AcDbLine
 10
1438.349440536599
 20
-2219.593314422216
 30
0.0
 11
1690.024503702928
 21
-2219.593314422216
 31
0.0
  0
LWPOLYLINE
  5
479
330
1F
100
AcDbEntity
  8
1-B_寸法
  6
Continuous
 62
     7
370
     5
100
AcDbPolyline
 90
        4
 70
     1
 43
3.0
 10
1439.849440536599
 20
-2219.593314422216
 42
0.4142135623731
 10
1438.349440536599
 20
-2218.093314422216
 42
0.4142135623731
 10
1436.849440536599
 20
-2219.593314422216
 42
0.4142135623731
 10
1438.349440536599
 20
-2221.093314422216
 42
0.4142135623731
  0
LWPOLYLINE
  5
47A
330
1F
100
AcDbEntity
  8
1-B_寸法
  6
Continuous
 62
     7
370
     5
100
AcDbPolyline
 90
        4
 70
     1
 43
3.0
 10
1439.849440536599
 20
-2489.593314422215
 42
0.4142135623731
 10
1438.349440536599
 20
-2488.093314422216
 42
0.4142135623731
 10
1436.849440536599
 20
-2489.593314422215
 42
0.4142135623731
 10
1438.349440536599
 20
-2491.093314422215
 42
0.4142135623731
  0
LINE
  5
47B
330
1F
100
AcDbEntity
  8
1-B_寸法
  6
Continuous
 62
   120
370
     5
100
AcDbLine
 10
1438.349440536599
 20
-2489.593314422215
 30
0.0
 11
1438.349440536599
 21
-2219.593314422216
 31
0.0
  0
LINE
  5
47C
330
1F
100
AcDbEntity
  8
1-A_文字
  6
Continuous
 62
     7
370
     5
100
AcDbLine
 10
1640.571098164751
 20
-2933.410397179891
 30
0.0
 11
1565.571098164751
 21
-2933.410397179891
 31
0.0
  0
LINE
  5
47D
330
1F
100
AcDbEntity
  8
1-A_文字
  6
Continuous
 62
     7
370
     5
100
AcDbLine
 10
1834.322119730417
 20
-2597.823783809785
 30
0.0
 11
1640.571098164751
 21
-2933.410397179891
 31
0.0
  0
MTEXT
  5
47E
330
1F
100
AcDbEntity
  8
1-A_文字
  6
Continuous
 62
     7
370
     5
100
AcDbMText
 10
845.5710981647511
 20
-3007.690397179891
 30
0.0
 40
91.44
 41
720.0
 46
0.0
 71
     7
 72
     1
  1
{\fＭＳ ゴシック|b0|i0|c128|p49;振れ止め金具}
 73
     1
 44
1.0
  0
LINE
  5
47F
330
1F
100
AcDbEntity
  8
1-6_扉
  6
JWW_DASHED2
 62
     7
370
     5
100
AcDbLine
 10
2275.024503702929
 20
-920.4390626380712
 30
0.0
 11
2275.024503702929
 21
-2298.533875381034
 31
0.0
  0
MTEXT
  5
480
330
1F
100
AcDbEntity
  8
1-A_文字
  6
Continuous
 62
     7
370
     5
100
AcDbMText
 10
1138.774502319531
 20
-1461.7396976513
 30
0.0
 40
91.44
 41
360.0
 46
0.0
 71
     7
 72
     1
  1
{\f@ＭＳ ゴシック|b0|i0|c128|p49;中方立}
 11
-1.836909530733566E-16
 21
-1.0
 31
0.0
 73
     1
 44
1.0
  0
MTEXT
  5
481
330
1F
100
AcDbEntity
  8
1-A_文字
  6
Continuous
 62
     7
370
     5
100
AcDbMText
 10
1990.03059805797
 20
-1483.633512221486
 30
0.0
 40
91.44
 41
360.0
 46
0.0
 71
     7
 72
     1
  1
{\f@ＭＳ ゴシック|b0|i0|c128|p49;引き戸}
 11
-1.836909530733566E-16
 21
-1.0
 31
0.0
 73
     1
 44
1.0
  0
LINE
  5
482
330
1F
100
AcDbEntity
  8
0-A_文字
  6
Continuous
 62
   120
370
     5
100
AcDbLine
 10
4532.125445771181
 20
-2214.092492160057
 30
0.0
 11
5300.051654367279
 21
-2214.092492160057
 31
0.0
  0
LINE
  5
483
330
1F
100
AcDbEntity
  8
0-A_文字
  6
Continuous
 62
   120
370
     5
100
AcDbLine
 10
4404.782129076783
 20
-2402.295501535329
 30
0.0
 11
4532.125445771181
 21
-2214.092492160057
 31
0.0
  0
LINE
  5
484
330
1F
100
AcDbEntity
  8
0-6_扉
  6
Continuous
 62
     7
370
     5
100
AcDbLine
 10
3849.094011726804
 20
-441.4774516630838
 30
0.0
 11
4054.854926573232
 21
-560.2735712383733
 31
0.0
  0
LINE
  5
485
330
1F
100
AcDbEntity
  8
0-6_扉
  6
Continuous
 62
     7
370
     5
100
AcDbLine
 10
4277.08635982262
 20
-688.5789490473031
 30
0.0
 11
4367.178783355283
 21
-740.593834025832
 31
0.0
  0
LINE
  5
486
330
1F
100
AcDbEntity
  8
0-6_扉
  6
Continuous
 62
    40
370
     5
100
AcDbLine
 10
4572.898184047463
 20
-69.67681601564863
 30
0.0
 11
4572.898184047463
 21
-744.4092723532174
 31
0.0
  0
LINE
  5
487
330
1F
100
AcDbEntity
  8
0-6_扉
  6
Continuous
 62
    40
370
     5
100
AcDbLine
 10
4599.414688341959
 20
-69.67681601564863
 30
0.0
 11
4599.414688341959
 21
-935.9125398549555
 31
0.0
  0
LINE
  5
488
330
1F
100
AcDbEntity
  8
0-6_扉
  6
Continuous
 62
    40
370
     5
100
AcDbLine
 10
4700.17740466104
 20
-69.67681601564863
 30
0.0
 11
4700.17740466104
 21
-1024.706543030846
 31
0.0
  0
LINE
  5
489
330
1F
100
AcDbEntity
  8
0-6_扉
  6
Continuous
 62
    40
370
     5
100
AcDbLine
 10
4795.636820121232
 20
-69.67681601564863
 30
0.0
 11
4795.636820121232
 21
-1079.820062243471
 31
0.0
  0
LINE
  5
48A
330
1F
100
AcDbEntity
  8
0-6_扉
  6
Continuous
 62
    40
370
     5
100
AcDbLine
 10
5368.393312882333
 20
-69.67681601564863
 30
0.0
 11
5368.393312882333
 21
-749.1389469677428
 31
0.0
  0
LINE
  5
48B
330
1F
100
AcDbEntity
  8
0-6_扉
  6
Continuous
 62
    40
370
     5
100
AcDbLine
 10
4477.438768587284
 20
-69.67681601564863
 30
0.0
 11
4477.438768587284
 21
-896.1083315347322
 31
0.0
  0
LINE
  5
48C
330
1F
100
AcDbEntity
  8
0-6_扉
  6
Continuous
 62
    40
370
     5
100
AcDbLine
 10
4572.898184047463
 20
-951.2218507473507
 30
0.0
 11
4568.771970767473
 21
-948.8395803994149
 31
0.0
  0
LINE
  5
48D
330
1F
100
AcDbEntity
  8
0-6_扉
  6
Continuous
 62
    40
370
     5
100
AcDbLine
 10
4564.425006897892
 20
-946.3298596391543
 30
0.0
 11
4477.438768587284
 21
-896.1083315347322
 31
0.0
  0
LINE
  5
48E
330
1F
100
AcDbEntity
  8
0-6_扉
  6
Continuous
 62
    40
370
     5
100
AcDbLine
 10
4572.898184047463
 20
-891.8151999598399
 30
0.0
 11
4572.898184047463
 21
-951.2218507473507
 31
0.0
  0
LINE
  5
48F
330
1F
100
AcDbEntity
  8
0-6_扉
  6
Continuous
 62
     7
370
     5
100
AcDbLine
 10
4383.714331490629
 20
-750.1406371929727
 30
0.0
 11
4477.438768587284
 21
-804.2524661803715
 31
0.0
  0
LINE
  5
490
330
1F
100
AcDbEntity
  8
0-B_寸法
  6
JWW_CENTER1
 62
   120
370
     5
100
AcDbLine
 10
4709.87074550123
 20
-1129.337128512666
 30
0.0
 11
4886.251837374334
 21
-1231.170799385562
 31
0.0
  0
LINE
  5
491
330
1F
100
AcDbEntity
  8
0-B_寸法
  6
JWW_CENTER1
 62
   120
370
     5
100
AcDbLine
 10
4663.054310633519
 20
-972.6548929161152
 30
0.0
 11
4251.628423632104
 21
-1210.191739527962
 31
0.0
  0
LINE
  5
492
330
1F
100
AcDbEntity
  8
0-B_寸法
  6
Continuous
 62
   120
370
     5
100
AcDbLine
 10
4138.924543794251
 20
-1275.26134105224
 30
0.0
 11
4238.786521253034
 21
-1217.606001484603
 31
0.0
  0
LWPOLYLINE
  5
493
330
1F
100
AcDbEntity
  8
0-B_寸法
  6
Continuous
 62
     7
370
     5
100
AcDbPolyline
 90
        4
 70
     1
 43
3.0
 10
4140.424543794251
 20
-1275.26134105224
 42
0.4142135623731
 10
4138.924543794251
 20
-1273.76134105224
 42
0.4142135623731
 10
4137.424543794251
 20
-1275.26134105224
 42
0.4142135623731
 10
4138.924543794251
 20
-1276.761341052239
 42
0.4142135623731
  0
LINE
  5
494
330
1F
100
AcDbEntity
  8
0-B_寸法
  6
Continuous
 62
   120
370
     5
100
AcDbLine
 10
4138.924543794251
 20
-1275.26134105224
 30
0.0
 11
4298.023638755834
 21
-1367.117246356135
 31
0.0
  0
ELLIPSE
  5
495
330
1F
100
AcDbEntity
  8
0-7_金物
  6
Continuous
 62
     7
370
     5
100
AcDbEllipse
 10
4328.561900348205
 20
-843.1716355246023
 30
0.0
 11
3.839167031409308
 21
6.442887280167158
 31
0.0
210
0.0
220
0.0
230
0.9999999999999998
 40
0.6634139481689362
 41
6.22960553505472
 42
7.015003698451609
  0
ELLIPSE
  5
496
330
1F
100
AcDbEntity
  8
0-7_金物
  6
Continuous
 62
     7
370
     5
100
AcDbEllipse
 10
4334.307233671598
 20
-1055.102469424928
 30
0.0
 11
23.03500218845609
 21
38.65732368100281
 31
0.0
210
0.0
220
0.0
230
1.0
 40
0.6634139481689381
 41
2.302614718066926
 42
3.088012881464371
  0
LINE
  5
497
330
1F
100
AcDbEntity
  8
0-7_金物
  6
Continuous
 62
     7
370
     5
100
AcDbLine
 10
4450.009003415174
 20
-1163.017612475935
 30
0.0
 11
4450.009003415174
 21
-909.7051818689872
 31
0.0
  0
LINE
  5
498
330
1F
100
AcDbEntity
  8
0-7_金物
  6
Continuous
 62
     7
370
     5
100
AcDbLine
 10
4415.53700347482
 20
-924.1679030869338
 30
0.0
 11
4299.835233731244
 21
-855.2239032062264
 31
0.0
  0
LINE
  5
499
330
1F
100
AcDbEntity
  8
0-7_金物
  6
Continuous
 62
     7
370
     5
100
AcDbLine
 10
4415.732770960509
 20
-922.4046898641004
 30
0.0
 11
4300.031001216932
 21
-853.4606899833921
 31
0.0
  0
LINE
  5
49A
330
1F
100
AcDbEntity
  8
0-7_金物
  6
Continuous
 62
     7
370
     5
100
AcDbLine
 10
4416.306732186946
 20
-920.5973682835169
 30
0.0
 11
4300.604962443369
 21
-851.6533684028091
 31
0.0
  0
LINE
  5
49B
330
1F
100
AcDbEntity
  8
0-7_金物
  6
Continuous
 62
     7
370
     5
100
AcDbLine
 10
4417.219772645066
 20
-918.8691043241603
 30
0.0
 11
4301.518002901489
 21
-849.9251044434528
 31
0.0
  0
LINE
  5
49C
330
1F
100
AcDbEntity
  8
0-7_金物
  6
Continuous
 62
     7
370
     5
100
AcDbLine
 10
4418.409670136518
 20
-917.3376763187719
 30
0.0
 11
4302.707900392938
 21
-848.3936764380622
 31
0.0
  0
LINE
  5
49D
330
1F
100
AcDbEntity
  8
0-7_金物
  6
Continuous
 62
     7
370
     5
100
AcDbLine
 10
4419.795335113657
 20
-916.1074485551114
 30
0.0
 11
4304.09356537008
 21
-847.163448674404
 31
0.0
  0
LINE
  5
49E
330
1F
100
AcDbEntity
  8
0-7_金物
  6
Continuous
 62
     7
370
     5
100
AcDbLine
 10
4421.282336798213
 20
-915.2622590222246
 30
0.0
 11
4305.580567054636
 21
-846.3182591415172
 31
0.0
  0
ELLIPSE
  5
49F
330
1F
100
AcDbEntity
  8
0-7_金物
  6
Continuous
 62
     7
370
     5
100
AcDbEllipse
 10
4305.580567054636
 20
-852.8134496699012
 30
0.0
 11
3.839167031409303
 21
6.442887280167151
 31
0.0
210
0.0
220
0.0
230
0.9999999999999999
 40
0.6634139481689377
 41
0.7318183912720223
 42
2.302614718066919
  0
ELLIPSE
  5
4A0
330
1F
100
AcDbEntity
  8
0-7_金物
  6
Continuous
 62
     7
370
     5
100
AcDbEllipse
 10
4421.282336798213
 20
-921.7574495506086
 30
0.0
 11
3.839167031409386
 21
6.442887280167133
 31
0.0
210
0.0
220
0.0
230
1.0
 40
0.6634139481689393
 41
0.7318183912720424
 42
2.302614718066939
  0
LINE
  5
4A1
330
1F
100
AcDbEntity
  8
0-7_金物
  6
Continuous
 62
     7
370
     5
100
AcDbLine
 10
4415.53700347482
 20
-1138.509190523582
 30
0.0
 11
4299.835233731244
 21
-1069.565190642875
 31
0.0
  0
LINE
  5
4A2
330
1F
100
AcDbEntity
  8
0-7_金物
  6
Continuous
 62
     7
370
     5
100
AcDbLine
 10
4415.53700347482
 20
-924.1679030869338
 30
0.0
 11
4415.53700347482
 21
-1138.509190523582
 31
0.0
  0
LINE
  5
4A3
330
1F
100
AcDbEntity
  8
0-7_金物
  6
Continuous
 62
     7
370
     5
100
AcDbLine
 10
4299.835233731244
 20
-855.2239032062264
 30
0.0
 11
4299.835233731244
 21
-1069.565190642875
 31
0.0
  0
LINE
  5
4A4
330
1F
100
AcDbEntity
  8
0-7_金物
  6
Continuous
 62
     7
370
     5
100
AcDbLine
 10
4444.263670091782
 20
-905.6204448769279
 30
0.0
 11
4328.561900348205
 21
-836.6764449962204
 31
0.0
  0
LINE
  5
4A5
330
1F
100
AcDbEntity
  8
0-7_金物
  6
Continuous
 62
     7
370
     5
100
AcDbLine
 10
4421.282336798213
 20
-915.2622590222246
 30
0.0
 11
4444.263670091782
 21
-905.6204448769279
 31
0.0
  0
LINE
  5
4A6
330
1F
100
AcDbEntity
  8
0-7_金物
  6
Continuous
 62
     7
370
     5
100
AcDbLine
 10
4305.580567054636
 20
-846.3182591415172
 30
0.0
 11
4328.561900348205
 21
-836.6764449962204
 31
0.0
  0
LINE
  5
4A7
330
1F
100
AcDbEntity
  8
0-7_金物
  6
Continuous
 62
     7
370
     5
100
AcDbLine
 10
4445.750671776339
 20
-905.2178918447408
 30
0.0
 11
4330.048902032762
 21
-836.2738919640334
 31
0.0
  0
LINE
  5
4A8
330
1F
100
AcDbEntity
  8
0-7_金物
  6
Continuous
 62
     7
370
     5
100
AcDbLine
 10
4447.13633675348
 20
-905.2854086371486
 30
0.0
 11
4331.4345670099
 21
-836.3414087564408
 31
0.0
  0
LINE
  5
4A9
330
1F
100
AcDbEntity
  8
0-7_金物
  6
Continuous
 62
     7
370
     5
100
AcDbLine
 10
4448.326234244929
 20
-905.8183940963216
 30
0.0
 11
4332.624464501352
 21
-836.8743942156142
 31
0.0
  0
ELLIPSE
  5
4AA
330
1F
100
AcDbEntity
  8
0-7_金物
  6
Continuous
 62
     7
370
     5
100
AcDbEllipse
 10
4444.263670091782
 20
-912.1156354053097
 30
0.0
 11
3.839167031409386
 21
6.442887280167132
 31
0.0
210
0.0
220
0.0
230
1.0
 40
0.6634139481689387
 41
5.444207371656721
 42
7.015003698451618
  0
LINE
  5
4AB
330
1F
100
AcDbEntity
  8
0-7_金物
  6
Continuous
 62
     7
370
     5
100
AcDbLine
 10
4425.633618496287
 20
-1161.829917159567
 30
0.0
 11
4309.931848752712
 21
-1092.885917278859
 31
0.0
  0
LINE
  5
4AC
330
1F
100
AcDbEntity
  8
0-7_金物
  6
Continuous
 62
     7
370
     5
100
AcDbLine
 10
4420.155375747573
 20
-1156.057124873379
 30
0.0
 11
4304.453606003997
 21
-1087.113124992672
 31
0.0
  0
ELLIPSE
  5
4AD
330
1F
100
AcDbEntity
  8
0-7_金物
  6
Continuous
 62
     7
370
     5
100
AcDbEllipse
 10
4450.009003415174
 20
-1124.046469305635
 30
0.0
 11
23.03500218845613
 21
38.65732368100281
 31
0.0
210
0.0
220
0.0
230
0.9999999999999998
 40
0.6634139481689386
 41
2.302614718066926
 42
3.873411044861822
  0
LINE
  5
4AE
330
1F
100
AcDbEntity
  8
0-7_金物
  6
Continuous
 62
     7
370
     5
100
AcDbLine
 10
4416.711608388951
 20
-1148.10285931036
 30
0.0
 11
4301.009838645376
 21
-1079.158859429652
 31
0.0
  0
LINE
  5
4AF
330
1F
100
AcDbEntity
  8
0-7_金物
  6
Continuous
 62
     7
370
     5
100
AcDbLine
 10
4529.558516298661
 20
-1208.945545153119
 30
0.0
 11
4450.009003415174
 21
-1163.017612475935
 31
0.0
  0
ELLIPSE
  5
4B0
330
1F
100
AcDbEntity
  8
0-7_金物
  6
Continuous
 62
     7
370
     5
100
AcDbEllipse
 10
4550.771719734257
 20
-1147.708301583541
 30
0.0
 11
29.99999999999995
 21
6.661338147750928E-14
 31
0.0
210
0.0
220
0.0
230
1.0
 40
0.5773502691896261
 41
2.356194490192344
 42
2.780225529683081
  0
ELLIPSE
  5
4B1
330
1F
100
AcDbEntity
  8
0-7_金物
  6
Continuous
 62
     7
370
     5
100
AcDbEllipse
 10
4582.591524887654
 20
-1129.337128512666
 30
0.0
 11
30.00000000000003
 21
7.993605777301137E-14
 31
0.0
210
0.0
220
0.0
230
1.0
 40
0.5773502691896266
 41
0.2617993877991396
 42
2.356194490192344
  0
LINE
  5
4B2
330
1F
100
AcDbEntity
  8
0-7_金物
  6
Continuous
 62
     7
370
     5
100
AcDbLine
 10
4593.19812660545
 20
-1135.460852869624
 30
0.0
 11
4625.017931758844
 21
-1117.08967979875
 31
0.0
  0
LINE
  5
4B3
330
1F
100
AcDbEntity
  8
0-7_金物
  6
Continuous
 62
     7
370
     5
100
AcDbLine
 10
4508.345312863064
 20
-1086.471058013961
 30
0.0
 11
4540.165118016461
 21
-1068.099884943087
 31
0.0
  0
LINE
  5
4B4
330
1F
100
AcDbEntity
  8
0-7_金物
  6
Continuous
 62
     7
370
     5
100
AcDbLine
 10
4688.657542065634
 20
-1080.347333657003
 30
0.0
 11
4450.009003415174
 21
-942.5635356254487
 31
0.0
  0
LINE
  5
4B5
330
1F
100
AcDbEntity
  8
0-7_金物
  6
Continuous
 62
     7
370
     5
100
AcDbLine
 10
4253.786871635908
 20
-988.4914683026338
 30
0.0
 11
4299.835233731244
 21
-961.90543405115
 31
0.0
  0
ELLIPSE
  5
4B6
330
1F
100
AcDbEntity
  8
0-7_金物
  6
Continuous
 62
     7
370
     5
100
AcDbEllipse
 10
4391.672693967284
 20
-1019.110090087423
 30
0.0
 11
60.00000000000006
 21
0.0
 31
0.0
210
0.0
220
0.0
230
1.0
 40
0.5773502691896251
 41
6.047146014440955
 42
6.519224599918218
  0
ELLIPSE
  5
4B7
330
1F
100
AcDbEntity
  8
0-7_金物
  6
Continuous
 62
     7
370
     5
100
AcDbEllipse
 10
4391.672693967284
 20
-982.3677439456754
 30
0.0
 11
60.00000000000006
 21
0.0
 31
0.0
210
0.0
220
0.0
230
1.0
 40
0.5773502691896251
 41
6.047146014440955
 42
6.519224599918218
  0
LINE
  5
4B8
330
1F
100
AcDbEntity
  8
0-7_金物
  6
Continuous
 62
     7
370
     5
100
AcDbLine
 10
4299.835233731244
 20
-1039.572399981949
 30
0.0
 11
4253.786871635908
 21
-1012.986365730465
 31
0.0
  0
LINE
  5
4B9
330
1F
100
AcDbEntity
  8
0-7_金物
  6
Continuous
 62
     7
370
     5
100
AcDbLine
 10
4529.558516298661
 20
-1172.203199011372
 30
0.0
 11
4450.009003415174
 21
-1126.275266334187
 31
0.0
  0
LINE
  5
4BA
330
1F
100
AcDbEntity
  8
0-7_金物
  6
Continuous
 62
     7
370
     5
100
AcDbLine
 10
4300.457210695893
 20
-1076.673844691667
 30
0.0
 11
4253.786871635908
 21
-1049.728711872214
 31
0.0
  0
ELLIPSE
  5
4BB
330
1F
100
AcDbEntity
  8
0-7_金物
  6
Continuous
 62
     7
370
     5
100
AcDbEllipse
 10
4667.444338630037
 20
-1129.337128512666
 30
0.0
 11
-30.00000000000001
 21
3.673819061467133E-15
 31
0.0
210
0.0
220
0.0
230
1.0
 40
0.5773502691896252
 41
2.356194490192344
 42
3.141592653589793
  0
ELLIPSE
  5
4BC
330
1F
100
AcDbEntity
  8
0-7_金物
  6
Continuous
 62
     7
370
     5
100
AcDbEllipse
 10
4275.000075071504
 20
-1037.481263158297
 30
0.0
 11
-30.00000000000001
 21
-1.699649535696902E-14
 31
0.0
210
0.0
220
0.0
230
1.0
 40
0.5773502691896268
 41
0.0
 42
0.7853981633974476
  0
LINE
  5
4BD
330
1F
100
AcDbEntity
  8
0-7_金物
  6
Continuous
 62
     7
370
     5
100
AcDbLine
 10
4561.378321452057
 20
-1117.08967979875
 30
0.0
 11
4529.558516298661
 21
-1135.460852869624
 31
0.0
  0
ELLIPSE
  5
4BE
330
1F
100
AcDbEntity
  8
0-7_金物
  6
Continuous
 62
     7
370
     5
100
AcDbEllipse
 10
4550.771719734257
 20
-1110.965955441792
 30
0.0
 11
59.99999999999998
 21
0.0
 31
0.0
210
0.0
220
0.0
230
1.0
 40
0.5773502691896258
 41
2.356194490192344
 42
5.497787143782136
  0
LINE
  5
4BF
330
1F
100
AcDbEntity
  8
0-7_金物
  6
Continuous
 62
     7
370
     5
100
AcDbLine
 10
4451.672693967284
 20
-982.3677439456754
 30
0.0
 11
4451.672693967284
 21
-1019.110090087423
 31
0.0
  0
ELLIPSE
  5
4C0
330
1F
100
AcDbEntity
  8
0-7_金物
  6
Continuous
 62
     7
370
     5
100
AcDbEllipse
 10
4582.591524887654
 20
-1092.594782370919
 30
0.0
 11
60.00000000000004
 21
0.0
 31
0.0
210
0.0
220
0.0
230
1.0
 40
0.5773502691896252
 41
5.497787143782138
 42
8.63937979737193
  0
LINE
  5
4C1
330
1F
100
AcDbEntity
  8
0-7_金物
  6
Continuous
 62
     7
370
     5
100
AcDbLine
 10
4571.984923169854
 20
-1172.203199011372
 30
0.0
 11
4571.984923169854
 21
-1208.945545153119
 31
0.0
  0
LINE
  5
4C2
330
1F
100
AcDbEntity
  8
0-7_金物
  6
Continuous
 62
     7
370
     5
100
AcDbLine
 10
4688.657542065634
 20
-1104.842231084834
 30
0.0
 11
4688.657542065634
 21
-1141.584577226582
 31
0.0
  0
LINE
  5
4C3
330
1F
100
AcDbEntity
  8
0-7_金物
  6
Continuous
 62
     7
370
     5
100
AcDbLine
 10
4688.657542065634
 20
-1104.842231084834
 30
0.0
 11
4571.984923169854
 21
-1172.203199011372
 31
0.0
  0
LINE
  5
4C4
330
1F
100
AcDbEntity
  8
0-7_金物
  6
Continuous
 62
     7
370
     5
100
AcDbLine
 10
4688.657542065634
 20
-1141.584577226582
 30
0.0
 11
4571.984923169854
 21
-1208.945545153119
 31
0.0
  0
LINE
  5
4C5
330
1F
100
AcDbEntity
  8
0-7_金物
  6
Continuous
 62
     7
370
     5
100
AcDbLine
 10
4697.444338630037
 20
-1092.594782370919
 30
0.0
 11
4697.444338630037
 21
-1129.337128512666
 31
0.0
  0
LINE
  5
4C6
330
1F
100
AcDbEntity
  8
0-7_金物
  6
Continuous
 62
     7
370
     5
100
AcDbLine
 10
4696.42211341871
 20
-1097.077659731759
 30
0.0
 11
4696.42211341871
 21
-1133.820005873506
 31
0.0
  0
LINE
  5
4C7
330
1F
100
AcDbEntity
  8
0-7_金物
  6
Continuous
 62
     7
370
     5
100
AcDbLine
 10
4693.42510074357
 20
-1101.255036408763
 30
0.0
 11
4693.42510074357
 21
-1137.997382550511
 31
0.0
  0
ELLIPSE
  5
4C8
330
1F
100
AcDbEntity
  8
0-7_金物
  6
Continuous
 62
     7
370
     5
100
AcDbEllipse
 10
4667.444338630037
 20
-1092.594782370919
 30
0.0
 11
-30.00000000000001
 21
3.673819061467133E-15
 31
0.0
210
0.0
220
0.0
230
1.0
 40
0.5773502691896252
 41
2.356194490192344
 42
3.92699081698724
  0
LINE
  5
4C9
330
1F
100
AcDbEntity
  8
0-7_金物
  6
Continuous
 62
     7
370
     5
100
AcDbLine
 10
4565.771719734257
 20
-1174.955750297456
 30
0.0
 11
4565.771719734257
 21
-1211.698096439204
 31
0.0
  0
LINE
  5
4CA
330
1F
100
AcDbEntity
  8
0-7_金物
  6
Continuous
 62
     7
370
     5
100
AcDbLine
 10
4558.536291087334
 20
-1176.686076372213
 30
0.0
 11
4558.536291087334
 21
-1213.42842251396
 31
0.0
  0
LINE
  5
4CB
330
1F
100
AcDbEntity
  8
0-7_金物
  6
Continuous
 62
     7
370
     5
100
AcDbLine
 10
4550.771719734257
 20
-1177.276258373145
 30
0.0
 11
4550.771719734257
 21
-1214.018604514893
 31
0.0
  0
LINE
  5
4CC
330
1F
100
AcDbEntity
  8
0-7_金物
  6
Continuous
 62
     7
370
     5
100
AcDbLine
 10
4543.007148381181
 20
-1176.686076372213
 30
0.0
 11
4543.007148381181
 21
-1213.42842251396
 31
0.0
  0
LINE
  5
4CD
330
1F
100
AcDbEntity
  8
0-7_金物
  6
Continuous
 62
     7
370
     5
100
AcDbLine
 10
4535.771719734257
 20
-1174.955750297456
 30
0.0
 11
4535.771719734257
 21
-1211.698096439204
 31
0.0
  0
LINE
  5
4CE
330
1F
100
AcDbEntity
  8
0-7_金物
  6
Continuous
 62
     7
370
     5
100
AcDbLine
 10
4529.558516298661
 20
-1172.203199011372
 30
0.0
 11
4529.558516298661
 21
-1208.945545153119
 31
0.0
  0
ELLIPSE
  5
4CF
330
1F
100
AcDbEntity
  8
0-7_金物
  6
Continuous
 62
     7
370
     5
100
AcDbEllipse
 10
4550.771719734257
 20
-1196.698096439204
 30
0.0
 11
-29.99999999999994
 21
-4.364184794797269E-14
 31
0.0
210
0.0
220
0.0
230
1.0
 40
0.5773502691896277
 41
0.7853981633974488
 42
2.356194490192345
  0
ELLIPSE
  5
4D0
330
1F
100
AcDbEntity
  8
0-7_金物
  6
Continuous
 62
     7
370
     5
100
AcDbEllipse
 10
4550.771719734257
 20
-1159.955750297456
 30
0.0
 11
-29.99999999999994
 21
-4.364184794797269E-14
 31
0.0
210
0.0
220
0.0
230
1.0
 40
0.5773502691896277
 41
0.7853981633974482
 42
2.356194490192345
  0
LINE
  5
4D1
330
1F
100
AcDbEntity
  8
0-7_金物
  6
Continuous
 62
     7
370
     5
100
AcDbLine
 10
4253.786871635908
 20
-1012.986365730465
 30
0.0
 11
4253.786871635908
 21
-1049.728711872214
 31
0.0
  0
LINE
  5
4D2
330
1F
100
AcDbEntity
  8
0-7_金物
  6
Continuous
 62
     7
370
     5
100
AcDbLine
 10
4249.019312957972
 20
-1009.399171054394
 30
0.0
 11
4249.019312957972
 21
-1046.141517196141
 31
0.0
  0
LINE
  5
4D3
330
1F
100
AcDbEntity
  8
0-7_金物
  6
Continuous
 62
     7
370
     5
100
AcDbLine
 10
4246.022300282832
 20
-1005.22179437739
 30
0.0
 11
4246.022300282832
 21
-1041.964140519137
 31
0.0
  0
LINE
  5
4D4
330
1F
100
AcDbEntity
  8
0-7_金物
  6
Continuous
 62
     7
370
     5
100
AcDbLine
 10
4245.000075071504
 20
-1000.738917016549
 30
0.0
 11
4245.000075071504
 21
-1037.481263158297
 31
0.0
  0
ELLIPSE
  5
4D5
330
1F
100
AcDbEntity
  8
0-7_金物
  6
Continuous
 62
     7
370
     5
100
AcDbEllipse
 10
4275.000075071504
 20
-1000.738917016549
 30
0.0
 11
-30.00000000000005
 21
3.673819061467138E-15
 31
0.0
210
0.0
220
0.0
230
1.0
 40
0.5773502691896267
 41
5.497787143782136
 42
7.068583470577034
  0
LINE
  5
4D6
330
1F
100
AcDbEntity
  8
0-7_金物
  6
Continuous
 62
     7
370
     5
100
AcDbLine
 10
4376.246261293986
 20
-862.8676107371315
 30
0.0
 11
4388.728566700766
 21
-674.4531376122425
 31
0.0
  0
LINE
  5
4D7
330
1F
100
AcDbEntity
  8
0-7_金物
  6
Continuous
 62
     7
370
     5
100
AcDbLine
 10
4375.239581438358
 20
-862.267753569864
 30
0.0
 11
4362.797016080409
 21
-674.4531376122425
 31
0.0
  0
LINE
  5
4D8
330
1F
100
AcDbEntity
  8
0-7_金物
  6
Continuous
 62
     7
370
     5
100
AcDbLine
 10
4372.661117379586
 20
-644.8636788012415
 30
0.0
 11
4372.661117379586
 21
-635.7674232822421
 31
0.0
  0
LINE
  5
4D9
330
1F
100
AcDbEntity
  8
0-7_金物
  6
Continuous
 62
     7
370
     5
100
AcDbLine
 10
4372.661117379586
 20
-660.1632823422412
 30
0.0
 11
4372.661117379586
 21
-651.0670268232423
 31
0.0
  0
LINE
  5
4DA
330
1F
100
AcDbEntity
  8
0-7_金物
  6
Continuous
 62
     7
370
     5
100
AcDbLine
 10
4378.864465401589
 20
-644.8636788012415
 30
0.0
 11
4378.864465401589
 21
-635.7674232822421
 31
0.0
  0
LINE
  5
4DB
330
1F
100
AcDbEntity
  8
0-7_金物
  6
Continuous
 62
     7
370
     5
100
AcDbLine
 10
4378.864465401589
 20
-660.1632823422412
 30
0.0
 11
4378.864465401589
 21
-651.0670268232423
 31
0.0
  0
LINE
  5
4DC
330
1F
100
AcDbEntity
  8
0-7_金物
  6
Continuous
 62
     7
370
     5
100
AcDbLine
 10
4378.864465401589
 20
-651.0670268232423
 30
0.0
 11
4399.042388646589
 21
-651.0670268232423
 31
0.0
  0
LINE
  5
4DD
330
1F
100
AcDbEntity
  8
0-7_金物
  6
Continuous
 62
     7
370
     5
100
AcDbLine
 10
4352.483194133461
 20
-651.0670268232423
 30
0.0
 11
4372.661117379586
 21
-651.0670268232423
 31
0.0
  0
LINE
  5
4DE
330
1F
100
AcDbEntity
  8
0-7_金物
  6
Continuous
 62
     7
370
     5
100
AcDbLine
 10
4378.864465401589
 20
-644.8636788012415
 30
0.0
 11
4399.042388646589
 21
-644.8636788012415
 31
0.0
  0
LINE
  5
4DF
330
1F
100
AcDbEntity
  8
0-7_金物
  6
Continuous
 62
     7
370
     5
100
AcDbLine
 10
4352.483194133461
 20
-644.8636788012415
 30
0.0
 11
4372.661117379586
 21
-644.8636788012415
 31
0.0
  0
LINE
  5
4E0
330
1F
100
AcDbEntity
  8
0-7_金物
  6
Continuous
 62
     7
370
     5
100
AcDbLine
 10
4372.661117379586
 20
-635.7674232822421
 30
0.0
 11
4378.864465401589
 21
-635.7674232822421
 31
0.0
  0
LINE
  5
4E1
330
1F
100
AcDbEntity
  8
0-7_金物
  6
Continuous
 62
     7
370
     5
100
AcDbLine
 10
4372.661117379586
 20
-660.1632823422412
 30
0.0
 11
4378.864465401589
 21
-660.1632823422412
 31
0.0
  0
LINE
  5
4E2
330
1F
100
AcDbEntity
  8
0-7_金物
  6
Continuous
 62
     7
370
     5
100
AcDbLine
 10
4399.042388646589
 20
-651.0670268232423
 30
0.0
 11
4399.042388646589
 21
-644.8636788012415
 31
0.0
  0
LINE
  5
4E3
330
1F
100
AcDbEntity
  8
0-7_金物
  6
Continuous
 62
     7
370
     5
100
AcDbLine
 10
4352.483194133461
 20
-644.8636788012415
 30
0.0
 11
4352.483194133461
 21
-651.0670268232423
 31
0.0
  0
LINE
  5
4E4
330
1F
100
AcDbEntity
  8
0-7_金物
  6
Continuous
 62
     7
370
     5
100
AcDbLine
 10
4377.747910021409
 20
-840.2009362266438
 30
0.0
 11
4373.921198005048
 21
-842.3673816538937
 31
0.0
  0
LINE
  5
4E5
330
1F
100
AcDbEntity
  8
0-7_金物
  6
Continuous
 62
     7
370
     5
100
AcDbLine
 10
4378.395084786621
 20
-830.4321404446342
 30
0.0
 11
4373.320814356234
 21
-833.3048755560205
 31
0.0
  0
LINE
  5
4E6
330
1F
100
AcDbEntity
  8
0-7_金物
  6
Continuous
 62
     7
370
     5
100
AcDbLine
 10
4379.042259551836
 20
-820.6633446626269
 30
0.0
 11
4372.720430707417
 21
-824.2423694581443
 31
0.0
  0
LINE
  5
4E7
330
1F
100
AcDbEntity
  8
0-7_金物
  6
Continuous
 62
     7
370
     5
100
AcDbLine
 10
4379.689434317052
 20
-810.8945488806191
 30
0.0
 11
4372.120047058599
 21
-815.1798633602707
 31
0.0
  0
LINE
  5
4E8
330
1F
100
AcDbEntity
  8
0-7_金物
  6
Continuous
 62
     7
370
     5
100
AcDbLine
 10
4380.336609082264
 20
-801.1257530986118
 30
0.0
 11
4371.519663409786
 21
-806.1173572623975
 31
0.0
  0
LINE
  5
4E9
330
1F
100
AcDbEntity
  8
0-7_金物
  6
Continuous
 62
     7
370
     5
100
AcDbLine
 10
4380.983783847479
 20
-791.3569573166044
 30
0.0
 11
4370.919279760968
 21
-797.0548511645212
 31
0.0
  0
LINE
  5
4EA
330
1F
100
AcDbEntity
  8
0-7_金物
  6
Continuous
 62
     7
370
     5
100
AcDbLine
 10
4381.630958612691
 20
-781.588161534597
 30
0.0
 11
4370.31889611215
 21
-787.9923450666477
 31
0.0
  0
LINE
  5
4EB
330
1F
100
AcDbEntity
  8
0-7_金物
  6
Continuous
 62
     7
370
     5
100
AcDbLine
 10
4382.278133377906
 20
-771.8193657525887
 30
0.0
 11
4369.718512463337
 21
-778.9298389687735
 31
0.0
  0
LINE
  5
4EC
330
1F
100
AcDbEntity
  8
0-7_金物
  6
Continuous
 62
     7
370
     5
100
AcDbLine
 10
4382.925308143118
 20
-762.0505699705792
 30
0.0
 11
4369.11812881452
 21
-769.8673328708978
 31
0.0
  0
LINE
  5
4ED
330
1F
100
AcDbEntity
  8
0-7_金物
  6
Continuous
 62
     7
370
     5
100
AcDbLine
 10
4383.572482908334
 20
-752.281774188574
 30
0.0
 11
4368.517745165705
 21
-760.8048267730246
 31
0.0
  0
LINE
  5
4EE
330
1F
100
AcDbEntity
  8
0-7_金物
  6
Continuous
 62
     7
370
     5
100
AcDbLine
 10
4384.219657673546
 20
-742.5129784065641
 30
0.0
 11
4367.917361516888
 21
-751.7423206751483
 31
0.0
  0
LINE
  5
4EF
330
1F
100
AcDbEntity
  8
0-7_金物
  6
Continuous
 62
     7
370
     5
100
AcDbLine
 10
4384.866832438761
 20
-732.7441826245567
 30
0.0
 11
4367.316977868071
 21
-742.6798145772748
 31
0.0
  0
LINE
  5
4F0
330
1F
100
AcDbEntity
  8
0-7_金物
  6
Continuous
 62
     7
370
     5
100
AcDbLine
 10
4385.514007203976
 20
-722.9753868425494
 30
0.0
 11
4366.716594219257
 21
-733.6173084794007
 31
0.0
  0
LINE
  5
4F1
330
1F
100
AcDbEntity
  8
0-7_金物
  6
Continuous
 62
     7
370
     5
100
AcDbLine
 10
4386.161181969188
 20
-713.206591060542
 30
0.0
 11
4366.11621057044
 21
-724.5548023815275
 31
0.0
  0
LINE
  5
4F2
330
1F
100
AcDbEntity
  8
0-7_金物
  6
Continuous
 62
     7
370
     5
100
AcDbLine
 10
4386.808356734404
 20
-703.4377952785346
 30
0.0
 11
4365.515826921623
 21
-715.4922962836517
 31
0.0
  0
LINE
  5
4F3
330
1F
100
AcDbEntity
  8
0-7_金物
  6
Continuous
 62
     7
370
     5
100
AcDbLine
 10
4387.455531499616
 20
-693.6689994965242
 30
0.0
 11
4364.915443272808
 21
-706.4297901857755
 31
0.0
  0
LINE
  5
4F4
330
1F
100
AcDbEntity
  8
0-7_金物
  6
Continuous
 62
     7
370
     5
100
AcDbLine
 10
4377.100735256194
 20
-849.969732008652
 30
0.0
 11
4374.521581653866
 21
-851.4298877517673
 31
0.0
  0
LINE
  5
4F5
330
1F
100
AcDbEntity
  8
0-7_金物
  6
Continuous
 62
     7
370
     5
100
AcDbLine
 10
4388.102706264831
 20
-683.900203714519
 30
0.0
 11
4364.315059623991
 21
-697.3672840879022
 31
0.0
  0
LINE
  5
4F6
330
1F
100
AcDbEntity
  8
0-7_金物
  6
Continuous
 62
     7
370
     5
100
AcDbLine
 10
4399.673834078405
 20
-655.4953784117422
 30
0.0
 11
4388.728566700766
 21
-674.4531376122425
 31
0.0
  0
LINE
  5
4F7
330
1F
100
AcDbEntity
  8
0-7_金物
  6
Continuous
 62
     7
370
     5
100
AcDbLine
 10
4351.851748702767
 20
-655.4953784117422
 30
0.0
 11
4362.797016080409
 21
-674.4531376122425
 31
0.0
  0
ELLIPSE
  5
4F8
330
1F
100
AcDbEntity
  8
0-7_金物
  6
Continuous
 62
     7
370
     5
100
AcDbEllipse
 10
4375.762791390588
 20
-647.9653528122421
 30
0.0
 11
28.25850499469571
 21
0.0
 31
0.0
210
0.0
220
0.0
230
1.0
 40
0.5
 41
0.0
 42
6.283185307179586
  0
LINE
  5
4F9
330
1F
100
AcDbEntity
  8
0-7_金物
  6
Continuous
 62
     7
370
     5
100
AcDbLine
 10
4563.579948299956
 20
-755.0907172264849
 30
0.0
 11
4563.579948299956
 21
-745.9944617074838
 31
0.0
  0
LINE
  5
4FA
330
1F
100
AcDbEntity
  8
0-7_金物
  6
Continuous
 62
     7
370
     5
100
AcDbLine
 10
4563.579948299956
 20
-770.3903207674841
 30
0.0
 11
4563.579948299956
 21
-761.2940652484839
 31
0.0
  0
LINE
  5
4FB
330
1F
100
AcDbEntity
  8
0-7_金物
  6
Continuous
 62
     7
370
     5
100
AcDbLine
 10
4569.783296321955
 20
-755.0907172264849
 30
0.0
 11
4569.783296321955
 21
-745.9944617074838
 31
0.0
  0
LINE
  5
4FC
330
1F
100
AcDbEntity
  8
0-7_金物
  6
Continuous
 62
     7
370
     5
100
AcDbLine
 10
4569.783296321955
 20
-770.3903207674841
 30
0.0
 11
4569.783296321955
 21
-761.2940652484839
 31
0.0
  0
LINE
  5
4FD
330
1F
100
AcDbEntity
  8
0-7_金物
  6
Continuous
 62
     7
370
     5
100
AcDbLine
 10
4569.783296321955
 20
-761.2940652484839
 30
0.0
 11
4589.961219566954
 21
-761.2940652484839
 31
0.0
  0
LINE
  5
4FE
330
1F
100
AcDbEntity
  8
0-7_金物
  6
Continuous
 62
     7
370
     5
100
AcDbLine
 10
4543.402025053831
 20
-761.2940652484839
 30
0.0
 11
4563.579948299956
 21
-761.2940652484839
 31
0.0
  0
LINE
  5
4FF
330
1F
100
AcDbEntity
  8
0-7_金物
  6
Continuous
 62
     7
370
     5
100
AcDbLine
 10
4569.783296321955
 20
-755.0907172264849
 30
0.0
 11
4589.961219566954
 21
-755.0907172264849
 31
0.0
  0
LINE
  5
500
330
1F
100
AcDbEntity
  8
0-7_金物
  6
Continuous
 62
     7
370
     5
100
AcDbLine
 10
4543.402025053831
 20
-755.0907172264849
 30
0.0
 11
4563.579948299956
 21
-755.0907172264849
 31
0.0
  0
LINE
  5
501
330
1F
100
AcDbEntity
  8
0-7_金物
  6
Continuous
 62
     7
370
     5
100
AcDbLine
 10
4563.579948299956
 20
-745.9944617074838
 30
0.0
 11
4569.783296321955
 21
-745.9944617074838
 31
0.0
  0
LINE
  5
502
330
1F
100
AcDbEntity
  8
0-7_金物
  6
Continuous
 62
     7
370
     5
100
AcDbLine
 10
4563.579948299956
 20
-770.3903207674841
 30
0.0
 11
4569.783296321955
 21
-770.3903207674841
 31
0.0
  0
LINE
  5
503
330
1F
100
AcDbEntity
  8
0-7_金物
  6
Continuous
 62
     7
370
     5
100
AcDbLine
 10
4589.961219566954
 20
-761.2940652484839
 30
0.0
 11
4589.961219566954
 21
-755.0907172264849
 31
0.0
  0
LINE
  5
504
330
1F
100
AcDbEntity
  8
0-7_金物
  6
Continuous
 62
     7
370
     5
100
AcDbLine
 10
4543.402025053831
 20
-755.0907172264849
 30
0.0
 11
4543.402025053831
 21
-761.2940652484839
 31
0.0
  0
LINE
  5
505
330
1F
100
AcDbEntity
  8
0-7_金物
  6
Continuous
 62
     7
370
     5
100
AcDbLine
 10
4568.666740941775
 20
-950.4279746518854
 30
0.0
 11
4564.840028925418
 21
-952.5944200791366
 31
0.0
  0
LINE
  5
506
330
1F
100
AcDbEntity
  8
0-7_金物
  6
Continuous
 62
     7
370
     5
100
AcDbLine
 10
4569.31391570699
 20
-940.659178869878
 30
0.0
 11
4564.239645276601
 21
-943.5319139812634
 31
0.0
  0
LINE
  5
507
330
1F
100
AcDbEntity
  8
0-7_金物
  6
Continuous
 62
     7
370
     5
100
AcDbLine
 10
4569.961090472202
 20
-930.8903830878703
 30
0.0
 11
4563.639261627783
 21
-934.4694078833877
 31
0.0
  0
LINE
  5
508
330
1F
100
AcDbEntity
  8
0-7_金物
  6
Continuous
 62
     7
370
     5
100
AcDbLine
 10
4570.608265237417
 20
-921.121587305862
 30
0.0
 11
4563.038877978969
 21
-925.4069017855136
 31
0.0
  0
LINE
  5
509
330
1F
100
AcDbEntity
  8
0-7_金物
  6
Continuous
 62
     7
370
     5
100
AcDbLine
 10
4571.255440002633
 20
-911.3527915238546
 30
0.0
 11
4562.438494330152
 21
-916.3443956876404
 31
0.0
  0
LINE
  5
50A
330
1F
100
AcDbEntity
  8
0-7_金物
  6
Continuous
 62
     7
370
     5
100
AcDbLine
 10
4571.902614767845
 20
-901.5839957418473
 30
0.0
 11
4561.838110681338
 21
-907.2818895897647
 31
0.0
  0
LINE
  5
50B
330
1F
100
AcDbEntity
  8
0-7_金物
  6
Continuous
 62
     7
370
     5
100
AcDbLine
 10
4572.54978953306
 20
-891.8151999598399
 30
0.0
 11
4561.237727032521
 21
-898.2193834918905
 31
0.0
  0
LINE
  5
50C
330
1F
100
AcDbEntity
  8
0-7_金物
  6
Continuous
 62
     7
370
     5
100
AcDbLine
 10
4573.196964298272
 20
-882.0464041778304
 30
0.0
 11
4560.637343383703
 21
-889.1568773940152
 31
0.0
  0
LINE
  5
50D
330
1F
100
AcDbEntity
  8
0-7_金物
  6
Continuous
 62
     7
370
     5
100
AcDbLine
 10
4573.844139063487
 20
-872.277608395823
 30
0.0
 11
4560.036959734889
 21
-880.0943712961407
 31
0.0
  0
LINE
  5
50E
330
1F
100
AcDbEntity
  8
0-7_金物
  6
Continuous
 62
     7
370
     5
100
AcDbLine
 10
4574.491313828699
 20
-862.5088126138156
 30
0.0
 11
4559.436576086072
 21
-871.0318651982675
 31
0.0
  0
LINE
  5
50F
330
1F
100
AcDbEntity
  8
0-7_金物
  6
Continuous
 62
     7
370
     5
100
AcDbLine
 10
4575.138488593915
 20
-852.740016831807
 30
0.0
 11
4558.836192437255
 21
-861.9693591003921
 31
0.0
  0
LINE
  5
510
330
1F
100
AcDbEntity
  8
0-7_金物
  6
Continuous
 62
     7
370
     5
100
AcDbLine
 10
4575.785663359127
 20
-842.9712210497996
 30
0.0
 11
4558.23580878844
 21
-852.9068530025177
 31
0.0
  0
LINE
  5
511
330
1F
100
AcDbEntity
  8
0-7_金物
  6
Continuous
 62
     7
370
     5
100
AcDbLine
 10
4576.432838124342
 20
-833.2024252677923
 30
0.0
 11
4557.635425139623
 21
-843.8443469046423
 31
0.0
  0
LINE
  5
512
330
1F
100
AcDbEntity
  8
0-7_金物
  6
Continuous
 62
     7
370
     5
100
AcDbLine
 10
4577.080012889557
 20
-823.4336294857849
 30
0.0
 11
4557.035041490809
 21
-834.7818408067691
 31
0.0
  0
LINE
  5
513
330
1F
100
AcDbEntity
  8
0-7_金物
  6
Continuous
 62
     7
370
     5
100
AcDbLine
 10
4577.727187654769
 20
-813.6648337037775
 30
0.0
 11
4556.434657841992
 21
-825.7193347088946
 31
0.0
  0
LINE
  5
514
330
1F
100
AcDbEntity
  8
0-7_金物
  6
Continuous
 62
     7
370
     5
100
AcDbLine
 10
4578.374362419985
 20
-803.896037921768
 30
0.0
 11
4555.834274193175
 21
-816.6568286110193
 31
0.0
  0
LINE
  5
515
330
1F
100
AcDbEntity
  8
0-7_金物
  6
Continuous
 62
     7
370
     5
100
AcDbLine
 10
4568.019566176563
 20
-960.1967704338949
 30
0.0
 11
4565.440412574231
 21
-961.6569261770111
 31
0.0
  0
LINE
  5
516
330
1F
100
AcDbEntity
  8
0-7_金物
  6
Continuous
 62
     7
370
     5
100
AcDbLine
 10
4579.021537185197
 20
-794.1272421397606
 30
0.0
 11
4555.23389054436
 21
-807.5943225131457
 31
0.0
  0
LINE
  5
517
330
1F
100
AcDbEntity
  8
0-7_金物
  6
Continuous
 62
     7
370
     5
100
AcDbLine
 10
4566.681622310954
 20
-980.3923977874844
 30
0.0
 11
4579.647397621133
 21
-784.6801760374854
 31
0.0
  0
LINE
  5
518
330
1F
100
AcDbEntity
  8
0-7_金物
  6
Continuous
 62
     7
370
     5
100
AcDbLine
 10
4590.592664998775
 20
-765.7224168369851
 30
0.0
 11
4579.647397621133
 21
-784.6801760374854
 31
0.0
  0
LINE
  5
519
330
1F
100
AcDbEntity
  8
0-7_金物
  6
Continuous
 62
     7
370
     5
100
AcDbLine
 10
4566.681622310954
 20
-980.3923977874844
 30
0.0
 11
4553.715847000775
 21
-784.6801760374854
 31
0.0
  0
LINE
  5
51A
330
1F
100
AcDbEntity
  8
0-7_金物
  6
Continuous
 62
     7
370
     5
100
AcDbLine
 10
4542.770579623137
 20
-765.7224168369851
 30
0.0
 11
4553.715847000775
 21
-784.6801760374854
 31
0.0
  0
ELLIPSE
  5
51B
330
1F
100
AcDbEntity
  8
0-7_金物
  6
Continuous
 62
     7
370
     5
100
AcDbEllipse
 10
4566.681622310954
 20
-758.192391237485
 30
0.0
 11
28.25850499469571
 21
0.0
 31
0.0
210
0.0
220
0.0
230
1.0
 40
0.5
 41
0.0
 42
6.283185307179586
  0
LINE
  5
51C
330
1F
100
AcDbEntity
  8
0-0_補助線
  6
JWW_HOJO
 62
   120
370
     5
100
AcDbLine
 10
4625.017931758844
 20
-1104.842231084834
 30
0.0
 11
4508.345312863064
 21
-1172.203199011372
 31
0.0
  0
LINE
  5
51D
330
1F
100
AcDbEntity
  8
0-0_補助線
  6
JWW_HOJO
 62
   120
370
     5
100
AcDbLine
 10
4524.255215439761
 20
-1114.027817620272
 30
0.0
 11
4609.108029182147
 21
-1163.017612475935
 31
0.0
  0
LINE
  5
51E
330
1F
100
AcDbEntity
  8
0-0_補助線
  6
JWW_HOJO
 62
   120
370
     5
100
AcDbLine
 10
4620.427641136565
 20
-1119.739885325183
 30
0.0
 11
4642.591524887654
 21
-1092.594782370919
 31
0.0
  0
LINE
  5
51F
330
1F
100
AcDbEntity
  8
0-0_補助線
  6
JWW_HOJO
 62
   120
370
     5
100
AcDbLine
 10
4640.547074464996
 20
-1101.560537092598
 30
0.0
 11
4629.39251266564
 21
-1114.271709759307
 31
0.0
  0
LINE
  5
520
330
1F
100
AcDbEntity
  8
0-0_補助線
  6
JWW_HOJO
 62
   120
370
     5
100
AcDbLine
 10
4515.417925060757
 20
-1138.954698430024
 30
0.0
 11
4492.816170156915
 21
-1102.000200720113
 31
0.0
  0
LINE
  5
521
330
1F
100
AcDbEntity
  8
0-0_補助線
  6
JWW_HOJO
 62
   120
370
     5
100
AcDbLine
 10
4490.771719734257
 20
-1110.965955441792
 30
0.0
 11
4509.825777089804
 21
-1136.286762307275
 31
0.0
  0
LINE
  5
522
330
1F
100
AcDbEntity
  8
0-0_補助線
  6
JWW_HOJO
 62
   120
370
     5
100
AcDbLine
 10
4451.672693967284
 20
-982.3677439456754
 30
0.0
 11
4450.009003415174
 21
-984.4053404169539
 31
0.0
  0
LINE
  5
523
330
1F
100
AcDbEntity
  8
0-0_補助線
  6
JWW_HOJO
 62
   120
370
     5
100
AcDbLine
 10
4508.345312863064
 20
-1086.471058013961
 30
0.0
 11
4529.558516298661
 21
-1135.460852869624
 31
0.0
  0
LINE
  5
524
330
1F
100
AcDbEntity
  8
0-0_補助線
  6
JWW_HOJO
 62
   120
370
     5
100
AcDbLine
 10
4640.547074464996
 20
-1083.629027649238
 30
0.0
 11
4611.569299676323
 21
-1124.854251151826
 31
0.0
  0
LINE
  5
525
330
1F
100
AcDbEntity
  8
0-0_補助線
  6
JWW_HOJO
 62
   120
370
     5
100
AcDbLine
 10
4608.572287001187
 20
-1120.676874474822
 30
0.0
 11
4634.553049114719
 21
-1075.27427429523
 31
0.0
  0
LINE
  5
526
330
1F
100
AcDbEntity
  8
0-0_補助線
  6
JWW_HOJO
 62
   120
370
     5
100
AcDbLine
 10
4625.017931758844
 20
-1068.099884943087
 30
0.0
 11
4603.804728323247
 21
-1117.08967979875
 31
0.0
  0
LINE
  5
527
330
1F
100
AcDbEntity
  8
0-0_補助線
  6
JWW_HOJO
 62
   120
370
     5
100
AcDbLine
 10
4597.591524887654
 20
-1114.337128512666
 30
0.0
 11
4612.591524887654
 21
-1062.594782370919
 31
0.0
  0
LINE
  5
528
330
1F
100
AcDbEntity
  8
0-0_補助線
  6
JWW_HOJO
 62
   120
370
     5
100
AcDbLine
 10
4598.120667593803
 20
-1059.134130221406
 30
0.0
 11
4590.356096240726
 21
-1112.60680243791
 31
0.0
  0
LINE
  5
529
330
1F
100
AcDbEntity
  8
0-0_補助線
  6
JWW_HOJO
 62
   120
370
     5
100
AcDbLine
 10
4582.591524887654
 20
-1112.016620436978
 30
0.0
 11
4582.591524887654
 21
-1057.953766219541
 31
0.0
  0
LINE
  5
52A
330
1F
100
AcDbEntity
  8
0-0_補助線
  6
JWW_HOJO
 62
   120
370
     5
100
AcDbLine
 10
4567.062382181502
 20
-1059.134130221406
 30
0.0
 11
4574.826953534577
 21
-1112.60680243791
 31
0.0
  0
LINE
  5
52B
330
1F
100
AcDbEntity
  8
0-0_補助線
  6
JWW_HOJO
 62
   120
370
     5
100
AcDbLine
 10
4567.591524887654
 20
-1114.337128512666
 30
0.0
 11
4552.591524887654
 21
-1062.594782370919
 31
0.0
  0
LINE
  5
52C
330
1F
100
AcDbEntity
  8
0-0_補助線
  6
JWW_HOJO
 62
   120
370
     5
100
AcDbLine
 10
4540.165118016461
 20
-1068.099884943087
 30
0.0
 11
4561.378321452057
 21
-1117.08967979875
 31
0.0
  0
LINE
  5
52D
330
1F
100
AcDbEntity
  8
0-B_寸法
  6
Continuous
 62
   120
370
     5
100
AcDbLine
 10
4360.768198049273
 20
-1330.891658157884
 30
0.0
 11
4298.023638755834
 21
-1367.117246356136
 31
0.0
  0
LINE
  5
52E
330
1F
100
AcDbEntity
  8
0-B_寸法
  6
JWW_CENTER1
 62
   120
370
     5
100
AcDbLine
 10
4795.636820121232
 20
-1079.820062243471
 30
0.0
 11
4378.848949002862
 21
-1320.452651828634
 31
0.0
  0
LWPOLYLINE
  5
52F
330
1F
100
AcDbEntity
  8
0-B_寸法
  6
Continuous
 62
     7
370
     5
100
AcDbPolyline
 90
        4
 70
     1
 43
3.0
 10
4299.523638755835
 20
-1367.117246356136
 42
0.4142135623731
 10
4298.023638755834
 20
-1365.617246356136
 42
0.4142135623731
 10
4296.523638755834
 20
-1367.117246356136
 42
0.4142135623731
 10
4298.023638755834
 20
-1368.617246356136
 42
0.4142135623731
  0
LINE
  5
530
330
1F
100
AcDbEntity
  8
0-B_寸法
  6
Continuous
 62
   120
370
     5
100
AcDbLine
 10
4886.251837374334
 20
-1231.170799385562
 30
0.0
 11
4938.095278161232
 21
-1261.102623879595
 31
0.0
  0
LINE
  5
531
330
1F
100
AcDbEntity
  8
0-B_寸法
  6
Continuous
 62
   120
370
     5
100
AcDbLine
 10
5023.861352770993
 20
-1211.585557616311
 30
0.0
 11
4938.095278161232
 21
-1261.102623879594
 31
0.0
  0
LWPOLYLINE
  5
532
330
1F
100
AcDbEntity
  8
0-B_寸法
  6
Continuous
 62
     7
370
     5
100
AcDbPolyline
 90
        4
 70
     1
 43
3.0
 10
4939.595278161233
 20
-1261.102623879595
 42
0.4142135623731
 10
4938.095278161232
 20
-1259.602623879595
 42
0.4142135623731
 10
4936.595278161232
 20
-1261.102623879595
 42
0.4142135623731
 10
4938.095278161232
 20
-1262.602623879594
 42
0.4142135623731
  0
LINE
  5
533
330
1F
100
AcDbEntity
  8
0-B_寸法
  6
Continuous
 62
   120
370
     5
100
AcDbLine
 10
5023.861352760757
 20
-1211.585557598577
 30
0.0
 11
4970.035112435761
 21
-1180.508963257476
 31
0.0
  0
LWPOLYLINE
  5
534
330
1F
100
AcDbEntity
  8
0-B_寸法
  6
Continuous
 62
     7
370
     5
100
AcDbPolyline
 90
        4
 70
     1
 43
3.0
 10
5025.361352760757
 20
-1211.585557598577
 42
0.4142135623731
 10
5023.861352760757
 20
-1210.085557598577
 42
0.4142135623731
 10
5022.361352760756
 20
-1211.585557598577
 42
0.4142135623731
 10
5023.861352760757
 20
-1213.085557598577
 42
0.4142135623731
  0
LINE
  5
535
330
1F
100
AcDbEntity
  8
0-B_寸法
  6
JWW_CENTER1
 62
   120
370
     5
100
AcDbLine
 10
4795.636820121232
 20
-1079.820062243471
 30
0.0
 11
4958.272914212803
 21
-1173.718054947189
 31
0.0
  0
LINE
  5
536
330
1F
100
AcDbEntity
  8
0-6_扉
  6
Continuous
 62
    40
370
     5
100
AcDbLine
 10
4599.414688341959
 20
-935.9125398549555
 30
0.0
 11
4572.898184047463
 21
-951.2218507473507
 31
0.0
  0
LINE
  5
537
330
1F
100
AcDbEntity
  8
0-6_扉
  6
Continuous
 62
    40
370
     5
100
AcDbLine
 10
4700.17740466104
 20
-1024.706543030846
 30
0.0
 11
4795.636820121232
 21
-1079.820062243471
 31
0.0
  0
LINE
  5
538
330
1F
100
AcDbEntity
  8
0-6_扉
  6
Continuous
 62
    40
370
     5
100
AcDbLine
 10
4795.636820121232
 20
-1079.820062243471
 30
0.0
 11
5368.393312882333
 21
-749.1389469677428
 31
0.0
  0
LINE
  5
539
330
1F
100
AcDbEntity
  8
0-7_金物
  6
Continuous
 62
     7
370
     5
100
AcDbLine
 10
3577.640014477069
 20
-1756.323177943122
 30
0.0
 11
5586.791428786553
 21
-1756.323177943122
 31
0.0
  0
LWPOLYLINE
  5
53A
330
1F
100
AcDbEntity
  8
1-B_寸法
  6
Continuous
 62
     7
370
     5
100
AcDbPolyline
 90
        4
 70
     1
 43
3.0
 10
4553.83881735976
 20
-2943.820128729996
 42
0.4142135623731
 10
4552.33881735976
 20
-2942.320128729996
 42
0.4142135623731
 10
4550.83881735976
 20
-2943.820128729996
 42
0.4142135623731
 10
4552.33881735976
 20
-2945.320128729996
 42
0.4142135623731
  0
LINE
  5
53B
330
1F
100
AcDbEntity
  8
1-B_寸法
  6
Continuous
 62
   120
370
     5
100
AcDbLine
 10
4552.33881735976
 20
-2943.820128729996
 30
0.0
 11
4552.33881735976
 21
-2823.723992660482
 31
0.0
  0
LINE
  5
53C
330
1F
100
AcDbEntity
  8
0-7_金物
  6
Continuous
 62
     7
370
     5
100
AcDbLine
 10
5586.791428786553
 20
-1756.323177943122
 30
0.0
 11
5586.791428786553
 21
-3017.033277609485
 31
0.0
  0
LINE
  5
53D
330
1F
100
AcDbEntity
  8
0-7_金物
  6
Continuous
 62
     7
370
     5
100
AcDbLine
 10
3577.640014477069
 20
-3017.033277609485
 30
0.0
 11
3577.640014477069
 21
-1756.323177943122
 31
0.0
  0
LINE
  5
53E
330
1F
100
AcDbEntity
  8
1-B_寸法
  6
Continuous
 62
   120
370
     5
100
AcDbLine
 10
4552.33881735976
 20
-2943.820128729996
 30
0.0
 11
4268.06939144139
 21
-2943.820128729996
 31
0.0
  0
LINE
  5
53F
330
1F
100
AcDbEntity
  8
1-B_寸法
  6
Continuous
 62
   120
370
     5
100
AcDbLine
 10
4477.33881735976
 20
-2823.723992660482
 30
0.0
 11
4477.33881735976
 21
-2943.820128729996
 31
0.0
  0
LWPOLYLINE
  5
540
330
1F
100
AcDbEntity
  8
1-B_寸法
  6
Continuous
 62
     7
370
     5
100
AcDbPolyline
 90
        4
 70
     1
 43
3.0
 10
4478.83881735976
 20
-2943.820128729996
 42
0.4142135623731
 10
4477.33881735976
 20
-2942.320128729996
 42
0.4142135623731
 10
4475.83881735976
 20
-2943.820128729996
 42
0.4142135623731
 10
4477.33881735976
 20
-2945.320128729996
 42
0.4142135623731
  0
LINE
  5
541
330
1F
100
AcDbEntity
  8
0-7_金物
  6
Continuous
 62
     7
370
     5
100
AcDbLine
 10
5586.791428786553
 20
-3017.033277609485
 30
0.0
 11
3577.640014477069
 21
-3017.033277609485
 31
0.0
  0
LWPOLYLINE
  5
542
330
1F
100
AcDbEntity
  8
1-B_寸法
  6
Continuous
 62
     7
370
     5
100
AcDbPolyline
 90
        4
 70
     1
 43
3.0
 10
4056.541620067095
 20
-2748.723992660482
 42
0.4142135623731
 10
4055.041620067095
 20
-2747.223992660482
 42
0.4142135623731
 10
4053.541620067094
 20
-2748.723992660482
 42
0.4142135623731
 10
4055.041620067095
 20
-2750.223992660482
 42
0.4142135623731
  0
LINE
  5
543
330
1F
100
AcDbEntity
  8
1-B_寸法
  6
Continuous
 62
   120
370
     5
100
AcDbLine
 10
4055.041620067095
 20
-2748.723992660482
 30
0.0
 11
4152.114501443239
 21
-2748.723992660482
 31
0.0
  0
ARC
  5
544
330
1F
100
AcDbEntity
  8
1-7_金物
  6
Continuous
 62
     7
370
     5
100
AcDbCircle
 10
4214.83881735976
 20
-2441.223992660482
 30
0.0
 40
7.5
100
AcDbArc
 50
90.0
 51
180.0
  0
LINE
  5
545
330
1F
100
AcDbEntity
  8
1-7_金物
  6
Continuous
 62
     7
370
     5
100
AcDbLine
 10
4207.33881735976
 20
-2606.223992660482
 30
0.0
 11
4207.33881735976
 21
-2441.223992660482
 31
0.0
  0
ARC
  5
546
330
1F
100
AcDbEntity
  8
1-7_金物
  6
Continuous
 62
     7
370
     5
100
AcDbCircle
 10
4214.83881735976
 20
-2606.223992660482
 30
0.0
 40
7.5
100
AcDbArc
 50
180.0
 51
270.0
  0
LINE
  5
547
330
1F
100
AcDbEntity
  8
1-7_金物
  6
Continuous
 62
     7
370
     5
100
AcDbLine
 10
4244.83881735976
 20
-2613.723992660482
 30
0.0
 11
4214.83881735976
 21
-2613.723992660482
 31
0.0
  0
ARC
  5
548
330
1F
100
AcDbEntity
  8
1-7_金物
  6
Continuous
 62
     7
370
     5
100
AcDbCircle
 10
4244.83881735976
 20
-2606.223992660482
 30
0.0
 40
7.5
100
AcDbArc
 50
270.0
 51
0.0
  0
LINE
  5
549
330
1F
100
AcDbEntity
  8
1-7_金物
  6
Continuous
 62
     7
370
     5
100
AcDbLine
 10
4244.83881735976
 20
-2433.723992660482
 30
0.0
 11
4214.83881735976
 21
-2433.723992660482
 31
0.0
  0
ARC
  5
54A
330
1F
100
AcDbEntity
  8
1-7_金物
  6
Continuous
 62
     7
370
     5
100
AcDbCircle
 10
4244.83881735976
 20
-2441.223992660482
 30
0.0
 40
7.5
100
AcDbArc
 50
0.0
 51
90.0
  0
ARC
  5
54B
330
1F
100
AcDbEntity
  8
1-7_金物
  6
Continuous
 62
     7
370
     5
100
AcDbCircle
 10
4282.33881735976
 20
-2328.723992660482
 30
0.0
 40
30.0
100
AcDbArc
 50
90.0
 51
180.0
  0
LINE
  5
54C
330
1F
100
AcDbEntity
  8
1-7_金物
  6
Continuous
 62
     7
370
     5
100
AcDbLine
 10
4252.33881735976
 20
-2718.723992660482
 30
0.0
 11
4252.33881735976
 21
-2328.723992660482
 31
0.0
  0
ARC
  5
54D
330
1F
100
AcDbEntity
  8
1-7_金物
  6
Continuous
 62
     7
370
     5
100
AcDbCircle
 10
4282.33881735976
 20
-2718.723992660482
 30
0.0
 40
30.0
100
AcDbArc
 50
180.0
 51
270.0
  0
ARC
  5
54E
330
1F
100
AcDbEntity
  8
1-7_金物
  6
Continuous
 62
     7
370
     5
100
AcDbCircle
 10
4447.33881735976
 20
-2328.723992660482
 30
0.0
 40
30.0
100
AcDbArc
 50
0.0
 51
90.0
  0
LINE
  5
54F
330
1F
100
AcDbEntity
  8
1-7_金物
  6
Continuous
 62
     7
370
     5
100
AcDbLine
 10
4477.33881735976
 20
-2718.723992660482
 30
0.0
 11
4477.33881735976
 21
-2328.723992660482
 31
0.0
  0
ARC
  5
550
330
1F
100
AcDbEntity
  8
1-7_金物
  6
Continuous
 62
     7
370
     5
100
AcDbCircle
 10
4447.33881735976
 20
-2718.723992660482
 30
0.0
 40
30.0
100
AcDbArc
 50
270.0
 51
0.0
  0
LINE
  5
551
330
1F
100
AcDbEntity
  8
1-7_金物
  6
Continuous
 62
     7
370
     5
100
AcDbLine
 10
4447.33881735976
 20
-2748.723992660482
 30
0.0
 11
4282.33881735976
 21
-2748.723992660482
 31
0.0
  0
LINE
  5
552
330
1F
100
AcDbEntity
  8
1-7_金物
  6
Continuous
 62
     7
370
     5
100
AcDbLine
 10
4282.33881735976
 20
-2298.723992660482
 30
0.0
 11
4447.33881735976
 21
-2298.723992660482
 31
0.0
  0
ARC
  5
553
330
1F
100
AcDbEntity
  8
1-7_金物
  6
Continuous
 62
     7
370
     5
100
AcDbCircle
 10
4387.33881735976
 20
-2658.723992660482
 30
0.0
 40
60.0
100
AcDbArc
 50
270.0
 51
90.0
  0
ARC
  5
554
330
1F
100
AcDbEntity
  8
1-7_金物
  6
Continuous
 62
     7
370
     5
100
AcDbCircle
 10
4387.33881735976
 20
-2388.723992660482
 30
0.0
 40
60.0
100
AcDbArc
 50
270.0
 51
90.0
  0
ARC
  5
555
330
1F
100
AcDbEntity
  8
1-7_金物
  6
Continuous
 62
     7
370
     5
100
AcDbCircle
 10
4387.33881735976
 20
-2388.723992660482
 30
0.0
 40
30.0
100
AcDbArc
 50
270.0
 51
90.0
  0
ARC
  5
556
330
1F
100
AcDbEntity
  8
1-7_金物
  6
Continuous
 62
     7
370
     5
100
AcDbCircle
 10
4387.33881735976
 20
-2658.723992660482
 30
0.0
 40
30.0
100
AcDbArc
 50
270.0
 51
90.0
  0
ARC
  5
557
330
1F
100
AcDbEntity
  8
1-7_金物
  6
Continuous
 62
     7
370
     5
100
AcDbCircle
 10
4342.33881735976
 20
-2388.723992660482
 30
0.0
 40
60.0
100
AcDbArc
 50
90.0
 51
270.0
  0
ARC
  5
558
330
1F
100
AcDbEntity
  8
1-7_金物
  6
Continuous
 62
     7
370
     5
100
AcDbCircle
 10
4342.33881735976
 20
-2388.723992660482
 30
0.0
 40
30.0
100
AcDbArc
 50
90.0
 51
270.0
  0
ARC
  5
559
330
1F
100
AcDbEntity
  8
1-7_金物
  6
Continuous
 62
     7
370
     5
100
AcDbCircle
 10
4342.33881735976
 20
-2658.723992660482
 30
0.0
 40
60.0
100
AcDbArc
 50
90.0
 51
270.0
  0
ARC
  5
55A
330
1F
100
AcDbEntity
  8
1-7_金物
  6
Continuous
 62
     7
370
     5
100
AcDbCircle
 10
4342.33881735976
 20
-2658.723992660482
 30
0.0
 40
30.0
100
AcDbArc
 50
90.0
 51
270.0
  0
LINE
  5
55B
330
1F
100
AcDbEntity
  8
1-7_金物
  6
Continuous
 62
     7
370
     5
100
AcDbLine
 10
4342.33881735976
 20
-2418.723992660482
 30
0.0
 11
4387.33881735976
 21
-2418.723992660482
 31
0.0
  0
LINE
  5
55C
330
1F
100
AcDbEntity
  8
1-7_金物
  6
Continuous
 62
     7
370
     5
100
AcDbLine
 10
4387.33881735976
 20
-2358.723992660482
 30
0.0
 11
4342.33881735976
 21
-2358.723992660482
 31
0.0
  0
LINE
  5
55D
330
1F
100
AcDbEntity
  8
1-7_金物
  6
Continuous
 62
     7
370
     5
100
AcDbLine
 10
4387.33881735976
 20
-2328.723992660482
 30
0.0
 11
4342.33881735976
 21
-2328.723992660482
 31
0.0
  0
LINE
  5
55E
330
1F
100
AcDbEntity
  8
1-7_金物
  6
Continuous
 62
     7
370
     5
100
AcDbLine
 10
4387.33881735976
 20
-2448.723992660482
 30
0.0
 11
4342.33881735976
 21
-2448.723992660482
 31
0.0
  0
LINE
  5
55F
330
1F
100
AcDbEntity
  8
1-7_金物
  6
Continuous
 62
     7
370
     5
100
AcDbLine
 10
4342.33881735976
 20
-2718.723992660482
 30
0.0
 11
4387.33881735976
 21
-2718.723992660482
 31
0.0
  0
LINE
  5
560
330
1F
100
AcDbEntity
  8
1-7_金物
  6
Continuous
 62
     7
370
     5
100
AcDbLine
 10
4342.33881735976
 20
-2688.723992660482
 30
0.0
 11
4387.33881735976
 21
-2688.723992660482
 31
0.0
  0
LINE
  5
561
330
1F
100
AcDbEntity
  8
1-7_金物
  6
Continuous
 62
     7
370
     5
100
AcDbLine
 10
4387.33881735976
 20
-2628.723992660482
 30
0.0
 11
4342.33881735976
 21
-2628.723992660482
 31
0.0
  0
LINE
  5
562
330
1F
100
AcDbEntity
  8
1-7_金物
  6
Continuous
 62
     7
370
     5
100
AcDbLine
 10
4342.33881735976
 20
-2598.723992660482
 30
0.0
 11
4387.33881735976
 21
-2598.723992660482
 31
0.0
  0
LWPOLYLINE
  5
563
330
1F
100
AcDbEntity
  8
1-B_寸法
  6
Continuous
 62
     7
370
     5
100
AcDbPolyline
 90
        4
 70
     1
 43
3.0
 10
4056.541620067095
 20
-2298.723992660482
 42
0.4142135623731
 10
4055.041620067095
 20
-2297.223992660482
 42
0.4142135623731
 10
4053.541620067094
 20
-2298.723992660482
 42
0.4142135623731
 10
4055.041620067095
 20
-2300.223992660482
 42
0.4142135623731
  0
LINE
  5
564
330
1F
100
AcDbEntity
  8
1-B_寸法
  6
Continuous
 62
   120
370
     5
100
AcDbLine
 10
4055.041620067095
 20
-2298.723992660482
 30
0.0
 11
4152.114501443239
 21
-2298.723992660482
 31
0.0
  0
LINE
  5
565
330
1F
100
AcDbEntity
  8
1-B_寸法
  6
Continuous
 62
   120
370
     5
100
AcDbLine
 10
4055.041620067095
 20
-2748.723992660482
 30
0.0
 11
4055.041620067095
 21
-2298.723992660482
 31
0.0
  0
LWPOLYLINE
  5
566
330
1F
100
AcDbEntity
  8
1-B_寸法
  6
Continuous
 62
     7
370
     5
100
AcDbPolyline
 90
        4
 70
     1
 43
3.0
 10
4478.83881735976
 20
-2001.076751130468
 42
0.4142135623731
 10
4477.33881735976
 20
-1999.576751130468
 42
0.4142135623731
 10
4475.83881735976
 20
-2001.076751130468
 42
0.4142135623731
 10
4477.33881735976
 20
-2002.576751130468
 42
0.4142135623731
  0
LINE
  5
567
330
1F
100
AcDbEntity
  8
1-B_寸法
  6
Continuous
 62
   120
370
     5
100
AcDbLine
 10
4477.33881735976
 20
-2001.076751130468
 30
0.0
 11
4477.33881735976
 21
-2103.723992660482
 31
0.0
  0
LINE
  5
568
330
1F
100
AcDbEntity
  8
1-B_寸法
  6
Continuous
 62
   120
370
     5
100
AcDbLine
 10
4207.33881735976
 20
-2001.076751130468
 30
0.0
 11
4477.33881735976
 21
-2001.076751130468
 31
0.0
  0
LWPOLYLINE
  5
569
330
1F
100
AcDbEntity
  8
1-B_寸法
  6
Continuous
 62
     7
370
     5
100
AcDbPolyline
 90
        4
 70
     1
 43
3.0
 10
4208.83881735976
 20
-2001.076751130468
 42
0.4142135623731
 10
4207.33881735976
 20
-1999.576751130468
 42
0.4142135623731
 10
4205.83881735976
 20
-2001.076751130468
 42
0.4142135623731
 10
4207.33881735976
 20
-2002.576751130468
 42
0.4142135623731
  0
LINE
  5
56A
330
1F
100
AcDbEntity
  8
1-B_寸法
  6
Continuous
 62
   120
370
     5
100
AcDbLine
 10
4207.33881735976
 20
-2001.076751130468
 30
0.0
 11
4207.33881735976
 21
-2103.723992660482
 31
0.0
  0
LWPOLYLINE
  5
56B
330
1F
100
AcDbEntity
  8
1-B_寸法
  6
Continuous
 62
     7
370
     5
100
AcDbPolyline
 90
        4
 70
     1
 43
3.0
 10
4208.83881735976
 20
-2103.723992660482
 42
0.4142135623731
 10
4207.33881735976
 20
-2102.223992660482
 42
0.4142135623731
 10
4205.83881735976
 20
-2103.723992660482
 42
0.4142135623731
 10
4207.33881735976
 20
-2105.223992660482
 42
0.4142135623731
  0
LWPOLYLINE
  5
56C
330
1F
100
AcDbEntity
  8
1-B_寸法
  6
Continuous
 62
     7
370
     5
100
AcDbPolyline
 90
        4
 70
     1
 43
3.0
 10
4253.83881735976
 20
-2103.723992660482
 42
0.4142135623731
 10
4252.33881735976
 20
-2102.223992660482
 42
0.4142135623731
 10
4250.83881735976
 20
-2103.723992660482
 42
0.4142135623731
 10
4252.33881735976
 20
-2105.223992660482
 42
0.4142135623731
  0
LINE
  5
56D
330
1F
100
AcDbEntity
  8
1-B_寸法
  6
Continuous
 62
   120
370
     5
100
AcDbLine
 10
4207.33881735976
 20
-2103.723992660482
 30
0.0
 11
4207.33881735976
 21
-2223.723992660482
 31
0.0
  0
LINE
  5
56E
330
1F
100
AcDbEntity
  8
1-B_寸法
  6
Continuous
 62
   120
370
     5
100
AcDbLine
 10
4252.33881735976
 20
-2103.723992660482
 30
0.0
 11
4252.33881735976
 21
-2223.723992660482
 31
0.0
  0
LINE
  5
56F
330
1F
100
AcDbEntity
  8
1-B_寸法
  6
Continuous
 62
   120
370
     5
100
AcDbLine
 10
4252.33881735976
 20
-2103.723992660482
 30
0.0
 11
4477.33881735976
 21
-2103.723992660482
 31
0.0
  0
LWPOLYLINE
  5
570
330
1F
100
AcDbEntity
  8
1-B_寸法
  6
Continuous
 62
     7
370
     5
100
AcDbPolyline
 90
        4
 70
     1
 43
3.0
 10
4478.83881735976
 20
-2103.723992660482
 42
0.4142135623731
 10
4477.33881735976
 20
-2102.223992660482
 42
0.4142135623731
 10
4475.83881735976
 20
-2103.723992660482
 42
0.4142135623731
 10
4477.33881735976
 20
-2105.223992660482
 42
0.4142135623731
  0
LINE
  5
571
330
1F
100
AcDbEntity
  8
1-B_寸法
  6
Continuous
 62
   120
370
     5
100
AcDbLine
 10
4477.33881735976
 20
-2103.723992660482
 30
0.0
 11
4477.33881735976
 21
-2223.723992660482
 31
0.0
  0
LINE
  5
572
330
1F
100
AcDbEntity
  8
1-B_寸法
  6
Continuous
 62
   120
370
     5
100
AcDbLine
 10
4137.948881674177
 20
-2103.723992660482
 30
0.0
 11
4252.33881735976
 21
-2103.723992660482
 31
0.0
  0
LINE
  5
573
330
1F
100
AcDbEntity
  8
1-4_枠
  6
JWW_CENTER1
 62
   120
370
     5
100
AcDbLine
 10
4364.83881735976
 20
-2298.723992660482
 30
0.0
 11
4364.83881735976
 21
-2748.723992660482
 31
0.0
  0
LINE
  5
574
330
1F
100
AcDbEntity
  8
0-A_文字
  6
Continuous
 62
    92
370
     5
100
AcDbLine
 10
5700.727976140305
 20
-3258.848919265033
 30
0.0
 11
5700.727976140305
 21
515.9512330888001
 31
0.0
  0
LINE
  5
575
330
1F
100
AcDbEntity
  8
0-A_文字
  6
Continuous
 62
    92
370
     5
100
AcDbLine
 10
3464.45509760453
 20
-3258.848919265033
 30
0.0
 11
3464.45509760453
 21
515.9512330888001
 31
0.0
  0
LINE
  5
576
330
1F
100
AcDbEntity
  8
0-6_扉
  6
Continuous
 62
    40
370
     5
100
AcDbLine
 10
4700.17740466104
 20
-994.087921246056
 30
0.0
 11
4599.414688341959
 21
-935.9125398549555
 31
0.0
  0
LINE
  5
577
330
1F
100
AcDbEntity
  8
1-4_枠
  6
JWW_CENTER1
 62
   120
370
     5
100
AcDbLine
 10
5347.33881735976
 20
-2523.723992660482
 30
0.0
 11
5092.877654009425
 21
-2523.723992660482
 31
0.0
  0
LINE
  5
578
330
1F
100
AcDbEntity
  8
1-4_枠
  6
JWW_CENTER1
 62
   120
370
     5
100
AcDbLine
 10
4789.550598139997
 20
-2523.723992660482
 30
0.0
 11
4152.114501443239
 21
-2523.723992660482
 31
0.0
  0
LINE
  5
579
330
1F
100
AcDbEntity
  8
0-A_文字
  6
Continuous
 62
    92
370
     5
100
AcDbLine
 10
3464.45509760453
 20
515.9512330888001
 30
0.0
 11
5700.727976140305
 21
515.9512330888001
 31
0.0
  0
LINE
  5
57A
330
1F
100
AcDbEntity
  8
0-A_文字
  6
Continuous
 62
    92
370
     5
100
AcDbLine
 10
3464.45509760453
 20
-3258.848919265033
 30
0.0
 11
5700.727976140305
 21
-3258.848919265033
 31
0.0
  0
LINE
  5
57B
330
1F
100
AcDbEntity
  8
0-A_文字
  6
Continuous
 62
    92
370
     5
100
AcDbLine
 10
3464.45509760453
 20
335.9512330888001
 30
0.0
 11
5700.727976140305
 21
335.9512330888001
 31
0.0
  0
MTEXT
  5
57C
330
1F
100
AcDbEntity
  8
0-A_文字
  6
Continuous
 62
     7
370
     5
100
AcDbMText
 10
3682.591536872418
 20
351.6712330888
 30
0.0
 40
91.43999999999994
 41
1800.0
 46
0.0
 71
     7
 72
     1
  1
{\fＭＳ ゴシック|b0|i0|c128|p49;振れ止め金具(床付け用)取り付け}
 73
     1
 44
1.0
  0
MTEXT
  5
57D
330
1F
100
AcDbEntity
  8
0-A_文字
  6
Continuous
 62
     7
370
     5
100
AcDbMText
 10
3577.908484026487
 20
148.4863509800365
 30
0.0
 40
68.58000000000003
 41
1080.0
 46
0.0
 71
     7
 72
     1
  1
{\fＭＳ ゴシック|b0|i0|c128|p49;振れ止め金具(床付け用)を}
 73
     1
 44
1.0
  0
MTEXT
  5
57E
330
1F
100
AcDbEntity
  8
0-A_文字
  6
Continuous
 62
     7
370
     5
100
AcDbMText
 10
3577.908484026488
 20
43.26951927848395
 30
0.0
 40
68.57999999999998
 41
1260.0
 46
0.0
 71
     7
 72
     1
  1
{\fＭＳ ゴシック|b0|i0|c128|p49;下記のように床へ取り付けます}
 73
     1
 44
1.0
  0
MTEXT
  5
57F
330
1F
100
AcDbEntity
  8
0-A_文字
  6
Continuous
 62
     7
370
     5
100
AcDbMText
 10
4106.562193657195
 20
-349.0141038692249
 30
0.0
 40
68.58
 41
180.0
 46
0.0
 71
     7
 72
     1
  1
{\fＭＳ ゴシック|b0|i0|c128|p49;小壁}
 73
     1
 44
1.0
  0
MTEXT
  5
580
330
1F
100
AcDbEntity
  8
0-A_文字
  6
Continuous
 62
     7
370
     5
100
AcDbMText
 10
4947.015066501782
 20
-537.6996279956812
 30
0.0
 40
68.57999999999998
 41
270.0
 46
0.0
 71
     7
 72
     1
  1
{\fＭＳ ゴシック|b0|i0|c128|p49;中方立}
 73
     1
 44
1.0
  0
MTEXT
  5
581
330
1F
100
AcDbEntity
  8
0-A_文字
  6
Continuous
 62
     7
370
     5
100
AcDbMText
 10
3652.290596839798
 20
-1895.893410888214
 30
0.0
 40
68.58000000000011
 41
270.0000000000005
 46
0.0
 71
     7
 72
     1
  1
{\fＭＳ ゴシック|b0|i0|c128|p49;平面図}
 73
     1
 44
1.0
  0
MTEXT
  5
582
330
1F
100
AcDbEntity
  8
0-A_文字
  6
Continuous
 62
     7
370
     5
100
AcDbMText
 10
4994.83881735976
 20
-1940.482951290177
 30
0.0
 40
68.58
 41
180.0
 46
0.0
 71
     7
 72
     1
  1
{\fＭＳ ゴシック|b0|i0|c128|p49;小壁}
 73
     1
 44
1.0
  0
MTEXT
  5
583
330
1F
100
AcDbEntity
  8
0-A_文字
  6
Continuous
 62
     7
370
     5
100
AcDbMText
 10
4814.83881735976
 20
-2579.433992660482
 30
0.0
 40
68.57999999999998
 41
270.0
 46
0.0
 71
     7
 72
     1
  1
{\fＭＳ ゴシック|b0|i0|c128|p49;中方立}
 73
     1
 44
1.0
  0
MTEXT
  5
584
330
1F
100
AcDbEntity
  8
0-B_寸法
  6
Continuous
 62
     7
370
     5
100
AcDbMText
 10
3846.244349180011
 20
-685.763688421184
 30
0.0
 40
68.57999999999987
 41
449.9999999999991
 46
0.0
 71
     7
 72
     1
  1
{\fＭＳ ゴシック|b0|i0|c128|p49;ビス(同梱)}
 73
     1
 44
1.0
  0
MTEXT
  5
585
330
1F
100
AcDbEntity
  8
0-B_寸法
  6
Continuous
 62
     7
370
   211
100
AcDbMText
 10
5034.488013007626
 20
-1379.27997426356
 30
0.0
 40
91.44
 41
60.0
 46
0.0
 71
     7
 72
     1
  1
{\fＭＳ ゴシック|b0|i0|c128|p49;5}
 73
     1
 44
1.0
  0
MTEXT
  5
586
330
1F
100
AcDbEntity
  8
0-B_寸法
  6
Continuous
 62
     7
370
   211
100
AcDbMText
 10
3938.023638755835
 20
-1536.557965671975
 30
0.0
 40
91.44
 41
720.0
 46
0.0
 71
     7
 72
     1
  1
{\fＭＳ ゴシック|b0|i0|c128|p49;15(中方立芯)}
 73
     1
 44
1.0
  0
MTEXT
  5
587
330
1F
100
AcDbEntity
  8
0-B_寸法
  6
Continuous
 62
     7
370
     5
100
AcDbMText
 10
4902.427885542344
 20
-1629.864217424112
 30
0.0
 40
68.58000000000001
 41
765.0
 46
0.0
 71
     7
 72
     1
  1
{\fＭＳ ゴシック|b0|i0|c128|p49;※図は左引き(L)の}
 73
     1
 44
1.0
  0
MTEXT
  5
588
330
1F
100
AcDbEntity
  8
0-B_寸法
  6
Continuous
 62
     7
370
     5
100
AcDbMText
 10
4902.427885542344
 20
-1741.350487779319
 30
0.0
 40
68.58
 41
540.0
 46
0.0
 71
     7
 72
     1
  1
{\fＭＳ ゴシック|b0|i0|c128|p49;　場合です。}
 73
     1
 44
1.0
  0
MTEXT
  5
589
330
1F
100
AcDbEntity
  8
1-A_文字
  6
Continuous
 62
     7
370
     5
100
AcDbMText
 10
4528.551377051694
 20
-2215.808008604608
 30
0.0
 40
68.58
 41
810.0
 46
0.0
 71
     7
 72
     1
  1
{\fＭＳ ゴシック|b0|i0|c128|p49;振れ止め金具(床用)}
 73
     1
 44
1.0
  0
MTEXT
  5
58A
330
1F
100
AcDbEntity
  8
1-B_寸法
  6
Continuous
 62
     7
370
   211
100
AcDbMText
 10
4282.33881735976
 20
-2000.356751130468
 30
0.0
 40
91.44
 41
120.0
 46
0.0
 71
     7
 72
     1
  1
{\fＭＳ ゴシック|b0|i0|c128|p49;18}
 73
     1
 44
1.0
  0
MTEXT
  5
58B
330
1F
100
AcDbEntity
  8
1-B_寸法
  6
Continuous
 62
     7
370
   211
100
AcDbMText
 10
4137.948881674177
 20
-2253.003992660482
 30
0.0
 40
91.44
 41
60.0
 46
0.0
 71
     7
 72
     1
  1
{\fＭＳ ゴシック|b0|i0|c128|p49;3}
 73
     1
 44
1.0
  0
MTEXT
  5
58C
330
1F
100
AcDbEntity
  8
1-B_寸法
  6
Continuous
 62
     7
370
   211
100
AcDbMText
 10
4316.08881735976
 20
-2253.003992660482
 30
0.0
 40
91.44
 41
120.0
 46
0.0
 71
     7
 72
     1
  1
{\fＭＳ ゴシック|b0|i0|c128|p49;15}
 73
     1
 44
1.0
  0
MTEXT
  5
58D
330
1F
100
AcDbEntity
  8
1-B_寸法
  6
Continuous
 62
     7
370
   211
100
AcDbMText
 10
4040.041620067095
 20
-2598.003992660482
 30
0.0
 40
91.44
 41
120.0
 46
0.0
 71
     7
 72
     1
  1
{\fＭＳ ゴシック|b0|i0|c128|p49;30}
 11
6.123031769111886E-17
 21
1.0
 31
0.0
 73
     1
 44
1.0
  0
MTEXT
  5
58E
330
1F
100
AcDbEntity
  8
1-B_寸法
  6
Continuous
 62
     7
370
   211
100
AcDbMText
 10
4339.529920189773
 20
-2949.769568552515
 30
0.0
 40
91.44
 41
60.0
 46
0.0
 71
     7
 72
     1
  1
{\fＭＳ ゴシック|b0|i0|c128|p49;5}
 73
     1
 44
1.0
  0
LINE
  5
58F
330
1F
100
AcDbEntity
  8
1-4_枠
  6
Continuous
 62
    92
370
     5
100
AcDbLine
 10
4552.33881735976
 20
-2613.723992660468
 30
0.0
 11
4552.33881735976
 21
-2748.723992660482
 31
0.0
  0
LINE
  5
590
330
1F
100
AcDbEntity
  8
1-4_枠
  6
Continuous
 62
    92
370
     5
100
AcDbLine
 10
4552.33881735976
 20
-2433.723992660461
 30
0.0
 11
4552.33881735976
 21
-2298.723992660471
 31
0.0
  0
LINE
  5
591
330
1F
100
AcDbEntity
  8
1-4_枠
  6
Continuous
 62
    92
370
     5
100
AcDbLine
 10
4589.83881735976
 20
-2613.723992660468
 30
0.0
 11
4552.33881735976
 21
-2613.723992660468
 31
0.0
  0
LINE
  5
592
330
1F
100
AcDbEntity
  8
1-4_枠
  6
Continuous
 62
    92
370
     5
100
AcDbLine
 10
4589.83881735976
 20
-2613.723992660468
 30
0.0
 11
4589.83881735976
 21
-2433.723992660461
 31
0.0
  0
LINE
  5
593
330
1F
100
AcDbEntity
  8
1-4_枠
  6
Continuous
 62
    92
370
     5
100
AcDbLine
 10
4589.83881735976
 20
-2433.723992660461
 30
0.0
 11
4552.33881735976
 21
-2433.723992660461
 31
0.0
  0
LINE
  5
594
330
1F
100
AcDbEntity
  8
1-3_仕上げ
  6
Continuous
 62
    40
370
     5
100
AcDbLine
 10
4664.840363472027
 20
-2298.723992660471
 30
0.0
 11
4664.840363472027
 21
-1795.025842156161
 31
0.0
  0
LINE
  5
595
330
1F
100
AcDbEntity
  8
1-4_枠
  6
Continuous
 62
    92
370
     5
100
AcDbLine
 10
5347.33881735976
 20
-2298.723992660471
 30
0.0
 11
4552.33881735976
 21
-2298.723992660471
 31
0.0
  0
LINE
  5
596
330
1F
100
AcDbEntity
  8
1-4_枠
  6
Continuous
 62
    92
370
     5
100
AcDbLine
 10
5347.33881735976
 20
-2748.723992660482
 30
0.0
 11
4552.33881735976
 21
-2748.723992660482
 31
0.0
  0
LINE
  5
597
330
1F
100
AcDbEntity
  8
1-B_寸法
  6
Continuous
 62
   120
370
     5
100
AcDbLine
 10
-496.696189650278
 20
-2714.761158966327
 30
0.0
 11
-496.696189650278
 21
-2669.707175428547
 31
0.0
  0
LINE
  5
598
330
1F
100
AcDbEntity
  8
1-B_寸法
  6
Continuous
 62
   120
370
     5
100
AcDbLine
 10
-1374.847874088745
 20
-2894.707175428547
 30
0.0
 11
-556.6961896502773
 21
-2894.707175428547
 31
0.0
  0
LWPOLYLINE
  5
599
330
1F
100
AcDbEntity
  8
1-B_寸法
  6
Continuous
 62
     7
370
     5
100
AcDbPolyline
 90
        4
 70
     1
 43
3.0
 10
-555.1961896502773
 20
-2894.707175428547
 42
0.4142135623731
 10
-556.6961896502773
 20
-2893.207175428547
 42
0.4142135623731
 10
-558.1961896502773
 20
-2894.707175428547
 42
0.4142135623731
 10
-556.6961896502773
 20
-2896.207175428547
 42
0.4142135623731
  0
LINE
  5
59A
330
1F
100
AcDbEntity
  8
1-B_寸法
  6
Continuous
 62
   120
370
     5
100
AcDbLine
 10
-556.6961896502773
 20
-2894.707175428547
 30
0.0
 11
-556.6961896502773
 21
-2669.707175428547
 31
0.0
  0
MTEXT
  5
59B
330
1F
100
AcDbEntity
  8
1-B_寸法
  6
Continuous
 62
     7
370
   211
100
AcDbMText
 10
-1097.022031869511
 20
-2889.700925428547
 30
0.0
 40
100.0125
 41
262.5
 46
0.0
 71
     7
 72
     1
  1
{\fＭＳ ゴシック|b0|i0|c128|p49;54.5}
 73
     1
 44
1.0
  0
MTEXT
  5
59C
330
1F
100
AcDbEntity
  8
0-B_寸法
  6
Continuous
 62
     7
370
   211
100
AcDbMText
 10
-3960.544902395466
 20
-2294.433361722746
 30
0.0
 40
101.8309090909091
 41
735.0
 46
0.0
 71
     7
 72
     1
  1
{\fＭＳ ゴシック|b0|i0|c128|p49;ＤＨ＝1,964}
 11
6.123031769111886E-17
 21
1.0
 31
0.0
 73
     1
 44
1.0
  0
MTEXT
  5
59D
330
1F
100
AcDbEntity
  8
0-B_寸法
  6
Continuous
 62
     7
370
   211
100
AcDbMText
 10
-3735.544902395466
 20
-2294.433361722746
 30
0.0
 40
101.8309090909091
 41
735.0
 46
0.0
 71
     7
 72
     1
  1
{\fＭＳ ゴシック|b0|i0|c128|p49;枠内＝2,005}
 11
6.123031769111886E-17
 21
1.0
 31
0.0
 73
     1
 44
1.0
  0
MTEXT
  5
59E
330
1F
100
AcDbEntity
  8
0-B_寸法
  6
Continuous
 62
     7
370
   211
100
AcDbMText
 10
-3525.544902395466
 20
-2294.433361722746
 30
0.0
 40
101.8309090909091
 41
735.0
 46
0.0
 71
     7
 72
     1
  1
{\fＭＳ ゴシック|b0|i0|c128|p49;枠外＝2,035}
 11
6.123031769111886E-17
 21
1.0
 31
0.0
 73
     1
 44
1.0
  0
LINE
  5
59F
330
1F
100
AcDbEntity
  8
0-1_通り芯
  6
JWW_CENTER1
 62
   120
370
     5
100
AcDbLine
 10
-5680.890890453673
 20
-554.6737097145568
 30
0.0
 11
-3411.544902395466
 21
-554.6737097145568
 31
0.0
  0
MTEXT
  5
5A0
330
1F
100
AcDbEntity
  8
0-B_寸法
  6
Continuous
 62
     7
370
   211
100
AcDbMText
 10
-380.0815685046067
 20
1472.762168806181
 30
0.0
 40
101.6
 41
600.0
 46
0.0
 71
     7
 72
     1
  1
{\fＭＳ ゴシック|b0|i0|c128|p49;引残＝125}
 73
     1
 44
1.0
  0
MTEXT
  5
5A1
330
1F
100
AcDbEntity
  8
0-B_寸法
  6
Continuous
 62
     7
370
     0
100
AcDbMText
 10
-1473.686266479557
 20
2526.682168973789
 30
0.0
 40
91.43999999999997
 41
660.0
 46
0.0
 71
     7
 72
     1
  1
{\fＭＳ ゴシック|b0|i0|c128|p49;ＤＷ＝1,158}
 73
     1
 44
1.0
  0
MTEXT
  5
5A2
330
1F
100
AcDbEntity
  8
0-B_寸法
  6
Continuous
 62
     7
370
   211
100
AcDbMText
 10
-1988.186266479554
 20
1473.096379332497
 30
0.0
 40
102.2684210526316
 41
1275.0
 46
0.0
 71
     7
 72
     1
  1
{\fＭＳ ゴシック|b0|i0|c128|p49;有効開口寸法＝1,000}
 73
     1
 44
1.0
  0
MTEXT
  5
5A3
330
1F
100
AcDbEntity
  8
0-B_寸法
  6
Continuous
 62
     7
370
   211
100
AcDbMText
 10
1205.523352166184
 20
1472.254168806181
 30
0.0
 40
100.584
 41
330.0
 46
0.0
 71
     7
 72
     1
  1
{\fＭＳ ゴシック|b0|i0|c128|p49;1,000}
 73
     1
 44
1.0
  0
MTEXT
  5
5A4
330
1F
100
AcDbEntity
  8
0-B_寸法
  6
Continuous
 62
     7
370
   211
100
AcDbMText
 10
-217.2671013008991
 20
1262.877623351636
 30
0.0
 40
101.8309090909091
 41
735.0
 46
0.0
 71
     7
 72
     1
  1
{\fＭＳ ゴシック|b0|i0|c128|p49;枠内＝2,155}
 73
     1
 44
1.0
  0
MTEXT
  5
5A5
330
1F
100
AcDbEntity
  8
0-B_寸法
  6
Continuous
 62
     7
370
   211
100
AcDbMText
 10
-217.2671013008991
 20
1052.877623351636
 30
0.0
 40
101.8309090909091
 41
735.0
 46
0.0
 71
     7
 72
     1
  1
{\fＭＳ ゴシック|b0|i0|c128|p49;枠外＝2,215}
 73
     1
 44
1.0
  0
LINE
  5
5A6
330
1F
100
AcDbEntity
  8
0-A_文字
  6
Continuous
 62
    92
370
     5
100
AcDbLine
 10
-5659.999495325861
 20
4000.00018145587
 30
0.0
 11
-5659.999495325861
 21
3730.00018145587
 31
0.0
  0
LINE
  5
5A7
330
1F
100
AcDbEntity
  8
0-A_文字
  6
Continuous
 62
    92
370
     5
100
AcDbLine
 10
-5659.999495325861
 20
4000.00018145587
 30
0.0
 11
-1042.857142857142
 21
4000.00018145587
 31
0.0
  0
LINE
  5
5A8
330
1F
100
AcDbEntity
  8
0-A_文字
  6
Continuous
 62
    92
370
     5
100
AcDbLine
 10
-5659.999495325861
 20
3730.00018145587
 30
0.0
 11
-1042.857142857142
 21
3730.00018145587
 31
0.0
  0
LINE
  5
5A9
330
1F
100
AcDbEntity
  8
0-A_文字
  6
Continuous
 62
    92
370
     5
100
AcDbLine
 10
-1042.857142857142
 20
4000.00018145587
 30
0.0
 11
-1042.857142857142
 21
3730.00018145587
 31
0.0
  0
MTEXT
  5
5AA
330
1F
100
AcDbEntity
  8
0-A_文字
  6
Continuous
 62
    92
370
     5
100
AcDbMText
 10
-5566.24949532586
 20
3759.046703195001
 30
0.0
 40
148.0930434782608
 41
4469.999999999999
 46
0.0
 71
     7
 72
     1
  1
{\fＭＳ ゴシック|b0|i0|c128|p49;自閉式 幅広片引き戸　上吊りタイプ　固定枠155巾}
 73
     1
 44
1.0
  0
MTEXT
  5
5AB
330
1F
100
AcDbEntity
  8
F-A_文字
  6
Continuous
 62
     7
370
     0
100
AcDbMText
 10
-5080.08132364228
 20
-4045.06820530916
 30
0.0
 40
79.8634615384615
 41
4087.5
 46
0.0
 71
     7
 72
     1
  1
{\fＭＳ ゴシック|b0|i0|c128|p49;ドレタス　自閉式 幅広片引き戸　上吊りタイプ　固定155巾　枠外H2,035　枠外W2,215}
 73
     1
 44
1.0
  0
MTEXT
  5
5AC
330
1F
100
AcDbEntity
  8
F-A_文字
  6
Continuous
 62
     7
370
     5
100
AcDbMText
 10
5096.167700144058
 20
-4147.857012699985
 30
0.0
 40
74.295
 41
97.5
 46
0.0
 71
     7
 72
     1
  1
{\fＭＳ ゴシック|b0|i0|c128|p49;03}
 73
     1
 44
1.0
  0
MTEXT
  5
5AD
330
1F
100
AcDbEntity
  8
F-A_文字
  6
Continuous
 62
     7
370
     0
100
AcDbMText
 10
4938.667793092893
 20
-3938.071010139966
 30
0.0
 40
78.86699999999999
 41
517.5
 46
0.0
 71
     7
 72
     1
  1
{\fＭＳ ゴシック|b0|i0|c128|p49;2022.04.01}
 73
     1
 44
1.0
  0
LINE
  5
5AE
330
1F
100
AcDbEntity
  8
0-1_通り芯
  6
JWW_CENTER1
 62
   120
370
     5
100
AcDbLine
 10
-4791.544902395466
 20
-889.4737097145564
 30
0.0
 11
-4791.544902395466
 21
-3186.849125258687
 31
0.0
  0
LINE
  5
5AF
330
1F
100
AcDbEntity
  8
0-1_通り芯
  6
JWW_CENTER1
 62
   120
370
     5
100
AcDbLine
 10
-4905.544902395466
 20
-3350.279864388752
 30
0.0
 11
-4905.544902395466
 21
-166.7662566507759
 31
0.0
  0
LINE
  5
5B0
330
1F
100
AcDbEntity
  8
0-6_扉
  6
Continuous
 62
   200
370
     5
100
AcDbLine
 10
-4701.544902395466
 20
-929.6737097145566
 30
0.0
 11
-4701.544902395466
 21
-1857.848816268201
 31
0.0
  0
LINE
  5
5B1
330
1F
100
AcDbEntity
  8
0-B_寸法
  6
Continuous
 62
   120
370
     5
100
AcDbLine
 10
-4905.544902395466
 20
-1754.673709714557
 30
0.0
 11
-4791.544902395466
 21
-1754.673709714557
 31
0.0
  0
LWPOLYLINE
  5
5B2
330
1F
100
AcDbEntity
  8
0-B_寸法
  6
Continuous
 62
     7
370
     5
100
AcDbPolyline
 90
        4
 70
     1
 43
3.0
 10
-4904.044902395466
 20
-1754.673709714557
 42
0.4142135623731
 10
-4905.544902395466
 20
-1753.173709714557
 42
0.4142135623731
 10
-4907.044902395466
 20
-1754.673709714557
 42
0.4142135623731
 10
-4905.544902395466
 20
-1756.173709714557
 42
0.4142135623731
  0
LWPOLYLINE
  5
5B3
330
1F
100
AcDbEntity
  8
0-B_寸法
  6
Continuous
 62
     7
370
     5
100
AcDbPolyline
 90
        4
 70
     1
 43
3.0
 10
-4790.044902395465
 20
-1754.673709714557
 42
0.4142135623731
 10
-4791.544902395466
 20
-1753.173709714557
 42
0.4142135623731
 10
-4793.044902395466
 20
-1754.673709714557
 42
0.4142135623731
 10
-4791.544902395466
 20
-1756.173709714557
 42
0.4142135623731
  0
MTEXT
  5
5B4
330
1F
100
AcDbEntity
  8
0-B_寸法
  6
Continuous
 62
     7
370
   211
100
AcDbMText
 10
-4912.294902395466
 20
-1751.096209714557
 30
0.0
 40
97.15499999999999
 41
127.5
 46
0.0
 71
     7
 72
     1
  1
{\fＭＳ ゴシック|b0|i0|c128|p49;19}
 73
     1
 44
1.0
  0
LINE
  5
5B5
330
1F
100
AcDbEntity
  8
0-B_寸法
  6
JWW_CENTER1
 62
   120
370
     5
100
AcDbLine
 10
2332.128161489055
 20
2600.962168973791
 30
0.0
 11
-2312.291075802422
 21
2600.962168973791
 31
0.0
  0
LINE
  5
5B6
330
1F
100
AcDbEntity
  8
0-B_寸法
  6
Continuous
 62
   120
370
     5
100
AcDbLine
 10
-1576.124531445231
 20
2600.962168973791
 30
0.0
 11
-1576.124531445231
 21
2486.96216897379
 31
0.0
  0
LWPOLYLINE
  5
5B7
330
1F
100
AcDbEntity
  8
0-B_寸法
  6
Continuous
 62
     7
370
     5
100
AcDbPolyline
 90
        4
 70
     1
 43
3.0
 10
-1574.624531445231
 20
2600.962168973791
 42
0.4142135623731
 10
-1576.124531445231
 20
2602.46216897379
 42
0.4142135623731
 10
-1577.624531445231
 20
2600.962168973791
 42
0.4142135623731
 10
-1576.124531445231
 20
2599.462168973791
 42
0.4142135623731
  0
LWPOLYLINE
  5
5B8
330
1F
100
AcDbEntity
  8
0-B_寸法
  6
Continuous
 62
     7
370
     5
100
AcDbPolyline
 90
        4
 70
     1
 43
3.0
 10
-1574.624531445231
 20
2486.96216897379
 42
0.4142135623731
 10
-1576.124531445231
 20
2488.46216897379
 42
0.4142135623731
 10
-1577.624531445231
 20
2486.96216897379
 42
0.4142135623731
 10
-1576.124531445231
 20
2485.46216897379
 42
0.4142135623731
  0
MTEXT
  5
5B9
330
1F
100
AcDbEntity
  8
0-B_寸法
  6
Continuous
 62
     7
370
   211
100
AcDbMText
 10
-1591.124531445231
 20
2468.78966897379
 30
0.0
 40
97.15499999999999
 41
127.5
 46
0.0
 71
     7
 72
     1
  1
{\fＭＳ ゴシック|b0|i0|c128|p49;19}
 11
6.123031769111886E-17
 21
1.0
 31
0.0
 73
     1
 44
1.0
  0
ENDSEC
  0
SECTION
  2
OBJECTS
  0
DICTIONARY
  5
C
330
0
100
AcDbDictionary
281
     1
  3
ACAD_GROUP
350
D
  3
ACAD_LAYOUT
350
1A
  3
ACAD_MATERIAL
350
3B
  3
ACAD_MLEADERSTYLE
350
5BB
  3
ACAD_MLINESTYLE
350
17
  3
ACAD_PLOTSETTINGS
350
19
  3
ACAD_PLOTSTYLENAME
350
E
  3
ACAD_TABLESTYLE
350
5BA
  3
ACAD_VISUALSTYLE
350
2A
  0
DICTIONARY
  5
D
102
{ACAD_REACTORS
330
C
102
}
330
C
100
AcDbDictionary
281
     1
  0
DICTIONARY
  5
1A
102
{ACAD_REACTORS
330
C
102
}
330
C
100
AcDbDictionary
281
     1
  3
Layout1
350
1E
  3
Layout2
350
26
  3
Model
350
22
  0
DICTIONARY
  5
3B
102
{ACAD_REACTORS
330
C
102
}
330
C
100
AcDbDictionary
281
     1
  3
ByBlock
350
3D
  3
ByLayer
350
3C
  3
Global
350
3E
  0
DICTIONARY
  5
5BB
102
{ACAD_REACTORS
330
C
102
}
330
C
100
AcDbDictionary
281
     1
  0
DICTIONARY
  5
17
102
{ACAD_REACTORS
330
C
102
}
330
C
100
AcDbDictionary
281
     1
  3
Standard
350
18
  0
DICTIONARY
  5
19
102
{ACAD_REACTORS
330
C
102
}
330
C
100
AcDbDictionary
281
     1
  0
ACDBDICTIONARYWDFLT
  5
E
102
{ACAD_REACTORS
330
C
102
}
330
C
100
AcDbDictionary
281
     1
  3
Normal
350
F
100
AcDbDictionaryWithDefault
340
F
  0
DICTIONARY
  5
5BA
102
{ACAD_REACTORS
330
C
102
}
330
C
100
AcDbDictionary
281
     1
  0
DICTIONARY
  5
2A
102
{ACAD_REACTORS
330
C
102
}
330
C
100
AcDbDictionary
281
     1
  3
2dWireframe
350
2F
  3
3D Hidden
350
31
  3
3dWireframe
350
30
  3
Basic
350
32
  3
Brighten
350
36
  3
ColorChange
350
3A
  3
Conceptual
350
34
  3
Dim
350
35
  3
Facepattern
350
39
  3
Flat
350
2B
  3
FlatWithEdges
350
2C
  3
Gouraud
350
2D
  3
GouraudWithEdges
350
2E
  3
Linepattern
350
38
  3
Realistic
350
33
  3
Thicken
350
37
  0
LAYOUT
  5
1E
102
{ACAD_REACTORS
330
1A
102
}
330
1A
100
AcDbPlotSettings
  1

  2
none_device
  4

  6

 40
0.0
 41
0.0
 42
0.0
 43
0.0
 44
0.0
 45
0.0
 46
0.0
 47
0.0
 48
0.0
 49
0.0
140
0.0
141
0.0
142
1.0
143
1.0
 70
   688
 72
     0
 73
     0
 74
     5
  7

 75
    16
 76
     0
 77
     5
 78
   300
147
1.0
148
0.0
149
0.0
100
AcDbLayout
  1
Layout1
 70
     1
 71
     1
 10
0.0
 20
0.0
 11
420.0
 21
297.0
 12
0.0
 22
0.0
 32
0.0
 14
1.000000000000000E+20
 24
1.000000000000000E+20
 34
1.000000000000000E+20
 15
-1.000000000000000E+20
 25
-1.000000000000000E+20
 35
-1.000000000000000E+20
146
0.0
 13
0.0
 23
0.0
 33
0.0
 16
1.0
 26
0.0
 36
0.0
 17
0.0
 27
1.0
 37
0.0
 76
     0
330
1B
  0
LAYOUT
  5
26
102
{ACAD_REACTORS
330
1A
102
}
330
1A
100
AcDbPlotSettings
  1

  2
none_device
  4

  6

 40
0.0
 41
0.0
 42
0.0
 43
0.0
 44
0.0
 45
0.0
 46
0.0
 47
0.0
 48
0.0
 49
0.0
140
0.0
141
0.0
142
1.0
143
1.0
 70
   688
 72
     0
 73
     0
 74
     5
  7

 75
    16
 76
     0
 77
     5
 78
   300
147
1.0
148
0.0
149
0.0
100
AcDbLayout
  1
Layout2
 70
     1
 71
     2
 10
0.0
 20
0.0
 11
0.0
 21
0.0
 12
0.0
 22
0.0
 32
0.0
 14
0.0
 24
0.0
 34
0.0
 15
0.0
 25
0.0
 35
0.0
146
0.0
 13
0.0
 23
0.0
 33
0.0
 16
1.0
 26
0.0
 36
0.0
 17
0.0
 27
1.0
 37
0.0
 76
     0
330
23
  0
LAYOUT
  5
22
102
{ACAD_REACTORS
330
1A
102
}
330
1A
100
AcDbPlotSettings
  1

  2
none_device
  4

  6

 40
0.0
 41
0.0
 42
0.0
 43
0.0
 44
0.0
 45
0.0
 46
0.0
 47
0.0
 48
0.0
 49
0.0
140
0.0
141
0.0
142
1.0
143
1.0
 70
  1712
 72
     0
 73
     0
 74
     0
  7

 75
     0
 76
     0
 77
     5
 78
   300
147
1.0
148
0.0
149
0.0
100
AcDbLayout
  1
Model
 70
     1
 71
     0
 10
-8910.0
 20
-6300.0
 11
8910.0
 21
6300.0
 12
0.0
 22
0.0
 32
0.0
 14
-8910.0
 24
-6300.0
 34
0.0
 15
8910.0
 25
6300.0
 35
0.0
146
0.0
 13
0.0
 23
0.0
 33
0.0
 16
1.0
 26
0.0
 36
0.0
 17
0.0
 27
1.0
 37
0.0
 76
     0
330
1F
331
29
  0
MATERIAL
  5
3D
102
{ACAD_REACTORS
330
3B
102
}
330
3B
100
AcDbMaterial
  1
ByBlock
 72
     1
 94
      127
  0
MATERIAL
  5
3C
102
{ACAD_REACTORS
330
3B
102
}
330
3B
100
AcDbMaterial
  1
ByLayer
 72
     1
 94
      127
  0
MATERIAL
  5
3E
102
{ACAD_REACTORS
330
3B
102
}
330
3B
100
AcDbMaterial
  1
Global
 72
     1
 94
      127
  0
MLINESTYLE
  5
18
102
{ACAD_REACTORS
330
17
102
}
330
17
100
AcDbMlineStyle
  2
Standard
 70
     0
  3

 62
   256
 51
90.0
 52
90.0
 71
     2
 49
0.5
 62
   256
  6
BYLAYER
 49
-0.5
 62
   256
  6
BYLAYER
  0
ACDBPLACEHOLDER
  5
F
102
{ACAD_REACTORS
330
E
102
}
330
E
  0
VISUALSTYLE
  5
2F
102
{ACAD_REACTORS
330
2A
102
}
330
2A
100
AcDbVisualStyle
  2
2dWireframe
 70
     4
177
     2
291
     0
 71
     0
176
     1
 72
     2
176
     1
 73
     0
176
     1
 90
        0
176
     1
 40
-0.6
176
     1
 41
-30.0
176
     1
 62
     5
 63
     7
421
 16777215
176
     1
 74
     1
176
     1
 91
        4
176
     1
 64
     7
176
     1
 65
   257
176
     1
 75
     1
176
     1
175
     1
176
     1
 42
1.0
176
     1
 92
        0
176
     1
 66
   257
176
     1
 43
1.0
176
     1
 76
     1
176
     1
 77
     6
176
     1
 78
     2
176
     1
 67
     7
176
     1
 79
     5
176
     1
170
     0
176
     1
171
     0
176
     1
290
     0
176
     1
 93
        1
176
     1
 44
0.0
176
     1
173
     0
176
     1
  0
VISUALSTYLE
  5
31
102
{ACAD_REACTORS
330
2A
102
}
330
2A
100
AcDbVisualStyle
  2
3D Hidden
 70
     6
177
     2
291
     0
 71
     1
176
     1
 72
     2
176
     1
 73
     2
176
     1
 90
        0
176
     1
 40
-0.6
176
     1
 41
-30.0
176
     1
 62
     5
 63
     7
421
 16777215
176
     1
 74
     2
176
     1
 91
        2
176
     1
 64
     7
176
     1
 65
   257
176
     1
 75
     2
176
     1
175
     1
176
     1
 42
40.0
176
     1
 92
        0
176
     1
 66
   257
176
     1
 43
1.0
176
     1
 76
     1
176
     1
 77
     6
176
     1
 78
     2
176
     1
 67
     7
176
     1
 79
     3
176
     1
170
     0
176
     1
171
     0
176
     1
290
     0
176
     1
 93
        1
176
     1
 44
0.0
176
     1
173
     0
176
     1
  0
VISUALSTYLE
  5
30
102
{ACAD_REACTORS
330
2A
102
}
330
2A
100
AcDbVisualStyle
  2
3dWireframe
 70
     5
177
     2
291
     0
 71
     0
176
     1
 72
     2
176
     1
 73
     0
176
     1
 90
        0
176
     1
 40
-0.6
176
     1
 41
-30.0
176
     1
 62
     5
 63
     7
421
 16777215
176
     1
 74
     1
176
     1
 91
        4
176
     1
 64
     7
176
     1
 65
   257
176
     1
 75
     1
176
     1
175
     1
176
     1
 42
1.0
176
     1
 92
        0
176
     1
 66
   257
176
     1
 43
1.0
176
     1
 76
     1
176
     1
 77
     6
176
     1
 78
     2
176
     1
 67
     7
176
     1
 79
     5
176
     1
170
     0
176
     1
171
     0
176
     1
290
     0
176
     1
 93
        1
176
     1
 44
0.0
176
     1
173
     0
176
     1
  0
VISUALSTYLE
  5
32
102
{ACAD_REACTORS
330
2A
102
}
330
2A
100
AcDbVisualStyle
  2
Basic
 70
     7
177
     2
291
     1
 71
     1
176
     1
 72
     0
176
     1
 73
     1
176
     1
 90
        0
176
     1
 40
-0.6
176
     1
 41
-30.0
176
     1
 62
     5
 63
     7
421
 16777215
176
     1
 74
     0
176
     1
 91
        4
176
     1
 64
     7
176
     1
 65
   257
176
     1
 75
     1
176
     1
175
     1
176
     1
 42
1.0
176
     1
 92
        8
176
     1
 66
     7
176
     1
 43
1.0
176
     1
 76
     1
176
     1
 77
     6
176
     1
 78
     2
176
     1
 67
     7
176
     1
 79
     5
176
     1
170
     0
176
     1
171
     0
176
     1
290
     0
176
     1
 93
        1
176
     1
 44
0.0
176
     1
173
     0
176
     1
  0
VISUALSTYLE
  5
36
102
{ACAD_REACTORS
330
2A
102
}
330
2A
100
AcDbVisualStyle
  2
Brighten
 70
    12
177
     2
291
     1
 71
     2
176
     1
 72
     2
176
     1
 73
     0
176
     1
 90
        0
176
     1
 40
-0.6
176
     1
 41
-30.0
176
     1
 62
     5
 63
     7
421
 16777215
176
     1
 74
     1
176
     1
 91
        4
176
     1
 64
     7
176
     1
 65
   257
176
     1
 75
     1
176
     1
175
     1
176
     1
 42
1.0
176
     1
 92
        8
176
     1
 66
     7
176
     1
 43
1.0
176
     1
 76
     1
176
     1
 77
     6
176
     1
 78
     2
176
     1
 67
     7
176
     1
 79
     5
176
     1
170
     0
176
     1
171
     0
176
     1
290
     0
176
     1
 93
        1
176
     1
 44
50.0
176
     1
173
     0
176
     1
  0
VISUALSTYLE
  5
3A
102
{ACAD_REACTORS
330
2A
102
}
330
2A
100
AcDbVisualStyle
  2
ColorChange
 70
    16
177
     2
291
     1
 71
     2
176
     1
 72
     2
176
     1
 73
     3
176
     1
 90
        0
176
     1
 40
-0.6
176
     1
 41
-30.0
176
     1
 62
     5
 63
     8
421
  8421504
176
     1
 74
     1
176
     1
 91
        4
176
     1
 64
     7
176
     1
 65
   257
176
     1
 75
     1
176
     1
175
     1
176
     1
 42
1.0
176
     1
 92
        8
176
     1
 66
     8
424
  8421504
176
     1
 43
1.0
176
     1
 76
     1
176
     1
 77
     6
176
     1
 78
     2
176
     1
 67
     7
176
     1
 79
     5
176
     1
170
     0
176
     1
171
     0
176
     1
290
     0
176
     1
 93
        1
176
     1
 44
0.0
176
     1
173
     0
176
     1
  0
VISUALSTYLE
  5
34
102
{ACAD_REACTORS
330
2A
102
}
330
2A
100
AcDbVisualStyle
  2
Conceptual
 70
     9
177
     2
291
     0
 71
     3
176
     1
 72
     2
176
     1
 73
     0
176
     1
 90
        0
176
     1
 40
-0.6
176
     1
 41
-30.0
176
     1
 62
     5
 63
     7
421
 16777215
176
     1
 74
     2
176
     1
 91
        2
176
     1
 64
     7
176
     1
 65
   257
176
     1
 75
     1
176
     1
175
     1
176
     1
 42
40.0
176
     1
 92
        8
176
     1
 66
     7
176
     1
 43
1.0
176
     1
 76
     1
176
     1
 77
     6
176
     1
 78
     2
176
     1
 67
     7
176
     1
 79
     3
176
     1
170
     0
176
     1
171
     0
176
     1
290
     0
176
     1
 93
        1
176
     1
 44
0.0
176
     1
173
     0
176
     1
  0
VISUALSTYLE
  5
35
102
{ACAD_REACTORS
330
2A
102
}
330
2A
100
AcDbVisualStyle
  2
Dim
 70
    11
177
     2
291
     1
 71
     2
176
     1
 72
     2
176
     1
 73
     0
176
     1
 90
        0
176
     1
 40
-0.6
176
     1
 41
-30.0
176
     1
 62
     5
 63
     7
421
 16777215
176
     1
 74
     1
176
     1
 91
        4
176
     1
 64
     7
176
     1
 65
   257
176
     1
 75
     1
176
     1
175
     1
176
     1
 42
1.0
176
     1
 92
        8
176
     1
 66
     7
176
     1
 43
1.0
176
     1
 76
     1
176
     1
 77
     6
176
     1
 78
     2
176
     1
 67
     7
176
     1
 79
     5
176
     1
170
     0
176
     1
171
     0
176
     1
290
     0
176
     1
 93
        1
176
     1
 44
-50.0
176
     1
173
     0
176
     1
  0
VISUALSTYLE
  5
39
102
{ACAD_REACTORS
330
2A
102
}
330
2A
100
AcDbVisualStyle
  2
Facepattern
 70
    15
177
     2
291
     1
 71
     2
176
     1
 72
     2
176
     1
 73
     0
176
     1
 90
        0
176
     1
 40
-0.6
176
     1
 41
-30.0
176
     1
 62
     5
 63
     7
421
 16777215
176
     1
 74
     1
176
     1
 91
        4
176
     1
 64
     7
176
     1
 65
   257
176
     1
 75
     1
176
     1
175
     1
176
     1
 42
1.0
176
     1
 92
        8
176
     1
 66
     7
176
     1
 43
1.0
176
     1
 76
     1
176
     1
 77
     6
176
     1
 78
     2
176
     1
 67
     7
176
     1
 79
     5
176
     1
170
     0
176
     1
171
     0
176
     1
290
     0
176
     1
 93
        1
176
     1
 44
0.0
176
     1
173
     0
176
     1
  0
VISUALSTYLE
  5
2B
102
{ACAD_REACTORS
330
2A
102
}
330
2A
100
AcDbVisualStyle
  2
Flat
 70
     0
177
     2
291
     1
 71
     2
176
     1
 72
     1
176
     1
 73
     1
176
     1
 90
        2
176
     1
 40
-0.6
176
     1
 41
30.0
176
     1
 62
     5
 63
     7
421
 16777215
176
     1
 74
     0
176
     1
 91
        4
176
     1
 64
     7
176
     1
 65
   257
176
     1
 75
     1
176
     1
175
     1
176
     1
 42
1.0
176
     1
 92
        8
176
     1
 66
     7
176
     1
 43
1.0
176
     1
 76
     1
176
     1
 77
     6
176
     1
 78
     2
176
     1
 67
     7
176
     1
 79
     5
176
     1
170
     0
176
     1
171
     0
176
     1
290
     0
176
     1
 93
       13
176
     1
 44
0.0
176
     1
173
     0
176
     1
  0
VISUALSTYLE
  5
2C
102
{ACAD_REACTORS
330
2A
102
}
330
2A
100
AcDbVisualStyle
  2
FlatWithEdges
 70
     1
177
     2
291
     1
 71
     2
176
     1
 72
     1
176
     1
 73
     1
176
     1
 90
        2
176
     1
 40
-0.6
176
     1
 41
30.0
176
     1
 62
     5
 63
     7
421
 16777215
176
     1
 74
     1
176
     1
 91
        4
176
     1
 64
     7
176
     1
 65
   257
176
     1
 75
     1
176
     1
175
     1
176
     1
 42
1.0
176
     1
 92
        0
176
     1
 66
   257
176
     1
 43
1.0
176
     1
 76
     1
176
     1
 77
     6
176
     1
 78
     2
176
     1
 67
     7
176
     1
 79
     5
176
     1
170
     0
176
     1
171
     0
176
     1
290
     0
176
     1
 93
       13
176
     1
 44
0.0
176
     1
173
     0
176
     1
  0
VISUALSTYLE
  5
2D
102
{ACAD_REACTORS
330
2A
102
}
330
2A
100
AcDbVisualStyle
  2
Gouraud
 70
     2
177
     2
291
     1
 71
     2
176
     1
 72
     2
176
     1
 73
     1
176
     1
 90
        2
176
     1
 40
-0.6
176
     1
 41
30.0
176
     1
 62
     5
 63
     7
421
 16777215
176
     1
 74
     0
176
     1
 91
        4
176
     1
 64
     7
176
     1
 65
   257
176
     1
 75
     1
176
     1
175
     1
176
     1
 42
1.0
176
     1
 92
        0
176
     1
 66
     7
176
     1
 43
1.0
176
     1
 76
     1
176
     1
 77
     6
176
     1
 78
     2
176
     1
 67
     7
176
     1
 79
     5
176
     1
170
     0
176
     1
171
     0
176
     1
290
     0
176
     1
 93
       13
176
     1
 44
0.0
176
     1
173
     0
176
     1
  0
VISUALSTYLE
  5
2E
102
{ACAD_REACTORS
330
2A
102
}
330
2A
100
AcDbVisualStyle
  2
GouraudWithEdges
 70
     3
177
     2
291
     1
 71
     2
176
     1
 72
     2
176
     1
 73
     1
176
     1
 90
        2
176
     1
 40
-0.6
176
     1
 41
30.0
176
     1
 62
     5
 63
     7
421
 16777215
176
     1
 74
     1
176
     1
 91
        4
176
     1
 64
     7
176
     1
 65
   257
176
     1
 75
     1
176
     1
175
     1
176
     1
 42
1.0
176
     1
 92
        0
176
     1
 66
   257
176
     1
 43
1.0
176
     1
 76
     1
176
     1
 77
     6
176
     1
 78
     2
176
     1
 67
     7
176
     1
 79
     5
176
     1
170
     0
176
     1
171
     0
176
     1
290
     0
176
     1
 93
       13
176
     1
 44
0.0
176
     1
173
     0
176
     1
  0
VISUALSTYLE
  5
38
102
{ACAD_REACTORS
330
2A
102
}
330
2A
100
AcDbVisualStyle
  2
Linepattern
 70
    14
177
     2
291
     1
 71
     2
176
     1
 72
     2
176
     1
 73
     0
176
     1
 90
        0
176
     1
 40
-0.6
176
     1
 41
-30.0
176
     1
 62
     5
 63
     7
421
 16777215
176
     1
 74
     1
176
     1
 91
        4
176
     1
 64
     7
176
     1
 65
   257
176
     1
 75
     7
176
     1
175
     7
176
     1
 42
1.0
176
     1
 92
        8
176
     1
 66
     7
176
     1
 43
1.0
176
     1
 76
     1
176
     1
 77
     6
176
     1
 78
     2
176
     1
 67
     7
176
     1
 79
     5
176
     1
170
     0
176
     1
171
     0
176
     1
290
     0
176
     1
 93
        1
176
     1
 44
0.0
176
     1
173
     0
176
     1
  0
VISUALSTYLE
  5
33
102
{ACAD_REACTORS
330
2A
102
}
330
2A
100
AcDbVisualStyle
  2
Realistic
 70
     8
177
     2
291
     0
 71
     2
176
     1
 72
     2
176
     1
 73
     0
176
     1
 90
        0
176
     1
 40
-0.6
176
     1
 41
-30.0
176
     1
 62
     5
 63
     7
421
 16777215
176
     1
 74
     1
176
     1
 91
        0
176
     1
 64
     7
176
     1
 65
   257
176
     1
 75
     1
176
     1
175
     1
176
     1
 42
1.0
176
     1
 92
        8
176
     1
 66
     8
424
  7895160
176
     1
 43
1.0
176
     1
 76
     1
176
     1
 77
     6
176
     1
 78
     2
176
     1
 67
     7
176
     1
 79
     5
176
     1
170
     0
176
     1
171
     0
176
     1
290
     0
176
     1
 93
       13
176
     1
 44
0.0
176
     1
173
     0
176
     1
  0
VISUALSTYLE
  5
37
102
{ACAD_REACTORS
330
2A
102
}
330
2A
100
AcDbVisualStyle
  2
Thicken
 70
    13
177
     2
291
     1
 71
     2
176
     1
 72
     2
176
     1
 73
     0
176
     1
 90
        0
176
     1
 40
-0.6
176
     1
 41
-30.0
176
     1
 62
     5
 63
     7
421
 16777215
176
     1
 74
     1
176
     1
 91
        4
176
     1
 64
     7
176
     1
 65
   257
176
     1
 75
     1
176
     1
175
     1
176
     1
 42
1.0
176
     1
 92
       12
176
     1
 66
     7
176
     1
 43
1.0
176
     1
 76
     1
176
     1
 77
     6
176
     1
 78
     2
176
     1
 67
     7
176
     1
 79
     5
176
     1
170
     0
176
     1
171
     0
176
     1
290
     0
176
     1
 93
        1
176
     1
 44
0.0
176
     1
173
     0
176
     1
  0
ENDSEC
  0
EOF
