  0
SECTION
  2
HEADER
  9
$ACADVER
  1
AC1024
  9
$ACADMAINTVER
 70
     6
  9
$DWGCODEPAGE
  3
ANSI_932
  9
$INSBASE
 10
0.0
 20
0.0
 30
0.0
  9
$EXTMIN
 10
-6300.0
 20
-4455.0
 30
0.0
  9
$EXTMAX
 10
6300.0
 20
4455.0
 30
0.0
  9
$LIMMIN
 10
-6300.0
 20
-4455.0
  9
$LIMMAX
 10
6300.0
 20
4455.0
  9
$ORTHOMODE
 70
     0
  9
$REGENMODE
 70
     1
  9
$FILLMODE
 70
     1
  9
$QTEXTMODE
 70
     0
  9
$MIRRTEXT
 70
     1
  9
$LTSCALE
 40
30.0
  9
$ATTMODE
 70
     1
  9
$TEXTSIZE
 40
2.5
  9
$TRACEWID
 40
1.0
  9
$TEXTSTYLE
  7
Standard
  9
$CLAYER
  8
0
  9
$CELTYPE
  6
ByLayer
  9
$CECOLOR
 62
   256
  9
$CELTSCALE
 40
1.0
  9
$DISPSILH
 70
     0
  9
$DIMSCALE
 40
1.0
  9
$DIMASZ
 40
2.5
  9
$DIMEXO
 40
0.625
  9
$DIMDLI
 40
3.75
  9
$DIMRND
 40
0.0
  9
$DIMDLE
 40
0.0
  9
$DIMEXE
 40
1.25
  9
$DIMTP
 40
0.0
  9
$DIMTM
 40
0.0
  9
$DIMTXT
 40
2.5
  9
$DIMCEN
 40
2.5
  9
$DIMTSZ
 40
0.0
  9
$DIMTOL
 70
     0
  9
$DIMLIM
 70
     0
  9
$DIMTIH
 70
     0
  9
$DIMTOH
 70
     0
  9
$DIMSE1
 70
     0
  9
$DIMSE2
 70
     0
  9
$DIMTAD
 70
     1
  9
$DIMZIN
 70
     8
  9
$DIMBLK
  1

  9
$DIMASO
 70
     1
  9
$DIMSHO
 70
     1
  9
$DIMPOST
  1

  9
$DIMAPOST
  1

  9
$DIMALT
 70
     0
  9
$DIMALTD
 70
     3
  9
$DIMALTF
 40
0.03937007874016
  9
$DIMLFAC
 40
1.0
  9
$DIMTOFL
 70
     1
  9
$DIMTVP
 40
0.0
  9
$DIMTIX
 70
     0
  9
$DIMSOXD
 70
     0
  9
$DIMSAH
 70
     0
  9
$DIMBLK1
  1

  9
$DIMBLK2
  1

  9
$DIMSTYLE
  2
ISO-25
  9
$DIMCLRD
 70
     0
  9
$DIMCLRE
 70
     0
  9
$DIMCLRT
 70
     0
  9
$DIMTFAC
 40
1.0
  9
$DIMGAP
 40
0.625
  9
$DIMJUST
 70
     0
  9
$DIMSD1
 70
     0
  9
$DIMSD2
 70
     0
  9
$DIMTOLJ
 70
     0
  9
$DIMTZIN
 70
     8
  9
$DIMALTZ
 70
     0
  9
$DIMALTTZ
 70
     0
  9
$DIMUPT
 70
     0
  9
$DIMDEC
 70
     2
  9
$DIMTDEC
 70
     2
  9
$DIMALTU
 70
     2
  9
$DIMALTTD
 70
     3
  9
$DIMTXSTY
  7
Standard
  9
$DIMAUNIT
 70
     0
  9
$DIMADEC
 70
     0
  9
$DIMALTRND
 40
0.0
  9
$DIMAZIN
 70
     0
  9
$DIMDSEP
 70
    44
  9
$DIMATFIT
 70
     3
  9
$DIMFRAC
 70
     0
  9
$DIMLDRBLK
  1

  9
$DIMLUNIT
 70
     2
  9
$DIMLWD
 70
    -2
  9
$DIMLWE
 70
    -2
  9
$DIMTMOVE
 70
     0
  9
$DIMFXL
 40
1.0
  9
$DIMFXLON
 70
     0
  9
$DIMJOGANG
 40
0.7853981633974483
  9
$DIMTFILL
 70
     0
  9
$DIMTFILLCLR
 70
     0
  9
$DIMARCSYM
 70
     0
  9
$DIMLTYPE
  6

  9
$DIMLTEX1
  6

  9
$DIMLTEX2
  6

  9
$DIMTXTDIRECTION
 70
     0
  9
$LUNITS
 70
     2
  9
$LUPREC
 70
     4
  9
$SKETCHINC
 40
1.0
  9
$FILLETRAD
 40
10.0
  9
$AUNITS
 70
     0
  9
$AUPREC
 70
     0
  9
$MENU
  1
.
  9
$ELEVATION
 40
0.0
  9
$PELEVATION
 40
0.0
  9
$THICKNESS
 40
0.0
  9
$LIMCHECK
 70
     0
  9
$CHAMFERA
 40
10.0
  9
$CHAMFERB
 40
10.0
  9
$CHAMFERC
 40
20.0
  9
$CHAMFERD
 40
0.0
  9
$SKPOLY
 70
     0
  9
$TDCREATE
 40
2459432.544413785
  9
$TDUCREATE
 40
2459432.169413785
  9
$TDUPDATE
 40
2459432.544413796
  9
$TDUUPDATE
 40
2459432.169413796
  9
$TDINDWG
 40
0.0000000116
  9
$TDUSRTIMER
 40
0.0000000116
  9
$USRTIMER
 70
     1
  9
$ANGBASE
 50
0.0
  9
$ANGDIR
 70
     0
  9
$PDMODE
 70
     0
  9
$PDSIZE
 40
0.0
  9
$PLINEWID
 40
0.0
  9
$SPLFRAME
 70
     0
  9
$SPLINETYPE
 70
     6
  9
$SPLINESEGS
 70
     8
  9
$HANDSEED
  5
3E8
  9
$SURFTAB1
 70
     6
  9
$SURFTAB2
 70
     6
  9
$SURFTYPE
 70
     6
  9
$SURFU
 70
     6
  9
$SURFV
 70
     6
  9
$UCSBASE
  2

  9
$UCSNAME
  2

  9
$UCSORG
 10
0.0
 20
0.0
 30
0.0
  9
$UCSXDIR
 10
1.0
 20
0.0
 30
0.0
  9
$UCSYDIR
 10
0.0
 20
1.0
 30
0.0
  9
$UCSORTHOREF
  2

  9
$UCSORTHOVIEW
 70
     0
  9
$UCSORGTOP
 10
0.0
 20
0.0
 30
0.0
  9
$UCSORGBOTTOM
 10
0.0
 20
0.0
 30
0.0
  9
$UCSORGLEFT
 10
0.0
 20
0.0
 30
0.0
  9
$UCSORGRIGHT
 10
0.0
 20
0.0
 30
0.0
  9
$UCSORGFRONT
 10
0.0
 20
0.0
 30
0.0
  9
$UCSORGBACK
 10
0.0
 20
0.0
 30
0.0
  9
$PUCSBASE
  2

  9
$PUCSNAME
  2

  9
$PUCSORG
 10
0.0
 20
0.0
 30
0.0
  9
$PUCSXDIR
 10
1.0
 20
0.0
 30
0.0
  9
$PUCSYDIR
 10
0.0
 20
1.0
 30
0.0
  9
$PUCSORTHOREF
  2

  9
$PUCSORTHOVIEW
 70
     0
  9
$PUCSORGTOP
 10
0.0
 20
0.0
 30
0.0
  9
$PUCSORGBOTTOM
 10
0.0
 20
0.0
 30
0.0
  9
$PUCSORGLEFT
 10
0.0
 20
0.0
 30
0.0
  9
$PUCSORGRIGHT
 10
0.0
 20
0.0
 30
0.0
  9
$PUCSORGFRONT
 10
0.0
 20
0.0
 30
0.0
  9
$PUCSORGBACK
 10
0.0
 20
0.0
 30
0.0
  9
$USERI1
 70
     0
  9
$USERI2
 70
     0
  9
$USERI3
 70
     0
  9
$USERI4
 70
     0
  9
$USERI5
 70
     0
  9
$USERR1
 40
0.0
  9
$USERR2
 40
0.0
  9
$USERR3
 40
0.0
  9
$USERR4
 40
0.0
  9
$USERR5
 40
0.0
  9
$WORLDVIEW
 70
     1
  9
$SHADEDGE
 70
     3
  9
$SHADEDIF
 70
    70
  9
$TILEMODE
 70
     1
  9
$MAXACTVP
 70
    64
  9
$PINSBASE
 10
0.0
 20
0.0
 30
0.0
  9
$PLIMCHECK
 70
     0
  9
$PEXTMIN
 10
1.000000000000000E+20
 20
1.000000000000000E+20
 30
1.000000000000000E+20
  9
$PEXTMAX
 10
-1.000000000000000E+20
 20
-1.000000000000000E+20
 30
-1.000000000000000E+20
  9
$PLIMMIN
 10
0.0
 20
0.0
  9
$PLIMMAX
 10
420.0
 20
297.0
  9
$UNITMODE
 70
     0
  9
$VISRETAIN
 70
     1
  9
$PLINEGEN
 70
     0
  9
$PSLTSCALE
 70
     1
  9
$TREEDEPTH
 70
  3020
  9
$CMLSTYLE
  2
Standard
  9
$CMLJUST
 70
     0
  9
$CMLSCALE
 40
20.0
  9
$PROXYGRAPHICS
 70
     1
  9
$MEASUREMENT
 70
     1
  9
$CELWEIGHT
370
    -1
  9
$ENDCAPS
280
     0
  9
$JOINSTYLE
280
     0
  9
$LWDISPLAY
290
     0
  9
$INSUNITS
 70
     4
  9
$HYPERLINKBASE
  1

  9
$STYLESHEET
  1

  9
$XEDIT
290
     1
  9
$CEPSNTYPE
380
     0
  9
$PSTYLEMODE
290
     1
  9
$FINGERPRINTGUID
  2
{812FCA62-FDCF-4460-95A6-872D4C4738A3}
  9
$VERSIONGUID
  2
{FAEB1C32-E019-11D5-929B-00C0DF256EC4}
  9
$EXTNAMES
290
     1
  9
$PSVPSCALE
 40
0.0
  9
$OLESTARTUP
290
     0
  9
$SORTENTS
280
   127
  9
$INDEXCTL
280
     0
  9
$HIDETEXT
280
     1
  9
$XCLIPFRAME
280
     2
  9
$HALOGAP
280
     0
  9
$OBSCOLOR
 70
   257
  9
$OBSLTYPE
280
     0
  9
$INTERSECTIONDISPLAY
280
     0
  9
$INTERSECTIONCOLOR
 70
   257
  9
$DIMASSOC
280
     2
  9
$PROJECTNAME
  1

  9
$CAMERADISPLAY
290
     0
  9
$LENSLENGTH
 40
50.0
  9
$CAMERAHEIGHT
 40
0.0
  9
$STEPSPERSEC
 40
2.0
  9
$STEPSIZE
 40
6.0
  9
$3DDWFPREC
 40
2.0
  9
$PSOLWIDTH
 40
5.0
  9
$PSOLHEIGHT
 40
80.0
  9
$LOFTANG1
 40
1.570796326794897
  9
$LOFTANG2
 40
1.570796326794897
  9
$LOFTMAG1
 40
0.0
  9
$LOFTMAG2
 40
0.0
  9
$LOFTPARAM
 70
     7
  9
$LOFTNORMALS
280
     1
  9
$LATITUDE
 40
37.795
  9
$LONGITUDE
 40
-122.394
  9
$NORTHDIRECTION
 40
0.0
  9
$TIMEZONE
 70
 -8000
  9
$LIGHTGLYPHDISPLAY
280
     1
  9
$TILEMODELIGHTSYNCH
280
     1
  9
$SOLIDHIST
280
     1
  9
$SHOWHIST
280
     1
  9
$DWFFRAME
280
     2
  9
$DGNFRAME
280
     2
  9
$REALWORLDSCALE
290
     1
  9
$INTERFERECOLOR
 62
   256
  9
$CSHADOW
280
     0
  9
$SHADOWPLANELOCATION
 40
0.0
  0
ENDSEC
  0
SECTION
  2
CLASSES
  0
CLASS
  1
ACDBDICTIONARYWDFLT
  2
AcDbDictionaryWithDefault
  3
ObjectDBX Classes
 90
        0
 91
        4
280
     0
281
     0
  0
CLASS
  1
VISUALSTYLE
  2
AcDbVisualStyle
  3
ObjectDBX Classes
 90
     4095
 91
        4
280
     0
281
     0
  0
CLASS
  1
MATERIAL
  2
AcDbMaterial
  3
ObjectDBX Classes
 90
     1153
 91
        4
280
     0
281
     0
  0
ENDSEC
  0
SECTION
  2
TABLES
  0
TABLE
  2
VPORT
  5
8
330
0
100
AcDbSymbolTable
 70
     1
  0
VPORT
  5
29
330
8
100
AcDbSymbolTableRecord
100
AcDbViewportTableRecord
  2
*Active
 70
     0
 10
0.0
 20
0.0
 11
1.0
 21
1.0
 12
0.0
 22
0.0
 13
0.0
 23
0.0
 14
10.0
 24
10.0
 15
10.0
 25
10.0
 16
0.0
 26
0.0
 36
1.0
 17
0.0
 27
0.0
 37
0.0
 40
9801.0
 41
1.414141414141414
 42
50.0
 43
0.0
 44
0.0
 50
0.0
 51
0.0
 71
     0
 72
 10000
 73
     1
 74
     3
 75
     0
 76
     0
 77
     0
 78
     0
281
     0
 65
     1
110
0.0
120
0.0
130
0.0
111
1.0
121
0.0
131
0.0
112
0.0
122
1.0
132
0.0
 79
     0
146
0.0
 60
     3
 61
     5
292
     1
282
     1
141
0.0
142
0.0
 63
   250
  0
ENDTAB
  0
TABLE
  2
LTYPE
  5
5
330
0
100
AcDbSymbolTable
 70
     3
  0
LTYPE
  5
14
330
5
100
AcDbSymbolTableRecord
100
AcDbLinetypeTableRecord
  2
ByBlock
 70
     0
  3

 72
    65
 73
     0
 40
0.0
  0
LTYPE
  5
15
330
5
100
AcDbSymbolTableRecord
100
AcDbLinetypeTableRecord
  2
ByLayer
 70
     0
  3

 72
    65
 73
     0
 40
0.0
  0
LTYPE
  5
16
330
5
100
AcDbSymbolTableRecord
100
AcDbLinetypeTableRecord
  2
Continuous
 70
     0
  3
Solid line
 72
    65
 73
     0
 40
0.0
  0
LTYPE
  5
3F
330
5
100
AcDbSymbolTableRecord
100
AcDbLinetypeTableRecord
  2
JWW_HOJO
 70
     0
  3
  -   -   -   -   -   -   -   - 
 72
    65
 73
     2
 40
1.693333333333333
 49
-1.27
 74
     0
 49
0.4233333333333333
 74
     0
  0
LTYPE
  5
40
330
5
100
AcDbSymbolTableRecord
100
AcDbLinetypeTableRecord
  2
JWW_DASHED1
 70
     0
  3
-  --  --  --  --  --  --  --  -
 72
    65
 73
     2
 40
1.693333333333333
 49
0.8466666666666667
 74
     0
 49
-0.8466666666666667
 74
     0
  0
ENDTAB
  0
TABLE
  2
LAYER
  5
2
330
0
100
AcDbSymbolTable
 70
     8
  0
LAYER
  5
10
330
2
100
AcDbSymbolTableRecord
100
AcDbLayerTableRecord
  2
0
 70
     0
 62
     7
  6
Continuous
370
    -3
390
F
347
3E
  0
LAYER
  5
41
330
2
100
AcDbSymbolTableRecord
100
AcDbLayerTableRecord
  2
F-1
 70
     0
 62
     7
  6
Continuous
370
    -3
390
F
347
3E
  0
LAYER
  5
42
330
2
100
AcDbSymbolTableRecord
100
AcDbLayerTableRecord
  2
F-0
 70
     0
 62
     7
  6
Continuous
370
    -3
390
F
347
3E
  0
LAYER
  5
43
330
2
100
AcDbSymbolTableRecord
100
AcDbLayerTableRecord
  2
0-4
 70
     0
 62
     7
  6
Continuous
370
    -3
390
F
347
3E
  0
LAYER
  5
44
330
2
100
AcDbSymbolTableRecord
100
AcDbLayerTableRecord
  2
0-B
 70
     0
 62
     7
  6
Continuous
370
    -3
390
F
347
3E
  0
LAYER
  5
45
330
2
100
AcDbSymbolTableRecord
100
AcDbLayerTableRecord
  2
0-0
 70
     0
 62
     7
  6
Continuous
370
    -3
390
F
347
3E
  0
LAYER
  5
46
330
2
100
AcDbSymbolTableRecord
100
AcDbLayerTableRecord
  2
0-A
 70
     0
 62
     7
  6
Continuous
370
    -3
390
F
347
3E
  0
LAYER
  5
47
330
2
100
AcDbSymbolTableRecord
100
AcDbLayerTableRecord
  2
F-A
 70
     0
 62
     7
  6
Continuous
370
    -3
390
F
347
3E
  0
ENDTAB
  0
TABLE
  2
STYLE
  5
3
330
0
100
AcDbSymbolTable
 70
     1
  0
STYLE
  5
11
330
3
100
AcDbSymbolTableRecord
100
AcDbTextStyleTableRecord
  2
Standard
 70
     0
 40
0.0
 41
1.0
 50
0.0
 71
     0
 42
2.5
  3
txt
  4

  0
ENDTAB
  0
TABLE
  2
VIEW
  5
6
330
0
100
AcDbSymbolTable
 70
     0
  0
ENDTAB
  0
TABLE
  2
UCS
  5
7
330
0
100
AcDbSymbolTable
 70
     0
  0
ENDTAB
  0
TABLE
  2
APPID
  5
9
330
0
100
AcDbSymbolTable
 70
     1
  0
APPID
  5
12
330
9
100
AcDbSymbolTableRecord
100
AcDbRegAppTableRecord
  2
ACAD
 70
     0
  0
ENDTAB
  0
TABLE
  2
DIMSTYLE
  5
A
330
0
100
AcDbSymbolTable
 70
     1
100
AcDbDimStyleTable
  0
DIMSTYLE
105
27
330
A
100
AcDbSymbolTableRecord
100
AcDbDimStyleTableRecord
  2
ISO-25
 70
     0
 41
2.5
 42
0.625
 43
3.75
 44
1.25
 73
     0
 74
     0
 77
     1
 78
     8
140
2.5
141
2.5
143
0.03937007874016
147
0.625
171
     3
172
     1
178
     0
271
     2
272
     2
274
     3
278
    44
283
     0
284
     8
340
11
  0
ENDTAB
  0
TABLE
  2
BLOCK_RECORD
  5
1
330
0
100
AcDbSymbolTable
 70
     1
  0
BLOCK_RECORD
  5
1F
330
1
100
AcDbSymbolTableRecord
100
AcDbBlockTableRecord
  2
*Model_Space
340
22
 70
     0
280
     1
281
     0
  0
BLOCK_RECORD
  5
1B
330
1
100
AcDbSymbolTableRecord
100
AcDbBlockTableRecord
  2
*Paper_Space
340
1E
 70
     0
280
     1
281
     0
  0
BLOCK_RECORD
  5
23
330
1
100
AcDbSymbolTableRecord
100
AcDbBlockTableRecord
  2
*Paper_Space0
340
26
 70
     0
280
     1
281
     0
  0
ENDTAB
  0
ENDSEC
  0
SECTION
  2
BLOCKS
  0
BLOCK
  5
20
330
1F
100
AcDbEntity
  8
0
100
AcDbBlockBegin
  2
*Model_Space
 70
     0
 10
0.0
 20
0.0
 30
0.0
  3
*Model_Space
  1

  0
ENDBLK
  5
21
330
1F
100
AcDbEntity
  8
0
100
AcDbBlockEnd
  0
BLOCK
  5
1C
330
1B
100
AcDbEntity
 67
     1
  8
0
100
AcDbBlockBegin
  2
*Paper_Space
 70
     0
 10
0.0
 20
0.0
 30
0.0
  3
*Paper_Space
  1

  0
ENDBLK
  5
1D
330
1B
100
AcDbEntity
 67
     1
  8
0
100
AcDbBlockEnd
  0
BLOCK
  5
24
330
23
100
AcDbEntity
  8
0
100
AcDbBlockBegin
  2
*Paper_Space0
 70
     0
 10
0.0
 20
0.0
 30
0.0
  3
*Paper_Space0
  1

  0
ENDBLK
  5
25
330
23
100
AcDbEntity
  8
0
100
AcDbBlockEnd
  0
ENDSEC
  0
SECTION
  2
ENTITIES
  0
LINE
  5
48
330
1F
100
AcDbEntity
  8
F-1
  6
Continuous
 62
     7
370
     9
100
AcDbLine
 10
904.9995216163429
 20
4175.04801982158
 30
0.0
 11
904.9995216163429
 21
-3795.000049487965
 31
0.0
  0
LINE
  5
49
330
1F
100
AcDbEntity
  8
F-1
  6
Continuous
 62
     7
370
     9
100
AcDbLine
 10
-150.0008660393789
 20
1210.000301887668
 30
0.0
 11
-4940.000028867979
 21
1210.000301887668
 31
0.0
  0
LINE
  5
4A
330
1F
100
AcDbEntity
  8
F-1
  6
Continuous
 62
     7
370
     9
100
AcDbLine
 10
5694.998684444944
 20
1210.000301887668
 30
0.0
 11
904.9995216163429
 21
1210.000301887668
 31
0.0
  0
LINE
  5
4B
330
1F
100
AcDbEntity
  8
F-1
  6
Continuous
 62
   200
370
    20
100
AcDbLine
 10
-5999.999752560178
 20
4164.999983504013
 30
0.0
 11
5699.998762800888
 21
4164.999983504013
 31
0.0
  0
LINE
  5
4C
330
1F
100
AcDbEntity
  8
F-1
  6
Continuous
 62
   200
370
    20
100
AcDbLine
 10
5699.998762800888
 20
3710.000461887669
 30
0.0
 11
-5999.999752560178
 21
3710.000461887669
 31
0.0
  0
LINE
  5
4D
330
1F
100
AcDbEntity
  8
F-0
  6
JWW_HOJO
 62
   120
370
     5
100
AcDbLine
 10
2.4993896484375
 20
4164.999983504013
 30
0.0
 11
2.4993896484375
 21
-3790.080698374155
 31
0.0
  0
LINE
  5
4E
330
1F
100
AcDbEntity
  8
F-0
  6
JWW_HOJO
 62
   120
370
     5
100
AcDbLine
 10
-5839.999982473011
 20
4164.999983504013
 30
0.0
 11
-5839.999982473011
 21
-3785.470894478463
 31
0.0
  0
LINE
  5
4F
330
1F
100
AcDbEntity
  8
F-0
  6
JWW_HOJO
 62
   120
370
     5
100
AcDbLine
 10
-6300.0
 20
4424.999604096284
 30
0.0
 11
5999.999010240709
 21
4424.999604096284
 31
0.0
  0
LINE
  5
50
330
1F
100
AcDbEntity
  8
F-0
  6
JWW_HOJO
 62
   120
370
     5
100
AcDbLine
 10
-6300.0
 20
-4455.0
 30
0.0
 11
-6300.0
 21
4424.999604096284
 31
0.0
  0
LINE
  5
51
330
1F
100
AcDbEntity
  8
F-0
  6
JWW_HOJO
 62
   120
370
     5
100
AcDbLine
 10
5999.999010240709
 20
4424.999604096284
 30
0.0
 11
5999.999010240709
 21
-4455.0
 31
0.0
  0
LINE
  5
52
330
1F
100
AcDbEntity
  8
F-0
  6
JWW_HOJO
 62
   120
370
     5
100
AcDbLine
 10
5999.999010240709
 20
-4455.0
 30
0.0
 11
-6300.0
 21
-4455.0
 31
0.0
  0
LINE
  5
53
330
1F
100
AcDbEntity
  8
F-1
  6
Continuous
 62
   200
370
    20
100
AcDbLine
 10
-5999.999752560178
 20
4174.999769056166
 30
0.0
 11
5699.998762800888
 21
4174.999769056166
 31
0.0
  0
LINE
  5
54
330
1F
100
AcDbEntity
  8
F-1
  6
Continuous
 62
   200
370
    20
100
AcDbLine
 10
5699.998762800888
 20
4174.999769056166
 30
0.0
 11
5699.998762800888
 21
-4205.000164959882
 31
0.0
  0
LINE
  5
55
330
1F
100
AcDbEntity
  8
F-1
  6
Continuous
 62
   200
370
    20
100
AcDbLine
 10
-5999.99998453501
 20
4174.999769056166
 30
0.0
 11
-5999.99998453501
 21
-4205.000164959882
 31
0.0
  0
LINE
  5
56
330
1F
100
AcDbEntity
  8
F-1
  6
Continuous
 62
   200
370
    20
100
AcDbLine
 10
-5989.999990205507
 20
4174.999769056166
 30
0.0
 11
-5989.999990205507
 21
-4205.000164959882
 31
0.0
  0
LINE
  5
57
330
1F
100
AcDbEntity
  8
F-1
  6
Continuous
 62
   200
370
    20
100
AcDbLine
 10
-5999.999752560178
 20
4169.999505120355
 30
0.0
 11
5699.998762800888
 21
4169.999505120355
 31
0.0
  0
LINE
  5
58
330
1F
100
AcDbEntity
  8
F-1
  6
Continuous
 62
   200
370
    20
100
AcDbLine
 10
-5994.999975771518
 20
4174.999769056166
 30
0.0
 11
-5994.999975771518
 21
-4205.000164959882
 31
0.0
  0
LINE
  5
59
330
1F
100
AcDbEntity
  8
F-1
  6
Continuous
 62
   200
370
    20
100
AcDbLine
 10
5694.998498865077
 20
4174.999769056166
 30
0.0
 11
5694.998498865077
 21
-4205.000164959882
 31
0.0
  0
LINE
  5
5A
330
1F
100
AcDbEntity
  8
F-1
  6
Continuous
 62
   200
370
    20
100
AcDbLine
 10
5689.998977248734
 20
4174.999769056166
 30
0.0
 11
5689.998977248734
 21
-4205.000164959882
 31
0.0
  0
LINE
  5
5B
330
1F
100
AcDbEntity
  8
F-1
  6
Continuous
 62
     7
370
     9
100
AcDbLine
 10
3439.999719568202
 20
4174.999769056166
 30
0.0
 11
3439.999719568202
 21
-3790.000017526987
 31
0.0
  0
LINE
  5
5C
330
1F
100
AcDbEntity
  8
F-0
  6
JWW_HOJO
 62
   120
370
     5
100
AcDbLine
 10
-3672.500393841717
 20
3710.000461887669
 30
0.0
 11
-3672.500393841717
 21
-3790.000017526987
 31
0.0
  0
LINE
  5
5D
330
1F
100
AcDbEntity
  8
F-0
  6
JWW_HOJO
 62
   120
370
     5
100
AcDbLine
 10
2172.499156642605
 20
3710.000461887669
 30
0.0
 11
2172.499156642605
 21
-3790.000017526987
 31
0.0
  0
LINE
  5
5E
330
1F
100
AcDbEntity
  8
F-1
  6
Continuous
 62
   200
370
    20
100
AcDbLine
 10
-150.0008660393789
 20
4174.999769056166
 30
0.0
 11
-150.0008660393789
 21
-3795.000049487965
 31
0.0
  0
LINE
  5
5F
330
1F
100
AcDbEntity
  8
F-1
  6
Continuous
 62
     7
370
     9
100
AcDbLine
 10
-635.0007588154554
 20
4175.048019821578
 30
0.0
 11
-635.0007588154554
 21
-3795.000049487966
 31
0.0
  0
LINE
  5
60
330
1F
100
AcDbEntity
  8
F-1
  6
Continuous
 62
     7
370
     9
100
AcDbLine
 10
3439.999719568202
 20
3947.452128642314
 30
0.0
 11
4339.999719568202
 21
3947.452128642314
 31
0.0
  0
LINE
  5
61
330
1F
100
AcDbEntity
  8
F-1
  6
Continuous
 62
     7
370
     9
100
AcDbLine
 10
4339.999719568202
 20
4174.999769056164
 30
0.0
 11
4339.999719568202
 21
-3795.04830025338
 31
0.0
  0
LINE
  5
62
330
1F
100
AcDbEntity
  8
F-1
  6
JWW_HOJO
 62
     7
370
     9
100
AcDbLine
 10
4399.999719568202
 20
4174.999769056164
 30
0.0
 11
4399.999719568202
 21
-3795.04830025338
 31
0.0
  0
LINE
  5
63
330
1F
100
AcDbEntity
  8
F-1
  6
Continuous
 62
     7
370
     9
100
AcDbLine
 10
5209.999719568203
 20
4174.999769056164
 30
0.0
 11
5209.999719568203
 21
-3795.04830025338
 31
0.0
  0
LINE
  5
64
330
1F
100
AcDbEntity
  8
F-1
  6
Continuous
 62
     7
370
     9
100
AcDbLine
 10
-4940.000028867979
 20
4174.999769056166
 30
0.0
 11
-4940.000028867979
 21
-3790.000017526987
 31
0.0
  0
LINE
  5
65
330
1F
100
AcDbEntity
  8
F-1
  6
Continuous
 62
   200
370
    20
100
AcDbLine
 10
5699.998762800888
 20
3720.000247440669
 30
0.0
 11
-5999.999752560178
 21
3720.000247440669
 31
0.0
  0
LINE
  5
66
330
1F
100
AcDbEntity
  8
F-1
  6
Continuous
 62
   200
370
    20
100
AcDbLine
 10
-155.0003876543789
 20
4174.999769056166
 30
0.0
 11
-155.0003876543789
 21
-3795.000049487964
 31
0.0
  0
LINE
  5
67
330
1F
100
AcDbEntity
  8
F-1
  6
Continuous
 62
   200
370
    20
100
AcDbLine
 10
-145.0013444243788
 20
4174.999769056166
 30
0.0
 11
-145.0013444243788
 21
-3795.000049487964
 31
0.0
  0
LINE
  5
68
330
1F
100
AcDbEntity
  8
F-1
  6
Continuous
 62
     7
370
     9
100
AcDbLine
 10
-1460.000758815456
 20
4175.048019821578
 30
0.0
 11
-1460.000758815456
 21
-3795.000049487966
 31
0.0
  0
LINE
  5
69
330
1F
100
AcDbEntity
  8
F-1
  6
JWW_HOJO
 62
     7
370
     9
100
AcDbLine
 10
-1400.000758815456
 20
4175.048019821578
 30
0.0
 11
-1400.000758815456
 21
-3795.000049487966
 31
0.0
  0
LINE
  5
6A
330
1F
100
AcDbEntity
  8
F-1
  6
JWW_DASHED1
 62
     7
370
     9
100
AcDbLine
 10
-155.0003876543789
 20
3397.500441887668
 30
0.0
 11
-2285.000758815456
 21
3397.500441887668
 31
0.0
  0
LINE
  5
6B
330
1F
100
AcDbEntity
  8
F-1
  6
JWW_DASHED1
 62
     7
370
     9
100
AcDbLine
 10
-155.0003876543789
 20
2616.250391887667
 30
0.0
 11
-2285.000758815456
 21
2616.250391887667
 31
0.0
  0
LINE
  5
6C
330
1F
100
AcDbEntity
  8
F-1
  6
JWW_DASHED1
 62
     7
370
     9
100
AcDbLine
 10
-155.0003876543789
 20
3241.250431887669
 30
0.0
 11
-2285.000758815456
 21
3241.250431887669
 31
0.0
  0
LINE
  5
6D
330
1F
100
AcDbEntity
  8
F-1
  6
JWW_DASHED1
 62
     7
370
     9
100
AcDbLine
 10
-155.0003876543789
 20
3085.000421887667
 30
0.0
 11
-2285.000758815456
 21
3085.000421887667
 31
0.0
  0
LINE
  5
6E
330
1F
100
AcDbEntity
  8
F-1
  6
JWW_DASHED1
 62
     7
370
     9
100
AcDbLine
 10
-155.0003876543789
 20
2928.750411887667
 30
0.0
 11
-2285.000758815456
 21
2928.750411887667
 31
0.0
  0
LINE
  5
6F
330
1F
100
AcDbEntity
  8
F-1
  6
JWW_DASHED1
 62
     7
370
     9
100
AcDbLine
 10
-155.0003876543789
 20
2772.500401887667
 30
0.0
 11
-2285.000758815456
 21
2772.500401887667
 31
0.0
  0
LINE
  5
70
330
1F
100
AcDbEntity
  8
F-1
  6
JWW_DASHED1
 62
     7
370
     9
100
AcDbLine
 10
-155.0003876543789
 20
3553.750451887668
 30
0.0
 11
-1460.000758815456
 21
3553.750451887668
 31
0.0
  0
LINE
  5
71
330
1F
100
AcDbEntity
  8
F-0
  6
JWW_HOJO
 62
   120
370
     5
100
AcDbLine
 10
-5989.99959584829
 20
3947.500379407728
 30
0.0
 11
5690.337474926098
 21
3947.500379407728
 31
0.0
  0
LINE
  5
72
330
1F
100
AcDbEntity
  8
F-1
  6
Continuous
 62
     7
370
     9
100
AcDbLine
 10
-1460.000758815456
 20
3947.500379407728
 30
0.0
 11
-2285.000758815456
 21
3947.500379407728
 31
0.0
  0
LINE
  5
73
330
1F
100
AcDbEntity
  8
F-1
  6
Continuous
 62
     7
370
     9
100
AcDbLine
 10
-2285.000758815456
 20
4175.04801982158
 30
0.0
 11
-2285.000758815456
 21
-3795.000049487965
 31
0.0
  0
LINE
  5
74
330
1F
100
AcDbEntity
  8
F-1
  6
JWW_DASHED1
 62
     7
370
     9
100
AcDbLine
 10
-155.0003876543789
 20
2147.500361887668
 30
0.0
 11
-2285.000758815456
 21
2147.500361887668
 31
0.0
  0
LINE
  5
75
330
1F
100
AcDbEntity
  8
F-1
  6
JWW_DASHED1
 62
     7
370
     9
100
AcDbLine
 10
-155.0003876543789
 20
1366.250311887667
 30
0.0
 11
-2285.000758815456
 21
1366.250311887667
 31
0.0
  0
LINE
  5
76
330
1F
100
AcDbEntity
  8
F-1
  6
JWW_DASHED1
 62
     7
370
     9
100
AcDbLine
 10
-155.0003876543789
 20
1991.250351887668
 30
0.0
 11
-2285.000758815456
 21
1991.250351887668
 31
0.0
  0
LINE
  5
77
330
1F
100
AcDbEntity
  8
F-1
  6
JWW_DASHED1
 62
     7
370
     9
100
AcDbLine
 10
-155.0003876543789
 20
1835.000341887667
 30
0.0
 11
-2285.000758815456
 21
1835.000341887667
 31
0.0
  0
LINE
  5
78
330
1F
100
AcDbEntity
  8
F-1
  6
JWW_DASHED1
 62
     7
370
     9
100
AcDbLine
 10
-155.0003876543789
 20
1678.750331887667
 30
0.0
 11
-2285.000758815456
 21
1678.750331887667
 31
0.0
  0
LINE
  5
79
330
1F
100
AcDbEntity
  8
F-1
  6
JWW_DASHED1
 62
     7
370
     9
100
AcDbLine
 10
-155.0003876543789
 20
1522.500321887667
 30
0.0
 11
-2285.000758815456
 21
1522.500321887667
 31
0.0
  0
LINE
  5
7A
330
1F
100
AcDbEntity
  8
F-1
  6
JWW_DASHED1
 62
     7
370
     9
100
AcDbLine
 10
-155.0003876543789
 20
2303.750371887668
 30
0.0
 11
-1460.000758815456
 21
2303.750371887668
 31
0.0
  0
LINE
  5
7B
330
1F
100
AcDbEntity
  8
F-1
  6
JWW_DASHED1
 62
     7
370
     9
100
AcDbLine
 10
-155.0003876543789
 20
897.5002818876675
 30
0.0
 11
-2285.000758815456
 21
897.5002818876675
 31
0.0
  0
LINE
  5
7C
330
1F
100
AcDbEntity
  8
F-1
  6
JWW_DASHED1
 62
     7
370
     9
100
AcDbLine
 10
-155.0003876543789
 20
116.2502318876662
 30
0.0
 11
-2285.000758815456
 21
116.2502318876662
 31
0.0
  0
LINE
  5
7D
330
1F
100
AcDbEntity
  8
F-1
  6
JWW_DASHED1
 62
     7
370
     9
100
AcDbLine
 10
-155.0003876543789
 20
741.2502718876672
 30
0.0
 11
-2285.000758815456
 21
741.2502718876672
 31
0.0
  0
LINE
  5
7E
330
1F
100
AcDbEntity
  8
F-1
  6
JWW_DASHED1
 62
     7
370
     9
100
AcDbLine
 10
-155.0003876543789
 20
585.000261887667
 30
0.0
 11
-2285.000758815456
 21
585.000261887667
 31
0.0
  0
LINE
  5
7F
330
1F
100
AcDbEntity
  8
F-1
  6
JWW_DASHED1
 62
     7
370
     9
100
AcDbLine
 10
-155.0003876543789
 20
428.7502518876667
 30
0.0
 11
-2285.000758815456
 21
428.7502518876667
 31
0.0
  0
LINE
  5
80
330
1F
100
AcDbEntity
  8
F-1
  6
JWW_DASHED1
 62
     7
370
     9
100
AcDbLine
 10
-155.0003876543789
 20
272.5002418876664
 30
0.0
 11
-2285.000758815456
 21
272.5002418876664
 31
0.0
  0
LINE
  5
81
330
1F
100
AcDbEntity
  8
F-1
  6
JWW_DASHED1
 62
     7
370
     9
100
AcDbLine
 10
-155.0003876543789
 20
1053.750291887668
 30
0.0
 11
-1460.000758815456
 21
1053.750291887668
 31
0.0
  0
LINE
  5
82
330
1F
100
AcDbEntity
  8
F-1
  6
JWW_DASHED1
 62
     7
370
     9
100
AcDbLine
 10
-155.0003876543789
 20
-352.4997981123329
 30
0.0
 11
-2285.000758815456
 21
-352.4997981123329
 31
0.0
  0
LINE
  5
83
330
1F
100
AcDbEntity
  8
F-1
  6
JWW_DASHED1
 62
     7
370
     9
100
AcDbLine
 10
-155.0003876543789
 20
-1133.749848112334
 30
0.0
 11
-2285.000758815456
 21
-1133.749848112334
 31
0.0
  0
LINE
  5
84
330
1F
100
AcDbEntity
  8
F-1
  6
JWW_DASHED1
 62
     7
370
     9
100
AcDbLine
 10
-155.0003876543789
 20
-508.7498081123331
 30
0.0
 11
-2285.000758815456
 21
-508.7498081123331
 31
0.0
  0
LINE
  5
85
330
1F
100
AcDbEntity
  8
F-1
  6
JWW_DASHED1
 62
     7
370
     9
100
AcDbLine
 10
-155.0003876543789
 20
-664.9998181123334
 30
0.0
 11
-2285.000758815456
 21
-664.9998181123334
 31
0.0
  0
LINE
  5
86
330
1F
100
AcDbEntity
  8
F-1
  6
JWW_DASHED1
 62
     7
370
     9
100
AcDbLine
 10
-155.0003876543789
 20
-821.2498281123337
 30
0.0
 11
-2285.000758815456
 21
-821.2498281123337
 31
0.0
  0
LINE
  5
87
330
1F
100
AcDbEntity
  8
F-1
  6
JWW_DASHED1
 62
     7
370
     9
100
AcDbLine
 10
-155.0003876543789
 20
-977.4998381123339
 30
0.0
 11
-2285.000758815456
 21
-977.4998381123339
 31
0.0
  0
LINE
  5
88
330
1F
100
AcDbEntity
  8
F-1
  6
JWW_DASHED1
 62
     7
370
     9
100
AcDbLine
 10
-155.0003876543789
 20
-196.2497881123326
 30
0.0
 11
-1460.000758815456
 21
-196.2497881123326
 31
0.0
  0
LINE
  5
89
330
1F
100
AcDbEntity
  8
F-1
  6
JWW_DASHED1
 62
     7
370
     9
100
AcDbLine
 10
-155.0003876543789
 20
-1602.499878112333
 30
0.0
 11
-2285.000758815456
 21
-1602.499878112333
 31
0.0
  0
LINE
  5
8A
330
1F
100
AcDbEntity
  8
F-1
  6
JWW_DASHED1
 62
     7
370
     9
100
AcDbLine
 10
-155.0003876543789
 20
-2383.749928112335
 30
0.0
 11
-2285.000758815456
 21
-2383.749928112335
 31
0.0
  0
LINE
  5
8B
330
1F
100
AcDbEntity
  8
F-1
  6
JWW_DASHED1
 62
     7
370
     9
100
AcDbLine
 10
-155.0003876543789
 20
-1758.749888112334
 30
0.0
 11
-2285.000758815456
 21
-1758.749888112334
 31
0.0
  0
LINE
  5
8C
330
1F
100
AcDbEntity
  8
F-1
  6
JWW_DASHED1
 62
     7
370
     9
100
AcDbLine
 10
-155.0003876543789
 20
-1914.999898112334
 30
0.0
 11
-2285.000758815456
 21
-1914.999898112334
 31
0.0
  0
LINE
  5
8D
330
1F
100
AcDbEntity
  8
F-1
  6
JWW_DASHED1
 62
     7
370
     9
100
AcDbLine
 10
-155.0003876543789
 20
-2071.249908112334
 30
0.0
 11
-2285.000758815456
 21
-2071.249908112334
 31
0.0
  0
LINE
  5
8E
330
1F
100
AcDbEntity
  8
F-1
  6
JWW_DASHED1
 62
     7
370
     9
100
AcDbLine
 10
-155.0003876543789
 20
-2227.499918112334
 30
0.0
 11
-2285.000758815456
 21
-2227.499918112334
 31
0.0
  0
LINE
  5
8F
330
1F
100
AcDbEntity
  8
F-1
  6
JWW_DASHED1
 62
     7
370
     9
100
AcDbLine
 10
-155.0003876543789
 20
-1446.249868112333
 30
0.0
 11
-1460.000758815456
 21
-1446.249868112333
 31
0.0
  0
LINE
  5
90
330
1F
100
AcDbEntity
  8
F-1
  6
JWW_DASHED1
 62
     7
370
     9
100
AcDbLine
 10
-155.0003876543789
 20
-2852.499958112334
 30
0.0
 11
-2285.000758815456
 21
-2852.499958112334
 31
0.0
  0
LINE
  5
91
330
1F
100
AcDbEntity
  8
F-1
  6
JWW_DASHED1
 62
     7
370
     9
100
AcDbLine
 10
-155.0003876543789
 20
-3633.750008112335
 30
0.0
 11
-2285.000758815456
 21
-3633.750008112335
 31
0.0
  0
LINE
  5
92
330
1F
100
AcDbEntity
  8
F-1
  6
JWW_DASHED1
 62
     7
370
     9
100
AcDbLine
 10
-155.0003876543789
 20
-3008.749968112334
 30
0.0
 11
-2285.000758815456
 21
-3008.749968112334
 31
0.0
  0
LINE
  5
93
330
1F
100
AcDbEntity
  8
F-1
  6
JWW_DASHED1
 62
     7
370
     9
100
AcDbLine
 10
-155.0003876543789
 20
-3164.999978112334
 30
0.0
 11
-2285.000758815456
 21
-3164.999978112334
 31
0.0
  0
LINE
  5
94
330
1F
100
AcDbEntity
  8
F-1
  6
JWW_DASHED1
 62
     7
370
     9
100
AcDbLine
 10
-155.0003876543789
 20
-3321.249988112334
 30
0.0
 11
-2285.000758815456
 21
-3321.249988112334
 31
0.0
  0
LINE
  5
95
330
1F
100
AcDbEntity
  8
F-1
  6
JWW_DASHED1
 62
     7
370
     9
100
AcDbLine
 10
-155.0003876543789
 20
-3477.499998112335
 30
0.0
 11
-2285.000758815456
 21
-3477.499998112335
 31
0.0
  0
LINE
  5
96
330
1F
100
AcDbEntity
  8
F-1
  6
JWW_DASHED1
 62
     7
370
     9
100
AcDbLine
 10
-155.0003876543789
 20
-2696.249948112333
 30
0.0
 11
-1460.000758815456
 21
-2696.249948112333
 31
0.0
  0
LINE
  5
97
330
1F
100
AcDbEntity
  8
0-4
  6
Continuous
 62
    92
370
    13
100
AcDbLine
 10
-4123.516574175316
 20
3289.21881807455
 30
0.0
 11
-4123.516574175316
 21
3109.21881807455
 31
0.0
  0
LINE
  5
98
330
1F
100
AcDbEntity
  8
0-4
  6
Continuous
 62
    92
370
    13
100
AcDbLine
 10
-2698.516574175314
 20
2749.21881807455
 30
0.0
 11
-2878.516574175314
 21
2749.21881807455
 31
0.0
  0
LINE
  5
99
330
1F
100
AcDbEntity
  8
0-4
  6
Continuous
 62
    92
370
    13
100
AcDbLine
 10
-4123.516574175316
 20
3109.21881807455
 30
0.0
 11
-2878.516574175314
 21
3109.21881807455
 31
0.0
  0
LINE
  5
9A
330
1F
100
AcDbEntity
  8
0-4
  6
Continuous
 62
    92
370
    13
100
AcDbLine
 10
-2878.516574175314
 20
2749.21881807455
 30
0.0
 11
-2878.516574175314
 21
3109.21881807455
 31
0.0
  0
LINE
  5
9B
330
1F
100
AcDbEntity
  8
F-1
  6
Continuous
 62
     7
370
     9
100
AcDbLine
 10
-4730.000028867979
 20
3710.000461887669
 30
0.0
 11
-4730.000028867979
 21
-3790.000017526988
 31
0.0
  0
LINE
  5
9C
330
1F
100
AcDbEntity
  8
0-4
  6
Continuous
 62
    92
370
    13
100
AcDbLine
 10
-2698.516574175314
 20
287.928878715997
 30
0.0
 11
-2878.516574175314
 21
287.928878715997
 31
0.0
  0
LINE
  5
9D
330
1F
100
AcDbEntity
  8
0-4
  6
Continuous
 62
    92
370
    13
100
AcDbLine
 10
-2878.516574175314
 20
287.928878715997
 30
0.0
 11
-2878.516574175314
 21
647.928878715997
 31
0.0
  0
LINE
  5
9E
330
1F
100
AcDbEntity
  8
0-4
  6
Continuous
 62
    92
370
    13
100
AcDbLine
 10
-2727.229777610911
 20
2075.763973546303
 30
0.0
 11
-2706.016574175314
 21
2054.550770110706
 31
0.0
  0
LINE
  5
9F
330
1F
100
AcDbEntity
  8
0-4
  6
Continuous
 62
    92
370
    13
100
AcDbLine
 10
-2706.016574175314
 20
2054.550770110706
 30
0.0
 11
-2706.016574175314
 21
1543.263973546302
 31
0.0
  0
LINE
  5
A0
330
1F
100
AcDbEntity
  8
0-4
  6
Continuous
 62
    92
370
    13
100
AcDbLine
 10
-2727.229777610911
 20
2075.763973546303
 30
0.0
 11
-4063.516574175316
 21
2075.763973546303
 31
0.0
  0
LINE
  5
A1
330
1F
100
AcDbEntity
  8
0-4
  6
Continuous
 62
    92
370
    13
100
AcDbLine
 10
-2719.729777610911
 20
2083.263973546303
 30
0.0
 11
-2698.516574175314
 21
2062.050770110706
 31
0.0
  0
LINE
  5
A2
330
1F
100
AcDbEntity
  8
0-4
  6
Continuous
 62
    92
370
    13
100
AcDbLine
 10
-2698.516574175314
 20
2062.050770110706
 30
0.0
 11
-2698.516574175314
 21
1543.263973546302
 31
0.0
  0
LINE
  5
A3
330
1F
100
AcDbEntity
  8
0-4
  6
Continuous
 62
    92
370
    13
100
AcDbLine
 10
-2719.729777610911
 20
2083.263973546303
 30
0.0
 11
-4063.516574175316
 21
2083.263973546303
 31
0.0
  0
LINE
  5
A4
330
1F
100
AcDbEntity
  8
0-4
  6
Continuous
 62
    92
370
    13
100
AcDbLine
 10
-4063.516574175316
 20
2083.263973546303
 30
0.0
 11
-4063.516574175316
 21
1903.263973546302
 31
0.0
  0
LINE
  5
A5
330
1F
100
AcDbEntity
  8
0-4
  6
Continuous
 62
    92
370
    13
100
AcDbLine
 10
-2698.516574175314
 20
1543.263973546302
 30
0.0
 11
-2818.516574175314
 21
1543.263973546302
 31
0.0
  0
LINE
  5
A6
330
1F
100
AcDbEntity
  8
0-4
  6
Continuous
 62
    92
370
    13
100
AcDbLine
 10
-4063.516574175316
 20
1903.263973546302
 30
0.0
 11
-2818.516574175314
 21
1903.263973546302
 31
0.0
  0
LINE
  5
A7
330
1F
100
AcDbEntity
  8
0-4
  6
Continuous
 62
    92
370
    13
100
AcDbLine
 10
-2818.516574175314
 20
1543.263973546302
 30
0.0
 11
-2818.516574175314
 21
1903.263973546302
 31
0.0
  0
LINE
  5
A8
330
1F
100
AcDbEntity
  8
0-4
  6
Continuous
 62
    92
370
    13
100
AcDbLine
 10
-2698.516574175314
 20
-943.0794098083283
 30
0.0
 11
-2818.516574175314
 21
-943.0794098083283
 31
0.0
  0
LINE
  5
A9
330
1F
100
AcDbEntity
  8
0-4
  6
Continuous
 62
    92
370
    13
100
AcDbLine
 10
-2818.516574175314
 20
-943.0794098083283
 30
0.0
 11
-2818.516574175314
 21
-583.0794098083283
 31
0.0
  0
LINE
  5
AA
330
1F
100
AcDbEntity
  8
0-4
  6
Continuous
 62
    92
370
    13
100
AcDbLine
 10
-2698.516574175314
 20
-424.2926132439248
 30
0.0
 11
-2698.516574175314
 21
-943.0794098083283
 31
0.0
  0
LINE
  5
AB
330
1F
100
AcDbEntity
  8
0-4
  6
Continuous
 62
    92
370
    13
100
AcDbLine
 10
-2698.516574175314
 20
-424.2926132439248
 30
0.0
 11
-2719.729777610911
 21
-403.0794098083283
 31
0.0
  0
LINE
  5
AC
330
1F
100
AcDbEntity
  8
0-4
  6
Continuous
 62
    92
370
    13
100
AcDbLine
 10
-2706.016574175314
 20
-431.7926132439248
 30
0.0
 11
-2706.016574175314
 21
-943.0794098083283
 31
0.0
  0
LINE
  5
AD
330
1F
100
AcDbEntity
  8
0-4
  6
Continuous
 62
    92
370
    13
100
AcDbLine
 10
-2727.229777610911
 20
-410.5794098083283
 30
0.0
 11
-2706.016574175314
 21
-431.7926132439248
 31
0.0
  0
LINE
  5
AE
330
1F
100
AcDbEntity
  8
F-1
  6
JWW_DASHED1
 62
     7
370
     9
100
AcDbLine
 10
5689.999162829944
 20
3397.500441887668
 30
0.0
 11
3439.999719568202
 21
3397.500441887668
 31
0.0
  0
LINE
  5
AF
330
1F
100
AcDbEntity
  8
F-1
  6
JWW_DASHED1
 62
     7
370
     9
100
AcDbLine
 10
5689.999162829944
 20
-3633.750008112335
 30
0.0
 11
3439.999719568202
 21
-3633.750008112335
 31
0.0
  0
LINE
  5
B0
330
1F
100
AcDbEntity
  8
F-1
  6
JWW_DASHED1
 62
     7
370
     9
100
AcDbLine
 10
5689.999162829944
 20
2616.250391887667
 30
0.0
 11
3439.999719568202
 21
2616.250391887667
 31
0.0
  0
LINE
  5
B1
330
1F
100
AcDbEntity
  8
F-1
  6
JWW_DASHED1
 62
     7
370
     9
100
AcDbLine
 10
5689.999162829944
 20
3241.250431887669
 30
0.0
 11
3439.999719568202
 21
3241.250431887669
 31
0.0
  0
LINE
  5
B2
330
1F
100
AcDbEntity
  8
F-1
  6
JWW_DASHED1
 62
     7
370
     9
100
AcDbLine
 10
5689.999162829944
 20
3085.000421887667
 30
0.0
 11
3439.999719568202
 21
3085.000421887667
 31
0.0
  0
LINE
  5
B3
330
1F
100
AcDbEntity
  8
F-1
  6
JWW_DASHED1
 62
     7
370
     9
100
AcDbLine
 10
5689.999162829944
 20
2928.750411887667
 30
0.0
 11
3439.999719568202
 21
2928.750411887667
 31
0.0
  0
LINE
  5
B4
330
1F
100
AcDbEntity
  8
F-1
  6
JWW_DASHED1
 62
     7
370
     9
100
AcDbLine
 10
5689.999162829944
 20
2772.500401887667
 30
0.0
 11
3439.999719568202
 21
2772.500401887667
 31
0.0
  0
LINE
  5
B5
330
1F
100
AcDbEntity
  8
F-1
  6
JWW_DASHED1
 62
     7
370
     9
100
AcDbLine
 10
5689.999162829944
 20
2147.500361887668
 30
0.0
 11
3439.999719568202
 21
2147.500361887668
 31
0.0
  0
LINE
  5
B6
330
1F
100
AcDbEntity
  8
F-1
  6
JWW_DASHED1
 62
     7
370
     9
100
AcDbLine
 10
5689.999162829944
 20
1366.250311887667
 30
0.0
 11
3439.999719568202
 21
1366.250311887667
 31
0.0
  0
LINE
  5
B7
330
1F
100
AcDbEntity
  8
F-1
  6
JWW_DASHED1
 62
     7
370
     9
100
AcDbLine
 10
5689.999162829944
 20
1991.250351887668
 30
0.0
 11
3439.999719568202
 21
1991.250351887668
 31
0.0
  0
LINE
  5
B8
330
1F
100
AcDbEntity
  8
F-1
  6
JWW_DASHED1
 62
     7
370
     9
100
AcDbLine
 10
5689.999162829944
 20
1835.000341887667
 30
0.0
 11
3439.999719568202
 21
1835.000341887667
 31
0.0
  0
LINE
  5
B9
330
1F
100
AcDbEntity
  8
F-1
  6
JWW_DASHED1
 62
     7
370
     9
100
AcDbLine
 10
5689.999162829944
 20
1678.750331887667
 30
0.0
 11
3439.999719568202
 21
1678.750331887667
 31
0.0
  0
LINE
  5
BA
330
1F
100
AcDbEntity
  8
F-1
  6
JWW_DASHED1
 62
     7
370
     9
100
AcDbLine
 10
5689.999162829944
 20
1522.500321887667
 30
0.0
 11
3439.999719568202
 21
1522.500321887667
 31
0.0
  0
LINE
  5
BB
330
1F
100
AcDbEntity
  8
F-1
  6
JWW_DASHED1
 62
     7
370
     9
100
AcDbLine
 10
5689.999162829944
 20
897.5002818876675
 30
0.0
 11
3439.999719568202
 21
897.5002818876675
 31
0.0
  0
LINE
  5
BC
330
1F
100
AcDbEntity
  8
F-1
  6
JWW_DASHED1
 62
     7
370
     9
100
AcDbLine
 10
5689.999162829944
 20
116.2502318876662
 30
0.0
 11
3439.999719568202
 21
116.2502318876662
 31
0.0
  0
LINE
  5
BD
330
1F
100
AcDbEntity
  8
F-1
  6
JWW_DASHED1
 62
     7
370
     9
100
AcDbLine
 10
5689.999162829944
 20
741.2502718876672
 30
0.0
 11
3439.999719568202
 21
741.2502718876672
 31
0.0
  0
LINE
  5
BE
330
1F
100
AcDbEntity
  8
F-1
  6
JWW_DASHED1
 62
     7
370
     9
100
AcDbLine
 10
5689.999162829944
 20
585.000261887667
 30
0.0
 11
3439.999719568202
 21
585.000261887667
 31
0.0
  0
LINE
  5
BF
330
1F
100
AcDbEntity
  8
F-1
  6
JWW_DASHED1
 62
     7
370
     9
100
AcDbLine
 10
5689.999162829944
 20
428.7502518876667
 30
0.0
 11
3439.999719568202
 21
428.7502518876667
 31
0.0
  0
LINE
  5
C0
330
1F
100
AcDbEntity
  8
F-1
  6
JWW_DASHED1
 62
     7
370
     9
100
AcDbLine
 10
5689.999162829944
 20
272.5002418876664
 30
0.0
 11
3439.999719568202
 21
272.5002418876664
 31
0.0
  0
LINE
  5
C1
330
1F
100
AcDbEntity
  8
F-1
  6
JWW_DASHED1
 62
     7
370
     9
100
AcDbLine
 10
5689.999162829944
 20
-352.4997981123329
 30
0.0
 11
3439.999719568202
 21
-352.4997981123329
 31
0.0
  0
LINE
  5
C2
330
1F
100
AcDbEntity
  8
F-1
  6
JWW_DASHED1
 62
     7
370
     9
100
AcDbLine
 10
5689.999162829944
 20
-1133.749848112334
 30
0.0
 11
3439.999719568202
 21
-1133.749848112334
 31
0.0
  0
LINE
  5
C3
330
1F
100
AcDbEntity
  8
F-1
  6
JWW_DASHED1
 62
     7
370
     9
100
AcDbLine
 10
5689.999162829944
 20
-508.7498081123331
 30
0.0
 11
3439.999719568202
 21
-508.7498081123331
 31
0.0
  0
LINE
  5
C4
330
1F
100
AcDbEntity
  8
F-1
  6
JWW_DASHED1
 62
     7
370
     9
100
AcDbLine
 10
5689.999162829944
 20
-664.9998181123334
 30
0.0
 11
3439.999719568202
 21
-664.9998181123334
 31
0.0
  0
LINE
  5
C5
330
1F
100
AcDbEntity
  8
F-1
  6
JWW_DASHED1
 62
     7
370
     9
100
AcDbLine
 10
5689.999162829944
 20
-821.2498281123337
 30
0.0
 11
3439.999719568202
 21
-821.2498281123337
 31
0.0
  0
LINE
  5
C6
330
1F
100
AcDbEntity
  8
F-1
  6
JWW_DASHED1
 62
     7
370
     9
100
AcDbLine
 10
5689.999162829944
 20
-977.4998381123339
 30
0.0
 11
3439.999719568202
 21
-977.4998381123339
 31
0.0
  0
LINE
  5
C7
330
1F
100
AcDbEntity
  8
F-1
  6
JWW_DASHED1
 62
     7
370
     9
100
AcDbLine
 10
5689.999162829944
 20
-1602.499878112333
 30
0.0
 11
3439.999719568202
 21
-1602.499878112333
 31
0.0
  0
LINE
  5
C8
330
1F
100
AcDbEntity
  8
F-1
  6
JWW_DASHED1
 62
     7
370
     9
100
AcDbLine
 10
5689.999162829944
 20
-2383.749928112335
 30
0.0
 11
3439.999719568202
 21
-2383.749928112335
 31
0.0
  0
LINE
  5
C9
330
1F
100
AcDbEntity
  8
F-1
  6
JWW_DASHED1
 62
     7
370
     9
100
AcDbLine
 10
5689.999162829944
 20
-1758.749888112334
 30
0.0
 11
3439.999719568202
 21
-1758.749888112334
 31
0.0
  0
LINE
  5
CA
330
1F
100
AcDbEntity
  8
F-1
  6
JWW_DASHED1
 62
     7
370
     9
100
AcDbLine
 10
5689.999162829944
 20
-1914.999898112334
 30
0.0
 11
3439.999719568202
 21
-1914.999898112334
 31
0.0
  0
LINE
  5
CB
330
1F
100
AcDbEntity
  8
F-1
  6
JWW_DASHED1
 62
     7
370
     9
100
AcDbLine
 10
5689.999162829944
 20
-2071.249908112334
 30
0.0
 11
3439.999719568202
 21
-2071.249908112334
 31
0.0
  0
LINE
  5
CC
330
1F
100
AcDbEntity
  8
F-1
  6
JWW_DASHED1
 62
     7
370
     9
100
AcDbLine
 10
5689.999162829944
 20
-2227.499918112334
 30
0.0
 11
3439.999719568202
 21
-2227.499918112334
 31
0.0
  0
LINE
  5
CD
330
1F
100
AcDbEntity
  8
F-1
  6
JWW_DASHED1
 62
     7
370
     9
100
AcDbLine
 10
5689.999162829944
 20
-2852.499958112334
 30
0.0
 11
3439.999719568202
 21
-2852.499958112334
 31
0.0
  0
LINE
  5
CE
330
1F
100
AcDbEntity
  8
F-1
  6
JWW_DASHED1
 62
     7
370
     9
100
AcDbLine
 10
5689.999162829944
 20
-3008.749968112334
 30
0.0
 11
3439.999719568202
 21
-3008.749968112334
 31
0.0
  0
LINE
  5
CF
330
1F
100
AcDbEntity
  8
F-1
  6
JWW_DASHED1
 62
     7
370
     9
100
AcDbLine
 10
5689.999162829944
 20
-3164.999978112334
 30
0.0
 11
3439.999719568202
 21
-3164.999978112334
 31
0.0
  0
LINE
  5
D0
330
1F
100
AcDbEntity
  8
F-1
  6
JWW_DASHED1
 62
     7
370
     9
100
AcDbLine
 10
5689.999162829944
 20
-3321.249988112334
 30
0.0
 11
3439.999719568202
 21
-3321.249988112334
 31
0.0
  0
LINE
  5
D1
330
1F
100
AcDbEntity
  8
F-1
  6
JWW_DASHED1
 62
     7
370
     9
100
AcDbLine
 10
5689.999162829944
 20
-3477.499998112335
 30
0.0
 11
3439.999719568202
 21
-3477.499998112335
 31
0.0
  0
LINE
  5
D2
330
1F
100
AcDbEntity
  8
0-B
  6
Continuous
 62
   120
370
     5
100
AcDbLine
 10
-4123.516574175316
 20
3439.21881807455
 30
0.0
 11
-2698.516574175314
 21
3439.21881807455
 31
0.0
  0
LWPOLYLINE
  5
D3
330
1F
100
AcDbEntity
  8
0-B
  6
Continuous
 62
     7
370
     9
100
AcDbPolyline
 90
        4
 70
     1
 43
3.0
 10
-4122.016574175315
 20
3439.21881807455
 42
0.4142135623731
 10
-4123.516574175316
 20
3440.718818074549
 42
0.4142135623731
 10
-4125.016574175316
 20
3439.21881807455
 42
0.4142135623731
 10
-4123.516574175316
 20
3437.71881807455
 42
0.4142135623731
  0
LWPOLYLINE
  5
D4
330
1F
100
AcDbEntity
  8
0-B
  6
Continuous
 62
     7
370
     9
100
AcDbPolyline
 90
        4
 70
     1
 43
3.0
 10
-2697.016574175314
 20
3439.21881807455
 42
0.4142135623731
 10
-2698.516574175314
 20
3440.718818074549
 42
0.4142135623731
 10
-2700.016574175314
 20
3439.21881807455
 42
0.4142135623731
 10
-2698.516574175314
 20
3437.71881807455
 42
0.4142135623731
  0
LINE
  5
D5
330
1F
100
AcDbEntity
  8
0-B
  6
Continuous
 62
   120
370
     5
100
AcDbLine
 10
-4123.516574175316
 20
3439.21881807455
 30
0.0
 11
-4123.516574175316
 21
3364.21881807455
 31
0.0
  0
LINE
  5
D6
330
1F
100
AcDbEntity
  8
0-B
  6
Continuous
 62
   120
370
     5
100
AcDbLine
 10
-2698.516574175314
 20
3439.21881807455
 30
0.0
 11
-2698.516574175314
 21
3364.21881807455
 31
0.0
  0
LINE
  5
D7
330
1F
100
AcDbEntity
  8
0-B
  6
Continuous
 62
   120
370
     5
100
AcDbLine
 10
-4273.516574175316
 20
3289.21881807455
 30
0.0
 11
-4273.516574175316
 21
3109.21881807455
 31
0.0
  0
LWPOLYLINE
  5
D8
330
1F
100
AcDbEntity
  8
0-B
  6
Continuous
 62
     7
370
     9
100
AcDbPolyline
 90
        4
 70
     1
 43
3.0
 10
-4272.016574175315
 20
3289.21881807455
 42
0.4142135623731
 10
-4273.516574175316
 20
3290.718818074549
 42
0.4142135623731
 10
-4275.016574175316
 20
3289.21881807455
 42
0.4142135623731
 10
-4273.516574175316
 20
3287.71881807455
 42
0.4142135623731
  0
LWPOLYLINE
  5
D9
330
1F
100
AcDbEntity
  8
0-B
  6
Continuous
 62
     7
370
     9
100
AcDbPolyline
 90
        4
 70
     1
 43
3.0
 10
-4272.016574175315
 20
3109.21881807455
 42
0.4142135623731
 10
-4273.516574175316
 20
3110.718818074549
 42
0.4142135623731
 10
-4275.016574175316
 20
3109.21881807455
 42
0.4142135623731
 10
-4273.516574175316
 20
3107.71881807455
 42
0.4142135623731
  0
LINE
  5
DA
330
1F
100
AcDbEntity
  8
0-B
  6
Continuous
 62
   120
370
     5
100
AcDbLine
 10
-4273.516574175316
 20
3289.21881807455
 30
0.0
 11
-4198.516574175316
 21
3289.21881807455
 31
0.0
  0
LINE
  5
DB
330
1F
100
AcDbEntity
  8
0-B
  6
Continuous
 62
   120
370
     5
100
AcDbLine
 10
-4273.516574175316
 20
3109.21881807455
 30
0.0
 11
-4198.516574175316
 21
3109.21881807455
 31
0.0
  0
LINE
  5
DC
330
1F
100
AcDbEntity
  8
0-B
  6
Continuous
 62
   120
370
     5
100
AcDbLine
 10
-2443.516574175314
 20
3289.21881807455
 30
0.0
 11
-2443.516574175314
 21
2749.21881807455
 31
0.0
  0
LWPOLYLINE
  5
DD
330
1F
100
AcDbEntity
  8
0-B
  6
Continuous
 62
     7
370
     9
100
AcDbPolyline
 90
        4
 70
     1
 43
3.0
 10
-2442.016574175314
 20
3289.21881807455
 42
0.4142135623731
 10
-2443.516574175314
 20
3290.718818074549
 42
0.4142135623731
 10
-2445.016574175314
 20
3289.21881807455
 42
0.4142135623731
 10
-2443.516574175314
 20
3287.71881807455
 42
0.4142135623731
  0
LWPOLYLINE
  5
DE
330
1F
100
AcDbEntity
  8
0-B
  6
Continuous
 62
     7
370
     9
100
AcDbPolyline
 90
        4
 70
     1
 43
3.0
 10
-2442.016574175314
 20
2749.21881807455
 42
0.4142135623731
 10
-2443.516574175314
 20
2750.718818074549
 42
0.4142135623731
 10
-2445.016574175314
 20
2749.21881807455
 42
0.4142135623731
 10
-2443.516574175314
 20
2747.71881807455
 42
0.4142135623731
  0
LINE
  5
DF
330
1F
100
AcDbEntity
  8
0-B
  6
Continuous
 62
   120
370
     5
100
AcDbLine
 10
-2878.516574175314
 20
2599.21881807455
 30
0.0
 11
-2698.516574175314
 21
2599.21881807455
 31
0.0
  0
LWPOLYLINE
  5
E0
330
1F
100
AcDbEntity
  8
0-B
  6
Continuous
 62
     7
370
     9
100
AcDbPolyline
 90
        4
 70
     1
 43
3.0
 10
-2877.016574175314
 20
2599.21881807455
 42
0.4142135623731
 10
-2878.516574175314
 20
2600.718818074549
 42
0.4142135623731
 10
-2880.016574175314
 20
2599.21881807455
 42
0.4142135623731
 10
-2878.516574175314
 20
2597.71881807455
 42
0.4142135623731
  0
LWPOLYLINE
  5
E1
330
1F
100
AcDbEntity
  8
0-B
  6
Continuous
 62
     7
370
     9
100
AcDbPolyline
 90
        4
 70
     1
 43
3.0
 10
-2697.016574175314
 20
2599.21881807455
 42
0.4142135623731
 10
-2698.516574175314
 20
2600.718818074549
 42
0.4142135623731
 10
-2700.016574175314
 20
2599.21881807455
 42
0.4142135623731
 10
-2698.516574175314
 20
2597.71881807455
 42
0.4142135623731
  0
LINE
  5
E2
330
1F
100
AcDbEntity
  8
0-B
  6
Continuous
 62
   120
370
     5
100
AcDbLine
 10
-2878.516574175314
 20
2599.21881807455
 30
0.0
 11
-2878.516574175314
 21
2674.21881807455
 31
0.0
  0
LINE
  5
E3
330
1F
100
AcDbEntity
  8
0-B
  6
Continuous
 62
   120
370
     5
100
AcDbLine
 10
-2698.516574175314
 20
2599.21881807455
 30
0.0
 11
-2698.516574175314
 21
2674.21881807455
 31
0.0
  0
LWPOLYLINE
  5
E4
330
1F
100
AcDbEntity
  8
0-B
  6
Continuous
 62
     7
370
     9
100
AcDbPolyline
 90
        4
 70
     1
 43
3.0
 10
-2697.016574175314
 20
977.928878715997
 42
0.4142135623731
 10
-2698.516574175314
 20
979.4288787159969
 42
0.4142135623731
 10
-2700.016574175314
 20
977.928878715997
 42
0.4142135623731
 10
-2698.516574175314
 20
976.4288787159971
 42
0.4142135623731
  0
LINE
  5
E5
330
1F
100
AcDbEntity
  8
0-B
  6
Continuous
 62
   120
370
     5
100
AcDbLine
 10
-2698.516574175314
 20
977.928878715997
 30
0.0
 11
-2698.516574175314
 21
902.928878715997
 31
0.0
  0
LINE
  5
E6
330
1F
100
AcDbEntity
  8
0-B
  6
Continuous
 62
   120
370
     5
100
AcDbLine
 10
-2443.516574175314
 20
827.928878715997
 30
0.0
 11
-2443.516574175314
 21
287.928878715997
 31
0.0
  0
LWPOLYLINE
  5
E7
330
1F
100
AcDbEntity
  8
0-B
  6
Continuous
 62
     7
370
     9
100
AcDbPolyline
 90
        4
 70
     1
 43
3.0
 10
-2442.016574175314
 20
827.928878715997
 42
0.4142135623731
 10
-2443.516574175314
 20
829.428878715997
 42
0.4142135623731
 10
-2445.016574175314
 20
827.928878715997
 42
0.4142135623731
 10
-2443.516574175314
 20
826.428878715997
 42
0.4142135623731
  0
LWPOLYLINE
  5
E8
330
1F
100
AcDbEntity
  8
0-B
  6
Continuous
 62
     7
370
     9
100
AcDbPolyline
 90
        4
 70
     1
 43
3.0
 10
-2442.016574175314
 20
287.928878715997
 42
0.4142135623731
 10
-2443.516574175314
 20
289.428878715997
 42
0.4142135623731
 10
-2445.016574175314
 20
287.928878715997
 42
0.4142135623731
 10
-2443.516574175314
 20
286.428878715997
 42
0.4142135623731
  0
LINE
  5
E9
330
1F
100
AcDbEntity
  8
0-B
  6
Continuous
 62
   120
370
     5
100
AcDbLine
 10
-2878.516574175314
 20
137.928878715997
 30
0.0
 11
-2698.516574175314
 21
137.928878715997
 31
0.0
  0
LWPOLYLINE
  5
EA
330
1F
100
AcDbEntity
  8
0-B
  6
Continuous
 62
     7
370
     9
100
AcDbPolyline
 90
        4
 70
     1
 43
3.0
 10
-2877.016574175314
 20
137.928878715997
 42
0.4142135623731
 10
-2878.516574175314
 20
139.428878715997
 42
0.4142135623731
 10
-2880.016574175314
 20
137.928878715997
 42
0.4142135623731
 10
-2878.516574175314
 20
136.428878715997
 42
0.4142135623731
  0
LWPOLYLINE
  5
EB
330
1F
100
AcDbEntity
  8
0-B
  6
Continuous
 62
     7
370
     9
100
AcDbPolyline
 90
        4
 70
     1
 43
3.0
 10
-2697.016574175314
 20
137.928878715997
 42
0.4142135623731
 10
-2698.516574175314
 20
139.428878715997
 42
0.4142135623731
 10
-2700.016574175314
 20
137.928878715997
 42
0.4142135623731
 10
-2698.516574175314
 20
136.428878715997
 42
0.4142135623731
  0
LINE
  5
EC
330
1F
100
AcDbEntity
  8
0-B
  6
Continuous
 62
   120
370
     5
100
AcDbLine
 10
-2878.516574175314
 20
137.928878715997
 30
0.0
 11
-2878.516574175314
 21
212.928878715997
 31
0.0
  0
LINE
  5
ED
330
1F
100
AcDbEntity
  8
0-B
  6
Continuous
 62
   120
370
     5
100
AcDbLine
 10
-2698.516574175314
 20
137.928878715997
 30
0.0
 11
-2698.516574175314
 21
212.928878715997
 31
0.0
  0
LINE
  5
EE
330
1F
100
AcDbEntity
  8
0-B
  6
Continuous
 62
   120
370
     5
100
AcDbLine
 10
-2443.516574175314
 20
2083.263973546303
 30
0.0
 11
-2443.516574175314
 21
1543.263973546302
 31
0.0
  0
LWPOLYLINE
  5
EF
330
1F
100
AcDbEntity
  8
0-B
  6
Continuous
 62
     7
370
     9
100
AcDbPolyline
 90
        4
 70
     1
 43
3.0
 10
-2442.016574175314
 20
2083.263973546303
 42
0.4142135623731
 10
-2443.516574175314
 20
2084.763973546302
 42
0.4142135623731
 10
-2445.016574175314
 20
2083.263973546303
 42
0.4142135623731
 10
-2443.516574175314
 20
2081.763973546303
 42
0.4142135623731
  0
LWPOLYLINE
  5
F0
330
1F
100
AcDbEntity
  8
0-B
  6
Continuous
 62
     7
370
     9
100
AcDbPolyline
 90
        4
 70
     1
 43
3.0
 10
-2442.016574175314
 20
1543.263973546302
 42
0.4142135623731
 10
-2443.516574175314
 20
1544.763973546302
 42
0.4142135623731
 10
-2445.016574175314
 20
1543.263973546302
 42
0.4142135623731
 10
-2443.516574175314
 20
1541.763973546303
 42
0.4142135623731
  0
LINE
  5
F1
330
1F
100
AcDbEntity
  8
0-B
  6
Continuous
 62
   120
370
     5
100
AcDbLine
 10
-4063.516574175316
 20
2233.263973546303
 30
0.0
 11
-2698.516574175314
 21
2233.263973546303
 31
0.0
  0
LWPOLYLINE
  5
F2
330
1F
100
AcDbEntity
  8
0-B
  6
Continuous
 62
     7
370
     9
100
AcDbPolyline
 90
        4
 70
     1
 43
3.0
 10
-4062.016574175316
 20
2233.263973546303
 42
0.4142135623731
 10
-4063.516574175316
 20
2234.763973546302
 42
0.4142135623731
 10
-4065.016574175316
 20
2233.263973546303
 42
0.4142135623731
 10
-4063.516574175316
 20
2231.763973546303
 42
0.4142135623731
  0
LWPOLYLINE
  5
F3
330
1F
100
AcDbEntity
  8
0-B
  6
Continuous
 62
     7
370
     9
100
AcDbPolyline
 90
        4
 70
     1
 43
3.0
 10
-2697.016574175314
 20
2233.263973546303
 42
0.4142135623731
 10
-2698.516574175314
 20
2234.763973546302
 42
0.4142135623731
 10
-2700.016574175314
 20
2233.263973546303
 42
0.4142135623731
 10
-2698.516574175314
 20
2231.763973546303
 42
0.4142135623731
  0
LINE
  5
F4
330
1F
100
AcDbEntity
  8
0-B
  6
Continuous
 62
   120
370
     5
100
AcDbLine
 10
-4063.516574175316
 20
2233.263973546303
 30
0.0
 11
-4063.516574175316
 21
2158.263973546303
 31
0.0
  0
LINE
  5
F5
330
1F
100
AcDbEntity
  8
0-B
  6
Continuous
 62
   120
370
     5
100
AcDbLine
 10
-2698.516574175314
 20
2233.263973546303
 30
0.0
 11
-2698.516574175314
 21
2158.263973546303
 31
0.0
  0
LINE
  5
F6
330
1F
100
AcDbEntity
  8
0-B
  6
Continuous
 62
   120
370
     5
100
AcDbLine
 10
-2818.516574175314
 20
1393.263973546302
 30
0.0
 11
-2698.516574175314
 21
1393.263973546302
 31
0.0
  0
LWPOLYLINE
  5
F7
330
1F
100
AcDbEntity
  8
0-B
  6
Continuous
 62
     7
370
     9
100
AcDbPolyline
 90
        4
 70
     1
 43
3.0
 10
-2817.016574175314
 20
1393.263973546302
 42
0.4142135623731
 10
-2818.516574175314
 20
1394.763973546302
 42
0.4142135623731
 10
-2820.016574175314
 20
1393.263973546302
 42
0.4142135623731
 10
-2818.516574175314
 20
1391.763973546303
 42
0.4142135623731
  0
LWPOLYLINE
  5
F8
330
1F
100
AcDbEntity
  8
0-B
  6
Continuous
 62
     7
370
     9
100
AcDbPolyline
 90
        4
 70
     1
 43
3.0
 10
-2697.016574175314
 20
1393.263973546302
 42
0.4142135623731
 10
-2698.516574175314
 20
1394.763973546302
 42
0.4142135623731
 10
-2700.016574175314
 20
1393.263973546302
 42
0.4142135623731
 10
-2698.516574175314
 20
1391.763973546303
 42
0.4142135623731
  0
LINE
  5
F9
330
1F
100
AcDbEntity
  8
0-B
  6
Continuous
 62
   120
370
     5
100
AcDbLine
 10
-2818.516574175314
 20
1393.263973546302
 30
0.0
 11
-2818.516574175314
 21
1468.263973546302
 31
0.0
  0
LINE
  5
FA
330
1F
100
AcDbEntity
  8
0-B
  6
Continuous
 62
   120
370
     5
100
AcDbLine
 10
-2698.516574175314
 20
1393.263973546302
 30
0.0
 11
-2698.516574175314
 21
1468.263973546302
 31
0.0
  0
LINE
  5
FB
330
1F
100
AcDbEntity
  8
0-B
  6
Continuous
 62
   120
370
     5
100
AcDbLine
 10
-4213.516574175316
 20
2083.263973546303
 30
0.0
 11
-4213.516574175316
 21
1903.263973546302
 31
0.0
  0
LWPOLYLINE
  5
FC
330
1F
100
AcDbEntity
  8
0-B
  6
Continuous
 62
     7
370
     9
100
AcDbPolyline
 90
        4
 70
     1
 43
3.0
 10
-4212.016574175315
 20
2083.263973546303
 42
0.4142135623731
 10
-4213.516574175316
 20
2084.763973546302
 42
0.4142135623731
 10
-4215.016574175316
 20
2083.263973546303
 42
0.4142135623731
 10
-4213.516574175316
 20
2081.763973546303
 42
0.4142135623731
  0
LWPOLYLINE
  5
FD
330
1F
100
AcDbEntity
  8
0-B
  6
Continuous
 62
     7
370
     9
100
AcDbPolyline
 90
        4
 70
     1
 43
3.0
 10
-4212.016574175315
 20
1903.263973546302
 42
0.4142135623731
 10
-4213.516574175316
 20
1904.763973546302
 42
0.4142135623731
 10
-4215.016574175316
 20
1903.263973546302
 42
0.4142135623731
 10
-4213.516574175316
 20
1901.763973546303
 42
0.4142135623731
  0
LINE
  5
FE
330
1F
100
AcDbEntity
  8
0-B
  6
Continuous
 62
   120
370
     5
100
AcDbLine
 10
-4213.516574175316
 20
2083.263973546303
 30
0.0
 11
-4138.516574175316
 21
2083.263973546303
 31
0.0
  0
LINE
  5
FF
330
1F
100
AcDbEntity
  8
0-B
  6
Continuous
 62
   120
370
     5
100
AcDbLine
 10
-4213.516574175316
 20
1903.263973546302
 30
0.0
 11
-4138.516574175316
 21
1903.263973546302
 31
0.0
  0
LINE
  5
100
330
1F
100
AcDbEntity
  8
0-B
  6
Continuous
 62
   120
370
     5
100
AcDbLine
 10
-2700.29057723601
 20
2102.703173921206
 30
0.0
 11
-2679.077373800413
 21
2081.489970485609
 31
0.0
  0
LWPOLYLINE
  5
101
330
1F
100
AcDbEntity
  8
0-B
  6
Continuous
 62
     7
370
     9
100
AcDbPolyline
 90
        4
 70
     1
 43
3.0
 10
-2698.79057723601
 20
2102.703173921206
 42
0.4142135623731
 10
-2700.29057723601
 20
2104.203173921206
 42
0.4142135623731
 10
-2701.79057723601
 20
2102.703173921206
 42
0.4142135623731
 10
-2700.29057723601
 20
2101.203173921206
 42
0.4142135623731
  0
LWPOLYLINE
  5
102
330
1F
100
AcDbEntity
  8
0-B
  6
Continuous
 62
     7
370
     9
100
AcDbPolyline
 90
        4
 70
     1
 43
3.0
 10
-2677.577373800413
 20
2081.489970485609
 42
0.4142135623731
 10
-2679.077373800413
 20
2082.989970485609
 42
0.4142135623731
 10
-2680.577373800413
 20
2081.489970485609
 42
0.4142135623731
 10
-2679.077373800413
 20
2079.989970485609
 42
0.4142135623731
  0
LINE
  5
103
330
1F
100
AcDbEntity
  8
0-B
  6
Continuous
 62
   120
370
     5
100
AcDbLine
 10
-2700.29057723601
 20
2102.703173921206
 30
0.0
 11
-2656.090167304123
 21
2146.903583853091
 31
0.0
  0
LINE
  5
104
330
1F
100
AcDbEntity
  8
0-B
  6
Continuous
 62
   120
370
     5
100
AcDbLine
 10
-2679.077373800413
 20
2081.489970485609
 30
0.0
 11
-2634.876963868526
 21
2125.690380417495
 31
0.0
  0
LINE
  5
105
330
1F
100
AcDbEntity
  8
0-B
  6
Continuous
 62
   120
370
     5
100
AcDbLine
 10
-2443.516574175314
 20
2083.263973546303
 30
0.0
 11
-2623.516574175314
 21
2083.263973546303
 31
0.0
  0
LINE
  5
106
330
1F
100
AcDbEntity
  8
0-B
  6
Continuous
 62
   120
370
     5
100
AcDbLine
 10
-2443.516574175314
 20
1543.263973546302
 30
0.0
 11
-2623.516574175314
 21
1543.263973546302
 31
0.0
  0
LWPOLYLINE
  5
107
330
1F
100
AcDbEntity
  8
0-B
  6
Continuous
 62
     7
370
     9
100
AcDbPolyline
 90
        4
 70
     1
 43
3.0
 10
-2697.016574175314
 20
-253.0794098083283
 42
0.4142135623731
 10
-2698.516574175314
 20
-251.5794098083282
 42
0.4142135623731
 10
-2700.016574175314
 20
-253.0794098083283
 42
0.4142135623731
 10
-2698.516574175314
 20
-254.5794098083283
 42
0.4142135623731
  0
LINE
  5
108
330
1F
100
AcDbEntity
  8
0-B
  6
Continuous
 62
   120
370
     5
100
AcDbLine
 10
-2698.516574175314
 20
-253.0794098083283
 30
0.0
 11
-2698.516574175314
 21
-328.0794098083283
 31
0.0
  0
LINE
  5
109
330
1F
100
AcDbEntity
  8
0-B
  6
Continuous
 62
   120
370
     5
100
AcDbLine
 10
-2818.516574175314
 20
-1093.079409808328
 30
0.0
 11
-2698.516574175314
 21
-1093.079409808328
 31
0.0
  0
LWPOLYLINE
  5
10A
330
1F
100
AcDbEntity
  8
0-B
  6
Continuous
 62
     7
370
     9
100
AcDbPolyline
 90
        4
 70
     1
 43
3.0
 10
-2817.016574175314
 20
-1093.079409808328
 42
0.4142135623731
 10
-2818.516574175314
 20
-1091.579409808328
 42
0.4142135623731
 10
-2820.016574175314
 20
-1093.079409808328
 42
0.4142135623731
 10
-2818.516574175314
 20
-1094.579409808328
 42
0.4142135623731
  0
LWPOLYLINE
  5
10B
330
1F
100
AcDbEntity
  8
0-B
  6
Continuous
 62
     7
370
     9
100
AcDbPolyline
 90
        4
 70
     1
 43
3.0
 10
-2697.016574175314
 20
-1093.079409808328
 42
0.4142135623731
 10
-2698.516574175314
 20
-1091.579409808328
 42
0.4142135623731
 10
-2700.016574175314
 20
-1093.079409808328
 42
0.4142135623731
 10
-2698.516574175314
 20
-1094.579409808328
 42
0.4142135623731
  0
LINE
  5
10C
330
1F
100
AcDbEntity
  8
0-B
  6
Continuous
 62
   120
370
     5
100
AcDbLine
 10
-2818.516574175314
 20
-1093.079409808328
 30
0.0
 11
-2818.516574175314
 21
-1018.079409808328
 31
0.0
  0
LINE
  5
10D
330
1F
100
AcDbEntity
  8
0-B
  6
Continuous
 62
   120
370
     5
100
AcDbLine
 10
-2698.516574175314
 20
-1093.079409808328
 30
0.0
 11
-2698.516574175314
 21
-1018.079409808328
 31
0.0
  0
LINE
  5
10E
330
1F
100
AcDbEntity
  8
0-B
  6
Continuous
 62
   120
370
     5
100
AcDbLine
 10
-2699.09792481975
 20
-382.4475570171677
 30
0.0
 11
-2677.884721384154
 21
-403.6607604527634
 31
0.0
  0
LWPOLYLINE
  5
10F
330
1F
100
AcDbEntity
  8
0-B
  6
Continuous
 62
     7
370
     9
100
AcDbPolyline
 90
        4
 70
     1
 43
3.0
 10
-2697.59792481975
 20
-382.4475570171677
 42
0.4142135623731
 10
-2699.09792481975
 20
-380.9475570171677
 42
0.4142135623731
 10
-2700.59792481975
 20
-382.4475570171677
 42
0.4142135623731
 10
-2699.09792481975
 20
-383.9475570171677
 42
0.4142135623731
  0
LWPOLYLINE
  5
110
330
1F
100
AcDbEntity
  8
0-B
  6
Continuous
 62
     7
370
     9
100
AcDbPolyline
 90
        4
 70
     1
 43
3.0
 10
-2676.384721384154
 20
-403.6607604527634
 42
0.4142135623731
 10
-2677.884721384154
 20
-402.1607604527634
 42
0.4142135623731
 10
-2679.384721384154
 20
-403.6607604527634
 42
0.4142135623731
 10
-2677.884721384154
 20
-405.1607604527634
 42
0.4142135623731
  0
LINE
  5
111
330
1F
100
AcDbEntity
  8
0-B
  6
Continuous
 62
   120
370
     5
100
AcDbLine
 10
-2699.09792481975
 20
-382.4475570171677
 30
0.0
 11
-2656.090167304123
 21
-339.4397995015393
 31
0.0
  0
LINE
  5
112
330
1F
100
AcDbEntity
  8
0-B
  6
Continuous
 62
   120
370
     5
100
AcDbLine
 10
-2677.884721384154
 20
-403.6607604527634
 30
0.0
 11
-2634.876963868526
 21
-360.6530029371351
 31
0.0
  0
LINE
  5
113
330
1F
100
AcDbEntity
  8
0-B
  6
Continuous
 62
   120
370
     5
100
AcDbLine
 10
-2443.516574175314
 20
-403.0794098083283
 30
0.0
 11
-2443.516574175314
 21
-943.0794098083283
 31
0.0
  0
LWPOLYLINE
  5
114
330
1F
100
AcDbEntity
  8
0-B
  6
Continuous
 62
     7
370
     9
100
AcDbPolyline
 90
        4
 70
     1
 43
3.0
 10
-2442.016574175314
 20
-403.0794098083283
 42
0.4142135623731
 10
-2443.516574175314
 20
-401.5794098083283
 42
0.4142135623731
 10
-2445.016574175314
 20
-403.0794098083283
 42
0.4142135623731
 10
-2443.516574175314
 20
-404.5794098083283
 42
0.4142135623731
  0
LWPOLYLINE
  5
115
330
1F
100
AcDbEntity
  8
0-B
  6
Continuous
 62
     7
370
     9
100
AcDbPolyline
 90
        4
 70
     1
 43
3.0
 10
-2442.016574175314
 20
-943.0794098083283
 42
0.4142135623731
 10
-2443.516574175314
 20
-941.5794098083283
 42
0.4142135623731
 10
-2445.016574175314
 20
-943.0794098083283
 42
0.4142135623731
 10
-2443.516574175314
 20
-944.5794098083283
 42
0.4142135623731
  0
LINE
  5
116
330
1F
100
AcDbEntity
  8
0-B
  6
Continuous
 62
   120
370
     5
100
AcDbLine
 10
-2443.516574175314
 20
-403.0794098083283
 30
0.0
 11
-2623.516574175314
 21
-403.0794098083283
 31
0.0
  0
LINE
  5
117
330
1F
100
AcDbEntity
  8
0-B
  6
Continuous
 62
   120
370
     5
100
AcDbLine
 10
-2443.516574175314
 20
-943.0794098083283
 30
0.0
 11
-2623.516574175314
 21
-943.0794098083283
 31
0.0
  0
LINE
  5
118
330
1F
100
AcDbEntity
  8
0-0
  6
JWW_HOJO
 62
   120
370
     5
100
AcDbLine
 10
-4198.516574175316
 20
3364.21881807455
 30
0.0
 11
-4198.516574175316
 21
3109.21881807455
 31
0.0
  0
LINE
  5
119
330
1F
100
AcDbEntity
  8
0-0
  6
JWW_HOJO
 62
   120
370
     5
100
AcDbLine
 10
-4273.516574175316
 20
3439.21881807455
 30
0.0
 11
-4273.516574175316
 21
3109.21881807455
 31
0.0
  0
LINE
  5
11A
330
1F
100
AcDbEntity
  8
0-0
  6
JWW_HOJO
 62
   120
370
     5
100
AcDbLine
 10
-4123.516574175316
 20
3109.21881807455
 30
0.0
 11
-4273.516574175316
 21
3109.21881807455
 31
0.0
  0
LINE
  5
11B
330
1F
100
AcDbEntity
  8
0-0
  6
JWW_HOJO
 62
   120
370
     5
100
AcDbLine
 10
-2698.516574175314
 20
2749.21881807455
 30
0.0
 11
-2443.516574175314
 21
2749.21881807455
 31
0.0
  0
LINE
  5
11C
330
1F
100
AcDbEntity
  8
0-0
  6
JWW_HOJO
 62
   120
370
     5
100
AcDbLine
 10
-2878.516574175314
 20
2749.21881807455
 30
0.0
 11
-2878.516574175314
 21
2599.21881807455
 31
0.0
  0
LINE
  5
11D
330
1F
100
AcDbEntity
  8
0-0
  6
JWW_HOJO
 62
   120
370
     5
100
AcDbLine
 10
-2698.516574175314
 20
287.928878715997
 30
0.0
 11
-2443.516574175314
 21
287.928878715997
 31
0.0
  0
LINE
  5
11E
330
1F
100
AcDbEntity
  8
0-0
  6
JWW_HOJO
 62
   120
370
     5
100
AcDbLine
 10
-2878.516574175314
 20
287.928878715997
 30
0.0
 11
-2878.516574175314
 21
137.928878715997
 31
0.0
  0
LINE
  5
11F
330
1F
100
AcDbEntity
  8
0-0
  6
JWW_HOJO
 62
   120
370
     5
100
AcDbLine
 10
-2443.516574175314
 20
1393.263973546302
 30
0.0
 11
-2443.516574175314
 21
2233.263973546303
 31
0.0
  0
LINE
  5
120
330
1F
100
AcDbEntity
  8
0-0
  6
JWW_HOJO
 62
   120
370
     5
100
AcDbLine
 10
-2818.516574175314
 20
1543.263973546302
 30
0.0
 11
-2818.516574175314
 21
1393.263973546302
 31
0.0
  0
LINE
  5
121
330
1F
100
AcDbEntity
  8
0-0
  6
JWW_HOJO
 62
   120
370
     5
100
AcDbLine
 10
-4063.516574175314
 20
1903.263973546302
 30
0.0
 11
-4213.516574175314
 21
1903.263973546302
 31
0.0
  0
LINE
  5
122
330
1F
100
AcDbEntity
  8
0-0
  6
JWW_HOJO
 62
   120
370
     5
100
AcDbLine
 10
-2623.516574175314
 20
1468.263973546302
 30
0.0
 11
-2818.516574175314
 21
1468.263973546302
 31
0.0
  0
LINE
  5
123
330
1F
100
AcDbEntity
  8
0-0
  6
JWW_HOJO
 62
   120
370
     5
100
AcDbLine
 10
-2623.516574175314
 20
1468.263973546302
 30
0.0
 11
-2623.516574175314
 21
2158.263973546303
 31
0.0
  0
LINE
  5
124
330
1F
100
AcDbEntity
  8
0-0
  6
JWW_HOJO
 62
   120
370
     5
100
AcDbLine
 10
-4213.516574175314
 20
2233.263973546303
 30
0.0
 11
-4213.516574175314
 21
1903.263973546302
 31
0.0
  0
LINE
  5
125
330
1F
100
AcDbEntity
  8
0-0
  6
JWW_HOJO
 62
   120
370
     5
100
AcDbLine
 10
-4138.516574175314
 20
2158.263973546303
 30
0.0
 11
-2623.516574175314
 21
2158.263973546303
 31
0.0
  0
LINE
  5
126
330
1F
100
AcDbEntity
  8
0-0
  6
JWW_HOJO
 62
   120
370
     5
100
AcDbLine
 10
-4138.516574175314
 20
2158.263973546303
 30
0.0
 11
-4138.516574175314
 21
1903.263973546302
 31
0.0
  0
LINE
  5
127
330
1F
100
AcDbEntity
  8
0-0
  6
JWW_HOJO
 62
   120
370
     5
100
AcDbLine
 10
-2443.516574175314
 20
1393.263973546302
 30
0.0
 11
-2818.516574175314
 21
1393.263973546302
 31
0.0
  0
LINE
  5
128
330
1F
100
AcDbEntity
  8
0-0
  6
JWW_HOJO
 62
   120
370
     5
100
AcDbLine
 10
-4213.516574175314
 20
2233.263973546303
 30
0.0
 11
-2443.516574175314
 21
2233.263973546303
 31
0.0
  0
LINE
  5
129
330
1F
100
AcDbEntity
  8
0-0
  6
JWW_HOJO
 62
   120
370
     5
100
AcDbLine
 10
-2818.516574175314
 20
-943.0794098083283
 30
0.0
 11
-2818.516574175314
 21
-1093.079409808328
 31
0.0
  0
LINE
  5
12A
330
1F
100
AcDbEntity
  8
0-0
  6
JWW_HOJO
 62
   120
370
     5
100
AcDbLine
 10
-2623.516574175314
 20
-1018.079409808328
 30
0.0
 11
-2818.516574175314
 21
-1018.079409808328
 31
0.0
  0
LINE
  5
12B
330
1F
100
AcDbEntity
  8
0-0
  6
JWW_HOJO
 62
   120
370
     5
100
AcDbLine
 10
-2623.516574175314
 20
-1018.079409808328
 30
0.0
 11
-2623.516574175314
 21
-328.0794098083283
 31
0.0
  0
LINE
  5
12C
330
1F
100
AcDbEntity
  8
0-0
  6
JWW_HOJO
 62
   120
370
     5
100
AcDbLine
 10
-2443.516574175314
 20
-1093.079409808328
 30
0.0
 11
-2818.516574175314
 21
-1093.079409808328
 31
0.0
  0
LINE
  5
12D
330
1F
100
AcDbEntity
  8
0-0
  6
JWW_HOJO
 62
   120
370
     5
100
AcDbLine
 10
-2443.516574175314
 20
-1093.079409808328
 30
0.0
 11
-2443.516574175314
 21
-253.0794098083283
 31
0.0
  0
LINE
  5
12E
330
1F
100
AcDbEntity
  8
F-1
  6
JWW_DASHED1
 62
     7
370
     9
100
AcDbLine
 10
5689.999162829944
 20
1053.750291887668
 30
0.0
 11
4339.999719568202
 21
1053.750291887668
 31
0.0
  0
LINE
  5
12F
330
1F
100
AcDbEntity
  8
F-1
  6
JWW_DASHED1
 62
     7
370
     9
100
AcDbLine
 10
5689.999162829944
 20
-196.2497881123326
 30
0.0
 11
4339.999719568202
 21
-196.2497881123326
 31
0.0
  0
LINE
  5
130
330
1F
100
AcDbEntity
  8
F-1
  6
JWW_DASHED1
 62
     7
370
     9
100
AcDbLine
 10
5689.999162829944
 20
2303.750371887668
 30
0.0
 11
4339.999719568202
 21
2303.750371887668
 31
0.0
  0
LINE
  5
131
330
1F
100
AcDbEntity
  8
F-1
  6
JWW_DASHED1
 62
     7
370
     9
100
AcDbLine
 10
5689.999162829944
 20
3553.750451887668
 30
0.0
 11
4339.999719568202
 21
3553.750451887668
 31
0.0
  0
LINE
  5
132
330
1F
100
AcDbEntity
  8
F-1
  6
JWW_DASHED1
 62
     7
370
     9
100
AcDbLine
 10
-4940.000028867979
 20
2460.000381887668
 30
0.0
 11
-155.0003876543789
 21
2460.000381887668
 31
0.0
  0
LINE
  5
133
330
1F
100
AcDbEntity
  8
F-1
  6
JWW_DASHED1
 62
     7
370
     9
100
AcDbLine
 10
-4940.000028867979
 20
-39.99977811233236
 30
0.0
 11
-155.0003876543789
 21
-39.99977811233236
 31
0.0
  0
LINE
  5
134
330
1F
100
AcDbEntity
  8
F-1
  6
JWW_DASHED1
 62
     7
370
     9
100
AcDbLine
 10
-4940.000028867979
 20
-2539.999938112333
 30
0.0
 11
-155.0003876543789
 21
-2539.999938112333
 31
0.0
  0
LINE
  5
135
330
1F
100
AcDbEntity
  8
F-1
  6
JWW_DASHED1
 62
     7
370
     9
100
AcDbLine
 10
904.9995216163429
 20
-39.99977811233236
 30
0.0
 11
5689.999162829944
 21
-39.99977811233236
 31
0.0
  0
LINE
  5
136
330
1F
100
AcDbEntity
  8
F-1
  6
JWW_DASHED1
 62
     7
370
     9
100
AcDbLine
 10
904.9995216163429
 20
2460.000381887668
 30
0.0
 11
5689.999162829944
 21
2460.000381887668
 31
0.0
  0
LINE
  5
137
330
1F
100
AcDbEntity
  8
0-4
  6
Continuous
 62
    92
370
    13
100
AcDbLine
 10
-2751.549582764306
 20
3289.21881807455
 30
0.0
 11
-4123.516574175316
 21
3289.21881807455
 31
0.0
  0
LINE
  5
138
330
1F
100
AcDbEntity
  8
0-4
  6
Continuous
 62
    92
370
    13
100
AcDbLine
 10
-2698.516574175314
 20
3236.18580948556
 30
0.0
 11
-2698.516574175314
 21
2749.21881807455
 31
0.0
  0
LINE
  5
139
330
1F
100
AcDbEntity
  8
0-4
  6
Continuous
 62
    92
370
    13
100
AcDbLine
 10
-2751.549582764306
 20
3289.21881807455
 30
0.0
 11
-2698.516574175314
 21
3236.18580948556
 31
0.0
  0
LINE
  5
13A
330
1F
100
AcDbEntity
  8
0-4
  6
Continuous
 62
    92
370
    13
100
AcDbLine
 10
-4123.516574175316
 20
3281.71881807455
 30
0.0
 11
-2754.656184482104
 21
3281.71881807455
 31
0.0
  0
LINE
  5
13B
330
1F
100
AcDbEntity
  8
0-4
  6
Continuous
 62
    92
370
    13
100
AcDbLine
 10
-2754.656184482104
 20
3281.71881807455
 30
0.0
 11
-2706.016574175314
 21
3233.07920776776
 31
0.0
  0
LINE
  5
13C
330
1F
100
AcDbEntity
  8
0-4
  6
Continuous
 62
    92
370
    13
100
AcDbLine
 10
-2706.016574175314
 20
2749.21881807455
 30
0.0
 11
-2706.016574175314
 21
3233.07920776776
 31
0.0
  0
LINE
  5
13D
330
1F
100
AcDbEntity
  8
0-0
  6
JWW_HOJO
 62
   120
370
     5
100
AcDbLine
 10
-4198.516574175316
 20
3364.21881807455
 30
0.0
 11
-2720.483565586324
 21
3364.21881807455
 31
0.0
  0
LINE
  5
13E
330
1F
100
AcDbEntity
  8
0-B
  6
Continuous
 62
   120
370
     5
100
AcDbLine
 10
-2443.516574175314
 20
3289.21881807455
 30
0.0
 11
-2623.516574175314
 21
3289.21881807455
 31
0.0
  0
LINE
  5
13F
330
1F
100
AcDbEntity
  8
0-B
  6
Continuous
 62
   120
370
     5
100
AcDbLine
 10
-2443.516574175314
 20
2749.21881807455
 30
0.0
 11
-2623.516574175314
 21
2749.21881807455
 31
0.0
  0
LINE
  5
140
330
1F
100
AcDbEntity
  8
0-0
  6
JWW_HOJO
 62
   120
370
     5
100
AcDbLine
 10
-2623.516574175314
 20
2674.21881807455
 30
0.0
 11
-2878.516574175314
 21
2674.21881807455
 31
0.0
  0
LINE
  5
141
330
1F
100
AcDbEntity
  8
0-0
  6
JWW_HOJO
 62
   120
370
     5
100
AcDbLine
 10
-2548.516574175314
 20
2599.21881807455
 30
0.0
 11
-2878.516574175314
 21
2599.21881807455
 31
0.0
  0
LINE
  5
142
330
1F
100
AcDbEntity
  8
0-0
  6
JWW_HOJO
 62
   120
370
     5
100
AcDbLine
 10
-2623.516574175314
 20
2674.21881807455
 30
0.0
 11
-2623.516574175314
 21
3267.251826663541
 31
0.0
  0
LINE
  5
143
330
1F
100
AcDbEntity
  8
0-0
  6
JWW_HOJO
 62
   120
370
     5
100
AcDbLine
 10
-2720.483565586324
 20
3364.21881807455
 30
0.0
 11
-2623.516574175314
 21
3267.251826663541
 31
0.0
  0
LINE
  5
144
330
1F
100
AcDbEntity
  8
0-0
  6
JWW_HOJO
 62
   120
370
     5
100
AcDbLine
 10
-2548.516574175314
 20
2599.21881807455
 30
0.0
 11
-2548.516574175314
 21
3298.317843841523
 31
0.0
  0
LINE
  5
145
330
1F
100
AcDbEntity
  8
0-0
  6
JWW_HOJO
 62
   120
370
     5
100
AcDbLine
 10
-2689.417548408342
 20
3439.21881807455
 30
0.0
 11
-2548.516574175314
 21
3298.317843841523
 31
0.0
  0
LINE
  5
146
330
1F
100
AcDbEntity
  8
0-B
  6
Continuous
 62
   120
370
     5
100
AcDbLine
 10
-2645.483565586324
 20
3395.284835252533
 30
0.0
 11
-2592.450556997333
 21
3342.251826663541
 31
0.0
  0
LWPOLYLINE
  5
147
330
1F
100
AcDbEntity
  8
0-B
  6
Continuous
 62
     7
370
     9
100
AcDbPolyline
 90
        4
 70
     1
 43
3.0
 10
-2643.983565586325
 20
3395.284835252533
 42
0.4142135623731
 10
-2645.483565586324
 20
3396.784835252533
 42
0.4142135623731
 10
-2646.983565586324
 20
3395.284835252533
 42
0.4142135623731
 10
-2645.483565586324
 20
3393.784835252533
 42
0.4142135623731
  0
LWPOLYLINE
  5
148
330
1F
100
AcDbEntity
  8
0-B
  6
Continuous
 62
     7
370
     9
100
AcDbPolyline
 90
        4
 70
     1
 43
3.0
 10
-2590.950556997333
 20
3342.251826663541
 42
0.4142135623731
 10
-2592.450556997333
 20
3343.751826663541
 42
0.4142135623731
 10
-2593.950556997333
 20
3342.251826663541
 42
0.4142135623731
 10
-2592.450556997333
 20
3340.751826663541
 42
0.4142135623731
  0
LINE
  5
149
330
1F
100
AcDbEntity
  8
0-B
  6
Continuous
 62
   120
370
     5
100
AcDbLine
 10
-2645.483565586324
 20
3395.284835252533
 30
0.0
 11
-2698.516574175314
 21
3342.251826663541
 31
0.0
  0
LINE
  5
14A
330
1F
100
AcDbEntity
  8
0-B
  6
Continuous
 62
   120
370
     5
100
AcDbLine
 10
-2592.450556997333
 20
3342.251826663541
 30
0.0
 11
-2645.483565586324
 21
3289.21881807455
 31
0.0
  0
LINE
  5
14B
330
1F
100
AcDbEntity
  8
0-B
  6
Continuous
 62
   120
370
     5
100
AcDbLine
 10
-2443.516574175314
 20
827.928878715997
 30
0.0
 11
-2623.516574175314
 21
827.928878715997
 31
0.0
  0
LINE
  5
14C
330
1F
100
AcDbEntity
  8
0-B
  6
Continuous
 62
   120
370
     5
100
AcDbLine
 10
-2443.516574175314
 20
287.928878715997
 30
0.0
 11
-2623.516574175314
 21
287.928878715997
 31
0.0
  0
LINE
  5
14D
330
1F
100
AcDbEntity
  8
0-0
  6
JWW_HOJO
 62
   120
370
     5
100
AcDbLine
 10
-2623.516574175314
 20
212.928878715997
 30
0.0
 11
-2878.516574175314
 21
212.928878715997
 31
0.0
  0
LINE
  5
14E
330
1F
100
AcDbEntity
  8
0-0
  6
JWW_HOJO
 62
   120
370
     5
100
AcDbLine
 10
-2548.516574175314
 20
137.928878715997
 30
0.0
 11
-2878.516574175314
 21
137.928878715997
 31
0.0
  0
LINE
  5
14F
330
1F
100
AcDbEntity
  8
0-4
  6
Continuous
 62
    92
370
    13
100
AcDbLine
 10
-2698.516574175314
 20
774.8958701270055
 30
0.0
 11
-2698.516574175314
 21
287.928878715997
 31
0.0
  0
LINE
  5
150
330
1F
100
AcDbEntity
  8
0-4
  6
Continuous
 62
    92
370
    13
100
AcDbLine
 10
-2751.549582764306
 20
827.928878715997
 30
0.0
 11
-2698.516574175314
 21
774.8958701270055
 31
0.0
  0
LINE
  5
151
330
1F
100
AcDbEntity
  8
0-4
  6
Continuous
 62
    92
370
    13
100
AcDbLine
 10
-2754.656184482104
 20
820.428878715997
 30
0.0
 11
-2706.016574175314
 21
771.7892684092072
 31
0.0
  0
LINE
  5
152
330
1F
100
AcDbEntity
  8
0-4
  6
Continuous
 62
    92
370
    13
100
AcDbLine
 10
-2706.016574175314
 20
287.928878715997
 30
0.0
 11
-2706.016574175314
 21
771.7892684092072
 31
0.0
  0
LINE
  5
153
330
1F
100
AcDbEntity
  8
0-0
  6
JWW_HOJO
 62
   120
370
     5
100
AcDbLine
 10
-2443.516574175314
 20
2749.21881807455
 30
0.0
 11
-2443.516574175314
 21
3439.21881807455
 31
0.0
  0
LINE
  5
154
330
1F
100
AcDbEntity
  8
0-0
  6
JWW_HOJO
 62
   120
370
     5
100
AcDbLine
 10
-4273.516574175316
 20
3439.21881807455
 30
0.0
 11
-2443.516574175314
 21
3439.21881807455
 31
0.0
  0
LINE
  5
155
330
1F
100
AcDbEntity
  8
0-0
  6
JWW_HOJO
 62
   120
370
     5
100
AcDbLine
 10
-2623.516574175314
 20
212.928878715997
 30
0.0
 11
-2623.516574175314
 21
805.9618873049885
 31
0.0
  0
LINE
  5
156
330
1F
100
AcDbEntity
  8
0-0
  6
JWW_HOJO
 62
   120
370
     5
100
AcDbLine
 10
-2720.483565586324
 20
902.928878715997
 30
0.0
 11
-2623.516574175314
 21
805.9618873049885
 31
0.0
  0
LINE
  5
157
330
1F
100
AcDbEntity
  8
0-0
  6
JWW_HOJO
 62
   120
370
     5
100
AcDbLine
 10
-2548.516574175314
 20
137.928878715997
 30
0.0
 11
-2548.516574175314
 21
837.0279044829698
 31
0.0
  0
LINE
  5
158
330
1F
100
AcDbEntity
  8
0-0
  6
JWW_HOJO
 62
   120
370
     5
100
AcDbLine
 10
-2689.417548408342
 20
977.928878715997
 30
0.0
 11
-2548.516574175314
 21
837.0279044829698
 31
0.0
  0
LINE
  5
159
330
1F
100
AcDbEntity
  8
0-0
  6
JWW_HOJO
 62
   120
370
     5
100
AcDbLine
 10
-2443.516574175314
 20
287.928878715997
 30
0.0
 11
-2443.516574175314
 21
977.928878715997
 31
0.0
  0
LINE
  5
15A
330
1F
100
AcDbEntity
  8
0-B
  6
Continuous
 62
   120
370
     5
100
AcDbLine
 10
-2645.483565586324
 20
933.9948958939792
 30
0.0
 11
-2592.450556997333
 21
880.9618873049885
 31
0.0
  0
LWPOLYLINE
  5
15B
330
1F
100
AcDbEntity
  8
0-B
  6
Continuous
 62
     7
370
     9
100
AcDbPolyline
 90
        4
 70
     1
 43
3.0
 10
-2643.983565586325
 20
933.9948958939792
 42
0.4142135623731
 10
-2645.483565586324
 20
935.4948958939792
 42
0.4142135623731
 10
-2646.983565586324
 20
933.9948958939792
 42
0.4142135623731
 10
-2645.483565586324
 20
932.4948958939791
 42
0.4142135623731
  0
LWPOLYLINE
  5
15C
330
1F
100
AcDbEntity
  8
0-B
  6
Continuous
 62
     7
370
     9
100
AcDbPolyline
 90
        4
 70
     1
 43
3.0
 10
-2590.950556997333
 20
880.9618873049885
 42
0.4142135623731
 10
-2592.450556997333
 20
882.4618873049885
 42
0.4142135623731
 10
-2593.950556997333
 20
880.9618873049885
 42
0.4142135623731
 10
-2592.450556997333
 20
879.4618873049885
 42
0.4142135623731
  0
LINE
  5
15D
330
1F
100
AcDbEntity
  8
0-B
  6
Continuous
 62
   120
370
     5
100
AcDbLine
 10
-2645.483565586324
 20
933.9948958939792
 30
0.0
 11
-2698.516574175314
 21
880.9618873049885
 31
0.0
  0
LINE
  5
15E
330
1F
100
AcDbEntity
  8
0-B
  6
Continuous
 62
   120
370
     5
100
AcDbLine
 10
-2592.450556997333
 20
880.9618873049885
 30
0.0
 11
-2645.483565586324
 21
827.928878715997
 31
0.0
  0
LINE
  5
15F
330
1F
100
AcDbEntity
  8
F-0
  6
JWW_HOJO
 62
     7
370
     9
100
AcDbLine
 10
849.9995876002961
 20
-3795.000003092998
 30
0.0
 11
849.9995876002961
 21
-4195.000008247994
 31
0.0
  0
LINE
  5
160
330
1F
100
AcDbEntity
  8
F-0
  6
JWW_HOJO
 62
     7
370
     9
100
AcDbLine
 10
349.9999175200594
 20
-3795.000003092998
 30
0.0
 11
349.9999175200594
 21
-4195.000008247994
 31
0.0
  0
LINE
  5
161
330
1F
100
AcDbEntity
  8
F-1
  6
Continuous
 62
   200
370
    20
100
AcDbLine
 10
5699.998762800888
 20
-4205.000002577498
 30
0.0
 11
-5999.999752560178
 21
-4205.000002577498
 31
0.0
  0
LINE
  5
162
330
1F
100
AcDbEntity
  8
F-1
  6
Continuous
 62
   200
370
    20
100
AcDbLine
 10
5699.998762800888
 20
-4199.999993814004
 30
0.0
 11
-5999.999752560178
 21
-4199.999993814004
 31
0.0
  0
LINE
  5
163
330
1F
100
AcDbEntity
  8
F-1
  6
Continuous
 62
   200
370
    20
100
AcDbLine
 10
5699.998762800888
 20
-4195.000008247994
 30
0.0
 11
-5999.999752560178
 21
-4195.000008247994
 31
0.0
  0
LINE
  5
164
330
1F
100
AcDbEntity
  8
F-1
  6
Continuous
 62
   200
370
    20
100
AcDbLine
 10
4189.999224688556
 20
-3795.000003092998
 30
0.0
 11
4189.999224688556
 21
-4195.000008247994
 31
0.0
  0
LINE
  5
165
330
1F
100
AcDbEntity
  8
F-1
  6
Continuous
 62
   200
370
    20
100
AcDbLine
 10
2689.998729808911
 20
-3795.000003092998
 30
0.0
 11
2689.998729808911
 21
-4195.000008247994
 31
0.0
  0
LINE
  5
166
330
1F
100
AcDbEntity
  8
F-1
  6
Continuous
 62
   200
370
    20
100
AcDbLine
 10
-150.0001237199109
 20
-3795.000003092998
 30
0.0
 11
-150.0001237199109
 21
-4195.000008247994
 31
0.0
  0
LINE
  5
167
330
1F
100
AcDbEntity
  8
F-1
  6
Continuous
 62
   200
370
    20
100
AcDbLine
 10
-150.0001237199109
 20
-3994.999936078046
 30
0.0
 11
5689.998977248734
 21
-3995.005364289155
 31
0.0
  0
LINE
  5
168
330
1F
100
AcDbEntity
  8
F-0
  6
JWW_HOJO
 62
     7
370
     9
100
AcDbLine
 10
-5989.999990205507
 20
-3994.99993607839
 30
0.0
 11
-150.0001237199109
 21
-3994.99993607839
 31
0.0
  0
LINE
  5
169
330
1F
100
AcDbEntity
  8
F-0
  6
JWW_HOJO
 62
     7
370
     9
100
AcDbLine
 10
-5989.999990205507
 20
-3904.99993607839
 30
0.0
 11
-150.0001237199109
 21
-3904.99993607839
 31
0.0
  0
LINE
  5
16A
330
1F
100
AcDbEntity
  8
F-0
  6
JWW_HOJO
 62
     7
370
     9
100
AcDbLine
 10
-5989.999990205507
 20
-4084.99993607839
 30
0.0
 11
-150.0001237199109
 21
-4084.99993607839
 31
0.0
  0
LINE
  5
16B
330
1F
100
AcDbEntity
  8
F-0
  6
JWW_HOJO
 62
     7
370
     9
100
AcDbLine
 10
-150.0002584955388
 20
-4139.999739777983
 30
0.0
 11
5689.998842473105
 21
-4140.005167989091
 31
0.0
  0
LINE
  5
16C
330
1F
100
AcDbEntity
  8
F-0
  6
JWW_HOJO
 62
     7
370
     9
100
AcDbLine
 10
-150.0001748415872
 20
-4049.999739778022
 30
0.0
 11
5689.998926127057
 21
-4050.005167989131
 31
0.0
  0
LINE
  5
16D
330
1F
100
AcDbEntity
  8
F-0
  6
JWW_HOJO
 62
     7
370
     9
100
AcDbLine
 10
-150.0000725978671
 20
-3939.99973721807
 30
0.0
 11
5689.999028370777
 21
-3940.005165429179
 31
0.0
  0
LINE
  5
16E
330
1F
100
AcDbEntity
  8
F-0
  6
JWW_HOJO
 62
     7
370
     9
100
AcDbLine
 10
-149.9999889439155
 20
-3849.999737218109
 30
0.0
 11
5689.999112024728
 21
-3850.005165429218
 31
0.0
  0
LINE
  5
16F
330
1F
100
AcDbEntity
  8
F-0
  6
JWW_HOJO
 62
     7
370
     9
100
AcDbLine
 10
2779.998729808911
 20
-3795.000003092998
 30
0.0
 11
2779.998729808911
 21
-4195.000008247994
 31
0.0
  0
LINE
  5
170
330
1F
100
AcDbEntity
  8
F-0
  6
JWW_HOJO
 62
     7
370
     9
100
AcDbLine
 10
-60.0001237199109
 20
-3795.000003092998
 30
0.0
 11
-60.0001237199109
 21
-4195.000008247994
 31
0.0
  0
LINE
  5
171
330
1F
100
AcDbEntity
  8
F-0
  6
JWW_HOJO
 62
     7
370
     9
100
AcDbLine
 10
4279.999224688556
 20
-3795.000003092998
 30
0.0
 11
4279.999224688556
 21
-4195.000008247994
 31
0.0
  0
LINE
  5
172
330
1F
100
AcDbEntity
  8
F-1
  6
Continuous
 62
   200
370
    20
100
AcDbLine
 10
5699.998762800888
 20
-3795.000003092998
 30
0.0
 11
-5999.999752560178
 21
-3795.000003092998
 31
0.0
  0
LINE
  5
173
330
1F
100
AcDbEntity
  8
F-1
  6
Continuous
 62
   200
370
    20
100
AcDbLine
 10
5699.998762800888
 20
-3790.000017526987
 30
0.0
 11
-5999.999752560178
 21
-3790.000017526987
 31
0.0
  0
LINE
  5
174
330
1F
100
AcDbEntity
  8
F-0
  6
JWW_HOJO
 62
     7
370
     9
100
AcDbLine
 10
-5247.547376752838
 20
-3795.000003092999
 30
0.0
 11
-5247.547376752838
 21
-4205.000164959882
 31
0.0
  0
LINE
  5
175
330
1F
100
AcDbEntity
  8
F-0
  6
JWW_HOJO
 62
     7
370
     9
100
AcDbLine
 10
-210.0001237199109
 20
-3795.000003092998
 30
0.0
 11
-210.0001237199109
 21
-4195.000008247994
 31
0.0
  0
MTEXT
  5
176
330
1F
100
AcDbEntity
  8
0-A
  6
Continuous
 62
     7
370
     9
100
AcDbMText
 10
-552.5005732349172
 20
3576.165456887668
 30
0.0
 40
68.57999999999998
 41
315.0
 46
0.0
 71
     7
 72
     1
  1
{\fＭＳ ゴシック|b0|i0|c128|p49;2(偶数)}
 73
     1
 44
1.0
  0
MTEXT
  5
177
330
1F
100
AcDbEntity
  8
0-A
  6
Continuous
 62
     7
370
     9
100
AcDbMText
 10
-2165.000758815456
 20
3498.040451887668
 30
0.0
 40
68.58
 41
585.0
 46
0.0
 71
     7
 72
     1
  1
{\fＭＳ ゴシック|b0|i0|c128|p49;3,900×95×36}
 73
     1
 44
1.0
  0
MTEXT
  5
178
330
1F
100
AcDbEntity
  8
0-A
  6
Continuous
 62
     7
370
     9
100
AcDbMText
 10
-417.5007588154554
 20
3429.289348408467
 30
0.0
 40
68.58
 41
45.0
 46
0.0
 71
     7
 72
     1
  1
{\fＭＳ ゴシック|b0|i0|c128|p49;1}
 73
     1
 44
1.0
  0
MTEXT
  5
179
330
1F
100
AcDbEntity
  8
0-A
  6
Continuous
 62
     7
370
     0
100
AcDbMText
 10
-4895.000028867979
 20
3269.530421887668
 30
0.0
 40
99.06
 41
390.0
 46
0.0
 71
     7
 72
     1
  1
{\f@ＭＳ ゴシック|b0|i0|c128|p49;縦　用}
 11
-1.836909530733566E-16
 21
-1.0
 31
0.0
 73
     1
 44
1.0
  0
MTEXT
  5
17A
330
1F
100
AcDbEntity
  8
0-A
  6
Continuous
 62
     7
370
     9
100
AcDbMText
 10
-552.5005732349172
 20
2326.165376887668
 30
0.0
 40
68.57999999999998
 41
315.0
 46
0.0
 71
     7
 72
     1
  1
{\fＭＳ ゴシック|b0|i0|c128|p49;2(偶数)}
 73
     1
 44
1.0
  0
MTEXT
  5
17B
330
1F
100
AcDbEntity
  8
0-A
  6
Continuous
 62
     7
370
     9
100
AcDbMText
 10
-2165.000758815456
 20
2248.040371887668
 30
0.0
 40
68.58
 41
585.0
 46
0.0
 71
     7
 72
     1
  1
{\fＭＳ ゴシック|b0|i0|c128|p49;3,900×91×36}
 73
     1
 44
1.0
  0
MTEXT
  5
17C
330
1F
100
AcDbEntity
  8
0-A
  6
Continuous
 62
     7
370
     9
100
AcDbMText
 10
-417.5005732349172
 20
2169.915366887668
 30
0.0
 40
68.58
 41
45.0
 46
0.0
 71
     7
 72
     1
  1
{\fＭＳ ゴシック|b0|i0|c128|p49;1}
 73
     1
 44
1.0
  0
MTEXT
  5
17D
330
1F
100
AcDbEntity
  8
0-A
  6
Continuous
 62
     7
370
     0
100
AcDbMText
 10
-4895.000028867979
 20
2019.530341887668
 30
0.0
 40
99.06
 41
390.0
 46
0.0
 71
     7
 72
     1
  1
{\f@ＭＳ ゴシック|b0|i0|c128|p49;横　用}
 11
-1.836909530733566E-16
 21
-1.0
 31
0.0
 73
     1
 44
1.0
  0
MTEXT
  5
17E
330
1F
100
AcDbEntity
  8
0-A
  6
Continuous
 62
     7
370
     9
100
AcDbMText
 10
-552.5005732349172
 20
1076.165296887667
 30
0.0
 40
68.57999999999998
 41
315.0
 46
0.0
 71
     7
 72
     1
  1
{\fＭＳ ゴシック|b0|i0|c128|p49;2(偶数)}
 73
     1
 44
1.0
  0
MTEXT
  5
17F
330
1F
100
AcDbEntity
  8
0-A
  6
Continuous
 62
     7
370
     9
100
AcDbMText
 10
-417.5005732349172
 20
919.915286887668
 30
0.0
 40
68.58
 41
45.0
 46
0.0
 71
     7
 72
     1
  1
{\fＭＳ ゴシック|b0|i0|c128|p49;1}
 73
     1
 44
1.0
  0
MTEXT
  5
180
330
1F
100
AcDbEntity
  8
0-A
  6
Continuous
 62
     7
370
     0
100
AcDbMText
 10
-4895.000028867979
 20
769.5302618876678
 30
0.0
 40
99.06
 41
390.0
 46
0.0
 71
     7
 72
     1
  1
{\f@ＭＳ ゴシック|b0|i0|c128|p49;縦　用}
 11
-1.836909530733566E-16
 21
-1.0
 31
0.0
 73
     1
 44
1.0
  0
MTEXT
  5
181
330
1F
100
AcDbEntity
  8
0-A
  6
Continuous
 62
     7
370
     9
100
AcDbMText
 10
-5659.999626778267
 20
55.6697051799085
 30
0.0
 40
99.06
 41
390.0
 46
0.0
 71
     7
 72
     1
  1
{\fＭＳ ゴシック|b0|i0|c128|p49;窓枠・}
 73
     1
 44
1.0
  0
MTEXT
  5
182
330
1F
100
AcDbEntity
  8
0-A
  6
Continuous
 62
     7
370
     9
100
AcDbMText
 10
-552.5005732349172
 20
-173.8347831123329
 30
0.0
 40
68.57999999999998
 41
315.0
 46
0.0
 71
     7
 72
     1
  1
{\fＭＳ ゴシック|b0|i0|c128|p49;2(偶数)}
 73
     1
 44
1.0
  0
MTEXT
  5
183
330
1F
100
AcDbEntity
  8
0-A
  6
Continuous
 62
     7
370
     9
100
AcDbMText
 10
-5659.999626778267
 20
-244.3301710700914
 30
0.0
 40
99.06
 41
390.0
 46
0.0
 71
     7
 72
     1
  1
{\fＭＳ ゴシック|b0|i0|c128|p49;Ｌ型・}
 73
     1
 44
1.0
  0
MTEXT
  5
184
330
1F
100
AcDbEntity
  8
0-A
  6
Continuous
 62
     7
370
     9
100
AcDbMText
 10
-417.5005732349172
 20
-330.0847931123323
 30
0.0
 40
68.58
 41
45.0
 46
0.0
 71
     7
 72
     1
  1
{\fＭＳ ゴシック|b0|i0|c128|p49;1}
 73
     1
 44
1.0
  0
MTEXT
  5
185
330
1F
100
AcDbEntity
  8
0-A
  6
Continuous
 62
     7
370
     0
100
AcDbMText
 10
-4895.000028867979
 20
-480.4698181123325
 30
0.0
 40
99.06
 41
390.0
 46
0.0
 71
     7
 72
     1
  1
{\f@ＭＳ ゴシック|b0|i0|c128|p49;横　用}
 11
-1.836909530733566E-16
 21
-1.0
 31
0.0
 73
     1
 44
1.0
  0
MTEXT
  5
186
330
1F
100
AcDbEntity
  8
0-B
  6
Continuous
 62
     7
370
   211
100
AcDbMText
 10
-3459.766574175314
 20
3443.50881807455
 30
0.0
 40
68.58
 41
90.0
 46
0.0
 71
     7
 72
     1
  1
{\fＭＳ ゴシック|b0|i0|c128|p49;95}
 73
     1
 44
1.0
  0
MTEXT
  5
187
330
1F
100
AcDbEntity
  8
0-B
  6
Continuous
 62
     7
370
   211
100
AcDbMText
 10
-2624.270362150728
 20
3384.574835252531
 30
0.0
 40
68.57999999999963
 41
44.99999999999976
 46
0.0
 71
     7
 72
     1
  1
{\fＭＳ ゴシック|b0|i0|c128|p49;5}
 11
0.7071067811865474
 21
-0.7071067811865477
 31
0.0
 73
     1
 44
1.0
  0
MTEXT
  5
188
330
1F
100
AcDbEntity
  8
0-B
  6
Continuous
 62
     7
370
   211
100
AcDbMText
 10
-4288.516574175316
 20
3139.75881807455
 30
0.0
 40
68.58
 41
90.0
 46
0.0
 71
     7
 72
     1
  1
{\fＭＳ ゴシック|b0|i0|c128|p49;12}
 11
6.123031769111886E-17
 21
1.0
 31
0.0
 73
     1
 44
1.0
  0
MTEXT
  5
189
330
1F
100
AcDbEntity
  8
0-B
  6
Continuous
 62
     7
370
   211
100
AcDbMText
 10
-2458.516574175314
 20
2959.75881807455
 30
0.0
 40
68.58
 41
90.0
 46
0.0
 71
     7
 72
     1
  1
{\fＭＳ ゴシック|b0|i0|c128|p49;36}
 11
6.123031769111886E-17
 21
1.0
 31
0.0
 73
     1
 44
1.0
  0
MTEXT
  5
18A
330
1F
100
AcDbEntity
  8
0-B
  6
Continuous
 62
     7
370
   211
100
AcDbMText
 10
-2837.266574175314
 20
2603.50881807455
 30
0.0
 40
68.58
 41
90.0
 46
0.0
 71
     7
 72
     1
  1
{\fＭＳ ゴシック|b0|i0|c128|p49;12}
 73
     1
 44
1.0
  0
MTEXT
  5
18B
330
1F
100
AcDbEntity
  8
0-B
  6
Continuous
 62
     7
370
   211
100
AcDbMText
 10
-3429.766574175314
 20
2237.553973546303
 30
0.0
 40
68.58
 41
90.0
 46
0.0
 71
     7
 72
     1
  1
{\fＭＳ ゴシック|b0|i0|c128|p49;91}
 73
     1
 44
1.0
  0
MTEXT
  5
18C
330
1F
100
AcDbEntity
  8
0-B
  6
Continuous
 62
     7
370
   211
100
AcDbMText
 10
-2694.987276377108
 20
2107.903076497904
 30
0.0
 40
68.57999999999963
 41
44.99999999999976
 46
0.0
 71
     7
 72
     1
  1
{\fＭＳ ゴシック|b0|i0|c128|p49;2}
 11
0.7071067811865285
 21
-0.7071067811865666
 31
0.0
 73
     1
 44
1.0
  0
MTEXT
  5
18D
330
1F
100
AcDbEntity
  8
0-B
  6
Continuous
 62
     7
370
   211
100
AcDbMText
 10
-4228.516574175316
 20
1933.803973546302
 30
0.0
 40
68.58
 41
90.0
 46
0.0
 71
     7
 72
     1
  1
{\fＭＳ ゴシック|b0|i0|c128|p49;12}
 11
6.123031769111886E-17
 21
1.0
 31
0.0
 73
     1
 44
1.0
  0
MTEXT
  5
18E
330
1F
100
AcDbEntity
  8
0-B
  6
Continuous
 62
     7
370
   211
100
AcDbMText
 10
-2458.516574175314
 20
1753.803973546302
 30
0.0
 40
68.58
 41
90.0
 46
0.0
 71
     7
 72
     1
  1
{\fＭＳ ゴシック|b0|i0|c128|p49;36}
 11
6.123031769111886E-17
 21
1.0
 31
0.0
 73
     1
 44
1.0
  0
MTEXT
  5
18F
330
1F
100
AcDbEntity
  8
0-B
  6
Continuous
 62
     7
370
   211
100
AcDbMText
 10
-2781.016574175314
 20
1397.553973546302
 30
0.0
 40
68.58
 41
45.0
 46
0.0
 71
     7
 72
     1
  1
{\fＭＳ ゴシック|b0|i0|c128|p49;8}
 73
     1
 44
1.0
  0
MTEXT
  5
190
330
1F
100
AcDbEntity
  8
0-B
  6
Continuous
 62
     7
370
   211
100
AcDbMText
 10
-2624.270362150726
 20
923.28489589398
 30
0.0
 40
68.57999999999987
 41
44.99999999999991
 46
0.0
 71
     7
 72
     1
  1
{\fＭＳ ゴシック|b0|i0|c128|p49;5}
 11
0.7071067811865285
 21
-0.7071067811865666
 31
0.0
 73
     1
 44
1.0
  0
MTEXT
  5
191
330
1F
100
AcDbEntity
  8
0-B
  6
Continuous
 62
     7
370
   211
100
AcDbMText
 10
-2458.516574175314
 20
498.4688787159971
 30
0.0
 40
68.58
 41
90.0
 46
0.0
 71
     7
 72
     1
  1
{\fＭＳ ゴシック|b0|i0|c128|p49;36}
 11
6.123031769111886E-17
 21
1.0
 31
0.0
 73
     1
 44
1.0
  0
MTEXT
  5
192
330
1F
100
AcDbEntity
  8
0-B
  6
Continuous
 62
     7
370
   211
100
AcDbMText
 10
-2837.266574175314
 20
142.218878715997
 30
0.0
 40
68.58
 41
90.0
 46
0.0
 71
     7
 72
     1
  1
{\fＭＳ ゴシック|b0|i0|c128|p49;12}
 73
     1
 44
1.0
  0
MTEXT
  5
193
330
1F
100
AcDbEntity
  8
0-B
  6
Continuous
 62
     7
370
   211
100
AcDbMText
 10
-2693.79462396085
 20
-377.2476544404695
 30
0.0
 40
68.5799999999998
 41
44.99999999999987
 46
0.0
 71
     7
 72
     1
  1
{\fＭＳ ゴシック|b0|i0|c128|p49;2}
 11
0.7071067811865285
 21
-0.7071067811865666
 31
0.0
 73
     1
 44
1.0
  0
MTEXT
  5
194
330
1F
100
AcDbEntity
  8
0-B
  6
Continuous
 62
     7
370
   211
100
AcDbMText
 10
-2458.516574175314
 20
-732.5394098083283
 30
0.0
 40
68.58
 41
90.0
 46
0.0
 71
     7
 72
     1
  1
{\fＭＳ ゴシック|b0|i0|c128|p49;36}
 11
6.123031769111886E-17
 21
1.0
 31
0.0
 73
     1
 44
1.0
  0
MTEXT
  5
195
330
1F
100
AcDbEntity
  8
0-B
  6
Continuous
 62
     7
370
   211
100
AcDbMText
 10
-2781.016574175314
 20
-1088.789409808328
 30
0.0
 40
68.58
 41
45.0
 46
0.0
 71
     7
 72
     1
  1
{\fＭＳ ゴシック|b0|i0|c128|p49;8}
 73
     1
 44
1.0
  0
MTEXT
  5
196
330
1F
100
AcDbEntity
  8
F-A
  6
Continuous
 62
     7
370
     0
100
AcDbMText
 10
-2000.000758815456
 20
3984.82768145587
 30
0.0
 40
97.15499999999999
 41
255.0
 46
0.0
 71
     7
 72
     1
  1
{\fＭＳ ゴシック|b0|i0|c128|p49;寸法}
 73
     1
 44
1.0
  0
MTEXT
  5
197
330
1F
100
AcDbEntity
  8
F-A
  6
Continuous
 62
     7
370
     0
100
AcDbMText
 10
-522.5005732349172
 20
3984.82768145587
 30
0.0
 40
97.15499999999999
 41
255.0
 46
0.0
 71
     7
 72
     1
  1
{\fＭＳ ゴシック|b0|i0|c128|p49;発注}
 73
     1
 44
1.0
  0
MTEXT
  5
198
330
1F
100
AcDbEntity
  8
F-A
  6
Continuous
 62
     7
370
     0
100
AcDbMText
 10
3762.499719568202
 20
3984.779430690454
 30
0.0
 40
97.15499999999999
 41
255.0
 46
0.0
 71
     7
 72
     1
  1
{\fＭＳ ゴシック|b0|i0|c128|p49;寸法}
 73
     1
 44
1.0
  0
MTEXT
  5
199
330
1F
100
AcDbEntity
  8
F-A
  6
Continuous
 62
     7
370
     0
100
AcDbMText
 10
5322.499719568203
 20
3984.779430690454
 30
0.0
 40
97.15499999999999
 41
255.0
 46
0.0
 71
     7
 72
     1
  1
{\fＭＳ ゴシック|b0|i0|c128|p49;発注}
 73
     1
 44
1.0
  0
MTEXT
  5
19A
330
1F
100
AcDbEntity
  8
F-A
  6
Continuous
 62
     7
370
     0
100
AcDbMText
 10
-5659.999812358134
 20
3877.030379407729
 30
0.0
 40
99.06
 41
390.0
 46
0.0
 71
     7
 72
     1
  1
{\fＭＳ ゴシック|b0|i0|c128|p49;部材名}
 73
     1
 44
1.0
  0
MTEXT
  5
19B
330
1F
100
AcDbEntity
  8
F-A
  6
Continuous
 62
     7
370
     0
100
AcDbMText
 10
-1175.000758815456
 20
3876.077879407728
 30
0.0
 40
97.15499999999999
 41
255.0
 46
0.0
 71
     7
 72
     1
  1
{\fＭＳ ゴシック|b0|i0|c128|p49;品番}
 73
     1
 44
1.0
  0
MTEXT
  5
19C
330
1F
100
AcDbEntity
  8
F-A
  6
Continuous
 62
     7
370
     0
100
AcDbMText
 10
182.499327788482
 20
3877.030379407729
 30
0.0
 40
99.06
 41
390.0
 46
0.0
 71
     7
 72
     1
  1
{\fＭＳ ゴシック|b0|i0|c128|p49;部材名}
 73
     1
 44
1.0
  0
MTEXT
  5
19D
330
1F
100
AcDbEntity
  8
F-A
  6
Continuous
 62
     7
370
     0
100
AcDbMText
 10
-3935.000579421584
 20
3877.50643145587
 30
0.0
 40
100.0125
 41
525.0
 46
0.0
 71
     7
 72
     1
  1
{\fＭＳ ゴシック|b0|i0|c128|p49;断面形状}
 73
     1
 44
1.0
  0
MTEXT
  5
19E
330
1F
100
AcDbEntity
  8
F-A
  6
Continuous
 62
     7
370
     0
100
AcDbMText
 10
1909.999991752006
 20
3877.50643145587
 30
0.0
 40
100.0125
 41
525.0
 46
0.0
 71
     7
 72
     1
  1
{\fＭＳ ゴシック|b0|i0|c128|p49;断面形状}
 73
     1
 44
1.0
  0
MTEXT
  5
19F
330
1F
100
AcDbEntity
  8
F-A
  6
Continuous
 62
     7
370
     0
100
AcDbMText
 10
4647.499719568202
 20
3876.029628642314
 30
0.0
 40
97.15499999999999
 41
255.0
 46
0.0
 71
     7
 72
     1
  1
{\fＭＳ ゴシック|b0|i0|c128|p49;品番}
 73
     1
 44
1.0
  0
MTEXT
  5
1A0
330
1F
100
AcDbEntity
  8
F-A
  6
Continuous
 62
     7
370
     0
100
AcDbMText
 10
3484.999719568202
 20
3752.99232659417
 30
0.0
 40
68.58
 41
810.0
 46
0.0
 71
     7
 72
     1
  1
{\fＭＳ ゴシック|b0|i0|c128|p49;長さ×幅×厚さ(㎜)}
 73
     1
 44
1.0
  0
MTEXT
  5
1A1
330
1F
100
AcDbEntity
  8
F-A
  6
Continuous
 62
     7
370
     0
100
AcDbMText
 10
5322.499719568203
 20
3767.231575828756
 30
0.0
 40
97.15499999999999
 41
255.0
 46
0.0
 71
     7
 72
     1
  1
{\fＭＳ ゴシック|b0|i0|c128|p49;単位}
 73
     1
 44
1.0
  0
MTEXT
  5
1A2
330
1F
100
AcDbEntity
  8
F-A
  6
Continuous
 62
     7
370
     0
100
AcDbMText
 10
-522.5005732349172
 20
3762.327813424198
 30
0.0
 40
97.15499999999999
 41
255.0
 46
0.0
 71
     7
 72
     1
  1
{\fＭＳ ゴシック|b0|i0|c128|p49;単位}
 73
     1
 44
1.0
  0
MTEXT
  5
1A3
330
1F
100
AcDbEntity
  8
F-A
  6
Continuous
 62
     7
370
     0
100
AcDbMText
 10
-2250.500758815457
 20
3740.754420647698
 30
0.0
 40
64.00800000000001
 41
756.0000000000001
 46
0.0
 71
     7
 72
     1
  1
{\fＭＳ ゴシック|b0|i0|c128|p49;長さ×幅×厚さ(㎜)}
 73
     1
 44
1.0
  0
MTEXT
  5
1A4
330
1F
100
AcDbEntity
  8
F-A
  6
Continuous
 62
     7
370
     0
100
AcDbMText
 10
-60.0001237199109
 20
-3887.139820871936
 30
0.0
 40
45.72
 41
180.0
 46
0.0
 71
     7
 72
     1
  1
{\fＭＳ ゴシック|b0|i0|c128|p49;図面名}
 73
     1
 44
1.0
  0
MTEXT
  5
1A5
330
1F
100
AcDbEntity
  8
F-A
  6
Continuous
 62
     7
370
     0
100
AcDbMText
 10
2779.998729808911
 20
-3887.142460617774
 30
0.0
 40
45.72
 41
300.0
 46
0.0
 71
     7
 72
     1
  1
{\fＭＳ ゴシック|b0|i0|c128|p49;ＳＣＡＬＥ}
 73
     1
 44
1.0
  0
MTEXT
  5
1A6
330
1F
100
AcDbEntity
  8
F-A
  6
Continuous
 62
     7
370
     0
100
AcDbMText
 10
4279.999224688556
 20
-3887.143854850754
 30
0.0
 40
45.72
 41
240.0
 46
0.0
 71
     7
 72
     1
  1
{\fＭＳ ゴシック|b0|i0|c128|p49;ＤＡＴＥ}
 73
     1
 44
1.0
  0
MTEXT
  5
1A7
330
1F
100
AcDbEntity
  8
F-A
  6
Continuous
 62
     7
370
     0
100
AcDbMText
 10
1180.417701903719
 20
-3946.138161599839
 30
0.0
 40
77.724
 41
510.0
 46
0.0
 71
     7
 72
     1
  1
{\fＭＳ ゴシック|b0|i0|c128|p49;洋風造作材}
 73
     1
 44
1.0
  0
MTEXT
  5
1A8
330
1F
100
AcDbEntity
  8
F-A
  6
Continuous
 62
     7
370
     0
100
AcDbMText
 10
3409.998977248734
 20
-3946.903115907308
 30
0.0
 40
76.19999999999999
 41
150.0
 46
0.0
 71
     7
 72
     1
  1
{\fＭＳ ゴシック|b0|i0|c128|p49;1/2}
 73
     1
 44
1.0
  0
MTEXT
  5
1A9
330
1F
100
AcDbEntity
  8
F-A
  6
Continuous
 62
     7
370
     0
100
AcDbMText
 10
349.9999175200594
 20
-3951.497291872503
 30
0.0
 40
68.58000000000001
 41
360.0
 46
0.0
 71
     7
 72
     1
  1
{\fＭＳ ゴシック|b0|i0|c128|p49;DOORETUS}
 73
     1
 44
1.0
  0
MTEXT
  5
1AA
330
1F
100
AcDbEntity
  8
F-A
  6
Continuous
 62
     7
370
     0
100
AcDbMText
 10
2779.998729808911
 20
-4087.14246317786
 30
0.0
 40
45.72
 41
240.0
 46
0.0
 71
     7
 72
     1
  1
{\fＭＳ ゴシック|b0|i0|c128|p49;ＦＩＬＥ}
 73
     1
 44
1.0
  0
MTEXT
  5
1AB
330
1F
100
AcDbEntity
  8
F-A
  6
Continuous
 62
     7
370
     0
100
AcDbMText
 10
4279.999224688556
 20
-4087.143857410839
 30
0.0
 40
45.72
 41
180.0
 46
0.0
 71
     7
 72
     1
  1
{\fＭＳ ゴシック|b0|i0|c128|p49;ＮＯ．}
 73
     1
 44
1.0
  0
MTEXT
  5
1AC
330
1F
100
AcDbEntity
  8
F-A
  6
Continuous
 62
     7
370
     0
100
AcDbMText
 10
1234.998729808911
 20
-4096.140669266149
 30
0.0
 40
45.72
 41
120.0
 46
0.0
 71
     7
 72
     1
  1
{\fＭＳ ゴシック|b0|i0|c128|p49;株式}
 73
     1
 44
1.0
  0
MTEXT
  5
1AD
330
1F
100
AcDbEntity
  8
F-A
  6
Continuous
 62
     7
370
     0
100
AcDbMText
 10
1444.998729808911
 20
-4164.281754523929
 30
0.0
 40
101.44125
 41
1065.0
 46
0.0
 71
     7
 72
     1
  1
{\fＭＳ ゴシック|b0|i0|c128|p49;ウッドワン・・・}
 73
     1
 44
1.0
  0
MTEXT
  5
1AE
330
1F
100
AcDbEntity
  8
F-A
  6
Continuous
 62
     7
370
     0
100
AcDbMText
 10
1234.998729808911
 20
-4168.140669266187
 30
0.0
 40
45.72
 41
120.0
 46
0.0
 71
     7
 72
     1
  1
{\fＭＳ ゴシック|b0|i0|c128|p49;会社}
 73
     1
 44
1.0
  0
MTEXT
  5
1AF
330
1F
100
AcDbEntity
  8
F-A
  6
Continuous
 62
     7
370
     0
100
AcDbMText
 10
5608.403311109712
 20
-4314.841256638534
 30
0.0
 40
68.58
 41
90.0
 46
0.0
 71
     7
 72
     1
  1
{\fＭＳ ゴシック|b0|i0|c128|p49;）}
 73
     1
 44
1.0
  0
MTEXT
  5
1B0
330
1F
100
AcDbEntity
  8
F-A
  6
Continuous
 62
     7
370
     0
100
AcDbMText
 10
5190.195950842071
 20
-4316.235281487472
 30
0.0
 40
68.58
 41
45.0
 46
0.0
 71
     7
 72
     1
  1
{\fＭＳ ゴシック|b0|i0|c128|p49;,}
 73
     1
 44
1.0
  0
MTEXT
  5
1B1
330
1F
100
AcDbEntity
  8
F-A
  6
Continuous
 62
     7
370
     0
100
AcDbMText
 10
4923.937261915373
 20
-4314.771804905898
 30
0.0
 40
74.295
 41
97.5
 46
0.0
 71
     7
 72
     1
  1
{\fＭＳ ゴシック|b0|i0|c128|p49;$y}
 73
     1
 44
1.0
  0
MTEXT
  5
1B2
330
1F
100
AcDbEntity
  8
F-A
  6
Continuous
 62
     7
370
     0
100
AcDbMText
 10
5078.673982954195
 20
-4314.771804905898
 30
0.0
 40
74.295
 41
97.5
 46
0.0
 71
     7
 72
     1
  1
{\fＭＳ ゴシック|b0|i0|c128|p49;$m}
 73
     1
 44
1.0
  0
MTEXT
  5
1B3
330
1F
100
AcDbEntity
  8
F-A
  6
Continuous
 62
     7
370
     0
100
AcDbMText
 10
5233.410715437103
 20
-4314.771804905898
 30
0.0
 40
74.295
 41
97.5
 46
0.0
 71
     7
 72
     1
  1
{\fＭＳ ゴシック|b0|i0|c128|p49;$d}
 73
     1
 44
1.0
  0
MTEXT
  5
1B4
330
1F
100
AcDbEntity
  8
F-A
  6
Continuous
 62
     7
370
     0
100
AcDbMText
 10
5388.147447920011
 20
-4314.771804905898
 30
0.0
 40
74.295
 41
195.0
 46
0.0
 71
     7
 72
     1
  1
{\fＭＳ ゴシック|b0|i0|c128|p49;印刷}
 73
     1
 44
1.0
  0
MTEXT
  5
1B5
330
1F
100
AcDbEntity
  8
F-A
  6
Continuous
 62
     7
370
     0
100
AcDbMText
 10
4784.033374252999
 20
-4319.023331185347
 30
0.0
 40
68.58
 41
90.0
 46
0.0
 71
     7
 72
     1
  1
{\fＭＳ ゴシック|b0|i0|c128|p49;（}
 73
     1
 44
1.0
  0
MTEXT
  5
1B6
330
1F
100
AcDbEntity
  8
F-A
  6
Continuous
 62
     7
370
     0
100
AcDbMText
 10
5031.277143812345
 20
-4319.023331185347
 30
0.0
 40
68.58
 41
45.0
 46
0.0
 71
     7
 72
     1
  1
{\fＭＳ ゴシック|b0|i0|c128|p49;,}
 73
     1
 44
1.0
  0
LINE
  5
1B7
330
1F
100
AcDbEntity
  8
F-1
  6
Continuous
 62
     7
370
     9
100
AcDbLine
 10
-155.0003876543789
 20
-1289.999858112333
 30
0.0
 11
-4940.000028867979
 21
-1289.999858112333
 31
0.0
  0
LINE
  5
1B8
330
1F
100
AcDbEntity
  8
F-1
  6
Continuous
 62
     7
370
     9
100
AcDbLine
 10
5694.998684444944
 20
-1289.999858112333
 30
0.0
 11
904.9995216163429
 21
-1289.999858112333
 31
0.0
  0
LINE
  5
1B9
330
1F
100
AcDbEntity
  8
F-1
  6
JWW_DASHED1
 62
     7
370
     9
100
AcDbLine
 10
5694.998684444944
 20
-2539.999938012333
 30
0.0
 11
904.9995216163429
 21
-2539.999938012333
 31
0.0
  0
LINE
  5
1BA
330
1F
100
AcDbEntity
  8
F-1
  6
Continuous
 62
     7
370
     9
100
AcDbLine
 10
1114.999521616343
 20
3710.000461887669
 30
0.0
 11
1114.999521616343
 21
-3795.000003092998
 31
0.0
  0
MTEXT
  5
1BB
330
1F
100
AcDbEntity
  8
0-A
  6
Continuous
 62
     7
370
     9
100
AcDbMText
 10
184.9999237060555
 20
32.12553200187156
 30
0.0
 40
99.06
 41
390.0
 46
0.0
 71
     7
 72
     1
  1
{\fＭＳ ゴシック|b0|i0|c128|p49;窓枠・}
 73
     1
 44
1.0
  0
MTEXT
  5
1BC
330
1F
100
AcDbEntity
  8
0-A
  6
Continuous
 62
     7
370
     9
100
AcDbMText
 10
184.9999237060555
 20
-267.8743442481283
 30
0.0
 40
99.06
 41
390.0
 46
0.0
 71
     7
 72
     1
  1
{\fＭＳ ゴシック|b0|i0|c128|p49;Ｌ型・}
 73
     1
 44
1.0
  0
MTEXT
  5
1BD
330
1F
100
AcDbEntity
  8
0-A
  6
Continuous
 62
     7
370
     9
100
AcDbMText
 10
5292.498977249405
 20
3576.165456887668
 30
0.0
 40
68.57999999999998
 41
315.0
 46
0.0
 71
     7
 72
     1
  1
{\fＭＳ ゴシック|b0|i0|c128|p49;2(偶数)}
 73
     1
 44
1.0
  0
MTEXT
  5
1BE
330
1F
100
AcDbEntity
  8
0-A
  6
Continuous
 62
     7
370
     9
100
AcDbMText
 10
5427.498977249405
 20
3419.915446887668
 30
0.0
 40
68.58
 41
45.0
 46
0.0
 71
     7
 72
     1
  1
{\fＭＳ ゴシック|b0|i0|c128|p49;1}
 73
     1
 44
1.0
  0
MTEXT
  5
1BF
330
1F
100
AcDbEntity
  8
0-A
  6
Continuous
 62
     7
370
     0
100
AcDbMText
 10
949.9995216163429
 20
3269.530421887669
 30
0.0
 40
99.06
 41
390.0
 46
0.0
 71
     7
 72
     1
  1
{\f@ＭＳ ゴシック|b0|i0|c128|p49;縦　用}
 11
-1.836909530733566E-16
 21
-1.0
 31
0.0
 73
     1
 44
1.0
  0
MTEXT
  5
1C0
330
1F
100
AcDbEntity
  8
0-A
  6
Continuous
 62
     7
370
     9
100
AcDbMText
 10
5292.498977249405
 20
2326.165376887668
 30
0.0
 40
68.57999999999998
 41
315.0
 46
0.0
 71
     7
 72
     1
  1
{\fＭＳ ゴシック|b0|i0|c128|p49;2(偶数)}
 73
     1
 44
1.0
  0
MTEXT
  5
1C1
330
1F
100
AcDbEntity
  8
0-A
  6
Continuous
 62
     7
370
     9
100
AcDbMText
 10
5427.498977249405
 20
2169.915366887668
 30
0.0
 40
68.58
 41
45.0
 46
0.0
 71
     7
 72
     1
  1
{\fＭＳ ゴシック|b0|i0|c128|p49;1}
 73
     1
 44
1.0
  0
MTEXT
  5
1C2
330
1F
100
AcDbEntity
  8
0-A
  6
Continuous
 62
     7
370
     0
100
AcDbMText
 10
949.9995216163429
 20
2019.530341887668
 30
0.0
 40
99.06
 41
390.0
 46
0.0
 71
     7
 72
     1
  1
{\f@ＭＳ ゴシック|b0|i0|c128|p49;横　用}
 11
-1.836909530733566E-16
 21
-1.0
 31
0.0
 73
     1
 44
1.0
  0
LINE
  5
1C3
330
1F
100
AcDbEntity
  8
0-4
  6
Continuous
 62
    92
370
    13
100
AcDbLine
 10
3060.228428700666
 20
3296.295709446662
 30
0.0
 11
3060.228428700666
 21
2809.328718035653
 31
0.0
  0
LINE
  5
1C4
330
1F
100
AcDbEntity
  8
0-4
  6
Continuous
 62
    92
370
    13
100
AcDbLine
 10
3007.195420111675
 20
3349.328718035653
 30
0.0
 11
1395.228428700665
 21
3349.328718035653
 31
0.0
  0
LINE
  5
1C5
330
1F
100
AcDbEntity
  8
0-4
  6
Continuous
 62
    92
370
    13
100
AcDbLine
 10
1395.228428700665
 20
3169.328718035653
 30
0.0
 11
2880.228428700666
 21
3169.328718035653
 31
0.0
  0
LINE
  5
1C6
330
1F
100
AcDbEntity
  8
0-4
  6
Continuous
 62
    92
370
    13
100
AcDbLine
 10
2880.228428700666
 20
2809.328718035653
 30
0.0
 11
2880.228428700666
 21
3169.328718035653
 31
0.0
  0
LINE
  5
1C7
330
1F
100
AcDbEntity
  8
0-4
  6
Continuous
 62
    92
370
    13
100
AcDbLine
 10
3060.228428700666
 20
2809.328718035653
 30
0.0
 11
2880.228428700666
 21
2809.328718035653
 31
0.0
  0
LINE
  5
1C8
330
1F
100
AcDbEntity
  8
0-4
  6
Continuous
 62
    92
370
    13
100
AcDbLine
 10
1395.228428700665
 20
3349.328718035653
 30
0.0
 11
1395.228428700665
 21
3169.328718035653
 31
0.0
  0
LINE
  5
1C9
330
1F
100
AcDbEntity
  8
0-4
  6
Continuous
 62
    92
370
    13
100
AcDbLine
 10
1455.228428700665
 20
2102.901471243852
 30
0.0
 11
1455.228428700665
 21
1922.901471243852
 31
0.0
  0
LINE
  5
1CA
330
1F
100
AcDbEntity
  8
0-4
  6
Continuous
 62
    92
370
    13
100
AcDbLine
 10
3060.228428700666
 20
1562.901471243852
 30
0.0
 11
2940.228428700666
 21
1562.901471243852
 31
0.0
  0
LINE
  5
1CB
330
1F
100
AcDbEntity
  8
0-4
  6
Continuous
 62
    92
370
    13
100
AcDbLine
 10
2940.228428700666
 20
1562.901471243852
 30
0.0
 11
2940.228428700666
 21
1922.901471243852
 31
0.0
  0
LINE
  5
1CC
330
1F
100
AcDbEntity
  8
0-4
  6
Continuous
 62
    92
370
    13
100
AcDbLine
 10
1455.228428700665
 20
1922.901471243852
 30
0.0
 11
2940.228428700666
 21
1922.901471243852
 31
0.0
  0
LINE
  5
1CD
330
1F
100
AcDbEntity
  8
0-4
  6
Continuous
 62
    92
370
    13
100
AcDbLine
 10
3039.01522526507
 20
2102.901471243852
 30
0.0
 11
1455.228428700665
 21
2102.901471243852
 31
0.0
  0
LINE
  5
1CE
330
1F
100
AcDbEntity
  8
0-4
  6
Continuous
 62
    92
370
    13
100
AcDbLine
 10
3060.228428700666
 20
2081.688267808255
 30
0.0
 11
3060.228428700666
 21
1562.901471243852
 31
0.0
  0
LINE
  5
1CF
330
1F
100
AcDbEntity
  8
0-4
  6
Continuous
 62
    92
370
    13
100
AcDbLine
 10
3039.01522526507
 20
2102.901471243852
 30
0.0
 11
3060.228428700666
 21
2081.688267808255
 31
0.0
  0
LINE
  5
1D0
330
1F
100
AcDbEntity
  8
0-4
  6
Continuous
 62
    92
370
    13
100
AcDbLine
 10
3031.51522526507
 20
2095.401471243852
 30
0.0
 11
1455.228428700665
 21
2095.401471243852
 31
0.0
  0
LINE
  5
1D1
330
1F
100
AcDbEntity
  8
0-4
  6
Continuous
 62
    92
370
    13
100
AcDbLine
 10
3052.728428700666
 20
2074.188267808255
 30
0.0
 11
3052.728428700666
 21
1562.901471243852
 31
0.0
  0
LINE
  5
1D2
330
1F
100
AcDbEntity
  8
0-4
  6
Continuous
 62
    92
370
    13
100
AcDbLine
 10
3031.51522526507
 20
2095.401471243852
 30
0.0
 11
3052.728428700666
 21
2074.188267808255
 31
0.0
  0
LINE
  5
1D3
330
1F
100
AcDbEntity
  8
0-B
  6
Continuous
 62
   120
370
     5
100
AcDbLine
 10
1395.228428700665
 20
3499.328718035653
 30
0.0
 11
3060.228428700666
 21
3499.328718035653
 31
0.0
  0
LINE
  5
1D4
330
1F
100
AcDbEntity
  8
0-B
  6
Continuous
 62
   120
370
     5
100
AcDbLine
 10
3060.228428700666
 20
2659.328718035653
 30
0.0
 11
3060.228428700666
 21
2734.328718035653
 31
0.0
  0
LINE
  5
1D5
330
1F
100
AcDbEntity
  8
0-B
  6
Continuous
 62
   120
370
     5
100
AcDbLine
 10
2880.228428700666
 20
2659.328718035653
 30
0.0
 11
2880.228428700666
 21
2734.328718035653
 31
0.0
  0
LWPOLYLINE
  5
1D6
330
1F
100
AcDbEntity
  8
0-B
  6
Continuous
 62
     7
370
     9
100
AcDbPolyline
 90
        4
 70
     1
 43
3.0
 10
3061.728428700666
 20
2659.328718035653
 42
0.4142135623731
 10
3060.228428700666
 20
2660.828718035653
 42
0.4142135623731
 10
3058.728428700666
 20
2659.328718035653
 42
0.4142135623731
 10
3060.228428700666
 20
2657.828718035653
 42
0.4142135623731
  0
LWPOLYLINE
  5
1D7
330
1F
100
AcDbEntity
  8
0-B
  6
Continuous
 62
     7
370
     9
100
AcDbPolyline
 90
        4
 70
     1
 43
3.0
 10
2881.728428700666
 20
2659.328718035653
 42
0.4142135623731
 10
2880.228428700666
 20
2660.828718035653
 42
0.4142135623731
 10
2878.728428700666
 20
2659.328718035653
 42
0.4142135623731
 10
2880.228428700666
 20
2657.828718035653
 42
0.4142135623731
  0
LINE
  5
1D8
330
1F
100
AcDbEntity
  8
0-B
  6
Continuous
 62
   120
370
     5
100
AcDbLine
 10
2880.228428700666
 20
2659.328718035653
 30
0.0
 11
3060.228428700666
 21
2659.328718035653
 31
0.0
  0
LWPOLYLINE
  5
1D9
330
1F
100
AcDbEntity
  8
0-B
  6
Continuous
 62
     7
370
     9
100
AcDbPolyline
 90
        4
 70
     1
 43
3.0
 10
3316.728428700666
 20
2809.328718035653
 42
0.4142135623731
 10
3315.228428700666
 20
2810.828718035653
 42
0.4142135623731
 10
3313.728428700666
 20
2809.328718035653
 42
0.4142135623731
 10
3315.228428700666
 20
2807.828718035653
 42
0.4142135623731
  0
LWPOLYLINE
  5
1DA
330
1F
100
AcDbEntity
  8
0-B
  6
Continuous
 62
     7
370
     9
100
AcDbPolyline
 90
        4
 70
     1
 43
3.0
 10
3316.728428700666
 20
3349.328718035653
 42
0.4142135623731
 10
3315.228428700666
 20
3350.828718035653
 42
0.4142135623731
 10
3313.728428700666
 20
3349.328718035653
 42
0.4142135623731
 10
3315.228428700666
 20
3347.828718035653
 42
0.4142135623731
  0
LINE
  5
1DB
330
1F
100
AcDbEntity
  8
0-B
  6
Continuous
 62
   120
370
     5
100
AcDbLine
 10
3315.228428700666
 20
3349.328718035653
 30
0.0
 11
3315.228428700666
 21
2809.328718035653
 31
0.0
  0
LINE
  5
1DC
330
1F
100
AcDbEntity
  8
0-B
  6
Continuous
 62
   120
370
     5
100
AcDbLine
 10
3060.228428700666
 20
3499.328718035653
 30
0.0
 11
3060.228428700666
 21
3424.328718035653
 31
0.0
  0
LWPOLYLINE
  5
1DD
330
1F
100
AcDbEntity
  8
0-B
  6
Continuous
 62
     7
370
     9
100
AcDbPolyline
 90
        4
 70
     1
 43
3.0
 10
3061.728428700666
 20
3499.328718035653
 42
0.4142135623731
 10
3060.228428700666
 20
3500.828718035653
 42
0.4142135623731
 10
3058.728428700666
 20
3499.328718035653
 42
0.4142135623731
 10
3060.228428700666
 20
3497.828718035653
 42
0.4142135623731
  0
LINE
  5
1DE
330
1F
100
AcDbEntity
  8
0-B
  6
Continuous
 62
   120
370
     5
100
AcDbLine
 10
1245.228428700665
 20
3169.328718035653
 30
0.0
 11
1320.228428700665
 21
3169.328718035653
 31
0.0
  0
LINE
  5
1DF
330
1F
100
AcDbEntity
  8
0-B
  6
Continuous
 62
   120
370
     5
100
AcDbLine
 10
1245.228428700665
 20
3349.328718035653
 30
0.0
 11
1320.228428700665
 21
3349.328718035653
 31
0.0
  0
LWPOLYLINE
  5
1E0
330
1F
100
AcDbEntity
  8
0-B
  6
Continuous
 62
     7
370
     9
100
AcDbPolyline
 90
        4
 70
     1
 43
3.0
 10
1246.728428700665
 20
3169.328718035653
 42
0.4142135623731
 10
1245.228428700665
 20
3170.828718035653
 42
0.4142135623731
 10
1243.728428700665
 20
3169.328718035653
 42
0.4142135623731
 10
1245.228428700665
 20
3167.828718035653
 42
0.4142135623731
  0
LWPOLYLINE
  5
1E1
330
1F
100
AcDbEntity
  8
0-B
  6
Continuous
 62
     7
370
     9
100
AcDbPolyline
 90
        4
 70
     1
 43
3.0
 10
1246.728428700665
 20
3349.328718035653
 42
0.4142135623731
 10
1245.228428700665
 20
3350.828718035653
 42
0.4142135623731
 10
1243.728428700665
 20
3349.328718035653
 42
0.4142135623731
 10
1245.228428700665
 20
3347.828718035653
 42
0.4142135623731
  0
LINE
  5
1E2
330
1F
100
AcDbEntity
  8
0-B
  6
Continuous
 62
   120
370
     5
100
AcDbLine
 10
1245.228428700665
 20
3349.328718035653
 30
0.0
 11
1245.228428700665
 21
3169.328718035653
 31
0.0
  0
LINE
  5
1E3
330
1F
100
AcDbEntity
  8
0-B
  6
Continuous
 62
   120
370
     5
100
AcDbLine
 10
1395.228428700665
 20
3499.328718035653
 30
0.0
 11
1395.228428700665
 21
3424.328718035653
 31
0.0
  0
LWPOLYLINE
  5
1E4
330
1F
100
AcDbEntity
  8
0-B
  6
Continuous
 62
     7
370
     9
100
AcDbPolyline
 90
        4
 70
     1
 43
3.0
 10
1396.728428700665
 20
3499.328718035653
 42
0.4142135623731
 10
1395.228428700665
 20
3500.828718035653
 42
0.4142135623731
 10
1393.728428700665
 20
3499.328718035653
 42
0.4142135623731
 10
1395.228428700665
 20
3497.828718035653
 42
0.4142135623731
  0
LWPOLYLINE
  5
1E5
330
1F
100
AcDbEntity
  8
0-B
  6
Continuous
 62
     7
370
     9
100
AcDbPolyline
 90
        4
 70
     1
 43
3.0
 10
1456.728428700665
 20
2252.901471243852
 42
0.4142135623731
 10
1455.228428700665
 20
2254.401471243852
 42
0.4142135623731
 10
1453.728428700665
 20
2252.901471243852
 42
0.4142135623731
 10
1455.228428700665
 20
2251.401471243852
 42
0.4142135623731
  0
LINE
  5
1E6
330
1F
100
AcDbEntity
  8
0-B
  6
Continuous
 62
   120
370
     5
100
AcDbLine
 10
1455.228428700665
 20
2252.901471243852
 30
0.0
 11
1455.228428700665
 21
2177.901471243852
 31
0.0
  0
LINE
  5
1E7
330
1F
100
AcDbEntity
  8
0-B
  6
Continuous
 62
   120
370
     5
100
AcDbLine
 10
1305.228428700665
 20
2102.901471243852
 30
0.0
 11
1305.228428700665
 21
1922.901471243852
 31
0.0
  0
LWPOLYLINE
  5
1E8
330
1F
100
AcDbEntity
  8
0-B
  6
Continuous
 62
     7
370
     9
100
AcDbPolyline
 90
        4
 70
     1
 43
3.0
 10
1306.728428700665
 20
2102.901471243852
 42
0.4142135623731
 10
1305.228428700665
 20
2104.401471243852
 42
0.4142135623731
 10
1303.728428700665
 20
2102.901471243852
 42
0.4142135623731
 10
1305.228428700665
 20
2101.401471243852
 42
0.4142135623731
  0
LWPOLYLINE
  5
1E9
330
1F
100
AcDbEntity
  8
0-B
  6
Continuous
 62
     7
370
     9
100
AcDbPolyline
 90
        4
 70
     1
 43
3.0
 10
1306.728428700665
 20
1922.901471243852
 42
0.4142135623731
 10
1305.228428700665
 20
1924.401471243852
 42
0.4142135623731
 10
1303.728428700665
 20
1922.901471243852
 42
0.4142135623731
 10
1305.228428700665
 20
1921.401471243852
 42
0.4142135623731
  0
LINE
  5
1EA
330
1F
100
AcDbEntity
  8
0-B
  6
Continuous
 62
   120
370
     5
100
AcDbLine
 10
1305.228428700665
 20
2102.901471243852
 30
0.0
 11
1380.228428700665
 21
2102.901471243852
 31
0.0
  0
LINE
  5
1EB
330
1F
100
AcDbEntity
  8
0-B
  6
Continuous
 62
   120
370
     5
100
AcDbLine
 10
1305.228428700665
 20
1922.901471243852
 30
0.0
 11
1380.228428700665
 21
1922.901471243852
 31
0.0
  0
LWPOLYLINE
  5
1EC
330
1F
100
AcDbEntity
  8
0-B
  6
Continuous
 62
     7
370
     9
100
AcDbPolyline
 90
        4
 70
     1
 43
3.0
 10
3061.728428700666
 20
2252.901471243852
 42
0.4142135623731
 10
3060.228428700666
 20
2254.401471243852
 42
0.4142135623731
 10
3058.728428700666
 20
2252.901471243852
 42
0.4142135623731
 10
3060.228428700666
 20
2251.401471243852
 42
0.4142135623731
  0
LINE
  5
1ED
330
1F
100
AcDbEntity
  8
0-B
  6
Continuous
 62
   120
370
     5
100
AcDbLine
 10
3060.228428700666
 20
2252.901471243852
 30
0.0
 11
3060.228428700666
 21
2177.901471243852
 31
0.0
  0
LINE
  5
1EE
330
1F
100
AcDbEntity
  8
0-B
  6
Continuous
 62
   120
370
     5
100
AcDbLine
 10
2940.228428700666
 20
1412.901471243852
 30
0.0
 11
3060.228428700666
 21
1412.901471243852
 31
0.0
  0
LWPOLYLINE
  5
1EF
330
1F
100
AcDbEntity
  8
0-B
  6
Continuous
 62
     7
370
     9
100
AcDbPolyline
 90
        4
 70
     1
 43
3.0
 10
2941.728428700666
 20
1412.901471243852
 42
0.4142135623731
 10
2940.228428700666
 20
1414.401471243852
 42
0.4142135623731
 10
2938.728428700666
 20
1412.901471243852
 42
0.4142135623731
 10
2940.228428700666
 20
1411.401471243852
 42
0.4142135623731
  0
LWPOLYLINE
  5
1F0
330
1F
100
AcDbEntity
  8
0-B
  6
Continuous
 62
     7
370
     9
100
AcDbPolyline
 90
        4
 70
     1
 43
3.0
 10
3061.728428700666
 20
1412.901471243852
 42
0.4142135623731
 10
3060.228428700666
 20
1414.401471243852
 42
0.4142135623731
 10
3058.728428700666
 20
1412.901471243852
 42
0.4142135623731
 10
3060.228428700666
 20
1411.401471243852
 42
0.4142135623731
  0
LINE
  5
1F1
330
1F
100
AcDbEntity
  8
0-B
  6
Continuous
 62
   120
370
     5
100
AcDbLine
 10
2940.228428700666
 20
1412.901471243852
 30
0.0
 11
2940.228428700666
 21
1487.901471243852
 31
0.0
  0
LINE
  5
1F2
330
1F
100
AcDbEntity
  8
0-B
  6
Continuous
 62
   120
370
     5
100
AcDbLine
 10
3060.228428700666
 20
1412.901471243852
 30
0.0
 11
3060.228428700666
 21
1487.901471243852
 31
0.0
  0
LINE
  5
1F3
330
1F
100
AcDbEntity
  8
0-B
  6
Continuous
 62
   120
370
     5
100
AcDbLine
 10
1455.228428700665
 20
2252.901471243852
 30
0.0
 11
3060.228428700666
 21
2252.901471243852
 31
0.0
  0
LINE
  5
1F4
330
1F
100
AcDbEntity
  8
0-B
  6
Continuous
 62
   120
370
     5
100
AcDbLine
 10
3074.069605822488
 20
2137.955851801272
 30
0.0
 11
3095.282809258085
 21
2116.742648365675
 31
0.0
  0
LWPOLYLINE
  5
1F5
330
1F
100
AcDbEntity
  8
0-B
  6
Continuous
 62
     7
370
     9
100
AcDbPolyline
 90
        4
 70
     1
 43
3.0
 10
3075.569605822488
 20
2137.955851801272
 42
0.4142135623731
 10
3074.069605822488
 20
2139.455851801271
 42
0.4142135623731
 10
3072.569605822489
 20
2137.955851801272
 42
0.4142135623731
 10
3074.069605822488
 20
2136.455851801272
 42
0.4142135623731
  0
LWPOLYLINE
  5
1F6
330
1F
100
AcDbEntity
  8
0-B
  6
Continuous
 62
     7
370
     9
100
AcDbPolyline
 90
        4
 70
     1
 43
3.0
 10
3096.782809258085
 20
2116.742648365675
 42
0.4142135623731
 10
3095.282809258085
 20
2118.242648365675
 42
0.4142135623731
 10
3093.782809258085
 20
2116.742648365675
 42
0.4142135623731
 10
3095.282809258085
 20
2115.242648365675
 42
0.4142135623731
  0
LINE
  5
1F7
330
1F
100
AcDbEntity
  8
0-B
  6
Continuous
 62
   120
370
     5
100
AcDbLine
 10
3074.069605822488
 20
2137.955851801272
 30
0.0
 11
3102.654835571858
 21
2166.541081550641
 31
0.0
  0
LINE
  5
1F8
330
1F
100
AcDbEntity
  8
0-B
  6
Continuous
 62
   120
370
     5
100
AcDbLine
 10
3095.282809258085
 20
2116.742648365675
 30
0.0
 11
3123.868039007455
 21
2145.327878115045
 31
0.0
  0
LINE
  5
1F9
330
1F
100
AcDbEntity
  8
0-B
  6
Continuous
 62
   120
370
     5
100
AcDbLine
 10
3315.228428700666
 20
2102.901471243852
 30
0.0
 11
3315.228428700666
 21
1562.901471243852
 31
0.0
  0
LWPOLYLINE
  5
1FA
330
1F
100
AcDbEntity
  8
0-B
  6
Continuous
 62
     7
370
     9
100
AcDbPolyline
 90
        4
 70
     1
 43
3.0
 10
3316.728428700666
 20
2102.901471243852
 42
0.4142135623731
 10
3315.228428700666
 20
2104.401471243852
 42
0.4142135623731
 10
3313.728428700666
 20
2102.901471243852
 42
0.4142135623731
 10
3315.228428700666
 20
2101.401471243852
 42
0.4142135623731
  0
LWPOLYLINE
  5
1FB
330
1F
100
AcDbEntity
  8
0-B
  6
Continuous
 62
     7
370
     9
100
AcDbPolyline
 90
        4
 70
     1
 43
3.0
 10
3316.728428700666
 20
1562.901471243852
 42
0.4142135623731
 10
3315.228428700666
 20
1564.401471243852
 42
0.4142135623731
 10
3313.728428700666
 20
1562.901471243852
 42
0.4142135623731
 10
3315.228428700666
 20
1561.401471243852
 42
0.4142135623731
  0
LINE
  5
1FC
330
1F
100
AcDbEntity
  8
0-B
  6
Continuous
 62
   120
370
     5
100
AcDbLine
 10
3315.228428700666
 20
2102.901471243852
 30
0.0
 11
3135.228428700666
 21
2102.901471243852
 31
0.0
  0
LINE
  5
1FD
330
1F
100
AcDbEntity
  8
0-B
  6
Continuous
 62
   120
370
     5
100
AcDbLine
 10
3315.228428700666
 20
1562.901471243852
 30
0.0
 11
3135.228428700666
 21
1562.901471243852
 31
0.0
  0
LINE
  5
1FE
330
1F
100
AcDbEntity
  8
0-0
  6
JWW_HOJO
 62
   120
370
     5
100
AcDbLine
 10
2880.228428700666
 20
2809.328718035653
 30
0.0
 11
2880.228428700666
 21
2659.328718035653
 31
0.0
  0
LINE
  5
1FF
330
1F
100
AcDbEntity
  8
0-0
  6
JWW_HOJO
 62
   120
370
     5
100
AcDbLine
 10
3060.228428700666
 20
2809.328718035653
 30
0.0
 11
3315.228428700666
 21
2809.328718035653
 31
0.0
  0
LINE
  5
200
330
1F
100
AcDbEntity
  8
0-0
  6
JWW_HOJO
 62
   120
370
     5
100
AcDbLine
 10
1395.228428700665
 20
3169.328718035653
 30
0.0
 11
1245.228428700665
 21
3169.328718035653
 31
0.0
  0
LINE
  5
201
330
1F
100
AcDbEntity
  8
0-0
  6
JWW_HOJO
 62
   120
370
     5
100
AcDbLine
 10
1245.228428700665
 20
3499.328718035653
 30
0.0
 11
1245.228428700665
 21
3169.328718035653
 31
0.0
  0
LINE
  5
202
330
1F
100
AcDbEntity
  8
0-0
  6
JWW_HOJO
 62
   120
370
     5
100
AcDbLine
 10
1320.228428700665
 20
3424.328718035653
 30
0.0
 11
1320.228428700665
 21
3169.328718035653
 31
0.0
  0
LINE
  5
203
330
1F
100
AcDbEntity
  8
0-0
  6
JWW_HOJO
 62
   120
370
     5
100
AcDbLine
 10
1455.228428700665
 20
1922.901471243852
 30
0.0
 11
1305.228428700665
 21
1922.901471243852
 31
0.0
  0
LINE
  5
204
330
1F
100
AcDbEntity
  8
0-0
  6
JWW_HOJO
 62
   120
370
     5
100
AcDbLine
 10
1305.228428700665
 20
2252.901471243852
 30
0.0
 11
1305.228428700665
 21
1922.901471243852
 31
0.0
  0
LINE
  5
205
330
1F
100
AcDbEntity
  8
0-0
  6
JWW_HOJO
 62
   120
370
     5
100
AcDbLine
 10
1380.228428700665
 20
2177.901471243852
 30
0.0
 11
1380.228428700665
 21
1922.901471243852
 31
0.0
  0
LINE
  5
206
330
1F
100
AcDbEntity
  8
0-0
  6
JWW_HOJO
 62
   120
370
     5
100
AcDbLine
 10
2940.228428700666
 20
1562.901471243852
 30
0.0
 11
2940.228428700666
 21
1412.901471243852
 31
0.0
  0
LINE
  5
207
330
1F
100
AcDbEntity
  8
0-0
  6
JWW_HOJO
 62
   120
370
     5
100
AcDbLine
 10
3135.228428700666
 20
1487.901471243852
 30
0.0
 11
2940.228428700666
 21
1487.901471243852
 31
0.0
  0
LINE
  5
208
330
1F
100
AcDbEntity
  8
0-0
  6
JWW_HOJO
 62
   120
370
     5
100
AcDbLine
 10
3135.228428700666
 20
1487.901471243852
 30
0.0
 11
3135.228428700666
 21
2177.901471243852
 31
0.0
  0
LINE
  5
209
330
1F
100
AcDbEntity
  8
0-0
  6
JWW_HOJO
 62
   120
370
     5
100
AcDbLine
 10
1380.228428700665
 20
2177.901471243852
 30
0.0
 11
3135.228428700666
 21
2177.901471243852
 31
0.0
  0
LINE
  5
20A
330
1F
100
AcDbEntity
  8
0-0
  6
JWW_HOJO
 62
   120
370
     5
100
AcDbLine
 10
3315.228428700666
 20
1412.901471243852
 30
0.0
 11
2940.228428700666
 21
1412.901471243852
 31
0.0
  0
LINE
  5
20B
330
1F
100
AcDbEntity
  8
0-0
  6
JWW_HOJO
 62
   120
370
     5
100
AcDbLine
 10
3315.228428700666
 20
1412.901471243852
 30
0.0
 11
3315.228428700666
 21
2252.901471243852
 31
0.0
  0
LINE
  5
20C
330
1F
100
AcDbEntity
  8
0-0
  6
JWW_HOJO
 62
   120
370
     5
100
AcDbLine
 10
1305.228428700665
 20
2252.901471243852
 30
0.0
 11
3315.228428700666
 21
2252.901471243852
 31
0.0
  0
LINE
  5
20D
330
1F
100
AcDbEntity
  8
0-B
  6
Continuous
 62
   120
370
     5
100
AcDbLine
 10
3315.228428700666
 20
2809.328718035653
 30
0.0
 11
3135.228428700666
 21
2809.328718035653
 31
0.0
  0
LINE
  5
20E
330
1F
100
AcDbEntity
  8
0-B
  6
Continuous
 62
   120
370
     5
100
AcDbLine
 10
3315.228428700666
 20
3349.328718035653
 30
0.0
 11
3135.228428700666
 21
3349.328718035653
 31
0.0
  0
LINE
  5
20F
330
1F
100
AcDbEntity
  8
0-0
  6
JWW_HOJO
 62
   120
370
     5
100
AcDbLine
 10
3210.228428700666
 20
2659.328718035653
 30
0.0
 11
2880.228428700666
 21
2659.328718035653
 31
0.0
  0
LINE
  5
210
330
1F
100
AcDbEntity
  8
0-0
  6
JWW_HOJO
 62
   120
370
     5
100
AcDbLine
 10
3135.228428700666
 20
2734.328718035653
 30
0.0
 11
2880.228428700666
 21
2734.328718035653
 31
0.0
  0
LINE
  5
211
330
1F
100
AcDbEntity
  8
0-4
  6
Continuous
 62
    92
370
    13
100
AcDbLine
 10
3060.228428700666
 20
3296.295709446662
 30
0.0
 11
3007.195420111675
 21
3349.328718035653
 31
0.0
  0
LINE
  5
212
330
1F
100
AcDbEntity
  8
0-4
  6
Continuous
 62
    92
370
    13
100
AcDbLine
 10
1395.228428700665
 20
3341.828718035653
 30
0.0
 11
3004.088818393877
 21
3341.828718035653
 31
0.0
  0
LINE
  5
213
330
1F
100
AcDbEntity
  8
0-4
  6
Continuous
 62
    92
370
    13
100
AcDbLine
 10
3052.728428700666
 20
3293.189107728864
 30
0.0
 11
3004.088818393877
 21
3341.828718035653
 31
0.0
  0
LINE
  5
214
330
1F
100
AcDbEntity
  8
0-4
  6
Continuous
 62
    92
370
    13
100
AcDbLine
 10
3052.728428700666
 20
2809.328718035653
 30
0.0
 11
3052.728428700666
 21
3293.189107728864
 31
0.0
  0
LINE
  5
215
330
1F
100
AcDbEntity
  8
0-0
  6
JWW_HOJO
 62
   120
370
     5
100
AcDbLine
 10
3210.228428700666
 20
2659.328718035653
 30
0.0
 11
3210.228428700666
 21
3358.427743802626
 31
0.0
  0
LINE
  5
216
330
1F
100
AcDbEntity
  8
0-0
  6
JWW_HOJO
 62
   120
370
     5
100
AcDbLine
 10
3135.228428700666
 20
2734.328718035653
 30
0.0
 11
3135.228428700666
 21
3327.361726624644
 31
0.0
  0
LINE
  5
217
330
1F
100
AcDbEntity
  8
0-0
  6
JWW_HOJO
 62
   120
370
     5
100
AcDbLine
 10
3135.228428700666
 20
3327.361726624644
 30
0.0
 11
3038.261437289656
 21
3424.328718035653
 31
0.0
  0
LINE
  5
218
330
1F
100
AcDbEntity
  8
0-0
  6
JWW_HOJO
 62
   120
370
     5
100
AcDbLine
 10
1320.228428700665
 20
3424.328718035653
 30
0.0
 11
3038.261437289656
 21
3424.328718035653
 31
0.0
  0
LINE
  5
219
330
1F
100
AcDbEntity
  8
0-0
  6
JWW_HOJO
 62
   120
370
     5
100
AcDbLine
 10
3210.228428700666
 20
3358.427743802626
 30
0.0
 11
3069.327454467639
 21
3499.328718035653
 31
0.0
  0
LINE
  5
21A
330
1F
100
AcDbEntity
  8
0-0
  6
JWW_HOJO
 62
   120
370
     5
100
AcDbLine
 10
1245.228428700665
 20
3499.328718035653
 30
0.0
 11
3315.228428700666
 21
3499.328718035653
 31
0.0
  0
LINE
  5
21B
330
1F
100
AcDbEntity
  8
0-0
  6
JWW_HOJO
 62
   120
370
     5
100
AcDbLine
 10
3315.228428700666
 20
2809.328718035653
 30
0.0
 11
3315.228428700666
 21
3499.328718035653
 31
0.0
  0
LINE
  5
21C
330
1F
100
AcDbEntity
  8
0-B
  6
Continuous
 62
   120
370
     5
100
AcDbLine
 10
3113.261437289656
 20
3455.394735213635
 30
0.0
 11
3166.294445878648
 21
3402.361726624644
 31
0.0
  0
LWPOLYLINE
  5
21D
330
1F
100
AcDbEntity
  8
0-B
  6
Continuous
 62
     7
370
     9
100
AcDbPolyline
 90
        4
 70
     1
 43
3.0
 10
3114.761437289656
 20
3455.394735213635
 42
0.4142135623731
 10
3113.261437289656
 20
3456.894735213635
 42
0.4142135623731
 10
3111.761437289656
 20
3455.394735213635
 42
0.4142135623731
 10
3113.261437289656
 20
3453.894735213635
 42
0.4142135623731
  0
LWPOLYLINE
  5
21E
330
1F
100
AcDbEntity
  8
0-B
  6
Continuous
 62
     7
370
     9
100
AcDbPolyline
 90
        4
 70
     1
 43
3.0
 10
3167.794445878648
 20
3402.361726624644
 42
0.4142135623731
 10
3166.294445878648
 20
3403.861726624644
 42
0.4142135623731
 10
3164.794445878648
 20
3402.361726624644
 42
0.4142135623731
 10
3166.294445878648
 20
3400.861726624644
 42
0.4142135623731
  0
LINE
  5
21F
330
1F
100
AcDbEntity
  8
0-B
  6
Continuous
 62
   120
370
     5
100
AcDbLine
 10
3113.261437289656
 20
3455.394735213635
 30
0.0
 11
3060.228428700666
 21
3402.361726624644
 31
0.0
  0
LINE
  5
220
330
1F
100
AcDbEntity
  8
0-B
  6
Continuous
 62
   120
370
     5
100
AcDbLine
 10
3166.294445878648
 20
3402.361726624644
 30
0.0
 11
3113.261437289656
 21
3349.328718035653
 31
0.0
  0
MTEXT
  5
221
330
1F
100
AcDbEntity
  8
0-B
  6
Continuous
 62
     7
370
   211
100
AcDbMText
 10
2152.728428700663
 20
3503.618718035652
 30
0.0
 40
68.57999999999998
 41
135.0
 46
0.0
 71
     7
 72
     1
  1
{\fＭＳ ゴシック|b0|i0|c128|p49;111}
 73
     1
 44
1.0
  0
MTEXT
  5
222
330
1F
100
AcDbEntity
  8
0-B
  6
Continuous
 62
     7
370
   211
100
AcDbMText
 10
3134.474640725255
 20
3444.684735213636
 30
0.0
 40
68.57999999999963
 41
44.99999999999976
 46
0.0
 71
     7
 72
     1
  1
{\fＭＳ ゴシック|b0|i0|c128|p49;5}
 11
0.7071067811865285
 21
-0.7071067811865666
 31
0.0
 73
     1
 44
1.0
  0
MTEXT
  5
223
330
1F
100
AcDbEntity
  8
0-B
  6
Continuous
 62
     7
370
   211
100
AcDbMText
 10
1230.228428700665
 20
3199.868718035653
 30
0.0
 40
68.58
 41
90.0
 46
0.0
 71
     7
 72
     1
  1
{\fＭＳ ゴシック|b0|i0|c128|p49;12}
 11
6.123031769111886E-17
 21
1.0
 31
0.0
 73
     1
 44
1.0
  0
MTEXT
  5
224
330
1F
100
AcDbEntity
  8
0-B
  6
Continuous
 62
     7
370
   211
100
AcDbMText
 10
3300.228428700666
 20
3019.868718035653
 30
0.0
 40
68.58
 41
90.0
 46
0.0
 71
     7
 72
     1
  1
{\fＭＳ ゴシック|b0|i0|c128|p49;36}
 11
6.123031769111886E-17
 21
1.0
 31
0.0
 73
     1
 44
1.0
  0
MTEXT
  5
225
330
1F
100
AcDbEntity
  8
0-B
  6
Continuous
 62
     7
370
   211
100
AcDbMText
 10
2921.478428700666
 20
2663.618718035653
 30
0.0
 40
68.58
 41
90.0
 46
0.0
 71
     7
 72
     1
  1
{\fＭＳ ゴシック|b0|i0|c128|p49;12}
 73
     1
 44
1.0
  0
MTEXT
  5
226
330
1F
100
AcDbEntity
  8
0-B
  6
Continuous
 62
     7
370
   211
100
AcDbMText
 10
2182.728428700666
 20
2257.191471243852
 30
0.0
 40
68.57999999999998
 41
135.0
 46
0.0
 71
     7
 72
     1
  1
{\fＭＳ ゴシック|b0|i0|c128|p49;107}
 73
     1
 44
1.0
  0
MTEXT
  5
227
330
1F
100
AcDbEntity
  8
0-B
  6
Continuous
 62
     7
370
   211
100
AcDbMText
 10
3079.37290668139
 20
2143.15575437797
 30
0.0
 40
68.57999999999963
 41
44.99999999999976
 46
0.0
 71
     7
 72
     1
  1
{\fＭＳ ゴシック|b0|i0|c128|p49;2}
 11
0.7071067811865285
 21
-0.7071067811865666
 31
0.0
 73
     1
 44
1.0
  0
MTEXT
  5
228
330
1F
100
AcDbEntity
  8
0-B
  6
Continuous
 62
     7
370
   211
100
AcDbMText
 10
1290.228428700665
 20
1953.441471243852
 30
0.0
 40
68.58
 41
90.0
 46
0.0
 71
     7
 72
     1
  1
{\fＭＳ ゴシック|b0|i0|c128|p49;12}
 11
6.123031769111886E-17
 21
1.0
 31
0.0
 73
     1
 44
1.0
  0
MTEXT
  5
229
330
1F
100
AcDbEntity
  8
0-B
  6
Continuous
 62
     7
370
   211
100
AcDbMText
 10
3300.228428700666
 20
1773.441471243852
 30
0.0
 40
68.58
 41
90.0
 46
0.0
 71
     7
 72
     1
  1
{\fＭＳ ゴシック|b0|i0|c128|p49;36}
 11
6.123031769111886E-17
 21
1.0
 31
0.0
 73
     1
 44
1.0
  0
MTEXT
  5
22A
330
1F
100
AcDbEntity
  8
0-B
  6
Continuous
 62
     7
370
   211
100
AcDbMText
 10
2977.728428700666
 20
1417.191471243852
 30
0.0
 40
68.58
 41
45.0
 46
0.0
 71
     7
 72
     1
  1
{\fＭＳ ゴシック|b0|i0|c128|p49;8}
 73
     1
 44
1.0
  0
LINE
  5
22B
330
1F
100
AcDbEntity
  8
0-4
  6
Continuous
 62
    92
370
    13
100
AcDbLine
 10
-4228.516574175316
 20
-1672.071281284004
 30
0.0
 11
-4228.516574175316
 21
-1852.071281284004
 31
0.0
  0
LINE
  5
22C
330
1F
100
AcDbEntity
  8
0-4
  6
Continuous
 62
    92
370
    13
100
AcDbLine
 10
-2698.516574175314
 20
-2212.071281284004
 30
0.0
 11
-2878.516574175314
 21
-2212.071281284004
 31
0.0
  0
LINE
  5
22D
330
1F
100
AcDbEntity
  8
0-4
  6
Continuous
 62
    92
370
    13
100
AcDbLine
 10
-2878.516574175314
 20
-2212.071281284004
 30
0.0
 11
-2878.516574175314
 21
-1852.071281284004
 31
0.0
  0
LINE
  5
22E
330
1F
100
AcDbEntity
  8
0-4
  6
Continuous
 62
    92
370
    13
100
AcDbLine
 10
-4228.516574175316
 20
-1852.071281284004
 30
0.0
 11
-2878.516574175314
 21
-1852.071281284004
 31
0.0
  0
LINE
  5
22F
330
1F
100
AcDbEntity
  8
0-4
  6
Continuous
 62
    92
370
    13
100
AcDbLine
 10
-4168.516574175314
 20
-2903.079569808329
 30
0.0
 11
-4168.516574175314
 21
-3083.079569808329
 31
0.0
  0
LINE
  5
230
330
1F
100
AcDbEntity
  8
0-4
  6
Continuous
 62
    92
370
    13
100
AcDbLine
 10
-2698.516574175314
 20
-3443.079569808329
 30
0.0
 11
-2818.516574175314
 21
-3443.079569808329
 31
0.0
  0
LINE
  5
231
330
1F
100
AcDbEntity
  8
0-4
  6
Continuous
 62
    92
370
    13
100
AcDbLine
 10
-2818.516574175314
 20
-3443.079569808329
 30
0.0
 11
-2818.516574175314
 21
-3083.079569808329
 31
0.0
  0
LINE
  5
232
330
1F
100
AcDbEntity
  8
0-4
  6
Continuous
 62
    92
370
    13
100
AcDbLine
 10
-4168.516574175314
 20
-3083.079569808329
 30
0.0
 11
-2818.516574175314
 21
-3083.079569808329
 31
0.0
  0
LINE
  5
233
330
1F
100
AcDbEntity
  8
0-4
  6
Continuous
 62
    92
370
    13
100
AcDbLine
 10
-2698.516574175314
 20
-2924.292773243926
 30
0.0
 11
-2698.516574175314
 21
-3443.079569808329
 31
0.0
  0
LINE
  5
234
330
1F
100
AcDbEntity
  8
0-4
  6
Continuous
 62
    92
370
    13
100
AcDbLine
 10
-2719.729777610911
 20
-2903.079569808329
 30
0.0
 11
-4168.516574175314
 21
-2903.079569808329
 31
0.0
  0
LINE
  5
235
330
1F
100
AcDbEntity
  8
0-4
  6
Continuous
 62
    92
370
    13
100
AcDbLine
 10
-2698.516574175314
 20
-2924.292773243926
 30
0.0
 11
-2719.729777610911
 21
-2903.079569808329
 31
0.0
  0
LINE
  5
236
330
1F
100
AcDbEntity
  8
0-4
  6
Continuous
 62
    92
370
    13
100
AcDbLine
 10
-2727.229777610911
 20
-2910.579569808329
 30
0.0
 11
-4168.516574175314
 21
-2910.579569808329
 31
0.0
  0
LINE
  5
237
330
1F
100
AcDbEntity
  8
0-4
  6
Continuous
 62
    92
370
    13
100
AcDbLine
 10
-2706.016574175314
 20
-2931.792773243926
 30
0.0
 11
-2706.016574175314
 21
-3443.079569808329
 31
0.0
  0
LINE
  5
238
330
1F
100
AcDbEntity
  8
0-4
  6
Continuous
 62
    92
370
    13
100
AcDbLine
 10
-2727.229777610911
 20
-2910.579569808329
 30
0.0
 11
-2706.016574175314
 21
-2931.792773243926
 31
0.0
  0
LWPOLYLINE
  5
239
330
1F
100
AcDbEntity
  8
0-B
  6
Continuous
 62
     7
370
     9
100
AcDbPolyline
 90
        4
 70
     1
 43
3.0
 10
-4227.016574175315
 20
-1522.071281284004
 42
0.4142135623731
 10
-4228.516574175316
 20
-1520.571281284004
 42
0.4142135623731
 10
-4230.016574175316
 20
-1522.071281284004
 42
0.4142135623731
 10
-4228.516574175316
 20
-1523.571281284004
 42
0.4142135623731
  0
LINE
  5
23A
330
1F
100
AcDbEntity
  8
0-B
  6
Continuous
 62
   120
370
     5
100
AcDbLine
 10
-4228.516574175316
 20
-1522.071281284004
 30
0.0
 11
-4228.516574175316
 21
-1597.071281284004
 31
0.0
  0
LINE
  5
23B
330
1F
100
AcDbEntity
  8
0-B
  6
Continuous
 62
   120
370
     5
100
AcDbLine
 10
-4378.516574175316
 20
-1672.071281284004
 30
0.0
 11
-4378.516574175316
 21
-1852.071281284004
 31
0.0
  0
LWPOLYLINE
  5
23C
330
1F
100
AcDbEntity
  8
0-B
  6
Continuous
 62
     7
370
     9
100
AcDbPolyline
 90
        4
 70
     1
 43
3.0
 10
-4377.016574175315
 20
-1672.071281284004
 42
0.4142135623731
 10
-4378.516574175316
 20
-1670.571281284004
 42
0.4142135623731
 10
-4380.016574175316
 20
-1672.071281284004
 42
0.4142135623731
 10
-4378.516574175316
 20
-1673.571281284004
 42
0.4142135623731
  0
LWPOLYLINE
  5
23D
330
1F
100
AcDbEntity
  8
0-B
  6
Continuous
 62
     7
370
     9
100
AcDbPolyline
 90
        4
 70
     1
 43
3.0
 10
-4377.016574175315
 20
-1852.071281284004
 42
0.4142135623731
 10
-4378.516574175316
 20
-1850.571281284004
 42
0.4142135623731
 10
-4380.016574175316
 20
-1852.071281284004
 42
0.4142135623731
 10
-4378.516574175316
 20
-1853.571281284004
 42
0.4142135623731
  0
LINE
  5
23E
330
1F
100
AcDbEntity
  8
0-B
  6
Continuous
 62
   120
370
     5
100
AcDbLine
 10
-4378.516574175316
 20
-1672.071281284004
 30
0.0
 11
-4303.516574175316
 21
-1672.071281284004
 31
0.0
  0
LINE
  5
23F
330
1F
100
AcDbEntity
  8
0-B
  6
Continuous
 62
   120
370
     5
100
AcDbLine
 10
-4378.516574175316
 20
-1852.071281284004
 30
0.0
 11
-4303.516574175316
 21
-1852.071281284004
 31
0.0
  0
LWPOLYLINE
  5
240
330
1F
100
AcDbEntity
  8
0-B
  6
Continuous
 62
     7
370
     9
100
AcDbPolyline
 90
        4
 70
     1
 43
3.0
 10
-2697.016574175314
 20
-1522.071281284004
 42
0.4142135623731
 10
-2698.516574175314
 20
-1520.571281284004
 42
0.4142135623731
 10
-2700.016574175314
 20
-1522.071281284004
 42
0.4142135623731
 10
-2698.516574175314
 20
-1523.571281284004
 42
0.4142135623731
  0
LINE
  5
241
330
1F
100
AcDbEntity
  8
0-B
  6
Continuous
 62
   120
370
     5
100
AcDbLine
 10
-2698.516574175314
 20
-1522.071281284004
 30
0.0
 11
-2698.516574175314
 21
-1597.071281284004
 31
0.0
  0
LINE
  5
242
330
1F
100
AcDbEntity
  8
0-B
  6
Continuous
 62
   120
370
     5
100
AcDbLine
 10
-2443.516574175314
 20
-1672.071281284004
 30
0.0
 11
-2443.516574175314
 21
-2212.071281284004
 31
0.0
  0
LWPOLYLINE
  5
243
330
1F
100
AcDbEntity
  8
0-B
  6
Continuous
 62
     7
370
     9
100
AcDbPolyline
 90
        4
 70
     1
 43
3.0
 10
-2442.016574175314
 20
-1672.071281284004
 42
0.4142135623731
 10
-2443.516574175314
 20
-1670.571281284004
 42
0.4142135623731
 10
-2445.016574175314
 20
-1672.071281284004
 42
0.4142135623731
 10
-2443.516574175314
 20
-1673.571281284004
 42
0.4142135623731
  0
LWPOLYLINE
  5
244
330
1F
100
AcDbEntity
  8
0-B
  6
Continuous
 62
     7
370
     9
100
AcDbPolyline
 90
        4
 70
     1
 43
3.0
 10
-2442.016574175314
 20
-2212.071281284004
 42
0.4142135623731
 10
-2443.516574175314
 20
-2210.571281284004
 42
0.4142135623731
 10
-2445.016574175314
 20
-2212.071281284004
 42
0.4142135623731
 10
-2443.516574175314
 20
-2213.571281284004
 42
0.4142135623731
  0
LINE
  5
245
330
1F
100
AcDbEntity
  8
0-B
  6
Continuous
 62
   120
370
     5
100
AcDbLine
 10
-2878.516574175314
 20
-2362.071281284004
 30
0.0
 11
-2698.516574175314
 21
-2362.071281284004
 31
0.0
  0
LWPOLYLINE
  5
246
330
1F
100
AcDbEntity
  8
0-B
  6
Continuous
 62
     7
370
     9
100
AcDbPolyline
 90
        4
 70
     1
 43
3.0
 10
-2877.016574175314
 20
-2362.071281284004
 42
0.4142135623731
 10
-2878.516574175314
 20
-2360.571281284004
 42
0.4142135623731
 10
-2880.016574175314
 20
-2362.071281284004
 42
0.4142135623731
 10
-2878.516574175314
 20
-2363.571281284004
 42
0.4142135623731
  0
LWPOLYLINE
  5
247
330
1F
100
AcDbEntity
  8
0-B
  6
Continuous
 62
     7
370
     9
100
AcDbPolyline
 90
        4
 70
     1
 43
3.0
 10
-2697.016574175314
 20
-2362.071281284004
 42
0.4142135623731
 10
-2698.516574175314
 20
-2360.571281284004
 42
0.4142135623731
 10
-2700.016574175314
 20
-2362.071281284004
 42
0.4142135623731
 10
-2698.516574175314
 20
-2363.571281284004
 42
0.4142135623731
  0
LINE
  5
248
330
1F
100
AcDbEntity
  8
0-B
  6
Continuous
 62
   120
370
     5
100
AcDbLine
 10
-2878.516574175314
 20
-2362.071281284004
 30
0.0
 11
-2878.516574175314
 21
-2287.071281284004
 31
0.0
  0
LINE
  5
249
330
1F
100
AcDbEntity
  8
0-B
  6
Continuous
 62
   120
370
     5
100
AcDbLine
 10
-2698.516574175314
 20
-2362.071281284004
 30
0.0
 11
-2698.516574175314
 21
-2287.071281284004
 31
0.0
  0
LINE
  5
24A
330
1F
100
AcDbEntity
  8
0-B
  6
Continuous
 62
   120
370
     5
100
AcDbLine
 10
-4228.516574175316
 20
-1522.071281284004
 30
0.0
 11
-2698.516574175314
 21
-1522.071281284004
 31
0.0
  0
LWPOLYLINE
  5
24B
330
1F
100
AcDbEntity
  8
0-B
  6
Continuous
 62
     7
370
     9
100
AcDbPolyline
 90
        4
 70
     1
 43
3.0
 10
-4167.016574175314
 20
-2753.079569808329
 42
0.4142135623731
 10
-4168.516574175314
 20
-2751.579569808329
 42
0.4142135623731
 10
-4170.016574175314
 20
-2753.079569808329
 42
0.4142135623731
 10
-4168.516574175314
 20
-2754.579569808329
 42
0.4142135623731
  0
LINE
  5
24C
330
1F
100
AcDbEntity
  8
0-B
  6
Continuous
 62
   120
370
     5
100
AcDbLine
 10
-4168.516574175314
 20
-2753.079569808329
 30
0.0
 11
-4168.516574175314
 21
-2828.079569808329
 31
0.0
  0
LINE
  5
24D
330
1F
100
AcDbEntity
  8
0-B
  6
Continuous
 62
   120
370
     5
100
AcDbLine
 10
-4318.516574175314
 20
-2903.079569808329
 30
0.0
 11
-4318.516574175314
 21
-3083.079569808329
 31
0.0
  0
LWPOLYLINE
  5
24E
330
1F
100
AcDbEntity
  8
0-B
  6
Continuous
 62
     7
370
     9
100
AcDbPolyline
 90
        4
 70
     1
 43
3.0
 10
-4317.016574175314
 20
-2903.079569808329
 42
0.4142135623731
 10
-4318.516574175314
 20
-2901.579569808329
 42
0.4142135623731
 10
-4320.016574175314
 20
-2903.079569808329
 42
0.4142135623731
 10
-4318.516574175314
 20
-2904.579569808329
 42
0.4142135623731
  0
LWPOLYLINE
  5
24F
330
1F
100
AcDbEntity
  8
0-B
  6
Continuous
 62
     7
370
     9
100
AcDbPolyline
 90
        4
 70
     1
 43
3.0
 10
-4317.016574175314
 20
-3083.079569808329
 42
0.4142135623731
 10
-4318.516574175314
 20
-3081.579569808329
 42
0.4142135623731
 10
-4320.016574175314
 20
-3083.079569808329
 42
0.4142135623731
 10
-4318.516574175314
 20
-3084.579569808329
 42
0.4142135623731
  0
LINE
  5
250
330
1F
100
AcDbEntity
  8
0-B
  6
Continuous
 62
   120
370
     5
100
AcDbLine
 10
-4318.516574175314
 20
-2903.079569808329
 30
0.0
 11
-4243.516574175314
 21
-2903.079569808329
 31
0.0
  0
LINE
  5
251
330
1F
100
AcDbEntity
  8
0-B
  6
Continuous
 62
   120
370
     5
100
AcDbLine
 10
-4318.516574175314
 20
-3083.079569808329
 30
0.0
 11
-4243.516574175314
 21
-3083.079569808329
 31
0.0
  0
LWPOLYLINE
  5
252
330
1F
100
AcDbEntity
  8
0-B
  6
Continuous
 62
     7
370
     9
100
AcDbPolyline
 90
        4
 70
     1
 43
3.0
 10
-2697.016574175314
 20
-2753.079569808329
 42
0.4142135623731
 10
-2698.516574175314
 20
-2751.579569808329
 42
0.4142135623731
 10
-2700.016574175314
 20
-2753.079569808329
 42
0.4142135623731
 10
-2698.516574175314
 20
-2754.579569808329
 42
0.4142135623731
  0
LINE
  5
253
330
1F
100
AcDbEntity
  8
0-B
  6
Continuous
 62
   120
370
     5
100
AcDbLine
 10
-2698.516574175314
 20
-2753.079569808329
 30
0.0
 11
-2698.516574175314
 21
-2828.079569808329
 31
0.0
  0
LINE
  5
254
330
1F
100
AcDbEntity
  8
0-B
  6
Continuous
 62
   120
370
     5
100
AcDbLine
 10
-2818.516574175314
 20
-3593.079569808329
 30
0.0
 11
-2698.516574175314
 21
-3593.079569808329
 31
0.0
  0
LWPOLYLINE
  5
255
330
1F
100
AcDbEntity
  8
0-B
  6
Continuous
 62
     7
370
     9
100
AcDbPolyline
 90
        4
 70
     1
 43
3.0
 10
-2817.016574175314
 20
-3593.079569808329
 42
0.4142135623731
 10
-2818.516574175314
 20
-3591.579569808329
 42
0.4142135623731
 10
-2820.016574175314
 20
-3593.079569808329
 42
0.4142135623731
 10
-2818.516574175314
 20
-3594.579569808329
 42
0.4142135623731
  0
LWPOLYLINE
  5
256
330
1F
100
AcDbEntity
  8
0-B
  6
Continuous
 62
     7
370
     9
100
AcDbPolyline
 90
        4
 70
     1
 43
3.0
 10
-2697.016574175314
 20
-3593.079569808329
 42
0.4142135623731
 10
-2698.516574175314
 20
-3591.579569808329
 42
0.4142135623731
 10
-2700.016574175314
 20
-3593.079569808329
 42
0.4142135623731
 10
-2698.516574175314
 20
-3594.579569808329
 42
0.4142135623731
  0
LINE
  5
257
330
1F
100
AcDbEntity
  8
0-B
  6
Continuous
 62
   120
370
     5
100
AcDbLine
 10
-2818.516574175314
 20
-3593.079569808329
 30
0.0
 11
-2818.516574175314
 21
-3518.079569808329
 31
0.0
  0
LINE
  5
258
330
1F
100
AcDbEntity
  8
0-B
  6
Continuous
 62
   120
370
     5
100
AcDbLine
 10
-2698.516574175314
 20
-3593.079569808329
 30
0.0
 11
-2698.516574175314
 21
-3518.079569808329
 31
0.0
  0
LINE
  5
259
330
1F
100
AcDbEntity
  8
0-B
  6
Continuous
 62
   120
370
     5
100
AcDbLine
 10
-4168.516574175314
 20
-2753.079569808329
 30
0.0
 11
-2698.516574175314
 21
-2753.079569808329
 31
0.0
  0
LINE
  5
25A
330
1F
100
AcDbEntity
  8
0-B
  6
Continuous
 62
   120
370
     5
100
AcDbLine
 10
-2699.09792481975
 20
-2882.447717017169
 30
0.0
 11
-2677.884721384154
 21
-2903.660920452764
 31
0.0
  0
LWPOLYLINE
  5
25B
330
1F
100
AcDbEntity
  8
0-B
  6
Continuous
 62
     7
370
     9
100
AcDbPolyline
 90
        4
 70
     1
 43
3.0
 10
-2697.59792481975
 20
-2882.447717017169
 42
0.4142135623731
 10
-2699.09792481975
 20
-2880.947717017169
 42
0.4142135623731
 10
-2700.59792481975
 20
-2882.447717017169
 42
0.4142135623731
 10
-2699.09792481975
 20
-2883.947717017169
 42
0.4142135623731
  0
LWPOLYLINE
  5
25C
330
1F
100
AcDbEntity
  8
0-B
  6
Continuous
 62
     7
370
     9
100
AcDbPolyline
 90
        4
 70
     1
 43
3.0
 10
-2676.384721384154
 20
-2903.660920452764
 42
0.4142135623731
 10
-2677.884721384154
 20
-2902.160920452764
 42
0.4142135623731
 10
-2679.384721384154
 20
-2903.660920452764
 42
0.4142135623731
 10
-2677.884721384154
 20
-2905.160920452764
 42
0.4142135623731
  0
LINE
  5
25D
330
1F
100
AcDbEntity
  8
0-B
  6
Continuous
 62
   120
370
     5
100
AcDbLine
 10
-2699.09792481975
 20
-2882.447717017169
 30
0.0
 11
-2656.090167304123
 21
-2839.43995950154
 31
0.0
  0
LINE
  5
25E
330
1F
100
AcDbEntity
  8
0-B
  6
Continuous
 62
   120
370
     5
100
AcDbLine
 10
-2677.884721384154
 20
-2903.660920452764
 30
0.0
 11
-2634.876963868526
 21
-2860.653162937136
 31
0.0
  0
LINE
  5
25F
330
1F
100
AcDbEntity
  8
0-B
  6
Continuous
 62
   120
370
     5
100
AcDbLine
 10
-2443.516574175314
 20
-2903.079569808329
 30
0.0
 11
-2443.516574175314
 21
-3443.079569808329
 31
0.0
  0
LWPOLYLINE
  5
260
330
1F
100
AcDbEntity
  8
0-B
  6
Continuous
 62
     7
370
     9
100
AcDbPolyline
 90
        4
 70
     1
 43
3.0
 10
-2442.016574175314
 20
-2903.079569808329
 42
0.4142135623731
 10
-2443.516574175314
 20
-2901.579569808329
 42
0.4142135623731
 10
-2445.016574175314
 20
-2903.079569808329
 42
0.4142135623731
 10
-2443.516574175314
 20
-2904.579569808329
 42
0.4142135623731
  0
LWPOLYLINE
  5
261
330
1F
100
AcDbEntity
  8
0-B
  6
Continuous
 62
     7
370
     9
100
AcDbPolyline
 90
        4
 70
     1
 43
3.0
 10
-2442.016574175314
 20
-3443.079569808329
 42
0.4142135623731
 10
-2443.516574175314
 20
-3441.579569808329
 42
0.4142135623731
 10
-2445.016574175314
 20
-3443.079569808329
 42
0.4142135623731
 10
-2443.516574175314
 20
-3444.579569808329
 42
0.4142135623731
  0
LINE
  5
262
330
1F
100
AcDbEntity
  8
0-B
  6
Continuous
 62
   120
370
     5
100
AcDbLine
 10
-2443.516574175314
 20
-2903.079569808329
 30
0.0
 11
-2623.516574175314
 21
-2903.079569808329
 31
0.0
  0
LINE
  5
263
330
1F
100
AcDbEntity
  8
0-B
  6
Continuous
 62
   120
370
     5
100
AcDbLine
 10
-2443.516574175314
 20
-3443.079569808329
 30
0.0
 11
-2623.516574175314
 21
-3443.079569808329
 31
0.0
  0
LINE
  5
264
330
1F
100
AcDbEntity
  8
0-0
  6
JWW_HOJO
 62
   120
370
     5
100
AcDbLine
 10
-4303.516574175316
 20
-1597.071281284004
 30
0.0
 11
-4303.516574175316
 21
-1852.071281284004
 31
0.0
  0
LINE
  5
265
330
1F
100
AcDbEntity
  8
0-0
  6
JWW_HOJO
 62
   120
370
     5
100
AcDbLine
 10
-4378.516574175316
 20
-1522.071281284004
 30
0.0
 11
-4378.516574175316
 21
-1852.071281284004
 31
0.0
  0
LINE
  5
266
330
1F
100
AcDbEntity
  8
0-0
  6
JWW_HOJO
 62
   120
370
     5
100
AcDbLine
 10
-4228.516574175316
 20
-1852.071281284004
 30
0.0
 11
-4378.516574175316
 21
-1852.071281284004
 31
0.0
  0
LINE
  5
267
330
1F
100
AcDbEntity
  8
0-0
  6
JWW_HOJO
 62
   120
370
     5
100
AcDbLine
 10
-2698.516574175314
 20
-2212.071281284004
 30
0.0
 11
-2443.516574175314
 21
-2212.071281284004
 31
0.0
  0
LINE
  5
268
330
1F
100
AcDbEntity
  8
0-0
  6
JWW_HOJO
 62
   120
370
     5
100
AcDbLine
 10
-2878.516574175314
 20
-2212.071281284004
 30
0.0
 11
-2878.516574175314
 21
-2362.071281284004
 31
0.0
  0
LINE
  5
269
330
1F
100
AcDbEntity
  8
0-0
  6
JWW_HOJO
 62
   120
370
     5
100
AcDbLine
 10
-4168.516574175314
 20
-3083.079569808329
 30
0.0
 11
-4318.516574175314
 21
-3083.079569808329
 31
0.0
  0
LINE
  5
26A
330
1F
100
AcDbEntity
  8
0-0
  6
JWW_HOJO
 62
   120
370
     5
100
AcDbLine
 10
-4318.516574175314
 20
-2753.079569808329
 30
0.0
 11
-4318.516574175314
 21
-3083.079569808329
 31
0.0
  0
LINE
  5
26B
330
1F
100
AcDbEntity
  8
0-0
  6
JWW_HOJO
 62
   120
370
     5
100
AcDbLine
 10
-4243.516574175314
 20
-2828.079569808329
 30
0.0
 11
-4243.516574175314
 21
-3083.079569808329
 31
0.0
  0
LINE
  5
26C
330
1F
100
AcDbEntity
  8
0-0
  6
JWW_HOJO
 62
   120
370
     5
100
AcDbLine
 10
-2818.516574175314
 20
-3443.079569808329
 30
0.0
 11
-2818.516574175314
 21
-3593.079569808329
 31
0.0
  0
LINE
  5
26D
330
1F
100
AcDbEntity
  8
0-0
  6
JWW_HOJO
 62
   120
370
     5
100
AcDbLine
 10
-2623.516574175314
 20
-3518.079569808329
 30
0.0
 11
-2818.516574175314
 21
-3518.079569808329
 31
0.0
  0
LINE
  5
26E
330
1F
100
AcDbEntity
  8
0-0
  6
JWW_HOJO
 62
   120
370
     5
100
AcDbLine
 10
-2623.516574175314
 20
-3518.079569808329
 30
0.0
 11
-2623.516574175314
 21
-2828.079569808329
 31
0.0
  0
LINE
  5
26F
330
1F
100
AcDbEntity
  8
0-0
  6
JWW_HOJO
 62
   120
370
     5
100
AcDbLine
 10
-4243.516574175314
 20
-2828.079569808329
 30
0.0
 11
-2623.516574175314
 21
-2828.079569808329
 31
0.0
  0
LINE
  5
270
330
1F
100
AcDbEntity
  8
0-0
  6
JWW_HOJO
 62
   120
370
     5
100
AcDbLine
 10
-2443.516574175314
 20
-3593.079569808329
 30
0.0
 11
-2818.516574175314
 21
-3593.079569808329
 31
0.0
  0
LINE
  5
271
330
1F
100
AcDbEntity
  8
0-0
  6
JWW_HOJO
 62
   120
370
     5
100
AcDbLine
 10
-2443.516574175314
 20
-3593.079569808329
 30
0.0
 11
-2443.516574175314
 21
-2753.079569808329
 31
0.0
  0
LINE
  5
272
330
1F
100
AcDbEntity
  8
0-0
  6
JWW_HOJO
 62
   120
370
     5
100
AcDbLine
 10
-4318.516574175314
 20
-2753.079569808329
 30
0.0
 11
-2443.516574175314
 21
-2753.079569808329
 31
0.0
  0
LINE
  5
273
330
1F
100
AcDbEntity
  8
0-B
  6
Continuous
 62
   120
370
     5
100
AcDbLine
 10
-2443.516574175314
 20
-1672.071281284004
 30
0.0
 11
-2623.516574175314
 21
-1672.071281284004
 31
0.0
  0
LINE
  5
274
330
1F
100
AcDbEntity
  8
0-B
  6
Continuous
 62
   120
370
     5
100
AcDbLine
 10
-2443.516574175314
 20
-2212.071281284004
 30
0.0
 11
-2623.516574175314
 21
-2212.071281284004
 31
0.0
  0
LINE
  5
275
330
1F
100
AcDbEntity
  8
0-0
  6
JWW_HOJO
 62
   120
370
     5
100
AcDbLine
 10
-2623.516574175314
 20
-2287.071281284004
 30
0.0
 11
-2878.516574175314
 21
-2287.071281284004
 31
0.0
  0
LINE
  5
276
330
1F
100
AcDbEntity
  8
0-0
  6
JWW_HOJO
 62
   120
370
     5
100
AcDbLine
 10
-2548.516574175314
 20
-2362.071281284004
 30
0.0
 11
-2878.516574175314
 21
-2362.071281284004
 31
0.0
  0
LINE
  5
277
330
1F
100
AcDbEntity
  8
0-4
  6
Continuous
 62
    92
370
    13
100
AcDbLine
 10
-2751.549582764306
 20
-1672.071281284004
 30
0.0
 11
-4228.516574175316
 21
-1672.071281284004
 31
0.0
  0
LINE
  5
278
330
1F
100
AcDbEntity
  8
0-4
  6
Continuous
 62
    92
370
    13
100
AcDbLine
 10
-2698.516574175314
 20
-1725.104289872995
 30
0.0
 11
-2698.516574175314
 21
-2212.071281284004
 31
0.0
  0
LINE
  5
279
330
1F
100
AcDbEntity
  8
0-4
  6
Continuous
 62
    92
370
    13
100
AcDbLine
 10
-2751.549582764306
 20
-1672.071281284004
 30
0.0
 11
-2698.516574175314
 21
-1725.104289872995
 31
0.0
  0
LINE
  5
27A
330
1F
100
AcDbEntity
  8
0-4
  6
Continuous
 62
    92
370
    13
100
AcDbLine
 10
-4228.516574175316
 20
-1679.571281284004
 30
0.0
 11
-2754.656184482104
 21
-1679.571281284004
 31
0.0
  0
LINE
  5
27B
330
1F
100
AcDbEntity
  8
0-4
  6
Continuous
 62
    92
370
    13
100
AcDbLine
 10
-2754.656184482104
 20
-1679.571281284004
 30
0.0
 11
-2706.016574175314
 21
-1728.210891590793
 31
0.0
  0
LINE
  5
27C
330
1F
100
AcDbEntity
  8
0-4
  6
Continuous
 62
    92
370
    13
100
AcDbLine
 10
-2706.016574175314
 20
-2212.071281284004
 30
0.0
 11
-2706.016574175314
 21
-1728.210891590793
 31
0.0
  0
LINE
  5
27D
330
1F
100
AcDbEntity
  8
0-0
  6
JWW_HOJO
 62
   120
370
     5
100
AcDbLine
 10
-2623.516574175314
 20
-2287.071281284004
 30
0.0
 11
-2623.516574175314
 21
-1694.038272695012
 31
0.0
  0
LINE
  5
27E
330
1F
100
AcDbEntity
  8
0-0
  6
JWW_HOJO
 62
   120
370
     5
100
AcDbLine
 10
-2720.483565586324
 20
-1597.071281284004
 30
0.0
 11
-2623.516574175314
 21
-1694.038272695012
 31
0.0
  0
LINE
  5
27F
330
1F
100
AcDbEntity
  8
0-0
  6
JWW_HOJO
 62
   120
370
     5
100
AcDbLine
 10
-4303.516574175316
 20
-1597.071281284004
 30
0.0
 11
-2720.483565586324
 21
-1597.071281284004
 31
0.0
  0
LINE
  5
280
330
1F
100
AcDbEntity
  8
0-0
  6
JWW_HOJO
 62
   120
370
     5
100
AcDbLine
 10
-2548.516574175314
 20
-2362.071281284004
 30
0.0
 11
-2548.516574175314
 21
-1662.972255517031
 31
0.0
  0
LINE
  5
281
330
1F
100
AcDbEntity
  8
0-0
  6
JWW_HOJO
 62
   120
370
     5
100
AcDbLine
 10
-2689.417548408342
 20
-1522.071281284004
 30
0.0
 11
-2548.516574175314
 21
-1662.972255517031
 31
0.0
  0
LINE
  5
282
330
1F
100
AcDbEntity
  8
0-0
  6
JWW_HOJO
 62
   120
370
     5
100
AcDbLine
 10
-4378.516574175316
 20
-1522.071281284004
 30
0.0
 11
-2443.516574175314
 21
-1522.071281284004
 31
0.0
  0
LINE
  5
283
330
1F
100
AcDbEntity
  8
0-0
  6
JWW_HOJO
 62
   120
370
     5
100
AcDbLine
 10
-2443.516574175314
 20
-2212.071281284004
 30
0.0
 11
-2443.516574175314
 21
-1522.071281284004
 31
0.0
  0
LINE
  5
284
330
1F
100
AcDbEntity
  8
0-B
  6
Continuous
 62
   120
370
     5
100
AcDbLine
 10
-2645.483565586324
 20
-1566.005264106022
 30
0.0
 11
-2592.450556997333
 21
-1619.038272695012
 31
0.0
  0
LWPOLYLINE
  5
285
330
1F
100
AcDbEntity
  8
0-B
  6
Continuous
 62
     7
370
     9
100
AcDbPolyline
 90
        4
 70
     1
 43
3.0
 10
-2643.983565586325
 20
-1566.005264106022
 42
0.4142135623731
 10
-2645.483565586324
 20
-1564.505264106022
 42
0.4142135623731
 10
-2646.983565586324
 20
-1566.005264106022
 42
0.4142135623731
 10
-2645.483565586324
 20
-1567.505264106022
 42
0.4142135623731
  0
LWPOLYLINE
  5
286
330
1F
100
AcDbEntity
  8
0-B
  6
Continuous
 62
     7
370
     9
100
AcDbPolyline
 90
        4
 70
     1
 43
3.0
 10
-2590.950556997333
 20
-1619.038272695012
 42
0.4142135623731
 10
-2592.450556997333
 20
-1617.538272695012
 42
0.4142135623731
 10
-2593.950556997333
 20
-1619.038272695012
 42
0.4142135623731
 10
-2592.450556997333
 20
-1620.538272695012
 42
0.4142135623731
  0
LINE
  5
287
330
1F
100
AcDbEntity
  8
0-B
  6
Continuous
 62
   120
370
     5
100
AcDbLine
 10
-2645.483565586324
 20
-1566.005264106022
 30
0.0
 11
-2698.516574175314
 21
-1619.038272695012
 31
0.0
  0
LINE
  5
288
330
1F
100
AcDbEntity
  8
0-B
  6
Continuous
 62
   120
370
     5
100
AcDbLine
 10
-2592.450556997333
 20
-1619.038272695012
 30
0.0
 11
-2645.483565586324
 21
-1672.071281284004
 31
0.0
  0
MTEXT
  5
289
330
1F
100
AcDbEntity
  8
0-A
  6
Continuous
 62
     7
370
     9
100
AcDbMText
 10
-552.5005732349172
 20
-1423.834863112333
 30
0.0
 40
68.57999999999998
 41
315.0
 46
0.0
 71
     7
 72
     1
  1
{\fＭＳ ゴシック|b0|i0|c128|p49;2(偶数)}
 73
     1
 44
1.0
  0
MTEXT
  5
28A
330
1F
100
AcDbEntity
  8
0-A
  6
Continuous
 62
     7
370
     9
100
AcDbMText
 10
-2187.500758815456
 20
-1501.959868112333
 30
0.0
 40
68.58
 41
630.0
 46
0.0
 71
     7
 72
     1
  1
{\fＭＳ ゴシック|b0|i0|c128|p49;3,900×102×36}
 73
     1
 44
1.0
  0
MTEXT
  5
28B
330
1F
100
AcDbEntity
  8
0-A
  6
Continuous
 62
     7
370
     9
100
AcDbMText
 10
-417.5005732349172
 20
-1580.084873112333
 30
0.0
 40
68.58
 41
45.0
 46
0.0
 71
     7
 72
     1
  1
{\fＭＳ ゴシック|b0|i0|c128|p49;1}
 73
     1
 44
1.0
  0
MTEXT
  5
28C
330
1F
100
AcDbEntity
  8
0-A
  6
Continuous
 62
     7
370
     0
100
AcDbMText
 10
-4895.000028867979
 20
-1730.469898112333
 30
0.0
 40
99.06
 41
390.0
 46
0.0
 71
     7
 72
     1
  1
{\f@ＭＳ ゴシック|b0|i0|c128|p49;縦　用}
 11
-1.836909530733566E-16
 21
-1.0
 31
0.0
 73
     1
 44
1.0
  0
MTEXT
  5
28D
330
1F
100
AcDbEntity
  8
0-A
  6
Continuous
 62
     7
370
     9
100
AcDbMText
 10
-552.5005732349172
 20
-2673.834943112334
 30
0.0
 40
68.57999999999998
 41
315.0
 46
0.0
 71
     7
 72
     1
  1
{\fＭＳ ゴシック|b0|i0|c128|p49;2(偶数)}
 73
     1
 44
1.0
  0
MTEXT
  5
28E
330
1F
100
AcDbEntity
  8
0-A
  6
Continuous
 62
     7
370
     9
100
AcDbMText
 10
-2165.000758815456
 20
-2751.959948112333
 30
0.0
 40
68.58
 41
585.0
 46
0.0
 71
     7
 72
     1
  1
{\fＭＳ ゴシック|b0|i0|c128|p49;3,900×98×36}
 73
     1
 44
1.0
  0
MTEXT
  5
28F
330
1F
100
AcDbEntity
  8
0-A
  6
Continuous
 62
     7
370
     9
100
AcDbMText
 10
-417.5005732349172
 20
-2830.084953112333
 30
0.0
 40
68.58
 41
45.0
 46
0.0
 71
     7
 72
     1
  1
{\fＭＳ ゴシック|b0|i0|c128|p49;1}
 73
     1
 44
1.0
  0
MTEXT
  5
290
330
1F
100
AcDbEntity
  8
0-A
  6
Continuous
 62
     7
370
     0
100
AcDbMText
 10
-4895.000028867979
 20
-2980.469978112333
 30
0.0
 40
99.06
 41
390.0
 46
0.0
 71
     7
 72
     1
  1
{\f@ＭＳ ゴシック|b0|i0|c128|p49;横　用}
 11
-1.836909530733566E-16
 21
-1.0
 31
0.0
 73
     1
 44
1.0
  0
MTEXT
  5
291
330
1F
100
AcDbEntity
  8
0-B
  6
Continuous
 62
     7
370
   211
100
AcDbMText
 10
-3538.516574175318
 20
-1517.781281284004
 30
0.0
 40
68.57999999999998
 41
135.0
 46
0.0
 71
     7
 72
     1
  1
{\fＭＳ ゴシック|b0|i0|c128|p49;102}
 73
     1
 44
1.0
  0
MTEXT
  5
292
330
1F
100
AcDbEntity
  8
0-B
  6
Continuous
 62
     7
370
   211
100
AcDbMText
 10
-2624.270362150726
 20
-1576.715264106021
 30
0.0
 40
68.57999999999987
 41
44.99999999999991
 46
0.0
 71
     7
 72
     1
  1
{\fＭＳ ゴシック|b0|i0|c128|p49;5}
 11
0.7071067811865285
 21
-0.7071067811865666
 31
0.0
 73
     1
 44
1.0
  0
MTEXT
  5
293
330
1F
100
AcDbEntity
  8
0-B
  6
Continuous
 62
     7
370
   211
100
AcDbMText
 10
-4393.516574175316
 20
-1821.531281284004
 30
0.0
 40
68.58
 41
90.0
 46
0.0
 71
     7
 72
     1
  1
{\fＭＳ ゴシック|b0|i0|c128|p49;12}
 11
6.123031769111886E-17
 21
1.0
 31
0.0
 73
     1
 44
1.0
  0
MTEXT
  5
294
330
1F
100
AcDbEntity
  8
0-B
  6
Continuous
 62
     7
370
   211
100
AcDbMText
 10
-2458.516574175314
 20
-2001.531281284004
 30
0.0
 40
68.58
 41
90.0
 46
0.0
 71
     7
 72
     1
  1
{\fＭＳ ゴシック|b0|i0|c128|p49;36}
 11
6.123031769111886E-17
 21
1.0
 31
0.0
 73
     1
 44
1.0
  0
MTEXT
  5
295
330
1F
100
AcDbEntity
  8
0-B
  6
Continuous
 62
     7
370
   211
100
AcDbMText
 10
-2837.266574175314
 20
-2357.781281284004
 30
0.0
 40
68.58
 41
90.0
 46
0.0
 71
     7
 72
     1
  1
{\fＭＳ ゴシック|b0|i0|c128|p49;12}
 73
     1
 44
1.0
  0
MTEXT
  5
296
330
1F
100
AcDbEntity
  8
0-B
  6
Continuous
 62
     7
370
   211
100
AcDbMText
 10
-3482.266574175314
 20
-2748.789569808329
 30
0.0
 40
68.58
 41
90.0
 46
0.0
 71
     7
 72
     1
  1
{\fＭＳ ゴシック|b0|i0|c128|p49;98}
 73
     1
 44
1.0
  0
MTEXT
  5
297
330
1F
100
AcDbEntity
  8
0-B
  6
Continuous
 62
     7
370
   211
100
AcDbMText
 10
-2693.79462396085
 20
-2877.24781444047
 30
0.0
 40
68.57999999999963
 41
44.99999999999976
 46
0.0
 71
     7
 72
     1
  1
{\fＭＳ ゴシック|b0|i0|c128|p49;2}
 11
0.7071067811865285
 21
-0.7071067811865666
 31
0.0
 73
     1
 44
1.0
  0
MTEXT
  5
298
330
1F
100
AcDbEntity
  8
0-B
  6
Continuous
 62
     7
370
   211
100
AcDbMText
 10
-4333.516574175314
 20
-3052.539569808329
 30
0.0
 40
68.58
 41
90.0
 46
0.0
 71
     7
 72
     1
  1
{\fＭＳ ゴシック|b0|i0|c128|p49;12}
 11
6.123031769111886E-17
 21
1.0
 31
0.0
 73
     1
 44
1.0
  0
MTEXT
  5
299
330
1F
100
AcDbEntity
  8
0-B
  6
Continuous
 62
     7
370
   211
100
AcDbMText
 10
-2458.516574175314
 20
-3232.539569808329
 30
0.0
 40
68.58
 41
90.0
 46
0.0
 71
     7
 72
     1
  1
{\fＭＳ ゴシック|b0|i0|c128|p49;36}
 11
6.123031769111886E-17
 21
1.0
 31
0.0
 73
     1
 44
1.0
  0
MTEXT
  5
29A
330
1F
100
AcDbEntity
  8
0-B
  6
Continuous
 62
     7
370
   211
100
AcDbMText
 10
-2781.016574175314
 20
-3588.789569808329
 30
0.0
 40
68.58
 41
45.0
 46
0.0
 71
     7
 72
     1
  1
{\fＭＳ ゴシック|b0|i0|c128|p49;8}
 73
     1
 44
1.0
  0
LINE
  5
29B
330
1F
100
AcDbEntity
  8
0-4
  6
Continuous
 62
    92
370
    13
100
AcDbLine
 10
-4224.016574175316
 20
827.928878715997
 30
0.0
 11
-4224.016574175316
 21
647.928878715997
 31
0.0
  0
LINE
  5
29C
330
1F
100
AcDbEntity
  8
0-4
  6
Continuous
 62
    92
370
    13
100
AcDbLine
 10
-4224.016574175316
 20
647.928878715997
 30
0.0
 11
-2878.516574175314
 21
647.928878715997
 31
0.0
  0
LINE
  5
29D
330
1F
100
AcDbEntity
  8
0-4
  6
Continuous
 62
    92
370
    13
100
AcDbLine
 10
-4164.016574175314
 20
-403.0794098083283
 30
0.0
 11
-4164.016574175314
 21
-583.0794098083283
 31
0.0
  0
LINE
  5
29E
330
1F
100
AcDbEntity
  8
0-4
  6
Continuous
 62
    92
370
    13
100
AcDbLine
 10
-4164.016574175314
 20
-583.0794098083283
 30
0.0
 11
-2818.516574175314
 21
-583.0794098083283
 31
0.0
  0
LINE
  5
29F
330
1F
100
AcDbEntity
  8
0-4
  6
Continuous
 62
    92
370
    13
100
AcDbLine
 10
-2719.729777610911
 20
-403.0794098083283
 30
0.0
 11
-4164.016574175314
 21
-403.0794098083283
 31
0.0
  0
LINE
  5
2A0
330
1F
100
AcDbEntity
  8
0-4
  6
Continuous
 62
    92
370
    13
100
AcDbLine
 10
-2727.229777610911
 20
-410.5794098083283
 30
0.0
 11
-4164.016574175314
 21
-410.5794098083283
 31
0.0
  0
LWPOLYLINE
  5
2A1
330
1F
100
AcDbEntity
  8
0-B
  6
Continuous
 62
     7
370
     9
100
AcDbPolyline
 90
        4
 70
     1
 43
3.0
 10
-4222.516574175315
 20
977.928878715997
 42
0.4142135623731
 10
-4224.016574175316
 20
979.4288787159969
 42
0.4142135623731
 10
-4225.516574175316
 20
977.928878715997
 42
0.4142135623731
 10
-4224.016574175316
 20
976.4288787159971
 42
0.4142135623731
  0
LINE
  5
2A2
330
1F
100
AcDbEntity
  8
0-B
  6
Continuous
 62
   120
370
     5
100
AcDbLine
 10
-4224.016574175316
 20
977.928878715997
 30
0.0
 11
-4224.016574175316
 21
902.928878715997
 31
0.0
  0
LINE
  5
2A3
330
1F
100
AcDbEntity
  8
0-B
  6
Continuous
 62
   120
370
     5
100
AcDbLine
 10
-4374.016574175316
 20
827.928878715997
 30
0.0
 11
-4374.016574175316
 21
647.928878715997
 31
0.0
  0
LWPOLYLINE
  5
2A4
330
1F
100
AcDbEntity
  8
0-B
  6
Continuous
 62
     7
370
     9
100
AcDbPolyline
 90
        4
 70
     1
 43
3.0
 10
-4372.516574175315
 20
827.928878715997
 42
0.4142135623731
 10
-4374.016574175316
 20
829.428878715997
 42
0.4142135623731
 10
-4375.516574175316
 20
827.928878715997
 42
0.4142135623731
 10
-4374.016574175316
 20
826.428878715997
 42
0.4142135623731
  0
LWPOLYLINE
  5
2A5
330
1F
100
AcDbEntity
  8
0-B
  6
Continuous
 62
     7
370
     9
100
AcDbPolyline
 90
        4
 70
     1
 43
3.0
 10
-4372.516574175315
 20
647.928878715997
 42
0.4142135623731
 10
-4374.016574175316
 20
649.428878715997
 42
0.4142135623731
 10
-4375.516574175316
 20
647.928878715997
 42
0.4142135623731
 10
-4374.016574175316
 20
646.428878715997
 42
0.4142135623731
  0
LINE
  5
2A6
330
1F
100
AcDbEntity
  8
0-B
  6
Continuous
 62
   120
370
     5
100
AcDbLine
 10
-4374.016574175316
 20
827.928878715997
 30
0.0
 11
-4299.016574175316
 21
827.928878715997
 31
0.0
  0
LINE
  5
2A7
330
1F
100
AcDbEntity
  8
0-B
  6
Continuous
 62
   120
370
     5
100
AcDbLine
 10
-4374.016574175316
 20
647.928878715997
 30
0.0
 11
-4299.016574175316
 21
647.928878715997
 31
0.0
  0
LINE
  5
2A8
330
1F
100
AcDbEntity
  8
0-B
  6
Continuous
 62
   120
370
     5
100
AcDbLine
 10
-4224.016574175316
 20
977.928878715997
 30
0.0
 11
-2698.516574175314
 21
977.928878715997
 31
0.0
  0
LWPOLYLINE
  5
2A9
330
1F
100
AcDbEntity
  8
0-B
  6
Continuous
 62
     7
370
     9
100
AcDbPolyline
 90
        4
 70
     1
 43
3.0
 10
-4162.516574175314
 20
-253.0794098083283
 42
0.4142135623731
 10
-4164.016574175314
 20
-251.5794098083282
 42
0.4142135623731
 10
-4165.516574175314
 20
-253.0794098083283
 42
0.4142135623731
 10
-4164.016574175314
 20
-254.5794098083283
 42
0.4142135623731
  0
LINE
  5
2AA
330
1F
100
AcDbEntity
  8
0-B
  6
Continuous
 62
   120
370
     5
100
AcDbLine
 10
-4164.016574175314
 20
-253.0794098083283
 30
0.0
 11
-4164.016574175314
 21
-328.0794098083283
 31
0.0
  0
LINE
  5
2AB
330
1F
100
AcDbEntity
  8
0-B
  6
Continuous
 62
   120
370
     5
100
AcDbLine
 10
-4314.016574175314
 20
-403.0794098083283
 30
0.0
 11
-4314.016574175314
 21
-583.0794098083283
 31
0.0
  0
LWPOLYLINE
  5
2AC
330
1F
100
AcDbEntity
  8
0-B
  6
Continuous
 62
     7
370
     9
100
AcDbPolyline
 90
        4
 70
     1
 43
3.0
 10
-4312.516574175314
 20
-403.0794098083283
 42
0.4142135623731
 10
-4314.016574175314
 20
-401.5794098083283
 42
0.4142135623731
 10
-4315.516574175314
 20
-403.0794098083283
 42
0.4142135623731
 10
-4314.016574175314
 20
-404.5794098083283
 42
0.4142135623731
  0
LWPOLYLINE
  5
2AD
330
1F
100
AcDbEntity
  8
0-B
  6
Continuous
 62
     7
370
     9
100
AcDbPolyline
 90
        4
 70
     1
 43
3.0
 10
-4312.516574175314
 20
-583.0794098083283
 42
0.4142135623731
 10
-4314.016574175314
 20
-581.5794098083283
 42
0.4142135623731
 10
-4315.516574175314
 20
-583.0794098083283
 42
0.4142135623731
 10
-4314.016574175314
 20
-584.5794098083283
 42
0.4142135623731
  0
LINE
  5
2AE
330
1F
100
AcDbEntity
  8
0-B
  6
Continuous
 62
   120
370
     5
100
AcDbLine
 10
-4314.016574175314
 20
-403.0794098083283
 30
0.0
 11
-4239.016574175314
 21
-403.0794098083283
 31
0.0
  0
LINE
  5
2AF
330
1F
100
AcDbEntity
  8
0-B
  6
Continuous
 62
   120
370
     5
100
AcDbLine
 10
-4314.016574175314
 20
-583.0794098083283
 30
0.0
 11
-4239.016574175314
 21
-583.0794098083283
 31
0.0
  0
LINE
  5
2B0
330
1F
100
AcDbEntity
  8
0-B
  6
Continuous
 62
   120
370
     5
100
AcDbLine
 10
-4164.016574175314
 20
-253.0794098083283
 30
0.0
 11
-2698.516574175314
 21
-253.0794098083283
 31
0.0
  0
LINE
  5
2B1
330
1F
100
AcDbEntity
  8
0-0
  6
JWW_HOJO
 62
   120
370
     5
100
AcDbLine
 10
-4299.016574175316
 20
902.928878715997
 30
0.0
 11
-4299.016574175316
 21
647.928878715997
 31
0.0
  0
LINE
  5
2B2
330
1F
100
AcDbEntity
  8
0-0
  6
JWW_HOJO
 62
   120
370
     5
100
AcDbLine
 10
-4374.016574175316
 20
977.928878715997
 30
0.0
 11
-4374.016574175316
 21
647.928878715997
 31
0.0
  0
LINE
  5
2B3
330
1F
100
AcDbEntity
  8
0-0
  6
JWW_HOJO
 62
   120
370
     5
100
AcDbLine
 10
-4224.016574175316
 20
647.928878715997
 30
0.0
 11
-4374.016574175316
 21
647.928878715997
 31
0.0
  0
LINE
  5
2B4
330
1F
100
AcDbEntity
  8
0-0
  6
JWW_HOJO
 62
   120
370
     5
100
AcDbLine
 10
-4164.016574175314
 20
-583.0794098083283
 30
0.0
 11
-4314.016574175314
 21
-583.0794098083283
 31
0.0
  0
LINE
  5
2B5
330
1F
100
AcDbEntity
  8
0-0
  6
JWW_HOJO
 62
   120
370
     5
100
AcDbLine
 10
-4314.016574175314
 20
-253.0794098083283
 30
0.0
 11
-4314.016574175314
 21
-583.0794098083283
 31
0.0
  0
LINE
  5
2B6
330
1F
100
AcDbEntity
  8
0-0
  6
JWW_HOJO
 62
   120
370
     5
100
AcDbLine
 10
-4239.016574175314
 20
-328.0794098083283
 30
0.0
 11
-4239.016574175314
 21
-583.0794098083283
 31
0.0
  0
LINE
  5
2B7
330
1F
100
AcDbEntity
  8
0-0
  6
JWW_HOJO
 62
   120
370
     5
100
AcDbLine
 10
-4239.016574175314
 20
-328.0794098083283
 30
0.0
 11
-2623.516574175314
 21
-328.0794098083283
 31
0.0
  0
LINE
  5
2B8
330
1F
100
AcDbEntity
  8
0-0
  6
JWW_HOJO
 62
   120
370
     5
100
AcDbLine
 10
-4314.016574175314
 20
-253.0794098083283
 30
0.0
 11
-2443.516574175314
 21
-253.0794098083283
 31
0.0
  0
LINE
  5
2B9
330
1F
100
AcDbEntity
  8
0-4
  6
Continuous
 62
    92
370
    13
100
AcDbLine
 10
-2751.549582764306
 20
827.928878715997
 30
0.0
 11
-4224.016574175316
 21
827.928878715997
 31
0.0
  0
LINE
  5
2BA
330
1F
100
AcDbEntity
  8
0-4
  6
Continuous
 62
    92
370
    13
100
AcDbLine
 10
-4224.016574175316
 20
820.428878715997
 30
0.0
 11
-2754.656184482104
 21
820.428878715997
 31
0.0
  0
LINE
  5
2BB
330
1F
100
AcDbEntity
  8
0-0
  6
JWW_HOJO
 62
   120
370
     5
100
AcDbLine
 10
-4299.016574175316
 20
902.928878715997
 30
0.0
 11
-2720.483565586324
 21
902.928878715997
 31
0.0
  0
LINE
  5
2BC
330
1F
100
AcDbEntity
  8
0-0
  6
JWW_HOJO
 62
   120
370
     5
100
AcDbLine
 10
-4374.016574175316
 20
977.928878715997
 30
0.0
 11
-2443.516574175314
 21
977.928878715997
 31
0.0
  0
MTEXT
  5
2BD
330
1F
100
AcDbEntity
  8
0-B
  6
Continuous
 62
     7
370
   211
100
AcDbMText
 10
-4389.016574175316
 20
678.468878715997
 30
0.0
 40
68.58
 41
90.0
 46
0.0
 71
     7
 72
     1
  1
{\fＭＳ ゴシック|b0|i0|c128|p49;12}
 11
6.123031769111886E-17
 21
1.0
 31
0.0
 73
     1
 44
1.0
  0
MTEXT
  5
2BE
330
1F
100
AcDbEntity
  8
0-B
  6
Continuous
 62
     7
370
   211
100
AcDbMText
 10
-4329.016574175314
 20
-552.5394098083283
 30
0.0
 40
68.58
 41
90.0
 46
0.0
 71
     7
 72
     1
  1
{\fＭＳ ゴシック|b0|i0|c128|p49;12}
 11
6.123031769111886E-17
 21
1.0
 31
0.0
 73
     1
 44
1.0
  0
MTEXT
  5
2BF
330
1F
100
AcDbEntity
  8
0-B
  6
Continuous
 62
     7
370
   211
100
AcDbMText
 10
-3506.266574175315
 20
982.218878715997
 30
0.0
 40
68.58
 41
90.0
 46
0.0
 71
     7
 72
     1
  1
{\fＭＳ ゴシック|b0|i0|c128|p49;99}
 73
     1
 44
1.0
  0
MTEXT
  5
2C0
330
1F
100
AcDbEntity
  8
0-B
  6
Continuous
 62
     7
370
   211
100
AcDbMText
 10
-3476.266574175314
 20
-248.7894098083283
 30
0.0
 40
68.58
 41
90.0
 46
0.0
 71
     7
 72
     1
  1
{\fＭＳ ゴシック|b0|i0|c128|p49;95}
 73
     1
 44
1.0
  0
MTEXT
  5
2C1
330
1F
100
AcDbEntity
  8
0-A
  6
Continuous
 62
     7
370
     9
100
AcDbMText
 10
-2187.500758815456
 20
998.0402918876678
 30
0.0
 40
68.58
 41
585.0
 46
0.0
 71
     7
 72
     1
  1
{\fＭＳ ゴシック|b0|i0|c128|p49;3,900×99×36}
 73
     1
 44
1.0
  0
MTEXT
  5
2C2
330
1F
100
AcDbEntity
  8
0-A
  6
Continuous
 62
     7
370
     9
100
AcDbMText
 10
-2165.000758815456
 20
-251.9597881123326
 30
0.0
 40
68.58
 41
585.0
 46
0.0
 71
     7
 72
     1
  1
{\fＭＳ ゴシック|b0|i0|c128|p49;3,900×95×36}
 73
     1
 44
1.0
  0
LINE
  5
2C3
330
1F
100
AcDbEntity
  8
0-4
  6
Continuous
 62
    92
370
    13
100
AcDbLine
 10
2940.228428700666
 20
-2339.888422232006
 30
0.0
 11
2940.228428700666
 21
-1979.888422232006
 31
0.0
  0
LINE
  5
2C4
330
1F
100
AcDbEntity
  8
0-4
  6
Continuous
 62
    92
370
    13
100
AcDbLine
 10
3120.228428700666
 20
-2339.888422232006
 30
0.0
 11
2940.228428700666
 21
-2339.888422232006
 31
0.0
  0
LINE
  5
2C5
330
1F
100
AcDbEntity
  8
0-4
  6
Continuous
 62
    92
370
    13
100
AcDbLine
 10
1455.228428700665
 20
-1799.888422232006
 30
0.0
 11
1455.228428700665
 21
-1979.888422232006
 31
0.0
  0
LINE
  5
2C6
330
1F
100
AcDbEntity
  8
0-A
  6
Continuous
 62
     7
370
     9
100
AcDbLine
 10
2348.779923884388
 20
-1908.638422232006
 30
0.0
 11
2402.165905569648
 21
-1908.638422232006
 31
0.0
  0
LINE
  5
2C7
330
1F
100
AcDbEntity
  8
0-A
  6
Continuous
 62
     7
370
     9
100
AcDbLine
 10
2400.741448111454
 20
-1878.638422232006
 30
0.0
 11
2454.127429796715
 21
-1878.638422232006
 31
0.0
  0
LINE
  5
2C8
330
1F
100
AcDbEntity
  8
0-A
  6
Continuous
 62
     7
370
     9
100
AcDbLine
 10
2454.868035847981
 20
-1724.888422232006
 30
0.0
 11
2348.779923884388
 21
-1908.638422232006
 31
0.0
  0
LINE
  5
2C9
330
1F
100
AcDbEntity
  8
0-A
  6
Continuous
 62
     7
370
     9
100
AcDbLine
 10
2489.509051999359
 20
-1724.888422232006
 30
0.0
 11
2400.741448111454
 21
-1878.638422232006
 31
0.0
  0
LINE
  5
2CA
330
1F
100
AcDbEntity
  8
0-A
  6
Continuous
 62
     7
370
     9
100
AcDbLine
 10
2454.127429796715
 20
-1878.638422232006
 30
0.0
 11
2352.369444852043
 21
-2054.888422232006
 31
0.0
  0
LINE
  5
2CB
330
1F
100
AcDbEntity
  8
0-A
  6
Continuous
 62
     7
370
     9
100
AcDbLine
 10
2402.165905569648
 20
-1908.638422232006
 30
0.0
 11
2317.728428700666
 21
-2054.888422232006
 31
0.0
  0
LINE
  5
2CC
330
1F
100
AcDbEntity
  8
0-4
  6
Continuous
 62
    92
370
    13
100
AcDbLine
 10
1455.228428700665
 20
-1807.388422232006
 30
0.0
 11
2407.236638639837
 21
-1807.388422232006
 31
0.0
  0
LINE
  5
2CD
330
1F
100
AcDbEntity
  8
0-4
  6
Continuous
 62
    92
370
    13
100
AcDbLine
 10
1455.228428700665
 20
-1799.888422232006
 30
0.0
 11
2411.56676565876
 21
-1799.888422232006
 31
0.0
  0
LINE
  5
2CE
330
1F
100
AcDbEntity
  8
0-4
  6
Continuous
 62
    92
370
    13
100
AcDbLine
 10
1455.228428700665
 20
-1979.888422232006
 30
0.0
 11
2361.029698889888
 21
-1979.888422232006
 31
0.0
  0
LINE
  5
2CF
330
1F
100
AcDbEntity
  8
0-4
  6
Continuous
 62
    92
370
    13
100
AcDbLine
 10
2395.670715041265
 20
-1979.888422232006
 30
0.0
 11
2940.228428700666
 21
-1979.888422232006
 31
0.0
  0
LINE
  5
2D0
330
1F
100
AcDbEntity
  8
0-4
  6
Continuous
 62
    92
370
    13
100
AcDbLine
 10
1515.228428700666
 20
-2946.459250692454
 30
0.0
 11
1515.228428700666
 21
-3126.459250692454
 31
0.0
  0
LINE
  5
2D1
330
1F
100
AcDbEntity
  8
0-4
  6
Continuous
 62
    92
370
    13
100
AcDbLine
 10
3120.228428700666
 20
-3486.459250692454
 30
0.0
 11
3000.228428700666
 21
-3486.459250692454
 31
0.0
  0
LINE
  5
2D2
330
1F
100
AcDbEntity
  8
0-4
  6
Continuous
 62
    92
370
    13
100
AcDbLine
 10
3000.228428700666
 20
-3486.459250692454
 30
0.0
 11
3000.228428700666
 21
-3126.459250692454
 31
0.0
  0
LINE
  5
2D3
330
1F
100
AcDbEntity
  8
0-A
  6
Continuous
 62
     7
370
     9
100
AcDbLine
 10
2378.779923884387
 20
-3055.209250692454
 30
0.0
 11
2432.165905569649
 21
-3055.209250692454
 31
0.0
  0
LINE
  5
2D4
330
1F
100
AcDbEntity
  8
0-A
  6
Continuous
 62
     7
370
     9
100
AcDbLine
 10
2430.741448111454
 20
-3025.209250692454
 30
0.0
 11
2484.127429796714
 21
-3025.209250692454
 31
0.0
  0
LINE
  5
2D5
330
1F
100
AcDbEntity
  8
0-A
  6
Continuous
 62
     7
370
     9
100
AcDbLine
 10
2484.868035847981
 20
-2871.459250692454
 30
0.0
 11
2378.779923884387
 21
-3055.209250692454
 31
0.0
  0
LINE
  5
2D6
330
1F
100
AcDbEntity
  8
0-A
  6
Continuous
 62
     7
370
     9
100
AcDbLine
 10
2519.509051999359
 20
-2871.459250692454
 30
0.0
 11
2430.741448111454
 21
-3025.209250692454
 31
0.0
  0
LINE
  5
2D7
330
1F
100
AcDbEntity
  8
0-A
  6
Continuous
 62
     7
370
     9
100
AcDbLine
 10
2484.127429796714
 20
-3025.209250692454
 30
0.0
 11
2382.369444852043
 21
-3201.459250692454
 31
0.0
  0
LINE
  5
2D8
330
1F
100
AcDbEntity
  8
0-A
  6
Continuous
 62
     7
370
     9
100
AcDbLine
 10
2432.165905569649
 20
-3055.209250692454
 30
0.0
 11
2347.728428700666
 21
-3201.459250692454
 31
0.0
  0
LINE
  5
2D9
330
1F
100
AcDbEntity
  8
0-4
  6
Continuous
 62
    92
370
    13
100
AcDbLine
 10
1515.228428700666
 20
-2953.959250692454
 30
0.0
 11
2437.236638639836
 21
-2953.959250692454
 31
0.0
  0
LINE
  5
2DA
330
1F
100
AcDbEntity
  8
0-4
  6
Continuous
 62
    92
370
    13
100
AcDbLine
 10
1515.228428700666
 20
-2946.459250692454
 30
0.0
 11
2441.566765658759
 21
-2946.459250692454
 31
0.0
  0
LINE
  5
2DB
330
1F
100
AcDbEntity
  8
0-4
  6
Continuous
 62
    92
370
    13
100
AcDbLine
 10
1515.228428700666
 20
-3126.459250692454
 30
0.0
 11
2391.029698889888
 21
-3126.459250692454
 31
0.0
  0
LINE
  5
2DC
330
1F
100
AcDbEntity
  8
0-4
  6
Continuous
 62
    92
370
    13
100
AcDbLine
 10
2425.670715041265
 20
-3126.459250692454
 30
0.0
 11
3000.228428700666
 21
-3126.459250692454
 31
0.0
  0
LINE
  5
2DD
330
1F
100
AcDbEntity
  8
0-4
  6
Continuous
 62
    92
370
    13
100
AcDbLine
 10
3099.015225265069
 20
-2946.459250692454
 30
0.0
 11
2476.207781810137
 21
-2946.459250692454
 31
0.0
  0
LINE
  5
2DE
330
1F
100
AcDbEntity
  8
0-4
  6
Continuous
 62
    92
370
    13
100
AcDbLine
 10
3120.228428700666
 20
-2967.672454128051
 30
0.0
 11
3120.228428700666
 21
-3486.459250692454
 31
0.0
  0
LINE
  5
2DF
330
1F
100
AcDbEntity
  8
0-4
  6
Continuous
 62
    92
370
    13
100
AcDbLine
 10
3099.015225265069
 20
-2946.459250692454
 30
0.0
 11
3120.228428700666
 21
-2967.672454128051
 31
0.0
  0
LINE
  5
2E0
330
1F
100
AcDbEntity
  8
0-4
  6
Continuous
 62
    92
370
    13
100
AcDbLine
 10
3091.515225265069
 20
-2953.959250692454
 30
0.0
 11
2471.877654791215
 21
-2953.959250692454
 31
0.0
  0
LINE
  5
2E1
330
1F
100
AcDbEntity
  8
0-4
  6
Continuous
 62
    92
370
    13
100
AcDbLine
 10
3112.728428700666
 20
-2975.172454128051
 30
0.0
 11
3112.728428700666
 21
-3486.459250692454
 31
0.0
  0
LINE
  5
2E2
330
1F
100
AcDbEntity
  8
0-4
  6
Continuous
 62
    92
370
    13
100
AcDbLine
 10
3091.515225265069
 20
-2953.959250692454
 30
0.0
 11
3112.728428700666
 21
-2975.172454128051
 31
0.0
  0
LINE
  5
2E3
330
1F
100
AcDbEntity
  8
0-B
  6
Continuous
 62
   120
370
     5
100
AcDbLine
 10
1455.228428700665
 20
-1649.888422232006
 30
0.0
 11
3120.228428700666
 21
-1649.888422232006
 31
0.0
  0
LINE
  5
2E4
330
1F
100
AcDbEntity
  8
0-B
  6
Continuous
 62
   120
370
     5
100
AcDbLine
 10
3120.228428700666
 20
-2489.888422232006
 30
0.0
 11
3120.228428700666
 21
-2414.888422232006
 31
0.0
  0
LINE
  5
2E5
330
1F
100
AcDbEntity
  8
0-B
  6
Continuous
 62
   120
370
     5
100
AcDbLine
 10
2940.228428700666
 20
-2489.888422232006
 30
0.0
 11
2940.228428700666
 21
-2414.888422232006
 31
0.0
  0
LWPOLYLINE
  5
2E6
330
1F
100
AcDbEntity
  8
0-B
  6
Continuous
 62
     7
370
     9
100
AcDbPolyline
 90
        4
 70
     1
 43
3.0
 10
3121.728428700666
 20
-2489.888422232006
 42
0.4142135623731
 10
3120.228428700666
 20
-2488.388422232006
 42
0.4142135623731
 10
3118.728428700666
 20
-2489.888422232006
 42
0.4142135623731
 10
3120.228428700666
 20
-2491.388422232006
 42
0.4142135623731
  0
LWPOLYLINE
  5
2E7
330
1F
100
AcDbEntity
  8
0-B
  6
Continuous
 62
     7
370
     9
100
AcDbPolyline
 90
        4
 70
     1
 43
3.0
 10
2941.728428700666
 20
-2489.888422232006
 42
0.4142135623731
 10
2940.228428700666
 20
-2488.388422232006
 42
0.4142135623731
 10
2938.728428700666
 20
-2489.888422232006
 42
0.4142135623731
 10
2940.228428700666
 20
-2491.388422232006
 42
0.4142135623731
  0
LINE
  5
2E8
330
1F
100
AcDbEntity
  8
0-B
  6
Continuous
 62
   120
370
     5
100
AcDbLine
 10
2940.228428700666
 20
-2489.888422232006
 30
0.0
 11
3120.228428700666
 21
-2489.888422232006
 31
0.0
  0
LWPOLYLINE
  5
2E9
330
1F
100
AcDbEntity
  8
0-B
  6
Continuous
 62
     7
370
     9
100
AcDbPolyline
 90
        4
 70
     1
 43
3.0
 10
3376.728428700666
 20
-2339.888422232006
 42
0.4142135623731
 10
3375.228428700666
 20
-2338.388422232006
 42
0.4142135623731
 10
3373.728428700666
 20
-2339.888422232006
 42
0.4142135623731
 10
3375.228428700666
 20
-2341.388422232006
 42
0.4142135623731
  0
LWPOLYLINE
  5
2EA
330
1F
100
AcDbEntity
  8
0-B
  6
Continuous
 62
     7
370
     9
100
AcDbPolyline
 90
        4
 70
     1
 43
3.0
 10
3376.728428700666
 20
-1799.888422232006
 42
0.4142135623731
 10
3375.228428700666
 20
-1798.388422232006
 42
0.4142135623731
 10
3373.728428700666
 20
-1799.888422232006
 42
0.4142135623731
 10
3375.228428700666
 20
-1801.388422232006
 42
0.4142135623731
  0
LINE
  5
2EB
330
1F
100
AcDbEntity
  8
0-B
  6
Continuous
 62
   120
370
     5
100
AcDbLine
 10
3375.228428700666
 20
-1799.888422232006
 30
0.0
 11
3375.228428700666
 21
-2339.888422232006
 31
0.0
  0
LINE
  5
2EC
330
1F
100
AcDbEntity
  8
0-B
  6
Continuous
 62
   120
370
     5
100
AcDbLine
 10
3120.228428700666
 20
-1649.888422232006
 30
0.0
 11
3120.228428700666
 21
-1724.888422232006
 31
0.0
  0
LWPOLYLINE
  5
2ED
330
1F
100
AcDbEntity
  8
0-B
  6
Continuous
 62
     7
370
     9
100
AcDbPolyline
 90
        4
 70
     1
 43
3.0
 10
3121.728428700666
 20
-1649.888422232006
 42
0.4142135623731
 10
3120.228428700666
 20
-1648.388422232006
 42
0.4142135623731
 10
3118.728428700666
 20
-1649.888422232006
 42
0.4142135623731
 10
3120.228428700666
 20
-1651.388422232006
 42
0.4142135623731
  0
LINE
  5
2EE
330
1F
100
AcDbEntity
  8
0-B
  6
Continuous
 62
   120
370
     5
100
AcDbLine
 10
1305.228428700665
 20
-1979.888422232006
 30
0.0
 11
1380.228428700665
 21
-1979.888422232006
 31
0.0
  0
LINE
  5
2EF
330
1F
100
AcDbEntity
  8
0-B
  6
Continuous
 62
   120
370
     5
100
AcDbLine
 10
1305.228428700665
 20
-1799.888422232006
 30
0.0
 11
1380.228428700665
 21
-1799.888422232006
 31
0.0
  0
LWPOLYLINE
  5
2F0
330
1F
100
AcDbEntity
  8
0-B
  6
Continuous
 62
     7
370
     9
100
AcDbPolyline
 90
        4
 70
     1
 43
3.0
 10
1306.728428700665
 20
-1979.888422232006
 42
0.4142135623731
 10
1305.228428700665
 20
-1978.388422232006
 42
0.4142135623731
 10
1303.728428700665
 20
-1979.888422232006
 42
0.4142135623731
 10
1305.228428700665
 20
-1981.388422232006
 42
0.4142135623731
  0
LWPOLYLINE
  5
2F1
330
1F
100
AcDbEntity
  8
0-B
  6
Continuous
 62
     7
370
     9
100
AcDbPolyline
 90
        4
 70
     1
 43
3.0
 10
1306.728428700665
 20
-1799.888422232006
 42
0.4142135623731
 10
1305.228428700665
 20
-1798.388422232006
 42
0.4142135623731
 10
1303.728428700665
 20
-1799.888422232006
 42
0.4142135623731
 10
1305.228428700665
 20
-1801.388422232006
 42
0.4142135623731
  0
LINE
  5
2F2
330
1F
100
AcDbEntity
  8
0-B
  6
Continuous
 62
   120
370
     5
100
AcDbLine
 10
1305.228428700665
 20
-1799.888422232006
 30
0.0
 11
1305.228428700665
 21
-1979.888422232006
 31
0.0
  0
LINE
  5
2F3
330
1F
100
AcDbEntity
  8
0-B
  6
Continuous
 62
   120
370
     5
100
AcDbLine
 10
1455.228428700665
 20
-1649.888422232006
 30
0.0
 11
1455.228428700665
 21
-1724.888422232006
 31
0.0
  0
LWPOLYLINE
  5
2F4
330
1F
100
AcDbEntity
  8
0-B
  6
Continuous
 62
     7
370
     9
100
AcDbPolyline
 90
        4
 70
     1
 43
3.0
 10
1456.728428700665
 20
-1649.888422232006
 42
0.4142135623731
 10
1455.228428700665
 20
-1648.388422232006
 42
0.4142135623731
 10
1453.728428700665
 20
-1649.888422232006
 42
0.4142135623731
 10
1455.228428700665
 20
-1651.388422232006
 42
0.4142135623731
  0
LWPOLYLINE
  5
2F5
330
1F
100
AcDbEntity
  8
0-B
  6
Continuous
 62
     7
370
     9
100
AcDbPolyline
 90
        4
 70
     1
 43
3.0
 10
1516.728428700666
 20
-2796.459250692454
 42
0.4142135623731
 10
1515.228428700666
 20
-2794.959250692454
 42
0.4142135623731
 10
1513.728428700666
 20
-2796.459250692454
 42
0.4142135623731
 10
1515.228428700666
 20
-2797.959250692454
 42
0.4142135623731
  0
LINE
  5
2F6
330
1F
100
AcDbEntity
  8
0-B
  6
Continuous
 62
   120
370
     5
100
AcDbLine
 10
1515.228428700666
 20
-2796.459250692454
 30
0.0
 11
1515.228428700666
 21
-2871.459250692454
 31
0.0
  0
LINE
  5
2F7
330
1F
100
AcDbEntity
  8
0-B
  6
Continuous
 62
   120
370
     5
100
AcDbLine
 10
1365.228428700666
 20
-2946.459250692454
 30
0.0
 11
1365.228428700666
 21
-3126.459250692454
 31
0.0
  0
LWPOLYLINE
  5
2F8
330
1F
100
AcDbEntity
  8
0-B
  6
Continuous
 62
     7
370
     9
100
AcDbPolyline
 90
        4
 70
     1
 43
3.0
 10
1366.728428700666
 20
-2946.459250692454
 42
0.4142135623731
 10
1365.228428700666
 20
-2944.959250692454
 42
0.4142135623731
 10
1363.728428700666
 20
-2946.459250692454
 42
0.4142135623731
 10
1365.228428700666
 20
-2947.959250692454
 42
0.4142135623731
  0
LWPOLYLINE
  5
2F9
330
1F
100
AcDbEntity
  8
0-B
  6
Continuous
 62
     7
370
     9
100
AcDbPolyline
 90
        4
 70
     1
 43
3.0
 10
1366.728428700666
 20
-3126.459250692454
 42
0.4142135623731
 10
1365.228428700666
 20
-3124.959250692454
 42
0.4142135623731
 10
1363.728428700666
 20
-3126.459250692454
 42
0.4142135623731
 10
1365.228428700666
 20
-3127.959250692454
 42
0.4142135623731
  0
LINE
  5
2FA
330
1F
100
AcDbEntity
  8
0-B
  6
Continuous
 62
   120
370
     5
100
AcDbLine
 10
1365.228428700666
 20
-2946.459250692454
 30
0.0
 11
1440.228428700666
 21
-2946.459250692454
 31
0.0
  0
LINE
  5
2FB
330
1F
100
AcDbEntity
  8
0-B
  6
Continuous
 62
   120
370
     5
100
AcDbLine
 10
1365.228428700666
 20
-3126.459250692454
 30
0.0
 11
1440.228428700666
 21
-3126.459250692454
 31
0.0
  0
LWPOLYLINE
  5
2FC
330
1F
100
AcDbEntity
  8
0-B
  6
Continuous
 62
     7
370
     9
100
AcDbPolyline
 90
        4
 70
     1
 43
3.0
 10
3121.728428700666
 20
-2796.459250692454
 42
0.4142135623731
 10
3120.228428700666
 20
-2794.959250692454
 42
0.4142135623731
 10
3118.728428700666
 20
-2796.459250692454
 42
0.4142135623731
 10
3120.228428700666
 20
-2797.959250692454
 42
0.4142135623731
  0
LINE
  5
2FD
330
1F
100
AcDbEntity
  8
0-B
  6
Continuous
 62
   120
370
     5
100
AcDbLine
 10
3120.228428700666
 20
-2796.459250692454
 30
0.0
 11
3120.228428700666
 21
-2871.459250692454
 31
0.0
  0
LINE
  5
2FE
330
1F
100
AcDbEntity
  8
0-B
  6
Continuous
 62
   120
370
     5
100
AcDbLine
 10
3000.228428700666
 20
-3636.459250692454
 30
0.0
 11
3120.228428700666
 21
-3636.459250692454
 31
0.0
  0
LWPOLYLINE
  5
2FF
330
1F
100
AcDbEntity
  8
0-B
  6
Continuous
 62
     7
370
     9
100
AcDbPolyline
 90
        4
 70
     1
 43
3.0
 10
3001.728428700666
 20
-3636.459250692454
 42
0.4142135623731
 10
3000.228428700666
 20
-3634.959250692454
 42
0.4142135623731
 10
2998.728428700666
 20
-3636.459250692454
 42
0.4142135623731
 10
3000.228428700666
 20
-3637.959250692454
 42
0.4142135623731
  0
LWPOLYLINE
  5
300
330
1F
100
AcDbEntity
  8
0-B
  6
Continuous
 62
     7
370
     9
100
AcDbPolyline
 90
        4
 70
     1
 43
3.0
 10
3121.728428700666
 20
-3636.459250692454
 42
0.4142135623731
 10
3120.228428700666
 20
-3634.959250692454
 42
0.4142135623731
 10
3118.728428700666
 20
-3636.459250692454
 42
0.4142135623731
 10
3120.228428700666
 20
-3637.959250692454
 42
0.4142135623731
  0
LINE
  5
301
330
1F
100
AcDbEntity
  8
0-B
  6
Continuous
 62
   120
370
     5
100
AcDbLine
 10
3000.228428700666
 20
-3636.459250692454
 30
0.0
 11
3000.228428700666
 21
-3561.459250692454
 31
0.0
  0
LINE
  5
302
330
1F
100
AcDbEntity
  8
0-B
  6
Continuous
 62
   120
370
     5
100
AcDbLine
 10
3120.228428700666
 20
-3636.459250692454
 30
0.0
 11
3120.228428700666
 21
-3561.459250692454
 31
0.0
  0
LINE
  5
303
330
1F
100
AcDbEntity
  8
0-B
  6
Continuous
 62
   120
370
     5
100
AcDbLine
 10
1515.228428700666
 20
-2796.459250692454
 30
0.0
 11
3120.228428700666
 21
-2796.459250692454
 31
0.0
  0
LINE
  5
304
330
1F
100
AcDbEntity
  8
0-B
  6
Continuous
 62
   120
370
     5
100
AcDbLine
 10
3132.109354638788
 20
-2913.365121318734
 30
0.0
 11
3153.322558074385
 21
-2934.57832475433
 31
0.0
  0
LWPOLYLINE
  5
305
330
1F
100
AcDbEntity
  8
0-B
  6
Continuous
 62
     7
370
     9
100
AcDbPolyline
 90
        4
 70
     1
 43
3.0
 10
3133.609354638788
 20
-2913.365121318734
 42
0.4142135623731
 10
3132.109354638788
 20
-2911.865121318734
 42
0.4142135623731
 10
3130.609354638788
 20
-2913.365121318734
 42
0.4142135623731
 10
3132.109354638788
 20
-2914.865121318734
 42
0.4142135623731
  0
LWPOLYLINE
  5
306
330
1F
100
AcDbEntity
  8
0-B
  6
Continuous
 62
     7
370
     9
100
AcDbPolyline
 90
        4
 70
     1
 43
3.0
 10
3154.822558074385
 20
-2934.57832475433
 42
0.4142135623731
 10
3153.322558074385
 20
-2933.078324754331
 42
0.4142135623731
 10
3151.822558074385
 20
-2934.57832475433
 42
0.4142135623731
 10
3153.322558074385
 20
-2936.07832475433
 42
0.4142135623731
  0
LINE
  5
307
330
1F
100
AcDbEntity
  8
0-B
  6
Continuous
 62
   120
370
     5
100
AcDbLine
 10
3132.109354638788
 20
-2913.365121318734
 30
0.0
 11
3162.654835571857
 21
-2882.819640385665
 31
0.0
  0
LINE
  5
308
330
1F
100
AcDbEntity
  8
0-B
  6
Continuous
 62
   120
370
     5
100
AcDbLine
 10
3153.322558074385
 20
-2934.57832475433
 30
0.0
 11
3183.868039007454
 21
-2904.032843821261
 31
0.0
  0
LINE
  5
309
330
1F
100
AcDbEntity
  8
0-B
  6
Continuous
 62
   120
370
     5
100
AcDbLine
 10
3375.228428700666
 20
-2946.459250692454
 30
0.0
 11
3375.228428700666
 21
-3486.459250692454
 31
0.0
  0
LWPOLYLINE
  5
30A
330
1F
100
AcDbEntity
  8
0-B
  6
Continuous
 62
     7
370
     9
100
AcDbPolyline
 90
        4
 70
     1
 43
3.0
 10
3376.728428700666
 20
-2946.459250692454
 42
0.4142135623731
 10
3375.228428700666
 20
-2944.959250692454
 42
0.4142135623731
 10
3373.728428700666
 20
-2946.459250692454
 42
0.4142135623731
 10
3375.228428700666
 20
-2947.959250692454
 42
0.4142135623731
  0
LWPOLYLINE
  5
30B
330
1F
100
AcDbEntity
  8
0-B
  6
Continuous
 62
     7
370
     9
100
AcDbPolyline
 90
        4
 70
     1
 43
3.0
 10
3376.728428700666
 20
-3486.459250692454
 42
0.4142135623731
 10
3375.228428700666
 20
-3484.959250692454
 42
0.4142135623731
 10
3373.728428700666
 20
-3486.459250692454
 42
0.4142135623731
 10
3375.228428700666
 20
-3487.959250692454
 42
0.4142135623731
  0
LINE
  5
30C
330
1F
100
AcDbEntity
  8
0-B
  6
Continuous
 62
   120
370
     5
100
AcDbLine
 10
3375.228428700666
 20
-2946.459250692454
 30
0.0
 11
3195.228428700666
 21
-2946.459250692454
 31
0.0
  0
LINE
  5
30D
330
1F
100
AcDbEntity
  8
0-B
  6
Continuous
 62
   120
370
     5
100
AcDbLine
 10
3375.228428700666
 20
-3486.459250692454
 30
0.0
 11
3195.228428700666
 21
-3486.459250692454
 31
0.0
  0
LINE
  5
30E
330
1F
100
AcDbEntity
  8
0-0
  6
JWW_HOJO
 62
   120
370
     5
100
AcDbLine
 10
2940.228428700666
 20
-2339.888422232006
 30
0.0
 11
2940.228428700666
 21
-2489.888422232006
 31
0.0
  0
LINE
  5
30F
330
1F
100
AcDbEntity
  8
0-0
  6
JWW_HOJO
 62
   120
370
     5
100
AcDbLine
 10
3120.228428700666
 20
-2339.888422232006
 30
0.0
 11
3375.228428700666
 21
-2339.888422232006
 31
0.0
  0
LINE
  5
310
330
1F
100
AcDbEntity
  8
0-0
  6
JWW_HOJO
 62
   120
370
     5
100
AcDbLine
 10
1455.228428700665
 20
-1979.888422232006
 30
0.0
 11
1305.228428700665
 21
-1979.888422232006
 31
0.0
  0
LINE
  5
311
330
1F
100
AcDbEntity
  8
0-0
  6
JWW_HOJO
 62
   120
370
     5
100
AcDbLine
 10
1305.228428700665
 20
-1649.888422232006
 30
0.0
 11
1305.228428700665
 21
-1979.888422232006
 31
0.0
  0
LINE
  5
312
330
1F
100
AcDbEntity
  8
0-0
  6
JWW_HOJO
 62
   120
370
     5
100
AcDbLine
 10
1380.228428700665
 20
-1724.888422232006
 30
0.0
 11
1380.228428700665
 21
-1979.888422232006
 31
0.0
  0
LINE
  5
313
330
1F
100
AcDbEntity
  8
0-0
  6
JWW_HOJO
 62
   120
370
     5
100
AcDbLine
 10
1515.228428700666
 20
-3126.459250692454
 30
0.0
 11
1365.228428700666
 21
-3126.459250692454
 31
0.0
  0
LINE
  5
314
330
1F
100
AcDbEntity
  8
0-0
  6
JWW_HOJO
 62
   120
370
     5
100
AcDbLine
 10
1365.228428700666
 20
-2796.459250692454
 30
0.0
 11
1365.228428700666
 21
-3126.459250692454
 31
0.0
  0
LINE
  5
315
330
1F
100
AcDbEntity
  8
0-0
  6
JWW_HOJO
 62
   120
370
     5
100
AcDbLine
 10
1440.228428700666
 20
-2871.459250692454
 30
0.0
 11
1440.228428700666
 21
-3126.459250692454
 31
0.0
  0
LINE
  5
316
330
1F
100
AcDbEntity
  8
0-0
  6
JWW_HOJO
 62
   120
370
     5
100
AcDbLine
 10
3000.228428700666
 20
-3486.459250692454
 30
0.0
 11
3000.228428700666
 21
-3636.459250692454
 31
0.0
  0
LINE
  5
317
330
1F
100
AcDbEntity
  8
0-0
  6
JWW_HOJO
 62
   120
370
     5
100
AcDbLine
 10
3195.228428700666
 20
-3561.459250692454
 30
0.0
 11
3000.228428700666
 21
-3561.459250692454
 31
0.0
  0
LINE
  5
318
330
1F
100
AcDbEntity
  8
0-0
  6
JWW_HOJO
 62
   120
370
     5
100
AcDbLine
 10
3195.228428700666
 20
-3561.459250692454
 30
0.0
 11
3195.228428700666
 21
-2871.459250692454
 31
0.0
  0
LINE
  5
319
330
1F
100
AcDbEntity
  8
0-0
  6
JWW_HOJO
 62
   120
370
     5
100
AcDbLine
 10
1440.228428700666
 20
-2871.459250692454
 30
0.0
 11
3195.228428700666
 21
-2871.459250692454
 31
0.0
  0
LINE
  5
31A
330
1F
100
AcDbEntity
  8
0-0
  6
JWW_HOJO
 62
   120
370
     5
100
AcDbLine
 10
3375.228428700666
 20
-3636.459250692454
 30
0.0
 11
3000.228428700666
 21
-3636.459250692454
 31
0.0
  0
LINE
  5
31B
330
1F
100
AcDbEntity
  8
0-0
  6
JWW_HOJO
 62
   120
370
     5
100
AcDbLine
 10
3375.228428700666
 20
-3636.459250692454
 30
0.0
 11
3375.228428700666
 21
-2796.459250692454
 31
0.0
  0
LINE
  5
31C
330
1F
100
AcDbEntity
  8
0-0
  6
JWW_HOJO
 62
   120
370
     5
100
AcDbLine
 10
1365.228428700666
 20
-2796.459250692454
 30
0.0
 11
3375.228428700666
 21
-2796.459250692454
 31
0.0
  0
LINE
  5
31D
330
1F
100
AcDbEntity
  8
0-B
  6
Continuous
 62
   120
370
     5
100
AcDbLine
 10
3375.228428700666
 20
-2339.888422232006
 30
0.0
 11
3195.228428700666
 21
-2339.888422232006
 31
0.0
  0
LINE
  5
31E
330
1F
100
AcDbEntity
  8
0-B
  6
Continuous
 62
   120
370
     5
100
AcDbLine
 10
3375.228428700666
 20
-1799.888422232006
 30
0.0
 11
3195.228428700666
 21
-1799.888422232006
 31
0.0
  0
LINE
  5
31F
330
1F
100
AcDbEntity
  8
0-0
  6
JWW_HOJO
 62
   120
370
     5
100
AcDbLine
 10
3270.228428700666
 20
-2489.888422232006
 30
0.0
 11
2940.228428700666
 21
-2489.888422232006
 31
0.0
  0
LINE
  5
320
330
1F
100
AcDbEntity
  8
0-0
  6
JWW_HOJO
 62
   120
370
     5
100
AcDbLine
 10
3195.228428700666
 20
-2414.888422232006
 30
0.0
 11
2940.228428700666
 21
-2414.888422232006
 31
0.0
  0
LINE
  5
321
330
1F
100
AcDbEntity
  8
0-4
  6
Continuous
 62
    92
370
    13
100
AcDbLine
 10
3067.195420111675
 20
-1799.888422232006
 30
0.0
 11
2446.207781810137
 21
-1799.888422232006
 31
0.0
  0
LINE
  5
322
330
1F
100
AcDbEntity
  8
0-4
  6
Continuous
 62
    92
370
    13
100
AcDbLine
 10
3120.228428700666
 20
-1852.921430820998
 30
0.0
 11
3120.228428700666
 21
-2339.888422232006
 31
0.0
  0
LINE
  5
323
330
1F
100
AcDbEntity
  8
0-4
  6
Continuous
 62
    92
370
    13
100
AcDbLine
 10
3067.195420111675
 20
-1799.888422232006
 30
0.0
 11
3120.228428700666
 21
-1852.921430820998
 31
0.0
  0
LINE
  5
324
330
1F
100
AcDbEntity
  8
0-4
  6
Continuous
 62
    92
370
    13
100
AcDbLine
 10
2441.877654791214
 20
-1807.388422232006
 30
0.0
 11
3064.088818393876
 21
-1807.388422232006
 31
0.0
  0
LINE
  5
325
330
1F
100
AcDbEntity
  8
0-4
  6
Continuous
 62
    92
370
    13
100
AcDbLine
 10
3064.088818393876
 20
-1807.388422232006
 30
0.0
 11
3112.728428700666
 21
-1856.028032538796
 31
0.0
  0
LINE
  5
326
330
1F
100
AcDbEntity
  8
0-4
  6
Continuous
 62
    92
370
    13
100
AcDbLine
 10
3112.728428700666
 20
-2339.888422232006
 30
0.0
 11
3112.728428700666
 21
-1856.028032538796
 31
0.0
  0
LINE
  5
327
330
1F
100
AcDbEntity
  8
0-0
  6
JWW_HOJO
 62
   120
370
     5
100
AcDbLine
 10
3195.228428700666
 20
-2414.888422232006
 30
0.0
 11
3195.228428700666
 21
-1821.855413643015
 31
0.0
  0
LINE
  5
328
330
1F
100
AcDbEntity
  8
0-0
  6
JWW_HOJO
 62
   120
370
     5
100
AcDbLine
 10
3098.261437289657
 20
-1724.888422232006
 30
0.0
 11
3195.228428700666
 21
-1821.855413643015
 31
0.0
  0
LINE
  5
329
330
1F
100
AcDbEntity
  8
0-0
  6
JWW_HOJO
 62
   120
370
     5
100
AcDbLine
 10
1380.228428700665
 20
-1724.888422232006
 30
0.0
 11
3098.261437289657
 21
-1724.888422232006
 31
0.0
  0
LINE
  5
32A
330
1F
100
AcDbEntity
  8
0-0
  6
JWW_HOJO
 62
   120
370
     5
100
AcDbLine
 10
3270.228428700666
 20
-2489.888422232006
 30
0.0
 11
3270.228428700666
 21
-1790.789396465033
 31
0.0
  0
LINE
  5
32B
330
1F
100
AcDbEntity
  8
0-0
  6
JWW_HOJO
 62
   120
370
     5
100
AcDbLine
 10
3129.327454467639
 20
-1649.888422232006
 30
0.0
 11
3270.228428700666
 21
-1790.789396465033
 31
0.0
  0
LINE
  5
32C
330
1F
100
AcDbEntity
  8
0-0
  6
JWW_HOJO
 62
   120
370
     5
100
AcDbLine
 10
1305.228428700665
 20
-1649.888422232006
 30
0.0
 11
3375.228428700666
 21
-1649.888422232006
 31
0.0
  0
LINE
  5
32D
330
1F
100
AcDbEntity
  8
0-0
  6
JWW_HOJO
 62
   120
370
     5
100
AcDbLine
 10
3375.228428700666
 20
-2339.888422232006
 30
0.0
 11
3375.228428700666
 21
-1649.888422232006
 31
0.0
  0
LINE
  5
32E
330
1F
100
AcDbEntity
  8
0-B
  6
Continuous
 62
   120
370
     5
100
AcDbLine
 10
3173.261437289657
 20
-1693.822405054025
 30
0.0
 11
3226.294445878648
 21
-1746.855413643015
 31
0.0
  0
LWPOLYLINE
  5
32F
330
1F
100
AcDbEntity
  8
0-B
  6
Continuous
 62
     7
370
     9
100
AcDbPolyline
 90
        4
 70
     1
 43
3.0
 10
3174.761437289657
 20
-1693.822405054025
 42
0.4142135623731
 10
3173.261437289657
 20
-1692.322405054025
 42
0.4142135623731
 10
3171.761437289657
 20
-1693.822405054025
 42
0.4142135623731
 10
3173.261437289657
 20
-1695.322405054025
 42
0.4142135623731
  0
LWPOLYLINE
  5
330
330
1F
100
AcDbEntity
  8
0-B
  6
Continuous
 62
     7
370
     9
100
AcDbPolyline
 90
        4
 70
     1
 43
3.0
 10
3227.794445878648
 20
-1746.855413643015
 42
0.4142135623731
 10
3226.294445878648
 20
-1745.355413643015
 42
0.4142135623731
 10
3224.794445878648
 20
-1746.855413643015
 42
0.4142135623731
 10
3226.294445878648
 20
-1748.355413643015
 42
0.4142135623731
  0
LINE
  5
331
330
1F
100
AcDbEntity
  8
0-B
  6
Continuous
 62
   120
370
     5
100
AcDbLine
 10
3173.261437289657
 20
-1693.822405054025
 30
0.0
 11
3120.228428700666
 21
-1746.855413643015
 31
0.0
  0
LINE
  5
332
330
1F
100
AcDbEntity
  8
0-B
  6
Continuous
 62
   120
370
     5
100
AcDbLine
 10
3226.294445878648
 20
-1746.855413643015
 30
0.0
 11
3173.261437289657
 21
-1799.888422232006
 31
0.0
  0
MTEXT
  5
333
330
1F
100
AcDbEntity
  8
0-A
  6
Continuous
 62
     7
370
     9
100
AcDbMText
 10
5292.499348408469
 20
-1423.834863112333
 30
0.0
 40
68.57999999999998
 41
315.0
 46
0.0
 71
     7
 72
     1
  1
{\fＭＳ ゴシック|b0|i0|c128|p49;2(偶数)}
 73
     1
 44
1.0
  0
MTEXT
  5
334
330
1F
100
AcDbEntity
  8
0-A
  6
Continuous
 62
     7
370
     9
100
AcDbMText
 10
3574.999719568202
 20
-1501.959868112334
 30
0.0
 40
68.58
 41
630.0
 46
0.0
 71
     7
 72
     1
  1
{\fＭＳ ゴシック|b0|i0|c128|p49;3,900×145×36}
 73
     1
 44
1.0
  0
MTEXT
  5
335
330
1F
100
AcDbEntity
  8
0-A
  6
Continuous
 62
     7
370
     9
100
AcDbMText
 10
5427.499348408469
 20
-1580.084873112333
 30
0.0
 40
68.58
 41
45.0
 46
0.0
 71
     7
 72
     1
  1
{\fＭＳ ゴシック|b0|i0|c128|p49;1}
 73
     1
 44
1.0
  0
MTEXT
  5
336
330
1F
100
AcDbEntity
  8
0-A
  6
Continuous
 62
     7
370
     0
100
AcDbMText
 10
949.9995216163429
 20
-1730.469898112334
 30
0.0
 40
99.06
 41
390.0
 46
0.0
 71
     7
 72
     1
  1
{\f@ＭＳ ゴシック|b0|i0|c128|p49;縦　用}
 11
-1.836909530733566E-16
 21
-1.0
 31
0.0
 73
     1
 44
1.0
  0
MTEXT
  5
337
330
1F
100
AcDbEntity
  8
0-A
  6
Continuous
 62
     7
370
     9
100
AcDbMText
 10
5292.499905148741
 20
-2673.834943112334
 30
0.0
 40
68.57999999999998
 41
315.0
 46
0.0
 71
     7
 72
     1
  1
{\fＭＳ ゴシック|b0|i0|c128|p49;2(偶数)}
 73
     1
 44
1.0
  0
MTEXT
  5
338
330
1F
100
AcDbEntity
  8
0-A
  6
Continuous
 62
     7
370
     9
100
AcDbMText
 10
3574.999719568202
 20
-2751.959948112333
 30
0.0
 40
68.58
 41
630.0
 46
0.0
 71
     7
 72
     1
  1
{\fＭＳ ゴシック|b0|i0|c128|p49;3,900×141×36}
 73
     1
 44
1.0
  0
MTEXT
  5
339
330
1F
100
AcDbEntity
  8
0-A
  6
Continuous
 62
     7
370
     9
100
AcDbMText
 10
5427.499348408469
 20
-2830.084953112333
 30
0.0
 40
68.58
 41
45.0
 46
0.0
 71
     7
 72
     1
  1
{\fＭＳ ゴシック|b0|i0|c128|p49;1}
 73
     1
 44
1.0
  0
MTEXT
  5
33A
330
1F
100
AcDbEntity
  8
0-A
  6
Continuous
 62
     7
370
     0
100
AcDbMText
 10
949.9995216163429
 20
-2980.469978112333
 30
0.0
 40
99.06
 41
390.0
 46
0.0
 71
     7
 72
     1
  1
{\f@ＭＳ ゴシック|b0|i0|c128|p49;横　用}
 11
-1.836909530733566E-16
 21
-1.0
 31
0.0
 73
     1
 44
1.0
  0
MTEXT
  5
33B
330
1F
100
AcDbEntity
  8
0-B
  6
Continuous
 62
     7
370
   211
100
AcDbMText
 10
2212.728428700665
 20
-1645.598422232008
 30
0.0
 40
68.57999999999998
 41
135.0
 46
0.0
 71
     7
 72
     1
  1
{\fＭＳ ゴシック|b0|i0|c128|p49;145}
 73
     1
 44
1.0
  0
MTEXT
  5
33C
330
1F
100
AcDbEntity
  8
0-B
  6
Continuous
 62
     7
370
   211
100
AcDbMText
 10
3194.474640725253
 20
-1704.532405054025
 30
0.0
 40
68.57999999999963
 41
44.99999999999976
 46
0.0
 71
     7
 72
     1
  1
{\fＭＳ ゴシック|b0|i0|c128|p49;5}
 11
0.7071067811865568
 21
-0.7071067811865382
 31
0.0
 73
     1
 44
1.0
  0
MTEXT
  5
33D
330
1F
100
AcDbEntity
  8
0-B
  6
Continuous
 62
     7
370
   211
100
AcDbMText
 10
1290.228428700665
 20
-1949.348422232006
 30
0.0
 40
68.58
 41
90.0
 46
0.0
 71
     7
 72
     1
  1
{\fＭＳ ゴシック|b0|i0|c128|p49;12}
 11
6.123031769111886E-17
 21
1.0
 31
0.0
 73
     1
 44
1.0
  0
MTEXT
  5
33E
330
1F
100
AcDbEntity
  8
0-B
  6
Continuous
 62
     7
370
   211
100
AcDbMText
 10
3360.228428700666
 20
-2129.348422232006
 30
0.0
 40
68.58
 41
90.0
 46
0.0
 71
     7
 72
     1
  1
{\fＭＳ ゴシック|b0|i0|c128|p49;36}
 11
6.123031769111886E-17
 21
1.0
 31
0.0
 73
     1
 44
1.0
  0
MTEXT
  5
33F
330
1F
100
AcDbEntity
  8
0-B
  6
Continuous
 62
     7
370
   211
100
AcDbMText
 10
2981.478428700666
 20
-2485.598422232006
 30
0.0
 40
68.58
 41
90.0
 46
0.0
 71
     7
 72
     1
  1
{\fＭＳ ゴシック|b0|i0|c128|p49;12}
 73
     1
 44
1.0
  0
MTEXT
  5
340
330
1F
100
AcDbEntity
  8
0-B
  6
Continuous
 62
     7
370
   211
100
AcDbMText
 10
2242.728428700666
 20
-2792.169250692454
 30
0.0
 40
68.57999999999998
 41
135.0
 46
0.0
 71
     7
 72
     1
  1
{\fＭＳ ゴシック|b0|i0|c128|p49;141}
 73
     1
 44
1.0
  0
MTEXT
  5
341
330
1F
100
AcDbEntity
  8
0-B
  6
Continuous
 62
     7
370
   211
100
AcDbMText
 10
3137.412655497687
 20
-2908.165218742038
 30
0.0
 40
68.57999999999963
 41
44.99999999999976
 46
0.0
 71
     7
 72
     1
  1
{\fＭＳ ゴシック|b0|i0|c128|p49;2}
 11
0.707106781186585
 21
-0.7071067811865099
 31
0.0
 73
     1
 44
1.0
  0
MTEXT
  5
342
330
1F
100
AcDbEntity
  8
0-B
  6
Continuous
 62
     7
370
   211
100
AcDbMText
 10
1350.228428700666
 20
-3095.919250692454
 30
0.0
 40
68.58
 41
90.0
 46
0.0
 71
     7
 72
     1
  1
{\fＭＳ ゴシック|b0|i0|c128|p49;12}
 11
6.123031769111886E-17
 21
1.0
 31
0.0
 73
     1
 44
1.0
  0
MTEXT
  5
343
330
1F
100
AcDbEntity
  8
0-B
  6
Continuous
 62
     7
370
   211
100
AcDbMText
 10
3360.228428700666
 20
-3275.919250692454
 30
0.0
 40
68.58
 41
90.0
 46
0.0
 71
     7
 72
     1
  1
{\fＭＳ ゴシック|b0|i0|c128|p49;36}
 11
6.123031769111886E-17
 21
1.0
 31
0.0
 73
     1
 44
1.0
  0
MTEXT
  5
344
330
1F
100
AcDbEntity
  8
0-B
  6
Continuous
 62
     7
370
   211
100
AcDbMText
 10
3037.728428700666
 20
-3632.169250692454
 30
0.0
 40
68.58
 41
45.0
 46
0.0
 71
     7
 72
     1
  1
{\fＭＳ ゴシック|b0|i0|c128|p49;8}
 73
     1
 44
1.0
  0
LINE
  5
345
330
1F
100
AcDbEntity
  8
0-4
  6
Continuous
 62
    92
370
    13
100
AcDbLine
 10
2940.228428700666
 20
160.1117377679947
 30
0.0
 11
2940.228428700666
 21
520.1117377679947
 31
0.0
  0
LINE
  5
346
330
1F
100
AcDbEntity
  8
0-4
  6
Continuous
 62
    92
370
    13
100
AcDbLine
 10
3120.228428700666
 20
160.1117377679947
 30
0.0
 11
2940.228428700666
 21
160.1117377679947
 31
0.0
  0
LINE
  5
347
330
1F
100
AcDbEntity
  8
0-4
  6
Continuous
 62
    92
370
    13
100
AcDbLine
 10
1455.228428700665
 20
700.1117377679947
 30
0.0
 11
1455.228428700665
 21
520.1117377679947
 31
0.0
  0
LINE
  5
348
330
1F
100
AcDbEntity
  8
0-A
  6
Continuous
 62
     7
370
     9
100
AcDbLine
 10
2348.779923884388
 20
591.3617377679947
 30
0.0
 11
2402.165905569648
 21
591.3617377679947
 31
0.0
  0
LINE
  5
349
330
1F
100
AcDbEntity
  8
0-A
  6
Continuous
 62
     7
370
     9
100
AcDbLine
 10
2400.741448111454
 20
621.3617377679947
 30
0.0
 11
2454.127429796715
 21
621.3617377679947
 31
0.0
  0
LINE
  5
34A
330
1F
100
AcDbEntity
  8
0-A
  6
Continuous
 62
     7
370
     9
100
AcDbLine
 10
2454.868035847981
 20
775.1117377679947
 30
0.0
 11
2348.779923884388
 21
591.3617377679947
 31
0.0
  0
LINE
  5
34B
330
1F
100
AcDbEntity
  8
0-A
  6
Continuous
 62
     7
370
     9
100
AcDbLine
 10
2489.509051999359
 20
775.1117377679947
 30
0.0
 11
2400.741448111454
 21
621.3617377679947
 31
0.0
  0
LINE
  5
34C
330
1F
100
AcDbEntity
  8
0-A
  6
Continuous
 62
     7
370
     9
100
AcDbLine
 10
2454.127429796715
 20
621.3617377679947
 30
0.0
 11
2352.369444852043
 21
445.1117377679947
 31
0.0
  0
LINE
  5
34D
330
1F
100
AcDbEntity
  8
0-A
  6
Continuous
 62
     7
370
     9
100
AcDbLine
 10
2402.165905569648
 20
591.3617377679947
 30
0.0
 11
2317.728428700666
 21
445.1117377679947
 31
0.0
  0
LINE
  5
34E
330
1F
100
AcDbEntity
  8
0-4
  6
Continuous
 62
    92
370
    13
100
AcDbLine
 10
1455.228428700665
 20
692.6117377679947
 30
0.0
 11
2407.236638639837
 21
692.6117377679947
 31
0.0
  0
LINE
  5
34F
330
1F
100
AcDbEntity
  8
0-4
  6
Continuous
 62
    92
370
    13
100
AcDbLine
 10
1455.228428700665
 20
700.1117377679947
 30
0.0
 11
2411.56676565876
 21
700.1117377679947
 31
0.0
  0
LINE
  5
350
330
1F
100
AcDbEntity
  8
0-4
  6
Continuous
 62
    92
370
    13
100
AcDbLine
 10
1455.228428700665
 20
520.1117377679947
 30
0.0
 11
2361.029698889888
 21
520.1117377679947
 31
0.0
  0
LINE
  5
351
330
1F
100
AcDbEntity
  8
0-4
  6
Continuous
 62
    92
370
    13
100
AcDbLine
 10
2395.670715041265
 20
520.1117377679947
 30
0.0
 11
2940.228428700666
 21
520.1117377679947
 31
0.0
  0
LINE
  5
352
330
1F
100
AcDbEntity
  8
0-4
  6
Continuous
 62
    92
370
    13
100
AcDbLine
 10
1515.228428700666
 20
-446.4590906924533
 30
0.0
 11
1515.228428700666
 21
-626.4590906924534
 31
0.0
  0
LINE
  5
353
330
1F
100
AcDbEntity
  8
0-4
  6
Continuous
 62
    92
370
    13
100
AcDbLine
 10
3120.228428700666
 20
-986.4590906924534
 30
0.0
 11
3000.228428700666
 21
-986.4590906924534
 31
0.0
  0
LINE
  5
354
330
1F
100
AcDbEntity
  8
0-4
  6
Continuous
 62
    92
370
    13
100
AcDbLine
 10
3000.228428700666
 20
-986.4590906924534
 30
0.0
 11
3000.228428700666
 21
-626.4590906924534
 31
0.0
  0
LINE
  5
355
330
1F
100
AcDbEntity
  8
0-A
  6
Continuous
 62
     7
370
     9
100
AcDbLine
 10
2378.779923884387
 20
-555.2090906924534
 30
0.0
 11
2432.165905569649
 21
-555.2090906924534
 31
0.0
  0
LINE
  5
356
330
1F
100
AcDbEntity
  8
0-A
  6
Continuous
 62
     7
370
     9
100
AcDbLine
 10
2430.741448111454
 20
-525.2090906924534
 30
0.0
 11
2484.127429796714
 21
-525.2090906924534
 31
0.0
  0
LINE
  5
357
330
1F
100
AcDbEntity
  8
0-A
  6
Continuous
 62
     7
370
     9
100
AcDbLine
 10
2484.868035847981
 20
-371.4590906924533
 30
0.0
 11
2378.779923884387
 21
-555.2090906924534
 31
0.0
  0
LINE
  5
358
330
1F
100
AcDbEntity
  8
0-A
  6
Continuous
 62
     7
370
     9
100
AcDbLine
 10
2519.509051999359
 20
-371.4590906924533
 30
0.0
 11
2430.741448111454
 21
-525.2090906924534
 31
0.0
  0
LINE
  5
359
330
1F
100
AcDbEntity
  8
0-A
  6
Continuous
 62
     7
370
     9
100
AcDbLine
 10
2484.127429796714
 20
-525.2090906924534
 30
0.0
 11
2382.369444852043
 21
-701.4590906924534
 31
0.0
  0
LINE
  5
35A
330
1F
100
AcDbEntity
  8
0-A
  6
Continuous
 62
     7
370
     9
100
AcDbLine
 10
2432.165905569649
 20
-555.2090906924534
 30
0.0
 11
2347.728428700666
 21
-701.4590906924534
 31
0.0
  0
LINE
  5
35B
330
1F
100
AcDbEntity
  8
0-4
  6
Continuous
 62
    92
370
    13
100
AcDbLine
 10
1515.228428700666
 20
-453.9590906924533
 30
0.0
 11
2437.236638639836
 21
-453.9590906924533
 31
0.0
  0
LINE
  5
35C
330
1F
100
AcDbEntity
  8
0-4
  6
Continuous
 62
    92
370
    13
100
AcDbLine
 10
1515.228428700666
 20
-446.4590906924533
 30
0.0
 11
2441.566765658759
 21
-446.4590906924533
 31
0.0
  0
LINE
  5
35D
330
1F
100
AcDbEntity
  8
0-4
  6
Continuous
 62
    92
370
    13
100
AcDbLine
 10
1515.228428700666
 20
-626.4590906924534
 30
0.0
 11
2391.029698889888
 21
-626.4590906924534
 31
0.0
  0
LINE
  5
35E
330
1F
100
AcDbEntity
  8
0-4
  6
Continuous
 62
    92
370
    13
100
AcDbLine
 10
2425.670715041265
 20
-626.4590906924534
 30
0.0
 11
3000.228428700666
 21
-626.4590906924534
 31
0.0
  0
LINE
  5
35F
330
1F
100
AcDbEntity
  8
0-4
  6
Continuous
 62
    92
370
    13
100
AcDbLine
 10
3099.015225265069
 20
-446.4590906924533
 30
0.0
 11
2476.207781810137
 21
-446.4590906924533
 31
0.0
  0
LINE
  5
360
330
1F
100
AcDbEntity
  8
0-4
  6
Continuous
 62
    92
370
    13
100
AcDbLine
 10
3120.228428700666
 20
-467.6722941280499
 30
0.0
 11
3120.228428700666
 21
-986.4590906924534
 31
0.0
  0
LINE
  5
361
330
1F
100
AcDbEntity
  8
0-4
  6
Continuous
 62
    92
370
    13
100
AcDbLine
 10
3099.015225265069
 20
-446.4590906924533
 30
0.0
 11
3120.228428700666
 21
-467.6722941280499
 31
0.0
  0
LINE
  5
362
330
1F
100
AcDbEntity
  8
0-4
  6
Continuous
 62
    92
370
    13
100
AcDbLine
 10
3091.515225265069
 20
-453.9590906924533
 30
0.0
 11
2471.877654791215
 21
-453.9590906924533
 31
0.0
  0
LINE
  5
363
330
1F
100
AcDbEntity
  8
0-4
  6
Continuous
 62
    92
370
    13
100
AcDbLine
 10
3112.728428700666
 20
-475.1722941280499
 30
0.0
 11
3112.728428700666
 21
-986.4590906924534
 31
0.0
  0
LINE
  5
364
330
1F
100
AcDbEntity
  8
0-4
  6
Continuous
 62
    92
370
    13
100
AcDbLine
 10
3091.515225265069
 20
-453.9590906924533
 30
0.0
 11
3112.728428700666
 21
-475.1722941280499
 31
0.0
  0
LINE
  5
365
330
1F
100
AcDbEntity
  8
0-B
  6
Continuous
 62
   120
370
     5
100
AcDbLine
 10
1455.228428700665
 20
850.1117377679947
 30
0.0
 11
3120.228428700666
 21
850.1117377679947
 31
0.0
  0
LINE
  5
366
330
1F
100
AcDbEntity
  8
0-B
  6
Continuous
 62
   120
370
     5
100
AcDbLine
 10
3120.228428700666
 20
10.11173776799467
 30
0.0
 11
3120.228428700666
 21
85.11173776799467
 31
0.0
  0
LINE
  5
367
330
1F
100
AcDbEntity
  8
0-B
  6
Continuous
 62
   120
370
     5
100
AcDbLine
 10
2940.228428700666
 20
10.11173776799467
 30
0.0
 11
2940.228428700666
 21
85.11173776799467
 31
0.0
  0
LWPOLYLINE
  5
368
330
1F
100
AcDbEntity
  8
0-B
  6
Continuous
 62
     7
370
     9
100
AcDbPolyline
 90
        4
 70
     1
 43
3.0
 10
3121.728428700666
 20
10.11173776799467
 42
0.4142135623731
 10
3120.228428700666
 20
11.61173776799467
 42
0.4142135623731
 10
3118.728428700666
 20
10.11173776799467
 42
0.4142135623731
 10
3120.228428700666
 20
8.611737767994669
 42
0.4142135623731
  0
LWPOLYLINE
  5
369
330
1F
100
AcDbEntity
  8
0-B
  6
Continuous
 62
     7
370
     9
100
AcDbPolyline
 90
        4
 70
     1
 43
3.0
 10
2941.728428700666
 20
10.11173776799467
 42
0.4142135623731
 10
2940.228428700666
 20
11.61173776799467
 42
0.4142135623731
 10
2938.728428700666
 20
10.11173776799467
 42
0.4142135623731
 10
2940.228428700666
 20
8.611737767994669
 42
0.4142135623731
  0
LINE
  5
36A
330
1F
100
AcDbEntity
  8
0-B
  6
Continuous
 62
   120
370
     5
100
AcDbLine
 10
2940.228428700666
 20
10.11173776799467
 30
0.0
 11
3120.228428700666
 21
10.11173776799467
 31
0.0
  0
LWPOLYLINE
  5
36B
330
1F
100
AcDbEntity
  8
0-B
  6
Continuous
 62
     7
370
     9
100
AcDbPolyline
 90
        4
 70
     1
 43
3.0
 10
3376.728428700666
 20
160.1117377679947
 42
0.4142135623731
 10
3375.228428700666
 20
161.6117377679947
 42
0.4142135623731
 10
3373.728428700666
 20
160.1117377679947
 42
0.4142135623731
 10
3375.228428700666
 20
158.6117377679947
 42
0.4142135623731
  0
LWPOLYLINE
  5
36C
330
1F
100
AcDbEntity
  8
0-B
  6
Continuous
 62
     7
370
     9
100
AcDbPolyline
 90
        4
 70
     1
 43
3.0
 10
3376.728428700666
 20
700.1117377679947
 42
0.4142135623731
 10
3375.228428700666
 20
701.6117377679947
 42
0.4142135623731
 10
3373.728428700666
 20
700.1117377679947
 42
0.4142135623731
 10
3375.228428700666
 20
698.6117377679947
 42
0.4142135623731
  0
LINE
  5
36D
330
1F
100
AcDbEntity
  8
0-B
  6
Continuous
 62
   120
370
     5
100
AcDbLine
 10
3375.228428700666
 20
700.1117377679947
 30
0.0
 11
3375.228428700666
 21
160.1117377679947
 31
0.0
  0
LINE
  5
36E
330
1F
100
AcDbEntity
  8
0-B
  6
Continuous
 62
   120
370
     5
100
AcDbLine
 10
3120.228428700666
 20
850.1117377679947
 30
0.0
 11
3120.228428700666
 21
775.1117377679947
 31
0.0
  0
LWPOLYLINE
  5
36F
330
1F
100
AcDbEntity
  8
0-B
  6
Continuous
 62
     7
370
     9
100
AcDbPolyline
 90
        4
 70
     1
 43
3.0
 10
3121.728428700666
 20
850.1117377679947
 42
0.4142135623731
 10
3120.228428700666
 20
851.6117377679947
 42
0.4142135623731
 10
3118.728428700666
 20
850.1117377679947
 42
0.4142135623731
 10
3120.228428700666
 20
848.6117377679947
 42
0.4142135623731
  0
LINE
  5
370
330
1F
100
AcDbEntity
  8
0-B
  6
Continuous
 62
   120
370
     5
100
AcDbLine
 10
1305.228428700665
 20
520.1117377679947
 30
0.0
 11
1380.228428700665
 21
520.1117377679947
 31
0.0
  0
LINE
  5
371
330
1F
100
AcDbEntity
  8
0-B
  6
Continuous
 62
   120
370
     5
100
AcDbLine
 10
1305.228428700665
 20
700.1117377679947
 30
0.0
 11
1380.228428700665
 21
700.1117377679947
 31
0.0
  0
LWPOLYLINE
  5
372
330
1F
100
AcDbEntity
  8
0-B
  6
Continuous
 62
     7
370
     9
100
AcDbPolyline
 90
        4
 70
     1
 43
3.0
 10
1306.728428700665
 20
520.1117377679947
 42
0.4142135623731
 10
1305.228428700665
 20
521.6117377679947
 42
0.4142135623731
 10
1303.728428700665
 20
520.1117377679947
 42
0.4142135623731
 10
1305.228428700665
 20
518.6117377679947
 42
0.4142135623731
  0
LWPOLYLINE
  5
373
330
1F
100
AcDbEntity
  8
0-B
  6
Continuous
 62
     7
370
     9
100
AcDbPolyline
 90
        4
 70
     1
 43
3.0
 10
1306.728428700665
 20
700.1117377679947
 42
0.4142135623731
 10
1305.228428700665
 20
701.6117377679947
 42
0.4142135623731
 10
1303.728428700665
 20
700.1117377679947
 42
0.4142135623731
 10
1305.228428700665
 20
698.6117377679947
 42
0.4142135623731
  0
LINE
  5
374
330
1F
100
AcDbEntity
  8
0-B
  6
Continuous
 62
   120
370
     5
100
AcDbLine
 10
1305.228428700665
 20
700.1117377679947
 30
0.0
 11
1305.228428700665
 21
520.1117377679947
 31
0.0
  0
LINE
  5
375
330
1F
100
AcDbEntity
  8
0-B
  6
Continuous
 62
   120
370
     5
100
AcDbLine
 10
1455.228428700665
 20
850.1117377679947
 30
0.0
 11
1455.228428700665
 21
775.1117377679947
 31
0.0
  0
LWPOLYLINE
  5
376
330
1F
100
AcDbEntity
  8
0-B
  6
Continuous
 62
     7
370
     9
100
AcDbPolyline
 90
        4
 70
     1
 43
3.0
 10
1456.728428700665
 20
850.1117377679947
 42
0.4142135623731
 10
1455.228428700665
 20
851.6117377679947
 42
0.4142135623731
 10
1453.728428700665
 20
850.1117377679947
 42
0.4142135623731
 10
1455.228428700665
 20
848.6117377679947
 42
0.4142135623731
  0
LWPOLYLINE
  5
377
330
1F
100
AcDbEntity
  8
0-B
  6
Continuous
 62
     7
370
     9
100
AcDbPolyline
 90
        4
 70
     1
 43
3.0
 10
1516.728428700666
 20
-296.4590906924533
 42
0.4142135623731
 10
1515.228428700666
 20
-294.9590906924533
 42
0.4142135623731
 10
1513.728428700666
 20
-296.4590906924533
 42
0.4142135623731
 10
1515.228428700666
 20
-297.9590906924533
 42
0.4142135623731
  0
LINE
  5
378
330
1F
100
AcDbEntity
  8
0-B
  6
Continuous
 62
   120
370
     5
100
AcDbLine
 10
1515.228428700666
 20
-296.4590906924533
 30
0.0
 11
1515.228428700666
 21
-371.4590906924533
 31
0.0
  0
LINE
  5
379
330
1F
100
AcDbEntity
  8
0-B
  6
Continuous
 62
   120
370
     5
100
AcDbLine
 10
1365.228428700666
 20
-446.4590906924533
 30
0.0
 11
1365.228428700666
 21
-626.4590906924534
 31
0.0
  0
LWPOLYLINE
  5
37A
330
1F
100
AcDbEntity
  8
0-B
  6
Continuous
 62
     7
370
     9
100
AcDbPolyline
 90
        4
 70
     1
 43
3.0
 10
1366.728428700666
 20
-446.4590906924533
 42
0.4142135623731
 10
1365.228428700666
 20
-444.9590906924533
 42
0.4142135623731
 10
1363.728428700666
 20
-446.4590906924533
 42
0.4142135623731
 10
1365.228428700666
 20
-447.9590906924533
 42
0.4142135623731
  0
LWPOLYLINE
  5
37B
330
1F
100
AcDbEntity
  8
0-B
  6
Continuous
 62
     7
370
     9
100
AcDbPolyline
 90
        4
 70
     1
 43
3.0
 10
1366.728428700666
 20
-626.4590906924534
 42
0.4142135623731
 10
1365.228428700666
 20
-624.9590906924533
 42
0.4142135623731
 10
1363.728428700666
 20
-626.4590906924534
 42
0.4142135623731
 10
1365.228428700666
 20
-627.9590906924534
 42
0.4142135623731
  0
LINE
  5
37C
330
1F
100
AcDbEntity
  8
0-B
  6
Continuous
 62
   120
370
     5
100
AcDbLine
 10
1365.228428700666
 20
-446.4590906924533
 30
0.0
 11
1440.228428700666
 21
-446.4590906924533
 31
0.0
  0
LINE
  5
37D
330
1F
100
AcDbEntity
  8
0-B
  6
Continuous
 62
   120
370
     5
100
AcDbLine
 10
1365.228428700666
 20
-626.4590906924534
 30
0.0
 11
1440.228428700666
 21
-626.4590906924534
 31
0.0
  0
LWPOLYLINE
  5
37E
330
1F
100
AcDbEntity
  8
0-B
  6
Continuous
 62
     7
370
     9
100
AcDbPolyline
 90
        4
 70
     1
 43
3.0
 10
3121.728428700666
 20
-296.4590906924533
 42
0.4142135623731
 10
3120.228428700666
 20
-294.9590906924533
 42
0.4142135623731
 10
3118.728428700666
 20
-296.4590906924533
 42
0.4142135623731
 10
3120.228428700666
 20
-297.9590906924533
 42
0.4142135623731
  0
LINE
  5
37F
330
1F
100
AcDbEntity
  8
0-B
  6
Continuous
 62
   120
370
     5
100
AcDbLine
 10
3120.228428700666
 20
-296.4590906924533
 30
0.0
 11
3120.228428700666
 21
-371.4590906924533
 31
0.0
  0
LINE
  5
380
330
1F
100
AcDbEntity
  8
0-B
  6
Continuous
 62
   120
370
     5
100
AcDbLine
 10
3000.228428700666
 20
-1136.459090692453
 30
0.0
 11
3120.228428700666
 21
-1136.459090692453
 31
0.0
  0
LWPOLYLINE
  5
381
330
1F
100
AcDbEntity
  8
0-B
  6
Continuous
 62
     7
370
     9
100
AcDbPolyline
 90
        4
 70
     1
 43
3.0
 10
3001.728428700666
 20
-1136.459090692453
 42
0.4142135623731
 10
3000.228428700666
 20
-1134.959090692453
 42
0.4142135623731
 10
2998.728428700666
 20
-1136.459090692453
 42
0.4142135623731
 10
3000.228428700666
 20
-1137.959090692453
 42
0.4142135623731
  0
LWPOLYLINE
  5
382
330
1F
100
AcDbEntity
  8
0-B
  6
Continuous
 62
     7
370
     9
100
AcDbPolyline
 90
        4
 70
     1
 43
3.0
 10
3121.728428700666
 20
-1136.459090692453
 42
0.4142135623731
 10
3120.228428700666
 20
-1134.959090692453
 42
0.4142135623731
 10
3118.728428700666
 20
-1136.459090692453
 42
0.4142135623731
 10
3120.228428700666
 20
-1137.959090692453
 42
0.4142135623731
  0
LINE
  5
383
330
1F
100
AcDbEntity
  8
0-B
  6
Continuous
 62
   120
370
     5
100
AcDbLine
 10
3000.228428700666
 20
-1136.459090692453
 30
0.0
 11
3000.228428700666
 21
-1061.459090692453
 31
0.0
  0
LINE
  5
384
330
1F
100
AcDbEntity
  8
0-B
  6
Continuous
 62
   120
370
     5
100
AcDbLine
 10
3120.228428700666
 20
-1136.459090692453
 30
0.0
 11
3120.228428700666
 21
-1061.459090692453
 31
0.0
  0
LINE
  5
385
330
1F
100
AcDbEntity
  8
0-B
  6
Continuous
 62
   120
370
     5
100
AcDbLine
 10
1515.228428700666
 20
-296.4590906924533
 30
0.0
 11
3120.228428700666
 21
-296.4590906924533
 31
0.0
  0
LINE
  5
386
330
1F
100
AcDbEntity
  8
0-B
  6
Continuous
 62
   120
370
     5
100
AcDbLine
 10
3132.109354638788
 20
-413.3649613187333
 30
0.0
 11
3153.322558074385
 21
-434.5781647543299
 31
0.0
  0
LWPOLYLINE
  5
387
330
1F
100
AcDbEntity
  8
0-B
  6
Continuous
 62
     7
370
     9
100
AcDbPolyline
 90
        4
 70
     1
 43
3.0
 10
3133.609354638788
 20
-413.3649613187333
 42
0.4142135623731
 10
3132.109354638788
 20
-411.8649613187333
 42
0.4142135623731
 10
3130.609354638788
 20
-413.3649613187333
 42
0.4142135623731
 10
3132.109354638788
 20
-414.8649613187333
 42
0.4142135623731
  0
LWPOLYLINE
  5
388
330
1F
100
AcDbEntity
  8
0-B
  6
Continuous
 62
     7
370
     9
100
AcDbPolyline
 90
        4
 70
     1
 43
3.0
 10
3154.822558074385
 20
-434.5781647543299
 42
0.4142135623731
 10
3153.322558074385
 20
-433.0781647543299
 42
0.4142135623731
 10
3151.822558074385
 20
-434.5781647543299
 42
0.4142135623731
 10
3153.322558074385
 20
-436.0781647543299
 42
0.4142135623731
  0
LINE
  5
389
330
1F
100
AcDbEntity
  8
0-B
  6
Continuous
 62
   120
370
     5
100
AcDbLine
 10
3132.109354638788
 20
-413.3649613187333
 30
0.0
 11
3162.654835571857
 21
-382.8194803856644
 31
0.0
  0
LINE
  5
38A
330
1F
100
AcDbEntity
  8
0-B
  6
Continuous
 62
   120
370
     5
100
AcDbLine
 10
3153.322558074385
 20
-434.5781647543299
 30
0.0
 11
3183.868039007454
 21
-404.0326838212602
 31
0.0
  0
LINE
  5
38B
330
1F
100
AcDbEntity
  8
0-B
  6
Continuous
 62
   120
370
     5
100
AcDbLine
 10
3375.228428700666
 20
-446.4590906924533
 30
0.0
 11
3375.228428700666
 21
-986.4590906924534
 31
0.0
  0
LWPOLYLINE
  5
38C
330
1F
100
AcDbEntity
  8
0-B
  6
Continuous
 62
     7
370
     9
100
AcDbPolyline
 90
        4
 70
     1
 43
3.0
 10
3376.728428700666
 20
-446.4590906924533
 42
0.4142135623731
 10
3375.228428700666
 20
-444.9590906924533
 42
0.4142135623731
 10
3373.728428700666
 20
-446.4590906924533
 42
0.4142135623731
 10
3375.228428700666
 20
-447.9590906924533
 42
0.4142135623731
  0
LWPOLYLINE
  5
38D
330
1F
100
AcDbEntity
  8
0-B
  6
Continuous
 62
     7
370
     9
100
AcDbPolyline
 90
        4
 70
     1
 43
3.0
 10
3376.728428700666
 20
-986.4590906924534
 42
0.4142135623731
 10
3375.228428700666
 20
-984.9590906924534
 42
0.4142135623731
 10
3373.728428700666
 20
-986.4590906924534
 42
0.4142135623731
 10
3375.228428700666
 20
-987.9590906924533
 42
0.4142135623731
  0
LINE
  5
38E
330
1F
100
AcDbEntity
  8
0-B
  6
Continuous
 62
   120
370
     5
100
AcDbLine
 10
3375.228428700666
 20
-446.4590906924533
 30
0.0
 11
3195.228428700666
 21
-446.4590906924533
 31
0.0
  0
LINE
  5
38F
330
1F
100
AcDbEntity
  8
0-B
  6
Continuous
 62
   120
370
     5
100
AcDbLine
 10
3375.228428700666
 20
-986.4590906924534
 30
0.0
 11
3195.228428700666
 21
-986.4590906924534
 31
0.0
  0
LINE
  5
390
330
1F
100
AcDbEntity
  8
0-0
  6
JWW_HOJO
 62
   120
370
     5
100
AcDbLine
 10
2940.228428700666
 20
160.1117377679947
 30
0.0
 11
2940.228428700666
 21
10.11173776799467
 31
0.0
  0
LINE
  5
391
330
1F
100
AcDbEntity
  8
0-0
  6
JWW_HOJO
 62
   120
370
     5
100
AcDbLine
 10
3120.228428700666
 20
160.1117377679947
 30
0.0
 11
3375.228428700666
 21
160.1117377679947
 31
0.0
  0
LINE
  5
392
330
1F
100
AcDbEntity
  8
0-0
  6
JWW_HOJO
 62
   120
370
     5
100
AcDbLine
 10
1455.228428700665
 20
520.1117377679947
 30
0.0
 11
1305.228428700665
 21
520.1117377679947
 31
0.0
  0
LINE
  5
393
330
1F
100
AcDbEntity
  8
0-0
  6
JWW_HOJO
 62
   120
370
     5
100
AcDbLine
 10
1305.228428700665
 20
850.1117377679947
 30
0.0
 11
1305.228428700665
 21
520.1117377679947
 31
0.0
  0
LINE
  5
394
330
1F
100
AcDbEntity
  8
0-0
  6
JWW_HOJO
 62
   120
370
     5
100
AcDbLine
 10
1380.228428700665
 20
775.1117377679947
 30
0.0
 11
1380.228428700665
 21
520.1117377679947
 31
0.0
  0
LINE
  5
395
330
1F
100
AcDbEntity
  8
0-0
  6
JWW_HOJO
 62
   120
370
     5
100
AcDbLine
 10
1515.228428700666
 20
-626.4590906924534
 30
0.0
 11
1365.228428700666
 21
-626.4590906924534
 31
0.0
  0
LINE
  5
396
330
1F
100
AcDbEntity
  8
0-0
  6
JWW_HOJO
 62
   120
370
     5
100
AcDbLine
 10
1365.228428700666
 20
-296.4590906924533
 30
0.0
 11
1365.228428700666
 21
-626.4590906924534
 31
0.0
  0
LINE
  5
397
330
1F
100
AcDbEntity
  8
0-0
  6
JWW_HOJO
 62
   120
370
     5
100
AcDbLine
 10
1440.228428700666
 20
-371.4590906924533
 30
0.0
 11
1440.228428700666
 21
-626.4590906924534
 31
0.0
  0
LINE
  5
398
330
1F
100
AcDbEntity
  8
0-0
  6
JWW_HOJO
 62
   120
370
     5
100
AcDbLine
 10
3000.228428700666
 20
-986.4590906924534
 30
0.0
 11
3000.228428700666
 21
-1136.459090692453
 31
0.0
  0
LINE
  5
399
330
1F
100
AcDbEntity
  8
0-0
  6
JWW_HOJO
 62
   120
370
     5
100
AcDbLine
 10
3195.228428700666
 20
-1061.459090692453
 30
0.0
 11
3000.228428700666
 21
-1061.459090692453
 31
0.0
  0
LINE
  5
39A
330
1F
100
AcDbEntity
  8
0-0
  6
JWW_HOJO
 62
   120
370
     5
100
AcDbLine
 10
3195.228428700666
 20
-1061.459090692453
 30
0.0
 11
3195.228428700666
 21
-371.4590906924533
 31
0.0
  0
LINE
  5
39B
330
1F
100
AcDbEntity
  8
0-0
  6
JWW_HOJO
 62
   120
370
     5
100
AcDbLine
 10
1440.228428700666
 20
-371.4590906924533
 30
0.0
 11
3195.228428700666
 21
-371.4590906924533
 31
0.0
  0
LINE
  5
39C
330
1F
100
AcDbEntity
  8
0-0
  6
JWW_HOJO
 62
   120
370
     5
100
AcDbLine
 10
3375.228428700666
 20
-1136.459090692453
 30
0.0
 11
3000.228428700666
 21
-1136.459090692453
 31
0.0
  0
LINE
  5
39D
330
1F
100
AcDbEntity
  8
0-0
  6
JWW_HOJO
 62
   120
370
     5
100
AcDbLine
 10
3375.228428700666
 20
-1136.459090692453
 30
0.0
 11
3375.228428700666
 21
-296.4590906924533
 31
0.0
  0
LINE
  5
39E
330
1F
100
AcDbEntity
  8
0-0
  6
JWW_HOJO
 62
   120
370
     5
100
AcDbLine
 10
1365.228428700666
 20
-296.4590906924533
 30
0.0
 11
3375.228428700666
 21
-296.4590906924533
 31
0.0
  0
LINE
  5
39F
330
1F
100
AcDbEntity
  8
0-B
  6
Continuous
 62
   120
370
     5
100
AcDbLine
 10
3375.228428700666
 20
160.1117377679947
 30
0.0
 11
3195.228428700666
 21
160.1117377679947
 31
0.0
  0
LINE
  5
3A0
330
1F
100
AcDbEntity
  8
0-B
  6
Continuous
 62
   120
370
     5
100
AcDbLine
 10
3375.228428700666
 20
700.1117377679947
 30
0.0
 11
3195.228428700666
 21
700.1117377679947
 31
0.0
  0
LINE
  5
3A1
330
1F
100
AcDbEntity
  8
0-0
  6
JWW_HOJO
 62
   120
370
     5
100
AcDbLine
 10
3270.228428700666
 20
10.11173776799467
 30
0.0
 11
2940.228428700666
 21
10.11173776799467
 31
0.0
  0
LINE
  5
3A2
330
1F
100
AcDbEntity
  8
0-0
  6
JWW_HOJO
 62
   120
370
     5
100
AcDbLine
 10
3195.228428700666
 20
85.11173776799467
 30
0.0
 11
2940.228428700666
 21
85.11173776799467
 31
0.0
  0
LINE
  5
3A3
330
1F
100
AcDbEntity
  8
0-4
  6
Continuous
 62
    92
370
    13
100
AcDbLine
 10
3067.195420111675
 20
700.1117377679947
 30
0.0
 11
2446.207781810137
 21
700.1117377679947
 31
0.0
  0
LINE
  5
3A4
330
1F
100
AcDbEntity
  8
0-4
  6
Continuous
 62
    92
370
    13
100
AcDbLine
 10
3120.228428700666
 20
647.0787291790032
 30
0.0
 11
3120.228428700666
 21
160.1117377679947
 31
0.0
  0
LINE
  5
3A5
330
1F
100
AcDbEntity
  8
0-4
  6
Continuous
 62
    92
370
    13
100
AcDbLine
 10
3067.195420111675
 20
700.1117377679947
 30
0.0
 11
3120.228428700666
 21
647.0787291790032
 31
0.0
  0
LINE
  5
3A6
330
1F
100
AcDbEntity
  8
0-4
  6
Continuous
 62
    92
370
    13
100
AcDbLine
 10
2441.877654791214
 20
692.6117377679947
 30
0.0
 11
3064.088818393876
 21
692.6117377679947
 31
0.0
  0
LINE
  5
3A7
330
1F
100
AcDbEntity
  8
0-4
  6
Continuous
 62
    92
370
    13
100
AcDbLine
 10
3064.088818393876
 20
692.6117377679947
 30
0.0
 11
3112.728428700666
 21
643.9721274612049
 31
0.0
  0
LINE
  5
3A8
330
1F
100
AcDbEntity
  8
0-4
  6
Continuous
 62
    92
370
    13
100
AcDbLine
 10
3112.728428700666
 20
160.1117377679947
 30
0.0
 11
3112.728428700666
 21
643.9721274612049
 31
0.0
  0
LINE
  5
3A9
330
1F
100
AcDbEntity
  8
0-0
  6
JWW_HOJO
 62
   120
370
     5
100
AcDbLine
 10
3195.228428700666
 20
85.11173776799467
 30
0.0
 11
3195.228428700666
 21
678.1447463569853
 31
0.0
  0
LINE
  5
3AA
330
1F
100
AcDbEntity
  8
0-0
  6
JWW_HOJO
 62
   120
370
     5
100
AcDbLine
 10
3098.261437289657
 20
775.1117377679947
 30
0.0
 11
3195.228428700666
 21
678.1447463569853
 31
0.0
  0
LINE
  5
3AB
330
1F
100
AcDbEntity
  8
0-0
  6
JWW_HOJO
 62
   120
370
     5
100
AcDbLine
 10
1380.228428700665
 20
775.1117377679947
 30
0.0
 11
3098.261437289657
 21
775.1117377679947
 31
0.0
  0
LINE
  5
3AC
330
1F
100
AcDbEntity
  8
0-0
  6
JWW_HOJO
 62
   120
370
     5
100
AcDbLine
 10
3270.228428700666
 20
10.11173776799467
 30
0.0
 11
3270.228428700666
 21
709.2107635349674
 31
0.0
  0
LINE
  5
3AD
330
1F
100
AcDbEntity
  8
0-0
  6
JWW_HOJO
 62
   120
370
     5
100
AcDbLine
 10
3129.327454467639
 20
850.1117377679947
 30
0.0
 11
3270.228428700666
 21
709.2107635349674
 31
0.0
  0
LINE
  5
3AE
330
1F
100
AcDbEntity
  8
0-0
  6
JWW_HOJO
 62
   120
370
     5
100
AcDbLine
 10
1305.228428700665
 20
850.1117377679947
 30
0.0
 11
3375.228428700666
 21
850.1117377679947
 31
0.0
  0
LINE
  5
3AF
330
1F
100
AcDbEntity
  8
0-0
  6
JWW_HOJO
 62
   120
370
     5
100
AcDbLine
 10
3375.228428700666
 20
160.1117377679947
 30
0.0
 11
3375.228428700666
 21
850.1117377679947
 31
0.0
  0
LINE
  5
3B0
330
1F
100
AcDbEntity
  8
0-B
  6
Continuous
 62
   120
370
     5
100
AcDbLine
 10
3173.261437289657
 20
806.177754945976
 30
0.0
 11
3226.294445878648
 21
753.1447463569862
 31
0.0
  0
LWPOLYLINE
  5
3B1
330
1F
100
AcDbEntity
  8
0-B
  6
Continuous
 62
     7
370
     9
100
AcDbPolyline
 90
        4
 70
     1
 43
3.0
 10
3174.761437289657
 20
806.177754945976
 42
0.4142135623731
 10
3173.261437289657
 20
807.677754945976
 42
0.4142135623731
 10
3171.761437289657
 20
806.177754945976
 42
0.4142135623731
 10
3173.261437289657
 20
804.677754945976
 42
0.4142135623731
  0
LWPOLYLINE
  5
3B2
330
1F
100
AcDbEntity
  8
0-B
  6
Continuous
 62
     7
370
     9
100
AcDbPolyline
 90
        4
 70
     1
 43
3.0
 10
3227.794445878648
 20
753.1447463569862
 42
0.4142135623731
 10
3226.294445878648
 20
754.6447463569862
 42
0.4142135623731
 10
3224.794445878648
 20
753.1447463569862
 42
0.4142135623731
 10
3226.294445878648
 20
751.6447463569862
 42
0.4142135623731
  0
LINE
  5
3B3
330
1F
100
AcDbEntity
  8
0-B
  6
Continuous
 62
   120
370
     5
100
AcDbLine
 10
3173.261437289657
 20
806.177754945976
 30
0.0
 11
3120.228428700666
 21
753.1447463569862
 31
0.0
  0
LINE
  5
3B4
330
1F
100
AcDbEntity
  8
0-B
  6
Continuous
 62
   120
370
     5
100
AcDbLine
 10
3226.294445878648
 20
753.1447463569862
 30
0.0
 11
3173.261437289657
 21
700.1117377679947
 31
0.0
  0
MTEXT
  5
3B5
330
1F
100
AcDbEntity
  8
0-A
  6
Continuous
 62
     7
370
     0
100
AcDbMText
 10
949.9995216163429
 20
769.5302618876669
 30
0.0
 40
99.06
 41
390.0
 46
0.0
 71
     7
 72
     1
  1
{\f@ＭＳ ゴシック|b0|i0|c128|p49;縦　用}
 11
-1.836909530733566E-16
 21
-1.0
 31
0.0
 73
     1
 44
1.0
  0
MTEXT
  5
3B6
330
1F
100
AcDbEntity
  8
0-A
  6
Continuous
 62
     7
370
     0
100
AcDbMText
 10
949.9995216163429
 20
-480.4698181123325
 30
0.0
 40
99.06
 41
390.0
 46
0.0
 71
     7
 72
     1
  1
{\f@ＭＳ ゴシック|b0|i0|c128|p49;横　用}
 11
-1.836909530733566E-16
 21
-1.0
 31
0.0
 73
     1
 44
1.0
  0
MTEXT
  5
3B7
330
1F
100
AcDbEntity
  8
0-B
  6
Continuous
 62
     7
370
   211
100
AcDbMText
 10
3194.474640725253
 20
795.4677549459758
 30
0.0
 40
68.57999999999963
 41
44.99999999999976
 46
0.0
 71
     7
 72
     1
  1
{\fＭＳ ゴシック|b0|i0|c128|p49;5}
 11
0.7071067811865568
 21
-0.7071067811865382
 31
0.0
 73
     1
 44
1.0
  0
MTEXT
  5
3B8
330
1F
100
AcDbEntity
  8
0-B
  6
Continuous
 62
     7
370
   211
100
AcDbMText
 10
1290.228428700665
 20
550.6517377679946
 30
0.0
 40
68.58
 41
90.0
 46
0.0
 71
     7
 72
     1
  1
{\fＭＳ ゴシック|b0|i0|c128|p49;12}
 11
6.123031769111886E-17
 21
1.0
 31
0.0
 73
     1
 44
1.0
  0
MTEXT
  5
3B9
330
1F
100
AcDbEntity
  8
0-B
  6
Continuous
 62
     7
370
   211
100
AcDbMText
 10
3360.228428700666
 20
370.6517377679947
 30
0.0
 40
68.58
 41
90.0
 46
0.0
 71
     7
 72
     1
  1
{\fＭＳ ゴシック|b0|i0|c128|p49;36}
 11
6.123031769111886E-17
 21
1.0
 31
0.0
 73
     1
 44
1.0
  0
MTEXT
  5
3BA
330
1F
100
AcDbEntity
  8
0-B
  6
Continuous
 62
     7
370
   211
100
AcDbMText
 10
2981.478428700666
 20
14.40173776799467
 30
0.0
 40
68.58
 41
90.0
 46
0.0
 71
     7
 72
     1
  1
{\fＭＳ ゴシック|b0|i0|c128|p49;12}
 73
     1
 44
1.0
  0
MTEXT
  5
3BB
330
1F
100
AcDbEntity
  8
0-B
  6
Continuous
 62
     7
370
   211
100
AcDbMText
 10
1350.228428700666
 20
-595.9190906924534
 30
0.0
 40
68.58
 41
90.0
 46
0.0
 71
     7
 72
     1
  1
{\fＭＳ ゴシック|b0|i0|c128|p49;12}
 11
6.123031769111886E-17
 21
1.0
 31
0.0
 73
     1
 44
1.0
  0
MTEXT
  5
3BC
330
1F
100
AcDbEntity
  8
0-B
  6
Continuous
 62
     7
370
   211
100
AcDbMText
 10
3037.728428700666
 20
-1132.169090692453
 30
0.0
 40
68.58
 41
45.0
 46
0.0
 71
     7
 72
     1
  1
{\fＭＳ ゴシック|b0|i0|c128|p49;8}
 73
     1
 44
1.0
  0
MTEXT
  5
3BD
330
1F
100
AcDbEntity
  8
0-B
  6
Continuous
 62
     7
370
   211
100
AcDbMText
 10
2212.728428700665
 20
854.4017377679929
 30
0.0
 40
68.57999999999998
 41
135.0
 46
0.0
 71
     7
 72
     1
  1
{\fＭＳ ゴシック|b0|i0|c128|p49;130}
 73
     1
 44
1.0
  0
MTEXT
  5
3BE
330
1F
100
AcDbEntity
  8
0-A
  6
Continuous
 62
     7
370
     9
100
AcDbMText
 10
5292.499348408469
 20
1076.165296887667
 30
0.0
 40
68.57999999999998
 41
315.0
 46
0.0
 71
     7
 72
     1
  1
{\fＭＳ ゴシック|b0|i0|c128|p49;2(偶数)}
 73
     1
 44
1.0
  0
MTEXT
  5
3BF
330
1F
100
AcDbEntity
  8
0-A
  6
Continuous
 62
     7
370
     9
100
AcDbMText
 10
3574.999719568202
 20
998.0402918876669
 30
0.0
 40
68.58
 41
630.0
 46
0.0
 71
     7
 72
     1
  1
{\fＭＳ ゴシック|b0|i0|c128|p49;3,900×130×36}
 73
     1
 44
1.0
  0
MTEXT
  5
3C0
330
1F
100
AcDbEntity
  8
0-A
  6
Continuous
 62
     7
370
     9
100
AcDbMText
 10
5427.499348408469
 20
919.915286887668
 30
0.0
 40
68.58
 41
45.0
 46
0.0
 71
     7
 72
     1
  1
{\fＭＳ ゴシック|b0|i0|c128|p49;1}
 73
     1
 44
1.0
  0
MTEXT
  5
3C1
330
1F
100
AcDbEntity
  8
0-A
  6
Continuous
 62
     7
370
     9
100
AcDbMText
 10
5292.499905148741
 20
-173.8347831123329
 30
0.0
 40
68.57999999999998
 41
315.0
 46
0.0
 71
     7
 72
     1
  1
{\fＭＳ ゴシック|b0|i0|c128|p49;2(偶数)}
 73
     1
 44
1.0
  0
MTEXT
  5
3C2
330
1F
100
AcDbEntity
  8
0-A
  6
Continuous
 62
     7
370
     9
100
AcDbMText
 10
3574.999719568202
 20
-251.9597881123326
 30
0.0
 40
68.58
 41
630.0
 46
0.0
 71
     7
 72
     1
  1
{\fＭＳ ゴシック|b0|i0|c128|p49;3,900×126×36}
 73
     1
 44
1.0
  0
MTEXT
  5
3C3
330
1F
100
AcDbEntity
  8
0-A
  6
Continuous
 62
     7
370
     9
100
AcDbMText
 10
5427.499348408469
 20
-330.0847931123323
 30
0.0
 40
68.58
 41
45.0
 46
0.0
 71
     7
 72
     1
  1
{\fＭＳ ゴシック|b0|i0|c128|p49;1}
 73
     1
 44
1.0
  0
MTEXT
  5
3C4
330
1F
100
AcDbEntity
  8
0-B
  6
Continuous
 62
     7
370
   211
100
AcDbMText
 10
2242.728428700666
 20
-292.1690906924533
 30
0.0
 40
68.57999999999998
 41
135.0
 46
0.0
 71
     7
 72
     1
  1
{\fＭＳ ゴシック|b0|i0|c128|p49;126}
 73
     1
 44
1.0
  0
MTEXT
  5
3C5
330
1F
100
AcDbEntity
  8
0-B
  6
Continuous
 62
     7
370
   211
100
AcDbMText
 10
3137.412655497687
 20
-408.1650587420377
 30
0.0
 40
68.5799999999998
 41
44.99999999999987
 46
0.0
 71
     7
 72
     1
  1
{\fＭＳ ゴシック|b0|i0|c128|p49;2}
 11
0.707106781186585
 21
-0.7071067811865099
 31
0.0
 73
     1
 44
1.0
  0
MTEXT
  5
3C6
330
1F
100
AcDbEntity
  8
0-B
  6
Continuous
 62
     7
370
   211
100
AcDbMText
 10
3360.228428700666
 20
-775.9190906924534
 30
0.0
 40
68.58
 41
90.0
 46
0.0
 71
     7
 72
     1
  1
{\fＭＳ ゴシック|b0|i0|c128|p49;36}
 11
6.123031769111886E-17
 21
1.0
 31
0.0
 73
     1
 44
1.0
  0
LINE
  5
3C7
330
1F
100
AcDbEntity
  8
F-1
  6
JWW_DASHED1
 62
     7
370
     9
100
AcDbLine
 10
5689.999162829944
 20
-2696.249948112333
 30
0.0
 11
4339.999719568202
 21
-2696.249948112333
 31
0.0
  0
LINE
  5
3C8
330
1F
100
AcDbEntity
  8
F-1
  6
JWW_DASHED1
 62
     7
370
     9
100
AcDbLine
 10
5689.999162829944
 20
-1446.249868112333
 30
0.0
 11
4339.999719568202
 21
-1446.249868112333
 31
0.0
  0
MTEXT
  5
3C9
330
1F
100
AcDbEntity
  8
0-A
  6
Continuous
 62
     7
370
     9
100
AcDbMText
 10
3574.999719568202
 20
3498.040451887668
 30
0.0
 40
68.58
 41
630.0
 46
0.0
 71
     7
 72
     1
  1
{\fＭＳ ゴシック|b0|i0|c128|p49;3,900×111×36}
 73
     1
 44
1.0
  0
MTEXT
  5
3CA
330
1F
100
AcDbEntity
  8
0-A
  6
Continuous
 62
     7
370
     9
100
AcDbMText
 10
3574.999719568202
 20
2248.040371887668
 30
0.0
 40
68.58
 41
630.0
 46
0.0
 71
     7
 72
     1
  1
{\fＭＳ ゴシック|b0|i0|c128|p49;3,900×107×36}
 73
     1
 44
1.0
  0
MTEXT
  5
3CB
330
1F
100
AcDbEntity
  8
F-A
  6
Continuous
 62
     7
370
     9
100
AcDbMText
 10
4936.249033580831
 20
-4147.857012699985
 30
0.0
 40
74.295
 41
97.5
 46
0.0
 71
     7
 72
     1
  1
{\fＭＳ ゴシック|b0|i0|c128|p49;01}
 73
     1
 44
1.0
  0
MTEXT
  5
3CC
330
1F
100
AcDbEntity
  8
F-A
  6
Continuous
 62
     7
370
     0
100
AcDbMText
 10
4778.749126529666
 20
-3938.071010139966
 30
0.0
 40
78.86699999999999
 41
517.5
 46
0.0
 71
     7
 72
     1
  1
{\fＭＳ ゴシック|b0|i0|c128|p49;2021.04.01}
 73
     1
 44
1.0
  0
MTEXT
  5
3CD
330
1F
100
AcDbEntity
  8
F-A
  6
Continuous
 62
     7
370
     0
100
AcDbMText
 10
-5239.999990205507
 20
-4045.219053725449
 30
0.0
 40
79.56176470588231
 41
2662.5
 46
0.0
 71
     7
 72
     1
  1
{\fＭＳ ゴシック|b0|i0|c128|p49;ドレタス　洋風造作材　窓枠Ｌ型 95／91幅－145／141幅}
 73
     1
 44
1.0
  0
MTEXT
  5
3CE
330
1F
100
AcDbEntity
  8
0-A
  6
Continuous
 62
     7
370
     9
100
AcDbMText
 10
-1400.000758815456
 20
3579.289843288112
 30
0.0
 40
68.58
 41
630.0
 46
0.0
 71
     7
 72
     1
  1
{\fＭＳ ゴシック|b0|i0|c128|p49;ＧＷＢＴ095-□}
 73
     1
 44
1.0
  0
MTEXT
  5
3CF
330
1F
100
AcDbEntity
  8
0-A
  6
Continuous
 62
     7
370
     9
100
AcDbMText
 10
-1400.000758815456
 20
3429.289348438203
 30
0.0
 40
68.58000000000001
 41
720.0
 46
0.0
 71
     7
 72
     1
  1
{\fＭＳ ゴシック|b0|i0|c128|p49;ＧＷＢＴ095-1-□}
 73
     1
 44
1.0
  0
MTEXT
  5
3D0
330
1F
100
AcDbEntity
  8
0-A
  6
Continuous
 62
     7
370
     9
100
AcDbMText
 10
-1400.000758815456
 20
2326.165376887668
 30
0.0
 40
68.58
 41
630.0
 46
0.0
 71
     7
 72
     1
  1
{\fＭＳ ゴシック|b0|i0|c128|p49;ＧＷＢＹ091-□}
 73
     1
 44
1.0
  0
MTEXT
  5
3D1
330
1F
100
AcDbEntity
  8
0-A
  6
Continuous
 62
     7
370
     9
100
AcDbMText
 10
-1400.000758815456
 20
2169.915366887668
 30
0.0
 40
68.57999999999998
 41
719.9999999999998
 46
0.0
 71
     7
 72
     1
  1
{\fＭＳ ゴシック|b0|i0|c128|p49;ＧＷＢＹ091-1-□}
 73
     1
 44
1.0
  0
MTEXT
  5
3D2
330
1F
100
AcDbEntity
  8
0-A
  6
Continuous
 62
     7
370
     9
100
AcDbMText
 10
-1400.000758815456
 20
1076.165296887667
 30
0.0
 40
68.58
 41
630.0
 46
0.0
 71
     7
 72
     1
  1
{\fＭＳ ゴシック|b0|i0|c128|p49;ＧＷＢＴ099-□}
 73
     1
 44
1.0
  0
MTEXT
  5
3D3
330
1F
100
AcDbEntity
  8
0-A
  6
Continuous
 62
     7
370
     9
100
AcDbMText
 10
-1400.000758815456
 20
919.915286887668
 30
0.0
 40
68.58000000000001
 41
720.0
 46
0.0
 71
     7
 72
     1
  1
{\fＭＳ ゴシック|b0|i0|c128|p49;ＧＷＢＴ099-1-□}
 73
     1
 44
1.0
  0
MTEXT
  5
3D4
330
1F
100
AcDbEntity
  8
0-A
  6
Continuous
 62
     7
370
     9
100
AcDbMText
 10
-1400.000758815456
 20
-173.8347831123329
 30
0.0
 40
68.58
 41
630.0
 46
0.0
 71
     7
 72
     1
  1
{\fＭＳ ゴシック|b0|i0|c128|p49;ＧＷＢＹ095-□}
 73
     1
 44
1.0
  0
MTEXT
  5
3D5
330
1F
100
AcDbEntity
  8
0-A
  6
Continuous
 62
     7
370
     9
100
AcDbMText
 10
-1400.000758815456
 20
-330.0847931123323
 30
0.0
 40
68.58000000000001
 41
720.0
 46
0.0
 71
     7
 72
     1
  1
{\fＭＳ ゴシック|b0|i0|c128|p49;ＧＷＢＹ095-1-□}
 73
     1
 44
1.0
  0
MTEXT
  5
3D6
330
1F
100
AcDbEntity
  8
0-A
  6
Continuous
 62
     7
370
     9
100
AcDbMText
 10
-1400.000758815456
 20
-1423.834863112333
 30
0.0
 40
68.58
 41
630.0
 46
0.0
 71
     7
 72
     1
  1
{\fＭＳ ゴシック|b0|i0|c128|p49;ＧＷＢＴ102-□}
 73
     1
 44
1.0
  0
MTEXT
  5
3D7
330
1F
100
AcDbEntity
  8
0-A
  6
Continuous
 62
     7
370
     9
100
AcDbMText
 10
-1400.000758815456
 20
-1580.084873112333
 30
0.0
 40
68.58000000000001
 41
720.0
 46
0.0
 71
     7
 72
     1
  1
{\fＭＳ ゴシック|b0|i0|c128|p49;ＧＷＢＴ102-1-□}
 73
     1
 44
1.0
  0
MTEXT
  5
3D8
330
1F
100
AcDbEntity
  8
0-A
  6
Continuous
 62
     7
370
     9
100
AcDbMText
 10
-1400.000758815456
 20
-2673.834943112334
 30
0.0
 40
68.58
 41
630.0
 46
0.0
 71
     7
 72
     1
  1
{\fＭＳ ゴシック|b0|i0|c128|p49;ＧＷＢＹ098-□}
 73
     1
 44
1.0
  0
MTEXT
  5
3D9
330
1F
100
AcDbEntity
  8
0-A
  6
Continuous
 62
     7
370
     9
100
AcDbMText
 10
-1400.000758815456
 20
-2830.084953112333
 30
0.0
 40
68.58000000000001
 41
720.0
 46
0.0
 71
     7
 72
     1
  1
{\fＭＳ ゴシック|b0|i0|c128|p49;ＧＷＢＹ098-1-□}
 73
     1
 44
1.0
  0
MTEXT
  5
3DA
330
1F
100
AcDbEntity
  8
0-A
  6
Continuous
 62
     7
370
     9
100
AcDbMText
 10
4399.999719568202
 20
3576.165456887668
 30
0.0
 40
68.58
 41
630.0
 46
0.0
 71
     7
 72
     1
  1
{\fＭＳ ゴシック|b0|i0|c128|p49;ＧＷＢＴ111-□}
 73
     1
 44
1.0
  0
MTEXT
  5
3DB
330
1F
100
AcDbEntity
  8
0-A
  6
Continuous
 62
     7
370
     9
100
AcDbMText
 10
4399.999719568202
 20
3419.915446887668
 30
0.0
 40
68.58000000000001
 41
720.0
 46
0.0
 71
     7
 72
     1
  1
{\fＭＳ ゴシック|b0|i0|c128|p49;ＧＷＢＴ111-1-□}
 73
     1
 44
1.0
  0
MTEXT
  5
3DC
330
1F
100
AcDbEntity
  8
0-A
  6
Continuous
 62
     7
370
     9
100
AcDbMText
 10
4399.999719568202
 20
2326.165376887669
 30
0.0
 40
68.58
 41
630.0
 46
0.0
 71
     7
 72
     1
  1
{\fＭＳ ゴシック|b0|i0|c128|p49;ＧＷＢＹ107-□}
 73
     1
 44
1.0
  0
MTEXT
  5
3DD
330
1F
100
AcDbEntity
  8
0-A
  6
Continuous
 62
     7
370
     9
100
AcDbMText
 10
4399.999719568202
 20
2169.915366887668
 30
0.0
 40
68.58000000000001
 41
720.0
 46
0.0
 71
     7
 72
     1
  1
{\fＭＳ ゴシック|b0|i0|c128|p49;ＧＷＢＹ107-1-□}
 73
     1
 44
1.0
  0
MTEXT
  5
3DE
330
1F
100
AcDbEntity
  8
0-A
  6
Continuous
 62
     7
370
     9
100
AcDbMText
 10
4399.999719568202
 20
1076.165296887667
 30
0.0
 40
68.58
 41
630.0
 46
0.0
 71
     7
 72
     1
  1
{\fＭＳ ゴシック|b0|i0|c128|p49;ＧＷＢＴ130-□}
 73
     1
 44
1.0
  0
MTEXT
  5
3DF
330
1F
100
AcDbEntity
  8
0-A
  6
Continuous
 62
     7
370
     9
100
AcDbMText
 10
4399.999719568202
 20
919.915286887668
 30
0.0
 40
68.58000000000001
 41
720.0
 46
0.0
 71
     7
 72
     1
  1
{\fＭＳ ゴシック|b0|i0|c128|p49;ＧＷＢＴ130-1-□}
 73
     1
 44
1.0
  0
MTEXT
  5
3E0
330
1F
100
AcDbEntity
  8
0-A
  6
Continuous
 62
     7
370
     9
100
AcDbMText
 10
4399.999719568202
 20
-173.8347831123329
 30
0.0
 40
68.58
 41
630.0
 46
0.0
 71
     7
 72
     1
  1
{\fＭＳ ゴシック|b0|i0|c128|p49;ＧＷＢＹ126-□}
 73
     1
 44
1.0
  0
MTEXT
  5
3E1
330
1F
100
AcDbEntity
  8
0-A
  6
Continuous
 62
     7
370
     9
100
AcDbMText
 10
4399.999719568202
 20
-330.0847931123322
 30
0.0
 40
68.58000000000001
 41
720.0
 46
0.0
 71
     7
 72
     1
  1
{\fＭＳ ゴシック|b0|i0|c128|p49;ＧＷＢＹ126-1-□}
 73
     1
 44
1.0
  0
MTEXT
  5
3E2
330
1F
100
AcDbEntity
  8
0-A
  6
Continuous
 62
     7
370
     9
100
AcDbMText
 10
4399.999719568202
 20
-1423.834863112333
 30
0.0
 40
68.58
 41
630.0
 46
0.0
 71
     7
 72
     1
  1
{\fＭＳ ゴシック|b0|i0|c128|p49;ＧＷＢＴ145-□}
 73
     1
 44
1.0
  0
MTEXT
  5
3E3
330
1F
100
AcDbEntity
  8
0-A
  6
Continuous
 62
     7
370
     9
100
AcDbMText
 10
4399.999719568202
 20
-1580.084873112332
 30
0.0
 40
68.58000000000001
 41
720.0
 46
0.0
 71
     7
 72
     1
  1
{\fＭＳ ゴシック|b0|i0|c128|p49;ＧＷＢＴ145-1-□}
 73
     1
 44
1.0
  0
MTEXT
  5
3E4
330
1F
100
AcDbEntity
  8
0-A
  6
Continuous
 62
     7
370
     9
100
AcDbMText
 10
4399.999719568202
 20
-2673.834943112334
 30
0.0
 40
68.58
 41
630.0
 46
0.0
 71
     7
 72
     1
  1
{\fＭＳ ゴシック|b0|i0|c128|p49;ＧＷＢＹ141-□}
 73
     1
 44
1.0
  0
MTEXT
  5
3E5
330
1F
100
AcDbEntity
  8
0-A
  6
Continuous
 62
     7
370
     9
100
AcDbMText
 10
4399.999719568202
 20
-2830.084953112334
 30
0.0
 40
68.58000000000001
 41
720.0
 46
0.0
 71
     7
 72
     1
  1
{\fＭＳ ゴシック|b0|i0|c128|p49;ＧＷＢＹ141-1-□}
 73
     1
 44
1.0
  0
ENDSEC
  0
SECTION
  2
OBJECTS
  0
DICTIONARY
  5
C
330
0
100
AcDbDictionary
281
     1
  3
ACAD_GROUP
350
D
  3
ACAD_LAYOUT
350
1A
  3
ACAD_MATERIAL
350
3B
  3
ACAD_MLEADERSTYLE
350
3E7
  3
ACAD_MLINESTYLE
350
17
  3
ACAD_PLOTSETTINGS
350
19
  3
ACAD_PLOTSTYLENAME
350
E
  3
ACAD_TABLESTYLE
350
3E6
  3
ACAD_VISUALSTYLE
350
2A
  0
DICTIONARY
  5
D
102
{ACAD_REACTORS
330
C
102
}
330
C
100
AcDbDictionary
281
     1
  0
DICTIONARY
  5
1A
102
{ACAD_REACTORS
330
C
102
}
330
C
100
AcDbDictionary
281
     1
  3
Layout1
350
1E
  3
Layout2
350
26
  3
Model
350
22
  0
DICTIONARY
  5
3B
102
{ACAD_REACTORS
330
C
102
}
330
C
100
AcDbDictionary
281
     1
  3
ByBlock
350
3D
  3
ByLayer
350
3C
  3
Global
350
3E
  0
DICTIONARY
  5
3E7
102
{ACAD_REACTORS
330
C
102
}
330
C
100
AcDbDictionary
281
     1
  0
DICTIONARY
  5
17
102
{ACAD_REACTORS
330
C
102
}
330
C
100
AcDbDictionary
281
     1
  3
Standard
350
18
  0
DICTIONARY
  5
19
102
{ACAD_REACTORS
330
C
102
}
330
C
100
AcDbDictionary
281
     1
  0
ACDBDICTIONARYWDFLT
  5
E
102
{ACAD_REACTORS
330
C
102
}
330
C
100
AcDbDictionary
281
     1
  3
Normal
350
F
100
AcDbDictionaryWithDefault
340
F
  0
DICTIONARY
  5
3E6
102
{ACAD_REACTORS
330
C
102
}
330
C
100
AcDbDictionary
281
     1
  0
DICTIONARY
  5
2A
102
{ACAD_REACTORS
330
C
102
}
330
C
100
AcDbDictionary
281
     1
  3
2dWireframe
350
2F
  3
3D Hidden
350
31
  3
3dWireframe
350
30
  3
Basic
350
32
  3
Brighten
350
36
  3
ColorChange
350
3A
  3
Conceptual
350
34
  3
Dim
350
35
  3
Facepattern
350
39
  3
Flat
350
2B
  3
FlatWithEdges
350
2C
  3
Gouraud
350
2D
  3
GouraudWithEdges
350
2E
  3
Linepattern
350
38
  3
Realistic
350
33
  3
Thicken
350
37
  0
LAYOUT
  5
1E
102
{ACAD_REACTORS
330
1A
102
}
330
1A
100
AcDbPlotSettings
  1

  2
none_device
  4

  6

 40
0.0
 41
0.0
 42
0.0
 43
0.0
 44
0.0
 45
0.0
 46
0.0
 47
0.0
 48
0.0
 49
0.0
140
0.0
141
0.0
142
1.0
143
1.0
 70
   688
 72
     0
 73
     0
 74
     5
  7

 75
    16
 76
     0
 77
     5
 78
   300
147
1.0
148
0.0
149
0.0
100
AcDbLayout
  1
Layout1
 70
     1
 71
     1
 10
0.0
 20
0.0
 11
420.0
 21
297.0
 12
0.0
 22
0.0
 32
0.0
 14
1.000000000000000E+20
 24
1.000000000000000E+20
 34
1.000000000000000E+20
 15
-1.000000000000000E+20
 25
-1.000000000000000E+20
 35
-1.000000000000000E+20
146
0.0
 13
0.0
 23
0.0
 33
0.0
 16
1.0
 26
0.0
 36
0.0
 17
0.0
 27
1.0
 37
0.0
 76
     0
330
1B
  0
LAYOUT
  5
26
102
{ACAD_REACTORS
330
1A
102
}
330
1A
100
AcDbPlotSettings
  1

  2
none_device
  4

  6

 40
0.0
 41
0.0
 42
0.0
 43
0.0
 44
0.0
 45
0.0
 46
0.0
 47
0.0
 48
0.0
 49
0.0
140
0.0
141
0.0
142
1.0
143
1.0
 70
   688
 72
     0
 73
     0
 74
     5
  7

 75
    16
 76
     0
 77
     5
 78
   300
147
1.0
148
0.0
149
0.0
100
AcDbLayout
  1
Layout2
 70
     1
 71
     2
 10
0.0
 20
0.0
 11
0.0
 21
0.0
 12
0.0
 22
0.0
 32
0.0
 14
0.0
 24
0.0
 34
0.0
 15
0.0
 25
0.0
 35
0.0
146
0.0
 13
0.0
 23
0.0
 33
0.0
 16
1.0
 26
0.0
 36
0.0
 17
0.0
 27
1.0
 37
0.0
 76
     0
330
23
  0
LAYOUT
  5
22
102
{ACAD_REACTORS
330
1A
102
}
330
1A
100
AcDbPlotSettings
  1

  2
none_device
  4

  6

 40
0.0
 41
0.0
 42
0.0
 43
0.0
 44
0.0
 45
0.0
 46
0.0
 47
0.0
 48
0.0
 49
0.0
140
0.0
141
0.0
142
1.0
143
1.0
 70
  1712
 72
     0
 73
     0
 74
     0
  7

 75
     0
 76
     0
 77
     5
 78
   300
147
1.0
148
0.0
149
0.0
100
AcDbLayout
  1
Model
 70
     1
 71
     0
 10
-6300.0
 20
-4455.0
 11
6300.0
 21
4455.0
 12
0.0
 22
0.0
 32
0.0
 14
-6300.0
 24
-4455.0
 34
0.0
 15
6300.0
 25
4455.0
 35
0.0
146
0.0
 13
0.0
 23
0.0
 33
0.0
 16
1.0
 26
0.0
 36
0.0
 17
0.0
 27
1.0
 37
0.0
 76
     0
330
1F
331
29
  0
MATERIAL
  5
3D
102
{ACAD_REACTORS
330
3B
102
}
330
3B
100
AcDbMaterial
  1
ByBlock
 72
     1
 94
      127
  0
MATERIAL
  5
3C
102
{ACAD_REACTORS
330
3B
102
}
330
3B
100
AcDbMaterial
  1
ByLayer
 72
     1
 94
      127
  0
MATERIAL
  5
3E
102
{ACAD_REACTORS
330
3B
102
}
330
3B
100
AcDbMaterial
  1
Global
 72
     1
 94
      127
  0
MLINESTYLE
  5
18
102
{ACAD_REACTORS
330
17
102
}
330
17
100
AcDbMlineStyle
  2
Standard
 70
     0
  3

 62
   256
 51
90.0
 52
90.0
 71
     2
 49
0.5
 62
   256
  6
BYLAYER
 49
-0.5
 62
   256
  6
BYLAYER
  0
ACDBPLACEHOLDER
  5
F
102
{ACAD_REACTORS
330
E
102
}
330
E
  0
VISUALSTYLE
  5
2F
102
{ACAD_REACTORS
330
2A
102
}
330
2A
100
AcDbVisualStyle
  2
2dWireframe
 70
     4
177
     2
291
     0
 71
     0
176
     1
 72
     2
176
     1
 73
     0
176
     1
 90
        0
176
     1
 40
-0.6
176
     1
 41
-30.0
176
     1
 62
     5
 63
     7
421
 16777215
176
     1
 74
     1
176
     1
 91
        4
176
     1
 64
     7
176
     1
 65
   257
176
     1
 75
     1
176
     1
175
     1
176
     1
 42
1.0
176
     1
 92
        0
176
     1
 66
   257
176
     1
 43
1.0
176
     1
 76
     1
176
     1
 77
     6
176
     1
 78
     2
176
     1
 67
     7
176
     1
 79
     5
176
     1
170
     0
176
     1
171
     0
176
     1
290
     0
176
     1
 93
        1
176
     1
 44
0.0
176
     1
173
     0
176
     1
  0
VISUALSTYLE
  5
31
102
{ACAD_REACTORS
330
2A
102
}
330
2A
100
AcDbVisualStyle
  2
3D Hidden
 70
     6
177
     2
291
     0
 71
     1
176
     1
 72
     2
176
     1
 73
     2
176
     1
 90
        0
176
     1
 40
-0.6
176
     1
 41
-30.0
176
     1
 62
     5
 63
     7
421
 16777215
176
     1
 74
     2
176
     1
 91
        2
176
     1
 64
     7
176
     1
 65
   257
176
     1
 75
     2
176
     1
175
     1
176
     1
 42
40.0
176
     1
 92
        0
176
     1
 66
   257
176
     1
 43
1.0
176
     1
 76
     1
176
     1
 77
     6
176
     1
 78
     2
176
     1
 67
     7
176
     1
 79
     3
176
     1
170
     0
176
     1
171
     0
176
     1
290
     0
176
     1
 93
        1
176
     1
 44
0.0
176
     1
173
     0
176
     1
  0
VISUALSTYLE
  5
30
102
{ACAD_REACTORS
330
2A
102
}
330
2A
100
AcDbVisualStyle
  2
3dWireframe
 70
     5
177
     2
291
     0
 71
     0
176
     1
 72
     2
176
     1
 73
     0
176
     1
 90
        0
176
     1
 40
-0.6
176
     1
 41
-30.0
176
     1
 62
     5
 63
     7
421
 16777215
176
     1
 74
     1
176
     1
 91
        4
176
     1
 64
     7
176
     1
 65
   257
176
     1
 75
     1
176
     1
175
     1
176
     1
 42
1.0
176
     1
 92
        0
176
     1
 66
   257
176
     1
 43
1.0
176
     1
 76
     1
176
     1
 77
     6
176
     1
 78
     2
176
     1
 67
     7
176
     1
 79
     5
176
     1
170
     0
176
     1
171
     0
176
     1
290
     0
176
     1
 93
        1
176
     1
 44
0.0
176
     1
173
     0
176
     1
  0
VISUALSTYLE
  5
32
102
{ACAD_REACTORS
330
2A
102
}
330
2A
100
AcDbVisualStyle
  2
Basic
 70
     7
177
     2
291
     1
 71
     1
176
     1
 72
     0
176
     1
 73
     1
176
     1
 90
        0
176
     1
 40
-0.6
176
     1
 41
-30.0
176
     1
 62
     5
 63
     7
421
 16777215
176
     1
 74
     0
176
     1
 91
        4
176
     1
 64
     7
176
     1
 65
   257
176
     1
 75
     1
176
     1
175
     1
176
     1
 42
1.0
176
     1
 92
        8
176
     1
 66
     7
176
     1
 43
1.0
176
     1
 76
     1
176
     1
 77
     6
176
     1
 78
     2
176
     1
 67
     7
176
     1
 79
     5
176
     1
170
     0
176
     1
171
     0
176
     1
290
     0
176
     1
 93
        1
176
     1
 44
0.0
176
     1
173
     0
176
     1
  0
VISUALSTYLE
  5
36
102
{ACAD_REACTORS
330
2A
102
}
330
2A
100
AcDbVisualStyle
  2
Brighten
 70
    12
177
     2
291
     1
 71
     2
176
     1
 72
     2
176
     1
 73
     0
176
     1
 90
        0
176
     1
 40
-0.6
176
     1
 41
-30.0
176
     1
 62
     5
 63
     7
421
 16777215
176
     1
 74
     1
176
     1
 91
        4
176
     1
 64
     7
176
     1
 65
   257
176
     1
 75
     1
176
     1
175
     1
176
     1
 42
1.0
176
     1
 92
        8
176
     1
 66
     7
176
     1
 43
1.0
176
     1
 76
     1
176
     1
 77
     6
176
     1
 78
     2
176
     1
 67
     7
176
     1
 79
     5
176
     1
170
     0
176
     1
171
     0
176
     1
290
     0
176
     1
 93
        1
176
     1
 44
50.0
176
     1
173
     0
176
     1
  0
VISUALSTYLE
  5
3A
102
{ACAD_REACTORS
330
2A
102
}
330
2A
100
AcDbVisualStyle
  2
ColorChange
 70
    16
177
     2
291
     1
 71
     2
176
     1
 72
     2
176
     1
 73
     3
176
     1
 90
        0
176
     1
 40
-0.6
176
     1
 41
-30.0
176
     1
 62
     5
 63
     8
421
  8421504
176
     1
 74
     1
176
     1
 91
        4
176
     1
 64
     7
176
     1
 65
   257
176
     1
 75
     1
176
     1
175
     1
176
     1
 42
1.0
176
     1
 92
        8
176
     1
 66
     8
424
  8421504
176
     1
 43
1.0
176
     1
 76
     1
176
     1
 77
     6
176
     1
 78
     2
176
     1
 67
     7
176
     1
 79
     5
176
     1
170
     0
176
     1
171
     0
176
     1
290
     0
176
     1
 93
        1
176
     1
 44
0.0
176
     1
173
     0
176
     1
  0
VISUALSTYLE
  5
34
102
{ACAD_REACTORS
330
2A
102
}
330
2A
100
AcDbVisualStyle
  2
Conceptual
 70
     9
177
     2
291
     0
 71
     3
176
     1
 72
     2
176
     1
 73
     0
176
     1
 90
        0
176
     1
 40
-0.6
176
     1
 41
-30.0
176
     1
 62
     5
 63
     7
421
 16777215
176
     1
 74
     2
176
     1
 91
        2
176
     1
 64
     7
176
     1
 65
   257
176
     1
 75
     1
176
     1
175
     1
176
     1
 42
40.0
176
     1
 92
        8
176
     1
 66
     7
176
     1
 43
1.0
176
     1
 76
     1
176
     1
 77
     6
176
     1
 78
     2
176
     1
 67
     7
176
     1
 79
     3
176
     1
170
     0
176
     1
171
     0
176
     1
290
     0
176
     1
 93
        1
176
     1
 44
0.0
176
     1
173
     0
176
     1
  0
VISUALSTYLE
  5
35
102
{ACAD_REACTORS
330
2A
102
}
330
2A
100
AcDbVisualStyle
  2
Dim
 70
    11
177
     2
291
     1
 71
     2
176
     1
 72
     2
176
     1
 73
     0
176
     1
 90
        0
176
     1
 40
-0.6
176
     1
 41
-30.0
176
     1
 62
     5
 63
     7
421
 16777215
176
     1
 74
     1
176
     1
 91
        4
176
     1
 64
     7
176
     1
 65
   257
176
     1
 75
     1
176
     1
175
     1
176
     1
 42
1.0
176
     1
 92
        8
176
     1
 66
     7
176
     1
 43
1.0
176
     1
 76
     1
176
     1
 77
     6
176
     1
 78
     2
176
     1
 67
     7
176
     1
 79
     5
176
     1
170
     0
176
     1
171
     0
176
     1
290
     0
176
     1
 93
        1
176
     1
 44
-50.0
176
     1
173
     0
176
     1
  0
VISUALSTYLE
  5
39
102
{ACAD_REACTORS
330
2A
102
}
330
2A
100
AcDbVisualStyle
  2
Facepattern
 70
    15
177
     2
291
     1
 71
     2
176
     1
 72
     2
176
     1
 73
     0
176
     1
 90
        0
176
     1
 40
-0.6
176
     1
 41
-30.0
176
     1
 62
     5
 63
     7
421
 16777215
176
     1
 74
     1
176
     1
 91
        4
176
     1
 64
     7
176
     1
 65
   257
176
     1
 75
     1
176
     1
175
     1
176
     1
 42
1.0
176
     1
 92
        8
176
     1
 66
     7
176
     1
 43
1.0
176
     1
 76
     1
176
     1
 77
     6
176
     1
 78
     2
176
     1
 67
     7
176
     1
 79
     5
176
     1
170
     0
176
     1
171
     0
176
     1
290
     0
176
     1
 93
        1
176
     1
 44
0.0
176
     1
173
     0
176
     1
  0
VISUALSTYLE
  5
2B
102
{ACAD_REACTORS
330
2A
102
}
330
2A
100
AcDbVisualStyle
  2
Flat
 70
     0
177
     2
291
     1
 71
     2
176
     1
 72
     1
176
     1
 73
     1
176
     1
 90
        2
176
     1
 40
-0.6
176
     1
 41
30.0
176
     1
 62
     5
 63
     7
421
 16777215
176
     1
 74
     0
176
     1
 91
        4
176
     1
 64
     7
176
     1
 65
   257
176
     1
 75
     1
176
     1
175
     1
176
     1
 42
1.0
176
     1
 92
        8
176
     1
 66
     7
176
     1
 43
1.0
176
     1
 76
     1
176
     1
 77
     6
176
     1
 78
     2
176
     1
 67
     7
176
     1
 79
     5
176
     1
170
     0
176
     1
171
     0
176
     1
290
     0
176
     1
 93
       13
176
     1
 44
0.0
176
     1
173
     0
176
     1
  0
VISUALSTYLE
  5
2C
102
{ACAD_REACTORS
330
2A
102
}
330
2A
100
AcDbVisualStyle
  2
FlatWithEdges
 70
     1
177
     2
291
     1
 71
     2
176
     1
 72
     1
176
     1
 73
     1
176
     1
 90
        2
176
     1
 40
-0.6
176
     1
 41
30.0
176
     1
 62
     5
 63
     7
421
 16777215
176
     1
 74
     1
176
     1
 91
        4
176
     1
 64
     7
176
     1
 65
   257
176
     1
 75
     1
176
     1
175
     1
176
     1
 42
1.0
176
     1
 92
        0
176
     1
 66
   257
176
     1
 43
1.0
176
     1
 76
     1
176
     1
 77
     6
176
     1
 78
     2
176
     1
 67
     7
176
     1
 79
     5
176
     1
170
     0
176
     1
171
     0
176
     1
290
     0
176
     1
 93
       13
176
     1
 44
0.0
176
     1
173
     0
176
     1
  0
VISUALSTYLE
  5
2D
102
{ACAD_REACTORS
330
2A
102
}
330
2A
100
AcDbVisualStyle
  2
Gouraud
 70
     2
177
     2
291
     1
 71
     2
176
     1
 72
     2
176
     1
 73
     1
176
     1
 90
        2
176
     1
 40
-0.6
176
     1
 41
30.0
176
     1
 62
     5
 63
     7
421
 16777215
176
     1
 74
     0
176
     1
 91
        4
176
     1
 64
     7
176
     1
 65
   257
176
     1
 75
     1
176
     1
175
     1
176
     1
 42
1.0
176
     1
 92
        0
176
     1
 66
     7
176
     1
 43
1.0
176
     1
 76
     1
176
     1
 77
     6
176
     1
 78
     2
176
     1
 67
     7
176
     1
 79
     5
176
     1
170
     0
176
     1
171
     0
176
     1
290
     0
176
     1
 93
       13
176
     1
 44
0.0
176
     1
173
     0
176
     1
  0
VISUALSTYLE
  5
2E
102
{ACAD_REACTORS
330
2A
102
}
330
2A
100
AcDbVisualStyle
  2
GouraudWithEdges
 70
     3
177
     2
291
     1
 71
     2
176
     1
 72
     2
176
     1
 73
     1
176
     1
 90
        2
176
     1
 40
-0.6
176
     1
 41
30.0
176
     1
 62
     5
 63
     7
421
 16777215
176
     1
 74
     1
176
     1
 91
        4
176
     1
 64
     7
176
     1
 65
   257
176
     1
 75
     1
176
     1
175
     1
176
     1
 42
1.0
176
     1
 92
        0
176
     1
 66
   257
176
     1
 43
1.0
176
     1
 76
     1
176
     1
 77
     6
176
     1
 78
     2
176
     1
 67
     7
176
     1
 79
     5
176
     1
170
     0
176
     1
171
     0
176
     1
290
     0
176
     1
 93
       13
176
     1
 44
0.0
176
     1
173
     0
176
     1
  0
VISUALSTYLE
  5
38
102
{ACAD_REACTORS
330
2A
102
}
330
2A
100
AcDbVisualStyle
  2
Linepattern
 70
    14
177
     2
291
     1
 71
     2
176
     1
 72
     2
176
     1
 73
     0
176
     1
 90
        0
176
     1
 40
-0.6
176
     1
 41
-30.0
176
     1
 62
     5
 63
     7
421
 16777215
176
     1
 74
     1
176
     1
 91
        4
176
     1
 64
     7
176
     1
 65
   257
176
     1
 75
     7
176
     1
175
     7
176
     1
 42
1.0
176
     1
 92
        8
176
     1
 66
     7
176
     1
 43
1.0
176
     1
 76
     1
176
     1
 77
     6
176
     1
 78
     2
176
     1
 67
     7
176
     1
 79
     5
176
     1
170
     0
176
     1
171
     0
176
     1
290
     0
176
     1
 93
        1
176
     1
 44
0.0
176
     1
173
     0
176
     1
  0
VISUALSTYLE
  5
33
102
{ACAD_REACTORS
330
2A
102
}
330
2A
100
AcDbVisualStyle
  2
Realistic
 70
     8
177
     2
291
     0
 71
     2
176
     1
 72
     2
176
     1
 73
     0
176
     1
 90
        0
176
     1
 40
-0.6
176
     1
 41
-30.0
176
     1
 62
     5
 63
     7
421
 16777215
176
     1
 74
     1
176
     1
 91
        0
176
     1
 64
     7
176
     1
 65
   257
176
     1
 75
     1
176
     1
175
     1
176
     1
 42
1.0
176
     1
 92
        8
176
     1
 66
     8
424
  7895160
176
     1
 43
1.0
176
     1
 76
     1
176
     1
 77
     6
176
     1
 78
     2
176
     1
 67
     7
176
     1
 79
     5
176
     1
170
     0
176
     1
171
     0
176
     1
290
     0
176
     1
 93
       13
176
     1
 44
0.0
176
     1
173
     0
176
     1
  0
VISUALSTYLE
  5
37
102
{ACAD_REACTORS
330
2A
102
}
330
2A
100
AcDbVisualStyle
  2
Thicken
 70
    13
177
     2
291
     1
 71
     2
176
     1
 72
     2
176
     1
 73
     0
176
     1
 90
        0
176
     1
 40
-0.6
176
     1
 41
-30.0
176
     1
 62
     5
 63
     7
421
 16777215
176
     1
 74
     1
176
     1
 91
        4
176
     1
 64
     7
176
     1
 65
   257
176
     1
 75
     1
176
     1
175
     1
176
     1
 42
1.0
176
     1
 92
       12
176
     1
 66
     7
176
     1
 43
1.0
176
     1
 76
     1
176
     1
 77
     6
176
     1
 78
     2
176
     1
 67
     7
176
     1
 79
     5
176
     1
170
     0
176
     1
171
     0
176
     1
290
     0
176
     1
 93
        1
176
     1
 44
0.0
176
     1
173
     0
176
     1
  0
ENDSEC
  0
EOF
