  0
SECTION
  2
HEADER
  9
$ACADVER
  1
AC1024
  9
$ACADMAINTVER
 70
     6
  9
$DWGCODEPAGE
  3
ANSI_932
  9
$INSBASE
 10
0.0
 20
0.0
 30
0.0
  9
$EXTMIN
 10
-6300.0
 20
-4455.0
 30
0.0
  9
$EXTMAX
 10
6300.0
 20
4455.0
 30
0.0
  9
$LIMMIN
 10
-6300.0
 20
-4455.0
  9
$LIMMAX
 10
6300.0
 20
4455.0
  9
$ORTHOMODE
 70
     0
  9
$REGENMODE
 70
     1
  9
$FILLMODE
 70
     1
  9
$QTEXTMODE
 70
     0
  9
$MIRRTEXT
 70
     1
  9
$LTSCALE
 40
30.0
  9
$ATTMODE
 70
     1
  9
$TEXTSIZE
 40
2.5
  9
$TRACEWID
 40
1.0
  9
$TEXTSTYLE
  7
Standard
  9
$CLAYER
  8
0
  9
$CELTYPE
  6
ByLayer
  9
$CECOLOR
 62
   256
  9
$CELTSCALE
 40
1.0
  9
$DISPSILH
 70
     0
  9
$DIMSCALE
 40
1.0
  9
$DIMASZ
 40
2.5
  9
$DIMEXO
 40
0.625
  9
$DIMDLI
 40
3.75
  9
$DIMRND
 40
0.0
  9
$DIMDLE
 40
0.0
  9
$DIMEXE
 40
1.25
  9
$DIMTP
 40
0.0
  9
$DIMTM
 40
0.0
  9
$DIMTXT
 40
2.5
  9
$DIMCEN
 40
2.5
  9
$DIMTSZ
 40
0.0
  9
$DIMTOL
 70
     0
  9
$DIMLIM
 70
     0
  9
$DIMTIH
 70
     0
  9
$DIMTOH
 70
     0
  9
$DIMSE1
 70
     0
  9
$DIMSE2
 70
     0
  9
$DIMTAD
 70
     1
  9
$DIMZIN
 70
     8
  9
$DIMBLK
  1

  9
$DIMASO
 70
     1
  9
$DIMSHO
 70
     1
  9
$DIMPOST
  1

  9
$DIMAPOST
  1

  9
$DIMALT
 70
     0
  9
$DIMALTD
 70
     3
  9
$DIMALTF
 40
0.03937007874016
  9
$DIMLFAC
 40
1.0
  9
$DIMTOFL
 70
     1
  9
$DIMTVP
 40
0.0
  9
$DIMTIX
 70
     0
  9
$DIMSOXD
 70
     0
  9
$DIMSAH
 70
     0
  9
$DIMBLK1
  1

  9
$DIMBLK2
  1

  9
$DIMSTYLE
  2
ISO-25
  9
$DIMCLRD
 70
     0
  9
$DIMCLRE
 70
     0
  9
$DIMCLRT
 70
     0
  9
$DIMTFAC
 40
1.0
  9
$DIMGAP
 40
0.625
  9
$DIMJUST
 70
     0
  9
$DIMSD1
 70
     0
  9
$DIMSD2
 70
     0
  9
$DIMTOLJ
 70
     0
  9
$DIMTZIN
 70
     8
  9
$DIMALTZ
 70
     0
  9
$DIMALTTZ
 70
     0
  9
$DIMUPT
 70
     0
  9
$DIMDEC
 70
     2
  9
$DIMTDEC
 70
     2
  9
$DIMALTU
 70
     2
  9
$DIMALTTD
 70
     3
  9
$DIMTXSTY
  7
Standard
  9
$DIMAUNIT
 70
     0
  9
$DIMADEC
 70
     0
  9
$DIMALTRND
 40
0.0
  9
$DIMAZIN
 70
     0
  9
$DIMDSEP
 70
    44
  9
$DIMATFIT
 70
     3
  9
$DIMFRAC
 70
     0
  9
$DIMLDRBLK
  1

  9
$DIMLUNIT
 70
     2
  9
$DIMLWD
 70
    -2
  9
$DIMLWE
 70
    -2
  9
$DIMTMOVE
 70
     0
  9
$DIMFXL
 40
1.0
  9
$DIMFXLON
 70
     0
  9
$DIMJOGANG
 40
0.7853981633974483
  9
$DIMTFILL
 70
     0
  9
$DIMTFILLCLR
 70
     0
  9
$DIMARCSYM
 70
     0
  9
$DIMLTYPE
  6

  9
$DIMLTEX1
  6

  9
$DIMLTEX2
  6

  9
$DIMTXTDIRECTION
 70
     0
  9
$LUNITS
 70
     2
  9
$LUPREC
 70
     4
  9
$SKETCHINC
 40
1.0
  9
$FILLETRAD
 40
10.0
  9
$AUNITS
 70
     0
  9
$AUPREC
 70
     0
  9
$MENU
  1
.
  9
$ELEVATION
 40
0.0
  9
$PELEVATION
 40
0.0
  9
$THICKNESS
 40
0.0
  9
$LIMCHECK
 70
     0
  9
$CHAMFERA
 40
10.0
  9
$CHAMFERB
 40
10.0
  9
$CHAMFERC
 40
20.0
  9
$CHAMFERD
 40
0.0
  9
$SKPOLY
 70
     0
  9
$TDCREATE
 40
2459432.544391817
  9
$TDUCREATE
 40
2459432.169391817
  9
$TDUPDATE
 40
2459432.544391829
  9
$TDUUPDATE
 40
2459432.169391829
  9
$TDINDWG
 40
0.0000000116
  9
$TDUSRTIMER
 40
0.0000000116
  9
$USRTIMER
 70
     1
  9
$ANGBASE
 50
0.0
  9
$ANGDIR
 70
     0
  9
$PDMODE
 70
     0
  9
$PDSIZE
 40
0.0
  9
$PLINEWID
 40
0.0
  9
$SPLFRAME
 70
     0
  9
$SPLINETYPE
 70
     6
  9
$SPLINESEGS
 70
     8
  9
$HANDSEED
  5
3E9
  9
$SURFTAB1
 70
     6
  9
$SURFTAB2
 70
     6
  9
$SURFTYPE
 70
     6
  9
$SURFU
 70
     6
  9
$SURFV
 70
     6
  9
$UCSBASE
  2

  9
$UCSNAME
  2

  9
$UCSORG
 10
0.0
 20
0.0
 30
0.0
  9
$UCSXDIR
 10
1.0
 20
0.0
 30
0.0
  9
$UCSYDIR
 10
0.0
 20
1.0
 30
0.0
  9
$UCSORTHOREF
  2

  9
$UCSORTHOVIEW
 70
     0
  9
$UCSORGTOP
 10
0.0
 20
0.0
 30
0.0
  9
$UCSORGBOTTOM
 10
0.0
 20
0.0
 30
0.0
  9
$UCSORGLEFT
 10
0.0
 20
0.0
 30
0.0
  9
$UCSORGRIGHT
 10
0.0
 20
0.0
 30
0.0
  9
$UCSORGFRONT
 10
0.0
 20
0.0
 30
0.0
  9
$UCSORGBACK
 10
0.0
 20
0.0
 30
0.0
  9
$PUCSBASE
  2

  9
$PUCSNAME
  2

  9
$PUCSORG
 10
0.0
 20
0.0
 30
0.0
  9
$PUCSXDIR
 10
1.0
 20
0.0
 30
0.0
  9
$PUCSYDIR
 10
0.0
 20
1.0
 30
0.0
  9
$PUCSORTHOREF
  2

  9
$PUCSORTHOVIEW
 70
     0
  9
$PUCSORGTOP
 10
0.0
 20
0.0
 30
0.0
  9
$PUCSORGBOTTOM
 10
0.0
 20
0.0
 30
0.0
  9
$PUCSORGLEFT
 10
0.0
 20
0.0
 30
0.0
  9
$PUCSORGRIGHT
 10
0.0
 20
0.0
 30
0.0
  9
$PUCSORGFRONT
 10
0.0
 20
0.0
 30
0.0
  9
$PUCSORGBACK
 10
0.0
 20
0.0
 30
0.0
  9
$USERI1
 70
     0
  9
$USERI2
 70
     0
  9
$USERI3
 70
     0
  9
$USERI4
 70
     0
  9
$USERI5
 70
     0
  9
$USERR1
 40
0.0
  9
$USERR2
 40
0.0
  9
$USERR3
 40
0.0
  9
$USERR4
 40
0.0
  9
$USERR5
 40
0.0
  9
$WORLDVIEW
 70
     1
  9
$SHADEDGE
 70
     3
  9
$SHADEDIF
 70
    70
  9
$TILEMODE
 70
     1
  9
$MAXACTVP
 70
    64
  9
$PINSBASE
 10
0.0
 20
0.0
 30
0.0
  9
$PLIMCHECK
 70
     0
  9
$PEXTMIN
 10
1.000000000000000E+20
 20
1.000000000000000E+20
 30
1.000000000000000E+20
  9
$PEXTMAX
 10
-1.000000000000000E+20
 20
-1.000000000000000E+20
 30
-1.000000000000000E+20
  9
$PLIMMIN
 10
0.0
 20
0.0
  9
$PLIMMAX
 10
420.0
 20
297.0
  9
$UNITMODE
 70
     0
  9
$VISRETAIN
 70
     1
  9
$PLINEGEN
 70
     0
  9
$PSLTSCALE
 70
     1
  9
$TREEDEPTH
 70
  3020
  9
$CMLSTYLE
  2
Standard
  9
$CMLJUST
 70
     0
  9
$CMLSCALE
 40
20.0
  9
$PROXYGRAPHICS
 70
     1
  9
$MEASUREMENT
 70
     1
  9
$CELWEIGHT
370
    -1
  9
$ENDCAPS
280
     0
  9
$JOINSTYLE
280
     0
  9
$LWDISPLAY
290
     0
  9
$INSUNITS
 70
     4
  9
$HYPERLINKBASE
  1

  9
$STYLESHEET
  1

  9
$XEDIT
290
     1
  9
$CEPSNTYPE
380
     0
  9
$PSTYLEMODE
290
     1
  9
$FINGERPRINTGUID
  2
{CAC0BAC4-9EB1-4948-B7D3-AB46C58E40BF}
  9
$VERSIONGUID
  2
{FAEB1C32-E019-11D5-929B-00C0DF256EC4}
  9
$EXTNAMES
290
     1
  9
$PSVPSCALE
 40
0.0
  9
$OLESTARTUP
290
     0
  9
$SORTENTS
280
   127
  9
$INDEXCTL
280
     0
  9
$HIDETEXT
280
     1
  9
$XCLIPFRAME
280
     2
  9
$HALOGAP
280
     0
  9
$OBSCOLOR
 70
   257
  9
$OBSLTYPE
280
     0
  9
$INTERSECTIONDISPLAY
280
     0
  9
$INTERSECTIONCOLOR
 70
   257
  9
$DIMASSOC
280
     2
  9
$PROJECTNAME
  1

  9
$CAMERADISPLAY
290
     0
  9
$LENSLENGTH
 40
50.0
  9
$CAMERAHEIGHT
 40
0.0
  9
$STEPSPERSEC
 40
2.0
  9
$STEPSIZE
 40
6.0
  9
$3DDWFPREC
 40
2.0
  9
$PSOLWIDTH
 40
5.0
  9
$PSOLHEIGHT
 40
80.0
  9
$LOFTANG1
 40
1.570796326794897
  9
$LOFTANG2
 40
1.570796326794897
  9
$LOFTMAG1
 40
0.0
  9
$LOFTMAG2
 40
0.0
  9
$LOFTPARAM
 70
     7
  9
$LOFTNORMALS
280
     1
  9
$LATITUDE
 40
37.795
  9
$LONGITUDE
 40
-122.394
  9
$NORTHDIRECTION
 40
0.0
  9
$TIMEZONE
 70
 -8000
  9
$LIGHTGLYPHDISPLAY
280
     1
  9
$TILEMODELIGHTSYNCH
280
     1
  9
$SOLIDHIST
280
     1
  9
$SHOWHIST
280
     1
  9
$DWFFRAME
280
     2
  9
$DGNFRAME
280
     2
  9
$REALWORLDSCALE
290
     1
  9
$INTERFERECOLOR
 62
   256
  9
$CSHADOW
280
     0
  9
$SHADOWPLANELOCATION
 40
0.0
  0
ENDSEC
  0
SECTION
  2
CLASSES
  0
CLASS
  1
ACDBDICTIONARYWDFLT
  2
AcDbDictionaryWithDefault
  3
ObjectDBX Classes
 90
        0
 91
        4
280
     0
281
     0
  0
CLASS
  1
VISUALSTYLE
  2
AcDbVisualStyle
  3
ObjectDBX Classes
 90
     4095
 91
        4
280
     0
281
     0
  0
CLASS
  1
MATERIAL
  2
AcDbMaterial
  3
ObjectDBX Classes
 90
     1153
 91
        4
280
     0
281
     0
  0
ENDSEC
  0
SECTION
  2
TABLES
  0
TABLE
  2
VPORT
  5
8
330
0
100
AcDbSymbolTable
 70
     1
  0
VPORT
  5
29
330
8
100
AcDbSymbolTableRecord
100
AcDbViewportTableRecord
  2
*Active
 70
     0
 10
0.0
 20
0.0
 11
1.0
 21
1.0
 12
0.0
 22
0.0
 13
0.0
 23
0.0
 14
10.0
 24
10.0
 15
10.0
 25
10.0
 16
0.0
 26
0.0
 36
1.0
 17
0.0
 27
0.0
 37
0.0
 40
9801.0
 41
1.414141414141414
 42
50.0
 43
0.0
 44
0.0
 50
0.0
 51
0.0
 71
     0
 72
 10000
 73
     1
 74
     3
 75
     0
 76
     0
 77
     0
 78
     0
281
     0
 65
     1
110
0.0
120
0.0
130
0.0
111
1.0
121
0.0
131
0.0
112
0.0
122
1.0
132
0.0
 79
     0
146
0.0
 60
     3
 61
     5
292
     1
282
     1
141
0.0
142
0.0
 63
   250
  0
ENDTAB
  0
TABLE
  2
LTYPE
  5
5
330
0
100
AcDbSymbolTable
 70
     3
  0
LTYPE
  5
14
330
5
100
AcDbSymbolTableRecord
100
AcDbLinetypeTableRecord
  2
ByBlock
 70
     0
  3

 72
    65
 73
     0
 40
0.0
  0
LTYPE
  5
15
330
5
100
AcDbSymbolTableRecord
100
AcDbLinetypeTableRecord
  2
ByLayer
 70
     0
  3

 72
    65
 73
     0
 40
0.0
  0
LTYPE
  5
16
330
5
100
AcDbSymbolTableRecord
100
AcDbLinetypeTableRecord
  2
Continuous
 70
     0
  3
Solid line
 72
    65
 73
     0
 40
0.0
  0
LTYPE
  5
3F
330
5
100
AcDbSymbolTableRecord
100
AcDbLinetypeTableRecord
  2
JWW_DASHED1
 70
     0
  3
-  --  --  --  --  --  --  --  -
 72
    65
 73
     2
 40
1.693333333333333
 49
0.8466666666666667
 74
     0
 49
-0.8466666666666667
 74
     0
  0
LTYPE
  5
40
330
5
100
AcDbSymbolTableRecord
100
AcDbLinetypeTableRecord
  2
JWW_HOJO
 70
     0
  3
  -   -   -   -   -   -   -   - 
 72
    65
 73
     2
 40
1.693333333333333
 49
-1.27
 74
     0
 49
0.4233333333333333
 74
     0
  0
ENDTAB
  0
TABLE
  2
LAYER
  5
2
330
0
100
AcDbSymbolTable
 70
     8
  0
LAYER
  5
10
330
2
100
AcDbSymbolTableRecord
100
AcDbLayerTableRecord
  2
0
 70
     0
 62
     7
  6
Continuous
370
    -3
390
F
347
3E
  0
LAYER
  5
41
330
2
100
AcDbSymbolTableRecord
100
AcDbLayerTableRecord
  2
F-1
 70
     0
 62
     7
  6
Continuous
370
    -3
390
F
347
3E
  0
LAYER
  5
42
330
2
100
AcDbSymbolTableRecord
100
AcDbLayerTableRecord
  2
F-0
 70
     0
 62
     7
  6
Continuous
370
    -3
390
F
347
3E
  0
LAYER
  5
43
330
2
100
AcDbSymbolTableRecord
100
AcDbLayerTableRecord
  2
0-0
 70
     0
 62
     7
  6
Continuous
370
    -3
390
F
347
3E
  0
LAYER
  5
44
330
2
100
AcDbSymbolTableRecord
100
AcDbLayerTableRecord
  2
0-A
 70
     0
 62
     7
  6
Continuous
370
    -3
390
F
347
3E
  0
LAYER
  5
45
330
2
100
AcDbSymbolTableRecord
100
AcDbLayerTableRecord
  2
0-B
 70
     0
 62
     7
  6
Continuous
370
    -3
390
F
347
3E
  0
LAYER
  5
46
330
2
100
AcDbSymbolTableRecord
100
AcDbLayerTableRecord
  2
0-4
 70
     0
 62
     7
  6
Continuous
370
    -3
390
F
347
3E
  0
LAYER
  5
47
330
2
100
AcDbSymbolTableRecord
100
AcDbLayerTableRecord
  2
F-A
 70
     0
 62
     7
  6
Continuous
370
    -3
390
F
347
3E
  0
ENDTAB
  0
TABLE
  2
STYLE
  5
3
330
0
100
AcDbSymbolTable
 70
     1
  0
STYLE
  5
11
330
3
100
AcDbSymbolTableRecord
100
AcDbTextStyleTableRecord
  2
Standard
 70
     0
 40
0.0
 41
1.0
 50
0.0
 71
     0
 42
2.5
  3
txt
  4

  0
ENDTAB
  0
TABLE
  2
VIEW
  5
6
330
0
100
AcDbSymbolTable
 70
     0
  0
ENDTAB
  0
TABLE
  2
UCS
  5
7
330
0
100
AcDbSymbolTable
 70
     0
  0
ENDTAB
  0
TABLE
  2
APPID
  5
9
330
0
100
AcDbSymbolTable
 70
     1
  0
APPID
  5
12
330
9
100
AcDbSymbolTableRecord
100
AcDbRegAppTableRecord
  2
ACAD
 70
     0
  0
ENDTAB
  0
TABLE
  2
DIMSTYLE
  5
A
330
0
100
AcDbSymbolTable
 70
     1
100
AcDbDimStyleTable
  0
DIMSTYLE
105
27
330
A
100
AcDbSymbolTableRecord
100
AcDbDimStyleTableRecord
  2
ISO-25
 70
     0
 41
2.5
 42
0.625
 43
3.75
 44
1.25
 73
     0
 74
     0
 77
     1
 78
     8
140
2.5
141
2.5
143
0.03937007874016
147
0.625
171
     3
172
     1
178
     0
271
     2
272
     2
274
     3
278
    44
283
     0
284
     8
340
11
  0
ENDTAB
  0
TABLE
  2
BLOCK_RECORD
  5
1
330
0
100
AcDbSymbolTable
 70
     1
  0
BLOCK_RECORD
  5
1F
330
1
100
AcDbSymbolTableRecord
100
AcDbBlockTableRecord
  2
*Model_Space
340
22
 70
     0
280
     1
281
     0
  0
BLOCK_RECORD
  5
1B
330
1
100
AcDbSymbolTableRecord
100
AcDbBlockTableRecord
  2
*Paper_Space
340
1E
 70
     0
280
     1
281
     0
  0
BLOCK_RECORD
  5
23
330
1
100
AcDbSymbolTableRecord
100
AcDbBlockTableRecord
  2
*Paper_Space0
340
26
 70
     0
280
     1
281
     0
  0
ENDTAB
  0
ENDSEC
  0
SECTION
  2
BLOCKS
  0
BLOCK
  5
20
330
1F
100
AcDbEntity
  8
0
100
AcDbBlockBegin
  2
*Model_Space
 70
     0
 10
0.0
 20
0.0
 30
0.0
  3
*Model_Space
  1

  0
ENDBLK
  5
21
330
1F
100
AcDbEntity
  8
0
100
AcDbBlockEnd
  0
BLOCK
  5
1C
330
1B
100
AcDbEntity
 67
     1
  8
0
100
AcDbBlockBegin
  2
*Paper_Space
 70
     0
 10
0.0
 20
0.0
 30
0.0
  3
*Paper_Space
  1

  0
ENDBLK
  5
1D
330
1B
100
AcDbEntity
 67
     1
  8
0
100
AcDbBlockEnd
  0
BLOCK
  5
24
330
23
100
AcDbEntity
  8
0
100
AcDbBlockBegin
  2
*Paper_Space0
 70
     0
 10
0.0
 20
0.0
 30
0.0
  3
*Paper_Space0
  1

  0
ENDBLK
  5
25
330
23
100
AcDbEntity
  8
0
100
AcDbBlockEnd
  0
ENDSEC
  0
SECTION
  2
ENTITIES
  0
LINE
  5
48
330
1F
100
AcDbEntity
  8
F-1
  6
JWW_DASHED1
 62
     7
370
     9
100
AcDbLine
 10
-155.0007588154554
 20
-2852.499957600156
 30
0.0
 11
-2405.000758815456
 21
-2852.499957600156
 31
0.0
  0
LINE
  5
49
330
1F
100
AcDbEntity
  8
F-0
  6
JWW_HOJO
 62
   120
370
     5
100
AcDbLine
 10
-5989.99959584829
 20
3947.500379407728
 30
0.0
 11
5690.337474926098
 21
3947.500379407728
 31
0.0
  0
LINE
  5
4A
330
1F
100
AcDbEntity
  8
F-0
  6
JWW_HOJO
 62
   120
370
     5
100
AcDbLine
 10
-6300.0
 20
4424.999604096284
 30
0.0
 11
5999.999010240709
 21
4424.999604096284
 31
0.0
  0
LINE
  5
4B
330
1F
100
AcDbEntity
  8
F-0
  6
JWW_HOJO
 62
   120
370
     5
100
AcDbLine
 10
-6300.0
 20
-4455.0
 30
0.0
 11
-6300.0
 21
4424.999604096284
 31
0.0
  0
LINE
  5
4C
330
1F
100
AcDbEntity
  8
F-0
  6
JWW_HOJO
 62
   120
370
     5
100
AcDbLine
 10
5999.999010240709
 20
4424.999604096284
 30
0.0
 11
5999.999010240709
 21
-4455.0
 31
0.0
  0
LINE
  5
4D
330
1F
100
AcDbEntity
  8
F-0
  6
JWW_HOJO
 62
   120
370
     5
100
AcDbLine
 10
5999.999010240709
 20
-4455.0
 30
0.0
 11
-6300.0
 21
-4455.0
 31
0.0
  0
LINE
  5
4E
330
1F
100
AcDbEntity
  8
F-1
  6
Continuous
 62
   200
370
    20
100
AcDbLine
 10
-5999.999752560178
 20
4174.999769056166
 30
0.0
 11
5699.998762800888
 21
4174.999769056166
 31
0.0
  0
LINE
  5
4F
330
1F
100
AcDbEntity
  8
F-1
  6
Continuous
 62
   200
370
    20
100
AcDbLine
 10
5699.998762800888
 20
4174.999769056166
 30
0.0
 11
5699.998762800888
 21
-4205.000164959882
 31
0.0
  0
LINE
  5
50
330
1F
100
AcDbEntity
  8
F-1
  6
Continuous
 62
   200
370
    20
100
AcDbLine
 10
-5999.99998453501
 20
4174.999769056166
 30
0.0
 11
-5999.99998453501
 21
-4205.000164959882
 31
0.0
  0
LINE
  5
51
330
1F
100
AcDbEntity
  8
F-1
  6
Continuous
 62
   200
370
    20
100
AcDbLine
 10
-5989.999990205507
 20
4174.999769056166
 30
0.0
 11
-5989.999990205507
 21
-4205.000164959882
 31
0.0
  0
LINE
  5
52
330
1F
100
AcDbEntity
  8
F-1
  6
Continuous
 62
   200
370
    20
100
AcDbLine
 10
-5999.999752560178
 20
4164.999983504013
 30
0.0
 11
5699.998762800888
 21
4164.999983504013
 31
0.0
  0
LINE
  5
53
330
1F
100
AcDbEntity
  8
F-1
  6
Continuous
 62
   200
370
    20
100
AcDbLine
 10
-5999.999752560178
 20
4169.999505120355
 30
0.0
 11
5699.998762800888
 21
4169.999505120355
 31
0.0
  0
LINE
  5
54
330
1F
100
AcDbEntity
  8
F-1
  6
Continuous
 62
   200
370
    20
100
AcDbLine
 10
-5994.999975771518
 20
4174.999769056166
 30
0.0
 11
-5994.999975771518
 21
-4205.000164959882
 31
0.0
  0
LINE
  5
55
330
1F
100
AcDbEntity
  8
F-1
  6
Continuous
 62
   200
370
    20
100
AcDbLine
 10
5694.998498865077
 20
4174.999769056166
 30
0.0
 11
5694.998498865077
 21
-4205.000164959882
 31
0.0
  0
LINE
  5
56
330
1F
100
AcDbEntity
  8
F-1
  6
Continuous
 62
   200
370
    20
100
AcDbLine
 10
5689.998977248734
 20
4174.999769056166
 30
0.0
 11
5689.998977248734
 21
-4205.000164959882
 31
0.0
  0
LINE
  5
57
330
1F
100
AcDbEntity
  8
F-1
  6
Continuous
 62
   200
370
    20
100
AcDbLine
 10
-150.0008660393789
 20
4174.999769056166
 30
0.0
 11
-150.0008660393789
 21
-3795.000049487965
 31
0.0
  0
LINE
  5
58
330
1F
100
AcDbEntity
  8
F-1
  6
Continuous
 62
   200
370
    20
100
AcDbLine
 10
-145.0009732633023
 20
4175.04801982158
 30
0.0
 11
-145.0009732633023
 21
-3795.000049487965
 31
0.0
  0
LINE
  5
59
330
1F
100
AcDbEntity
  8
F-1
  6
Continuous
 62
   200
370
    20
100
AcDbLine
 10
-155.0007588154554
 20
4175.04801982158
 30
0.0
 11
-155.0007588154554
 21
-3795.000049487965
 31
0.0
  0
LINE
  5
5A
330
1F
100
AcDbEntity
  8
F-1
  6
Continuous
 62
   200
370
    20
100
AcDbLine
 10
5699.998762800888
 20
3710.000461887669
 30
0.0
 11
-5999.999752560178
 21
3710.000461887669
 31
0.0
  0
LINE
  5
5B
330
1F
100
AcDbEntity
  8
F-1
  6
Continuous
 62
     7
370
     9
100
AcDbLine
 10
-2405.000758815456
 20
4175.04801982158
 30
0.0
 11
-2405.000758815456
 21
-3795.000049487965
 31
0.0
  0
LINE
  5
5C
330
1F
100
AcDbEntity
  8
F-1
  6
Continuous
 62
     7
370
     9
100
AcDbLine
 10
904.9995216163429
 20
4175.04801982158
 30
0.0
 11
904.9995216163429
 21
-3795.000049487965
 31
0.0
  0
LINE
  5
5D
330
1F
100
AcDbEntity
  8
F-1
  6
Continuous
 62
     7
370
     9
100
AcDbLine
 10
-4940.000028867979
 20
4174.999769056166
 30
0.0
 11
-4940.000028867979
 21
-3790.000017526987
 31
0.0
  0
LINE
  5
5E
330
1F
100
AcDbEntity
  8
F-1
  6
Continuous
 62
     7
370
     9
100
AcDbLine
 10
3439.999719568202
 20
4174.999769056166
 30
0.0
 11
3439.999719568202
 21
-3790.000017526987
 31
0.0
  0
LINE
  5
5F
330
1F
100
AcDbEntity
  8
F-1
  6
Continuous
 62
     7
370
     9
100
AcDbLine
 10
-2405.000758815456
 20
3947.500379407728
 30
0.0
 11
-1505.000758815456
 21
3947.500379407728
 31
0.0
  0
LINE
  5
60
330
1F
100
AcDbEntity
  8
F-1
  6
Continuous
 62
     7
370
     9
100
AcDbLine
 10
-635.0007588154554
 20
4175.048019821578
 30
0.0
 11
-635.0007588154554
 21
-3795.000049487966
 31
0.0
  0
LINE
  5
61
330
1F
100
AcDbEntity
  8
F-1
  6
Continuous
 62
     7
370
     9
100
AcDbLine
 10
-1505.000758815456
 20
4175.048019821578
 30
0.0
 11
-1505.000758815456
 21
-3795.000049487966
 31
0.0
  0
LINE
  5
62
330
1F
100
AcDbEntity
  8
0-0
  6
JWW_HOJO
 62
     7
370
     9
100
AcDbLine
 10
-1475.000758815456
 20
4175.048019821578
 30
0.0
 11
-1475.000758815456
 21
-3795.000049487966
 31
0.0
  0
LINE
  5
63
330
1F
100
AcDbEntity
  8
F-1
  6
Continuous
 62
     7
370
     9
100
AcDbLine
 10
3439.999719568202
 20
3947.452128642314
 30
0.0
 11
4339.999719568202
 21
3947.452128642314
 31
0.0
  0
LINE
  5
64
330
1F
100
AcDbEntity
  8
F-1
  6
Continuous
 62
     7
370
     9
100
AcDbLine
 10
4339.999719568202
 20
4174.999769056164
 30
0.0
 11
4339.999719568202
 21
-3795.04830025338
 31
0.0
  0
LINE
  5
65
330
1F
100
AcDbEntity
  8
F-1
  6
Continuous
 62
     7
370
     9
100
AcDbLine
 10
5209.999719568203
 20
4174.999769056164
 30
0.0
 11
5209.999719568203
 21
-3795.04830025338
 31
0.0
  0
LINE
  5
66
330
1F
100
AcDbEntity
  8
0-0
  6
JWW_HOJO
 62
     7
370
     9
100
AcDbLine
 10
4369.999719568202
 20
4174.999769056164
 30
0.0
 11
4369.999719568202
 21
-3795.04830025338
 31
0.0
  0
LINE
  5
67
330
1F
100
AcDbEntity
  8
F-0
  6
JWW_HOJO
 62
     7
370
     9
100
AcDbLine
 10
-3672.500393841717
 20
3710.000461887669
 30
0.0
 11
-3672.500393841717
 21
-3790.000017526987
 31
0.0
  0
LINE
  5
68
330
1F
100
AcDbEntity
  8
F-0
  6
JWW_HOJO
 62
     7
370
     9
100
AcDbLine
 10
-5839.999982473011
 20
4164.999983504013
 30
0.0
 11
-5839.999982473011
 21
-3785.470894478463
 31
0.0
  0
LINE
  5
69
330
1F
100
AcDbEntity
  8
F-1
  6
Continuous
 62
   200
370
    20
100
AcDbLine
 10
5699.998762800888
 20
3720.000247440669
 30
0.0
 11
-5999.999752560178
 21
3720.000247440669
 31
0.0
  0
LINE
  5
6A
330
1F
100
AcDbEntity
  8
F-0
  6
JWW_HOJO
 62
     7
370
     9
100
AcDbLine
 10
2172.499156642605
 20
3710.000461887669
 30
0.0
 11
2172.499156642605
 21
-3790.000017526987
 31
0.0
  0
LINE
  5
6B
330
1F
100
AcDbEntity
  8
F-1
  6
Continuous
 62
     7
370
     9
100
AcDbLine
 10
5699.998762800888
 20
2460.000381985226
 30
0.0
 11
904.9995216163429
 21
2460.000381985226
 31
0.0
  0
LINE
  5
6C
330
1F
100
AcDbEntity
  8
F-1
  6
Continuous
 62
     7
370
     9
100
AcDbLine
 10
-145.0009732633023
 20
2460.000381985226
 30
0.0
 11
-4940.000028867979
 21
2460.000381985226
 31
0.0
  0
LINE
  5
6D
330
1F
100
AcDbEntity
  8
F-1
  6
Continuous
 62
     7
370
     9
100
AcDbLine
 10
5699.998762800888
 20
1210.000302082783
 30
0.0
 11
904.9995216163429
 21
1210.000302082783
 31
0.0
  0
LINE
  5
6E
330
1F
100
AcDbEntity
  8
F-1
  6
Continuous
 62
     7
370
     9
100
AcDbLine
 10
-145.0009732633023
 20
1210.000302082783
 30
0.0
 11
-4940.000028867979
 21
1210.000302082783
 31
0.0
  0
LINE
  5
6F
330
1F
100
AcDbEntity
  8
F-1
  6
Continuous
 62
     7
370
     9
100
AcDbLine
 10
5699.998762800888
 20
-39.99977781965981
 30
0.0
 11
904.9995216163429
 21
-39.99977781965981
 31
0.0
  0
LINE
  5
70
330
1F
100
AcDbEntity
  8
F-1
  6
Continuous
 62
     7
370
     9
100
AcDbLine
 10
-145.0009732633023
 20
-39.99977781965981
 30
0.0
 11
-4940.000028867979
 21
-39.99977781965981
 31
0.0
  0
LINE
  5
71
330
1F
100
AcDbEntity
  8
F-1
  6
Continuous
 62
     7
370
     9
100
AcDbLine
 10
5699.998762800888
 20
-1289.999857722102
 30
0.0
 11
904.9995216163429
 21
-1289.999857722102
 31
0.0
  0
LINE
  5
72
330
1F
100
AcDbEntity
  8
F-1
  6
Continuous
 62
     7
370
     9
100
AcDbLine
 10
-145.0009732633023
 20
-1289.999857722102
 30
0.0
 11
-4940.000028867979
 21
-1289.999857722102
 31
0.0
  0
LINE
  5
73
330
1F
100
AcDbEntity
  8
F-1
  6
Continuous
 62
     7
370
     9
100
AcDbLine
 10
5699.998762800888
 20
-2539.999937624545
 30
0.0
 11
904.9995216163429
 21
-2539.999937624545
 31
0.0
  0
LINE
  5
74
330
1F
100
AcDbEntity
  8
F-1
  6
Continuous
 62
     7
370
     9
100
AcDbLine
 10
-145.0009732633023
 20
-2539.999937624545
 30
0.0
 11
-4940.000028867979
 21
-2539.999937624545
 31
0.0
  0
LINE
  5
75
330
1F
100
AcDbEntity
  8
F-1
  6
JWW_DASHED1
 62
     7
370
     9
100
AcDbLine
 10
-155.0007588154554
 20
-3633.750007539182
 30
0.0
 11
-2405.000758815456
 21
-3633.750007539182
 31
0.0
  0
LINE
  5
76
330
1F
100
AcDbEntity
  8
F-1
  6
JWW_DASHED1
 62
     7
370
     9
100
AcDbLine
 10
-155.0007588154554
 20
-3164.999977575766
 30
0.0
 11
-2405.000758815456
 21
-3164.999977575766
 31
0.0
  0
LINE
  5
77
330
1F
100
AcDbEntity
  8
F-1
  6
JWW_DASHED1
 62
     7
370
     9
100
AcDbLine
 10
-155.0007588154554
 20
-3321.24998756357
 30
0.0
 11
-2405.000758815456
 21
-3321.24998756357
 31
0.0
  0
LINE
  5
78
330
1F
100
AcDbEntity
  8
F-1
  6
JWW_DASHED1
 62
     7
370
     9
100
AcDbLine
 10
-155.0007588154554
 20
-3477.499997551376
 30
0.0
 11
-2405.000758815456
 21
-3477.499997551376
 31
0.0
  0
LINE
  5
79
330
1F
100
AcDbEntity
  8
F-1
  6
JWW_DASHED1
 62
     7
370
     9
100
AcDbLine
 10
5689.999719568202
 20
2616.250391973032
 30
0.0
 11
3439.999719568202
 21
2616.250391973032
 31
0.0
  0
LINE
  5
7A
330
1F
100
AcDbEntity
  8
F-1
  6
JWW_DASHED1
 62
     7
370
     9
100
AcDbLine
 10
5689.999719568202
 20
3397.500441912059
 30
0.0
 11
3439.999719568202
 21
3397.500441912059
 31
0.0
  0
LINE
  5
7B
330
1F
100
AcDbEntity
  8
F-1
  6
JWW_DASHED1
 62
     7
370
     9
100
AcDbLine
 10
5689.999719568202
 20
3241.250431924253
 30
0.0
 11
3439.999719568202
 21
3241.250431924253
 31
0.0
  0
LINE
  5
7C
330
1F
100
AcDbEntity
  8
F-1
  6
JWW_DASHED1
 62
     7
370
     9
100
AcDbLine
 10
5689.999719568202
 20
3085.000421936448
 30
0.0
 11
3439.999719568202
 21
3085.000421936448
 31
0.0
  0
LINE
  5
7D
330
1F
100
AcDbEntity
  8
F-1
  6
JWW_DASHED1
 62
     7
370
     9
100
AcDbLine
 10
5689.999719568202
 20
2928.750411948643
 30
0.0
 11
3439.999719568202
 21
2928.750411948643
 31
0.0
  0
LINE
  5
7E
330
1F
100
AcDbEntity
  8
F-1
  6
JWW_DASHED1
 62
     7
370
     9
100
AcDbLine
 10
5689.999719568202
 20
2772.500401960837
 30
0.0
 11
3439.999719568202
 21
2772.500401960837
 31
0.0
  0
LINE
  5
7F
330
1F
100
AcDbEntity
  8
F-1
  6
JWW_DASHED1
 62
     7
370
     9
100
AcDbLine
 10
5689.999719568202
 20
2303.750371997421
 30
0.0
 11
3439.999719568202
 21
2303.750371997421
 31
0.0
  0
LINE
  5
80
330
1F
100
AcDbEntity
  8
F-1
  6
JWW_DASHED1
 62
     7
370
     9
100
AcDbLine
 10
5689.999719568202
 20
1366.250312070589
 30
0.0
 11
3439.999719568202
 21
1366.250312070589
 31
0.0
  0
LINE
  5
81
330
1F
100
AcDbEntity
  8
F-1
  6
JWW_DASHED1
 62
     7
370
     9
100
AcDbLine
 10
5689.999719568202
 20
2147.500362009616
 30
0.0
 11
3439.999719568202
 21
2147.500362009616
 31
0.0
  0
LINE
  5
82
330
1F
100
AcDbEntity
  8
F-1
  6
JWW_DASHED1
 62
     7
370
     9
100
AcDbLine
 10
5689.999719568202
 20
1991.25035202181
 30
0.0
 11
3439.999719568202
 21
1991.25035202181
 31
0.0
  0
LINE
  5
83
330
1F
100
AcDbEntity
  8
F-1
  6
JWW_DASHED1
 62
     7
370
     9
100
AcDbLine
 10
5689.999719568202
 20
1835.000342034005
 30
0.0
 11
3439.999719568202
 21
1835.000342034005
 31
0.0
  0
LINE
  5
84
330
1F
100
AcDbEntity
  8
F-1
  6
JWW_DASHED1
 62
     7
370
     9
100
AcDbLine
 10
5689.999719568202
 20
1678.7503320462
 30
0.0
 11
3439.999719568202
 21
1678.7503320462
 31
0.0
  0
LINE
  5
85
330
1F
100
AcDbEntity
  8
F-1
  6
JWW_DASHED1
 62
     7
370
     9
100
AcDbLine
 10
5689.999719568202
 20
1522.500322058395
 30
0.0
 11
3439.999719568202
 21
1522.500322058395
 31
0.0
  0
LINE
  5
86
330
1F
100
AcDbEntity
  8
F-1
  6
JWW_DASHED1
 62
     7
370
     9
100
AcDbLine
 10
5689.999719568202
 20
116.2502321681467
 30
0.0
 11
3439.999719568202
 21
116.2502321681467
 31
0.0
  0
LINE
  5
87
330
1F
100
AcDbEntity
  8
F-1
  6
JWW_DASHED1
 62
     7
370
     9
100
AcDbLine
 10
5689.999719568202
 20
897.5002821071723
 30
0.0
 11
3439.999719568202
 21
897.5002821071723
 31
0.0
  0
LINE
  5
88
330
1F
100
AcDbEntity
  8
F-1
  6
JWW_DASHED1
 62
     7
370
     9
100
AcDbLine
 10
5689.999719568202
 20
741.2502721193675
 30
0.0
 11
3439.999719568202
 21
741.2502721193675
 31
0.0
  0
LINE
  5
89
330
1F
100
AcDbEntity
  8
F-1
  6
JWW_DASHED1
 62
     7
370
     9
100
AcDbLine
 10
5689.999719568202
 20
585.0002621315627
 30
0.0
 11
3439.999719568202
 21
585.0002621315627
 31
0.0
  0
LINE
  5
8A
330
1F
100
AcDbEntity
  8
F-1
  6
JWW_DASHED1
 62
     7
370
     9
100
AcDbLine
 10
5689.999719568202
 20
428.7502521437571
 30
0.0
 11
3439.999719568202
 21
428.7502521437571
 31
0.0
  0
LINE
  5
8B
330
1F
100
AcDbEntity
  8
F-1
  6
JWW_DASHED1
 62
     7
370
     9
100
AcDbLine
 10
5689.999719568202
 20
272.5002421559515
 30
0.0
 11
3439.999719568202
 21
272.5002421559515
 31
0.0
  0
LINE
  5
8C
330
1F
100
AcDbEntity
  8
F-1
  6
JWW_DASHED1
 62
     7
370
     9
100
AcDbLine
 10
5689.999719568202
 20
-1133.749847734297
 30
0.0
 11
3439.999719568202
 21
-1133.749847734297
 31
0.0
  0
LINE
  5
8D
330
1F
100
AcDbEntity
  8
F-1
  6
JWW_DASHED1
 62
     7
370
     9
100
AcDbLine
 10
5689.999719568202
 20
-352.4997977952702
 30
0.0
 11
3439.999719568202
 21
-352.4997977952702
 31
0.0
  0
LINE
  5
8E
330
1F
100
AcDbEntity
  8
F-1
  6
JWW_DASHED1
 62
     7
370
     9
100
AcDbLine
 10
5689.999719568202
 20
-508.7498077830759
 30
0.0
 11
3439.999719568202
 21
-508.7498077830759
 31
0.0
  0
LINE
  5
8F
330
1F
100
AcDbEntity
  8
F-1
  6
JWW_DASHED1
 62
     7
370
     9
100
AcDbLine
 10
5689.999719568202
 20
-664.9998177708807
 30
0.0
 11
3439.999719568202
 21
-664.9998177708807
 31
0.0
  0
LINE
  5
90
330
1F
100
AcDbEntity
  8
F-1
  6
JWW_DASHED1
 62
     7
370
     9
100
AcDbLine
 10
5689.999719568202
 20
-821.2498277586855
 30
0.0
 11
3439.999719568202
 21
-821.2498277586855
 31
0.0
  0
LINE
  5
91
330
1F
100
AcDbEntity
  8
F-1
  6
JWW_DASHED1
 62
     7
370
     9
100
AcDbLine
 10
5689.999719568202
 20
-977.499837746491
 30
0.0
 11
3439.999719568202
 21
-977.499837746491
 31
0.0
  0
LINE
  5
92
330
1F
100
AcDbEntity
  8
F-1
  6
JWW_DASHED1
 62
     7
370
     9
100
AcDbLine
 10
5689.999719568202
 20
-1446.249867709908
 30
0.0
 11
3439.999719568202
 21
-1446.249867709908
 31
0.0
  0
LINE
  5
93
330
1F
100
AcDbEntity
  8
F-1
  6
JWW_DASHED1
 62
     7
370
     9
100
AcDbLine
 10
5689.999719568202
 20
-2383.749927636738
 30
0.0
 11
3439.999719568202
 21
-2383.749927636738
 31
0.0
  0
LINE
  5
94
330
1F
100
AcDbEntity
  8
F-1
  6
JWW_DASHED1
 62
     7
370
     9
100
AcDbLine
 10
5689.999719568202
 20
-1602.499877697713
 30
0.0
 11
3439.999719568202
 21
-1602.499877697713
 31
0.0
  0
LINE
  5
95
330
1F
100
AcDbEntity
  8
F-1
  6
JWW_DASHED1
 62
     7
370
     9
100
AcDbLine
 10
5689.999719568202
 20
-1758.749887685517
 30
0.0
 11
3439.999719568202
 21
-1758.749887685517
 31
0.0
  0
LINE
  5
96
330
1F
100
AcDbEntity
  8
F-1
  6
JWW_DASHED1
 62
     7
370
     9
100
AcDbLine
 10
5689.999719568202
 20
-1914.999897673323
 30
0.0
 11
3439.999719568202
 21
-1914.999897673323
 31
0.0
  0
LINE
  5
97
330
1F
100
AcDbEntity
  8
F-1
  6
JWW_DASHED1
 62
     7
370
     9
100
AcDbLine
 10
5689.999719568202
 20
-2071.249907661129
 30
0.0
 11
3439.999719568202
 21
-2071.249907661129
 31
0.0
  0
LINE
  5
98
330
1F
100
AcDbEntity
  8
F-1
  6
JWW_DASHED1
 62
     7
370
     9
100
AcDbLine
 10
5689.999719568202
 20
-2227.499917648934
 30
0.0
 11
3439.999719568202
 21
-2227.499917648934
 31
0.0
  0
LINE
  5
99
330
1F
100
AcDbEntity
  8
F-1
  6
JWW_DASHED1
 62
     7
370
     9
100
AcDbLine
 10
5689.999719568202
 20
-3633.750007539182
 30
0.0
 11
3439.999719568202
 21
-3633.750007539182
 31
0.0
  0
LINE
  5
9A
330
1F
100
AcDbEntity
  8
F-1
  6
JWW_DASHED1
 62
     7
370
     9
100
AcDbLine
 10
5689.999719568202
 20
-2852.499957600156
 30
0.0
 11
3439.999719568202
 21
-2852.499957600156
 31
0.0
  0
LINE
  5
9B
330
1F
100
AcDbEntity
  8
F-1
  6
JWW_DASHED1
 62
     7
370
     9
100
AcDbLine
 10
5689.999719568202
 20
-3008.749967587961
 30
0.0
 11
3439.999719568202
 21
-3008.749967587961
 31
0.0
  0
LINE
  5
9C
330
1F
100
AcDbEntity
  8
F-1
  6
JWW_DASHED1
 62
     7
370
     9
100
AcDbLine
 10
5689.999719568202
 20
-3164.999977575766
 30
0.0
 11
3439.999719568202
 21
-3164.999977575766
 31
0.0
  0
LINE
  5
9D
330
1F
100
AcDbEntity
  8
F-1
  6
JWW_DASHED1
 62
     7
370
     9
100
AcDbLine
 10
5689.999719568202
 20
-3321.24998756357
 30
0.0
 11
3439.999719568202
 21
-3321.24998756357
 31
0.0
  0
LINE
  5
9E
330
1F
100
AcDbEntity
  8
F-1
  6
JWW_DASHED1
 62
     7
370
     9
100
AcDbLine
 10
5689.999719568202
 20
-3477.499997551376
 30
0.0
 11
3439.999719568202
 21
-3477.499997551376
 31
0.0
  0
LINE
  5
9F
330
1F
100
AcDbEntity
  8
0-A
  6
Continuous
 62
     7
370
     9
100
AcDbLine
 10
-3520.750746980262
 20
3043.480618628094
 30
0.0
 11
-3467.364765295
 21
3043.480618628094
 31
0.0
  0
LINE
  5
A0
330
1F
100
AcDbEntity
  8
0-A
  6
Continuous
 62
     7
370
     9
100
AcDbLine
 10
-3468.789222753196
 20
3073.480618628094
 30
0.0
 11
-3415.403241067935
 21
3073.480618628094
 31
0.0
  0
LWPOLYLINE
  5
A1
330
1F
100
AcDbEntity
  8
0-B
  6
Continuous
 62
     7
370
     9
100
AcDbPolyline
 90
        4
 70
     1
 43
3.0
 10
-4720.999465942383
 20
2834.363496397006
 42
0.4142135623731
 10
-4722.499465942383
 20
2835.863496397006
 42
0.4142135623731
 10
-4723.999465942383
 20
2834.363496397006
 42
0.4142135623731
 10
-4722.499465942383
 20
2832.863496397006
 42
0.4142135623731
  0
LINE
  5
A2
330
1F
100
AcDbEntity
  8
0-B
  6
Continuous
 62
   120
370
     5
100
AcDbLine
 10
-4722.499465942383
 20
2834.363496397006
 30
0.0
 11
-4647.499465942383
 21
2834.363496397006
 31
0.0
  0
LINE
  5
A3
330
1F
100
AcDbEntity
  8
0-4
  6
Continuous
 62
    92
370
    13
100
AcDbLine
 10
-2772.499465942383
 20
2834.363496397006
 30
0.0
 11
-3553.457575955902
 21
2834.363496397006
 31
0.0
  0
LINE
  5
A4
330
1F
100
AcDbEntity
  8
0-4
  6
Continuous
 62
    92
370
    13
100
AcDbLine
 10
-3588.098592107281
 20
2834.363496397006
 30
0.0
 11
-4572.499465942383
 21
2834.363496397006
 31
0.0
  0
LINE
  5
A5
330
1F
100
AcDbEntity
  8
0-A
  6
Continuous
 62
     7
370
     9
100
AcDbLine
 10
-3416.317968808586
 20
3224.363496397006
 30
0.0
 11
-3520.750746980262
 21
3043.480618628094
 31
0.0
  0
LINE
  5
A6
330
1F
100
AcDbEntity
  8
0-A
  6
Continuous
 62
     7
370
     9
100
AcDbLine
 10
-3381.67695265721
 20
3224.363496397006
 30
0.0
 11
-3468.789222753196
 21
3073.480618628094
 31
0.0
  0
LINE
  5
A7
330
1F
100
AcDbEntity
  8
0-A
  6
Continuous
 62
     7
370
     9
100
AcDbLine
 10
-3467.364765295
 20
3043.480618628094
 30
0.0
 11
-3631.399862296503
 21
2759.363496397006
 31
0.0
  0
LINE
  5
A8
330
1F
100
AcDbEntity
  8
0-A
  6
Continuous
 62
     7
370
     9
100
AcDbLine
 10
-3415.403241067935
 20
3073.480618628094
 30
0.0
 11
-3596.758846145124
 21
2759.363496397006
 31
0.0
  0
LINE
  5
A9
330
1F
100
AcDbEntity
  8
0-A
  6
Continuous
 62
     7
370
     9
100
AcDbLine
 10
-3520.751674879597
 20
1793.480538725653
 30
0.0
 11
-3467.365693194336
 21
1793.480538725653
 31
0.0
  0
LINE
  5
AA
330
1F
100
AcDbEntity
  8
0-A
  6
Continuous
 62
     7
370
     9
100
AcDbLine
 10
-3468.790150652531
 20
1823.480538725653
 30
0.0
 11
-3415.404168967269
 21
1823.480538725653
 31
0.0
  0
LWPOLYLINE
  5
AB
330
1F
100
AcDbEntity
  8
0-B
  6
Continuous
 62
     7
370
     9
100
AcDbPolyline
 90
        4
 70
     1
 43
3.0
 10
-4721.000393841717
 20
1584.363416494564
 42
0.4142135623731
 10
-4722.500393841718
 20
1585.863416494564
 42
0.4142135623731
 10
-4724.000393841718
 20
1584.363416494564
 42
0.4142135623731
 10
-4722.500393841718
 20
1582.863416494564
 42
0.4142135623731
  0
LINE
  5
AC
330
1F
100
AcDbEntity
  8
0-B
  6
Continuous
 62
   120
370
     5
100
AcDbLine
 10
-4722.500393841718
 20
1584.363416494564
 30
0.0
 11
-4647.500393841718
 21
1584.363416494564
 31
0.0
  0
LINE
  5
AD
330
1F
100
AcDbEntity
  8
0-4
  6
Continuous
 62
    92
370
    13
100
AcDbLine
 10
-2772.500393841717
 20
1584.363416494564
 30
0.0
 11
-3553.458503855238
 21
1584.363416494564
 31
0.0
  0
LINE
  5
AE
330
1F
100
AcDbEntity
  8
0-4
  6
Continuous
 62
    92
370
    13
100
AcDbLine
 10
-3588.099520006615
 20
1584.363416494564
 30
0.0
 11
-4572.500393841718
 21
1584.363416494564
 31
0.0
  0
LINE
  5
AF
330
1F
100
AcDbEntity
  8
0-A
  6
Continuous
 62
     7
370
     9
100
AcDbLine
 10
-3416.318896707922
 20
1974.363416494564
 30
0.0
 11
-3520.751674879597
 21
1793.480538725653
 31
0.0
  0
LINE
  5
B0
330
1F
100
AcDbEntity
  8
0-A
  6
Continuous
 62
     7
370
     9
100
AcDbLine
 10
-3381.677880556545
 20
1974.363416494564
 30
0.0
 11
-3468.790150652531
 21
1823.480538725653
 31
0.0
  0
LINE
  5
B1
330
1F
100
AcDbEntity
  8
0-A
  6
Continuous
 62
     7
370
     9
100
AcDbLine
 10
-3467.365693194336
 20
1793.480538725653
 30
0.0
 11
-3631.400790195837
 21
1509.363416494564
 31
0.0
  0
LINE
  5
B2
330
1F
100
AcDbEntity
  8
0-A
  6
Continuous
 62
     7
370
     9
100
AcDbLine
 10
-3415.404168967269
 20
1823.480538725653
 30
0.0
 11
-3596.75977404446
 21
1509.363416494564
 31
0.0
  0
LINE
  5
B3
330
1F
100
AcDbEntity
  8
0-A
  6
Continuous
 62
     7
370
     9
100
AcDbLine
 10
-3520.751674879597
 20
543.48045882321
 30
0.0
 11
-3467.365693194336
 21
543.48045882321
 31
0.0
  0
LINE
  5
B4
330
1F
100
AcDbEntity
  8
0-A
  6
Continuous
 62
     7
370
     9
100
AcDbLine
 10
-3468.790150652531
 20
573.48045882321
 30
0.0
 11
-3415.404168967269
 21
573.48045882321
 31
0.0
  0
LWPOLYLINE
  5
B5
330
1F
100
AcDbEntity
  8
0-B
  6
Continuous
 62
     7
370
     9
100
AcDbPolyline
 90
        4
 70
     1
 43
3.0
 10
-4721.000393841717
 20
334.3633365921215
 42
0.4142135623731
 10
-4722.500393841718
 20
335.8633365921215
 42
0.4142135623731
 10
-4724.000393841718
 20
334.3633365921215
 42
0.4142135623731
 10
-4722.500393841718
 20
332.8633365921215
 42
0.4142135623731
  0
LINE
  5
B6
330
1F
100
AcDbEntity
  8
0-B
  6
Continuous
 62
   120
370
     5
100
AcDbLine
 10
-4722.500393841718
 20
334.3633365921215
 30
0.0
 11
-4647.500393841718
 21
334.3633365921215
 31
0.0
  0
LINE
  5
B7
330
1F
100
AcDbEntity
  8
0-4
  6
Continuous
 62
    92
370
    13
100
AcDbLine
 10
-2772.500393841717
 20
334.3633365921215
 30
0.0
 11
-3553.458503855238
 21
334.3633365921215
 31
0.0
  0
LINE
  5
B8
330
1F
100
AcDbEntity
  8
0-4
  6
Continuous
 62
    92
370
    13
100
AcDbLine
 10
-3588.099520006615
 20
334.3633365921215
 30
0.0
 11
-4572.500393841718
 21
334.3633365921215
 31
0.0
  0
LINE
  5
B9
330
1F
100
AcDbEntity
  8
0-A
  6
Continuous
 62
     7
370
     9
100
AcDbLine
 10
-3416.318896707922
 20
724.3633365921215
 30
0.0
 11
-3520.751674879597
 21
543.48045882321
 31
0.0
  0
LINE
  5
BA
330
1F
100
AcDbEntity
  8
0-A
  6
Continuous
 62
     7
370
     9
100
AcDbLine
 10
-3381.677880556545
 20
724.3633365921215
 30
0.0
 11
-3468.790150652531
 21
573.48045882321
 31
0.0
  0
LINE
  5
BB
330
1F
100
AcDbEntity
  8
0-A
  6
Continuous
 62
     7
370
     9
100
AcDbLine
 10
-3467.365693194336
 20
543.48045882321
 30
0.0
 11
-3631.400790195837
 21
259.3633365921215
 31
0.0
  0
LINE
  5
BC
330
1F
100
AcDbEntity
  8
0-A
  6
Continuous
 62
     7
370
     9
100
AcDbLine
 10
-3415.404168967269
 20
573.48045882321
 30
0.0
 11
-3596.75977404446
 21
259.3633365921215
 31
0.0
  0
LINE
  5
BD
330
1F
100
AcDbEntity
  8
0-A
  6
Continuous
 62
     7
370
     9
100
AcDbLine
 10
-3520.751674879597
 20
-708.2440073494915
 30
0.0
 11
-3467.365693194336
 21
-708.2440073494915
 31
0.0
  0
LINE
  5
BE
330
1F
100
AcDbEntity
  8
0-A
  6
Continuous
 62
     7
370
     9
100
AcDbLine
 10
-3468.790150652531
 20
-678.2440073494915
 30
0.0
 11
-3415.404168967269
 21
-678.2440073494915
 31
0.0
  0
LWPOLYLINE
  5
BF
330
1F
100
AcDbEntity
  8
0-B
  6
Continuous
 62
     7
370
     9
100
AcDbPolyline
 90
        4
 70
     1
 43
3.0
 10
-4721.000393841717
 20
-917.36112958058
 42
0.4142135623731
 10
-4722.500393841718
 20
-915.86112958058
 42
0.4142135623731
 10
-4724.000393841718
 20
-917.36112958058
 42
0.4142135623731
 10
-4722.500393841718
 20
-918.86112958058
 42
0.4142135623731
  0
LINE
  5
C0
330
1F
100
AcDbEntity
  8
0-B
  6
Continuous
 62
   120
370
     5
100
AcDbLine
 10
-4722.500393841718
 20
-917.36112958058
 30
0.0
 11
-4647.500393841718
 21
-917.36112958058
 31
0.0
  0
LINE
  5
C1
330
1F
100
AcDbEntity
  8
0-4
  6
Continuous
 62
    92
370
    13
100
AcDbLine
 10
-2772.500393841717
 20
-917.36112958058
 30
0.0
 11
-3553.458503855238
 21
-917.36112958058
 31
0.0
  0
LINE
  5
C2
330
1F
100
AcDbEntity
  8
0-4
  6
Continuous
 62
    92
370
    13
100
AcDbLine
 10
-3588.099520006615
 20
-917.36112958058
 30
0.0
 11
-4572.500393841718
 21
-917.36112958058
 31
0.0
  0
LINE
  5
C3
330
1F
100
AcDbEntity
  8
0-A
  6
Continuous
 62
     7
370
     9
100
AcDbLine
 10
-3416.318896707922
 20
-527.3611295805796
 30
0.0
 11
-3520.751674879597
 21
-708.2440073494915
 31
0.0
  0
LINE
  5
C4
330
1F
100
AcDbEntity
  8
0-A
  6
Continuous
 62
     7
370
     9
100
AcDbLine
 10
-3381.677880556545
 20
-527.3611295805796
 30
0.0
 11
-3468.790150652531
 21
-678.2440073494915
 31
0.0
  0
LINE
  5
C5
330
1F
100
AcDbEntity
  8
0-A
  6
Continuous
 62
     7
370
     9
100
AcDbLine
 10
-3467.365693194336
 20
-708.2440073494915
 30
0.0
 11
-3631.400790195837
 21
-992.36112958058
 31
0.0
  0
LINE
  5
C6
330
1F
100
AcDbEntity
  8
0-A
  6
Continuous
 62
     7
370
     9
100
AcDbLine
 10
-3415.404168967269
 20
-678.2440073494915
 30
0.0
 11
-3596.75977404446
 21
-992.36112958058
 31
0.0
  0
LINE
  5
C7
330
1F
100
AcDbEntity
  8
0-A
  6
Continuous
 62
     7
370
     9
100
AcDbLine
 10
-3520.751674879597
 20
-1956.519700981676
 30
0.0
 11
-3467.365693194336
 21
-1956.519700981676
 31
0.0
  0
LINE
  5
C8
330
1F
100
AcDbEntity
  8
0-A
  6
Continuous
 62
     7
370
     9
100
AcDbLine
 10
-3468.790150652531
 20
-1926.519700981676
 30
0.0
 11
-3415.404168967269
 21
-1926.519700981676
 31
0.0
  0
LWPOLYLINE
  5
C9
330
1F
100
AcDbEntity
  8
0-B
  6
Continuous
 62
     7
370
     9
100
AcDbPolyline
 90
        4
 70
     1
 43
3.0
 10
-4721.000393841717
 20
-2165.636823212765
 42
0.4142135623731
 10
-4722.500393841718
 20
-2164.136823212765
 42
0.4142135623731
 10
-4724.000393841718
 20
-2165.636823212765
 42
0.4142135623731
 10
-4722.500393841718
 20
-2167.136823212765
 42
0.4142135623731
  0
LINE
  5
CA
330
1F
100
AcDbEntity
  8
0-B
  6
Continuous
 62
   120
370
     5
100
AcDbLine
 10
-4722.500393841718
 20
-2165.636823212765
 30
0.0
 11
-4647.500393841718
 21
-2165.636823212765
 31
0.0
  0
LINE
  5
CB
330
1F
100
AcDbEntity
  8
0-4
  6
Continuous
 62
    92
370
    13
100
AcDbLine
 10
-2772.500393841717
 20
-2165.636823212765
 30
0.0
 11
-3553.458503855238
 21
-2165.636823212765
 31
0.0
  0
LINE
  5
CC
330
1F
100
AcDbEntity
  8
0-4
  6
Continuous
 62
    92
370
    13
100
AcDbLine
 10
-3588.099520006615
 20
-2165.636823212765
 30
0.0
 11
-4572.500393841718
 21
-2165.636823212765
 31
0.0
  0
LINE
  5
CD
330
1F
100
AcDbEntity
  8
0-A
  6
Continuous
 62
     7
370
     9
100
AcDbLine
 10
-3416.318896707922
 20
-1775.636823212765
 30
0.0
 11
-3520.751674879597
 21
-1956.519700981676
 31
0.0
  0
LINE
  5
CE
330
1F
100
AcDbEntity
  8
0-A
  6
Continuous
 62
     7
370
     9
100
AcDbLine
 10
-3381.677880556545
 20
-1775.636823212765
 30
0.0
 11
-3468.790150652531
 21
-1926.519700981676
 31
0.0
  0
LINE
  5
CF
330
1F
100
AcDbEntity
  8
0-A
  6
Continuous
 62
     7
370
     9
100
AcDbLine
 10
-3467.365693194336
 20
-1956.519700981676
 30
0.0
 11
-3631.400790195837
 21
-2240.636823212765
 31
0.0
  0
LINE
  5
D0
330
1F
100
AcDbEntity
  8
0-A
  6
Continuous
 62
     7
370
     9
100
AcDbLine
 10
-3415.404168967269
 20
-1926.519700981676
 30
0.0
 11
-3596.75977404446
 21
-2240.636823212765
 31
0.0
  0
LINE
  5
D1
330
1F
100
AcDbEntity
  8
0-A
  6
Continuous
 62
     7
370
     9
100
AcDbLine
 10
-3520.751674879597
 20
-3206.519780884119
 30
0.0
 11
-3467.365693194336
 21
-3206.519780884119
 31
0.0
  0
LINE
  5
D2
330
1F
100
AcDbEntity
  8
0-A
  6
Continuous
 62
     7
370
     9
100
AcDbLine
 10
-3468.790150652531
 20
-3176.519780884119
 30
0.0
 11
-3415.404168967269
 21
-3176.519780884119
 31
0.0
  0
LWPOLYLINE
  5
D3
330
1F
100
AcDbEntity
  8
0-B
  6
Continuous
 62
     7
370
     9
100
AcDbPolyline
 90
        4
 70
     1
 43
3.0
 10
-4721.000393841717
 20
-3415.636903115208
 42
0.4142135623731
 10
-4722.500393841718
 20
-3414.136903115208
 42
0.4142135623731
 10
-4724.000393841718
 20
-3415.636903115208
 42
0.4142135623731
 10
-4722.500393841718
 20
-3417.136903115207
 42
0.4142135623731
  0
LINE
  5
D4
330
1F
100
AcDbEntity
  8
0-B
  6
Continuous
 62
   120
370
     5
100
AcDbLine
 10
-4722.500393841718
 20
-3415.636903115208
 30
0.0
 11
-4647.500393841718
 21
-3415.636903115208
 31
0.0
  0
LINE
  5
D5
330
1F
100
AcDbEntity
  8
0-4
  6
Continuous
 62
    92
370
    13
100
AcDbLine
 10
-2772.500393841717
 20
-3415.636903115208
 30
0.0
 11
-3553.458503855238
 21
-3415.636903115208
 31
0.0
  0
LINE
  5
D6
330
1F
100
AcDbEntity
  8
0-4
  6
Continuous
 62
    92
370
    13
100
AcDbLine
 10
-3588.099520006615
 20
-3415.636903115208
 30
0.0
 11
-4572.500393841718
 21
-3415.636903115208
 31
0.0
  0
LINE
  5
D7
330
1F
100
AcDbEntity
  8
0-A
  6
Continuous
 62
     7
370
     9
100
AcDbLine
 10
-3416.318896707922
 20
-3025.636903115208
 30
0.0
 11
-3520.751674879597
 21
-3206.519780884119
 31
0.0
  0
LINE
  5
D8
330
1F
100
AcDbEntity
  8
0-A
  6
Continuous
 62
     7
370
     9
100
AcDbLine
 10
-3381.677880556545
 20
-3025.636903115208
 30
0.0
 11
-3468.790150652531
 21
-3176.519780884119
 31
0.0
  0
LINE
  5
D9
330
1F
100
AcDbEntity
  8
0-A
  6
Continuous
 62
     7
370
     9
100
AcDbLine
 10
-3467.365693194336
 20
-3206.519780884119
 30
0.0
 11
-3631.400790195837
 21
-3490.636903115208
 31
0.0
  0
LINE
  5
DA
330
1F
100
AcDbEntity
  8
0-A
  6
Continuous
 62
     7
370
     9
100
AcDbLine
 10
-3415.404168967269
 20
-3176.519780884119
 30
0.0
 11
-3596.75977404446
 21
-3490.636903115208
 31
0.0
  0
LINE
  5
DB
330
1F
100
AcDbEntity
  8
0-A
  6
Continuous
 62
     7
370
     9
100
AcDbLine
 10
2324.249731403395
 20
3043.480618628094
 30
0.0
 11
2377.635713088657
 21
3043.480618628094
 31
0.0
  0
LINE
  5
DC
330
1F
100
AcDbEntity
  8
0-A
  6
Continuous
 62
     7
370
     9
100
AcDbLine
 10
2376.211255630462
 20
3073.480618628094
 30
0.0
 11
2429.597237315723
 21
3073.480618628094
 31
0.0
  0
LWPOLYLINE
  5
DD
330
1F
100
AcDbEntity
  8
0-B
  6
Continuous
 62
     7
370
     9
100
AcDbPolyline
 90
        4
 70
     1
 43
3.0
 10
1124.001012441275
 20
2834.363496397006
 42
0.4142135623731
 10
1122.501012441275
 20
2835.863496397006
 42
0.4142135623731
 10
1121.001012441275
 20
2834.363496397006
 42
0.4142135623731
 10
1122.501012441275
 20
2832.863496397006
 42
0.4142135623731
  0
LINE
  5
DE
330
1F
100
AcDbEntity
  8
0-B
  6
Continuous
 62
   120
370
     5
100
AcDbLine
 10
1122.501012441275
 20
2834.363496397006
 30
0.0
 11
1197.501012441275
 21
2834.363496397006
 31
0.0
  0
LINE
  5
DF
330
1F
100
AcDbEntity
  8
0-4
  6
Continuous
 62
    92
370
    13
100
AcDbLine
 10
3072.501012441275
 20
2834.363496397006
 30
0.0
 11
2291.542902427756
 21
2834.363496397006
 31
0.0
  0
LINE
  5
E0
330
1F
100
AcDbEntity
  8
0-4
  6
Continuous
 62
    92
370
    13
100
AcDbLine
 10
2256.901886276378
 20
2834.363496397006
 30
0.0
 11
1272.501012441275
 21
2834.363496397006
 31
0.0
  0
LINE
  5
E1
330
1F
100
AcDbEntity
  8
0-A
  6
Continuous
 62
     7
370
     9
100
AcDbLine
 10
2428.682509575071
 20
3224.363496397006
 30
0.0
 11
2324.249731403395
 21
3043.480618628094
 31
0.0
  0
LINE
  5
E2
330
1F
100
AcDbEntity
  8
0-A
  6
Continuous
 62
     7
370
     9
100
AcDbLine
 10
2463.323525726449
 20
3224.363496397006
 30
0.0
 11
2376.211255630462
 21
3073.480618628094
 31
0.0
  0
LINE
  5
E3
330
1F
100
AcDbEntity
  8
0-A
  6
Continuous
 62
     7
370
     9
100
AcDbLine
 10
2377.635713088657
 20
3043.480618628094
 30
0.0
 11
2213.600616087156
 21
2759.363496397006
 31
0.0
  0
LINE
  5
E4
330
1F
100
AcDbEntity
  8
0-A
  6
Continuous
 62
     7
370
     9
100
AcDbLine
 10
2429.597237315723
 20
3073.480618628094
 30
0.0
 11
2248.241632238533
 21
2759.363496397006
 31
0.0
  0
LINE
  5
E5
330
1F
100
AcDbEntity
  8
0-A
  6
Continuous
 62
     7
370
     9
100
AcDbLine
 10
2324.248803504061
 20
1793.480538725653
 30
0.0
 11
2377.634785189322
 21
1793.480538725653
 31
0.0
  0
LINE
  5
E6
330
1F
100
AcDbEntity
  8
0-A
  6
Continuous
 62
     7
370
     9
100
AcDbLine
 10
2376.210327731126
 20
1823.480538725653
 30
0.0
 11
2429.596309416388
 21
1823.480538725653
 31
0.0
  0
LWPOLYLINE
  5
E7
330
1F
100
AcDbEntity
  8
0-B
  6
Continuous
 62
     7
370
     9
100
AcDbPolyline
 90
        4
 70
     1
 43
3.0
 10
1124.00008454194
 20
1584.363416494564
 42
0.4142135623731
 10
1122.50008454194
 20
1585.863416494564
 42
0.4142135623731
 10
1121.00008454194
 20
1584.363416494564
 42
0.4142135623731
 10
1122.50008454194
 20
1582.863416494564
 42
0.4142135623731
  0
LINE
  5
E8
330
1F
100
AcDbEntity
  8
0-B
  6
Continuous
 62
   120
370
     5
100
AcDbLine
 10
1122.50008454194
 20
1584.363416494564
 30
0.0
 11
1197.50008454194
 21
1584.363416494564
 31
0.0
  0
LINE
  5
E9
330
1F
100
AcDbEntity
  8
0-4
  6
Continuous
 62
    92
370
    13
100
AcDbLine
 10
3072.50008454194
 20
1584.363416494564
 30
0.0
 11
2291.54197452842
 21
1584.363416494564
 31
0.0
  0
LINE
  5
EA
330
1F
100
AcDbEntity
  8
0-4
  6
Continuous
 62
    92
370
    13
100
AcDbLine
 10
2256.900958377043
 20
1584.363416494564
 30
0.0
 11
1272.50008454194
 21
1584.363416494564
 31
0.0
  0
LINE
  5
EB
330
1F
100
AcDbEntity
  8
0-A
  6
Continuous
 62
     7
370
     9
100
AcDbLine
 10
2428.681581675736
 20
1974.363416494564
 30
0.0
 11
2324.248803504061
 21
1793.480538725653
 31
0.0
  0
LINE
  5
EC
330
1F
100
AcDbEntity
  8
0-A
  6
Continuous
 62
     7
370
     9
100
AcDbLine
 10
2463.322597827113
 20
1974.363416494564
 30
0.0
 11
2376.210327731126
 21
1823.480538725653
 31
0.0
  0
LINE
  5
ED
330
1F
100
AcDbEntity
  8
0-A
  6
Continuous
 62
     7
370
     9
100
AcDbLine
 10
2377.634785189322
 20
1793.480538725653
 30
0.0
 11
2213.599688187821
 21
1509.363416494564
 31
0.0
  0
LINE
  5
EE
330
1F
100
AcDbEntity
  8
0-A
  6
Continuous
 62
     7
370
     9
100
AcDbLine
 10
2429.596309416388
 20
1823.480538725653
 30
0.0
 11
2248.240704339198
 21
1509.363416494564
 31
0.0
  0
LINE
  5
EF
330
1F
100
AcDbEntity
  8
0-A
  6
Continuous
 62
     7
370
     9
100
AcDbLine
 10
2324.248803504061
 20
543.48045882321
 30
0.0
 11
2377.634785189322
 21
543.48045882321
 31
0.0
  0
LINE
  5
F0
330
1F
100
AcDbEntity
  8
0-A
  6
Continuous
 62
     7
370
     9
100
AcDbLine
 10
2376.210327731126
 20
573.48045882321
 30
0.0
 11
2429.596309416388
 21
573.48045882321
 31
0.0
  0
LWPOLYLINE
  5
F1
330
1F
100
AcDbEntity
  8
0-B
  6
Continuous
 62
     7
370
     9
100
AcDbPolyline
 90
        4
 70
     1
 43
3.0
 10
1124.00008454194
 20
334.3633365921215
 42
0.4142135623731
 10
1122.50008454194
 20
335.8633365921215
 42
0.4142135623731
 10
1121.00008454194
 20
334.3633365921215
 42
0.4142135623731
 10
1122.50008454194
 20
332.8633365921215
 42
0.4142135623731
  0
LINE
  5
F2
330
1F
100
AcDbEntity
  8
0-B
  6
Continuous
 62
   120
370
     5
100
AcDbLine
 10
1122.50008454194
 20
334.3633365921215
 30
0.0
 11
1197.50008454194
 21
334.3633365921215
 31
0.0
  0
LINE
  5
F3
330
1F
100
AcDbEntity
  8
0-4
  6
Continuous
 62
    92
370
    13
100
AcDbLine
 10
3072.50008454194
 20
334.3633365921215
 30
0.0
 11
2291.54197452842
 21
334.3633365921215
 31
0.0
  0
LINE
  5
F4
330
1F
100
AcDbEntity
  8
0-4
  6
Continuous
 62
    92
370
    13
100
AcDbLine
 10
2256.900958377043
 20
334.3633365921215
 30
0.0
 11
1272.50008454194
 21
334.3633365921215
 31
0.0
  0
LINE
  5
F5
330
1F
100
AcDbEntity
  8
0-A
  6
Continuous
 62
     7
370
     9
100
AcDbLine
 10
2428.681581675736
 20
724.3633365921215
 30
0.0
 11
2324.248803504061
 21
543.48045882321
 31
0.0
  0
LINE
  5
F6
330
1F
100
AcDbEntity
  8
0-A
  6
Continuous
 62
     7
370
     9
100
AcDbLine
 10
2463.322597827113
 20
724.3633365921215
 30
0.0
 11
2376.210327731126
 21
573.48045882321
 31
0.0
  0
LINE
  5
F7
330
1F
100
AcDbEntity
  8
0-A
  6
Continuous
 62
     7
370
     9
100
AcDbLine
 10
2377.634785189322
 20
543.48045882321
 30
0.0
 11
2213.599688187821
 21
259.3633365921215
 31
0.0
  0
LINE
  5
F8
330
1F
100
AcDbEntity
  8
0-A
  6
Continuous
 62
     7
370
     9
100
AcDbLine
 10
2429.596309416388
 20
573.48045882321
 30
0.0
 11
2248.240704339198
 21
259.3633365921215
 31
0.0
  0
LINE
  5
F9
330
1F
100
AcDbEntity
  8
0-A
  6
Continuous
 62
     7
370
     9
100
AcDbLine
 10
2324.248803504061
 20
-708.2440073494915
 30
0.0
 11
2377.634785189322
 21
-708.2440073494915
 31
0.0
  0
LINE
  5
FA
330
1F
100
AcDbEntity
  8
0-A
  6
Continuous
 62
     7
370
     9
100
AcDbLine
 10
2376.210327731126
 20
-678.2440073494915
 30
0.0
 11
2429.596309416388
 21
-678.2440073494915
 31
0.0
  0
LWPOLYLINE
  5
FB
330
1F
100
AcDbEntity
  8
0-B
  6
Continuous
 62
     7
370
     9
100
AcDbPolyline
 90
        4
 70
     1
 43
3.0
 10
1124.00008454194
 20
-917.36112958058
 42
0.4142135623731
 10
1122.50008454194
 20
-915.86112958058
 42
0.4142135623731
 10
1121.00008454194
 20
-917.36112958058
 42
0.4142135623731
 10
1122.50008454194
 20
-918.86112958058
 42
0.4142135623731
  0
LINE
  5
FC
330
1F
100
AcDbEntity
  8
0-B
  6
Continuous
 62
   120
370
     5
100
AcDbLine
 10
1122.50008454194
 20
-917.36112958058
 30
0.0
 11
1197.50008454194
 21
-917.36112958058
 31
0.0
  0
LINE
  5
FD
330
1F
100
AcDbEntity
  8
0-4
  6
Continuous
 62
    92
370
    13
100
AcDbLine
 10
3072.50008454194
 20
-917.36112958058
 30
0.0
 11
2291.54197452842
 21
-917.36112958058
 31
0.0
  0
LINE
  5
FE
330
1F
100
AcDbEntity
  8
0-4
  6
Continuous
 62
    92
370
    13
100
AcDbLine
 10
2256.900958377043
 20
-917.36112958058
 30
0.0
 11
1272.50008454194
 21
-917.36112958058
 31
0.0
  0
LINE
  5
FF
330
1F
100
AcDbEntity
  8
0-A
  6
Continuous
 62
     7
370
     9
100
AcDbLine
 10
2428.681581675736
 20
-527.3611295805796
 30
0.0
 11
2324.248803504061
 21
-708.2440073494915
 31
0.0
  0
LINE
  5
100
330
1F
100
AcDbEntity
  8
0-A
  6
Continuous
 62
     7
370
     9
100
AcDbLine
 10
2463.322597827113
 20
-527.3611295805796
 30
0.0
 11
2376.210327731126
 21
-678.2440073494915
 31
0.0
  0
LINE
  5
101
330
1F
100
AcDbEntity
  8
0-A
  6
Continuous
 62
     7
370
     9
100
AcDbLine
 10
2377.634785189322
 20
-708.2440073494915
 30
0.0
 11
2213.599688187821
 21
-992.36112958058
 31
0.0
  0
LINE
  5
102
330
1F
100
AcDbEntity
  8
0-A
  6
Continuous
 62
     7
370
     9
100
AcDbLine
 10
2429.596309416388
 20
-678.2440073494915
 30
0.0
 11
2248.240704339198
 21
-992.36112958058
 31
0.0
  0
LINE
  5
103
330
1F
100
AcDbEntity
  8
0-A
  6
Continuous
 62
     7
370
     9
100
AcDbLine
 10
2324.248803504061
 20
-1956.519700981676
 30
0.0
 11
2377.634785189322
 21
-1956.519700981676
 31
0.0
  0
LINE
  5
104
330
1F
100
AcDbEntity
  8
0-A
  6
Continuous
 62
     7
370
     9
100
AcDbLine
 10
2376.210327731126
 20
-1926.519700981676
 30
0.0
 11
2429.596309416388
 21
-1926.519700981676
 31
0.0
  0
LWPOLYLINE
  5
105
330
1F
100
AcDbEntity
  8
0-B
  6
Continuous
 62
     7
370
     9
100
AcDbPolyline
 90
        4
 70
     1
 43
3.0
 10
1124.00008454194
 20
-2165.636823212765
 42
0.4142135623731
 10
1122.50008454194
 20
-2164.136823212765
 42
0.4142135623731
 10
1121.00008454194
 20
-2165.636823212765
 42
0.4142135623731
 10
1122.50008454194
 20
-2167.136823212765
 42
0.4142135623731
  0
LINE
  5
106
330
1F
100
AcDbEntity
  8
0-B
  6
Continuous
 62
   120
370
     5
100
AcDbLine
 10
1122.50008454194
 20
-2165.636823212765
 30
0.0
 11
1197.50008454194
 21
-2165.636823212765
 31
0.0
  0
LINE
  5
107
330
1F
100
AcDbEntity
  8
0-4
  6
Continuous
 62
    92
370
    13
100
AcDbLine
 10
3072.50008454194
 20
-2165.636823212765
 30
0.0
 11
2291.54197452842
 21
-2165.636823212765
 31
0.0
  0
LINE
  5
108
330
1F
100
AcDbEntity
  8
0-4
  6
Continuous
 62
    92
370
    13
100
AcDbLine
 10
2256.900958377043
 20
-2165.636823212765
 30
0.0
 11
1272.50008454194
 21
-2165.636823212765
 31
0.0
  0
LINE
  5
109
330
1F
100
AcDbEntity
  8
0-A
  6
Continuous
 62
     7
370
     9
100
AcDbLine
 10
2428.681581675736
 20
-1775.636823212765
 30
0.0
 11
2324.248803504061
 21
-1956.519700981676
 31
0.0
  0
LINE
  5
10A
330
1F
100
AcDbEntity
  8
0-A
  6
Continuous
 62
     7
370
     9
100
AcDbLine
 10
2463.322597827113
 20
-1775.636823212765
 30
0.0
 11
2376.210327731126
 21
-1926.519700981676
 31
0.0
  0
LINE
  5
10B
330
1F
100
AcDbEntity
  8
0-A
  6
Continuous
 62
     7
370
     9
100
AcDbLine
 10
2377.634785189322
 20
-1956.519700981676
 30
0.0
 11
2213.599688187821
 21
-2240.636823212765
 31
0.0
  0
LINE
  5
10C
330
1F
100
AcDbEntity
  8
0-A
  6
Continuous
 62
     7
370
     9
100
AcDbLine
 10
2429.596309416388
 20
-1926.519700981676
 30
0.0
 11
2248.240704339198
 21
-2240.636823212765
 31
0.0
  0
LINE
  5
10D
330
1F
100
AcDbEntity
  8
0-A
  6
Continuous
 62
     7
370
     9
100
AcDbLine
 10
2324.248803504061
 20
-3206.519780884119
 30
0.0
 11
2377.634785189322
 21
-3206.519780884119
 31
0.0
  0
LINE
  5
10E
330
1F
100
AcDbEntity
  8
0-A
  6
Continuous
 62
     7
370
     9
100
AcDbLine
 10
2376.210327731126
 20
-3176.519780884119
 30
0.0
 11
2429.596309416388
 21
-3176.519780884119
 31
0.0
  0
LINE
  5
10F
330
1F
100
AcDbEntity
  8
0-4
  6
Continuous
 62
    92
370
    13
100
AcDbLine
 10
1542.50008454194
 20
-3408.136903115208
 30
0.0
 11
1542.50008454194
 21
-3415.636903115208
 31
0.0
  0
LINE
  5
110
330
1F
100
AcDbEntity
  8
0-4
  6
Continuous
 62
    92
370
    13
100
AcDbLine
 10
1542.50008454194
 20
-3408.136903115208
 30
0.0
 11
1280.00008454194
 21
-3408.136903115208
 31
0.0
  0
LWPOLYLINE
  5
111
330
1F
100
AcDbEntity
  8
0-B
  6
Continuous
 62
     7
370
     9
100
AcDbPolyline
 90
        4
 70
     1
 43
3.0
 10
1124.00008454194
 20
-3415.636903115208
 42
0.4142135623731
 10
1122.50008454194
 20
-3414.136903115208
 42
0.4142135623731
 10
1121.00008454194
 20
-3415.636903115208
 42
0.4142135623731
 10
1122.50008454194
 20
-3417.136903115207
 42
0.4142135623731
  0
LINE
  5
112
330
1F
100
AcDbEntity
  8
0-B
  6
Continuous
 62
   120
370
     5
100
AcDbLine
 10
1122.50008454194
 20
-3415.636903115208
 30
0.0
 11
1197.50008454194
 21
-3415.636903115208
 31
0.0
  0
LINE
  5
113
330
1F
100
AcDbEntity
  8
0-4
  6
Continuous
 62
    92
370
    13
100
AcDbLine
 10
3072.50008454194
 20
-3415.636903115208
 30
0.0
 11
2291.54197452842
 21
-3415.636903115208
 31
0.0
  0
LINE
  5
114
330
1F
100
AcDbEntity
  8
0-4
  6
Continuous
 62
    92
370
    13
100
AcDbLine
 10
2256.900958377043
 20
-3415.636903115208
 30
0.0
 11
1272.50008454194
 21
-3415.636903115208
 31
0.0
  0
LINE
  5
115
330
1F
100
AcDbEntity
  8
0-A
  6
Continuous
 62
     7
370
     9
100
AcDbLine
 10
2428.681581675736
 20
-3025.636903115208
 30
0.0
 11
2324.248803504061
 21
-3206.519780884119
 31
0.0
  0
LINE
  5
116
330
1F
100
AcDbEntity
  8
0-A
  6
Continuous
 62
     7
370
     9
100
AcDbLine
 10
2463.322597827113
 20
-3025.636903115208
 30
0.0
 11
2376.210327731126
 21
-3176.519780884119
 31
0.0
  0
LINE
  5
117
330
1F
100
AcDbEntity
  8
0-A
  6
Continuous
 62
     7
370
     9
100
AcDbLine
 10
2377.634785189322
 20
-3206.519780884119
 30
0.0
 11
2213.599688187821
 21
-3490.636903115208
 31
0.0
  0
LINE
  5
118
330
1F
100
AcDbEntity
  8
0-A
  6
Continuous
 62
     7
370
     9
100
AcDbLine
 10
2429.596309416388
 20
-3176.519780884119
 30
0.0
 11
2248.240704339198
 21
-3490.636903115208
 31
0.0
  0
LINE
  5
119
330
1F
100
AcDbEntity
  8
F-1
  6
JWW_DASHED1
 62
     7
370
     9
100
AcDbLine
 10
-155.0007588154554
 20
2616.250391973032
 30
0.0
 11
-2405.000758815456
 21
2616.250391973032
 31
0.0
  0
LINE
  5
11A
330
1F
100
AcDbEntity
  8
F-1
  6
JWW_DASHED1
 62
     7
370
     9
100
AcDbLine
 10
-155.0007588154554
 20
3397.500441912059
 30
0.0
 11
-2405.000758815456
 21
3397.500441912059
 31
0.0
  0
LINE
  5
11B
330
1F
100
AcDbEntity
  8
F-1
  6
JWW_DASHED1
 62
     7
370
     9
100
AcDbLine
 10
-155.0007588154554
 20
3241.250431924253
 30
0.0
 11
-2405.000758815456
 21
3241.250431924253
 31
0.0
  0
LINE
  5
11C
330
1F
100
AcDbEntity
  8
F-1
  6
JWW_DASHED1
 62
     7
370
     9
100
AcDbLine
 10
-155.0007588154554
 20
3085.000421936448
 30
0.0
 11
-2405.000758815456
 21
3085.000421936448
 31
0.0
  0
LINE
  5
11D
330
1F
100
AcDbEntity
  8
F-1
  6
JWW_DASHED1
 62
     7
370
     9
100
AcDbLine
 10
-155.0007588154554
 20
2928.750411948643
 30
0.0
 11
-2405.000758815456
 21
2928.750411948643
 31
0.0
  0
LINE
  5
11E
330
1F
100
AcDbEntity
  8
F-1
  6
JWW_DASHED1
 62
     7
370
     9
100
AcDbLine
 10
-155.0007588154554
 20
2772.500401960837
 30
0.0
 11
-2405.000758815456
 21
2772.500401960837
 31
0.0
  0
LINE
  5
11F
330
1F
100
AcDbEntity
  8
F-1
  6
JWW_DASHED1
 62
     7
370
     9
100
AcDbLine
 10
-155.0007588154554
 20
1366.250312070589
 30
0.0
 11
-2405.000758815456
 21
1366.250312070589
 31
0.0
  0
LINE
  5
120
330
1F
100
AcDbEntity
  8
F-1
  6
JWW_DASHED1
 62
     7
370
     9
100
AcDbLine
 10
-155.0007588154554
 20
2147.500362009616
 30
0.0
 11
-2405.000758815456
 21
2147.500362009616
 31
0.0
  0
LINE
  5
121
330
1F
100
AcDbEntity
  8
F-1
  6
JWW_DASHED1
 62
     7
370
     9
100
AcDbLine
 10
-155.0007588154554
 20
1991.25035202181
 30
0.0
 11
-2405.000758815456
 21
1991.25035202181
 31
0.0
  0
LINE
  5
122
330
1F
100
AcDbEntity
  8
F-1
  6
JWW_DASHED1
 62
     7
370
     9
100
AcDbLine
 10
-155.0007588154554
 20
1835.000342034005
 30
0.0
 11
-2405.000758815456
 21
1835.000342034005
 31
0.0
  0
LINE
  5
123
330
1F
100
AcDbEntity
  8
F-1
  6
JWW_DASHED1
 62
     7
370
     9
100
AcDbLine
 10
-155.0007588154554
 20
1678.7503320462
 30
0.0
 11
-2405.000758815456
 21
1678.7503320462
 31
0.0
  0
LINE
  5
124
330
1F
100
AcDbEntity
  8
F-1
  6
JWW_DASHED1
 62
     7
370
     9
100
AcDbLine
 10
-155.0007588154554
 20
1522.500322058395
 30
0.0
 11
-2405.000758815456
 21
1522.500322058395
 31
0.0
  0
LINE
  5
125
330
1F
100
AcDbEntity
  8
F-1
  6
JWW_DASHED1
 62
     7
370
     9
100
AcDbLine
 10
-155.0007588154554
 20
116.2502321681467
 30
0.0
 11
-2405.000758815456
 21
116.2502321681467
 31
0.0
  0
LINE
  5
126
330
1F
100
AcDbEntity
  8
F-1
  6
JWW_DASHED1
 62
     7
370
     9
100
AcDbLine
 10
-155.0007588154554
 20
897.5002821071723
 30
0.0
 11
-2405.000758815456
 21
897.5002821071723
 31
0.0
  0
LINE
  5
127
330
1F
100
AcDbEntity
  8
F-1
  6
JWW_DASHED1
 62
     7
370
     9
100
AcDbLine
 10
-155.0007588154554
 20
741.2502721193675
 30
0.0
 11
-2405.000758815456
 21
741.2502721193675
 31
0.0
  0
LINE
  5
128
330
1F
100
AcDbEntity
  8
F-1
  6
JWW_DASHED1
 62
     7
370
     9
100
AcDbLine
 10
-155.0007588154554
 20
585.0002621315627
 30
0.0
 11
-2405.000758815456
 21
585.0002621315627
 31
0.0
  0
LINE
  5
129
330
1F
100
AcDbEntity
  8
F-1
  6
JWW_DASHED1
 62
     7
370
     9
100
AcDbLine
 10
-155.0007588154554
 20
428.7502521437571
 30
0.0
 11
-2405.000758815456
 21
428.7502521437571
 31
0.0
  0
LINE
  5
12A
330
1F
100
AcDbEntity
  8
F-1
  6
JWW_DASHED1
 62
     7
370
     9
100
AcDbLine
 10
-155.0007588154554
 20
272.5002421559515
 30
0.0
 11
-2405.000758815456
 21
272.5002421559515
 31
0.0
  0
LINE
  5
12B
330
1F
100
AcDbEntity
  8
F-1
  6
JWW_DASHED1
 62
     7
370
     9
100
AcDbLine
 10
-155.0007588154554
 20
-1133.749847734297
 30
0.0
 11
-2405.000758815456
 21
-1133.749847734297
 31
0.0
  0
LINE
  5
12C
330
1F
100
AcDbEntity
  8
F-1
  6
JWW_DASHED1
 62
     7
370
     9
100
AcDbLine
 10
-155.0007588154554
 20
-352.4997977952702
 30
0.0
 11
-2405.000758815456
 21
-352.4997977952702
 31
0.0
  0
LINE
  5
12D
330
1F
100
AcDbEntity
  8
F-1
  6
JWW_DASHED1
 62
     7
370
     9
100
AcDbLine
 10
-155.0007588154554
 20
-508.7498077830759
 30
0.0
 11
-2405.000758815456
 21
-508.7498077830759
 31
0.0
  0
LINE
  5
12E
330
1F
100
AcDbEntity
  8
F-1
  6
JWW_DASHED1
 62
     7
370
     9
100
AcDbLine
 10
-155.0007588154554
 20
-664.9998177708807
 30
0.0
 11
-2405.000758815456
 21
-664.9998177708807
 31
0.0
  0
LINE
  5
12F
330
1F
100
AcDbEntity
  8
F-1
  6
JWW_DASHED1
 62
     7
370
     9
100
AcDbLine
 10
-155.0007588154554
 20
-821.2498277586855
 30
0.0
 11
-2405.000758815456
 21
-821.2498277586855
 31
0.0
  0
LINE
  5
130
330
1F
100
AcDbEntity
  8
F-1
  6
JWW_DASHED1
 62
     7
370
     9
100
AcDbLine
 10
-155.0007588154554
 20
-977.499837746491
 30
0.0
 11
-2405.000758815456
 21
-977.499837746491
 31
0.0
  0
LINE
  5
131
330
1F
100
AcDbEntity
  8
F-1
  6
JWW_DASHED1
 62
     7
370
     9
100
AcDbLine
 10
-155.0007588154554
 20
-2383.749927636738
 30
0.0
 11
-2405.000758815456
 21
-2383.749927636738
 31
0.0
  0
LINE
  5
132
330
1F
100
AcDbEntity
  8
F-1
  6
JWW_DASHED1
 62
     7
370
     9
100
AcDbLine
 10
-155.0007588154554
 20
-1602.499877697713
 30
0.0
 11
-2405.000758815456
 21
-1602.499877697713
 31
0.0
  0
LINE
  5
133
330
1F
100
AcDbEntity
  8
F-1
  6
JWW_DASHED1
 62
     7
370
     9
100
AcDbLine
 10
-155.0007588154554
 20
-1758.749887685517
 30
0.0
 11
-2405.000758815456
 21
-1758.749887685517
 31
0.0
  0
LINE
  5
134
330
1F
100
AcDbEntity
  8
F-1
  6
JWW_DASHED1
 62
     7
370
     9
100
AcDbLine
 10
-155.0007588154554
 20
-1914.999897673323
 30
0.0
 11
-2405.000758815456
 21
-1914.999897673323
 31
0.0
  0
LINE
  5
135
330
1F
100
AcDbEntity
  8
F-1
  6
JWW_DASHED1
 62
     7
370
     9
100
AcDbLine
 10
-155.0007588154554
 20
-2071.249907661129
 30
0.0
 11
-2405.000758815456
 21
-2071.249907661129
 31
0.0
  0
LINE
  5
136
330
1F
100
AcDbEntity
  8
F-1
  6
JWW_DASHED1
 62
     7
370
     9
100
AcDbLine
 10
-155.0007588154554
 20
-2227.499917648934
 30
0.0
 11
-2405.000758815456
 21
-2227.499917648934
 31
0.0
  0
LINE
  5
137
330
1F
100
AcDbEntity
  8
F-1
  6
JWW_DASHED1
 62
     7
370
     9
100
AcDbLine
 10
-155.0007588154554
 20
-3008.749967587961
 30
0.0
 11
-2405.000758815456
 21
-3008.749967587961
 31
0.0
  0
LINE
  5
138
330
1F
100
AcDbEntity
  8
F-1
  6
JWW_DASHED1
 62
     7
370
     9
100
AcDbLine
 10
-155.0007588154554
 20
3553.750451899864
 30
0.0
 11
-1505.000758815456
 21
3553.750451899864
 31
0.0
  0
LINE
  5
139
330
1F
100
AcDbEntity
  8
F-1
  6
JWW_DASHED1
 62
     7
370
     9
100
AcDbLine
 10
-155.0007588154554
 20
2303.750371997421
 30
0.0
 11
-1505.000758815456
 21
2303.750371997421
 31
0.0
  0
LINE
  5
13A
330
1F
100
AcDbEntity
  8
F-1
  6
JWW_DASHED1
 62
     7
370
     9
100
AcDbLine
 10
-155.0007588154554
 20
-2696.24994761235
 30
0.0
 11
-2405.000758815456
 21
-2696.24994761235
 31
0.0
  0
LINE
  5
13B
330
1F
100
AcDbEntity
  8
F-1
  6
JWW_DASHED1
 62
     7
370
     9
100
AcDbLine
 10
-155.0007588154554
 20
-1446.249867709908
 30
0.0
 11
-2405.000758815456
 21
-1446.249867709908
 31
0.0
  0
LINE
  5
13C
330
1F
100
AcDbEntity
  8
F-1
  6
JWW_DASHED1
 62
     7
370
     9
100
AcDbLine
 10
-155.0007588154554
 20
-196.2497878074646
 30
0.0
 11
-2405.000758815456
 21
-196.2497878074646
 31
0.0
  0
LINE
  5
13D
330
1F
100
AcDbEntity
  8
F-1
  6
JWW_DASHED1
 62
     7
370
     9
100
AcDbLine
 10
-155.0007588154554
 20
1053.750292094978
 30
0.0
 11
-2405.000758815456
 21
1053.750292094978
 31
0.0
  0
LINE
  5
13E
330
1F
100
AcDbEntity
  8
F-1
  6
JWW_DASHED1
 62
     7
370
     9
100
AcDbLine
 10
5689.999719568202
 20
3553.750451899864
 30
0.0
 11
3439.999719568202
 21
3553.750451899864
 31
0.0
  0
LINE
  5
13F
330
1F
100
AcDbEntity
  8
F-1
  6
JWW_DASHED1
 62
     7
370
     9
100
AcDbLine
 10
5689.999719568202
 20
-196.2497878074646
 30
0.0
 11
3439.999719568202
 21
-196.2497878074646
 31
0.0
  0
LINE
  5
140
330
1F
100
AcDbEntity
  8
F-1
  6
JWW_DASHED1
 62
     7
370
     9
100
AcDbLine
 10
5689.999719568202
 20
-2696.24994761235
 30
0.0
 11
3439.999719568202
 21
-2696.24994761235
 31
0.0
  0
LINE
  5
141
330
1F
100
AcDbEntity
  8
F-1
  6
JWW_DASHED1
 62
     7
370
     9
100
AcDbLine
 10
5689.999719568202
 20
1053.750292094978
 30
0.0
 11
3439.999719568202
 21
1053.750292094978
 31
0.0
  0
LINE
  5
142
330
1F
100
AcDbEntity
  8
0-4
  6
Continuous
 62
    92
370
    13
100
AcDbLine
 10
-2772.499465942383
 20
2834.363496397006
 30
0.0
 11
-2772.499465942383
 21
3134.363496397006
 31
0.0
  0
LINE
  5
143
330
1F
100
AcDbEntity
  8
0-4
  6
Continuous
 62
    92
370
    13
100
AcDbLine
 10
-2779.999465942383
 20
2841.863496397006
 30
0.0
 11
-2779.999465942383
 21
3126.863496397006
 31
0.0
  0
LWPOLYLINE
  5
144
330
1F
100
AcDbEntity
  8
0-B
  6
Continuous
 62
     7
370
     9
100
AcDbPolyline
 90
        4
 70
     1
 43
3.0
 10
-2770.999465942383
 20
3284.363496397007
 42
0.4142135623731
 10
-2772.499465942383
 20
3285.863496397007
 42
0.4142135623731
 10
-2773.999465942383
 20
3284.363496397007
 42
0.4142135623731
 10
-2772.499465942383
 20
3282.863496397007
 42
0.4142135623731
  0
LINE
  5
145
330
1F
100
AcDbEntity
  8
0-B
  6
Continuous
 62
   120
370
     5
100
AcDbLine
 10
-2772.499465942383
 20
3284.363496397007
 30
0.0
 11
-2772.499465942383
 21
3209.363496397006
 31
0.0
  0
LINE
  5
146
330
1F
100
AcDbEntity
  8
0-4
  6
Continuous
 62
    92
370
    13
100
AcDbLine
 10
-4519.466457353393
 20
3134.363496397006
 30
0.0
 11
-4572.499465942383
 21
3081.330487808015
 31
0.0
  0
LINE
  5
147
330
1F
100
AcDbEntity
  8
0-4
  6
Continuous
 62
    92
370
    13
100
AcDbLine
 10
-4516.359855635593
 20
3126.863496397006
 30
0.0
 11
-4564.999465942383
 21
3078.223886090217
 31
0.0
  0
LINE
  5
148
330
1F
100
AcDbEntity
  8
0-4
  6
Continuous
 62
    92
370
    13
100
AcDbLine
 10
-4572.499465942383
 20
3081.330487808015
 30
0.0
 11
-4572.499465942383
 21
2834.363496397006
 31
0.0
  0
LINE
  5
149
330
1F
100
AcDbEntity
  8
0-4
  6
Continuous
 62
    92
370
    13
100
AcDbLine
 10
-4564.999465942383
 20
3078.223886090217
 30
0.0
 11
-4564.999465942383
 21
2841.863496397006
 31
0.0
  0
LINE
  5
14A
330
1F
100
AcDbEntity
  8
0-0
  6
JWW_HOJO
 62
     7
370
     9
100
AcDbLine
 10
-4581.598491709356
 20
3284.363496397007
 30
0.0
 11
-4722.499465942383
 21
3143.462522163979
 31
0.0
  0
LINE
  5
14B
330
1F
100
AcDbEntity
  8
0-0
  6
JWW_HOJO
 62
     7
370
     9
100
AcDbLine
 10
-4722.499465942383
 20
3143.462522163979
 30
0.0
 11
-4722.499465942383
 21
2834.363496397006
 31
0.0
  0
LINE
  5
14C
330
1F
100
AcDbEntity
  8
0-0
  6
JWW_HOJO
 62
     7
370
     9
100
AcDbLine
 10
-4550.532474531375
 20
3209.363496397006
 30
0.0
 11
-4647.499465942383
 21
3112.396504985997
 31
0.0
  0
LINE
  5
14D
330
1F
100
AcDbEntity
  8
0-0
  6
JWW_HOJO
 62
     7
370
     9
100
AcDbLine
 10
-4647.499465942383
 20
3112.396504985997
 30
0.0
 11
-4647.499465942383
 21
2834.363496397006
 31
0.0
  0
LWPOLYLINE
  5
14E
330
1F
100
AcDbEntity
  8
0-B
  6
Continuous
 62
     7
370
     9
100
AcDbPolyline
 90
        4
 70
     1
 43
3.0
 10
-4570.999465942383
 20
3284.363496397007
 42
0.4142135623731
 10
-4572.499465942383
 20
3285.863496397007
 42
0.4142135623731
 10
-4573.999465942383
 20
3284.363496397007
 42
0.4142135623731
 10
-4572.499465942383
 20
3282.863496397007
 42
0.4142135623731
  0
LINE
  5
14F
330
1F
100
AcDbEntity
  8
0-B
  6
Continuous
 62
   120
370
     5
100
AcDbLine
 10
-4572.499465942383
 20
3284.363496397007
 30
0.0
 11
-4572.499465942383
 21
3209.363496397006
 31
0.0
  0
LINE
  5
150
330
1F
100
AcDbEntity
  8
0-B
  6
Continuous
 62
   120
370
     5
100
AcDbLine
 10
-4722.499465942383
 20
3134.363496397006
 30
0.0
 11
-4722.499465942383
 21
2834.363496397006
 31
0.0
  0
LWPOLYLINE
  5
151
330
1F
100
AcDbEntity
  8
0-B
  6
Continuous
 62
     7
370
     9
100
AcDbPolyline
 90
        4
 70
     1
 43
3.0
 10
-4720.999465942383
 20
3134.363496397006
 42
0.4142135623731
 10
-4722.499465942383
 20
3135.863496397006
 42
0.4142135623731
 10
-4723.999465942383
 20
3134.363496397006
 42
0.4142135623731
 10
-4722.499465942383
 20
3132.863496397006
 42
0.4142135623731
  0
LINE
  5
152
330
1F
100
AcDbEntity
  8
0-B
  6
Continuous
 62
   120
370
     5
100
AcDbLine
 10
-4722.499465942383
 20
3134.363496397006
 30
0.0
 11
-4647.499465942383
 21
3134.363496397006
 31
0.0
  0
LINE
  5
153
330
1F
100
AcDbEntity
  8
0-B
  6
Continuous
 62
   120
370
     5
100
AcDbLine
 10
-4625.532474531375
 20
3240.429513574988
 30
0.0
 11
-4678.565483120366
 21
3187.396504985997
 31
0.0
  0
LWPOLYLINE
  5
154
330
1F
100
AcDbEntity
  8
0-B
  6
Continuous
 62
     7
370
     9
100
AcDbPolyline
 90
        4
 70
     1
 43
3.0
 10
-4624.032474531374
 20
3240.429513574988
 42
0.4142135623731
 10
-4625.532474531375
 20
3241.929513574988
 42
0.4142135623731
 10
-4627.032474531375
 20
3240.429513574988
 42
0.4142135623731
 10
-4625.532474531375
 20
3238.929513574988
 42
0.4142135623731
  0
LWPOLYLINE
  5
155
330
1F
100
AcDbEntity
  8
0-B
  6
Continuous
 62
     7
370
     9
100
AcDbPolyline
 90
        4
 70
     1
 43
3.0
 10
-4677.065483120366
 20
3187.396504985997
 42
0.4142135623731
 10
-4678.565483120366
 20
3188.896504985997
 42
0.4142135623731
 10
-4680.065483120366
 20
3187.396504985997
 42
0.4142135623731
 10
-4678.565483120366
 20
3185.896504985998
 42
0.4142135623731
  0
LINE
  5
156
330
1F
100
AcDbEntity
  8
0-B
  6
Continuous
 62
   120
370
     5
100
AcDbLine
 10
-4625.532474531375
 20
3240.429513574988
 30
0.0
 11
-4572.499465942383
 21
3187.396504985997
 31
0.0
  0
LINE
  5
157
330
1F
100
AcDbEntity
  8
0-B
  6
Continuous
 62
   120
370
     5
100
AcDbLine
 10
-4678.565483120366
 20
3187.396504985997
 30
0.0
 11
-4625.532474531375
 21
3134.363496397007
 31
0.0
  0
LINE
  5
158
330
1F
100
AcDbEntity
  8
0-0
  6
JWW_HOJO
 62
     7
370
     9
100
AcDbLine
 10
-2772.499465942383
 20
3284.363496397007
 30
0.0
 11
-4581.598491709356
 21
3284.363496397007
 31
0.0
  0
LINE
  5
159
330
1F
100
AcDbEntity
  8
0-0
  6
JWW_HOJO
 62
     7
370
     9
100
AcDbLine
 10
-2772.499465942383
 20
3209.363496397006
 30
0.0
 11
-4550.532474531375
 21
3209.363496397006
 31
0.0
  0
LINE
  5
15A
330
1F
100
AcDbEntity
  8
0-B
  6
Continuous
 62
   120
370
     5
100
AcDbLine
 10
-4572.499465942383
 20
3284.363496397007
 30
0.0
 11
-2772.499465942383
 21
3284.363496397007
 31
0.0
  0
LINE
  5
15B
330
1F
100
AcDbEntity
  8
0-4
  6
Continuous
 62
    92
370
    13
100
AcDbLine
 10
-2772.500393841717
 20
1584.363416494564
 30
0.0
 11
-2772.500393841717
 21
1884.363416494564
 31
0.0
  0
LINE
  5
15C
330
1F
100
AcDbEntity
  8
0-4
  6
Continuous
 62
    92
370
    13
100
AcDbLine
 10
-2780.000393841717
 20
1591.863416494564
 30
0.0
 11
-2780.000393841717
 21
1876.863416494564
 31
0.0
  0
LWPOLYLINE
  5
15D
330
1F
100
AcDbEntity
  8
0-B
  6
Continuous
 62
     7
370
     9
100
AcDbPolyline
 90
        4
 70
     1
 43
3.0
 10
-2771.000393841717
 20
2034.363416494564
 42
0.4142135623731
 10
-2772.500393841717
 20
2035.863416494564
 42
0.4142135623731
 10
-2774.000393841717
 20
2034.363416494564
 42
0.4142135623731
 10
-2772.500393841717
 20
2032.863416494564
 42
0.4142135623731
  0
LINE
  5
15E
330
1F
100
AcDbEntity
  8
0-B
  6
Continuous
 62
   120
370
     5
100
AcDbLine
 10
-2772.500393841717
 20
2034.363416494564
 30
0.0
 11
-2772.500393841717
 21
1959.363416494564
 31
0.0
  0
LINE
  5
15F
330
1F
100
AcDbEntity
  8
0-4
  6
Continuous
 62
    92
370
    13
100
AcDbLine
 10
-4519.467385252728
 20
1884.363416494564
 30
0.0
 11
-4572.500393841718
 21
1831.330407905573
 31
0.0
  0
LINE
  5
160
330
1F
100
AcDbEntity
  8
0-4
  6
Continuous
 62
    92
370
    13
100
AcDbLine
 10
-4516.360783534929
 20
1876.863416494564
 30
0.0
 11
-4565.000393841718
 21
1828.223806187775
 31
0.0
  0
LINE
  5
161
330
1F
100
AcDbEntity
  8
0-4
  6
Continuous
 62
    92
370
    13
100
AcDbLine
 10
-4572.500393841718
 20
1831.330407905573
 30
0.0
 11
-4572.500393841718
 21
1584.363416494564
 31
0.0
  0
LINE
  5
162
330
1F
100
AcDbEntity
  8
0-4
  6
Continuous
 62
    92
370
    13
100
AcDbLine
 10
-4565.000393841718
 20
1828.223806187775
 30
0.0
 11
-4565.000393841718
 21
1591.863416494564
 31
0.0
  0
LINE
  5
163
330
1F
100
AcDbEntity
  8
0-0
  6
JWW_HOJO
 62
     7
370
     9
100
AcDbLine
 10
-4581.599419608691
 20
2034.363416494564
 30
0.0
 11
-4722.500393841718
 21
1893.462442261538
 31
0.0
  0
LINE
  5
164
330
1F
100
AcDbEntity
  8
0-0
  6
JWW_HOJO
 62
     7
370
     9
100
AcDbLine
 10
-4722.500393841718
 20
1893.462442261538
 30
0.0
 11
-4722.500393841718
 21
1584.363416494564
 31
0.0
  0
LINE
  5
165
330
1F
100
AcDbEntity
  8
0-0
  6
JWW_HOJO
 62
     7
370
     9
100
AcDbLine
 10
-4550.53340243071
 20
1959.363416494564
 30
0.0
 11
-4647.500393841718
 21
1862.396425083556
 31
0.0
  0
LINE
  5
166
330
1F
100
AcDbEntity
  8
0-0
  6
JWW_HOJO
 62
     7
370
     9
100
AcDbLine
 10
-4647.500393841718
 20
1862.396425083556
 30
0.0
 11
-4647.500393841718
 21
1584.363416494564
 31
0.0
  0
LWPOLYLINE
  5
167
330
1F
100
AcDbEntity
  8
0-B
  6
Continuous
 62
     7
370
     9
100
AcDbPolyline
 90
        4
 70
     1
 43
3.0
 10
-4571.000393841717
 20
2034.363416494564
 42
0.4142135623731
 10
-4572.500393841718
 20
2035.863416494564
 42
0.4142135623731
 10
-4574.000393841718
 20
2034.363416494564
 42
0.4142135623731
 10
-4572.500393841718
 20
2032.863416494564
 42
0.4142135623731
  0
LINE
  5
168
330
1F
100
AcDbEntity
  8
0-B
  6
Continuous
 62
   120
370
     5
100
AcDbLine
 10
-4572.500393841718
 20
2034.363416494564
 30
0.0
 11
-4572.500393841718
 21
1959.363416494564
 31
0.0
  0
LINE
  5
169
330
1F
100
AcDbEntity
  8
0-B
  6
Continuous
 62
   120
370
     5
100
AcDbLine
 10
-4722.500393841718
 20
1884.363416494564
 30
0.0
 11
-4722.500393841718
 21
1584.363416494564
 31
0.0
  0
LWPOLYLINE
  5
16A
330
1F
100
AcDbEntity
  8
0-B
  6
Continuous
 62
     7
370
     9
100
AcDbPolyline
 90
        4
 70
     1
 43
3.0
 10
-4721.000393841717
 20
1884.363416494564
 42
0.4142135623731
 10
-4722.500393841718
 20
1885.863416494564
 42
0.4142135623731
 10
-4724.000393841718
 20
1884.363416494564
 42
0.4142135623731
 10
-4722.500393841718
 20
1882.863416494564
 42
0.4142135623731
  0
LINE
  5
16B
330
1F
100
AcDbEntity
  8
0-B
  6
Continuous
 62
   120
370
     5
100
AcDbLine
 10
-4722.500393841718
 20
1884.363416494564
 30
0.0
 11
-4647.500393841718
 21
1884.363416494564
 31
0.0
  0
LINE
  5
16C
330
1F
100
AcDbEntity
  8
0-B
  6
Continuous
 62
   120
370
     5
100
AcDbLine
 10
-4625.53340243071
 20
1990.429433672546
 30
0.0
 11
-4678.5664110197
 21
1937.396425083556
 31
0.0
  0
LWPOLYLINE
  5
16D
330
1F
100
AcDbEntity
  8
0-B
  6
Continuous
 62
     7
370
     9
100
AcDbPolyline
 90
        4
 70
     1
 43
3.0
 10
-4624.03340243071
 20
1990.429433672546
 42
0.4142135623731
 10
-4625.53340243071
 20
1991.929433672546
 42
0.4142135623731
 10
-4627.03340243071
 20
1990.429433672546
 42
0.4142135623731
 10
-4625.53340243071
 20
1988.929433672546
 42
0.4142135623731
  0
LWPOLYLINE
  5
16E
330
1F
100
AcDbEntity
  8
0-B
  6
Continuous
 62
     7
370
     9
100
AcDbPolyline
 90
        4
 70
     1
 43
3.0
 10
-4677.066411019699
 20
1937.396425083556
 42
0.4142135623731
 10
-4678.5664110197
 20
1938.896425083555
 42
0.4142135623731
 10
-4680.0664110197
 20
1937.396425083556
 42
0.4142135623731
 10
-4678.5664110197
 20
1935.896425083556
 42
0.4142135623731
  0
LINE
  5
16F
330
1F
100
AcDbEntity
  8
0-B
  6
Continuous
 62
   120
370
     5
100
AcDbLine
 10
-4625.53340243071
 20
1990.429433672546
 30
0.0
 11
-4572.500393841719
 21
1937.396425083556
 31
0.0
  0
LINE
  5
170
330
1F
100
AcDbEntity
  8
0-B
  6
Continuous
 62
   120
370
     5
100
AcDbLine
 10
-4678.5664110197
 20
1937.396425083556
 30
0.0
 11
-4625.53340243071
 21
1884.363416494565
 31
0.0
  0
LINE
  5
171
330
1F
100
AcDbEntity
  8
0-0
  6
JWW_HOJO
 62
     7
370
     9
100
AcDbLine
 10
-2772.500393841717
 20
2034.363416494564
 30
0.0
 11
-4581.599419608691
 21
2034.363416494564
 31
0.0
  0
LINE
  5
172
330
1F
100
AcDbEntity
  8
0-0
  6
JWW_HOJO
 62
     7
370
     9
100
AcDbLine
 10
-2772.500393841717
 20
1959.363416494564
 30
0.0
 11
-4550.53340243071
 21
1959.363416494564
 31
0.0
  0
LINE
  5
173
330
1F
100
AcDbEntity
  8
0-B
  6
Continuous
 62
   120
370
     5
100
AcDbLine
 10
-4572.500393841718
 20
2034.363416494564
 30
0.0
 11
-2772.500393841717
 21
2034.363416494564
 31
0.0
  0
LINE
  5
174
330
1F
100
AcDbEntity
  8
0-4
  6
Continuous
 62
    92
370
    13
100
AcDbLine
 10
-2772.500393841717
 20
334.3633365921215
 30
0.0
 11
-2772.500393841717
 21
634.3633365921215
 31
0.0
  0
LINE
  5
175
330
1F
100
AcDbEntity
  8
0-4
  6
Continuous
 62
    92
370
    13
100
AcDbLine
 10
-2780.000393841717
 20
341.8633365921215
 30
0.0
 11
-2780.000393841717
 21
626.8633365921215
 31
0.0
  0
LWPOLYLINE
  5
176
330
1F
100
AcDbEntity
  8
0-B
  6
Continuous
 62
     7
370
     9
100
AcDbPolyline
 90
        4
 70
     1
 43
3.0
 10
-2771.000393841717
 20
784.3633365921215
 42
0.4142135623731
 10
-2772.500393841717
 20
785.8633365921215
 42
0.4142135623731
 10
-2774.000393841717
 20
784.3633365921215
 42
0.4142135623731
 10
-2772.500393841717
 20
782.8633365921215
 42
0.4142135623731
  0
LINE
  5
177
330
1F
100
AcDbEntity
  8
0-B
  6
Continuous
 62
   120
370
     5
100
AcDbLine
 10
-2772.500393841717
 20
784.3633365921215
 30
0.0
 11
-2772.500393841717
 21
709.3633365921215
 31
0.0
  0
LINE
  5
178
330
1F
100
AcDbEntity
  8
0-4
  6
Continuous
 62
    92
370
    13
100
AcDbLine
 10
-4519.467385252728
 20
634.3633365921215
 30
0.0
 11
-4572.500393841718
 21
581.330328003131
 31
0.0
  0
LINE
  5
179
330
1F
100
AcDbEntity
  8
0-4
  6
Continuous
 62
    92
370
    13
100
AcDbLine
 10
-4516.360783534929
 20
626.8633365921215
 30
0.0
 11
-4565.000393841718
 21
578.2237262853325
 31
0.0
  0
LINE
  5
17A
330
1F
100
AcDbEntity
  8
0-4
  6
Continuous
 62
    92
370
    13
100
AcDbLine
 10
-4572.500393841718
 20
581.330328003131
 30
0.0
 11
-4572.500393841718
 21
334.3633365921215
 31
0.0
  0
LINE
  5
17B
330
1F
100
AcDbEntity
  8
0-4
  6
Continuous
 62
    92
370
    13
100
AcDbLine
 10
-4565.000393841718
 20
578.2237262853325
 30
0.0
 11
-4565.000393841718
 21
341.8633365921215
 31
0.0
  0
LINE
  5
17C
330
1F
100
AcDbEntity
  8
0-0
  6
JWW_HOJO
 62
     7
370
     9
100
AcDbLine
 10
-4581.599419608691
 20
784.3633365921215
 30
0.0
 11
-4722.500393841718
 21
643.4623623590951
 31
0.0
  0
LINE
  5
17D
330
1F
100
AcDbEntity
  8
0-0
  6
JWW_HOJO
 62
     7
370
     9
100
AcDbLine
 10
-4722.500393841718
 20
643.4623623590951
 30
0.0
 11
-4722.500393841718
 21
334.3633365921215
 31
0.0
  0
LINE
  5
17E
330
1F
100
AcDbEntity
  8
0-0
  6
JWW_HOJO
 62
     7
370
     9
100
AcDbLine
 10
-4550.53340243071
 20
709.3633365921215
 30
0.0
 11
-4647.500393841718
 21
612.396345181113
 31
0.0
  0
LINE
  5
17F
330
1F
100
AcDbEntity
  8
0-0
  6
JWW_HOJO
 62
     7
370
     9
100
AcDbLine
 10
-4647.500393841718
 20
612.396345181113
 30
0.0
 11
-4647.500393841718
 21
334.3633365921215
 31
0.0
  0
LWPOLYLINE
  5
180
330
1F
100
AcDbEntity
  8
0-B
  6
Continuous
 62
     7
370
     9
100
AcDbPolyline
 90
        4
 70
     1
 43
3.0
 10
-4571.000393841717
 20
784.3633365921215
 42
0.4142135623731
 10
-4572.500393841718
 20
785.8633365921215
 42
0.4142135623731
 10
-4574.000393841718
 20
784.3633365921215
 42
0.4142135623731
 10
-4572.500393841718
 20
782.8633365921215
 42
0.4142135623731
  0
LINE
  5
181
330
1F
100
AcDbEntity
  8
0-B
  6
Continuous
 62
   120
370
     5
100
AcDbLine
 10
-4572.500393841718
 20
784.3633365921215
 30
0.0
 11
-4572.500393841718
 21
709.3633365921215
 31
0.0
  0
LINE
  5
182
330
1F
100
AcDbEntity
  8
0-B
  6
Continuous
 62
   120
370
     5
100
AcDbLine
 10
-4722.500393841718
 20
634.3633365921215
 30
0.0
 11
-4722.500393841718
 21
334.3633365921215
 31
0.0
  0
LWPOLYLINE
  5
183
330
1F
100
AcDbEntity
  8
0-B
  6
Continuous
 62
     7
370
     9
100
AcDbPolyline
 90
        4
 70
     1
 43
3.0
 10
-4721.000393841717
 20
634.3633365921215
 42
0.4142135623731
 10
-4722.500393841718
 20
635.8633365921215
 42
0.4142135623731
 10
-4724.000393841718
 20
634.3633365921215
 42
0.4142135623731
 10
-4722.500393841718
 20
632.8633365921215
 42
0.4142135623731
  0
LINE
  5
184
330
1F
100
AcDbEntity
  8
0-B
  6
Continuous
 62
   120
370
     5
100
AcDbLine
 10
-4722.500393841718
 20
634.3633365921215
 30
0.0
 11
-4647.500393841718
 21
634.3633365921215
 31
0.0
  0
LINE
  5
185
330
1F
100
AcDbEntity
  8
0-B
  6
Continuous
 62
   120
370
     5
100
AcDbLine
 10
-4625.53340243071
 20
740.4293537701037
 30
0.0
 11
-4678.5664110197
 21
687.396345181113
 31
0.0
  0
LWPOLYLINE
  5
186
330
1F
100
AcDbEntity
  8
0-B
  6
Continuous
 62
     7
370
     9
100
AcDbPolyline
 90
        4
 70
     1
 43
3.0
 10
-4624.03340243071
 20
740.4293537701037
 42
0.4142135623731
 10
-4625.53340243071
 20
741.9293537701037
 42
0.4142135623731
 10
-4627.03340243071
 20
740.4293537701037
 42
0.4142135623731
 10
-4625.53340243071
 20
738.9293537701036
 42
0.4142135623731
  0
LWPOLYLINE
  5
187
330
1F
100
AcDbEntity
  8
0-B
  6
Continuous
 62
     7
370
     9
100
AcDbPolyline
 90
        4
 70
     1
 43
3.0
 10
-4677.066411019699
 20
687.396345181113
 42
0.4142135623731
 10
-4678.5664110197
 20
688.896345181113
 42
0.4142135623731
 10
-4680.0664110197
 20
687.396345181113
 42
0.4142135623731
 10
-4678.5664110197
 20
685.896345181113
 42
0.4142135623731
  0
LINE
  5
188
330
1F
100
AcDbEntity
  8
0-B
  6
Continuous
 62
   120
370
     5
100
AcDbLine
 10
-4625.53340243071
 20
740.4293537701037
 30
0.0
 11
-4572.500393841719
 21
687.396345181113
 31
0.0
  0
LINE
  5
189
330
1F
100
AcDbEntity
  8
0-B
  6
Continuous
 62
   120
370
     5
100
AcDbLine
 10
-4678.5664110197
 20
687.396345181113
 30
0.0
 11
-4625.53340243071
 21
634.3633365921223
 31
0.0
  0
LINE
  5
18A
330
1F
100
AcDbEntity
  8
0-0
  6
JWW_HOJO
 62
     7
370
     9
100
AcDbLine
 10
-2772.500393841717
 20
784.3633365921215
 30
0.0
 11
-4581.599419608691
 21
784.3633365921215
 31
0.0
  0
LINE
  5
18B
330
1F
100
AcDbEntity
  8
0-0
  6
JWW_HOJO
 62
     7
370
     9
100
AcDbLine
 10
-2772.500393841717
 20
709.3633365921215
 30
0.0
 11
-4550.53340243071
 21
709.3633365921215
 31
0.0
  0
LINE
  5
18C
330
1F
100
AcDbEntity
  8
0-B
  6
Continuous
 62
   120
370
     5
100
AcDbLine
 10
-4572.500393841718
 20
784.3633365921215
 30
0.0
 11
-2772.500393841717
 21
784.3633365921215
 31
0.0
  0
LINE
  5
18D
330
1F
100
AcDbEntity
  8
0-4
  6
Continuous
 62
    92
370
    13
100
AcDbLine
 10
-2772.500393841717
 20
-917.36112958058
 30
0.0
 11
-2772.500393841717
 21
-617.36112958058
 31
0.0
  0
LINE
  5
18E
330
1F
100
AcDbEntity
  8
0-4
  6
Continuous
 62
    92
370
    13
100
AcDbLine
 10
-2780.000393841717
 20
-909.86112958058
 30
0.0
 11
-2780.000393841717
 21
-624.86112958058
 31
0.0
  0
LWPOLYLINE
  5
18F
330
1F
100
AcDbEntity
  8
0-B
  6
Continuous
 62
     7
370
     9
100
AcDbPolyline
 90
        4
 70
     1
 43
3.0
 10
-2771.000393841717
 20
-467.3611295805796
 42
0.4142135623731
 10
-2772.500393841717
 20
-465.8611295805796
 42
0.4142135623731
 10
-2774.000393841717
 20
-467.3611295805796
 42
0.4142135623731
 10
-2772.500393841717
 20
-468.8611295805796
 42
0.4142135623731
  0
LINE
  5
190
330
1F
100
AcDbEntity
  8
0-B
  6
Continuous
 62
   120
370
     5
100
AcDbLine
 10
-2772.500393841717
 20
-467.3611295805796
 30
0.0
 11
-2772.500393841717
 21
-542.3611295805796
 31
0.0
  0
LINE
  5
191
330
1F
100
AcDbEntity
  8
0-4
  6
Continuous
 62
    92
370
    13
100
AcDbLine
 10
-4519.467385252728
 20
-617.36112958058
 30
0.0
 11
-4572.500393841718
 21
-670.3941381695706
 31
0.0
  0
LINE
  5
192
330
1F
100
AcDbEntity
  8
0-4
  6
Continuous
 62
    92
370
    13
100
AcDbLine
 10
-4516.360783534929
 20
-624.86112958058
 30
0.0
 11
-4565.000393841718
 21
-673.5007398873689
 31
0.0
  0
LINE
  5
193
330
1F
100
AcDbEntity
  8
0-4
  6
Continuous
 62
    92
370
    13
100
AcDbLine
 10
-4572.500393841718
 20
-670.3941381695706
 30
0.0
 11
-4572.500393841718
 21
-917.36112958058
 31
0.0
  0
LINE
  5
194
330
1F
100
AcDbEntity
  8
0-4
  6
Continuous
 62
    92
370
    13
100
AcDbLine
 10
-4565.000393841718
 20
-673.5007398873689
 30
0.0
 11
-4565.000393841718
 21
-909.86112958058
 31
0.0
  0
LINE
  5
195
330
1F
100
AcDbEntity
  8
0-0
  6
JWW_HOJO
 62
     7
370
     9
100
AcDbLine
 10
-4581.599419608691
 20
-467.3611295805796
 30
0.0
 11
-4722.500393841718
 21
-608.2621038136068
 31
0.0
  0
LINE
  5
196
330
1F
100
AcDbEntity
  8
0-0
  6
JWW_HOJO
 62
     7
370
     9
100
AcDbLine
 10
-4722.500393841718
 20
-608.2621038136068
 30
0.0
 11
-4722.500393841718
 21
-917.36112958058
 31
0.0
  0
LINE
  5
197
330
1F
100
AcDbEntity
  8
0-0
  6
JWW_HOJO
 62
     7
370
     9
100
AcDbLine
 10
-4550.53340243071
 20
-542.3611295805796
 30
0.0
 11
-4647.500393841718
 21
-639.3281209915885
 31
0.0
  0
LINE
  5
198
330
1F
100
AcDbEntity
  8
0-0
  6
JWW_HOJO
 62
     7
370
     9
100
AcDbLine
 10
-4647.500393841718
 20
-639.3281209915885
 30
0.0
 11
-4647.500393841718
 21
-917.36112958058
 31
0.0
  0
LWPOLYLINE
  5
199
330
1F
100
AcDbEntity
  8
0-B
  6
Continuous
 62
     7
370
     9
100
AcDbPolyline
 90
        4
 70
     1
 43
3.0
 10
-4571.000393841717
 20
-467.3611295805796
 42
0.4142135623731
 10
-4572.500393841718
 20
-465.8611295805796
 42
0.4142135623731
 10
-4574.000393841718
 20
-467.3611295805796
 42
0.4142135623731
 10
-4572.500393841718
 20
-468.8611295805796
 42
0.4142135623731
  0
LINE
  5
19A
330
1F
100
AcDbEntity
  8
0-B
  6
Continuous
 62
   120
370
     5
100
AcDbLine
 10
-4572.500393841718
 20
-467.3611295805796
 30
0.0
 11
-4572.500393841718
 21
-542.3611295805796
 31
0.0
  0
LINE
  5
19B
330
1F
100
AcDbEntity
  8
0-B
  6
Continuous
 62
   120
370
     5
100
AcDbLine
 10
-4722.500393841718
 20
-617.36112958058
 30
0.0
 11
-4722.500393841718
 21
-917.36112958058
 31
0.0
  0
LWPOLYLINE
  5
19C
330
1F
100
AcDbEntity
  8
0-B
  6
Continuous
 62
     7
370
     9
100
AcDbPolyline
 90
        4
 70
     1
 43
3.0
 10
-4721.000393841717
 20
-617.36112958058
 42
0.4142135623731
 10
-4722.500393841718
 20
-615.86112958058
 42
0.4142135623731
 10
-4724.000393841718
 20
-617.36112958058
 42
0.4142135623731
 10
-4722.500393841718
 20
-618.86112958058
 42
0.4142135623731
  0
LINE
  5
19D
330
1F
100
AcDbEntity
  8
0-B
  6
Continuous
 62
   120
370
     5
100
AcDbLine
 10
-4722.500393841718
 20
-617.36112958058
 30
0.0
 11
-4647.500393841718
 21
-617.36112958058
 31
0.0
  0
LINE
  5
19E
330
1F
100
AcDbEntity
  8
0-B
  6
Continuous
 62
   120
370
     5
100
AcDbLine
 10
-4625.53340243071
 20
-511.2951124025983
 30
0.0
 11
-4678.5664110197
 21
-564.3281209915881
 31
0.0
  0
LWPOLYLINE
  5
19F
330
1F
100
AcDbEntity
  8
0-B
  6
Continuous
 62
     7
370
     9
100
AcDbPolyline
 90
        4
 70
     1
 43
3.0
 10
-4624.03340243071
 20
-511.2951124025983
 42
0.4142135623731
 10
-4625.53340243071
 20
-509.7951124025983
 42
0.4142135623731
 10
-4627.03340243071
 20
-511.2951124025983
 42
0.4142135623731
 10
-4625.53340243071
 20
-512.7951124025983
 42
0.4142135623731
  0
LWPOLYLINE
  5
1A0
330
1F
100
AcDbEntity
  8
0-B
  6
Continuous
 62
     7
370
     9
100
AcDbPolyline
 90
        4
 70
     1
 43
3.0
 10
-4677.066411019699
 20
-564.3281209915881
 42
0.4142135623731
 10
-4678.5664110197
 20
-562.8281209915881
 42
0.4142135623731
 10
-4680.0664110197
 20
-564.3281209915881
 42
0.4142135623731
 10
-4678.5664110197
 20
-565.8281209915881
 42
0.4142135623731
  0
LINE
  5
1A1
330
1F
100
AcDbEntity
  8
0-B
  6
Continuous
 62
   120
370
     5
100
AcDbLine
 10
-4625.53340243071
 20
-511.2951124025983
 30
0.0
 11
-4572.500393841719
 21
-564.3281209915881
 31
0.0
  0
LINE
  5
1A2
330
1F
100
AcDbEntity
  8
0-B
  6
Continuous
 62
   120
370
     5
100
AcDbLine
 10
-4678.5664110197
 20
-564.3281209915881
 30
0.0
 11
-4625.53340243071
 21
-617.3611295805791
 31
0.0
  0
LINE
  5
1A3
330
1F
100
AcDbEntity
  8
0-0
  6
JWW_HOJO
 62
     7
370
     9
100
AcDbLine
 10
-2772.500393841717
 20
-467.3611295805796
 30
0.0
 11
-4581.599419608691
 21
-467.3611295805796
 31
0.0
  0
LINE
  5
1A4
330
1F
100
AcDbEntity
  8
0-0
  6
JWW_HOJO
 62
     7
370
     9
100
AcDbLine
 10
-2772.500393841717
 20
-542.3611295805796
 30
0.0
 11
-4550.53340243071
 21
-542.3611295805796
 31
0.0
  0
LINE
  5
1A5
330
1F
100
AcDbEntity
  8
0-B
  6
Continuous
 62
   120
370
     5
100
AcDbLine
 10
-4572.500393841718
 20
-467.3611295805796
 30
0.0
 11
-2772.500393841717
 21
-467.3611295805796
 31
0.0
  0
LINE
  5
1A6
330
1F
100
AcDbEntity
  8
0-4
  6
Continuous
 62
    92
370
    13
100
AcDbLine
 10
-2772.500393841717
 20
-2165.636823212765
 30
0.0
 11
-2772.500393841717
 21
-1865.636823212765
 31
0.0
  0
LINE
  5
1A7
330
1F
100
AcDbEntity
  8
0-4
  6
Continuous
 62
    92
370
    13
100
AcDbLine
 10
-2780.000393841717
 20
-2158.136823212765
 30
0.0
 11
-2780.000393841717
 21
-1873.136823212765
 31
0.0
  0
LWPOLYLINE
  5
1A8
330
1F
100
AcDbEntity
  8
0-B
  6
Continuous
 62
     7
370
     9
100
AcDbPolyline
 90
        4
 70
     1
 43
3.0
 10
-2771.000393841717
 20
-1715.636823212765
 42
0.4142135623731
 10
-2772.500393841717
 20
-1714.136823212765
 42
0.4142135623731
 10
-2774.000393841717
 20
-1715.636823212765
 42
0.4142135623731
 10
-2772.500393841717
 20
-1717.136823212765
 42
0.4142135623731
  0
LINE
  5
1A9
330
1F
100
AcDbEntity
  8
0-B
  6
Continuous
 62
   120
370
     5
100
AcDbLine
 10
-2772.500393841717
 20
-1715.636823212765
 30
0.0
 11
-2772.500393841717
 21
-1790.636823212765
 31
0.0
  0
LINE
  5
1AA
330
1F
100
AcDbEntity
  8
0-4
  6
Continuous
 62
    92
370
    13
100
AcDbLine
 10
-4519.467385252728
 20
-1865.636823212765
 30
0.0
 11
-4572.500393841718
 21
-1918.669831801755
 31
0.0
  0
LINE
  5
1AB
330
1F
100
AcDbEntity
  8
0-4
  6
Continuous
 62
    92
370
    13
100
AcDbLine
 10
-4516.360783534929
 20
-1873.136823212765
 30
0.0
 11
-4565.000393841718
 21
-1921.776433519554
 31
0.0
  0
LINE
  5
1AC
330
1F
100
AcDbEntity
  8
0-4
  6
Continuous
 62
    92
370
    13
100
AcDbLine
 10
-4572.500393841718
 20
-1918.669831801755
 30
0.0
 11
-4572.500393841718
 21
-2165.636823212765
 31
0.0
  0
LINE
  5
1AD
330
1F
100
AcDbEntity
  8
0-4
  6
Continuous
 62
    92
370
    13
100
AcDbLine
 10
-4565.000393841718
 20
-1921.776433519554
 30
0.0
 11
-4565.000393841718
 21
-2158.136823212765
 31
0.0
  0
LINE
  5
1AE
330
1F
100
AcDbEntity
  8
0-0
  6
JWW_HOJO
 62
     7
370
     9
100
AcDbLine
 10
-4581.599419608691
 20
-1715.636823212765
 30
0.0
 11
-4722.500393841718
 21
-1856.537797445791
 31
0.0
  0
LINE
  5
1AF
330
1F
100
AcDbEntity
  8
0-0
  6
JWW_HOJO
 62
     7
370
     9
100
AcDbLine
 10
-4722.500393841718
 20
-1856.537797445791
 30
0.0
 11
-4722.500393841718
 21
-2165.636823212765
 31
0.0
  0
LINE
  5
1B0
330
1F
100
AcDbEntity
  8
0-0
  6
JWW_HOJO
 62
     7
370
     9
100
AcDbLine
 10
-4550.53340243071
 20
-1790.636823212765
 30
0.0
 11
-4647.500393841718
 21
-1887.603814623773
 31
0.0
  0
LINE
  5
1B1
330
1F
100
AcDbEntity
  8
0-0
  6
JWW_HOJO
 62
     7
370
     9
100
AcDbLine
 10
-4647.500393841718
 20
-1887.603814623773
 30
0.0
 11
-4647.500393841718
 21
-2165.636823212765
 31
0.0
  0
LWPOLYLINE
  5
1B2
330
1F
100
AcDbEntity
  8
0-B
  6
Continuous
 62
     7
370
     9
100
AcDbPolyline
 90
        4
 70
     1
 43
3.0
 10
-4571.000393841717
 20
-1715.636823212765
 42
0.4142135623731
 10
-4572.500393841718
 20
-1714.136823212765
 42
0.4142135623731
 10
-4574.000393841718
 20
-1715.636823212765
 42
0.4142135623731
 10
-4572.500393841718
 20
-1717.136823212765
 42
0.4142135623731
  0
LINE
  5
1B3
330
1F
100
AcDbEntity
  8
0-B
  6
Continuous
 62
   120
370
     5
100
AcDbLine
 10
-4572.500393841718
 20
-1715.636823212765
 30
0.0
 11
-4572.500393841718
 21
-1790.636823212765
 31
0.0
  0
LINE
  5
1B4
330
1F
100
AcDbEntity
  8
0-B
  6
Continuous
 62
   120
370
     5
100
AcDbLine
 10
-4722.500393841718
 20
-1865.636823212765
 30
0.0
 11
-4722.500393841718
 21
-2165.636823212765
 31
0.0
  0
LWPOLYLINE
  5
1B5
330
1F
100
AcDbEntity
  8
0-B
  6
Continuous
 62
     7
370
     9
100
AcDbPolyline
 90
        4
 70
     1
 43
3.0
 10
-4721.000393841717
 20
-1865.636823212765
 42
0.4142135623731
 10
-4722.500393841718
 20
-1864.136823212765
 42
0.4142135623731
 10
-4724.000393841718
 20
-1865.636823212765
 42
0.4142135623731
 10
-4722.500393841718
 20
-1867.136823212765
 42
0.4142135623731
  0
LINE
  5
1B6
330
1F
100
AcDbEntity
  8
0-B
  6
Continuous
 62
   120
370
     5
100
AcDbLine
 10
-4722.500393841718
 20
-1865.636823212765
 30
0.0
 11
-4647.500393841718
 21
-1865.636823212765
 31
0.0
  0
LINE
  5
1B7
330
1F
100
AcDbEntity
  8
0-B
  6
Continuous
 62
   120
370
     5
100
AcDbLine
 10
-4625.53340243071
 20
-1759.570806034783
 30
0.0
 11
-4678.5664110197
 21
-1812.603814623773
 31
0.0
  0
LWPOLYLINE
  5
1B8
330
1F
100
AcDbEntity
  8
0-B
  6
Continuous
 62
     7
370
     9
100
AcDbPolyline
 90
        4
 70
     1
 43
3.0
 10
-4624.03340243071
 20
-1759.570806034783
 42
0.4142135623731
 10
-4625.53340243071
 20
-1758.070806034783
 42
0.4142135623731
 10
-4627.03340243071
 20
-1759.570806034783
 42
0.4142135623731
 10
-4625.53340243071
 20
-1761.070806034783
 42
0.4142135623731
  0
LWPOLYLINE
  5
1B9
330
1F
100
AcDbEntity
  8
0-B
  6
Continuous
 62
     7
370
     9
100
AcDbPolyline
 90
        4
 70
     1
 43
3.0
 10
-4677.066411019699
 20
-1812.603814623773
 42
0.4142135623731
 10
-4678.5664110197
 20
-1811.103814623773
 42
0.4142135623731
 10
-4680.0664110197
 20
-1812.603814623773
 42
0.4142135623731
 10
-4678.5664110197
 20
-1814.103814623773
 42
0.4142135623731
  0
LINE
  5
1BA
330
1F
100
AcDbEntity
  8
0-B
  6
Continuous
 62
   120
370
     5
100
AcDbLine
 10
-4625.53340243071
 20
-1759.570806034783
 30
0.0
 11
-4572.500393841719
 21
-1812.603814623773
 31
0.0
  0
LINE
  5
1BB
330
1F
100
AcDbEntity
  8
0-B
  6
Continuous
 62
   120
370
     5
100
AcDbLine
 10
-4678.5664110197
 20
-1812.603814623773
 30
0.0
 11
-4625.53340243071
 21
-1865.636823212764
 31
0.0
  0
LINE
  5
1BC
330
1F
100
AcDbEntity
  8
0-0
  6
JWW_HOJO
 62
     7
370
     9
100
AcDbLine
 10
-2772.500393841717
 20
-1715.636823212765
 30
0.0
 11
-4581.599419608691
 21
-1715.636823212765
 31
0.0
  0
LINE
  5
1BD
330
1F
100
AcDbEntity
  8
0-0
  6
JWW_HOJO
 62
     7
370
     9
100
AcDbLine
 10
-2772.500393841717
 20
-1790.636823212765
 30
0.0
 11
-4550.53340243071
 21
-1790.636823212765
 31
0.0
  0
LINE
  5
1BE
330
1F
100
AcDbEntity
  8
0-B
  6
Continuous
 62
   120
370
     5
100
AcDbLine
 10
-4572.500393841718
 20
-1715.636823212765
 30
0.0
 11
-2772.500393841717
 21
-1715.636823212765
 31
0.0
  0
LINE
  5
1BF
330
1F
100
AcDbEntity
  8
0-4
  6
Continuous
 62
    92
370
    13
100
AcDbLine
 10
-2772.500393841717
 20
-3415.636903115208
 30
0.0
 11
-2772.500393841717
 21
-3115.636903115208
 31
0.0
  0
LINE
  5
1C0
330
1F
100
AcDbEntity
  8
0-4
  6
Continuous
 62
    92
370
    13
100
AcDbLine
 10
-2780.000393841717
 20
-3408.136903115208
 30
0.0
 11
-2780.000393841717
 21
-3123.136903115208
 31
0.0
  0
LWPOLYLINE
  5
1C1
330
1F
100
AcDbEntity
  8
0-B
  6
Continuous
 62
     7
370
     9
100
AcDbPolyline
 90
        4
 70
     1
 43
3.0
 10
-2771.000393841717
 20
-2965.636903115208
 42
0.4142135623731
 10
-2772.500393841717
 20
-2964.136903115208
 42
0.4142135623731
 10
-2774.000393841717
 20
-2965.636903115208
 42
0.4142135623731
 10
-2772.500393841717
 20
-2967.136903115207
 42
0.4142135623731
  0
LINE
  5
1C2
330
1F
100
AcDbEntity
  8
0-B
  6
Continuous
 62
   120
370
     5
100
AcDbLine
 10
-2772.500393841717
 20
-2965.636903115208
 30
0.0
 11
-2772.500393841717
 21
-3040.636903115208
 31
0.0
  0
LINE
  5
1C3
330
1F
100
AcDbEntity
  8
0-4
  6
Continuous
 62
    92
370
    13
100
AcDbLine
 10
-4519.467385252728
 20
-3115.636903115208
 30
0.0
 11
-4572.500393841718
 21
-3168.669911704198
 31
0.0
  0
LINE
  5
1C4
330
1F
100
AcDbEntity
  8
0-4
  6
Continuous
 62
    92
370
    13
100
AcDbLine
 10
-4516.360783534929
 20
-3123.136903115208
 30
0.0
 11
-4565.000393841718
 21
-3171.776513421996
 31
0.0
  0
LINE
  5
1C5
330
1F
100
AcDbEntity
  8
0-4
  6
Continuous
 62
    92
370
    13
100
AcDbLine
 10
-4572.500393841718
 20
-3168.669911704198
 30
0.0
 11
-4572.500393841718
 21
-3415.636903115208
 31
0.0
  0
LINE
  5
1C6
330
1F
100
AcDbEntity
  8
0-4
  6
Continuous
 62
    92
370
    13
100
AcDbLine
 10
-4565.000393841718
 20
-3171.776513421996
 30
0.0
 11
-4565.000393841718
 21
-3408.136903115208
 31
0.0
  0
LINE
  5
1C7
330
1F
100
AcDbEntity
  8
0-0
  6
JWW_HOJO
 62
     7
370
     9
100
AcDbLine
 10
-4581.599419608691
 20
-2965.636903115208
 30
0.0
 11
-4722.500393841718
 21
-3106.537877348234
 31
0.0
  0
LINE
  5
1C8
330
1F
100
AcDbEntity
  8
0-0
  6
JWW_HOJO
 62
     7
370
     9
100
AcDbLine
 10
-4722.500393841718
 20
-3106.537877348234
 30
0.0
 11
-4722.500393841718
 21
-3415.636903115208
 31
0.0
  0
LINE
  5
1C9
330
1F
100
AcDbEntity
  8
0-0
  6
JWW_HOJO
 62
     7
370
     9
100
AcDbLine
 10
-4550.53340243071
 20
-3040.636903115208
 30
0.0
 11
-4647.500393841718
 21
-3137.603894526216
 31
0.0
  0
LINE
  5
1CA
330
1F
100
AcDbEntity
  8
0-0
  6
JWW_HOJO
 62
     7
370
     9
100
AcDbLine
 10
-4647.500393841718
 20
-3137.603894526216
 30
0.0
 11
-4647.500393841718
 21
-3415.636903115208
 31
0.0
  0
LWPOLYLINE
  5
1CB
330
1F
100
AcDbEntity
  8
0-B
  6
Continuous
 62
     7
370
     9
100
AcDbPolyline
 90
        4
 70
     1
 43
3.0
 10
-4571.000393841717
 20
-2965.636903115208
 42
0.4142135623731
 10
-4572.500393841718
 20
-2964.136903115208
 42
0.4142135623731
 10
-4574.000393841718
 20
-2965.636903115208
 42
0.4142135623731
 10
-4572.500393841718
 20
-2967.136903115207
 42
0.4142135623731
  0
LINE
  5
1CC
330
1F
100
AcDbEntity
  8
0-B
  6
Continuous
 62
   120
370
     5
100
AcDbLine
 10
-4572.500393841718
 20
-2965.636903115208
 30
0.0
 11
-4572.500393841718
 21
-3040.636903115208
 31
0.0
  0
LINE
  5
1CD
330
1F
100
AcDbEntity
  8
0-B
  6
Continuous
 62
   120
370
     5
100
AcDbLine
 10
-4722.500393841718
 20
-3115.636903115208
 30
0.0
 11
-4722.500393841718
 21
-3415.636903115208
 31
0.0
  0
LWPOLYLINE
  5
1CE
330
1F
100
AcDbEntity
  8
0-B
  6
Continuous
 62
     7
370
     9
100
AcDbPolyline
 90
        4
 70
     1
 43
3.0
 10
-4721.000393841717
 20
-3115.636903115208
 42
0.4142135623731
 10
-4722.500393841718
 20
-3114.136903115208
 42
0.4142135623731
 10
-4724.000393841718
 20
-3115.636903115208
 42
0.4142135623731
 10
-4722.500393841718
 20
-3117.136903115207
 42
0.4142135623731
  0
LINE
  5
1CF
330
1F
100
AcDbEntity
  8
0-B
  6
Continuous
 62
   120
370
     5
100
AcDbLine
 10
-4722.500393841718
 20
-3115.636903115208
 30
0.0
 11
-4647.500393841718
 21
-3115.636903115208
 31
0.0
  0
LINE
  5
1D0
330
1F
100
AcDbEntity
  8
0-B
  6
Continuous
 62
   120
370
     5
100
AcDbLine
 10
-4625.53340243071
 20
-3009.570885937225
 30
0.0
 11
-4678.5664110197
 21
-3062.603894526216
 31
0.0
  0
LWPOLYLINE
  5
1D1
330
1F
100
AcDbEntity
  8
0-B
  6
Continuous
 62
     7
370
     9
100
AcDbPolyline
 90
        4
 70
     1
 43
3.0
 10
-4624.03340243071
 20
-3009.570885937225
 42
0.4142135623731
 10
-4625.53340243071
 20
-3008.070885937225
 42
0.4142135623731
 10
-4627.03340243071
 20
-3009.570885937225
 42
0.4142135623731
 10
-4625.53340243071
 20
-3011.070885937225
 42
0.4142135623731
  0
LWPOLYLINE
  5
1D2
330
1F
100
AcDbEntity
  8
0-B
  6
Continuous
 62
     7
370
     9
100
AcDbPolyline
 90
        4
 70
     1
 43
3.0
 10
-4677.066411019699
 20
-3062.603894526216
 42
0.4142135623731
 10
-4678.5664110197
 20
-3061.103894526216
 42
0.4142135623731
 10
-4680.0664110197
 20
-3062.603894526216
 42
0.4142135623731
 10
-4678.5664110197
 20
-3064.103894526216
 42
0.4142135623731
  0
LINE
  5
1D3
330
1F
100
AcDbEntity
  8
0-B
  6
Continuous
 62
   120
370
     5
100
AcDbLine
 10
-4625.53340243071
 20
-3009.570885937225
 30
0.0
 11
-4572.500393841719
 21
-3062.603894526216
 31
0.0
  0
LINE
  5
1D4
330
1F
100
AcDbEntity
  8
0-B
  6
Continuous
 62
   120
370
     5
100
AcDbLine
 10
-4678.5664110197
 20
-3062.603894526216
 30
0.0
 11
-4625.53340243071
 21
-3115.636903115207
 31
0.0
  0
LINE
  5
1D5
330
1F
100
AcDbEntity
  8
0-0
  6
JWW_HOJO
 62
     7
370
     9
100
AcDbLine
 10
-2772.500393841717
 20
-2965.636903115208
 30
0.0
 11
-4581.599419608691
 21
-2965.636903115208
 31
0.0
  0
LINE
  5
1D6
330
1F
100
AcDbEntity
  8
0-0
  6
JWW_HOJO
 62
     7
370
     9
100
AcDbLine
 10
-2772.500393841717
 20
-3040.636903115208
 30
0.0
 11
-4550.53340243071
 21
-3040.636903115208
 31
0.0
  0
LINE
  5
1D7
330
1F
100
AcDbEntity
  8
0-B
  6
Continuous
 62
   120
370
     5
100
AcDbLine
 10
-4572.500393841718
 20
-2965.636903115208
 30
0.0
 11
-2772.500393841717
 21
-2965.636903115208
 31
0.0
  0
LINE
  5
1D8
330
1F
100
AcDbEntity
  8
0-4
  6
Continuous
 62
    92
370
    13
100
AcDbLine
 10
3072.501012441275
 20
2834.363496397006
 30
0.0
 11
3072.501012441275
 21
3134.363496397006
 31
0.0
  0
LINE
  5
1D9
330
1F
100
AcDbEntity
  8
0-4
  6
Continuous
 62
    92
370
    13
100
AcDbLine
 10
3065.001012441275
 20
2841.863496397006
 30
0.0
 11
3065.001012441275
 21
3126.863496397006
 31
0.0
  0
LWPOLYLINE
  5
1DA
330
1F
100
AcDbEntity
  8
0-B
  6
Continuous
 62
     7
370
     9
100
AcDbPolyline
 90
        4
 70
     1
 43
3.0
 10
3074.001012441275
 20
3284.363496397007
 42
0.4142135623731
 10
3072.501012441275
 20
3285.863496397007
 42
0.4142135623731
 10
3071.001012441275
 20
3284.363496397007
 42
0.4142135623731
 10
3072.501012441275
 20
3282.863496397007
 42
0.4142135623731
  0
LINE
  5
1DB
330
1F
100
AcDbEntity
  8
0-B
  6
Continuous
 62
   120
370
     5
100
AcDbLine
 10
3072.501012441275
 20
3284.363496397007
 30
0.0
 11
3072.501012441275
 21
3209.363496397006
 31
0.0
  0
LINE
  5
1DC
330
1F
100
AcDbEntity
  8
0-4
  6
Continuous
 62
    92
370
    13
100
AcDbLine
 10
1325.534021030266
 20
3134.363496397006
 30
0.0
 11
1272.501012441275
 21
3081.330487808015
 31
0.0
  0
LINE
  5
1DD
330
1F
100
AcDbEntity
  8
0-4
  6
Continuous
 62
    92
370
    13
100
AcDbLine
 10
1328.640622748064
 20
3126.863496397006
 30
0.0
 11
1280.001012441275
 21
3078.223886090217
 31
0.0
  0
LINE
  5
1DE
330
1F
100
AcDbEntity
  8
0-4
  6
Continuous
 62
    92
370
    13
100
AcDbLine
 10
1272.501012441275
 20
3081.330487808015
 30
0.0
 11
1272.501012441275
 21
2834.363496397006
 31
0.0
  0
LINE
  5
1DF
330
1F
100
AcDbEntity
  8
0-4
  6
Continuous
 62
    92
370
    13
100
AcDbLine
 10
1280.001012441275
 20
3078.223886090217
 30
0.0
 11
1280.001012441275
 21
2841.863496397006
 31
0.0
  0
LINE
  5
1E0
330
1F
100
AcDbEntity
  8
0-0
  6
JWW_HOJO
 62
     7
370
     9
100
AcDbLine
 10
1263.401986674301
 20
3284.363496397007
 30
0.0
 11
1122.501012441275
 21
3143.462522163979
 31
0.0
  0
LINE
  5
1E1
330
1F
100
AcDbEntity
  8
0-0
  6
JWW_HOJO
 62
     7
370
     9
100
AcDbLine
 10
1122.501012441275
 20
3143.462522163979
 30
0.0
 11
1122.501012441275
 21
2834.363496397006
 31
0.0
  0
LINE
  5
1E2
330
1F
100
AcDbEntity
  8
0-0
  6
JWW_HOJO
 62
     7
370
     9
100
AcDbLine
 10
1294.468003852284
 20
3209.363496397006
 30
0.0
 11
1197.501012441275
 21
3112.396504985997
 31
0.0
  0
LINE
  5
1E3
330
1F
100
AcDbEntity
  8
0-0
  6
JWW_HOJO
 62
     7
370
     9
100
AcDbLine
 10
1197.501012441275
 20
3112.396504985997
 30
0.0
 11
1197.501012441275
 21
2834.363496397006
 31
0.0
  0
LWPOLYLINE
  5
1E4
330
1F
100
AcDbEntity
  8
0-B
  6
Continuous
 62
     7
370
     9
100
AcDbPolyline
 90
        4
 70
     1
 43
3.0
 10
1274.001012441275
 20
3284.363496397007
 42
0.4142135623731
 10
1272.501012441275
 20
3285.863496397007
 42
0.4142135623731
 10
1271.001012441275
 20
3284.363496397007
 42
0.4142135623731
 10
1272.501012441275
 20
3282.863496397007
 42
0.4142135623731
  0
LINE
  5
1E5
330
1F
100
AcDbEntity
  8
0-B
  6
Continuous
 62
   120
370
     5
100
AcDbLine
 10
1272.501012441275
 20
3284.363496397007
 30
0.0
 11
1272.501012441275
 21
3209.363496397006
 31
0.0
  0
LINE
  5
1E6
330
1F
100
AcDbEntity
  8
0-B
  6
Continuous
 62
   120
370
     5
100
AcDbLine
 10
1122.501012441275
 20
3134.363496397006
 30
0.0
 11
1122.501012441275
 21
2834.363496397006
 31
0.0
  0
LWPOLYLINE
  5
1E7
330
1F
100
AcDbEntity
  8
0-B
  6
Continuous
 62
     7
370
     9
100
AcDbPolyline
 90
        4
 70
     1
 43
3.0
 10
1124.001012441275
 20
3134.363496397006
 42
0.4142135623731
 10
1122.501012441275
 20
3135.863496397006
 42
0.4142135623731
 10
1121.001012441275
 20
3134.363496397006
 42
0.4142135623731
 10
1122.501012441275
 20
3132.863496397006
 42
0.4142135623731
  0
LINE
  5
1E8
330
1F
100
AcDbEntity
  8
0-B
  6
Continuous
 62
   120
370
     5
100
AcDbLine
 10
1122.501012441275
 20
3134.363496397006
 30
0.0
 11
1197.501012441275
 21
3134.363496397006
 31
0.0
  0
LINE
  5
1E9
330
1F
100
AcDbEntity
  8
0-B
  6
Continuous
 62
   120
370
     5
100
AcDbLine
 10
1219.468003852284
 20
3240.429513574988
 30
0.0
 11
1166.434995263293
 21
3187.396504985997
 31
0.0
  0
LWPOLYLINE
  5
1EA
330
1F
100
AcDbEntity
  8
0-B
  6
Continuous
 62
     7
370
     9
100
AcDbPolyline
 90
        4
 70
     1
 43
3.0
 10
1220.968003852284
 20
3240.429513574988
 42
0.4142135623731
 10
1219.468003852284
 20
3241.929513574988
 42
0.4142135623731
 10
1217.968003852284
 20
3240.429513574988
 42
0.4142135623731
 10
1219.468003852284
 20
3238.929513574988
 42
0.4142135623731
  0
LWPOLYLINE
  5
1EB
330
1F
100
AcDbEntity
  8
0-B
  6
Continuous
 62
     7
370
     9
100
AcDbPolyline
 90
        4
 70
     1
 43
3.0
 10
1167.934995263293
 20
3187.396504985997
 42
0.4142135623731
 10
1166.434995263293
 20
3188.896504985997
 42
0.4142135623731
 10
1164.934995263293
 20
3187.396504985997
 42
0.4142135623731
 10
1166.434995263293
 20
3185.896504985998
 42
0.4142135623731
  0
LINE
  5
1EC
330
1F
100
AcDbEntity
  8
0-B
  6
Continuous
 62
   120
370
     5
100
AcDbLine
 10
1219.468003852284
 20
3240.429513574988
 30
0.0
 11
1272.501012441274
 21
3187.396504985997
 31
0.0
  0
LINE
  5
1ED
330
1F
100
AcDbEntity
  8
0-B
  6
Continuous
 62
   120
370
     5
100
AcDbLine
 10
1166.434995263293
 20
3187.396504985997
 30
0.0
 11
1219.468003852284
 21
3134.363496397007
 31
0.0
  0
LINE
  5
1EE
330
1F
100
AcDbEntity
  8
0-0
  6
JWW_HOJO
 62
     7
370
     9
100
AcDbLine
 10
3072.501012441275
 20
3284.363496397007
 30
0.0
 11
1263.401986674301
 21
3284.363496397007
 31
0.0
  0
LINE
  5
1EF
330
1F
100
AcDbEntity
  8
0-0
  6
JWW_HOJO
 62
     7
370
     9
100
AcDbLine
 10
3072.501012441275
 20
3209.363496397006
 30
0.0
 11
1294.468003852284
 21
3209.363496397006
 31
0.0
  0
LINE
  5
1F0
330
1F
100
AcDbEntity
  8
0-B
  6
Continuous
 62
   120
370
     5
100
AcDbLine
 10
1272.501012441275
 20
3284.363496397007
 30
0.0
 11
3072.501012441275
 21
3284.363496397007
 31
0.0
  0
LINE
  5
1F1
330
1F
100
AcDbEntity
  8
0-4
  6
Continuous
 62
    92
370
    13
100
AcDbLine
 10
3072.50008454194
 20
1584.363416494564
 30
0.0
 11
3072.50008454194
 21
1884.363416494564
 31
0.0
  0
LINE
  5
1F2
330
1F
100
AcDbEntity
  8
0-4
  6
Continuous
 62
    92
370
    13
100
AcDbLine
 10
3065.00008454194
 20
1591.863416494564
 30
0.0
 11
3065.00008454194
 21
1876.863416494564
 31
0.0
  0
LWPOLYLINE
  5
1F3
330
1F
100
AcDbEntity
  8
0-B
  6
Continuous
 62
     7
370
     9
100
AcDbPolyline
 90
        4
 70
     1
 43
3.0
 10
3074.00008454194
 20
2034.363416494564
 42
0.4142135623731
 10
3072.50008454194
 20
2035.863416494564
 42
0.4142135623731
 10
3071.00008454194
 20
2034.363416494564
 42
0.4142135623731
 10
3072.50008454194
 20
2032.863416494564
 42
0.4142135623731
  0
LINE
  5
1F4
330
1F
100
AcDbEntity
  8
0-B
  6
Continuous
 62
   120
370
     5
100
AcDbLine
 10
3072.50008454194
 20
2034.363416494564
 30
0.0
 11
3072.50008454194
 21
1959.363416494564
 31
0.0
  0
LINE
  5
1F5
330
1F
100
AcDbEntity
  8
0-4
  6
Continuous
 62
    92
370
    13
100
AcDbLine
 10
1325.53309313093
 20
1884.363416494564
 30
0.0
 11
1272.50008454194
 21
1831.330407905573
 31
0.0
  0
LINE
  5
1F6
330
1F
100
AcDbEntity
  8
0-4
  6
Continuous
 62
    92
370
    13
100
AcDbLine
 10
1328.639694848729
 20
1876.863416494564
 30
0.0
 11
1280.00008454194
 21
1828.223806187775
 31
0.0
  0
LINE
  5
1F7
330
1F
100
AcDbEntity
  8
0-4
  6
Continuous
 62
    92
370
    13
100
AcDbLine
 10
1272.50008454194
 20
1831.330407905573
 30
0.0
 11
1272.50008454194
 21
1584.363416494564
 31
0.0
  0
LINE
  5
1F8
330
1F
100
AcDbEntity
  8
0-4
  6
Continuous
 62
    92
370
    13
100
AcDbLine
 10
1280.00008454194
 20
1828.223806187775
 30
0.0
 11
1280.00008454194
 21
1591.863416494564
 31
0.0
  0
LINE
  5
1F9
330
1F
100
AcDbEntity
  8
0-0
  6
JWW_HOJO
 62
     7
370
     9
100
AcDbLine
 10
1263.401058774966
 20
2034.363416494564
 30
0.0
 11
1122.50008454194
 21
1893.462442261538
 31
0.0
  0
LINE
  5
1FA
330
1F
100
AcDbEntity
  8
0-0
  6
JWW_HOJO
 62
     7
370
     9
100
AcDbLine
 10
1122.50008454194
 20
1893.462442261538
 30
0.0
 11
1122.50008454194
 21
1584.363416494564
 31
0.0
  0
LINE
  5
1FB
330
1F
100
AcDbEntity
  8
0-0
  6
JWW_HOJO
 62
     7
370
     9
100
AcDbLine
 10
1294.467075952948
 20
1959.363416494564
 30
0.0
 11
1197.50008454194
 21
1862.396425083556
 31
0.0
  0
LINE
  5
1FC
330
1F
100
AcDbEntity
  8
0-0
  6
JWW_HOJO
 62
     7
370
     9
100
AcDbLine
 10
1197.50008454194
 20
1862.396425083556
 30
0.0
 11
1197.50008454194
 21
1584.363416494564
 31
0.0
  0
LWPOLYLINE
  5
1FD
330
1F
100
AcDbEntity
  8
0-B
  6
Continuous
 62
     7
370
     9
100
AcDbPolyline
 90
        4
 70
     1
 43
3.0
 10
1274.00008454194
 20
2034.363416494564
 42
0.4142135623731
 10
1272.50008454194
 20
2035.863416494564
 42
0.4142135623731
 10
1271.00008454194
 20
2034.363416494564
 42
0.4142135623731
 10
1272.50008454194
 20
2032.863416494564
 42
0.4142135623731
  0
LINE
  5
1FE
330
1F
100
AcDbEntity
  8
0-B
  6
Continuous
 62
   120
370
     5
100
AcDbLine
 10
1272.50008454194
 20
2034.363416494564
 30
0.0
 11
1272.50008454194
 21
1959.363416494564
 31
0.0
  0
LINE
  5
1FF
330
1F
100
AcDbEntity
  8
0-B
  6
Continuous
 62
   120
370
     5
100
AcDbLine
 10
1122.50008454194
 20
1884.363416494564
 30
0.0
 11
1122.50008454194
 21
1584.363416494564
 31
0.0
  0
LWPOLYLINE
  5
200
330
1F
100
AcDbEntity
  8
0-B
  6
Continuous
 62
     7
370
     9
100
AcDbPolyline
 90
        4
 70
     1
 43
3.0
 10
1124.00008454194
 20
1884.363416494564
 42
0.4142135623731
 10
1122.50008454194
 20
1885.863416494564
 42
0.4142135623731
 10
1121.00008454194
 20
1884.363416494564
 42
0.4142135623731
 10
1122.50008454194
 20
1882.863416494564
 42
0.4142135623731
  0
LINE
  5
201
330
1F
100
AcDbEntity
  8
0-B
  6
Continuous
 62
   120
370
     5
100
AcDbLine
 10
1122.50008454194
 20
1884.363416494564
 30
0.0
 11
1197.50008454194
 21
1884.363416494564
 31
0.0
  0
LINE
  5
202
330
1F
100
AcDbEntity
  8
0-B
  6
Continuous
 62
   120
370
     5
100
AcDbLine
 10
1219.467075952948
 20
1990.429433672546
 30
0.0
 11
1166.434067363958
 21
1937.396425083556
 31
0.0
  0
LWPOLYLINE
  5
203
330
1F
100
AcDbEntity
  8
0-B
  6
Continuous
 62
     7
370
     9
100
AcDbPolyline
 90
        4
 70
     1
 43
3.0
 10
1220.967075952948
 20
1990.429433672546
 42
0.4142135623731
 10
1219.467075952948
 20
1991.929433672546
 42
0.4142135623731
 10
1217.967075952949
 20
1990.429433672546
 42
0.4142135623731
 10
1219.467075952948
 20
1988.929433672546
 42
0.4142135623731
  0
LWPOLYLINE
  5
204
330
1F
100
AcDbEntity
  8
0-B
  6
Continuous
 62
     7
370
     9
100
AcDbPolyline
 90
        4
 70
     1
 43
3.0
 10
1167.934067363958
 20
1937.396425083556
 42
0.4142135623731
 10
1166.434067363958
 20
1938.896425083555
 42
0.4142135623731
 10
1164.934067363958
 20
1937.396425083556
 42
0.4142135623731
 10
1166.434067363958
 20
1935.896425083556
 42
0.4142135623731
  0
LINE
  5
205
330
1F
100
AcDbEntity
  8
0-B
  6
Continuous
 62
   120
370
     5
100
AcDbLine
 10
1219.467075952948
 20
1990.429433672546
 30
0.0
 11
1272.500084541939
 21
1937.396425083556
 31
0.0
  0
LINE
  5
206
330
1F
100
AcDbEntity
  8
0-B
  6
Continuous
 62
   120
370
     5
100
AcDbLine
 10
1166.434067363958
 20
1937.396425083556
 30
0.0
 11
1219.467075952948
 21
1884.363416494565
 31
0.0
  0
LINE
  5
207
330
1F
100
AcDbEntity
  8
0-0
  6
JWW_HOJO
 62
     7
370
     9
100
AcDbLine
 10
3072.50008454194
 20
2034.363416494564
 30
0.0
 11
1263.401058774966
 21
2034.363416494564
 31
0.0
  0
LINE
  5
208
330
1F
100
AcDbEntity
  8
0-0
  6
JWW_HOJO
 62
     7
370
     9
100
AcDbLine
 10
3072.50008454194
 20
1959.363416494564
 30
0.0
 11
1294.467075952948
 21
1959.363416494564
 31
0.0
  0
LINE
  5
209
330
1F
100
AcDbEntity
  8
0-B
  6
Continuous
 62
   120
370
     5
100
AcDbLine
 10
1272.50008454194
 20
2034.363416494564
 30
0.0
 11
3072.50008454194
 21
2034.363416494564
 31
0.0
  0
LINE
  5
20A
330
1F
100
AcDbEntity
  8
0-4
  6
Continuous
 62
    92
370
    13
100
AcDbLine
 10
3072.50008454194
 20
334.3633365921215
 30
0.0
 11
3072.50008454194
 21
634.3633365921215
 31
0.0
  0
LINE
  5
20B
330
1F
100
AcDbEntity
  8
0-4
  6
Continuous
 62
    92
370
    13
100
AcDbLine
 10
3065.00008454194
 20
341.8633365921215
 30
0.0
 11
3065.00008454194
 21
626.8633365921215
 31
0.0
  0
LWPOLYLINE
  5
20C
330
1F
100
AcDbEntity
  8
0-B
  6
Continuous
 62
     7
370
     9
100
AcDbPolyline
 90
        4
 70
     1
 43
3.0
 10
3074.00008454194
 20
784.3633365921215
 42
0.4142135623731
 10
3072.50008454194
 20
785.8633365921215
 42
0.4142135623731
 10
3071.00008454194
 20
784.3633365921215
 42
0.4142135623731
 10
3072.50008454194
 20
782.8633365921215
 42
0.4142135623731
  0
LINE
  5
20D
330
1F
100
AcDbEntity
  8
0-B
  6
Continuous
 62
   120
370
     5
100
AcDbLine
 10
3072.50008454194
 20
784.3633365921215
 30
0.0
 11
3072.50008454194
 21
709.3633365921215
 31
0.0
  0
LINE
  5
20E
330
1F
100
AcDbEntity
  8
0-4
  6
Continuous
 62
    92
370
    13
100
AcDbLine
 10
1325.53309313093
 20
634.3633365921215
 30
0.0
 11
1272.50008454194
 21
581.330328003131
 31
0.0
  0
LINE
  5
20F
330
1F
100
AcDbEntity
  8
0-4
  6
Continuous
 62
    92
370
    13
100
AcDbLine
 10
1328.639694848729
 20
626.8633365921215
 30
0.0
 11
1280.00008454194
 21
578.2237262853325
 31
0.0
  0
LINE
  5
210
330
1F
100
AcDbEntity
  8
0-4
  6
Continuous
 62
    92
370
    13
100
AcDbLine
 10
1272.50008454194
 20
581.330328003131
 30
0.0
 11
1272.50008454194
 21
334.3633365921215
 31
0.0
  0
LINE
  5
211
330
1F
100
AcDbEntity
  8
0-4
  6
Continuous
 62
    92
370
    13
100
AcDbLine
 10
1280.00008454194
 20
578.2237262853325
 30
0.0
 11
1280.00008454194
 21
341.8633365921215
 31
0.0
  0
LINE
  5
212
330
1F
100
AcDbEntity
  8
0-0
  6
JWW_HOJO
 62
     7
370
     9
100
AcDbLine
 10
1263.401058774966
 20
784.3633365921215
 30
0.0
 11
1122.50008454194
 21
643.4623623590951
 31
0.0
  0
LINE
  5
213
330
1F
100
AcDbEntity
  8
0-0
  6
JWW_HOJO
 62
     7
370
     9
100
AcDbLine
 10
1122.50008454194
 20
643.4623623590951
 30
0.0
 11
1122.50008454194
 21
334.3633365921215
 31
0.0
  0
LINE
  5
214
330
1F
100
AcDbEntity
  8
0-0
  6
JWW_HOJO
 62
     7
370
     9
100
AcDbLine
 10
1294.467075952948
 20
709.3633365921215
 30
0.0
 11
1197.50008454194
 21
612.396345181113
 31
0.0
  0
LINE
  5
215
330
1F
100
AcDbEntity
  8
0-0
  6
JWW_HOJO
 62
     7
370
     9
100
AcDbLine
 10
1197.50008454194
 20
612.396345181113
 30
0.0
 11
1197.50008454194
 21
334.3633365921215
 31
0.0
  0
LWPOLYLINE
  5
216
330
1F
100
AcDbEntity
  8
0-B
  6
Continuous
 62
     7
370
     9
100
AcDbPolyline
 90
        4
 70
     1
 43
3.0
 10
1274.00008454194
 20
784.3633365921215
 42
0.4142135623731
 10
1272.50008454194
 20
785.8633365921215
 42
0.4142135623731
 10
1271.00008454194
 20
784.3633365921215
 42
0.4142135623731
 10
1272.50008454194
 20
782.8633365921215
 42
0.4142135623731
  0
LINE
  5
217
330
1F
100
AcDbEntity
  8
0-B
  6
Continuous
 62
   120
370
     5
100
AcDbLine
 10
1272.50008454194
 20
784.3633365921215
 30
0.0
 11
1272.50008454194
 21
709.3633365921215
 31
0.0
  0
LINE
  5
218
330
1F
100
AcDbEntity
  8
0-B
  6
Continuous
 62
   120
370
     5
100
AcDbLine
 10
1122.50008454194
 20
634.3633365921215
 30
0.0
 11
1122.50008454194
 21
334.3633365921215
 31
0.0
  0
LWPOLYLINE
  5
219
330
1F
100
AcDbEntity
  8
0-B
  6
Continuous
 62
     7
370
     9
100
AcDbPolyline
 90
        4
 70
     1
 43
3.0
 10
1124.00008454194
 20
634.3633365921215
 42
0.4142135623731
 10
1122.50008454194
 20
635.8633365921215
 42
0.4142135623731
 10
1121.00008454194
 20
634.3633365921215
 42
0.4142135623731
 10
1122.50008454194
 20
632.8633365921215
 42
0.4142135623731
  0
LINE
  5
21A
330
1F
100
AcDbEntity
  8
0-B
  6
Continuous
 62
   120
370
     5
100
AcDbLine
 10
1122.50008454194
 20
634.3633365921215
 30
0.0
 11
1197.50008454194
 21
634.3633365921215
 31
0.0
  0
LINE
  5
21B
330
1F
100
AcDbEntity
  8
0-B
  6
Continuous
 62
   120
370
     5
100
AcDbLine
 10
1219.467075952948
 20
740.4293537701037
 30
0.0
 11
1166.434067363958
 21
687.396345181113
 31
0.0
  0
LWPOLYLINE
  5
21C
330
1F
100
AcDbEntity
  8
0-B
  6
Continuous
 62
     7
370
     9
100
AcDbPolyline
 90
        4
 70
     1
 43
3.0
 10
1220.967075952948
 20
740.4293537701037
 42
0.4142135623731
 10
1219.467075952948
 20
741.9293537701037
 42
0.4142135623731
 10
1217.967075952949
 20
740.4293537701037
 42
0.4142135623731
 10
1219.467075952948
 20
738.9293537701036
 42
0.4142135623731
  0
LWPOLYLINE
  5
21D
330
1F
100
AcDbEntity
  8
0-B
  6
Continuous
 62
     7
370
     9
100
AcDbPolyline
 90
        4
 70
     1
 43
3.0
 10
1167.934067363958
 20
687.396345181113
 42
0.4142135623731
 10
1166.434067363958
 20
688.896345181113
 42
0.4142135623731
 10
1164.934067363958
 20
687.396345181113
 42
0.4142135623731
 10
1166.434067363958
 20
685.896345181113
 42
0.4142135623731
  0
LINE
  5
21E
330
1F
100
AcDbEntity
  8
0-B
  6
Continuous
 62
   120
370
     5
100
AcDbLine
 10
1219.467075952948
 20
740.4293537701037
 30
0.0
 11
1272.500084541939
 21
687.396345181113
 31
0.0
  0
LINE
  5
21F
330
1F
100
AcDbEntity
  8
0-B
  6
Continuous
 62
   120
370
     5
100
AcDbLine
 10
1166.434067363958
 20
687.396345181113
 30
0.0
 11
1219.467075952948
 21
634.3633365921223
 31
0.0
  0
LINE
  5
220
330
1F
100
AcDbEntity
  8
0-0
  6
JWW_HOJO
 62
     7
370
     9
100
AcDbLine
 10
3072.50008454194
 20
784.3633365921215
 30
0.0
 11
1263.401058774966
 21
784.3633365921215
 31
0.0
  0
LINE
  5
221
330
1F
100
AcDbEntity
  8
0-0
  6
JWW_HOJO
 62
     7
370
     9
100
AcDbLine
 10
3072.50008454194
 20
709.3633365921215
 30
0.0
 11
1294.467075952948
 21
709.3633365921215
 31
0.0
  0
LINE
  5
222
330
1F
100
AcDbEntity
  8
0-B
  6
Continuous
 62
   120
370
     5
100
AcDbLine
 10
1272.50008454194
 20
784.3633365921215
 30
0.0
 11
3072.50008454194
 21
784.3633365921215
 31
0.0
  0
LINE
  5
223
330
1F
100
AcDbEntity
  8
0-4
  6
Continuous
 62
    92
370
    13
100
AcDbLine
 10
3072.50008454194
 20
-917.36112958058
 30
0.0
 11
3072.50008454194
 21
-617.36112958058
 31
0.0
  0
LINE
  5
224
330
1F
100
AcDbEntity
  8
0-4
  6
Continuous
 62
    92
370
    13
100
AcDbLine
 10
3065.00008454194
 20
-909.86112958058
 30
0.0
 11
3065.00008454194
 21
-624.86112958058
 31
0.0
  0
LWPOLYLINE
  5
225
330
1F
100
AcDbEntity
  8
0-B
  6
Continuous
 62
     7
370
     9
100
AcDbPolyline
 90
        4
 70
     1
 43
3.0
 10
3074.00008454194
 20
-467.3611295805796
 42
0.4142135623731
 10
3072.50008454194
 20
-465.8611295805796
 42
0.4142135623731
 10
3071.00008454194
 20
-467.3611295805796
 42
0.4142135623731
 10
3072.50008454194
 20
-468.8611295805796
 42
0.4142135623731
  0
LINE
  5
226
330
1F
100
AcDbEntity
  8
0-B
  6
Continuous
 62
   120
370
     5
100
AcDbLine
 10
3072.50008454194
 20
-467.3611295805796
 30
0.0
 11
3072.50008454194
 21
-542.3611295805796
 31
0.0
  0
LINE
  5
227
330
1F
100
AcDbEntity
  8
0-4
  6
Continuous
 62
    92
370
    13
100
AcDbLine
 10
1325.53309313093
 20
-617.36112958058
 30
0.0
 11
1272.50008454194
 21
-670.3941381695706
 31
0.0
  0
LINE
  5
228
330
1F
100
AcDbEntity
  8
0-4
  6
Continuous
 62
    92
370
    13
100
AcDbLine
 10
1328.639694848729
 20
-624.86112958058
 30
0.0
 11
1280.00008454194
 21
-673.5007398873689
 31
0.0
  0
LINE
  5
229
330
1F
100
AcDbEntity
  8
0-4
  6
Continuous
 62
    92
370
    13
100
AcDbLine
 10
1272.50008454194
 20
-670.3941381695706
 30
0.0
 11
1272.50008454194
 21
-917.36112958058
 31
0.0
  0
LINE
  5
22A
330
1F
100
AcDbEntity
  8
0-4
  6
Continuous
 62
    92
370
    13
100
AcDbLine
 10
1280.00008454194
 20
-673.5007398873689
 30
0.0
 11
1280.00008454194
 21
-909.86112958058
 31
0.0
  0
LINE
  5
22B
330
1F
100
AcDbEntity
  8
0-0
  6
JWW_HOJO
 62
     7
370
     9
100
AcDbLine
 10
1263.401058774966
 20
-467.3611295805796
 30
0.0
 11
1122.50008454194
 21
-608.2621038136068
 31
0.0
  0
LINE
  5
22C
330
1F
100
AcDbEntity
  8
0-0
  6
JWW_HOJO
 62
     7
370
     9
100
AcDbLine
 10
1122.50008454194
 20
-608.2621038136068
 30
0.0
 11
1122.50008454194
 21
-917.36112958058
 31
0.0
  0
LINE
  5
22D
330
1F
100
AcDbEntity
  8
0-0
  6
JWW_HOJO
 62
     7
370
     9
100
AcDbLine
 10
1294.467075952948
 20
-542.3611295805796
 30
0.0
 11
1197.50008454194
 21
-639.3281209915885
 31
0.0
  0
LINE
  5
22E
330
1F
100
AcDbEntity
  8
0-0
  6
JWW_HOJO
 62
     7
370
     9
100
AcDbLine
 10
1197.50008454194
 20
-639.3281209915885
 30
0.0
 11
1197.50008454194
 21
-917.36112958058
 31
0.0
  0
LWPOLYLINE
  5
22F
330
1F
100
AcDbEntity
  8
0-B
  6
Continuous
 62
     7
370
     9
100
AcDbPolyline
 90
        4
 70
     1
 43
3.0
 10
1274.00008454194
 20
-467.3611295805796
 42
0.4142135623731
 10
1272.50008454194
 20
-465.8611295805796
 42
0.4142135623731
 10
1271.00008454194
 20
-467.3611295805796
 42
0.4142135623731
 10
1272.50008454194
 20
-468.8611295805796
 42
0.4142135623731
  0
LINE
  5
230
330
1F
100
AcDbEntity
  8
0-B
  6
Continuous
 62
   120
370
     5
100
AcDbLine
 10
1272.50008454194
 20
-467.3611295805796
 30
0.0
 11
1272.50008454194
 21
-542.3611295805796
 31
0.0
  0
LINE
  5
231
330
1F
100
AcDbEntity
  8
0-B
  6
Continuous
 62
   120
370
     5
100
AcDbLine
 10
1122.50008454194
 20
-617.36112958058
 30
0.0
 11
1122.50008454194
 21
-917.36112958058
 31
0.0
  0
LWPOLYLINE
  5
232
330
1F
100
AcDbEntity
  8
0-B
  6
Continuous
 62
     7
370
     9
100
AcDbPolyline
 90
        4
 70
     1
 43
3.0
 10
1124.00008454194
 20
-617.36112958058
 42
0.4142135623731
 10
1122.50008454194
 20
-615.86112958058
 42
0.4142135623731
 10
1121.00008454194
 20
-617.36112958058
 42
0.4142135623731
 10
1122.50008454194
 20
-618.86112958058
 42
0.4142135623731
  0
LINE
  5
233
330
1F
100
AcDbEntity
  8
0-B
  6
Continuous
 62
   120
370
     5
100
AcDbLine
 10
1122.50008454194
 20
-617.36112958058
 30
0.0
 11
1197.50008454194
 21
-617.36112958058
 31
0.0
  0
LINE
  5
234
330
1F
100
AcDbEntity
  8
0-B
  6
Continuous
 62
   120
370
     5
100
AcDbLine
 10
1219.467075952948
 20
-511.2951124025983
 30
0.0
 11
1166.434067363958
 21
-564.3281209915881
 31
0.0
  0
LWPOLYLINE
  5
235
330
1F
100
AcDbEntity
  8
0-B
  6
Continuous
 62
     7
370
     9
100
AcDbPolyline
 90
        4
 70
     1
 43
3.0
 10
1220.967075952948
 20
-511.2951124025983
 42
0.4142135623731
 10
1219.467075952948
 20
-509.7951124025983
 42
0.4142135623731
 10
1217.967075952949
 20
-511.2951124025983
 42
0.4142135623731
 10
1219.467075952948
 20
-512.7951124025983
 42
0.4142135623731
  0
LWPOLYLINE
  5
236
330
1F
100
AcDbEntity
  8
0-B
  6
Continuous
 62
     7
370
     9
100
AcDbPolyline
 90
        4
 70
     1
 43
3.0
 10
1167.934067363958
 20
-564.3281209915881
 42
0.4142135623731
 10
1166.434067363958
 20
-562.8281209915881
 42
0.4142135623731
 10
1164.934067363958
 20
-564.3281209915881
 42
0.4142135623731
 10
1166.434067363958
 20
-565.8281209915881
 42
0.4142135623731
  0
LINE
  5
237
330
1F
100
AcDbEntity
  8
0-B
  6
Continuous
 62
   120
370
     5
100
AcDbLine
 10
1219.467075952948
 20
-511.2951124025983
 30
0.0
 11
1272.500084541939
 21
-564.3281209915881
 31
0.0
  0
LINE
  5
238
330
1F
100
AcDbEntity
  8
0-B
  6
Continuous
 62
   120
370
     5
100
AcDbLine
 10
1166.434067363958
 20
-564.3281209915881
 30
0.0
 11
1219.467075952948
 21
-617.3611295805791
 31
0.0
  0
LINE
  5
239
330
1F
100
AcDbEntity
  8
0-0
  6
JWW_HOJO
 62
     7
370
     9
100
AcDbLine
 10
3072.50008454194
 20
-467.3611295805796
 30
0.0
 11
1263.401058774966
 21
-467.3611295805796
 31
0.0
  0
LINE
  5
23A
330
1F
100
AcDbEntity
  8
0-0
  6
JWW_HOJO
 62
     7
370
     9
100
AcDbLine
 10
3072.50008454194
 20
-542.3611295805796
 30
0.0
 11
1294.467075952948
 21
-542.3611295805796
 31
0.0
  0
LINE
  5
23B
330
1F
100
AcDbEntity
  8
0-B
  6
Continuous
 62
   120
370
     5
100
AcDbLine
 10
1272.50008454194
 20
-467.3611295805796
 30
0.0
 11
3072.50008454194
 21
-467.3611295805796
 31
0.0
  0
LINE
  5
23C
330
1F
100
AcDbEntity
  8
0-4
  6
Continuous
 62
    92
370
    13
100
AcDbLine
 10
3072.50008454194
 20
-2165.636823212765
 30
0.0
 11
3072.50008454194
 21
-1865.636823212765
 31
0.0
  0
LINE
  5
23D
330
1F
100
AcDbEntity
  8
0-4
  6
Continuous
 62
    92
370
    13
100
AcDbLine
 10
3065.00008454194
 20
-2158.136823212765
 30
0.0
 11
3065.00008454194
 21
-1873.136823212765
 31
0.0
  0
LWPOLYLINE
  5
23E
330
1F
100
AcDbEntity
  8
0-B
  6
Continuous
 62
     7
370
     9
100
AcDbPolyline
 90
        4
 70
     1
 43
3.0
 10
3074.00008454194
 20
-1715.636823212765
 42
0.4142135623731
 10
3072.50008454194
 20
-1714.136823212765
 42
0.4142135623731
 10
3071.00008454194
 20
-1715.636823212765
 42
0.4142135623731
 10
3072.50008454194
 20
-1717.136823212765
 42
0.4142135623731
  0
LINE
  5
23F
330
1F
100
AcDbEntity
  8
0-B
  6
Continuous
 62
   120
370
     5
100
AcDbLine
 10
3072.50008454194
 20
-1715.636823212765
 30
0.0
 11
3072.50008454194
 21
-1790.636823212765
 31
0.0
  0
LINE
  5
240
330
1F
100
AcDbEntity
  8
0-4
  6
Continuous
 62
    92
370
    13
100
AcDbLine
 10
1325.53309313093
 20
-1865.636823212765
 30
0.0
 11
1272.50008454194
 21
-1918.669831801755
 31
0.0
  0
LINE
  5
241
330
1F
100
AcDbEntity
  8
0-4
  6
Continuous
 62
    92
370
    13
100
AcDbLine
 10
1328.639694848729
 20
-1873.136823212765
 30
0.0
 11
1280.00008454194
 21
-1921.776433519554
 31
0.0
  0
LINE
  5
242
330
1F
100
AcDbEntity
  8
0-4
  6
Continuous
 62
    92
370
    13
100
AcDbLine
 10
1272.50008454194
 20
-1918.669831801755
 30
0.0
 11
1272.50008454194
 21
-2165.636823212765
 31
0.0
  0
LINE
  5
243
330
1F
100
AcDbEntity
  8
0-4
  6
Continuous
 62
    92
370
    13
100
AcDbLine
 10
1280.00008454194
 20
-1921.776433519554
 30
0.0
 11
1280.00008454194
 21
-2158.136823212765
 31
0.0
  0
LINE
  5
244
330
1F
100
AcDbEntity
  8
0-0
  6
JWW_HOJO
 62
     7
370
     9
100
AcDbLine
 10
1263.401058774966
 20
-1715.636823212765
 30
0.0
 11
1122.50008454194
 21
-1856.537797445791
 31
0.0
  0
LINE
  5
245
330
1F
100
AcDbEntity
  8
0-0
  6
JWW_HOJO
 62
     7
370
     9
100
AcDbLine
 10
1122.50008454194
 20
-1856.537797445791
 30
0.0
 11
1122.50008454194
 21
-2165.636823212765
 31
0.0
  0
LINE
  5
246
330
1F
100
AcDbEntity
  8
0-0
  6
JWW_HOJO
 62
     7
370
     9
100
AcDbLine
 10
1294.467075952948
 20
-1790.636823212765
 30
0.0
 11
1197.50008454194
 21
-1887.603814623773
 31
0.0
  0
LINE
  5
247
330
1F
100
AcDbEntity
  8
0-0
  6
JWW_HOJO
 62
     7
370
     9
100
AcDbLine
 10
1197.50008454194
 20
-1887.603814623773
 30
0.0
 11
1197.50008454194
 21
-2165.636823212765
 31
0.0
  0
LWPOLYLINE
  5
248
330
1F
100
AcDbEntity
  8
0-B
  6
Continuous
 62
     7
370
     9
100
AcDbPolyline
 90
        4
 70
     1
 43
3.0
 10
1274.00008454194
 20
-1715.636823212765
 42
0.4142135623731
 10
1272.50008454194
 20
-1714.136823212765
 42
0.4142135623731
 10
1271.00008454194
 20
-1715.636823212765
 42
0.4142135623731
 10
1272.50008454194
 20
-1717.136823212765
 42
0.4142135623731
  0
LINE
  5
249
330
1F
100
AcDbEntity
  8
0-B
  6
Continuous
 62
   120
370
     5
100
AcDbLine
 10
1272.50008454194
 20
-1715.636823212765
 30
0.0
 11
1272.50008454194
 21
-1790.636823212765
 31
0.0
  0
LINE
  5
24A
330
1F
100
AcDbEntity
  8
0-B
  6
Continuous
 62
   120
370
     5
100
AcDbLine
 10
1122.50008454194
 20
-1865.636823212765
 30
0.0
 11
1122.50008454194
 21
-2165.636823212765
 31
0.0
  0
LWPOLYLINE
  5
24B
330
1F
100
AcDbEntity
  8
0-B
  6
Continuous
 62
     7
370
     9
100
AcDbPolyline
 90
        4
 70
     1
 43
3.0
 10
1124.00008454194
 20
-1865.636823212765
 42
0.4142135623731
 10
1122.50008454194
 20
-1864.136823212765
 42
0.4142135623731
 10
1121.00008454194
 20
-1865.636823212765
 42
0.4142135623731
 10
1122.50008454194
 20
-1867.136823212765
 42
0.4142135623731
  0
LINE
  5
24C
330
1F
100
AcDbEntity
  8
0-B
  6
Continuous
 62
   120
370
     5
100
AcDbLine
 10
1122.50008454194
 20
-1865.636823212765
 30
0.0
 11
1197.50008454194
 21
-1865.636823212765
 31
0.0
  0
LINE
  5
24D
330
1F
100
AcDbEntity
  8
0-B
  6
Continuous
 62
   120
370
     5
100
AcDbLine
 10
1219.467075952948
 20
-1759.570806034783
 30
0.0
 11
1166.434067363958
 21
-1812.603814623773
 31
0.0
  0
LWPOLYLINE
  5
24E
330
1F
100
AcDbEntity
  8
0-B
  6
Continuous
 62
     7
370
     9
100
AcDbPolyline
 90
        4
 70
     1
 43
3.0
 10
1220.967075952948
 20
-1759.570806034783
 42
0.4142135623731
 10
1219.467075952948
 20
-1758.070806034783
 42
0.4142135623731
 10
1217.967075952949
 20
-1759.570806034783
 42
0.4142135623731
 10
1219.467075952948
 20
-1761.070806034783
 42
0.4142135623731
  0
LWPOLYLINE
  5
24F
330
1F
100
AcDbEntity
  8
0-B
  6
Continuous
 62
     7
370
     9
100
AcDbPolyline
 90
        4
 70
     1
 43
3.0
 10
1167.934067363958
 20
-1812.603814623773
 42
0.4142135623731
 10
1166.434067363958
 20
-1811.103814623773
 42
0.4142135623731
 10
1164.934067363958
 20
-1812.603814623773
 42
0.4142135623731
 10
1166.434067363958
 20
-1814.103814623773
 42
0.4142135623731
  0
LINE
  5
250
330
1F
100
AcDbEntity
  8
0-B
  6
Continuous
 62
   120
370
     5
100
AcDbLine
 10
1219.467075952948
 20
-1759.570806034783
 30
0.0
 11
1272.500084541939
 21
-1812.603814623773
 31
0.0
  0
LINE
  5
251
330
1F
100
AcDbEntity
  8
0-B
  6
Continuous
 62
   120
370
     5
100
AcDbLine
 10
1166.434067363958
 20
-1812.603814623773
 30
0.0
 11
1219.467075952948
 21
-1865.636823212764
 31
0.0
  0
LINE
  5
252
330
1F
100
AcDbEntity
  8
0-0
  6
JWW_HOJO
 62
     7
370
     9
100
AcDbLine
 10
3072.50008454194
 20
-1715.636823212765
 30
0.0
 11
1263.401058774966
 21
-1715.636823212765
 31
0.0
  0
LINE
  5
253
330
1F
100
AcDbEntity
  8
0-0
  6
JWW_HOJO
 62
     7
370
     9
100
AcDbLine
 10
3072.50008454194
 20
-1790.636823212765
 30
0.0
 11
1294.467075952948
 21
-1790.636823212765
 31
0.0
  0
LINE
  5
254
330
1F
100
AcDbEntity
  8
0-B
  6
Continuous
 62
   120
370
     5
100
AcDbLine
 10
1272.50008454194
 20
-1715.636823212765
 30
0.0
 11
3072.50008454194
 21
-1715.636823212765
 31
0.0
  0
LINE
  5
255
330
1F
100
AcDbEntity
  8
0-4
  6
Continuous
 62
    92
370
    13
100
AcDbLine
 10
3072.50008454194
 20
-3415.636903115208
 30
0.0
 11
3072.50008454194
 21
-3115.636903115208
 31
0.0
  0
LINE
  5
256
330
1F
100
AcDbEntity
  8
0-4
  6
Continuous
 62
    92
370
    13
100
AcDbLine
 10
3065.00008454194
 20
-3408.136903115208
 30
0.0
 11
3065.00008454194
 21
-3123.136903115208
 31
0.0
  0
LWPOLYLINE
  5
257
330
1F
100
AcDbEntity
  8
0-B
  6
Continuous
 62
     7
370
     9
100
AcDbPolyline
 90
        4
 70
     1
 43
3.0
 10
3074.00008454194
 20
-2965.636903115208
 42
0.4142135623731
 10
3072.50008454194
 20
-2964.136903115208
 42
0.4142135623731
 10
3071.00008454194
 20
-2965.636903115208
 42
0.4142135623731
 10
3072.50008454194
 20
-2967.136903115207
 42
0.4142135623731
  0
LINE
  5
258
330
1F
100
AcDbEntity
  8
0-B
  6
Continuous
 62
   120
370
     5
100
AcDbLine
 10
3072.50008454194
 20
-2965.636903115208
 30
0.0
 11
3072.50008454194
 21
-3040.636903115208
 31
0.0
  0
LINE
  5
259
330
1F
100
AcDbEntity
  8
0-4
  6
Continuous
 62
    92
370
    13
100
AcDbLine
 10
1325.53309313093
 20
-3115.636903115208
 30
0.0
 11
1272.50008454194
 21
-3168.669911704198
 31
0.0
  0
LINE
  5
25A
330
1F
100
AcDbEntity
  8
0-4
  6
Continuous
 62
    92
370
    13
100
AcDbLine
 10
1328.639694848729
 20
-3123.136903115208
 30
0.0
 11
1280.00008454194
 21
-3171.776513421996
 31
0.0
  0
LINE
  5
25B
330
1F
100
AcDbEntity
  8
0-4
  6
Continuous
 62
    92
370
    13
100
AcDbLine
 10
1272.50008454194
 20
-3168.669911704198
 30
0.0
 11
1272.50008454194
 21
-3415.636903115208
 31
0.0
  0
LINE
  5
25C
330
1F
100
AcDbEntity
  8
0-4
  6
Continuous
 62
    92
370
    13
100
AcDbLine
 10
1280.00008454194
 20
-3171.776513421996
 30
0.0
 11
1280.00008454194
 21
-3408.136903115208
 31
0.0
  0
LINE
  5
25D
330
1F
100
AcDbEntity
  8
0-0
  6
JWW_HOJO
 62
     7
370
     9
100
AcDbLine
 10
1263.401058774966
 20
-2965.636903115208
 30
0.0
 11
1122.50008454194
 21
-3106.537877348234
 31
0.0
  0
LINE
  5
25E
330
1F
100
AcDbEntity
  8
0-0
  6
JWW_HOJO
 62
     7
370
     9
100
AcDbLine
 10
1122.50008454194
 20
-3106.537877348234
 30
0.0
 11
1122.50008454194
 21
-3415.636903115208
 31
0.0
  0
LINE
  5
25F
330
1F
100
AcDbEntity
  8
0-0
  6
JWW_HOJO
 62
     7
370
     9
100
AcDbLine
 10
1294.467075952948
 20
-3040.636903115208
 30
0.0
 11
1197.50008454194
 21
-3137.603894526216
 31
0.0
  0
LINE
  5
260
330
1F
100
AcDbEntity
  8
0-0
  6
JWW_HOJO
 62
     7
370
     9
100
AcDbLine
 10
1197.50008454194
 20
-3137.603894526216
 30
0.0
 11
1197.50008454194
 21
-3415.636903115208
 31
0.0
  0
LWPOLYLINE
  5
261
330
1F
100
AcDbEntity
  8
0-B
  6
Continuous
 62
     7
370
     9
100
AcDbPolyline
 90
        4
 70
     1
 43
3.0
 10
1274.00008454194
 20
-2965.636903115208
 42
0.4142135623731
 10
1272.50008454194
 20
-2964.136903115208
 42
0.4142135623731
 10
1271.00008454194
 20
-2965.636903115208
 42
0.4142135623731
 10
1272.50008454194
 20
-2967.136903115207
 42
0.4142135623731
  0
LINE
  5
262
330
1F
100
AcDbEntity
  8
0-B
  6
Continuous
 62
   120
370
     5
100
AcDbLine
 10
1272.50008454194
 20
-2965.636903115208
 30
0.0
 11
1272.50008454194
 21
-3040.636903115208
 31
0.0
  0
LINE
  5
263
330
1F
100
AcDbEntity
  8
0-B
  6
Continuous
 62
   120
370
     5
100
AcDbLine
 10
1122.50008454194
 20
-3115.636903115208
 30
0.0
 11
1122.50008454194
 21
-3415.636903115208
 31
0.0
  0
LWPOLYLINE
  5
264
330
1F
100
AcDbEntity
  8
0-B
  6
Continuous
 62
     7
370
     9
100
AcDbPolyline
 90
        4
 70
     1
 43
3.0
 10
1124.00008454194
 20
-3115.636903115208
 42
0.4142135623731
 10
1122.50008454194
 20
-3114.136903115208
 42
0.4142135623731
 10
1121.00008454194
 20
-3115.636903115208
 42
0.4142135623731
 10
1122.50008454194
 20
-3117.136903115207
 42
0.4142135623731
  0
LINE
  5
265
330
1F
100
AcDbEntity
  8
0-B
  6
Continuous
 62
   120
370
     5
100
AcDbLine
 10
1122.50008454194
 20
-3115.636903115208
 30
0.0
 11
1197.50008454194
 21
-3115.636903115208
 31
0.0
  0
LINE
  5
266
330
1F
100
AcDbEntity
  8
0-B
  6
Continuous
 62
   120
370
     5
100
AcDbLine
 10
1219.467075952948
 20
-3009.570885937225
 30
0.0
 11
1166.434067363958
 21
-3062.603894526216
 31
0.0
  0
LWPOLYLINE
  5
267
330
1F
100
AcDbEntity
  8
0-B
  6
Continuous
 62
     7
370
     9
100
AcDbPolyline
 90
        4
 70
     1
 43
3.0
 10
1220.967075952948
 20
-3009.570885937225
 42
0.4142135623731
 10
1219.467075952948
 20
-3008.070885937225
 42
0.4142135623731
 10
1217.967075952949
 20
-3009.570885937225
 42
0.4142135623731
 10
1219.467075952948
 20
-3011.070885937225
 42
0.4142135623731
  0
LWPOLYLINE
  5
268
330
1F
100
AcDbEntity
  8
0-B
  6
Continuous
 62
     7
370
     9
100
AcDbPolyline
 90
        4
 70
     1
 43
3.0
 10
1167.934067363958
 20
-3062.603894526216
 42
0.4142135623731
 10
1166.434067363958
 20
-3061.103894526216
 42
0.4142135623731
 10
1164.934067363958
 20
-3062.603894526216
 42
0.4142135623731
 10
1166.434067363958
 20
-3064.103894526216
 42
0.4142135623731
  0
LINE
  5
269
330
1F
100
AcDbEntity
  8
0-B
  6
Continuous
 62
   120
370
     5
100
AcDbLine
 10
1219.467075952948
 20
-3009.570885937225
 30
0.0
 11
1272.500084541939
 21
-3062.603894526216
 31
0.0
  0
LINE
  5
26A
330
1F
100
AcDbEntity
  8
0-B
  6
Continuous
 62
   120
370
     5
100
AcDbLine
 10
1166.434067363958
 20
-3062.603894526216
 30
0.0
 11
1219.467075952948
 21
-3115.636903115207
 31
0.0
  0
LINE
  5
26B
330
1F
100
AcDbEntity
  8
0-0
  6
JWW_HOJO
 62
     7
370
     9
100
AcDbLine
 10
3072.50008454194
 20
-2965.636903115208
 30
0.0
 11
1263.401058774966
 21
-2965.636903115208
 31
0.0
  0
LINE
  5
26C
330
1F
100
AcDbEntity
  8
0-0
  6
JWW_HOJO
 62
     7
370
     9
100
AcDbLine
 10
3072.50008454194
 20
-3040.636903115208
 30
0.0
 11
1294.467075952948
 21
-3040.636903115208
 31
0.0
  0
LINE
  5
26D
330
1F
100
AcDbEntity
  8
0-B
  6
Continuous
 62
   120
370
     5
100
AcDbLine
 10
1272.50008454194
 20
-2965.636903115208
 30
0.0
 11
3072.50008454194
 21
-2965.636903115208
 31
0.0
  0
LINE
  5
26E
330
1F
100
AcDbEntity
  8
0-4
  6
Continuous
 62
    92
370
    13
100
AcDbLine
 10
-2779.999465942383
 20
3126.863496397006
 30
0.0
 11
-3437.9691753414
 21
3126.863496397006
 31
0.0
  0
LINE
  5
26F
330
1F
100
AcDbEntity
  8
0-4
  6
Continuous
 62
    92
370
    13
100
AcDbLine
 10
-3472.609620054576
 20
3126.863496397006
 30
0.0
 11
-4516.359855635593
 21
3126.863496397006
 31
0.0
  0
LINE
  5
270
330
1F
100
AcDbEntity
  8
0-4
  6
Continuous
 62
    92
370
    13
100
AcDbLine
 10
-2772.499465942383
 20
3134.363496397006
 30
0.0
 11
-3433.638476884275
 21
3134.363496397006
 31
0.0
  0
LINE
  5
271
330
1F
100
AcDbEntity
  8
0-4
  6
Continuous
 62
    92
370
    13
100
AcDbLine
 10
-3468.279493035653
 20
3134.363496397006
 30
0.0
 11
-4519.466457353393
 21
3134.363496397006
 31
0.0
  0
LINE
  5
272
330
1F
100
AcDbEntity
  8
0-4
  6
Continuous
 62
    92
370
    13
100
AcDbLine
 10
-2780.000393841717
 20
1876.863416494564
 30
0.0
 11
-3437.970103240736
 21
1876.863416494564
 31
0.0
  0
LINE
  5
273
330
1F
100
AcDbEntity
  8
0-4
  6
Continuous
 62
    92
370
    13
100
AcDbLine
 10
-3472.61054795391
 20
1876.863416494564
 30
0.0
 11
-4516.360783534929
 21
1876.863416494564
 31
0.0
  0
LINE
  5
274
330
1F
100
AcDbEntity
  8
0-4
  6
Continuous
 62
    92
370
    13
100
AcDbLine
 10
-2772.500393841717
 20
1884.363416494564
 30
0.0
 11
-3433.639404783612
 21
1884.363416494564
 31
0.0
  0
LINE
  5
275
330
1F
100
AcDbEntity
  8
0-4
  6
Continuous
 62
    92
370
    13
100
AcDbLine
 10
-3468.280420934989
 20
1884.363416494564
 30
0.0
 11
-4519.467385252728
 21
1884.363416494564
 31
0.0
  0
LINE
  5
276
330
1F
100
AcDbEntity
  8
0-4
  6
Continuous
 62
    92
370
    13
100
AcDbLine
 10
-2780.000393841717
 20
626.8633365921215
 30
0.0
 11
-3437.970103240736
 21
626.8633365921215
 31
0.0
  0
LINE
  5
277
330
1F
100
AcDbEntity
  8
0-4
  6
Continuous
 62
    92
370
    13
100
AcDbLine
 10
-3472.61054795391
 20
626.8633365921215
 30
0.0
 11
-4516.360783534929
 21
626.8633365921215
 31
0.0
  0
LINE
  5
278
330
1F
100
AcDbEntity
  8
0-4
  6
Continuous
 62
    92
370
    13
100
AcDbLine
 10
-2772.500393841717
 20
634.3633365921215
 30
0.0
 11
-3433.639404783612
 21
634.3633365921215
 31
0.0
  0
LINE
  5
279
330
1F
100
AcDbEntity
  8
0-4
  6
Continuous
 62
    92
370
    13
100
AcDbLine
 10
-3468.280420934989
 20
634.3633365921215
 30
0.0
 11
-4519.467385252728
 21
634.3633365921215
 31
0.0
  0
LINE
  5
27A
330
1F
100
AcDbEntity
  8
0-4
  6
Continuous
 62
    92
370
    13
100
AcDbLine
 10
-2780.000393841717
 20
-624.86112958058
 30
0.0
 11
-3437.970103240736
 21
-624.86112958058
 31
0.0
  0
LINE
  5
27B
330
1F
100
AcDbEntity
  8
0-4
  6
Continuous
 62
    92
370
    13
100
AcDbLine
 10
-3472.61054795391
 20
-624.86112958058
 30
0.0
 11
-4516.360783534929
 21
-624.86112958058
 31
0.0
  0
LINE
  5
27C
330
1F
100
AcDbEntity
  8
0-4
  6
Continuous
 62
    92
370
    13
100
AcDbLine
 10
-2772.500393841717
 20
-617.36112958058
 30
0.0
 11
-3433.639404783612
 21
-617.36112958058
 31
0.0
  0
LINE
  5
27D
330
1F
100
AcDbEntity
  8
0-4
  6
Continuous
 62
    92
370
    13
100
AcDbLine
 10
-3468.280420934989
 20
-617.36112958058
 30
0.0
 11
-4519.467385252728
 21
-617.36112958058
 31
0.0
  0
LINE
  5
27E
330
1F
100
AcDbEntity
  8
0-4
  6
Continuous
 62
    92
370
    13
100
AcDbLine
 10
-2780.000393841717
 20
-1873.136823212765
 30
0.0
 11
-3437.970103240736
 21
-1873.136823212765
 31
0.0
  0
LINE
  5
27F
330
1F
100
AcDbEntity
  8
0-4
  6
Continuous
 62
    92
370
    13
100
AcDbLine
 10
-3472.61054795391
 20
-1873.136823212765
 30
0.0
 11
-4516.360783534929
 21
-1873.136823212765
 31
0.0
  0
LINE
  5
280
330
1F
100
AcDbEntity
  8
0-4
  6
Continuous
 62
    92
370
    13
100
AcDbLine
 10
-2772.500393841717
 20
-1865.636823212765
 30
0.0
 11
-3433.639404783612
 21
-1865.636823212765
 31
0.0
  0
LINE
  5
281
330
1F
100
AcDbEntity
  8
0-4
  6
Continuous
 62
    92
370
    13
100
AcDbLine
 10
-3468.280420934989
 20
-1865.636823212765
 30
0.0
 11
-4519.467385252728
 21
-1865.636823212765
 31
0.0
  0
LINE
  5
282
330
1F
100
AcDbEntity
  8
0-4
  6
Continuous
 62
    92
370
    13
100
AcDbLine
 10
-2780.000393841717
 20
-3123.136903115208
 30
0.0
 11
-3437.970103240736
 21
-3123.136903115208
 31
0.0
  0
LINE
  5
283
330
1F
100
AcDbEntity
  8
0-4
  6
Continuous
 62
    92
370
    13
100
AcDbLine
 10
-3472.61054795391
 20
-3123.136903115208
 30
0.0
 11
-4516.360783534929
 21
-3123.136903115208
 31
0.0
  0
LINE
  5
284
330
1F
100
AcDbEntity
  8
0-4
  6
Continuous
 62
    92
370
    13
100
AcDbLine
 10
-2772.500393841717
 20
-3115.636903115208
 30
0.0
 11
-3433.639404783612
 21
-3115.636903115208
 31
0.0
  0
LINE
  5
285
330
1F
100
AcDbEntity
  8
0-4
  6
Continuous
 62
    92
370
    13
100
AcDbLine
 10
-3468.280420934989
 20
-3115.636903115208
 30
0.0
 11
-4519.467385252728
 21
-3115.636903115208
 31
0.0
  0
LINE
  5
286
330
1F
100
AcDbEntity
  8
0-4
  6
Continuous
 62
    92
370
    13
100
AcDbLine
 10
3065.001012441275
 20
3126.863496397006
 30
0.0
 11
2407.031303042258
 21
3126.863496397006
 31
0.0
  0
LINE
  5
287
330
1F
100
AcDbEntity
  8
0-4
  6
Continuous
 62
    92
370
    13
100
AcDbLine
 10
2372.390858329083
 20
3126.863496397006
 30
0.0
 11
1328.640622748064
 21
3126.863496397006
 31
0.0
  0
LINE
  5
288
330
1F
100
AcDbEntity
  8
0-4
  6
Continuous
 62
    92
370
    13
100
AcDbLine
 10
3072.501012441275
 20
3134.363496397006
 30
0.0
 11
2411.362001499383
 21
3134.363496397006
 31
0.0
  0
LINE
  5
289
330
1F
100
AcDbEntity
  8
0-4
  6
Continuous
 62
    92
370
    13
100
AcDbLine
 10
2376.720985348005
 20
3134.363496397006
 30
0.0
 11
1325.534021030266
 21
3134.363496397006
 31
0.0
  0
LINE
  5
28A
330
1F
100
AcDbEntity
  8
0-4
  6
Continuous
 62
    92
370
    13
100
AcDbLine
 10
3065.00008454194
 20
1876.863416494564
 30
0.0
 11
2407.030375142922
 21
1876.863416494564
 31
0.0
  0
LINE
  5
28B
330
1F
100
AcDbEntity
  8
0-4
  6
Continuous
 62
    92
370
    13
100
AcDbLine
 10
2372.389930429747
 20
1876.863416494564
 30
0.0
 11
1328.639694848729
 21
1876.863416494564
 31
0.0
  0
LINE
  5
28C
330
1F
100
AcDbEntity
  8
0-4
  6
Continuous
 62
    92
370
    13
100
AcDbLine
 10
3072.50008454194
 20
1884.363416494564
 30
0.0
 11
2411.361073600046
 21
1884.363416494564
 31
0.0
  0
LINE
  5
28D
330
1F
100
AcDbEntity
  8
0-4
  6
Continuous
 62
    92
370
    13
100
AcDbLine
 10
2376.720057448669
 20
1884.363416494564
 30
0.0
 11
1325.53309313093
 21
1884.363416494564
 31
0.0
  0
LINE
  5
28E
330
1F
100
AcDbEntity
  8
0-4
  6
Continuous
 62
    92
370
    13
100
AcDbLine
 10
3065.00008454194
 20
626.8633365921215
 30
0.0
 11
2407.030375142922
 21
626.8633365921215
 31
0.0
  0
LINE
  5
28F
330
1F
100
AcDbEntity
  8
0-4
  6
Continuous
 62
    92
370
    13
100
AcDbLine
 10
2372.389930429747
 20
626.8633365921215
 30
0.0
 11
1328.639694848729
 21
626.8633365921215
 31
0.0
  0
LINE
  5
290
330
1F
100
AcDbEntity
  8
0-4
  6
Continuous
 62
    92
370
    13
100
AcDbLine
 10
3072.50008454194
 20
634.3633365921215
 30
0.0
 11
2411.361073600046
 21
634.3633365921215
 31
0.0
  0
LINE
  5
291
330
1F
100
AcDbEntity
  8
0-4
  6
Continuous
 62
    92
370
    13
100
AcDbLine
 10
2376.720057448669
 20
634.3633365921215
 30
0.0
 11
1325.53309313093
 21
634.3633365921215
 31
0.0
  0
LINE
  5
292
330
1F
100
AcDbEntity
  8
0-4
  6
Continuous
 62
    92
370
    13
100
AcDbLine
 10
3065.00008454194
 20
-624.86112958058
 30
0.0
 11
2407.030375142922
 21
-624.86112958058
 31
0.0
  0
LINE
  5
293
330
1F
100
AcDbEntity
  8
0-4
  6
Continuous
 62
    92
370
    13
100
AcDbLine
 10
2372.389930429747
 20
-624.86112958058
 30
0.0
 11
1328.639694848729
 21
-624.86112958058
 31
0.0
  0
LINE
  5
294
330
1F
100
AcDbEntity
  8
0-4
  6
Continuous
 62
    92
370
    13
100
AcDbLine
 10
3072.50008454194
 20
-617.36112958058
 30
0.0
 11
2411.361073600046
 21
-617.36112958058
 31
0.0
  0
LINE
  5
295
330
1F
100
AcDbEntity
  8
0-4
  6
Continuous
 62
    92
370
    13
100
AcDbLine
 10
2376.720057448669
 20
-617.36112958058
 30
0.0
 11
1325.53309313093
 21
-617.36112958058
 31
0.0
  0
LINE
  5
296
330
1F
100
AcDbEntity
  8
0-4
  6
Continuous
 62
    92
370
    13
100
AcDbLine
 10
3065.00008454194
 20
-1873.136823212765
 30
0.0
 11
2407.030375142922
 21
-1873.136823212765
 31
0.0
  0
LINE
  5
297
330
1F
100
AcDbEntity
  8
0-4
  6
Continuous
 62
    92
370
    13
100
AcDbLine
 10
2372.389930429747
 20
-1873.136823212765
 30
0.0
 11
1328.639694848729
 21
-1873.136823212765
 31
0.0
  0
LINE
  5
298
330
1F
100
AcDbEntity
  8
0-4
  6
Continuous
 62
    92
370
    13
100
AcDbLine
 10
3072.50008454194
 20
-1865.636823212765
 30
0.0
 11
2411.361073600046
 21
-1865.636823212765
 31
0.0
  0
LINE
  5
299
330
1F
100
AcDbEntity
  8
0-4
  6
Continuous
 62
    92
370
    13
100
AcDbLine
 10
2376.720057448669
 20
-1865.636823212765
 30
0.0
 11
1325.53309313093
 21
-1865.636823212765
 31
0.0
  0
LINE
  5
29A
330
1F
100
AcDbEntity
  8
0-4
  6
Continuous
 62
    92
370
    13
100
AcDbLine
 10
3065.00008454194
 20
-3123.136903115208
 30
0.0
 11
2407.030375142922
 21
-3123.136903115208
 31
0.0
  0
LINE
  5
29B
330
1F
100
AcDbEntity
  8
0-4
  6
Continuous
 62
    92
370
    13
100
AcDbLine
 10
2372.389930429747
 20
-3123.136903115208
 30
0.0
 11
1328.639694848729
 21
-3123.136903115208
 31
0.0
  0
LINE
  5
29C
330
1F
100
AcDbEntity
  8
0-4
  6
Continuous
 62
    92
370
    13
100
AcDbLine
 10
3072.50008454194
 20
-3115.636903115208
 30
0.0
 11
2411.361073600046
 21
-3115.636903115208
 31
0.0
  0
LINE
  5
29D
330
1F
100
AcDbEntity
  8
0-4
  6
Continuous
 62
    92
370
    13
100
AcDbLine
 10
2376.720057448669
 20
-3115.636903115208
 30
0.0
 11
1325.53309313093
 21
-3115.636903115208
 31
0.0
  0
LINE
  5
29E
330
1F
100
AcDbEntity
  8
F-0
  6
JWW_HOJO
 62
     7
370
     9
100
AcDbLine
 10
849.9995876002961
 20
-3795.000003092998
 30
0.0
 11
849.9995876002961
 21
-4195.000008247994
 31
0.0
  0
LINE
  5
29F
330
1F
100
AcDbEntity
  8
F-0
  6
JWW_HOJO
 62
     7
370
     9
100
AcDbLine
 10
349.9999175200594
 20
-3795.000003092998
 30
0.0
 11
349.9999175200594
 21
-4195.000008247994
 31
0.0
  0
LINE
  5
2A0
330
1F
100
AcDbEntity
  8
F-1
  6
Continuous
 62
   200
370
    20
100
AcDbLine
 10
5699.998762800888
 20
-4205.000002577498
 30
0.0
 11
-5999.999752560178
 21
-4205.000002577498
 31
0.0
  0
LINE
  5
2A1
330
1F
100
AcDbEntity
  8
F-1
  6
Continuous
 62
   200
370
    20
100
AcDbLine
 10
5699.998762800888
 20
-4199.999993814004
 30
0.0
 11
-5999.999752560178
 21
-4199.999993814004
 31
0.0
  0
LINE
  5
2A2
330
1F
100
AcDbEntity
  8
F-1
  6
Continuous
 62
   200
370
    20
100
AcDbLine
 10
5699.998762800888
 20
-4195.000008247994
 30
0.0
 11
-5999.999752560178
 21
-4195.000008247994
 31
0.0
  0
LINE
  5
2A3
330
1F
100
AcDbEntity
  8
F-1
  6
Continuous
 62
   200
370
    20
100
AcDbLine
 10
4189.999224688556
 20
-3795.000003092998
 30
0.0
 11
4189.999224688556
 21
-4195.000008247994
 31
0.0
  0
LINE
  5
2A4
330
1F
100
AcDbEntity
  8
F-1
  6
Continuous
 62
   200
370
    20
100
AcDbLine
 10
2689.998729808911
 20
-3795.000003092998
 30
0.0
 11
2689.998729808911
 21
-4195.000008247994
 31
0.0
  0
LINE
  5
2A5
330
1F
100
AcDbEntity
  8
F-1
  6
Continuous
 62
   200
370
    20
100
AcDbLine
 10
-150.0001237199109
 20
-3795.000003092998
 30
0.0
 11
-150.0001237199109
 21
-4195.000008247994
 31
0.0
  0
LINE
  5
2A6
330
1F
100
AcDbEntity
  8
F-1
  6
Continuous
 62
   200
370
    20
100
AcDbLine
 10
-150.0001237199109
 20
-3994.999936078046
 30
0.0
 11
5689.998977248734
 21
-3995.005364289155
 31
0.0
  0
LINE
  5
2A7
330
1F
100
AcDbEntity
  8
F-0
  6
JWW_HOJO
 62
     7
370
     9
100
AcDbLine
 10
-5989.999990205507
 20
-3994.99993607839
 30
0.0
 11
-150.0001237199109
 21
-3994.99993607839
 31
0.0
  0
LINE
  5
2A8
330
1F
100
AcDbEntity
  8
F-0
  6
JWW_HOJO
 62
     7
370
     9
100
AcDbLine
 10
-5989.999990205507
 20
-3904.99993607839
 30
0.0
 11
-150.0001237199109
 21
-3904.99993607839
 31
0.0
  0
LINE
  5
2A9
330
1F
100
AcDbEntity
  8
F-0
  6
JWW_HOJO
 62
     7
370
     9
100
AcDbLine
 10
-5989.999990205507
 20
-4084.99993607839
 30
0.0
 11
-150.0001237199109
 21
-4084.99993607839
 31
0.0
  0
LINE
  5
2AA
330
1F
100
AcDbEntity
  8
F-0
  6
JWW_HOJO
 62
     7
370
     9
100
AcDbLine
 10
-150.0002584955388
 20
-4139.999739777983
 30
0.0
 11
5689.998842473105
 21
-4140.005167989091
 31
0.0
  0
LINE
  5
2AB
330
1F
100
AcDbEntity
  8
F-0
  6
JWW_HOJO
 62
     7
370
     9
100
AcDbLine
 10
-150.0001748415872
 20
-4049.999739778022
 30
0.0
 11
5689.998926127057
 21
-4050.005167989131
 31
0.0
  0
LINE
  5
2AC
330
1F
100
AcDbEntity
  8
F-0
  6
JWW_HOJO
 62
     7
370
     9
100
AcDbLine
 10
-150.0000725978671
 20
-3939.99973721807
 30
0.0
 11
5689.999028370777
 21
-3940.005165429179
 31
0.0
  0
LINE
  5
2AD
330
1F
100
AcDbEntity
  8
F-0
  6
JWW_HOJO
 62
     7
370
     9
100
AcDbLine
 10
-149.9999889439155
 20
-3849.999737218109
 30
0.0
 11
5689.999112024728
 21
-3850.005165429218
 31
0.0
  0
LINE
  5
2AE
330
1F
100
AcDbEntity
  8
F-0
  6
JWW_HOJO
 62
     7
370
     9
100
AcDbLine
 10
2779.998729808911
 20
-3795.000003092998
 30
0.0
 11
2779.998729808911
 21
-4195.000008247994
 31
0.0
  0
LINE
  5
2AF
330
1F
100
AcDbEntity
  8
F-0
  6
JWW_HOJO
 62
     7
370
     9
100
AcDbLine
 10
-60.0001237199109
 20
-3795.000003092998
 30
0.0
 11
-60.0001237199109
 21
-4195.000008247994
 31
0.0
  0
LINE
  5
2B0
330
1F
100
AcDbEntity
  8
F-0
  6
JWW_HOJO
 62
     7
370
     9
100
AcDbLine
 10
4279.999224688556
 20
-3795.000003092998
 30
0.0
 11
4279.999224688556
 21
-4195.000008247994
 31
0.0
  0
LINE
  5
2B1
330
1F
100
AcDbEntity
  8
F-1
  6
Continuous
 62
   200
370
    20
100
AcDbLine
 10
5699.998762800888
 20
-3795.000003092998
 30
0.0
 11
-5999.999752560178
 21
-3795.000003092998
 31
0.0
  0
LINE
  5
2B2
330
1F
100
AcDbEntity
  8
F-1
  6
Continuous
 62
   200
370
    20
100
AcDbLine
 10
5699.998762800888
 20
-3790.000017526987
 30
0.0
 11
-5999.999752560178
 21
-3790.000017526987
 31
0.0
  0
LINE
  5
2B3
330
1F
100
AcDbEntity
  8
F-0
  6
JWW_HOJO
 62
     7
370
     9
100
AcDbLine
 10
-5247.547376752838
 20
-3795.000003092999
 30
0.0
 11
-5247.547376752838
 21
-4205.000164959882
 31
0.0
  0
LINE
  5
2B4
330
1F
100
AcDbEntity
  8
F-0
  6
JWW_HOJO
 62
     7
370
     9
100
AcDbLine
 10
-210.0001237199109
 20
-3795.000003092998
 30
0.0
 11
-210.0001237199109
 21
-4195.000008247994
 31
0.0
  0
MTEXT
  5
2B5
330
1F
100
AcDbEntity
  8
0-A
  6
Continuous
 62
     7
370
     9
100
AcDbMText
 10
-552.5007588154554
 20
3576.165456893767
 30
0.0
 40
68.57999999999998
 41
315.0
 46
0.0
 71
     7
 72
     1
  1
{\fＭＳ ゴシック|b0|i0|c128|p49;2(偶数)}
 73
     1
 44
1.0
  0
MTEXT
  5
2B6
330
1F
100
AcDbEntity
  8
0-A
  6
Continuous
 62
     7
370
     9
100
AcDbMText
 10
3574.999719568202
 20
3576.165456893767
 30
0.0
 40
68.58
 41
630.0
 46
0.0
 71
     7
 72
     1
  1
{\fＭＳ ゴシック|b0|i0|c128|p49;3,900×205×20}
 73
     1
 44
1.0
  0
MTEXT
  5
2B7
330
1F
100
AcDbEntity
  8
0-A
  6
Continuous
 62
     7
370
     9
100
AcDbMText
 10
5292.499719568203
 20
3576.165456893767
 30
0.0
 40
68.57999999999998
 41
315.0
 46
0.0
 71
     7
 72
     1
  1
{\fＭＳ ゴシック|b0|i0|c128|p49;2(偶数)}
 73
     1
 44
1.0
  0
MTEXT
  5
2B8
330
1F
100
AcDbEntity
  8
0-A
  6
Continuous
 62
     7
370
     9
100
AcDbMText
 10
-4895.000028867979
 20
3534.149461887669
 30
0.0
 40
98.29799999999999
 41
322.5
 46
0.0
 71
     7
 72
     1
  1
{\fＭＳ ゴシック|b0|i0|c128|p49;175幅}
 73
     1
 44
1.0
  0
MTEXT
  5
2B9
330
1F
100
AcDbEntity
  8
0-A
  6
Continuous
 62
     7
370
     9
100
AcDbMText
 10
949.9995216163429
 20
3534.149461887669
 30
0.0
 40
98.29799999999999
 41
322.5
 46
0.0
 71
     7
 72
     1
  1
{\fＭＳ ゴシック|b0|i0|c128|p49;205幅}
 73
     1
 44
1.0
  0
MTEXT
  5
2BA
330
1F
100
AcDbEntity
  8
0-A
  6
Continuous
 62
     7
370
     9
100
AcDbMText
 10
-2270.000758815456
 20
3498.040451899864
 30
0.0
 40
68.58
 41
630.0
 46
0.0
 71
     7
 72
     1
  1
{\fＭＳ ゴシック|b0|i0|c128|p49;3,900×175×20}
 73
     1
 44
1.0
  0
MTEXT
  5
2BB
330
1F
100
AcDbEntity
  8
0-A
  6
Continuous
 62
     7
370
     9
100
AcDbMText
 10
-417.5007588154554
 20
3419.915446905961
 30
0.0
 40
68.58
 41
45.0
 46
0.0
 71
     7
 72
     1
  1
{\fＭＳ ゴシック|b0|i0|c128|p49;1}
 73
     1
 44
1.0
  0
MTEXT
  5
2BC
330
1F
100
AcDbEntity
  8
0-A
  6
Continuous
 62
     7
370
     9
100
AcDbMText
 10
-552.5007588154554
 20
2326.165376991324
 30
0.0
 40
68.57999999999998
 41
315.0
 46
0.0
 71
     7
 72
     1
  1
{\fＭＳ ゴシック|b0|i0|c128|p49;2(偶数)}
 73
     1
 44
1.0
  0
MTEXT
  5
2BD
330
1F
100
AcDbEntity
  8
0-A
  6
Continuous
 62
     7
370
     9
100
AcDbMText
 10
3574.999719568202
 20
2326.165376991323
 30
0.0
 40
68.58
 41
630.0
 46
0.0
 71
     7
 72
     1
  1
{\fＭＳ ゴシック|b0|i0|c128|p49;3,900×210×20}
 73
     1
 44
1.0
  0
MTEXT
  5
2BE
330
1F
100
AcDbEntity
  8
0-A
  6
Continuous
 62
     7
370
     9
100
AcDbMText
 10
5292.499719568203
 20
2326.165376991324
 30
0.0
 40
68.57999999999998
 41
315.0
 46
0.0
 71
     7
 72
     1
  1
{\fＭＳ ゴシック|b0|i0|c128|p49;2(偶数)}
 73
     1
 44
1.0
  0
MTEXT
  5
2BF
330
1F
100
AcDbEntity
  8
0-A
  6
Continuous
 62
     7
370
     9
100
AcDbMText
 10
-4895.000028867979
 20
2284.149381985226
 30
0.0
 40
98.29799999999999
 41
322.5
 46
0.0
 71
     7
 72
     1
  1
{\fＭＳ ゴシック|b0|i0|c128|p49;180幅}
 73
     1
 44
1.0
  0
MTEXT
  5
2C0
330
1F
100
AcDbEntity
  8
0-A
  6
Continuous
 62
     7
370
     9
100
AcDbMText
 10
949.9995216163429
 20
2284.149381985226
 30
0.0
 40
98.29799999999999
 41
322.5
 46
0.0
 71
     7
 72
     1
  1
{\fＭＳ ゴシック|b0|i0|c128|p49;210幅}
 73
     1
 44
1.0
  0
MTEXT
  5
2C1
330
1F
100
AcDbEntity
  8
0-A
  6
Continuous
 62
     7
370
     9
100
AcDbMText
 10
-2270.000758815456
 20
2248.040371997421
 30
0.0
 40
68.58
 41
630.0
 46
0.0
 71
     7
 72
     1
  1
{\fＭＳ ゴシック|b0|i0|c128|p49;3,900×180×20}
 73
     1
 44
1.0
  0
MTEXT
  5
2C2
330
1F
100
AcDbEntity
  8
0-A
  6
Continuous
 62
     7
370
     9
100
AcDbMText
 10
-417.5007588154554
 20
2169.915367003518
 30
0.0
 40
68.58
 41
45.0
 46
0.0
 71
     7
 72
     1
  1
{\fＭＳ ゴシック|b0|i0|c128|p49;1}
 73
     1
 44
1.0
  0
MTEXT
  5
2C3
330
1F
100
AcDbEntity
  8
0-A
  6
Continuous
 62
     7
370
     9
100
AcDbMText
 10
-2270.000758815456
 20
1076.165297088881
 30
0.0
 40
68.58
 41
630.0
 46
0.0
 71
     7
 72
     1
  1
{\fＭＳ ゴシック|b0|i0|c128|p49;3,900×185×20}
 73
     1
 44
1.0
  0
MTEXT
  5
2C4
330
1F
100
AcDbEntity
  8
0-A
  6
Continuous
 62
     7
370
     9
100
AcDbMText
 10
-552.5007588154554
 20
1076.165297088881
 30
0.0
 40
68.57999999999998
 41
315.0
 46
0.0
 71
     7
 72
     1
  1
{\fＭＳ ゴシック|b0|i0|c128|p49;2(偶数)}
 73
     1
 44
1.0
  0
MTEXT
  5
2C5
330
1F
100
AcDbEntity
  8
0-A
  6
Continuous
 62
     7
370
     9
100
AcDbMText
 10
3574.999719568202
 20
1076.165297088881
 30
0.0
 40
68.58
 41
630.0
 46
0.0
 71
     7
 72
     1
  1
{\fＭＳ ゴシック|b0|i0|c128|p49;3,900×215×20}
 73
     1
 44
1.0
  0
MTEXT
  5
2C6
330
1F
100
AcDbEntity
  8
0-A
  6
Continuous
 62
     7
370
     9
100
AcDbMText
 10
5292.499719568203
 20
1076.165297088881
 30
0.0
 40
68.57999999999998
 41
315.0
 46
0.0
 71
     7
 72
     1
  1
{\fＭＳ ゴシック|b0|i0|c128|p49;2(偶数)}
 73
     1
 44
1.0
  0
MTEXT
  5
2C7
330
1F
100
AcDbEntity
  8
0-A
  6
Continuous
 62
     7
370
     9
100
AcDbMText
 10
-4895.000028867979
 20
1034.149302082783
 30
0.0
 40
98.29799999999999
 41
322.5
 46
0.0
 71
     7
 72
     1
  1
{\fＭＳ ゴシック|b0|i0|c128|p49;185幅}
 73
     1
 44
1.0
  0
MTEXT
  5
2C8
330
1F
100
AcDbEntity
  8
0-A
  6
Continuous
 62
     7
370
     9
100
AcDbMText
 10
949.9995216163429
 20
1034.149302082783
 30
0.0
 40
98.29799999999999
 41
322.5
 46
0.0
 71
     7
 72
     1
  1
{\fＭＳ ゴシック|b0|i0|c128|p49;215幅}
 73
     1
 44
1.0
  0
MTEXT
  5
2C9
330
1F
100
AcDbEntity
  8
0-A
  6
Continuous
 62
     7
370
     9
100
AcDbMText
 10
-5659.999626778267
 20
189.5292865330242
 30
0.0
 40
99.06
 41
390.0
 46
0.0
 71
     7
 72
     1
  1
{\fＭＳ ゴシック|b0|i0|c128|p49;窓枠・}
 73
     1
 44
1.0
  0
MTEXT
  5
2CA
330
1F
100
AcDbEntity
  8
0-A
  6
Continuous
 62
     7
370
     9
100
AcDbMText
 10
184.9999237060555
 20
189.5292865330242
 30
0.0
 40
99.06
 41
390.0
 46
0.0
 71
     7
 72
     1
  1
{\fＭＳ ゴシック|b0|i0|c128|p49;窓枠・}
 73
     1
 44
1.0
  0
MTEXT
  5
2CB
330
1F
100
AcDbEntity
  8
0-A
  6
Continuous
 62
     7
370
     9
100
AcDbMText
 10
-5659.999626778267
 20
-110.4705897169757
 30
0.0
 40
99.06
 41
390.0
 46
0.0
 71
     7
 72
     1
  1
{\fＭＳ ゴシック|b0|i0|c128|p49;Ａ型・}
 73
     1
 44
1.0
  0
MTEXT
  5
2CC
330
1F
100
AcDbEntity
  8
0-A
  6
Continuous
 62
     7
370
     9
100
AcDbMText
 10
184.9999237060555
 20
-110.4705897169757
 30
0.0
 40
99.06
 41
390.0
 46
0.0
 71
     7
 72
     1
  1
{\fＭＳ ゴシック|b0|i0|c128|p49;Ａ型・}
 73
     1
 44
1.0
  0
MTEXT
  5
2CD
330
1F
100
AcDbEntity
  8
0-A
  6
Continuous
 62
     7
370
     9
100
AcDbMText
 10
-2270.000758815456
 20
-173.8347828135622
 30
0.0
 40
68.58
 41
630.0
 46
0.0
 71
     7
 72
     1
  1
{\fＭＳ ゴシック|b0|i0|c128|p49;3,900×190×20}
 73
     1
 44
1.0
  0
MTEXT
  5
2CE
330
1F
100
AcDbEntity
  8
0-A
  6
Continuous
 62
     7
370
     9
100
AcDbMText
 10
-552.5007588154554
 20
-173.8347828135614
 30
0.0
 40
68.57999999999998
 41
315.0
 46
0.0
 71
     7
 72
     1
  1
{\fＭＳ ゴシック|b0|i0|c128|p49;2(偶数)}
 73
     1
 44
1.0
  0
MTEXT
  5
2CF
330
1F
100
AcDbEntity
  8
0-A
  6
Continuous
 62
     7
370
     9
100
AcDbMText
 10
3574.999719568202
 20
-173.8347828135622
 30
0.0
 40
68.58
 41
630.0
 46
0.0
 71
     7
 72
     1
  1
{\fＭＳ ゴシック|b0|i0|c128|p49;3,900×220×20}
 73
     1
 44
1.0
  0
MTEXT
  5
2D0
330
1F
100
AcDbEntity
  8
0-A
  6
Continuous
 62
     7
370
     9
100
AcDbMText
 10
5292.499719568203
 20
-173.8347828135614
 30
0.0
 40
68.57999999999998
 41
315.0
 46
0.0
 71
     7
 72
     1
  1
{\fＭＳ ゴシック|b0|i0|c128|p49;2(偶数)}
 73
     1
 44
1.0
  0
MTEXT
  5
2D1
330
1F
100
AcDbEntity
  8
0-A
  6
Continuous
 62
     7
370
     9
100
AcDbMText
 10
-4895.000028867979
 20
-215.8507778196598
 30
0.0
 40
98.29799999999999
 41
322.5
 46
0.0
 71
     7
 72
     1
  1
{\fＭＳ ゴシック|b0|i0|c128|p49;190幅}
 73
     1
 44
1.0
  0
MTEXT
  5
2D2
330
1F
100
AcDbEntity
  8
0-A
  6
Continuous
 62
     7
370
     9
100
AcDbMText
 10
949.9995216163429
 20
-215.8507778196598
 30
0.0
 40
98.29799999999999
 41
322.5
 46
0.0
 71
     7
 72
     1
  1
{\fＭＳ ゴシック|b0|i0|c128|p49;220幅}
 73
     1
 44
1.0
  0
MTEXT
  5
2D3
330
1F
100
AcDbEntity
  8
0-A
  6
Continuous
 62
     7
370
     9
100
AcDbMText
 10
-2270.000758815456
 20
-1423.834862716005
 30
0.0
 40
68.58
 41
630.0
 46
0.0
 71
     7
 72
     1
  1
{\fＭＳ ゴシック|b0|i0|c128|p49;3,900×195×20}
 73
     1
 44
1.0
  0
MTEXT
  5
2D4
330
1F
100
AcDbEntity
  8
0-A
  6
Continuous
 62
     7
370
     9
100
AcDbMText
 10
-552.5007588154554
 20
-1423.834862716004
 30
0.0
 40
68.57999999999998
 41
315.0
 46
0.0
 71
     7
 72
     1
  1
{\fＭＳ ゴシック|b0|i0|c128|p49;2(偶数)}
 73
     1
 44
1.0
  0
MTEXT
  5
2D5
330
1F
100
AcDbEntity
  8
0-A
  6
Continuous
 62
     7
370
     9
100
AcDbMText
 10
3574.999719568202
 20
-1423.834862716005
 30
0.0
 40
68.58
 41
630.0
 46
0.0
 71
     7
 72
     1
  1
{\fＭＳ ゴシック|b0|i0|c128|p49;3,900×225×20}
 73
     1
 44
1.0
  0
MTEXT
  5
2D6
330
1F
100
AcDbEntity
  8
0-A
  6
Continuous
 62
     7
370
     9
100
AcDbMText
 10
5292.499719568203
 20
-1423.834862716004
 30
0.0
 40
68.57999999999998
 41
315.0
 46
0.0
 71
     7
 72
     1
  1
{\fＭＳ ゴシック|b0|i0|c128|p49;2(偶数)}
 73
     1
 44
1.0
  0
MTEXT
  5
2D7
330
1F
100
AcDbEntity
  8
0-A
  6
Continuous
 62
     7
370
     9
100
AcDbMText
 10
-4895.000028867979
 20
-1465.850857722103
 30
0.0
 40
98.29799999999999
 41
322.5
 46
0.0
 71
     7
 72
     1
  1
{\fＭＳ ゴシック|b0|i0|c128|p49;195幅}
 73
     1
 44
1.0
  0
MTEXT
  5
2D8
330
1F
100
AcDbEntity
  8
0-A
  6
Continuous
 62
     7
370
     9
100
AcDbMText
 10
949.9995216163429
 20
-1465.850857722103
 30
0.0
 40
98.29799999999999
 41
322.5
 46
0.0
 71
     7
 72
     1
  1
{\fＭＳ ゴシック|b0|i0|c128|p49;225幅}
 73
     1
 44
1.0
  0
MTEXT
  5
2D9
330
1F
100
AcDbEntity
  8
0-A
  6
Continuous
 62
     7
370
     9
100
AcDbMText
 10
-2270.000758815456
 20
-2673.834942618447
 30
0.0
 40
68.58
 41
630.0
 46
0.0
 71
     7
 72
     1
  1
{\fＭＳ ゴシック|b0|i0|c128|p49;3,900×200×20}
 73
     1
 44
1.0
  0
MTEXT
  5
2DA
330
1F
100
AcDbEntity
  8
0-A
  6
Continuous
 62
     7
370
     9
100
AcDbMText
 10
-552.5007588154554
 20
-2673.834942618446
 30
0.0
 40
68.57999999999998
 41
315.0
 46
0.0
 71
     7
 72
     1
  1
{\fＭＳ ゴシック|b0|i0|c128|p49;2(偶数)}
 73
     1
 44
1.0
  0
MTEXT
  5
2DB
330
1F
100
AcDbEntity
  8
0-A
  6
Continuous
 62
     7
370
     9
100
AcDbMText
 10
3574.999719568202
 20
-2673.834942618447
 30
0.0
 40
68.58
 41
630.0
 46
0.0
 71
     7
 72
     1
  1
{\fＭＳ ゴシック|b0|i0|c128|p49;3,900×230×20}
 73
     1
 44
1.0
  0
MTEXT
  5
2DC
330
1F
100
AcDbEntity
  8
0-A
  6
Continuous
 62
     7
370
     9
100
AcDbMText
 10
5292.499719568203
 20
-2673.834942618446
 30
0.0
 40
68.57999999999998
 41
315.0
 46
0.0
 71
     7
 72
     1
  1
{\fＭＳ ゴシック|b0|i0|c128|p49;2(偶数)}
 73
     1
 44
1.0
  0
MTEXT
  5
2DD
330
1F
100
AcDbEntity
  8
0-A
  6
Continuous
 62
     7
370
     9
100
AcDbMText
 10
-4895.000028867979
 20
-2715.850937624545
 30
0.0
 40
98.29799999999999
 41
322.5
 46
0.0
 71
     7
 72
     1
  1
{\fＭＳ ゴシック|b0|i0|c128|p49;200幅}
 73
     1
 44
1.0
  0
MTEXT
  5
2DE
330
1F
100
AcDbEntity
  8
0-A
  6
Continuous
 62
     7
370
     9
100
AcDbMText
 10
949.9995216163429
 20
-2715.850937624545
 30
0.0
 40
98.29799999999999
 41
322.5
 46
0.0
 71
     7
 72
     1
  1
{\fＭＳ ゴシック|b0|i0|c128|p49;230幅}
 73
     1
 44
1.0
  0
MTEXT
  5
2DF
330
1F
100
AcDbEntity
  8
0-B
  6
Continuous
 62
     7
370
   211
100
AcDbMText
 10
-3747.499465942383
 20
3292.463496397007
 30
0.0
 40
76.19999999999999
 41
150.0
 46
0.0
 71
     7
 72
     1
  1
{\fＭＳ ゴシック|b0|i0|c128|p49;175}
 73
     1
 44
1.0
  0
MTEXT
  5
2E0
330
1F
100
AcDbEntity
  8
0-B
  6
Continuous
 62
     7
370
   211
100
AcDbMText
 10
2097.501012441275
 20
3292.463496397007
 30
0.0
 40
76.19999999999999
 41
150.0
 46
0.0
 71
     7
 72
     1
  1
{\fＭＳ ゴシック|b0|i0|c128|p49;205}
 73
     1
 44
1.0
  0
MTEXT
  5
2E1
330
1F
100
AcDbEntity
  8
0-B
  6
Continuous
 62
     7
370
   211
100
AcDbMText
 10
-4678.565483120364
 20
3197.899708421593
 30
0.0
 40
68.58000000000008
 41
45.00000000000006
 46
0.0
 71
     7
 72
     1
  1
{\fＭＳ ゴシック|b0|i0|c128|p49;5}
 11
0.7071067811865476
 21
0.7071067811865475
 31
0.0
 73
     1
 44
1.0
  0
MTEXT
  5
2E2
330
1F
100
AcDbEntity
  8
0-B
  6
Continuous
 62
     7
370
   211
100
AcDbMText
 10
1166.434995263292
 20
3197.899708421594
 30
0.0
 40
68.57999999999987
 41
44.99999999999991
 46
0.0
 71
     7
 72
     1
  1
{\fＭＳ ゴシック|b0|i0|c128|p49;5}
 11
0.7071067811865569
 21
0.707106781186538
 31
0.0
 73
     1
 44
1.0
  0
MTEXT
  5
2E3
330
1F
100
AcDbEntity
  8
0-B
  6
Continuous
 62
     7
370
   211
100
AcDbMText
 10
-4737.499465942383
 20
2927.760996397006
 30
0.0
 40
74.295
 41
97.5
 46
0.0
 71
     7
 72
     1
  1
{\fＭＳ ゴシック|b0|i0|c128|p49;20}
 11
6.123031769111886E-17
 21
1.0
 31
0.0
 73
     1
 44
1.0
  0
MTEXT
  5
2E4
330
1F
100
AcDbEntity
  8
0-B
  6
Continuous
 62
     7
370
   211
100
AcDbMText
 10
1107.501012441275
 20
2927.760996397006
 30
0.0
 40
74.295
 41
97.5
 46
0.0
 71
     7
 72
     1
  1
{\fＭＳ ゴシック|b0|i0|c128|p49;20}
 11
6.123031769111886E-17
 21
1.0
 31
0.0
 73
     1
 44
1.0
  0
MTEXT
  5
2E5
330
1F
100
AcDbEntity
  8
0-B
  6
Continuous
 62
     7
370
   211
100
AcDbMText
 10
-3747.500393841717
 20
2042.463416494564
 30
0.0
 40
76.19999999999999
 41
150.0
 46
0.0
 71
     7
 72
     1
  1
{\fＭＳ ゴシック|b0|i0|c128|p49;180}
 73
     1
 44
1.0
  0
MTEXT
  5
2E6
330
1F
100
AcDbEntity
  8
0-B
  6
Continuous
 62
     7
370
   211
100
AcDbMText
 10
2097.50008454194
 20
2042.463416494564
 30
0.0
 40
76.19999999999999
 41
150.0
 46
0.0
 71
     7
 72
     1
  1
{\fＭＳ ゴシック|b0|i0|c128|p49;210}
 73
     1
 44
1.0
  0
MTEXT
  5
2E7
330
1F
100
AcDbEntity
  8
0-B
  6
Continuous
 62
     7
370
   211
100
AcDbMText
 10
-4678.5664110197
 20
1947.899628519152
 30
0.0
 40
68.58000000000008
 41
45.00000000000006
 46
0.0
 71
     7
 72
     1
  1
{\fＭＳ ゴシック|b0|i0|c128|p49;5}
 11
0.7071067811865285
 21
0.7071067811865666
 31
0.0
 73
     1
 44
1.0
  0
MTEXT
  5
2E8
330
1F
100
AcDbEntity
  8
0-B
  6
Continuous
 62
     7
370
   211
100
AcDbMText
 10
1166.434067363958
 20
1947.899628519152
 30
0.0
 40
68.57999999999987
 41
44.99999999999991
 46
0.0
 71
     7
 72
     1
  1
{\fＭＳ ゴシック|b0|i0|c128|p49;5}
 11
0.7071067811865476
 21
0.7071067811865475
 31
0.0
 73
     1
 44
1.0
  0
MTEXT
  5
2E9
330
1F
100
AcDbEntity
  8
0-B
  6
Continuous
 62
     7
370
   211
100
AcDbMText
 10
-4737.500393841718
 20
1677.760916494564
 30
0.0
 40
74.295
 41
97.5
 46
0.0
 71
     7
 72
     1
  1
{\fＭＳ ゴシック|b0|i0|c128|p49;20}
 11
6.123031769111886E-17
 21
1.0
 31
0.0
 73
     1
 44
1.0
  0
MTEXT
  5
2EA
330
1F
100
AcDbEntity
  8
0-B
  6
Continuous
 62
     7
370
   211
100
AcDbMText
 10
1107.50008454194
 20
1677.760916494564
 30
0.0
 40
74.295
 41
97.5
 46
0.0
 71
     7
 72
     1
  1
{\fＭＳ ゴシック|b0|i0|c128|p49;20}
 11
6.123031769111886E-17
 21
1.0
 31
0.0
 73
     1
 44
1.0
  0
MTEXT
  5
2EB
330
1F
100
AcDbEntity
  8
0-B
  6
Continuous
 62
     7
370
   211
100
AcDbMText
 10
-3747.500393841717
 20
792.4633365921215
 30
0.0
 40
76.19999999999999
 41
150.0
 46
0.0
 71
     7
 72
     1
  1
{\fＭＳ ゴシック|b0|i0|c128|p49;185}
 73
     1
 44
1.0
  0
MTEXT
  5
2EC
330
1F
100
AcDbEntity
  8
0-B
  6
Continuous
 62
     7
370
   211
100
AcDbMText
 10
2097.50008454194
 20
792.4633365921215
 30
0.0
 40
76.19999999999999
 41
150.0
 46
0.0
 71
     7
 72
     1
  1
{\fＭＳ ゴシック|b0|i0|c128|p49;215}
 73
     1
 44
1.0
  0
MTEXT
  5
2ED
330
1F
100
AcDbEntity
  8
0-B
  6
Continuous
 62
     7
370
   211
100
AcDbMText
 10
-4678.5664110197
 20
697.8995486167107
 30
0.0
 40
68.58000000000033
 41
45.00000000000021
 46
0.0
 71
     7
 72
     1
  1
{\fＭＳ ゴシック|b0|i0|c128|p49;5}
 11
0.7071067811865285
 21
0.7071067811865666
 31
0.0
 73
     1
 44
1.0
  0
MTEXT
  5
2EE
330
1F
100
AcDbEntity
  8
0-B
  6
Continuous
 62
     7
370
   211
100
AcDbMText
 10
1166.434067363957
 20
697.8995486167106
 30
0.0
 40
68.58000000000008
 41
45.00000000000006
 46
0.0
 71
     7
 72
     1
  1
{\fＭＳ ゴシック|b0|i0|c128|p49;5}
 11
0.7071067811865476
 21
0.7071067811865475
 31
0.0
 73
     1
 44
1.0
  0
MTEXT
  5
2EF
330
1F
100
AcDbEntity
  8
0-B
  6
Continuous
 62
     7
370
   211
100
AcDbMText
 10
-4737.500393841718
 20
427.7608365921215
 30
0.0
 40
74.295
 41
97.5
 46
0.0
 71
     7
 72
     1
  1
{\fＭＳ ゴシック|b0|i0|c128|p49;20}
 11
6.123031769111886E-17
 21
1.0
 31
0.0
 73
     1
 44
1.0
  0
MTEXT
  5
2F0
330
1F
100
AcDbEntity
  8
0-B
  6
Continuous
 62
     7
370
   211
100
AcDbMText
 10
1107.50008454194
 20
427.7608365921215
 30
0.0
 40
74.295
 41
97.5
 46
0.0
 71
     7
 72
     1
  1
{\fＭＳ ゴシック|b0|i0|c128|p49;20}
 11
6.123031769111886E-17
 21
1.0
 31
0.0
 73
     1
 44
1.0
  0
MTEXT
  5
2F1
330
1F
100
AcDbEntity
  8
0-B
  6
Continuous
 62
     7
370
   211
100
AcDbMText
 10
-3747.500393841717
 20
-459.2611295805796
 30
0.0
 40
76.19999999999999
 41
150.0
 46
0.0
 71
     7
 72
     1
  1
{\fＭＳ ゴシック|b0|i0|c128|p49;190}
 73
     1
 44
1.0
  0
MTEXT
  5
2F2
330
1F
100
AcDbEntity
  8
0-B
  6
Continuous
 62
     7
370
   211
100
AcDbMText
 10
2097.50008454194
 20
-459.2611295805796
 30
0.0
 40
76.19999999999999
 41
150.0
 46
0.0
 71
     7
 72
     1
  1
{\fＭＳ ゴシック|b0|i0|c128|p49;220}
 73
     1
 44
1.0
  0
MTEXT
  5
2F3
330
1F
100
AcDbEntity
  8
0-B
  6
Continuous
 62
     7
370
   211
100
AcDbMText
 10
-4678.5664110197
 20
-553.8249175559913
 30
0.0
 40
68.58000000000033
 41
45.00000000000021
 46
0.0
 71
     7
 72
     1
  1
{\fＭＳ ゴシック|b0|i0|c128|p49;5}
 11
0.7071067811865285
 21
0.7071067811865666
 31
0.0
 73
     1
 44
1.0
  0
MTEXT
  5
2F4
330
1F
100
AcDbEntity
  8
0-B
  6
Continuous
 62
     7
370
   211
100
AcDbMText
 10
1166.434067363958
 20
-553.8249175559914
 30
0.0
 40
68.58000000000008
 41
45.00000000000006
 46
0.0
 71
     7
 72
     1
  1
{\fＭＳ ゴシック|b0|i0|c128|p49;5}
 11
0.7071067811865476
 21
0.7071067811865475
 31
0.0
 73
     1
 44
1.0
  0
MTEXT
  5
2F5
330
1F
100
AcDbEntity
  8
0-B
  6
Continuous
 62
     7
370
   211
100
AcDbMText
 10
-4737.500393841718
 20
-808.96362958058
 30
0.0
 40
74.295
 41
97.5
 46
0.0
 71
     7
 72
     1
  1
{\fＭＳ ゴシック|b0|i0|c128|p49;20}
 11
6.123031769111886E-17
 21
1.0
 31
0.0
 73
     1
 44
1.0
  0
MTEXT
  5
2F6
330
1F
100
AcDbEntity
  8
0-B
  6
Continuous
 62
     7
370
   211
100
AcDbMText
 10
1107.50008454194
 20
-808.96362958058
 30
0.0
 40
74.295
 41
97.5
 46
0.0
 71
     7
 72
     1
  1
{\fＭＳ ゴシック|b0|i0|c128|p49;20}
 11
6.123031769111886E-17
 21
1.0
 31
0.0
 73
     1
 44
1.0
  0
MTEXT
  5
2F7
330
1F
100
AcDbEntity
  8
0-B
  6
Continuous
 62
     7
370
   211
100
AcDbMText
 10
-3747.500393841717
 20
-1707.536823212765
 30
0.0
 40
76.19999999999999
 41
150.0
 46
0.0
 71
     7
 72
     1
  1
{\fＭＳ ゴシック|b0|i0|c128|p49;195}
 73
     1
 44
1.0
  0
MTEXT
  5
2F8
330
1F
100
AcDbEntity
  8
0-B
  6
Continuous
 62
     7
370
   211
100
AcDbMText
 10
2097.50008454194
 20
-1707.536823212765
 30
0.0
 40
76.19999999999999
 41
150.0
 46
0.0
 71
     7
 72
     1
  1
{\fＭＳ ゴシック|b0|i0|c128|p49;225}
 73
     1
 44
1.0
  0
MTEXT
  5
2F9
330
1F
100
AcDbEntity
  8
0-B
  6
Continuous
 62
     7
370
   211
100
AcDbMText
 10
-4678.5664110197
 20
-1802.100611188176
 30
0.0
 40
68.57999999999987
 41
44.99999999999991
 46
0.0
 71
     7
 72
     1
  1
{\fＭＳ ゴシック|b0|i0|c128|p49;5}
 11
0.707106781186538
 21
0.707106781186557
 31
0.0
 73
     1
 44
1.0
  0
MTEXT
  5
2FA
330
1F
100
AcDbEntity
  8
0-B
  6
Continuous
 62
     7
370
   211
100
AcDbMText
 10
1166.434067363958
 20
-1802.100611188177
 30
0.0
 40
68.58000000000008
 41
45.00000000000006
 46
0.0
 71
     7
 72
     1
  1
{\fＭＳ ゴシック|b0|i0|c128|p49;5}
 11
0.7071067811865569
 21
0.707106781186538
 31
0.0
 73
     1
 44
1.0
  0
MTEXT
  5
2FB
330
1F
100
AcDbEntity
  8
0-B
  6
Continuous
 62
     7
370
   211
100
AcDbMText
 10
-4737.500393841718
 20
-2072.239323212765
 30
0.0
 40
74.295
 41
97.5
 46
0.0
 71
     7
 72
     1
  1
{\fＭＳ ゴシック|b0|i0|c128|p49;20}
 11
6.123031769111886E-17
 21
1.0
 31
0.0
 73
     1
 44
1.0
  0
MTEXT
  5
2FC
330
1F
100
AcDbEntity
  8
0-B
  6
Continuous
 62
     7
370
   211
100
AcDbMText
 10
1107.50008454194
 20
-2072.239323212765
 30
0.0
 40
74.295
 41
97.5
 46
0.0
 71
     7
 72
     1
  1
{\fＭＳ ゴシック|b0|i0|c128|p49;20}
 11
6.123031769111886E-17
 21
1.0
 31
0.0
 73
     1
 44
1.0
  0
MTEXT
  5
2FD
330
1F
100
AcDbEntity
  8
0-B
  6
Continuous
 62
     7
370
   211
100
AcDbMText
 10
-3747.500393841717
 20
-2957.536903115208
 30
0.0
 40
76.19999999999999
 41
150.0
 46
0.0
 71
     7
 72
     1
  1
{\fＭＳ ゴシック|b0|i0|c128|p49;200}
 73
     1
 44
1.0
  0
MTEXT
  5
2FE
330
1F
100
AcDbEntity
  8
0-B
  6
Continuous
 62
     7
370
   211
100
AcDbMText
 10
2097.50008454194
 20
-2957.536903115208
 30
0.0
 40
76.19999999999999
 41
150.0
 46
0.0
 71
     7
 72
     1
  1
{\fＭＳ ゴシック|b0|i0|c128|p49;230}
 73
     1
 44
1.0
  0
MTEXT
  5
2FF
330
1F
100
AcDbEntity
  8
0-B
  6
Continuous
 62
     7
370
   211
100
AcDbMText
 10
-4678.5664110197
 20
-3052.100691090619
 30
0.0
 40
68.58000000000008
 41
45.00000000000006
 46
0.0
 71
     7
 72
     1
  1
{\fＭＳ ゴシック|b0|i0|c128|p49;5}
 11
0.7071067811865334
 21
0.7071067811865617
 31
0.0
 73
     1
 44
1.0
  0
MTEXT
  5
300
330
1F
100
AcDbEntity
  8
0-B
  6
Continuous
 62
     7
370
   211
100
AcDbMText
 10
1166.434067363958
 20
-3052.100691090619
 30
0.0
 40
68.57999999999987
 41
44.99999999999991
 46
0.0
 71
     7
 72
     1
  1
{\fＭＳ ゴシック|b0|i0|c128|p49;5}
 11
0.7071067811865521
 21
0.7071067811865429
 31
0.0
 73
     1
 44
1.0
  0
MTEXT
  5
301
330
1F
100
AcDbEntity
  8
0-B
  6
Continuous
 62
     7
370
   211
100
AcDbMText
 10
-4737.500393841718
 20
-3322.239403115208
 30
0.0
 40
74.295
 41
97.5
 46
0.0
 71
     7
 72
     1
  1
{\fＭＳ ゴシック|b0|i0|c128|p49;20}
 11
6.123031769111886E-17
 21
1.0
 31
0.0
 73
     1
 44
1.0
  0
MTEXT
  5
302
330
1F
100
AcDbEntity
  8
0-B
  6
Continuous
 62
     7
370
   211
100
AcDbMText
 10
1107.50008454194
 20
-3322.239403115208
 30
0.0
 40
74.295
 41
97.5
 46
0.0
 71
     7
 72
     1
  1
{\fＭＳ ゴシック|b0|i0|c128|p49;20}
 11
6.123031769111886E-17
 21
1.0
 31
0.0
 73
     1
 44
1.0
  0
MTEXT
  5
303
330
1F
100
AcDbEntity
  8
F-1
  6
Continuous
 62
     7
370
     0
100
AcDbMText
 10
-2082.500758815456
 20
3984.827681455869
 30
0.0
 40
97.15499999999999
 41
255.0
 46
0.0
 71
     7
 72
     1
  1
{\fＭＳ ゴシック|b0|i0|c128|p49;寸法}
 73
     1
 44
1.0
  0
MTEXT
  5
304
330
1F
100
AcDbEntity
  8
F-1
  6
Continuous
 62
     7
370
     0
100
AcDbMText
 10
-522.5007588154554
 20
3984.827681455869
 30
0.0
 40
97.15499999999999
 41
255.0
 46
0.0
 71
     7
 72
     1
  1
{\fＭＳ ゴシック|b0|i0|c128|p49;発注}
 73
     1
 44
1.0
  0
MTEXT
  5
305
330
1F
100
AcDbEntity
  8
F-1
  6
Continuous
 62
     7
370
     0
100
AcDbMText
 10
3762.499719568202
 20
3984.779430690454
 30
0.0
 40
97.15499999999999
 41
255.0
 46
0.0
 71
     7
 72
     1
  1
{\fＭＳ ゴシック|b0|i0|c128|p49;寸法}
 73
     1
 44
1.0
  0
MTEXT
  5
306
330
1F
100
AcDbEntity
  8
F-1
  6
Continuous
 62
     7
370
     0
100
AcDbMText
 10
5322.499719568203
 20
3984.779430690454
 30
0.0
 40
97.15499999999999
 41
255.0
 46
0.0
 71
     7
 72
     1
  1
{\fＭＳ ゴシック|b0|i0|c128|p49;発注}
 73
     1
 44
1.0
  0
MTEXT
  5
307
330
1F
100
AcDbEntity
  8
F-1
  6
Continuous
 62
     7
370
     0
100
AcDbMText
 10
-1197.500758815456
 20
3876.077879407728
 30
0.0
 40
97.15499999999999
 41
255.0
 46
0.0
 71
     7
 72
     1
  1
{\fＭＳ ゴシック|b0|i0|c128|p49;品番}
 73
     1
 44
1.0
  0
MTEXT
  5
308
330
1F
100
AcDbEntity
  8
F-1
  6
Continuous
 62
     7
370
     0
100
AcDbMText
 10
4647.499719568202
 20
3876.029628642314
 30
0.0
 40
97.15499999999999
 41
255.0
 46
0.0
 71
     7
 72
     1
  1
{\fＭＳ ゴシック|b0|i0|c128|p49;品番}
 73
     1
 44
1.0
  0
MTEXT
  5
309
330
1F
100
AcDbEntity
  8
F-1
  6
Continuous
 62
     7
370
     0
100
AcDbMText
 10
-2360.000758815456
 20
3753.040577359584
 30
0.0
 40
68.58
 41
810.0
 46
0.0
 71
     7
 72
     1
  1
{\fＭＳ ゴシック|b0|i0|c128|p49;長さ×幅×厚さ(㎜)}
 73
     1
 44
1.0
  0
MTEXT
  5
30A
330
1F
100
AcDbEntity
  8
F-1
  6
Continuous
 62
     7
370
     0
100
AcDbMText
 10
-522.5007588154554
 20
3767.328077359584
 30
0.0
 40
97.15499999999999
 41
255.0
 46
0.0
 71
     7
 72
     1
  1
{\fＭＳ ゴシック|b0|i0|c128|p49;単位}
 73
     1
 44
1.0
  0
MTEXT
  5
30B
330
1F
100
AcDbEntity
  8
F-1
  6
Continuous
 62
     7
370
     0
100
AcDbMText
 10
3484.999719568202
 20
3753.040577359584
 30
0.0
 40
68.58
 41
810.0
 46
0.0
 71
     7
 72
     1
  1
{\fＭＳ ゴシック|b0|i0|c128|p49;長さ×幅×厚さ(㎜)}
 73
     1
 44
1.0
  0
MTEXT
  5
30C
330
1F
100
AcDbEntity
  8
F-1
  6
Continuous
 62
     7
370
     0
100
AcDbMText
 10
5322.499719568203
 20
3767.27982659417
 30
0.0
 40
97.15499999999999
 41
255.0
 46
0.0
 71
     7
 72
     1
  1
{\fＭＳ ゴシック|b0|i0|c128|p49;単位}
 73
     1
 44
1.0
  0
MTEXT
  5
30D
330
1F
100
AcDbEntity
  8
F-A
  6
Continuous
 62
     7
370
     0
100
AcDbMText
 10
-5659.999812358134
 20
3877.030379407729
 30
0.0
 40
99.06
 41
390.0
 46
0.0
 71
     7
 72
     1
  1
{\fＭＳ ゴシック|b0|i0|c128|p49;部材名}
 73
     1
 44
1.0
  0
MTEXT
  5
30E
330
1F
100
AcDbEntity
  8
F-A
  6
Continuous
 62
     7
370
     0
100
AcDbMText
 10
179.9993814004438
 20
3877.030379407729
 30
0.0
 40
99.06
 41
390.0
 46
0.0
 71
     7
 72
     1
  1
{\fＭＳ ゴシック|b0|i0|c128|p49;部材名}
 73
     1
 44
1.0
  0
MTEXT
  5
30F
330
1F
100
AcDbEntity
  8
F-A
  6
Continuous
 62
     7
370
     0
100
AcDbMText
 10
-3935.000579421584
 20
3877.50643145587
 30
0.0
 40
100.0125
 41
525.0
 46
0.0
 71
     7
 72
     1
  1
{\fＭＳ ゴシック|b0|i0|c128|p49;断面形状}
 73
     1
 44
1.0
  0
MTEXT
  5
310
330
1F
100
AcDbEntity
  8
F-A
  6
Continuous
 62
     7
370
     0
100
AcDbMText
 10
1909.999991752006
 20
3877.50643145587
 30
0.0
 40
100.0125
 41
525.0
 46
0.0
 71
     7
 72
     1
  1
{\fＭＳ ゴシック|b0|i0|c128|p49;断面形状}
 73
     1
 44
1.0
  0
MTEXT
  5
311
330
1F
100
AcDbEntity
  8
F-A
  6
Continuous
 62
     7
370
     0
100
AcDbMText
 10
-60.0001237199109
 20
-3887.139820871936
 30
0.0
 40
45.72
 41
180.0
 46
0.0
 71
     7
 72
     1
  1
{\fＭＳ ゴシック|b0|i0|c128|p49;図面名}
 73
     1
 44
1.0
  0
MTEXT
  5
312
330
1F
100
AcDbEntity
  8
F-A
  6
Continuous
 62
     7
370
     0
100
AcDbMText
 10
2779.998729808911
 20
-3887.142460617774
 30
0.0
 40
45.72
 41
300.0
 46
0.0
 71
     7
 72
     1
  1
{\fＭＳ ゴシック|b0|i0|c128|p49;ＳＣＡＬＥ}
 73
     1
 44
1.0
  0
MTEXT
  5
313
330
1F
100
AcDbEntity
  8
F-A
  6
Continuous
 62
     7
370
     0
100
AcDbMText
 10
4279.999224688556
 20
-3887.143854850754
 30
0.0
 40
45.72
 41
240.0
 46
0.0
 71
     7
 72
     1
  1
{\fＭＳ ゴシック|b0|i0|c128|p49;ＤＡＴＥ}
 73
     1
 44
1.0
  0
MTEXT
  5
314
330
1F
100
AcDbEntity
  8
F-A
  6
Continuous
 62
     7
370
     0
100
AcDbMText
 10
1180.417701903719
 20
-3946.138161599839
 30
0.0
 40
77.724
 41
510.0
 46
0.0
 71
     7
 72
     1
  1
{\fＭＳ ゴシック|b0|i0|c128|p49;洋風造作材}
 73
     1
 44
1.0
  0
MTEXT
  5
315
330
1F
100
AcDbEntity
  8
F-A
  6
Continuous
 62
     7
370
     0
100
AcDbMText
 10
3409.998977248734
 20
-3946.903115907308
 30
0.0
 40
76.19999999999999
 41
150.0
 46
0.0
 71
     7
 72
     1
  1
{\fＭＳ ゴシック|b0|i0|c128|p49;1/2}
 73
     1
 44
1.0
  0
MTEXT
  5
316
330
1F
100
AcDbEntity
  8
F-A
  6
Continuous
 62
     7
370
     0
100
AcDbMText
 10
349.9999175200594
 20
-3946.496666872502
 30
0.0
 40
78.58125
 41
412.5
 46
0.0
 71
     7
 72
     1
  1
{\fＭＳ ゴシック|b0|i0|c128|p49;DOORETUS}
 73
     1
 44
1.0
  0
MTEXT
  5
317
330
1F
100
AcDbEntity
  8
F-A
  6
Continuous
 62
     7
370
     0
100
AcDbMText
 10
-5239.999990205507
 20
-4045.260750031879
 30
0.0
 40
79.47837209302324
 41
2242.5
 46
0.0
 71
     7
 72
     1
  1
{\fＭＳ ゴシック|b0|i0|c128|p49;ドレタス　洋風造作材　窓枠Ａ型 175幅－230幅}
 73
     1
 44
1.0
  0
MTEXT
  5
318
330
1F
100
AcDbEntity
  8
F-A
  6
Continuous
 62
     7
370
     0
100
AcDbMText
 10
2779.998729808911
 20
-4087.14246317786
 30
0.0
 40
45.72
 41
240.0
 46
0.0
 71
     7
 72
     1
  1
{\fＭＳ ゴシック|b0|i0|c128|p49;ＦＩＬＥ}
 73
     1
 44
1.0
  0
MTEXT
  5
319
330
1F
100
AcDbEntity
  8
F-A
  6
Continuous
 62
     7
370
     0
100
AcDbMText
 10
4279.999224688556
 20
-4087.143857410839
 30
0.0
 40
45.72
 41
180.0
 46
0.0
 71
     7
 72
     1
  1
{\fＭＳ ゴシック|b0|i0|c128|p49;ＮＯ．}
 73
     1
 44
1.0
  0
MTEXT
  5
31A
330
1F
100
AcDbEntity
  8
F-A
  6
Continuous
 62
     7
370
     0
100
AcDbMText
 10
1234.998729808911
 20
-4096.140669266149
 30
0.0
 40
45.72
 41
120.0
 46
0.0
 71
     7
 72
     1
  1
{\fＭＳ ゴシック|b0|i0|c128|p49;株式}
 73
     1
 44
1.0
  0
MTEXT
  5
31B
330
1F
100
AcDbEntity
  8
F-A
  6
Continuous
 62
     7
370
     0
100
AcDbMText
 10
1444.998729808911
 20
-4164.281754523929
 30
0.0
 40
101.44125
 41
1065.0
 46
0.0
 71
     7
 72
     1
  1
{\fＭＳ ゴシック|b0|i0|c128|p49;ウッドワン・・・}
 73
     1
 44
1.0
  0
MTEXT
  5
31C
330
1F
100
AcDbEntity
  8
F-A
  6
Continuous
 62
     7
370
     0
100
AcDbMText
 10
1234.998729808911
 20
-4168.140669266187
 30
0.0
 40
45.72
 41
120.0
 46
0.0
 71
     7
 72
     1
  1
{\fＭＳ ゴシック|b0|i0|c128|p49;会社}
 73
     1
 44
1.0
  0
MTEXT
  5
31D
330
1F
100
AcDbEntity
  8
F-A
  6
Continuous
 62
     7
370
     0
100
AcDbMText
 10
5608.403311109712
 20
-4314.841256638534
 30
0.0
 40
68.58
 41
90.0
 46
0.0
 71
     7
 72
     1
  1
{\fＭＳ ゴシック|b0|i0|c128|p49;）}
 73
     1
 44
1.0
  0
MTEXT
  5
31E
330
1F
100
AcDbEntity
  8
F-A
  6
Continuous
 62
     7
370
     0
100
AcDbMText
 10
5190.195950842071
 20
-4316.235281487472
 30
0.0
 40
68.58
 41
45.0
 46
0.0
 71
     7
 72
     1
  1
{\fＭＳ ゴシック|b0|i0|c128|p49;,}
 73
     1
 44
1.0
  0
MTEXT
  5
31F
330
1F
100
AcDbEntity
  8
F-A
  6
Continuous
 62
     7
370
     0
100
AcDbMText
 10
4923.937261915373
 20
-4314.771804905898
 30
0.0
 40
74.295
 41
97.5
 46
0.0
 71
     7
 72
     1
  1
{\fＭＳ ゴシック|b0|i0|c128|p49;$y}
 73
     1
 44
1.0
  0
MTEXT
  5
320
330
1F
100
AcDbEntity
  8
F-A
  6
Continuous
 62
     7
370
     0
100
AcDbMText
 10
5078.673982954195
 20
-4314.771804905898
 30
0.0
 40
74.295
 41
97.5
 46
0.0
 71
     7
 72
     1
  1
{\fＭＳ ゴシック|b0|i0|c128|p49;$m}
 73
     1
 44
1.0
  0
MTEXT
  5
321
330
1F
100
AcDbEntity
  8
F-A
  6
Continuous
 62
     7
370
     0
100
AcDbMText
 10
5233.410715437103
 20
-4314.771804905898
 30
0.0
 40
74.295
 41
97.5
 46
0.0
 71
     7
 72
     1
  1
{\fＭＳ ゴシック|b0|i0|c128|p49;$d}
 73
     1
 44
1.0
  0
MTEXT
  5
322
330
1F
100
AcDbEntity
  8
F-A
  6
Continuous
 62
     7
370
     0
100
AcDbMText
 10
5388.147447920011
 20
-4314.771804905898
 30
0.0
 40
74.295
 41
195.0
 46
0.0
 71
     7
 72
     1
  1
{\fＭＳ ゴシック|b0|i0|c128|p49;印刷}
 73
     1
 44
1.0
  0
MTEXT
  5
323
330
1F
100
AcDbEntity
  8
F-A
  6
Continuous
 62
     7
370
     0
100
AcDbMText
 10
4784.033374252999
 20
-4319.023331185347
 30
0.0
 40
68.58
 41
90.0
 46
0.0
 71
     7
 72
     1
  1
{\fＭＳ ゴシック|b0|i0|c128|p49;（}
 73
     1
 44
1.0
  0
MTEXT
  5
324
330
1F
100
AcDbEntity
  8
F-A
  6
Continuous
 62
     7
370
     0
100
AcDbMText
 10
5031.277143812345
 20
-4319.023331185347
 30
0.0
 40
68.58
 41
45.0
 46
0.0
 71
     7
 72
     1
  1
{\fＭＳ ゴシック|b0|i0|c128|p49;,}
 73
     1
 44
1.0
  0
LINE
  5
325
330
1F
100
AcDbEntity
  8
0-4
  6
Continuous
 62
    92
370
    13
100
AcDbLine
 10
-2922.499465942383
 20
2834.363496397006
 30
0.0
 11
-2922.499465942383
 21
2841.863496397006
 31
0.0
  0
LINE
  5
326
330
1F
100
AcDbEntity
  8
0-4
  6
Continuous
 62
    92
370
    13
100
AcDbLine
 10
-2922.499465942383
 20
2841.863496397006
 30
0.0
 11
-2779.999465942383
 21
2841.863496397006
 31
0.0
  0
LINE
  5
327
330
1F
100
AcDbEntity
  8
0-4
  6
Continuous
 62
    92
370
    13
100
AcDbLine
 10
-4272.499465942383
 20
2841.863496397006
 30
0.0
 11
-4272.499465942383
 21
2834.363496397006
 31
0.0
  0
LINE
  5
328
330
1F
100
AcDbEntity
  8
0-4
  6
Continuous
 62
    92
370
    13
100
AcDbLine
 10
-4272.499465942383
 20
2841.863496397006
 30
0.0
 11
-4564.999465942383
 21
2841.863496397006
 31
0.0
  0
LINE
  5
329
330
1F
100
AcDbEntity
  8
0-4
  6
Continuous
 62
    92
370
    13
100
AcDbLine
 10
-4272.500393841718
 20
1591.863416494564
 30
0.0
 11
-4272.500393841718
 21
1584.363416494564
 31
0.0
  0
LINE
  5
32A
330
1F
100
AcDbEntity
  8
0-4
  6
Continuous
 62
    92
370
    13
100
AcDbLine
 10
-4272.500393841718
 20
1591.863416494564
 30
0.0
 11
-4565.000393841718
 21
1591.863416494564
 31
0.0
  0
LINE
  5
32B
330
1F
100
AcDbEntity
  8
0-4
  6
Continuous
 62
    92
370
    13
100
AcDbLine
 10
-2922.500393841717
 20
1591.863416494564
 30
0.0
 11
-2780.000393841717
 21
1591.863416494564
 31
0.0
  0
LINE
  5
32C
330
1F
100
AcDbEntity
  8
0-4
  6
Continuous
 62
    92
370
    13
100
AcDbLine
 10
-2922.500393841717
 20
1584.363416494564
 30
0.0
 11
-2922.500393841717
 21
1591.863416494564
 31
0.0
  0
LINE
  5
32D
330
1F
100
AcDbEntity
  8
0-4
  6
Continuous
 62
    92
370
    13
100
AcDbLine
 10
-4272.500393841718
 20
341.8633365921215
 30
0.0
 11
-4565.000393841718
 21
341.8633365921215
 31
0.0
  0
LINE
  5
32E
330
1F
100
AcDbEntity
  8
0-4
  6
Continuous
 62
    92
370
    13
100
AcDbLine
 10
-4272.500393841718
 20
341.8633365921215
 30
0.0
 11
-4272.500393841718
 21
334.3633365921215
 31
0.0
  0
LINE
  5
32F
330
1F
100
AcDbEntity
  8
0-4
  6
Continuous
 62
    92
370
    13
100
AcDbLine
 10
-2922.500393841717
 20
334.3633365921215
 30
0.0
 11
-2922.500393841717
 21
341.8633365921215
 31
0.0
  0
LINE
  5
330
330
1F
100
AcDbEntity
  8
0-4
  6
Continuous
 62
    92
370
    13
100
AcDbLine
 10
-2922.500393841717
 20
341.8633365921215
 30
0.0
 11
-2780.000393841717
 21
341.8633365921215
 31
0.0
  0
LINE
  5
331
330
1F
100
AcDbEntity
  8
0-4
  6
Continuous
 62
    92
370
    13
100
AcDbLine
 10
-2922.500393841717
 20
-917.36112958058
 30
0.0
 11
-2922.500393841717
 21
-909.86112958058
 31
0.0
  0
LINE
  5
332
330
1F
100
AcDbEntity
  8
0-4
  6
Continuous
 62
    92
370
    13
100
AcDbLine
 10
-2922.500393841717
 20
-909.86112958058
 30
0.0
 11
-2780.000393841717
 21
-909.86112958058
 31
0.0
  0
LINE
  5
333
330
1F
100
AcDbEntity
  8
0-4
  6
Continuous
 62
    92
370
    13
100
AcDbLine
 10
-4272.500393841718
 20
-909.86112958058
 30
0.0
 11
-4565.000393841718
 21
-909.86112958058
 31
0.0
  0
LINE
  5
334
330
1F
100
AcDbEntity
  8
0-4
  6
Continuous
 62
    92
370
    13
100
AcDbLine
 10
-4272.500393841718
 20
-909.86112958058
 30
0.0
 11
-4272.500393841718
 21
-917.36112958058
 31
0.0
  0
LINE
  5
335
330
1F
100
AcDbEntity
  8
0-4
  6
Continuous
 62
    92
370
    13
100
AcDbLine
 10
-2922.500393841717
 20
-2165.636823212765
 30
0.0
 11
-2922.500393841717
 21
-2158.136823212765
 31
0.0
  0
LINE
  5
336
330
1F
100
AcDbEntity
  8
0-4
  6
Continuous
 62
    92
370
    13
100
AcDbLine
 10
-2922.500393841717
 20
-2158.136823212765
 30
0.0
 11
-2780.000393841717
 21
-2158.136823212765
 31
0.0
  0
LINE
  5
337
330
1F
100
AcDbEntity
  8
0-4
  6
Continuous
 62
    92
370
    13
100
AcDbLine
 10
-4272.500393841718
 20
-2158.136823212765
 30
0.0
 11
-4565.000393841718
 21
-2158.136823212765
 31
0.0
  0
LINE
  5
338
330
1F
100
AcDbEntity
  8
0-4
  6
Continuous
 62
    92
370
    13
100
AcDbLine
 10
-4272.500393841718
 20
-2158.136823212765
 30
0.0
 11
-4272.500393841718
 21
-2165.636823212765
 31
0.0
  0
LINE
  5
339
330
1F
100
AcDbEntity
  8
0-4
  6
Continuous
 62
    92
370
    13
100
AcDbLine
 10
-4272.500393841718
 20
-3408.136903115208
 30
0.0
 11
-4272.500393841718
 21
-3415.636903115208
 31
0.0
  0
LINE
  5
33A
330
1F
100
AcDbEntity
  8
0-4
  6
Continuous
 62
    92
370
    13
100
AcDbLine
 10
-4272.500393841718
 20
-3408.136903115208
 30
0.0
 11
-4565.000393841718
 21
-3408.136903115208
 31
0.0
  0
LINE
  5
33B
330
1F
100
AcDbEntity
  8
0-4
  6
Continuous
 62
    92
370
    13
100
AcDbLine
 10
-2922.500393841717
 20
-3408.136903115208
 30
0.0
 11
-2780.000393841717
 21
-3408.136903115208
 31
0.0
  0
LINE
  5
33C
330
1F
100
AcDbEntity
  8
0-4
  6
Continuous
 62
    92
370
    13
100
AcDbLine
 10
-2922.500393841717
 20
-3415.636903115208
 30
0.0
 11
-2922.500393841717
 21
-3408.136903115208
 31
0.0
  0
LINE
  5
33D
330
1F
100
AcDbEntity
  8
0-4
  6
Continuous
 62
    92
370
    13
100
AcDbLine
 10
2922.501012441275
 20
2834.363496397006
 30
0.0
 11
2922.501012441275
 21
2841.863496397006
 31
0.0
  0
LINE
  5
33E
330
1F
100
AcDbEntity
  8
0-4
  6
Continuous
 62
    92
370
    13
100
AcDbLine
 10
2922.501012441275
 20
2841.863496397006
 30
0.0
 11
3065.001012441275
 21
2841.863496397006
 31
0.0
  0
LINE
  5
33F
330
1F
100
AcDbEntity
  8
0-4
  6
Continuous
 62
    92
370
    13
100
AcDbLine
 10
1572.501012441275
 20
2841.863496397006
 30
0.0
 11
1280.001012441275
 21
2841.863496397006
 31
0.0
  0
LINE
  5
340
330
1F
100
AcDbEntity
  8
0-4
  6
Continuous
 62
    92
370
    13
100
AcDbLine
 10
1572.501012441275
 20
2841.863496397006
 30
0.0
 11
1572.501012441275
 21
2834.363496397006
 31
0.0
  0
LINE
  5
341
330
1F
100
AcDbEntity
  8
0-4
  6
Continuous
 62
    92
370
    13
100
AcDbLine
 10
1572.50008454194
 20
1591.863416494564
 30
0.0
 11
1572.50008454194
 21
1584.363416494564
 31
0.0
  0
LINE
  5
342
330
1F
100
AcDbEntity
  8
0-4
  6
Continuous
 62
    92
370
    13
100
AcDbLine
 10
1572.50008454194
 20
1591.863416494564
 30
0.0
 11
1280.00008454194
 21
1591.863416494564
 31
0.0
  0
LINE
  5
343
330
1F
100
AcDbEntity
  8
0-4
  6
Continuous
 62
    92
370
    13
100
AcDbLine
 10
2922.50008454194
 20
1584.363416494564
 30
0.0
 11
2922.50008454194
 21
1591.863416494564
 31
0.0
  0
LINE
  5
344
330
1F
100
AcDbEntity
  8
0-4
  6
Continuous
 62
    92
370
    13
100
AcDbLine
 10
2922.50008454194
 20
1591.863416494564
 30
0.0
 11
3065.00008454194
 21
1591.863416494564
 31
0.0
  0
LINE
  5
345
330
1F
100
AcDbEntity
  8
0-4
  6
Continuous
 62
    92
370
    13
100
AcDbLine
 10
2922.50008454194
 20
334.3633365921215
 30
0.0
 11
2922.50008454194
 21
341.8633365921215
 31
0.0
  0
LINE
  5
346
330
1F
100
AcDbEntity
  8
0-4
  6
Continuous
 62
    92
370
    13
100
AcDbLine
 10
2922.50008454194
 20
341.8633365921215
 30
0.0
 11
3065.00008454194
 21
341.8633365921215
 31
0.0
  0
LINE
  5
347
330
1F
100
AcDbEntity
  8
0-4
  6
Continuous
 62
    92
370
    13
100
AcDbLine
 10
1572.50008454194
 20
341.8633365921215
 30
0.0
 11
1280.00008454194
 21
341.8633365921215
 31
0.0
  0
LINE
  5
348
330
1F
100
AcDbEntity
  8
0-4
  6
Continuous
 62
    92
370
    13
100
AcDbLine
 10
1572.50008454194
 20
341.8633365921215
 30
0.0
 11
1572.50008454194
 21
334.3633365921215
 31
0.0
  0
LINE
  5
349
330
1F
100
AcDbEntity
  8
0-4
  6
Continuous
 62
    92
370
    13
100
AcDbLine
 10
1572.50008454194
 20
-909.86112958058
 30
0.0
 11
1280.00008454194
 21
-909.86112958058
 31
0.0
  0
LINE
  5
34A
330
1F
100
AcDbEntity
  8
0-4
  6
Continuous
 62
    92
370
    13
100
AcDbLine
 10
1572.50008454194
 20
-909.86112958058
 30
0.0
 11
1572.50008454194
 21
-917.36112958058
 31
0.0
  0
LINE
  5
34B
330
1F
100
AcDbEntity
  8
0-4
  6
Continuous
 62
    92
370
    13
100
AcDbLine
 10
2922.50008454194
 20
-917.36112958058
 30
0.0
 11
2922.50008454194
 21
-909.86112958058
 31
0.0
  0
LINE
  5
34C
330
1F
100
AcDbEntity
  8
0-4
  6
Continuous
 62
    92
370
    13
100
AcDbLine
 10
2922.50008454194
 20
-909.86112958058
 30
0.0
 11
3065.00008454194
 21
-909.86112958058
 31
0.0
  0
LINE
  5
34D
330
1F
100
AcDbEntity
  8
0-4
  6
Continuous
 62
    92
370
    13
100
AcDbLine
 10
2922.50008454194
 20
-2165.636823212765
 30
0.0
 11
2922.50008454194
 21
-2158.136823212765
 31
0.0
  0
LINE
  5
34E
330
1F
100
AcDbEntity
  8
0-4
  6
Continuous
 62
    92
370
    13
100
AcDbLine
 10
2922.50008454194
 20
-2158.136823212765
 30
0.0
 11
3065.00008454194
 21
-2158.136823212765
 31
0.0
  0
LINE
  5
34F
330
1F
100
AcDbEntity
  8
0-4
  6
Continuous
 62
    92
370
    13
100
AcDbLine
 10
1572.50008454194
 20
-2158.136823212765
 30
0.0
 11
1280.00008454194
 21
-2158.136823212765
 31
0.0
  0
LINE
  5
350
330
1F
100
AcDbEntity
  8
0-4
  6
Continuous
 62
    92
370
    13
100
AcDbLine
 10
1572.50008454194
 20
-2158.136823212765
 30
0.0
 11
1572.50008454194
 21
-2165.636823212765
 31
0.0
  0
LINE
  5
351
330
1F
100
AcDbEntity
  8
0-4
  6
Continuous
 62
    92
370
    13
100
AcDbLine
 10
2922.50008454194
 20
-3408.136903115208
 30
0.0
 11
3065.00008454194
 21
-3408.136903115208
 31
0.0
  0
LINE
  5
352
330
1F
100
AcDbEntity
  8
0-4
  6
Continuous
 62
    92
370
    13
100
AcDbLine
 10
2922.50008454194
 20
-3415.636903115208
 30
0.0
 11
2922.50008454194
 21
-3408.136903115208
 31
0.0
  0
LINE
  5
353
330
1F
100
AcDbEntity
  8
0-B
  6
Continuous
 62
   120
370
     5
100
AcDbLine
 10
-4572.499465942383
 20
2684.363496397006
 30
0.0
 11
-4272.499465942383
 21
2684.363496397006
 31
0.0
  0
LWPOLYLINE
  5
354
330
1F
100
AcDbEntity
  8
0-B
  6
Continuous
 62
     7
370
     9
100
AcDbPolyline
 90
        4
 70
     1
 43
3.0
 10
-4570.999465942383
 20
2684.363496397006
 42
0.4142135623731
 10
-4572.499465942383
 20
2685.863496397006
 42
0.4142135623731
 10
-4573.999465942383
 20
2684.363496397006
 42
0.4142135623731
 10
-4572.499465942383
 20
2682.863496397006
 42
0.4142135623731
  0
LWPOLYLINE
  5
355
330
1F
100
AcDbEntity
  8
0-B
  6
Continuous
 62
     7
370
     9
100
AcDbPolyline
 90
        4
 70
     1
 43
3.0
 10
-4270.999465942383
 20
2684.363496397006
 42
0.4142135623731
 10
-4272.499465942383
 20
2685.863496397006
 42
0.4142135623731
 10
-4273.999465942383
 20
2684.363496397006
 42
0.4142135623731
 10
-4272.499465942383
 20
2682.863496397006
 42
0.4142135623731
  0
LINE
  5
356
330
1F
100
AcDbEntity
  8
0-B
  6
Continuous
 62
   120
370
     5
100
AcDbLine
 10
-4572.499465942383
 20
2684.363496397006
 30
0.0
 11
-4572.499465942383
 21
2759.363496397006
 31
0.0
  0
LINE
  5
357
330
1F
100
AcDbEntity
  8
0-B
  6
Continuous
 62
   120
370
     5
100
AcDbLine
 10
-4272.499465942383
 20
2684.363496397006
 30
0.0
 11
-4272.499465942383
 21
2759.363496397006
 31
0.0
  0
MTEXT
  5
358
330
1F
100
AcDbEntity
  8
0-B
  6
Continuous
 62
     7
370
   211
100
AcDbMText
 10
-4467.499465942383
 20
2688.653496397006
 30
0.0
 40
68.58
 41
90.0
 46
0.0
 71
     7
 72
     1
  1
{\fＭＳ ゴシック|b0|i0|c128|p49;20}
 73
     1
 44
1.0
  0
LINE
  5
359
330
1F
100
AcDbEntity
  8
0-B
  6
Continuous
 62
   120
370
     5
100
AcDbLine
 10
-2922.499465942383
 20
2684.363496397006
 30
0.0
 11
-2772.499465942383
 21
2684.363496397006
 31
0.0
  0
LWPOLYLINE
  5
35A
330
1F
100
AcDbEntity
  8
0-B
  6
Continuous
 62
     7
370
     9
100
AcDbPolyline
 90
        4
 70
     1
 43
3.0
 10
-2920.999465942383
 20
2684.363496397006
 42
0.4142135623731
 10
-2922.499465942383
 20
2685.863496397006
 42
0.4142135623731
 10
-2923.999465942383
 20
2684.363496397006
 42
0.4142135623731
 10
-2922.499465942383
 20
2682.863496397006
 42
0.4142135623731
  0
LWPOLYLINE
  5
35B
330
1F
100
AcDbEntity
  8
0-B
  6
Continuous
 62
     7
370
     9
100
AcDbPolyline
 90
        4
 70
     1
 43
3.0
 10
-2770.999465942383
 20
2684.363496397006
 42
0.4142135623731
 10
-2772.499465942383
 20
2685.863496397006
 42
0.4142135623731
 10
-2773.999465942383
 20
2684.363496397006
 42
0.4142135623731
 10
-2772.499465942383
 20
2682.863496397006
 42
0.4142135623731
  0
LINE
  5
35C
330
1F
100
AcDbEntity
  8
0-B
  6
Continuous
 62
   120
370
     5
100
AcDbLine
 10
-2922.499465942383
 20
2684.363496397006
 30
0.0
 11
-2922.499465942383
 21
2759.363496397006
 31
0.0
  0
LINE
  5
35D
330
1F
100
AcDbEntity
  8
0-B
  6
Continuous
 62
   120
370
     5
100
AcDbLine
 10
-2772.499465942383
 20
2684.363496397006
 30
0.0
 11
-2772.499465942383
 21
2759.363496397006
 31
0.0
  0
MTEXT
  5
35E
330
1F
100
AcDbEntity
  8
0-B
  6
Continuous
 62
     7
370
   211
100
AcDbMText
 10
-2892.499465942383
 20
2688.653496397006
 30
0.0
 40
68.58
 41
90.0
 46
0.0
 71
     7
 72
     1
  1
{\fＭＳ ゴシック|b0|i0|c128|p49;10}
 73
     1
 44
1.0
  0
LINE
  5
35F
330
1F
100
AcDbEntity
  8
0-B
  6
Continuous
 62
   120
370
     5
100
AcDbLine
 10
-4572.500393841718
 20
1434.363416494564
 30
0.0
 11
-4272.500393841718
 21
1434.363416494564
 31
0.0
  0
LWPOLYLINE
  5
360
330
1F
100
AcDbEntity
  8
0-B
  6
Continuous
 62
     7
370
     9
100
AcDbPolyline
 90
        4
 70
     1
 43
3.0
 10
-4571.000393841717
 20
1434.363416494564
 42
0.4142135623731
 10
-4572.500393841718
 20
1435.863416494564
 42
0.4142135623731
 10
-4574.000393841718
 20
1434.363416494564
 42
0.4142135623731
 10
-4572.500393841718
 20
1432.863416494564
 42
0.4142135623731
  0
LWPOLYLINE
  5
361
330
1F
100
AcDbEntity
  8
0-B
  6
Continuous
 62
     7
370
     9
100
AcDbPolyline
 90
        4
 70
     1
 43
3.0
 10
-4271.000393841717
 20
1434.363416494564
 42
0.4142135623731
 10
-4272.500393841718
 20
1435.863416494564
 42
0.4142135623731
 10
-4274.000393841718
 20
1434.363416494564
 42
0.4142135623731
 10
-4272.500393841718
 20
1432.863416494564
 42
0.4142135623731
  0
LINE
  5
362
330
1F
100
AcDbEntity
  8
0-B
  6
Continuous
 62
   120
370
     5
100
AcDbLine
 10
-4572.500393841718
 20
1434.363416494564
 30
0.0
 11
-4572.500393841718
 21
1509.363416494564
 31
0.0
  0
LINE
  5
363
330
1F
100
AcDbEntity
  8
0-B
  6
Continuous
 62
   120
370
     5
100
AcDbLine
 10
-4272.500393841718
 20
1434.363416494564
 30
0.0
 11
-4272.500393841718
 21
1509.363416494564
 31
0.0
  0
MTEXT
  5
364
330
1F
100
AcDbEntity
  8
0-B
  6
Continuous
 62
     7
370
   211
100
AcDbMText
 10
-4467.500393841718
 20
1438.653416494564
 30
0.0
 40
68.58
 41
90.0
 46
0.0
 71
     7
 72
     1
  1
{\fＭＳ ゴシック|b0|i0|c128|p49;20}
 73
     1
 44
1.0
  0
LINE
  5
365
330
1F
100
AcDbEntity
  8
0-B
  6
Continuous
 62
   120
370
     5
100
AcDbLine
 10
-2922.500393841717
 20
1434.363416494564
 30
0.0
 11
-2772.500393841717
 21
1434.363416494564
 31
0.0
  0
LWPOLYLINE
  5
366
330
1F
100
AcDbEntity
  8
0-B
  6
Continuous
 62
     7
370
     9
100
AcDbPolyline
 90
        4
 70
     1
 43
3.0
 10
-2921.000393841717
 20
1434.363416494564
 42
0.4142135623731
 10
-2922.500393841717
 20
1435.863416494564
 42
0.4142135623731
 10
-2924.000393841717
 20
1434.363416494564
 42
0.4142135623731
 10
-2922.500393841717
 20
1432.863416494564
 42
0.4142135623731
  0
LWPOLYLINE
  5
367
330
1F
100
AcDbEntity
  8
0-B
  6
Continuous
 62
     7
370
     9
100
AcDbPolyline
 90
        4
 70
     1
 43
3.0
 10
-2771.000393841717
 20
1434.363416494564
 42
0.4142135623731
 10
-2772.500393841717
 20
1435.863416494564
 42
0.4142135623731
 10
-2774.000393841717
 20
1434.363416494564
 42
0.4142135623731
 10
-2772.500393841717
 20
1432.863416494564
 42
0.4142135623731
  0
LINE
  5
368
330
1F
100
AcDbEntity
  8
0-B
  6
Continuous
 62
   120
370
     5
100
AcDbLine
 10
-2922.500393841717
 20
1434.363416494564
 30
0.0
 11
-2922.500393841717
 21
1509.363416494564
 31
0.0
  0
LINE
  5
369
330
1F
100
AcDbEntity
  8
0-B
  6
Continuous
 62
   120
370
     5
100
AcDbLine
 10
-2772.500393841717
 20
1434.363416494564
 30
0.0
 11
-2772.500393841717
 21
1509.363416494564
 31
0.0
  0
MTEXT
  5
36A
330
1F
100
AcDbEntity
  8
0-B
  6
Continuous
 62
     7
370
   211
100
AcDbMText
 10
-2892.500393841717
 20
1438.653416494564
 30
0.0
 40
68.58
 41
90.0
 46
0.0
 71
     7
 72
     1
  1
{\fＭＳ ゴシック|b0|i0|c128|p49;10}
 73
     1
 44
1.0
  0
LINE
  5
36B
330
1F
100
AcDbEntity
  8
0-B
  6
Continuous
 62
   120
370
     5
100
AcDbLine
 10
-4572.500393841718
 20
184.3633365921215
 30
0.0
 11
-4272.500393841718
 21
184.3633365921215
 31
0.0
  0
LWPOLYLINE
  5
36C
330
1F
100
AcDbEntity
  8
0-B
  6
Continuous
 62
     7
370
     9
100
AcDbPolyline
 90
        4
 70
     1
 43
3.0
 10
-4571.000393841717
 20
184.3633365921215
 42
0.4142135623731
 10
-4572.500393841718
 20
185.8633365921215
 42
0.4142135623731
 10
-4574.000393841718
 20
184.3633365921215
 42
0.4142135623731
 10
-4572.500393841718
 20
182.8633365921215
 42
0.4142135623731
  0
LWPOLYLINE
  5
36D
330
1F
100
AcDbEntity
  8
0-B
  6
Continuous
 62
     7
370
     9
100
AcDbPolyline
 90
        4
 70
     1
 43
3.0
 10
-4271.000393841717
 20
184.3633365921215
 42
0.4142135623731
 10
-4272.500393841718
 20
185.8633365921215
 42
0.4142135623731
 10
-4274.000393841718
 20
184.3633365921215
 42
0.4142135623731
 10
-4272.500393841718
 20
182.8633365921215
 42
0.4142135623731
  0
LINE
  5
36E
330
1F
100
AcDbEntity
  8
0-B
  6
Continuous
 62
   120
370
     5
100
AcDbLine
 10
-4572.500393841718
 20
184.3633365921215
 30
0.0
 11
-4572.500393841718
 21
259.3633365921215
 31
0.0
  0
LINE
  5
36F
330
1F
100
AcDbEntity
  8
0-B
  6
Continuous
 62
   120
370
     5
100
AcDbLine
 10
-4272.500393841718
 20
184.3633365921215
 30
0.0
 11
-4272.500393841718
 21
259.3633365921215
 31
0.0
  0
MTEXT
  5
370
330
1F
100
AcDbEntity
  8
0-B
  6
Continuous
 62
     7
370
   211
100
AcDbMText
 10
-4467.500393841718
 20
188.6533365921215
 30
0.0
 40
68.58
 41
90.0
 46
0.0
 71
     7
 72
     1
  1
{\fＭＳ ゴシック|b0|i0|c128|p49;20}
 73
     1
 44
1.0
  0
LINE
  5
371
330
1F
100
AcDbEntity
  8
0-B
  6
Continuous
 62
   120
370
     5
100
AcDbLine
 10
-2922.500393841717
 20
184.3633365921215
 30
0.0
 11
-2772.500393841717
 21
184.3633365921215
 31
0.0
  0
LWPOLYLINE
  5
372
330
1F
100
AcDbEntity
  8
0-B
  6
Continuous
 62
     7
370
     9
100
AcDbPolyline
 90
        4
 70
     1
 43
3.0
 10
-2921.000393841717
 20
184.3633365921215
 42
0.4142135623731
 10
-2922.500393841717
 20
185.8633365921215
 42
0.4142135623731
 10
-2924.000393841717
 20
184.3633365921215
 42
0.4142135623731
 10
-2922.500393841717
 20
182.8633365921215
 42
0.4142135623731
  0
LWPOLYLINE
  5
373
330
1F
100
AcDbEntity
  8
0-B
  6
Continuous
 62
     7
370
     9
100
AcDbPolyline
 90
        4
 70
     1
 43
3.0
 10
-2771.000393841717
 20
184.3633365921215
 42
0.4142135623731
 10
-2772.500393841717
 20
185.8633365921215
 42
0.4142135623731
 10
-2774.000393841717
 20
184.3633365921215
 42
0.4142135623731
 10
-2772.500393841717
 20
182.8633365921215
 42
0.4142135623731
  0
LINE
  5
374
330
1F
100
AcDbEntity
  8
0-B
  6
Continuous
 62
   120
370
     5
100
AcDbLine
 10
-2922.500393841717
 20
184.3633365921215
 30
0.0
 11
-2922.500393841717
 21
259.3633365921215
 31
0.0
  0
LINE
  5
375
330
1F
100
AcDbEntity
  8
0-B
  6
Continuous
 62
   120
370
     5
100
AcDbLine
 10
-2772.500393841717
 20
184.3633365921215
 30
0.0
 11
-2772.500393841717
 21
259.3633365921215
 31
0.0
  0
MTEXT
  5
376
330
1F
100
AcDbEntity
  8
0-B
  6
Continuous
 62
     7
370
   211
100
AcDbMText
 10
-2892.500393841717
 20
188.6533365921215
 30
0.0
 40
68.58
 41
90.0
 46
0.0
 71
     7
 72
     1
  1
{\fＭＳ ゴシック|b0|i0|c128|p49;10}
 73
     1
 44
1.0
  0
LINE
  5
377
330
1F
100
AcDbEntity
  8
0-B
  6
Continuous
 62
   120
370
     5
100
AcDbLine
 10
-4572.500393841718
 20
-2315.636823212765
 30
0.0
 11
-4272.500393841718
 21
-2315.636823212765
 31
0.0
  0
LWPOLYLINE
  5
378
330
1F
100
AcDbEntity
  8
0-B
  6
Continuous
 62
     7
370
     9
100
AcDbPolyline
 90
        4
 70
     1
 43
3.0
 10
-4571.000393841717
 20
-2315.636823212765
 42
0.4142135623731
 10
-4572.500393841718
 20
-2314.136823212765
 42
0.4142135623731
 10
-4574.000393841718
 20
-2315.636823212765
 42
0.4142135623731
 10
-4572.500393841718
 20
-2317.136823212765
 42
0.4142135623731
  0
LWPOLYLINE
  5
379
330
1F
100
AcDbEntity
  8
0-B
  6
Continuous
 62
     7
370
     9
100
AcDbPolyline
 90
        4
 70
     1
 43
3.0
 10
-4271.000393841717
 20
-2315.636823212765
 42
0.4142135623731
 10
-4272.500393841718
 20
-2314.136823212765
 42
0.4142135623731
 10
-4274.000393841718
 20
-2315.636823212765
 42
0.4142135623731
 10
-4272.500393841718
 20
-2317.136823212765
 42
0.4142135623731
  0
LINE
  5
37A
330
1F
100
AcDbEntity
  8
0-B
  6
Continuous
 62
   120
370
     5
100
AcDbLine
 10
-4572.500393841718
 20
-2315.636823212765
 30
0.0
 11
-4572.500393841718
 21
-2240.636823212765
 31
0.0
  0
LINE
  5
37B
330
1F
100
AcDbEntity
  8
0-B
  6
Continuous
 62
   120
370
     5
100
AcDbLine
 10
-4272.500393841718
 20
-2315.636823212765
 30
0.0
 11
-4272.500393841718
 21
-2240.636823212765
 31
0.0
  0
MTEXT
  5
37C
330
1F
100
AcDbEntity
  8
0-B
  6
Continuous
 62
     7
370
   211
100
AcDbMText
 10
-4467.500393841718
 20
-2311.346823212765
 30
0.0
 40
68.58
 41
90.0
 46
0.0
 71
     7
 72
     1
  1
{\fＭＳ ゴシック|b0|i0|c128|p49;20}
 73
     1
 44
1.0
  0
LINE
  5
37D
330
1F
100
AcDbEntity
  8
0-B
  6
Continuous
 62
   120
370
     5
100
AcDbLine
 10
-2922.500393841717
 20
-2315.636823212765
 30
0.0
 11
-2772.500393841717
 21
-2315.636823212765
 31
0.0
  0
LWPOLYLINE
  5
37E
330
1F
100
AcDbEntity
  8
0-B
  6
Continuous
 62
     7
370
     9
100
AcDbPolyline
 90
        4
 70
     1
 43
3.0
 10
-2921.000393841717
 20
-2315.636823212765
 42
0.4142135623731
 10
-2922.500393841717
 20
-2314.136823212765
 42
0.4142135623731
 10
-2924.000393841717
 20
-2315.636823212765
 42
0.4142135623731
 10
-2922.500393841717
 20
-2317.136823212765
 42
0.4142135623731
  0
LWPOLYLINE
  5
37F
330
1F
100
AcDbEntity
  8
0-B
  6
Continuous
 62
     7
370
     9
100
AcDbPolyline
 90
        4
 70
     1
 43
3.0
 10
-2771.000393841717
 20
-2315.636823212765
 42
0.4142135623731
 10
-2772.500393841717
 20
-2314.136823212765
 42
0.4142135623731
 10
-2774.000393841717
 20
-2315.636823212765
 42
0.4142135623731
 10
-2772.500393841717
 20
-2317.136823212765
 42
0.4142135623731
  0
LINE
  5
380
330
1F
100
AcDbEntity
  8
0-B
  6
Continuous
 62
   120
370
     5
100
AcDbLine
 10
-2922.500393841717
 20
-2315.636823212765
 30
0.0
 11
-2922.500393841717
 21
-2240.636823212765
 31
0.0
  0
LINE
  5
381
330
1F
100
AcDbEntity
  8
0-B
  6
Continuous
 62
   120
370
     5
100
AcDbLine
 10
-2772.500393841717
 20
-2315.636823212765
 30
0.0
 11
-2772.500393841717
 21
-2240.636823212765
 31
0.0
  0
MTEXT
  5
382
330
1F
100
AcDbEntity
  8
0-B
  6
Continuous
 62
     7
370
   211
100
AcDbMText
 10
-2892.500393841717
 20
-2311.346823212765
 30
0.0
 40
68.58
 41
90.0
 46
0.0
 71
     7
 72
     1
  1
{\fＭＳ ゴシック|b0|i0|c128|p49;10}
 73
     1
 44
1.0
  0
LINE
  5
383
330
1F
100
AcDbEntity
  8
0-B
  6
Continuous
 62
   120
370
     5
100
AcDbLine
 10
-4572.500393841718
 20
-3565.636903115208
 30
0.0
 11
-4272.500393841718
 21
-3565.636903115208
 31
0.0
  0
LWPOLYLINE
  5
384
330
1F
100
AcDbEntity
  8
0-B
  6
Continuous
 62
     7
370
     9
100
AcDbPolyline
 90
        4
 70
     1
 43
3.0
 10
-4571.000393841717
 20
-3565.636903115208
 42
0.4142135623731
 10
-4572.500393841718
 20
-3564.136903115208
 42
0.4142135623731
 10
-4574.000393841718
 20
-3565.636903115208
 42
0.4142135623731
 10
-4572.500393841718
 20
-3567.136903115207
 42
0.4142135623731
  0
LWPOLYLINE
  5
385
330
1F
100
AcDbEntity
  8
0-B
  6
Continuous
 62
     7
370
     9
100
AcDbPolyline
 90
        4
 70
     1
 43
3.0
 10
-4271.000393841717
 20
-3565.636903115208
 42
0.4142135623731
 10
-4272.500393841718
 20
-3564.136903115208
 42
0.4142135623731
 10
-4274.000393841718
 20
-3565.636903115208
 42
0.4142135623731
 10
-4272.500393841718
 20
-3567.136903115207
 42
0.4142135623731
  0
LINE
  5
386
330
1F
100
AcDbEntity
  8
0-B
  6
Continuous
 62
   120
370
     5
100
AcDbLine
 10
-4572.500393841718
 20
-3565.636903115208
 30
0.0
 11
-4572.500393841718
 21
-3490.636903115208
 31
0.0
  0
LINE
  5
387
330
1F
100
AcDbEntity
  8
0-B
  6
Continuous
 62
   120
370
     5
100
AcDbLine
 10
-4272.500393841718
 20
-3565.636903115208
 30
0.0
 11
-4272.500393841718
 21
-3490.636903115208
 31
0.0
  0
MTEXT
  5
388
330
1F
100
AcDbEntity
  8
0-B
  6
Continuous
 62
     7
370
   211
100
AcDbMText
 10
-4467.500393841718
 20
-3561.346903115208
 30
0.0
 40
68.58
 41
90.0
 46
0.0
 71
     7
 72
     1
  1
{\fＭＳ ゴシック|b0|i0|c128|p49;20}
 73
     1
 44
1.0
  0
LINE
  5
389
330
1F
100
AcDbEntity
  8
0-B
  6
Continuous
 62
   120
370
     5
100
AcDbLine
 10
-2922.500393841717
 20
-3565.636903115208
 30
0.0
 11
-2772.500393841717
 21
-3565.636903115208
 31
0.0
  0
LWPOLYLINE
  5
38A
330
1F
100
AcDbEntity
  8
0-B
  6
Continuous
 62
     7
370
     9
100
AcDbPolyline
 90
        4
 70
     1
 43
3.0
 10
-2921.000393841717
 20
-3565.636903115208
 42
0.4142135623731
 10
-2922.500393841717
 20
-3564.136903115208
 42
0.4142135623731
 10
-2924.000393841717
 20
-3565.636903115208
 42
0.4142135623731
 10
-2922.500393841717
 20
-3567.136903115207
 42
0.4142135623731
  0
LWPOLYLINE
  5
38B
330
1F
100
AcDbEntity
  8
0-B
  6
Continuous
 62
     7
370
     9
100
AcDbPolyline
 90
        4
 70
     1
 43
3.0
 10
-2771.000393841717
 20
-3565.636903115208
 42
0.4142135623731
 10
-2772.500393841717
 20
-3564.136903115208
 42
0.4142135623731
 10
-2774.000393841717
 20
-3565.636903115208
 42
0.4142135623731
 10
-2772.500393841717
 20
-3567.136903115207
 42
0.4142135623731
  0
LINE
  5
38C
330
1F
100
AcDbEntity
  8
0-B
  6
Continuous
 62
   120
370
     5
100
AcDbLine
 10
-2922.500393841717
 20
-3565.636903115208
 30
0.0
 11
-2922.500393841717
 21
-3490.636903115208
 31
0.0
  0
LINE
  5
38D
330
1F
100
AcDbEntity
  8
0-B
  6
Continuous
 62
   120
370
     5
100
AcDbLine
 10
-2772.500393841717
 20
-3565.636903115208
 30
0.0
 11
-2772.500393841717
 21
-3490.636903115208
 31
0.0
  0
MTEXT
  5
38E
330
1F
100
AcDbEntity
  8
0-B
  6
Continuous
 62
     7
370
   211
100
AcDbMText
 10
-2892.500393841717
 20
-3561.346903115208
 30
0.0
 40
68.58
 41
90.0
 46
0.0
 71
     7
 72
     1
  1
{\fＭＳ ゴシック|b0|i0|c128|p49;10}
 73
     1
 44
1.0
  0
LINE
  5
38F
330
1F
100
AcDbEntity
  8
0-B
  6
Continuous
 62
   120
370
     5
100
AcDbLine
 10
1272.50008454194
 20
-3565.636903115208
 30
0.0
 11
1572.50008454194
 21
-3565.636903115208
 31
0.0
  0
LWPOLYLINE
  5
390
330
1F
100
AcDbEntity
  8
0-B
  6
Continuous
 62
     7
370
     9
100
AcDbPolyline
 90
        4
 70
     1
 43
3.0
 10
1274.00008454194
 20
-3565.636903115208
 42
0.4142135623731
 10
1272.50008454194
 20
-3564.136903115208
 42
0.4142135623731
 10
1271.00008454194
 20
-3565.636903115208
 42
0.4142135623731
 10
1272.50008454194
 20
-3567.136903115207
 42
0.4142135623731
  0
LWPOLYLINE
  5
391
330
1F
100
AcDbEntity
  8
0-B
  6
Continuous
 62
     7
370
     9
100
AcDbPolyline
 90
        4
 70
     1
 43
3.0
 10
1574.00008454194
 20
-3565.636903115208
 42
0.4142135623731
 10
1572.50008454194
 20
-3564.136903115208
 42
0.4142135623731
 10
1571.00008454194
 20
-3565.636903115208
 42
0.4142135623731
 10
1572.50008454194
 20
-3567.136903115207
 42
0.4142135623731
  0
LINE
  5
392
330
1F
100
AcDbEntity
  8
0-B
  6
Continuous
 62
   120
370
     5
100
AcDbLine
 10
1272.50008454194
 20
-3565.636903115208
 30
0.0
 11
1272.50008454194
 21
-3490.636903115208
 31
0.0
  0
LINE
  5
393
330
1F
100
AcDbEntity
  8
0-B
  6
Continuous
 62
   120
370
     5
100
AcDbLine
 10
1572.50008454194
 20
-3565.636903115208
 30
0.0
 11
1572.50008454194
 21
-3490.636903115208
 31
0.0
  0
MTEXT
  5
394
330
1F
100
AcDbEntity
  8
0-B
  6
Continuous
 62
     7
370
   211
100
AcDbMText
 10
1377.50008454194
 20
-3561.346903115208
 30
0.0
 40
68.58
 41
90.0
 46
0.0
 71
     7
 72
     1
  1
{\fＭＳ ゴシック|b0|i0|c128|p49;20}
 73
     1
 44
1.0
  0
LINE
  5
395
330
1F
100
AcDbEntity
  8
0-B
  6
Continuous
 62
   120
370
     5
100
AcDbLine
 10
2922.50008454194
 20
-3565.636903115208
 30
0.0
 11
3072.50008454194
 21
-3565.636903115208
 31
0.0
  0
LWPOLYLINE
  5
396
330
1F
100
AcDbEntity
  8
0-B
  6
Continuous
 62
     7
370
     9
100
AcDbPolyline
 90
        4
 70
     1
 43
3.0
 10
2924.00008454194
 20
-3565.636903115208
 42
0.4142135623731
 10
2922.50008454194
 20
-3564.136903115208
 42
0.4142135623731
 10
2921.00008454194
 20
-3565.636903115208
 42
0.4142135623731
 10
2922.50008454194
 20
-3567.136903115207
 42
0.4142135623731
  0
LWPOLYLINE
  5
397
330
1F
100
AcDbEntity
  8
0-B
  6
Continuous
 62
     7
370
     9
100
AcDbPolyline
 90
        4
 70
     1
 43
3.0
 10
3074.00008454194
 20
-3565.636903115208
 42
0.4142135623731
 10
3072.50008454194
 20
-3564.136903115208
 42
0.4142135623731
 10
3071.00008454194
 20
-3565.636903115208
 42
0.4142135623731
 10
3072.50008454194
 20
-3567.136903115207
 42
0.4142135623731
  0
LINE
  5
398
330
1F
100
AcDbEntity
  8
0-B
  6
Continuous
 62
   120
370
     5
100
AcDbLine
 10
2922.50008454194
 20
-3565.636903115208
 30
0.0
 11
2922.50008454194
 21
-3490.636903115208
 31
0.0
  0
LINE
  5
399
330
1F
100
AcDbEntity
  8
0-B
  6
Continuous
 62
   120
370
     5
100
AcDbLine
 10
3072.50008454194
 20
-3565.636903115208
 30
0.0
 11
3072.50008454194
 21
-3490.636903115208
 31
0.0
  0
MTEXT
  5
39A
330
1F
100
AcDbEntity
  8
0-B
  6
Continuous
 62
     7
370
   211
100
AcDbMText
 10
2952.50008454194
 20
-3561.346903115208
 30
0.0
 40
68.58
 41
90.0
 46
0.0
 71
     7
 72
     1
  1
{\fＭＳ ゴシック|b0|i0|c128|p49;10}
 73
     1
 44
1.0
  0
LINE
  5
39B
330
1F
100
AcDbEntity
  8
0-B
  6
Continuous
 62
   120
370
     5
100
AcDbLine
 10
1272.50008454194
 20
-2315.636823212765
 30
0.0
 11
1572.50008454194
 21
-2315.636823212765
 31
0.0
  0
LWPOLYLINE
  5
39C
330
1F
100
AcDbEntity
  8
0-B
  6
Continuous
 62
     7
370
     9
100
AcDbPolyline
 90
        4
 70
     1
 43
3.0
 10
1274.00008454194
 20
-2315.636823212765
 42
0.4142135623731
 10
1272.50008454194
 20
-2314.136823212765
 42
0.4142135623731
 10
1271.00008454194
 20
-2315.636823212765
 42
0.4142135623731
 10
1272.50008454194
 20
-2317.136823212765
 42
0.4142135623731
  0
LWPOLYLINE
  5
39D
330
1F
100
AcDbEntity
  8
0-B
  6
Continuous
 62
     7
370
     9
100
AcDbPolyline
 90
        4
 70
     1
 43
3.0
 10
1574.00008454194
 20
-2315.636823212765
 42
0.4142135623731
 10
1572.50008454194
 20
-2314.136823212765
 42
0.4142135623731
 10
1571.00008454194
 20
-2315.636823212765
 42
0.4142135623731
 10
1572.50008454194
 20
-2317.136823212765
 42
0.4142135623731
  0
LINE
  5
39E
330
1F
100
AcDbEntity
  8
0-B
  6
Continuous
 62
   120
370
     5
100
AcDbLine
 10
1272.50008454194
 20
-2315.636823212765
 30
0.0
 11
1272.50008454194
 21
-2240.636823212765
 31
0.0
  0
LINE
  5
39F
330
1F
100
AcDbEntity
  8
0-B
  6
Continuous
 62
   120
370
     5
100
AcDbLine
 10
1572.50008454194
 20
-2315.636823212765
 30
0.0
 11
1572.50008454194
 21
-2240.636823212765
 31
0.0
  0
MTEXT
  5
3A0
330
1F
100
AcDbEntity
  8
0-B
  6
Continuous
 62
     7
370
   211
100
AcDbMText
 10
1377.50008454194
 20
-2311.346823212765
 30
0.0
 40
68.58
 41
90.0
 46
0.0
 71
     7
 72
     1
  1
{\fＭＳ ゴシック|b0|i0|c128|p49;20}
 73
     1
 44
1.0
  0
LINE
  5
3A1
330
1F
100
AcDbEntity
  8
0-B
  6
Continuous
 62
   120
370
     5
100
AcDbLine
 10
2922.50008454194
 20
-2315.636823212765
 30
0.0
 11
3072.50008454194
 21
-2315.636823212765
 31
0.0
  0
LWPOLYLINE
  5
3A2
330
1F
100
AcDbEntity
  8
0-B
  6
Continuous
 62
     7
370
     9
100
AcDbPolyline
 90
        4
 70
     1
 43
3.0
 10
2924.00008454194
 20
-2315.636823212765
 42
0.4142135623731
 10
2922.50008454194
 20
-2314.136823212765
 42
0.4142135623731
 10
2921.00008454194
 20
-2315.636823212765
 42
0.4142135623731
 10
2922.50008454194
 20
-2317.136823212765
 42
0.4142135623731
  0
LWPOLYLINE
  5
3A3
330
1F
100
AcDbEntity
  8
0-B
  6
Continuous
 62
     7
370
     9
100
AcDbPolyline
 90
        4
 70
     1
 43
3.0
 10
3074.00008454194
 20
-2315.636823212765
 42
0.4142135623731
 10
3072.50008454194
 20
-2314.136823212765
 42
0.4142135623731
 10
3071.00008454194
 20
-2315.636823212765
 42
0.4142135623731
 10
3072.50008454194
 20
-2317.136823212765
 42
0.4142135623731
  0
LINE
  5
3A4
330
1F
100
AcDbEntity
  8
0-B
  6
Continuous
 62
   120
370
     5
100
AcDbLine
 10
2922.50008454194
 20
-2315.636823212765
 30
0.0
 11
2922.50008454194
 21
-2240.636823212765
 31
0.0
  0
LINE
  5
3A5
330
1F
100
AcDbEntity
  8
0-B
  6
Continuous
 62
   120
370
     5
100
AcDbLine
 10
3072.50008454194
 20
-2315.636823212765
 30
0.0
 11
3072.50008454194
 21
-2240.636823212765
 31
0.0
  0
MTEXT
  5
3A6
330
1F
100
AcDbEntity
  8
0-B
  6
Continuous
 62
     7
370
   211
100
AcDbMText
 10
2952.50008454194
 20
-2311.346823212765
 30
0.0
 40
68.58
 41
90.0
 46
0.0
 71
     7
 72
     1
  1
{\fＭＳ ゴシック|b0|i0|c128|p49;10}
 73
     1
 44
1.0
  0
LINE
  5
3A7
330
1F
100
AcDbEntity
  8
0-B
  6
Continuous
 62
   120
370
     5
100
AcDbLine
 10
1272.50008454194
 20
-1067.36112958058
 30
0.0
 11
1572.50008454194
 21
-1067.36112958058
 31
0.0
  0
LWPOLYLINE
  5
3A8
330
1F
100
AcDbEntity
  8
0-B
  6
Continuous
 62
     7
370
     9
100
AcDbPolyline
 90
        4
 70
     1
 43
3.0
 10
1274.00008454194
 20
-1067.36112958058
 42
0.4142135623731
 10
1272.50008454194
 20
-1065.86112958058
 42
0.4142135623731
 10
1271.00008454194
 20
-1067.36112958058
 42
0.4142135623731
 10
1272.50008454194
 20
-1068.86112958058
 42
0.4142135623731
  0
LWPOLYLINE
  5
3A9
330
1F
100
AcDbEntity
  8
0-B
  6
Continuous
 62
     7
370
     9
100
AcDbPolyline
 90
        4
 70
     1
 43
3.0
 10
1574.00008454194
 20
-1067.36112958058
 42
0.4142135623731
 10
1572.50008454194
 20
-1065.86112958058
 42
0.4142135623731
 10
1571.00008454194
 20
-1067.36112958058
 42
0.4142135623731
 10
1572.50008454194
 20
-1068.86112958058
 42
0.4142135623731
  0
LINE
  5
3AA
330
1F
100
AcDbEntity
  8
0-B
  6
Continuous
 62
   120
370
     5
100
AcDbLine
 10
1272.50008454194
 20
-1067.36112958058
 30
0.0
 11
1272.50008454194
 21
-992.36112958058
 31
0.0
  0
LINE
  5
3AB
330
1F
100
AcDbEntity
  8
0-B
  6
Continuous
 62
   120
370
     5
100
AcDbLine
 10
1572.50008454194
 20
-1067.36112958058
 30
0.0
 11
1572.50008454194
 21
-992.36112958058
 31
0.0
  0
MTEXT
  5
3AC
330
1F
100
AcDbEntity
  8
0-B
  6
Continuous
 62
     7
370
   211
100
AcDbMText
 10
1377.50008454194
 20
-1063.07112958058
 30
0.0
 40
68.58
 41
90.0
 46
0.0
 71
     7
 72
     1
  1
{\fＭＳ ゴシック|b0|i0|c128|p49;20}
 73
     1
 44
1.0
  0
LINE
  5
3AD
330
1F
100
AcDbEntity
  8
0-B
  6
Continuous
 62
   120
370
     5
100
AcDbLine
 10
2922.50008454194
 20
-1067.36112958058
 30
0.0
 11
3072.50008454194
 21
-1067.36112958058
 31
0.0
  0
LWPOLYLINE
  5
3AE
330
1F
100
AcDbEntity
  8
0-B
  6
Continuous
 62
     7
370
     9
100
AcDbPolyline
 90
        4
 70
     1
 43
3.0
 10
2924.00008454194
 20
-1067.36112958058
 42
0.4142135623731
 10
2922.50008454194
 20
-1065.86112958058
 42
0.4142135623731
 10
2921.00008454194
 20
-1067.36112958058
 42
0.4142135623731
 10
2922.50008454194
 20
-1068.86112958058
 42
0.4142135623731
  0
LWPOLYLINE
  5
3AF
330
1F
100
AcDbEntity
  8
0-B
  6
Continuous
 62
     7
370
     9
100
AcDbPolyline
 90
        4
 70
     1
 43
3.0
 10
3074.00008454194
 20
-1067.36112958058
 42
0.4142135623731
 10
3072.50008454194
 20
-1065.86112958058
 42
0.4142135623731
 10
3071.00008454194
 20
-1067.36112958058
 42
0.4142135623731
 10
3072.50008454194
 20
-1068.86112958058
 42
0.4142135623731
  0
LINE
  5
3B0
330
1F
100
AcDbEntity
  8
0-B
  6
Continuous
 62
   120
370
     5
100
AcDbLine
 10
2922.50008454194
 20
-1067.36112958058
 30
0.0
 11
2922.50008454194
 21
-992.36112958058
 31
0.0
  0
LINE
  5
3B1
330
1F
100
AcDbEntity
  8
0-B
  6
Continuous
 62
   120
370
     5
100
AcDbLine
 10
3072.50008454194
 20
-1067.36112958058
 30
0.0
 11
3072.50008454194
 21
-992.36112958058
 31
0.0
  0
MTEXT
  5
3B2
330
1F
100
AcDbEntity
  8
0-B
  6
Continuous
 62
     7
370
   211
100
AcDbMText
 10
2952.50008454194
 20
-1063.07112958058
 30
0.0
 40
68.58
 41
90.0
 46
0.0
 71
     7
 72
     1
  1
{\fＭＳ ゴシック|b0|i0|c128|p49;10}
 73
     1
 44
1.0
  0
LINE
  5
3B3
330
1F
100
AcDbEntity
  8
0-B
  6
Continuous
 62
   120
370
     5
100
AcDbLine
 10
1272.50008454194
 20
184.3633365921215
 30
0.0
 11
1572.50008454194
 21
184.3633365921215
 31
0.0
  0
LWPOLYLINE
  5
3B4
330
1F
100
AcDbEntity
  8
0-B
  6
Continuous
 62
     7
370
     9
100
AcDbPolyline
 90
        4
 70
     1
 43
3.0
 10
1274.00008454194
 20
184.3633365921215
 42
0.4142135623731
 10
1272.50008454194
 20
185.8633365921215
 42
0.4142135623731
 10
1271.00008454194
 20
184.3633365921215
 42
0.4142135623731
 10
1272.50008454194
 20
182.8633365921215
 42
0.4142135623731
  0
LWPOLYLINE
  5
3B5
330
1F
100
AcDbEntity
  8
0-B
  6
Continuous
 62
     7
370
     9
100
AcDbPolyline
 90
        4
 70
     1
 43
3.0
 10
1574.00008454194
 20
184.3633365921215
 42
0.4142135623731
 10
1572.50008454194
 20
185.8633365921215
 42
0.4142135623731
 10
1571.00008454194
 20
184.3633365921215
 42
0.4142135623731
 10
1572.50008454194
 20
182.8633365921215
 42
0.4142135623731
  0
LINE
  5
3B6
330
1F
100
AcDbEntity
  8
0-B
  6
Continuous
 62
   120
370
     5
100
AcDbLine
 10
1272.50008454194
 20
184.3633365921215
 30
0.0
 11
1272.50008454194
 21
259.3633365921215
 31
0.0
  0
LINE
  5
3B7
330
1F
100
AcDbEntity
  8
0-B
  6
Continuous
 62
   120
370
     5
100
AcDbLine
 10
1572.50008454194
 20
184.3633365921215
 30
0.0
 11
1572.50008454194
 21
259.3633365921215
 31
0.0
  0
MTEXT
  5
3B8
330
1F
100
AcDbEntity
  8
0-B
  6
Continuous
 62
     7
370
   211
100
AcDbMText
 10
1377.50008454194
 20
188.6533365921215
 30
0.0
 40
68.58
 41
90.0
 46
0.0
 71
     7
 72
     1
  1
{\fＭＳ ゴシック|b0|i0|c128|p49;20}
 73
     1
 44
1.0
  0
LINE
  5
3B9
330
1F
100
AcDbEntity
  8
0-B
  6
Continuous
 62
   120
370
     5
100
AcDbLine
 10
2922.50008454194
 20
184.3633365921215
 30
0.0
 11
3072.50008454194
 21
184.3633365921215
 31
0.0
  0
LWPOLYLINE
  5
3BA
330
1F
100
AcDbEntity
  8
0-B
  6
Continuous
 62
     7
370
     9
100
AcDbPolyline
 90
        4
 70
     1
 43
3.0
 10
2924.00008454194
 20
184.3633365921215
 42
0.4142135623731
 10
2922.50008454194
 20
185.8633365921215
 42
0.4142135623731
 10
2921.00008454194
 20
184.3633365921215
 42
0.4142135623731
 10
2922.50008454194
 20
182.8633365921215
 42
0.4142135623731
  0
LWPOLYLINE
  5
3BB
330
1F
100
AcDbEntity
  8
0-B
  6
Continuous
 62
     7
370
     9
100
AcDbPolyline
 90
        4
 70
     1
 43
3.0
 10
3074.00008454194
 20
184.3633365921215
 42
0.4142135623731
 10
3072.50008454194
 20
185.8633365921215
 42
0.4142135623731
 10
3071.00008454194
 20
184.3633365921215
 42
0.4142135623731
 10
3072.50008454194
 20
182.8633365921215
 42
0.4142135623731
  0
LINE
  5
3BC
330
1F
100
AcDbEntity
  8
0-B
  6
Continuous
 62
   120
370
     5
100
AcDbLine
 10
2922.50008454194
 20
184.3633365921215
 30
0.0
 11
2922.50008454194
 21
259.3633365921215
 31
0.0
  0
LINE
  5
3BD
330
1F
100
AcDbEntity
  8
0-B
  6
Continuous
 62
   120
370
     5
100
AcDbLine
 10
3072.50008454194
 20
184.3633365921215
 30
0.0
 11
3072.50008454194
 21
259.3633365921215
 31
0.0
  0
MTEXT
  5
3BE
330
1F
100
AcDbEntity
  8
0-B
  6
Continuous
 62
     7
370
   211
100
AcDbMText
 10
2952.50008454194
 20
188.6533365921215
 30
0.0
 40
68.58
 41
90.0
 46
0.0
 71
     7
 72
     1
  1
{\fＭＳ ゴシック|b0|i0|c128|p49;10}
 73
     1
 44
1.0
  0
LINE
  5
3BF
330
1F
100
AcDbEntity
  8
0-B
  6
Continuous
 62
   120
370
     5
100
AcDbLine
 10
1272.50008454194
 20
1434.363416494564
 30
0.0
 11
1572.50008454194
 21
1434.363416494564
 31
0.0
  0
LWPOLYLINE
  5
3C0
330
1F
100
AcDbEntity
  8
0-B
  6
Continuous
 62
     7
370
     9
100
AcDbPolyline
 90
        4
 70
     1
 43
3.0
 10
1274.00008454194
 20
1434.363416494564
 42
0.4142135623731
 10
1272.50008454194
 20
1435.863416494564
 42
0.4142135623731
 10
1271.00008454194
 20
1434.363416494564
 42
0.4142135623731
 10
1272.50008454194
 20
1432.863416494564
 42
0.4142135623731
  0
LWPOLYLINE
  5
3C1
330
1F
100
AcDbEntity
  8
0-B
  6
Continuous
 62
     7
370
     9
100
AcDbPolyline
 90
        4
 70
     1
 43
3.0
 10
1574.00008454194
 20
1434.363416494564
 42
0.4142135623731
 10
1572.50008454194
 20
1435.863416494564
 42
0.4142135623731
 10
1571.00008454194
 20
1434.363416494564
 42
0.4142135623731
 10
1572.50008454194
 20
1432.863416494564
 42
0.4142135623731
  0
LINE
  5
3C2
330
1F
100
AcDbEntity
  8
0-B
  6
Continuous
 62
   120
370
     5
100
AcDbLine
 10
1272.50008454194
 20
1434.363416494564
 30
0.0
 11
1272.50008454194
 21
1509.363416494564
 31
0.0
  0
LINE
  5
3C3
330
1F
100
AcDbEntity
  8
0-B
  6
Continuous
 62
   120
370
     5
100
AcDbLine
 10
1572.50008454194
 20
1434.363416494564
 30
0.0
 11
1572.50008454194
 21
1509.363416494564
 31
0.0
  0
MTEXT
  5
3C4
330
1F
100
AcDbEntity
  8
0-B
  6
Continuous
 62
     7
370
   211
100
AcDbMText
 10
1377.50008454194
 20
1438.653416494564
 30
0.0
 40
68.58
 41
90.0
 46
0.0
 71
     7
 72
     1
  1
{\fＭＳ ゴシック|b0|i0|c128|p49;20}
 73
     1
 44
1.0
  0
LINE
  5
3C5
330
1F
100
AcDbEntity
  8
0-B
  6
Continuous
 62
   120
370
     5
100
AcDbLine
 10
2922.50008454194
 20
1434.363416494564
 30
0.0
 11
3072.50008454194
 21
1434.363416494564
 31
0.0
  0
LWPOLYLINE
  5
3C6
330
1F
100
AcDbEntity
  8
0-B
  6
Continuous
 62
     7
370
     9
100
AcDbPolyline
 90
        4
 70
     1
 43
3.0
 10
2924.00008454194
 20
1434.363416494564
 42
0.4142135623731
 10
2922.50008454194
 20
1435.863416494564
 42
0.4142135623731
 10
2921.00008454194
 20
1434.363416494564
 42
0.4142135623731
 10
2922.50008454194
 20
1432.863416494564
 42
0.4142135623731
  0
LWPOLYLINE
  5
3C7
330
1F
100
AcDbEntity
  8
0-B
  6
Continuous
 62
     7
370
     9
100
AcDbPolyline
 90
        4
 70
     1
 43
3.0
 10
3074.00008454194
 20
1434.363416494564
 42
0.4142135623731
 10
3072.50008454194
 20
1435.863416494564
 42
0.4142135623731
 10
3071.00008454194
 20
1434.363416494564
 42
0.4142135623731
 10
3072.50008454194
 20
1432.863416494564
 42
0.4142135623731
  0
LINE
  5
3C8
330
1F
100
AcDbEntity
  8
0-B
  6
Continuous
 62
   120
370
     5
100
AcDbLine
 10
2922.50008454194
 20
1434.363416494564
 30
0.0
 11
2922.50008454194
 21
1509.363416494564
 31
0.0
  0
LINE
  5
3C9
330
1F
100
AcDbEntity
  8
0-B
  6
Continuous
 62
   120
370
     5
100
AcDbLine
 10
3072.50008454194
 20
1434.363416494564
 30
0.0
 11
3072.50008454194
 21
1509.363416494564
 31
0.0
  0
MTEXT
  5
3CA
330
1F
100
AcDbEntity
  8
0-B
  6
Continuous
 62
     7
370
   211
100
AcDbMText
 10
2952.50008454194
 20
1438.653416494564
 30
0.0
 40
68.58
 41
90.0
 46
0.0
 71
     7
 72
     1
  1
{\fＭＳ ゴシック|b0|i0|c128|p49;10}
 73
     1
 44
1.0
  0
LINE
  5
3CB
330
1F
100
AcDbEntity
  8
0-B
  6
Continuous
 62
   120
370
     5
100
AcDbLine
 10
1272.501012441275
 20
2684.363496397006
 30
0.0
 11
1572.501012441275
 21
2684.363496397006
 31
0.0
  0
LWPOLYLINE
  5
3CC
330
1F
100
AcDbEntity
  8
0-B
  6
Continuous
 62
     7
370
     9
100
AcDbPolyline
 90
        4
 70
     1
 43
3.0
 10
1274.001012441275
 20
2684.363496397006
 42
0.4142135623731
 10
1272.501012441275
 20
2685.863496397006
 42
0.4142135623731
 10
1271.001012441275
 20
2684.363496397006
 42
0.4142135623731
 10
1272.501012441275
 20
2682.863496397006
 42
0.4142135623731
  0
LWPOLYLINE
  5
3CD
330
1F
100
AcDbEntity
  8
0-B
  6
Continuous
 62
     7
370
     9
100
AcDbPolyline
 90
        4
 70
     1
 43
3.0
 10
1574.001012441275
 20
2684.363496397006
 42
0.4142135623731
 10
1572.501012441275
 20
2685.863496397006
 42
0.4142135623731
 10
1571.001012441275
 20
2684.363496397006
 42
0.4142135623731
 10
1572.501012441275
 20
2682.863496397006
 42
0.4142135623731
  0
LINE
  5
3CE
330
1F
100
AcDbEntity
  8
0-B
  6
Continuous
 62
   120
370
     5
100
AcDbLine
 10
1272.501012441275
 20
2684.363496397006
 30
0.0
 11
1272.501012441275
 21
2759.363496397006
 31
0.0
  0
LINE
  5
3CF
330
1F
100
AcDbEntity
  8
0-B
  6
Continuous
 62
   120
370
     5
100
AcDbLine
 10
1572.501012441275
 20
2684.363496397006
 30
0.0
 11
1572.501012441275
 21
2759.363496397006
 31
0.0
  0
MTEXT
  5
3D0
330
1F
100
AcDbEntity
  8
0-B
  6
Continuous
 62
     7
370
   211
100
AcDbMText
 10
1377.501012441275
 20
2688.653496397006
 30
0.0
 40
68.58
 41
90.0
 46
0.0
 71
     7
 72
     1
  1
{\fＭＳ ゴシック|b0|i0|c128|p49;20}
 73
     1
 44
1.0
  0
LINE
  5
3D1
330
1F
100
AcDbEntity
  8
0-B
  6
Continuous
 62
   120
370
     5
100
AcDbLine
 10
2922.501012441275
 20
2684.363496397006
 30
0.0
 11
3072.501012441275
 21
2684.363496397006
 31
0.0
  0
LWPOLYLINE
  5
3D2
330
1F
100
AcDbEntity
  8
0-B
  6
Continuous
 62
     7
370
     9
100
AcDbPolyline
 90
        4
 70
     1
 43
3.0
 10
2924.001012441275
 20
2684.363496397006
 42
0.4142135623731
 10
2922.501012441275
 20
2685.863496397006
 42
0.4142135623731
 10
2921.001012441275
 20
2684.363496397006
 42
0.4142135623731
 10
2922.501012441275
 20
2682.863496397006
 42
0.4142135623731
  0
LWPOLYLINE
  5
3D3
330
1F
100
AcDbEntity
  8
0-B
  6
Continuous
 62
     7
370
     9
100
AcDbPolyline
 90
        4
 70
     1
 43
3.0
 10
3074.001012441275
 20
2684.363496397006
 42
0.4142135623731
 10
3072.501012441275
 20
2685.863496397006
 42
0.4142135623731
 10
3071.001012441275
 20
2684.363496397006
 42
0.4142135623731
 10
3072.501012441275
 20
2682.863496397006
 42
0.4142135623731
  0
LINE
  5
3D4
330
1F
100
AcDbEntity
  8
0-B
  6
Continuous
 62
   120
370
     5
100
AcDbLine
 10
2922.501012441275
 20
2684.363496397006
 30
0.0
 11
2922.501012441275
 21
2759.363496397006
 31
0.0
  0
LINE
  5
3D5
330
1F
100
AcDbEntity
  8
0-B
  6
Continuous
 62
   120
370
     5
100
AcDbLine
 10
3072.501012441275
 20
2684.363496397006
 30
0.0
 11
3072.501012441275
 21
2759.363496397006
 31
0.0
  0
MTEXT
  5
3D6
330
1F
100
AcDbEntity
  8
0-B
  6
Continuous
 62
     7
370
   211
100
AcDbMText
 10
2952.501012441275
 20
2688.653496397006
 30
0.0
 40
68.58
 41
90.0
 46
0.0
 71
     7
 72
     1
  1
{\fＭＳ ゴシック|b0|i0|c128|p49;10}
 73
     1
 44
1.0
  0
MTEXT
  5
3D7
330
1F
100
AcDbEntity
  8
F-A
  6
Continuous
 62
     7
370
     9
100
AcDbMText
 10
4936.24903358083
 20
-4147.857012699985
 30
0.0
 40
74.295
 41
97.5
 46
0.0
 71
     7
 72
     1
  1
{\fＭＳ ゴシック|b0|i0|c128|p49;03}
 73
     1
 44
1.0
  0
MTEXT
  5
3D8
330
1F
100
AcDbEntity
  8
F-A
  6
Continuous
 62
     7
370
     0
100
AcDbMText
 10
4778.749126529666
 20
-3938.071010139966
 30
0.0
 40
78.86699999999999
 41
517.5
 46
0.0
 71
     7
 72
     1
  1
{\fＭＳ ゴシック|b0|i0|c128|p49;2021.04.01}
 73
     1
 44
1.0
  0
MTEXT
  5
3D9
330
1F
100
AcDbEntity
  8
0-A
  6
Continuous
 62
     7
370
     9
100
AcDbMText
 10
-1474.999830916122
 20
3579.290214447847
 30
0.0
 40
68.58000000000003
 41
630.0000000000002
 46
0.0
 71
     7
 72
     1
  1
{\fＭＳ ゴシック|b0|i0|c128|p49;ＤＥＢ175Ａ-□}
 73
     1
 44
1.0
  0
MTEXT
  5
3DA
330
1F
100
AcDbEntity
  8
0-A
  6
Continuous
 62
     7
370
     9
100
AcDbMText
 10
-1474.999830916122
 20
3429.2897195682
 30
0.0
 40
68.57999999999998
 41
674.9999999999998
 46
0.0
 71
     7
 72
     1
  1
{\fＭＳ ゴシック|b0|i0|c128|p49;ＤＥＢ175Ａ1-□}
 73
     1
 44
1.0
  0
MTEXT
  5
3DB
330
1F
100
AcDbEntity
  8
0-A
  6
Continuous
 62
     7
370
     9
100
AcDbMText
 10
-1475.000758815456
 20
2326.165376991323
 30
0.0
 40
68.58
 41
630.0
 46
0.0
 71
     7
 72
     1
  1
{\fＭＳ ゴシック|b0|i0|c128|p49;ＤＥＢ180Ａ-□}
 73
     1
 44
1.0
  0
MTEXT
  5
3DC
330
1F
100
AcDbEntity
  8
0-A
  6
Continuous
 62
     7
370
     9
100
AcDbMText
 10
-1475.000758815456
 20
2169.915367003518
 30
0.0
 40
68.57999999999998
 41
674.9999999999998
 46
0.0
 71
     7
 72
     1
  1
{\fＭＳ ゴシック|b0|i0|c128|p49;ＤＥＢ180Ａ1-□}
 73
     1
 44
1.0
  0
MTEXT
  5
3DD
330
1F
100
AcDbEntity
  8
0-A
  6
Continuous
 62
     7
370
     9
100
AcDbMText
 10
-1475.000758815456
 20
1076.165297088881
 30
0.0
 40
68.58
 41
630.0
 46
0.0
 71
     7
 72
     1
  1
{\fＭＳ ゴシック|b0|i0|c128|p49;ＤＥＢ185Ａ-□}
 73
     1
 44
1.0
  0
MTEXT
  5
3DE
330
1F
100
AcDbEntity
  8
0-A
  6
Continuous
 62
     7
370
     9
100
AcDbMText
 10
-1475.000758815456
 20
-173.8347828135622
 30
0.0
 40
68.58
 41
630.0
 46
0.0
 71
     7
 72
     1
  1
{\fＭＳ ゴシック|b0|i0|c128|p49;ＤＥＢ190Ａ-□}
 73
     1
 44
1.0
  0
MTEXT
  5
3DF
330
1F
100
AcDbEntity
  8
0-A
  6
Continuous
 62
     7
370
     9
100
AcDbMText
 10
-1475.000758815456
 20
-1423.834862716006
 30
0.0
 40
68.58
 41
630.0
 46
0.0
 71
     7
 72
     1
  1
{\fＭＳ ゴシック|b0|i0|c128|p49;ＤＥＢ195Ａ-□}
 73
     1
 44
1.0
  0
MTEXT
  5
3E0
330
1F
100
AcDbEntity
  8
0-A
  6
Continuous
 62
     7
370
     9
100
AcDbMText
 10
-1475.000758815456
 20
-2673.834942618447
 30
0.0
 40
68.58
 41
630.0
 46
0.0
 71
     7
 72
     1
  1
{\fＭＳ ゴシック|b0|i0|c128|p49;ＤＥＢ200Ａ-□}
 73
     1
 44
1.0
  0
MTEXT
  5
3E1
330
1F
100
AcDbEntity
  8
0-A
  6
Continuous
 62
     7
370
     9
100
AcDbMText
 10
4369.999719568202
 20
3576.165456893767
 30
0.0
 40
68.58
 41
630.0
 46
0.0
 71
     7
 72
     1
  1
{\fＭＳ ゴシック|b0|i0|c128|p49;ＤＥＢ205Ａ-□}
 73
     1
 44
1.0
  0
MTEXT
  5
3E2
330
1F
100
AcDbEntity
  8
0-A
  6
Continuous
 62
     7
370
     9
100
AcDbMText
 10
4369.999719568202
 20
2326.165376991323
 30
0.0
 40
68.58
 41
630.0
 46
0.0
 71
     7
 72
     1
  1
{\fＭＳ ゴシック|b0|i0|c128|p49;ＤＥＢ210Ａ-□}
 73
     1
 44
1.0
  0
MTEXT
  5
3E3
330
1F
100
AcDbEntity
  8
0-A
  6
Continuous
 62
     7
370
     9
100
AcDbMText
 10
4369.999719568202
 20
1076.165297088881
 30
0.0
 40
68.58
 41
630.0
 46
0.0
 71
     7
 72
     1
  1
{\fＭＳ ゴシック|b0|i0|c128|p49;ＤＥＢ215Ａ-□}
 73
     1
 44
1.0
  0
MTEXT
  5
3E4
330
1F
100
AcDbEntity
  8
0-A
  6
Continuous
 62
     7
370
     9
100
AcDbMText
 10
4369.999719568202
 20
-173.8347828135622
 30
0.0
 40
68.58
 41
630.0
 46
0.0
 71
     7
 72
     1
  1
{\fＭＳ ゴシック|b0|i0|c128|p49;ＤＥＢ220Ａ-□}
 73
     1
 44
1.0
  0
MTEXT
  5
3E5
330
1F
100
AcDbEntity
  8
0-A
  6
Continuous
 62
     7
370
     9
100
AcDbMText
 10
4369.999719568202
 20
-1423.834862716006
 30
0.0
 40
68.58
 41
630.0
 46
0.0
 71
     7
 72
     1
  1
{\fＭＳ ゴシック|b0|i0|c128|p49;ＤＥＢ225Ａ-□}
 73
     1
 44
1.0
  0
MTEXT
  5
3E6
330
1F
100
AcDbEntity
  8
0-A
  6
Continuous
 62
     7
370
     9
100
AcDbMText
 10
4369.999719568202
 20
-2673.834942618447
 30
0.0
 40
68.58
 41
630.0
 46
0.0
 71
     7
 72
     1
  1
{\fＭＳ ゴシック|b0|i0|c128|p49;ＤＥＢ230Ａ-□}
 73
     1
 44
1.0
  0
ENDSEC
  0
SECTION
  2
OBJECTS
  0
DICTIONARY
  5
C
330
0
100
AcDbDictionary
281
     1
  3
ACAD_GROUP
350
D
  3
ACAD_LAYOUT
350
1A
  3
ACAD_MATERIAL
350
3B
  3
ACAD_MLEADERSTYLE
350
3E8
  3
ACAD_MLINESTYLE
350
17
  3
ACAD_PLOTSETTINGS
350
19
  3
ACAD_PLOTSTYLENAME
350
E
  3
ACAD_TABLESTYLE
350
3E7
  3
ACAD_VISUALSTYLE
350
2A
  0
DICTIONARY
  5
D
102
{ACAD_REACTORS
330
C
102
}
330
C
100
AcDbDictionary
281
     1
  0
DICTIONARY
  5
1A
102
{ACAD_REACTORS
330
C
102
}
330
C
100
AcDbDictionary
281
     1
  3
Layout1
350
1E
  3
Layout2
350
26
  3
Model
350
22
  0
DICTIONARY
  5
3B
102
{ACAD_REACTORS
330
C
102
}
330
C
100
AcDbDictionary
281
     1
  3
ByBlock
350
3D
  3
ByLayer
350
3C
  3
Global
350
3E
  0
DICTIONARY
  5
3E8
102
{ACAD_REACTORS
330
C
102
}
330
C
100
AcDbDictionary
281
     1
  0
DICTIONARY
  5
17
102
{ACAD_REACTORS
330
C
102
}
330
C
100
AcDbDictionary
281
     1
  3
Standard
350
18
  0
DICTIONARY
  5
19
102
{ACAD_REACTORS
330
C
102
}
330
C
100
AcDbDictionary
281
     1
  0
ACDBDICTIONARYWDFLT
  5
E
102
{ACAD_REACTORS
330
C
102
}
330
C
100
AcDbDictionary
281
     1
  3
Normal
350
F
100
AcDbDictionaryWithDefault
340
F
  0
DICTIONARY
  5
3E7
102
{ACAD_REACTORS
330
C
102
}
330
C
100
AcDbDictionary
281
     1
  0
DICTIONARY
  5
2A
102
{ACAD_REACTORS
330
C
102
}
330
C
100
AcDbDictionary
281
     1
  3
2dWireframe
350
2F
  3
3D Hidden
350
31
  3
3dWireframe
350
30
  3
Basic
350
32
  3
Brighten
350
36
  3
ColorChange
350
3A
  3
Conceptual
350
34
  3
Dim
350
35
  3
Facepattern
350
39
  3
Flat
350
2B
  3
FlatWithEdges
350
2C
  3
Gouraud
350
2D
  3
GouraudWithEdges
350
2E
  3
Linepattern
350
38
  3
Realistic
350
33
  3
Thicken
350
37
  0
LAYOUT
  5
1E
102
{ACAD_REACTORS
330
1A
102
}
330
1A
100
AcDbPlotSettings
  1

  2
none_device
  4

  6

 40
0.0
 41
0.0
 42
0.0
 43
0.0
 44
0.0
 45
0.0
 46
0.0
 47
0.0
 48
0.0
 49
0.0
140
0.0
141
0.0
142
1.0
143
1.0
 70
   688
 72
     0
 73
     0
 74
     5
  7

 75
    16
 76
     0
 77
     5
 78
   300
147
1.0
148
0.0
149
0.0
100
AcDbLayout
  1
Layout1
 70
     1
 71
     1
 10
0.0
 20
0.0
 11
420.0
 21
297.0
 12
0.0
 22
0.0
 32
0.0
 14
1.000000000000000E+20
 24
1.000000000000000E+20
 34
1.000000000000000E+20
 15
-1.000000000000000E+20
 25
-1.000000000000000E+20
 35
-1.000000000000000E+20
146
0.0
 13
0.0
 23
0.0
 33
0.0
 16
1.0
 26
0.0
 36
0.0
 17
0.0
 27
1.0
 37
0.0
 76
     0
330
1B
  0
LAYOUT
  5
26
102
{ACAD_REACTORS
330
1A
102
}
330
1A
100
AcDbPlotSettings
  1

  2
none_device
  4

  6

 40
0.0
 41
0.0
 42
0.0
 43
0.0
 44
0.0
 45
0.0
 46
0.0
 47
0.0
 48
0.0
 49
0.0
140
0.0
141
0.0
142
1.0
143
1.0
 70
   688
 72
     0
 73
     0
 74
     5
  7

 75
    16
 76
     0
 77
     5
 78
   300
147
1.0
148
0.0
149
0.0
100
AcDbLayout
  1
Layout2
 70
     1
 71
     2
 10
0.0
 20
0.0
 11
0.0
 21
0.0
 12
0.0
 22
0.0
 32
0.0
 14
0.0
 24
0.0
 34
0.0
 15
0.0
 25
0.0
 35
0.0
146
0.0
 13
0.0
 23
0.0
 33
0.0
 16
1.0
 26
0.0
 36
0.0
 17
0.0
 27
1.0
 37
0.0
 76
     0
330
23
  0
LAYOUT
  5
22
102
{ACAD_REACTORS
330
1A
102
}
330
1A
100
AcDbPlotSettings
  1

  2
none_device
  4

  6

 40
0.0
 41
0.0
 42
0.0
 43
0.0
 44
0.0
 45
0.0
 46
0.0
 47
0.0
 48
0.0
 49
0.0
140
0.0
141
0.0
142
1.0
143
1.0
 70
  1712
 72
     0
 73
     0
 74
     0
  7

 75
     0
 76
     0
 77
     5
 78
   300
147
1.0
148
0.0
149
0.0
100
AcDbLayout
  1
Model
 70
     1
 71
     0
 10
-6300.0
 20
-4455.0
 11
6300.0
 21
4455.0
 12
0.0
 22
0.0
 32
0.0
 14
-6300.0
 24
-4455.0
 34
0.0
 15
6300.0
 25
4455.0
 35
0.0
146
0.0
 13
0.0
 23
0.0
 33
0.0
 16
1.0
 26
0.0
 36
0.0
 17
0.0
 27
1.0
 37
0.0
 76
     0
330
1F
331
29
  0
MATERIAL
  5
3D
102
{ACAD_REACTORS
330
3B
102
}
330
3B
100
AcDbMaterial
  1
ByBlock
 72
     1
 94
      127
  0
MATERIAL
  5
3C
102
{ACAD_REACTORS
330
3B
102
}
330
3B
100
AcDbMaterial
  1
ByLayer
 72
     1
 94
      127
  0
MATERIAL
  5
3E
102
{ACAD_REACTORS
330
3B
102
}
330
3B
100
AcDbMaterial
  1
Global
 72
     1
 94
      127
  0
MLINESTYLE
  5
18
102
{ACAD_REACTORS
330
17
102
}
330
17
100
AcDbMlineStyle
  2
Standard
 70
     0
  3

 62
   256
 51
90.0
 52
90.0
 71
     2
 49
0.5
 62
   256
  6
BYLAYER
 49
-0.5
 62
   256
  6
BYLAYER
  0
ACDBPLACEHOLDER
  5
F
102
{ACAD_REACTORS
330
E
102
}
330
E
  0
VISUALSTYLE
  5
2F
102
{ACAD_REACTORS
330
2A
102
}
330
2A
100
AcDbVisualStyle
  2
2dWireframe
 70
     4
177
     2
291
     0
 71
     0
176
     1
 72
     2
176
     1
 73
     0
176
     1
 90
        0
176
     1
 40
-0.6
176
     1
 41
-30.0
176
     1
 62
     5
 63
     7
421
 16777215
176
     1
 74
     1
176
     1
 91
        4
176
     1
 64
     7
176
     1
 65
   257
176
     1
 75
     1
176
     1
175
     1
176
     1
 42
1.0
176
     1
 92
        0
176
     1
 66
   257
176
     1
 43
1.0
176
     1
 76
     1
176
     1
 77
     6
176
     1
 78
     2
176
     1
 67
     7
176
     1
 79
     5
176
     1
170
     0
176
     1
171
     0
176
     1
290
     0
176
     1
 93
        1
176
     1
 44
0.0
176
     1
173
     0
176
     1
  0
VISUALSTYLE
  5
31
102
{ACAD_REACTORS
330
2A
102
}
330
2A
100
AcDbVisualStyle
  2
3D Hidden
 70
     6
177
     2
291
     0
 71
     1
176
     1
 72
     2
176
     1
 73
     2
176
     1
 90
        0
176
     1
 40
-0.6
176
     1
 41
-30.0
176
     1
 62
     5
 63
     7
421
 16777215
176
     1
 74
     2
176
     1
 91
        2
176
     1
 64
     7
176
     1
 65
   257
176
     1
 75
     2
176
     1
175
     1
176
     1
 42
40.0
176
     1
 92
        0
176
     1
 66
   257
176
     1
 43
1.0
176
     1
 76
     1
176
     1
 77
     6
176
     1
 78
     2
176
     1
 67
     7
176
     1
 79
     3
176
     1
170
     0
176
     1
171
     0
176
     1
290
     0
176
     1
 93
        1
176
     1
 44
0.0
176
     1
173
     0
176
     1
  0
VISUALSTYLE
  5
30
102
{ACAD_REACTORS
330
2A
102
}
330
2A
100
AcDbVisualStyle
  2
3dWireframe
 70
     5
177
     2
291
     0
 71
     0
176
     1
 72
     2
176
     1
 73
     0
176
     1
 90
        0
176
     1
 40
-0.6
176
     1
 41
-30.0
176
     1
 62
     5
 63
     7
421
 16777215
176
     1
 74
     1
176
     1
 91
        4
176
     1
 64
     7
176
     1
 65
   257
176
     1
 75
     1
176
     1
175
     1
176
     1
 42
1.0
176
     1
 92
        0
176
     1
 66
   257
176
     1
 43
1.0
176
     1
 76
     1
176
     1
 77
     6
176
     1
 78
     2
176
     1
 67
     7
176
     1
 79
     5
176
     1
170
     0
176
     1
171
     0
176
     1
290
     0
176
     1
 93
        1
176
     1
 44
0.0
176
     1
173
     0
176
     1
  0
VISUALSTYLE
  5
32
102
{ACAD_REACTORS
330
2A
102
}
330
2A
100
AcDbVisualStyle
  2
Basic
 70
     7
177
     2
291
     1
 71
     1
176
     1
 72
     0
176
     1
 73
     1
176
     1
 90
        0
176
     1
 40
-0.6
176
     1
 41
-30.0
176
     1
 62
     5
 63
     7
421
 16777215
176
     1
 74
     0
176
     1
 91
        4
176
     1
 64
     7
176
     1
 65
   257
176
     1
 75
     1
176
     1
175
     1
176
     1
 42
1.0
176
     1
 92
        8
176
     1
 66
     7
176
     1
 43
1.0
176
     1
 76
     1
176
     1
 77
     6
176
     1
 78
     2
176
     1
 67
     7
176
     1
 79
     5
176
     1
170
     0
176
     1
171
     0
176
     1
290
     0
176
     1
 93
        1
176
     1
 44
0.0
176
     1
173
     0
176
     1
  0
VISUALSTYLE
  5
36
102
{ACAD_REACTORS
330
2A
102
}
330
2A
100
AcDbVisualStyle
  2
Brighten
 70
    12
177
     2
291
     1
 71
     2
176
     1
 72
     2
176
     1
 73
     0
176
     1
 90
        0
176
     1
 40
-0.6
176
     1
 41
-30.0
176
     1
 62
     5
 63
     7
421
 16777215
176
     1
 74
     1
176
     1
 91
        4
176
     1
 64
     7
176
     1
 65
   257
176
     1
 75
     1
176
     1
175
     1
176
     1
 42
1.0
176
     1
 92
        8
176
     1
 66
     7
176
     1
 43
1.0
176
     1
 76
     1
176
     1
 77
     6
176
     1
 78
     2
176
     1
 67
     7
176
     1
 79
     5
176
     1
170
     0
176
     1
171
     0
176
     1
290
     0
176
     1
 93
        1
176
     1
 44
50.0
176
     1
173
     0
176
     1
  0
VISUALSTYLE
  5
3A
102
{ACAD_REACTORS
330
2A
102
}
330
2A
100
AcDbVisualStyle
  2
ColorChange
 70
    16
177
     2
291
     1
 71
     2
176
     1
 72
     2
176
     1
 73
     3
176
     1
 90
        0
176
     1
 40
-0.6
176
     1
 41
-30.0
176
     1
 62
     5
 63
     8
421
  8421504
176
     1
 74
     1
176
     1
 91
        4
176
     1
 64
     7
176
     1
 65
   257
176
     1
 75
     1
176
     1
175
     1
176
     1
 42
1.0
176
     1
 92
        8
176
     1
 66
     8
424
  8421504
176
     1
 43
1.0
176
     1
 76
     1
176
     1
 77
     6
176
     1
 78
     2
176
     1
 67
     7
176
     1
 79
     5
176
     1
170
     0
176
     1
171
     0
176
     1
290
     0
176
     1
 93
        1
176
     1
 44
0.0
176
     1
173
     0
176
     1
  0
VISUALSTYLE
  5
34
102
{ACAD_REACTORS
330
2A
102
}
330
2A
100
AcDbVisualStyle
  2
Conceptual
 70
     9
177
     2
291
     0
 71
     3
176
     1
 72
     2
176
     1
 73
     0
176
     1
 90
        0
176
     1
 40
-0.6
176
     1
 41
-30.0
176
     1
 62
     5
 63
     7
421
 16777215
176
     1
 74
     2
176
     1
 91
        2
176
     1
 64
     7
176
     1
 65
   257
176
     1
 75
     1
176
     1
175
     1
176
     1
 42
40.0
176
     1
 92
        8
176
     1
 66
     7
176
     1
 43
1.0
176
     1
 76
     1
176
     1
 77
     6
176
     1
 78
     2
176
     1
 67
     7
176
     1
 79
     3
176
     1
170
     0
176
     1
171
     0
176
     1
290
     0
176
     1
 93
        1
176
     1
 44
0.0
176
     1
173
     0
176
     1
  0
VISUALSTYLE
  5
35
102
{ACAD_REACTORS
330
2A
102
}
330
2A
100
AcDbVisualStyle
  2
Dim
 70
    11
177
     2
291
     1
 71
     2
176
     1
 72
     2
176
     1
 73
     0
176
     1
 90
        0
176
     1
 40
-0.6
176
     1
 41
-30.0
176
     1
 62
     5
 63
     7
421
 16777215
176
     1
 74
     1
176
     1
 91
        4
176
     1
 64
     7
176
     1
 65
   257
176
     1
 75
     1
176
     1
175
     1
176
     1
 42
1.0
176
     1
 92
        8
176
     1
 66
     7
176
     1
 43
1.0
176
     1
 76
     1
176
     1
 77
     6
176
     1
 78
     2
176
     1
 67
     7
176
     1
 79
     5
176
     1
170
     0
176
     1
171
     0
176
     1
290
     0
176
     1
 93
        1
176
     1
 44
-50.0
176
     1
173
     0
176
     1
  0
VISUALSTYLE
  5
39
102
{ACAD_REACTORS
330
2A
102
}
330
2A
100
AcDbVisualStyle
  2
Facepattern
 70
    15
177
     2
291
     1
 71
     2
176
     1
 72
     2
176
     1
 73
     0
176
     1
 90
        0
176
     1
 40
-0.6
176
     1
 41
-30.0
176
     1
 62
     5
 63
     7
421
 16777215
176
     1
 74
     1
176
     1
 91
        4
176
     1
 64
     7
176
     1
 65
   257
176
     1
 75
     1
176
     1
175
     1
176
     1
 42
1.0
176
     1
 92
        8
176
     1
 66
     7
176
     1
 43
1.0
176
     1
 76
     1
176
     1
 77
     6
176
     1
 78
     2
176
     1
 67
     7
176
     1
 79
     5
176
     1
170
     0
176
     1
171
     0
176
     1
290
     0
176
     1
 93
        1
176
     1
 44
0.0
176
     1
173
     0
176
     1
  0
VISUALSTYLE
  5
2B
102
{ACAD_REACTORS
330
2A
102
}
330
2A
100
AcDbVisualStyle
  2
Flat
 70
     0
177
     2
291
     1
 71
     2
176
     1
 72
     1
176
     1
 73
     1
176
     1
 90
        2
176
     1
 40
-0.6
176
     1
 41
30.0
176
     1
 62
     5
 63
     7
421
 16777215
176
     1
 74
     0
176
     1
 91
        4
176
     1
 64
     7
176
     1
 65
   257
176
     1
 75
     1
176
     1
175
     1
176
     1
 42
1.0
176
     1
 92
        8
176
     1
 66
     7
176
     1
 43
1.0
176
     1
 76
     1
176
     1
 77
     6
176
     1
 78
     2
176
     1
 67
     7
176
     1
 79
     5
176
     1
170
     0
176
     1
171
     0
176
     1
290
     0
176
     1
 93
       13
176
     1
 44
0.0
176
     1
173
     0
176
     1
  0
VISUALSTYLE
  5
2C
102
{ACAD_REACTORS
330
2A
102
}
330
2A
100
AcDbVisualStyle
  2
FlatWithEdges
 70
     1
177
     2
291
     1
 71
     2
176
     1
 72
     1
176
     1
 73
     1
176
     1
 90
        2
176
     1
 40
-0.6
176
     1
 41
30.0
176
     1
 62
     5
 63
     7
421
 16777215
176
     1
 74
     1
176
     1
 91
        4
176
     1
 64
     7
176
     1
 65
   257
176
     1
 75
     1
176
     1
175
     1
176
     1
 42
1.0
176
     1
 92
        0
176
     1
 66
   257
176
     1
 43
1.0
176
     1
 76
     1
176
     1
 77
     6
176
     1
 78
     2
176
     1
 67
     7
176
     1
 79
     5
176
     1
170
     0
176
     1
171
     0
176
     1
290
     0
176
     1
 93
       13
176
     1
 44
0.0
176
     1
173
     0
176
     1
  0
VISUALSTYLE
  5
2D
102
{ACAD_REACTORS
330
2A
102
}
330
2A
100
AcDbVisualStyle
  2
Gouraud
 70
     2
177
     2
291
     1
 71
     2
176
     1
 72
     2
176
     1
 73
     1
176
     1
 90
        2
176
     1
 40
-0.6
176
     1
 41
30.0
176
     1
 62
     5
 63
     7
421
 16777215
176
     1
 74
     0
176
     1
 91
        4
176
     1
 64
     7
176
     1
 65
   257
176
     1
 75
     1
176
     1
175
     1
176
     1
 42
1.0
176
     1
 92
        0
176
     1
 66
     7
176
     1
 43
1.0
176
     1
 76
     1
176
     1
 77
     6
176
     1
 78
     2
176
     1
 67
     7
176
     1
 79
     5
176
     1
170
     0
176
     1
171
     0
176
     1
290
     0
176
     1
 93
       13
176
     1
 44
0.0
176
     1
173
     0
176
     1
  0
VISUALSTYLE
  5
2E
102
{ACAD_REACTORS
330
2A
102
}
330
2A
100
AcDbVisualStyle
  2
GouraudWithEdges
 70
     3
177
     2
291
     1
 71
     2
176
     1
 72
     2
176
     1
 73
     1
176
     1
 90
        2
176
     1
 40
-0.6
176
     1
 41
30.0
176
     1
 62
     5
 63
     7
421
 16777215
176
     1
 74
     1
176
     1
 91
        4
176
     1
 64
     7
176
     1
 65
   257
176
     1
 75
     1
176
     1
175
     1
176
     1
 42
1.0
176
     1
 92
        0
176
     1
 66
   257
176
     1
 43
1.0
176
     1
 76
     1
176
     1
 77
     6
176
     1
 78
     2
176
     1
 67
     7
176
     1
 79
     5
176
     1
170
     0
176
     1
171
     0
176
     1
290
     0
176
     1
 93
       13
176
     1
 44
0.0
176
     1
173
     0
176
     1
  0
VISUALSTYLE
  5
38
102
{ACAD_REACTORS
330
2A
102
}
330
2A
100
AcDbVisualStyle
  2
Linepattern
 70
    14
177
     2
291
     1
 71
     2
176
     1
 72
     2
176
     1
 73
     0
176
     1
 90
        0
176
     1
 40
-0.6
176
     1
 41
-30.0
176
     1
 62
     5
 63
     7
421
 16777215
176
     1
 74
     1
176
     1
 91
        4
176
     1
 64
     7
176
     1
 65
   257
176
     1
 75
     7
176
     1
175
     7
176
     1
 42
1.0
176
     1
 92
        8
176
     1
 66
     7
176
     1
 43
1.0
176
     1
 76
     1
176
     1
 77
     6
176
     1
 78
     2
176
     1
 67
     7
176
     1
 79
     5
176
     1
170
     0
176
     1
171
     0
176
     1
290
     0
176
     1
 93
        1
176
     1
 44
0.0
176
     1
173
     0
176
     1
  0
VISUALSTYLE
  5
33
102
{ACAD_REACTORS
330
2A
102
}
330
2A
100
AcDbVisualStyle
  2
Realistic
 70
     8
177
     2
291
     0
 71
     2
176
     1
 72
     2
176
     1
 73
     0
176
     1
 90
        0
176
     1
 40
-0.6
176
     1
 41
-30.0
176
     1
 62
     5
 63
     7
421
 16777215
176
     1
 74
     1
176
     1
 91
        0
176
     1
 64
     7
176
     1
 65
   257
176
     1
 75
     1
176
     1
175
     1
176
     1
 42
1.0
176
     1
 92
        8
176
     1
 66
     8
424
  7895160
176
     1
 43
1.0
176
     1
 76
     1
176
     1
 77
     6
176
     1
 78
     2
176
     1
 67
     7
176
     1
 79
     5
176
     1
170
     0
176
     1
171
     0
176
     1
290
     0
176
     1
 93
       13
176
     1
 44
0.0
176
     1
173
     0
176
     1
  0
VISUALSTYLE
  5
37
102
{ACAD_REACTORS
330
2A
102
}
330
2A
100
AcDbVisualStyle
  2
Thicken
 70
    13
177
     2
291
     1
 71
     2
176
     1
 72
     2
176
     1
 73
     0
176
     1
 90
        0
176
     1
 40
-0.6
176
     1
 41
-30.0
176
     1
 62
     5
 63
     7
421
 16777215
176
     1
 74
     1
176
     1
 91
        4
176
     1
 64
     7
176
     1
 65
   257
176
     1
 75
     1
176
     1
175
     1
176
     1
 42
1.0
176
     1
 92
       12
176
     1
 66
     7
176
     1
 43
1.0
176
     1
 76
     1
176
     1
 77
     6
176
     1
 78
     2
176
     1
 67
     7
176
     1
 79
     5
176
     1
170
     0
176
     1
171
     0
176
     1
290
     0
176
     1
 93
        1
176
     1
 44
0.0
176
     1
173
     0
176
     1
  0
ENDSEC
  0
EOF
