  0
SECTION
  2
HEADER
  9
$ACADVER
  1
AC1024
  9
$ACADMAINTVER
 70
     6
  9
$DWGCODEPAGE
  3
ANSI_932
  9
$INSBASE
 10
0.0
 20
0.0
 30
0.0
  9
$EXTMIN
 10
-6300.0
 20
-4455.0
 30
0.0
  9
$EXTMAX
 10
6300.0
 20
4455.0
 30
0.0
  9
$LIMMIN
 10
-6300.0
 20
-4455.0
  9
$LIMMAX
 10
6300.0
 20
4455.0
  9
$ORTHOMODE
 70
     0
  9
$REGENMODE
 70
     1
  9
$FILLMODE
 70
     1
  9
$QTEXTMODE
 70
     0
  9
$MIRRTEXT
 70
     1
  9
$LTSCALE
 40
30.0
  9
$ATTMODE
 70
     1
  9
$TEXTSIZE
 40
2.5
  9
$TRACEWID
 40
1.0
  9
$TEXTSTYLE
  7
Standard
  9
$CLAYER
  8
0
  9
$CELTYPE
  6
ByLayer
  9
$CECOLOR
 62
   256
  9
$CELTSCALE
 40
1.0
  9
$DISPSILH
 70
     0
  9
$DIMSCALE
 40
1.0
  9
$DIMASZ
 40
2.5
  9
$DIMEXO
 40
0.625
  9
$DIMDLI
 40
3.75
  9
$DIMRND
 40
0.0
  9
$DIMDLE
 40
0.0
  9
$DIMEXE
 40
1.25
  9
$DIMTP
 40
0.0
  9
$DIMTM
 40
0.0
  9
$DIMTXT
 40
2.5
  9
$DIMCEN
 40
2.5
  9
$DIMTSZ
 40
0.0
  9
$DIMTOL
 70
     0
  9
$DIMLIM
 70
     0
  9
$DIMTIH
 70
     0
  9
$DIMTOH
 70
     0
  9
$DIMSE1
 70
     0
  9
$DIMSE2
 70
     0
  9
$DIMTAD
 70
     1
  9
$DIMZIN
 70
     8
  9
$DIMBLK
  1

  9
$DIMASO
 70
     1
  9
$DIMSHO
 70
     1
  9
$DIMPOST
  1

  9
$DIMAPOST
  1

  9
$DIMALT
 70
     0
  9
$DIMALTD
 70
     3
  9
$DIMALTF
 40
0.03937007874016
  9
$DIMLFAC
 40
1.0
  9
$DIMTOFL
 70
     1
  9
$DIMTVP
 40
0.0
  9
$DIMTIX
 70
     0
  9
$DIMSOXD
 70
     0
  9
$DIMSAH
 70
     0
  9
$DIMBLK1
  1

  9
$DIMBLK2
  1

  9
$DIMSTYLE
  2
ISO-25
  9
$DIMCLRD
 70
     0
  9
$DIMCLRE
 70
     0
  9
$DIMCLRT
 70
     0
  9
$DIMTFAC
 40
1.0
  9
$DIMGAP
 40
0.625
  9
$DIMJUST
 70
     0
  9
$DIMSD1
 70
     0
  9
$DIMSD2
 70
     0
  9
$DIMTOLJ
 70
     0
  9
$DIMTZIN
 70
     8
  9
$DIMALTZ
 70
     0
  9
$DIMALTTZ
 70
     0
  9
$DIMUPT
 70
     0
  9
$DIMDEC
 70
     2
  9
$DIMTDEC
 70
     2
  9
$DIMALTU
 70
     2
  9
$DIMALTTD
 70
     3
  9
$DIMTXSTY
  7
Standard
  9
$DIMAUNIT
 70
     0
  9
$DIMADEC
 70
     0
  9
$DIMALTRND
 40
0.0
  9
$DIMAZIN
 70
     0
  9
$DIMDSEP
 70
    44
  9
$DIMATFIT
 70
     3
  9
$DIMFRAC
 70
     0
  9
$DIMLDRBLK
  1

  9
$DIMLUNIT
 70
     2
  9
$DIMLWD
 70
    -2
  9
$DIMLWE
 70
    -2
  9
$DIMTMOVE
 70
     0
  9
$DIMFXL
 40
1.0
  9
$DIMFXLON
 70
     0
  9
$DIMJOGANG
 40
0.7853981633974483
  9
$DIMTFILL
 70
     0
  9
$DIMTFILLCLR
 70
     0
  9
$DIMARCSYM
 70
     0
  9
$DIMLTYPE
  6

  9
$DIMLTEX1
  6

  9
$DIMLTEX2
  6

  9
$DIMTXTDIRECTION
 70
     0
  9
$LUNITS
 70
     2
  9
$LUPREC
 70
     4
  9
$SKETCHINC
 40
1.0
  9
$FILLETRAD
 40
10.0
  9
$AUNITS
 70
     0
  9
$AUPREC
 70
     0
  9
$MENU
  1
.
  9
$ELEVATION
 40
0.0
  9
$PELEVATION
 40
0.0
  9
$THICKNESS
 40
0.0
  9
$LIMCHECK
 70
     0
  9
$CHAMFERA
 40
10.0
  9
$CHAMFERB
 40
10.0
  9
$CHAMFERC
 40
20.0
  9
$CHAMFERD
 40
0.0
  9
$SKPOLY
 70
     0
  9
$TDCREATE
 40
2459432.544472408
  9
$TDUCREATE
 40
2459432.169472408
  9
$TDUPDATE
 40
2459432.544472419
  9
$TDUUPDATE
 40
2459432.169472419
  9
$TDINDWG
 40
0.0000000116
  9
$TDUSRTIMER
 40
0.0000000116
  9
$USRTIMER
 70
     1
  9
$ANGBASE
 50
0.0
  9
$ANGDIR
 70
     0
  9
$PDMODE
 70
     0
  9
$PDSIZE
 40
0.0
  9
$PLINEWID
 40
0.0
  9
$SPLFRAME
 70
     0
  9
$SPLINETYPE
 70
     6
  9
$SPLINESEGS
 70
     8
  9
$HANDSEED
  5
45F
  9
$SURFTAB1
 70
     6
  9
$SURFTAB2
 70
     6
  9
$SURFTYPE
 70
     6
  9
$SURFU
 70
     6
  9
$SURFV
 70
     6
  9
$UCSBASE
  2

  9
$UCSNAME
  2

  9
$UCSORG
 10
0.0
 20
0.0
 30
0.0
  9
$UCSXDIR
 10
1.0
 20
0.0
 30
0.0
  9
$UCSYDIR
 10
0.0
 20
1.0
 30
0.0
  9
$UCSORTHOREF
  2

  9
$UCSORTHOVIEW
 70
     0
  9
$UCSORGTOP
 10
0.0
 20
0.0
 30
0.0
  9
$UCSORGBOTTOM
 10
0.0
 20
0.0
 30
0.0
  9
$UCSORGLEFT
 10
0.0
 20
0.0
 30
0.0
  9
$UCSORGRIGHT
 10
0.0
 20
0.0
 30
0.0
  9
$UCSORGFRONT
 10
0.0
 20
0.0
 30
0.0
  9
$UCSORGBACK
 10
0.0
 20
0.0
 30
0.0
  9
$PUCSBASE
  2

  9
$PUCSNAME
  2

  9
$PUCSORG
 10
0.0
 20
0.0
 30
0.0
  9
$PUCSXDIR
 10
1.0
 20
0.0
 30
0.0
  9
$PUCSYDIR
 10
0.0
 20
1.0
 30
0.0
  9
$PUCSORTHOREF
  2

  9
$PUCSORTHOVIEW
 70
     0
  9
$PUCSORGTOP
 10
0.0
 20
0.0
 30
0.0
  9
$PUCSORGBOTTOM
 10
0.0
 20
0.0
 30
0.0
  9
$PUCSORGLEFT
 10
0.0
 20
0.0
 30
0.0
  9
$PUCSORGRIGHT
 10
0.0
 20
0.0
 30
0.0
  9
$PUCSORGFRONT
 10
0.0
 20
0.0
 30
0.0
  9
$PUCSORGBACK
 10
0.0
 20
0.0
 30
0.0
  9
$USERI1
 70
     0
  9
$USERI2
 70
     0
  9
$USERI3
 70
     0
  9
$USERI4
 70
     0
  9
$USERI5
 70
     0
  9
$USERR1
 40
0.0
  9
$USERR2
 40
0.0
  9
$USERR3
 40
0.0
  9
$USERR4
 40
0.0
  9
$USERR5
 40
0.0
  9
$WORLDVIEW
 70
     1
  9
$SHADEDGE
 70
     3
  9
$SHADEDIF
 70
    70
  9
$TILEMODE
 70
     1
  9
$MAXACTVP
 70
    64
  9
$PINSBASE
 10
0.0
 20
0.0
 30
0.0
  9
$PLIMCHECK
 70
     0
  9
$PEXTMIN
 10
1.000000000000000E+20
 20
1.000000000000000E+20
 30
1.000000000000000E+20
  9
$PEXTMAX
 10
-1.000000000000000E+20
 20
-1.000000000000000E+20
 30
-1.000000000000000E+20
  9
$PLIMMIN
 10
0.0
 20
0.0
  9
$PLIMMAX
 10
420.0
 20
297.0
  9
$UNITMODE
 70
     0
  9
$VISRETAIN
 70
     1
  9
$PLINEGEN
 70
     0
  9
$PSLTSCALE
 70
     1
  9
$TREEDEPTH
 70
  3020
  9
$CMLSTYLE
  2
Standard
  9
$CMLJUST
 70
     0
  9
$CMLSCALE
 40
20.0
  9
$PROXYGRAPHICS
 70
     1
  9
$MEASUREMENT
 70
     1
  9
$CELWEIGHT
370
    -1
  9
$ENDCAPS
280
     0
  9
$JOINSTYLE
280
     0
  9
$LWDISPLAY
290
     0
  9
$INSUNITS
 70
     4
  9
$HYPERLINKBASE
  1

  9
$STYLESHEET
  1

  9
$XEDIT
290
     1
  9
$CEPSNTYPE
380
     0
  9
$PSTYLEMODE
290
     1
  9
$FINGERPRINTGUID
  2
{D9B54C03-DCFC-40A4-8EEC-902C56941178}
  9
$VERSIONGUID
  2
{FAEB1C32-E019-11D5-929B-00C0DF256EC4}
  9
$EXTNAMES
290
     1
  9
$PSVPSCALE
 40
0.0
  9
$OLESTARTUP
290
     0
  9
$SORTENTS
280
   127
  9
$INDEXCTL
280
     0
  9
$HIDETEXT
280
     1
  9
$XCLIPFRAME
280
     2
  9
$HALOGAP
280
     0
  9
$OBSCOLOR
 70
   257
  9
$OBSLTYPE
280
     0
  9
$INTERSECTIONDISPLAY
280
     0
  9
$INTERSECTIONCOLOR
 70
   257
  9
$DIMASSOC
280
     2
  9
$PROJECTNAME
  1

  9
$CAMERADISPLAY
290
     0
  9
$LENSLENGTH
 40
50.0
  9
$CAMERAHEIGHT
 40
0.0
  9
$STEPSPERSEC
 40
2.0
  9
$STEPSIZE
 40
6.0
  9
$3DDWFPREC
 40
2.0
  9
$PSOLWIDTH
 40
5.0
  9
$PSOLHEIGHT
 40
80.0
  9
$LOFTANG1
 40
1.570796326794897
  9
$LOFTANG2
 40
1.570796326794897
  9
$LOFTMAG1
 40
0.0
  9
$LOFTMAG2
 40
0.0
  9
$LOFTPARAM
 70
     7
  9
$LOFTNORMALS
280
     1
  9
$LATITUDE
 40
37.795
  9
$LONGITUDE
 40
-122.394
  9
$NORTHDIRECTION
 40
0.0
  9
$TIMEZONE
 70
 -8000
  9
$LIGHTGLYPHDISPLAY
280
     1
  9
$TILEMODELIGHTSYNCH
280
     1
  9
$SOLIDHIST
280
     1
  9
$SHOWHIST
280
     1
  9
$DWFFRAME
280
     2
  9
$DGNFRAME
280
     2
  9
$REALWORLDSCALE
290
     1
  9
$INTERFERECOLOR
 62
   256
  9
$CSHADOW
280
     0
  9
$SHADOWPLANELOCATION
 40
0.0
  0
ENDSEC
  0
SECTION
  2
CLASSES
  0
CLASS
  1
ACDBDICTIONARYWDFLT
  2
AcDbDictionaryWithDefault
  3
ObjectDBX Classes
 90
        0
 91
        4
280
     0
281
     0
  0
CLASS
  1
VISUALSTYLE
  2
AcDbVisualStyle
  3
ObjectDBX Classes
 90
     4095
 91
        4
280
     0
281
     0
  0
CLASS
  1
MATERIAL
  2
AcDbMaterial
  3
ObjectDBX Classes
 90
     1153
 91
        4
280
     0
281
     0
  0
ENDSEC
  0
SECTION
  2
TABLES
  0
TABLE
  2
VPORT
  5
8
330
0
100
AcDbSymbolTable
 70
     1
  0
VPORT
  5
29
330
8
100
AcDbSymbolTableRecord
100
AcDbViewportTableRecord
  2
*Active
 70
     0
 10
0.0
 20
0.0
 11
1.0
 21
1.0
 12
0.0
 22
0.0
 13
0.0
 23
0.0
 14
10.0
 24
10.0
 15
10.0
 25
10.0
 16
0.0
 26
0.0
 36
1.0
 17
0.0
 27
0.0
 37
0.0
 40
9801.0
 41
1.414141414141414
 42
50.0
 43
0.0
 44
0.0
 50
0.0
 51
0.0
 71
     0
 72
 10000
 73
     1
 74
     3
 75
     0
 76
     0
 77
     0
 78
     0
281
     0
 65
     1
110
0.0
120
0.0
130
0.0
111
1.0
121
0.0
131
0.0
112
0.0
122
1.0
132
0.0
 79
     0
146
0.0
 60
     3
 61
     5
292
     1
282
     1
141
0.0
142
0.0
 63
   250
  0
ENDTAB
  0
TABLE
  2
LTYPE
  5
5
330
0
100
AcDbSymbolTable
 70
     3
  0
LTYPE
  5
14
330
5
100
AcDbSymbolTableRecord
100
AcDbLinetypeTableRecord
  2
ByBlock
 70
     0
  3

 72
    65
 73
     0
 40
0.0
  0
LTYPE
  5
15
330
5
100
AcDbSymbolTableRecord
100
AcDbLinetypeTableRecord
  2
ByLayer
 70
     0
  3

 72
    65
 73
     0
 40
0.0
  0
LTYPE
  5
16
330
5
100
AcDbSymbolTableRecord
100
AcDbLinetypeTableRecord
  2
Continuous
 70
     0
  3
Solid line
 72
    65
 73
     0
 40
0.0
  0
LTYPE
  5
3F
330
5
100
AcDbSymbolTableRecord
100
AcDbLinetypeTableRecord
  2
JWW_HOJO
 70
     0
  3
  -   -   -   -   -   -   -   - 
 72
    65
 73
     2
 40
1.693333333333333
 49
-1.27
 74
     0
 49
0.4233333333333333
 74
     0
  0
LTYPE
  5
40
330
5
100
AcDbSymbolTableRecord
100
AcDbLinetypeTableRecord
  2
JWW_DASHED1
 70
     0
  3
-  --  --  --  --  --  --  --  -
 72
    65
 73
     2
 40
1.693333333333333
 49
0.8466666666666667
 74
     0
 49
-0.8466666666666667
 74
     0
  0
ENDTAB
  0
TABLE
  2
LAYER
  5
2
330
0
100
AcDbSymbolTable
 70
     8
  0
LAYER
  5
10
330
2
100
AcDbSymbolTableRecord
100
AcDbLayerTableRecord
  2
0
 70
     0
 62
     7
  6
Continuous
370
    -3
390
F
347
3E
  0
LAYER
  5
41
330
2
100
AcDbSymbolTableRecord
100
AcDbLayerTableRecord
  2
F-0
 70
     0
 62
     7
  6
Continuous
370
    -3
390
F
347
3E
  0
LAYER
  5
42
330
2
100
AcDbSymbolTableRecord
100
AcDbLayerTableRecord
  2
F-1
 70
     0
 62
     7
  6
Continuous
370
    -3
390
F
347
3E
  0
LAYER
  5
43
330
2
100
AcDbSymbolTableRecord
100
AcDbLayerTableRecord
  2
0-0
 70
     0
 62
     7
  6
Continuous
370
    -3
390
F
347
3E
  0
LAYER
  5
44
330
2
100
AcDbSymbolTableRecord
100
AcDbLayerTableRecord
  2
0-B
 70
     0
 62
     7
  6
Continuous
370
    -3
390
F
347
3E
  0
LAYER
  5
45
330
2
100
AcDbSymbolTableRecord
100
AcDbLayerTableRecord
  2
0-4
 70
     0
 62
     7
  6
Continuous
370
    -3
390
F
347
3E
  0
LAYER
  5
46
330
2
100
AcDbSymbolTableRecord
100
AcDbLayerTableRecord
  2
0-A
 70
     0
 62
     7
  6
Continuous
370
    -3
390
F
347
3E
  0
LAYER
  5
47
330
2
100
AcDbSymbolTableRecord
100
AcDbLayerTableRecord
  2
F-A
 70
     0
 62
     7
  6
Continuous
370
    -3
390
F
347
3E
  0
ENDTAB
  0
TABLE
  2
STYLE
  5
3
330
0
100
AcDbSymbolTable
 70
     1
  0
STYLE
  5
11
330
3
100
AcDbSymbolTableRecord
100
AcDbTextStyleTableRecord
  2
Standard
 70
     0
 40
0.0
 41
1.0
 50
0.0
 71
     0
 42
2.5
  3
txt
  4

  0
ENDTAB
  0
TABLE
  2
VIEW
  5
6
330
0
100
AcDbSymbolTable
 70
     0
  0
ENDTAB
  0
TABLE
  2
UCS
  5
7
330
0
100
AcDbSymbolTable
 70
     0
  0
ENDTAB
  0
TABLE
  2
APPID
  5
9
330
0
100
AcDbSymbolTable
 70
     1
  0
APPID
  5
12
330
9
100
AcDbSymbolTableRecord
100
AcDbRegAppTableRecord
  2
ACAD
 70
     0
  0
ENDTAB
  0
TABLE
  2
DIMSTYLE
  5
A
330
0
100
AcDbSymbolTable
 70
     1
100
AcDbDimStyleTable
  0
DIMSTYLE
105
27
330
A
100
AcDbSymbolTableRecord
100
AcDbDimStyleTableRecord
  2
ISO-25
 70
     0
 41
2.5
 42
0.625
 43
3.75
 44
1.25
 73
     0
 74
     0
 77
     1
 78
     8
140
2.5
141
2.5
143
0.03937007874016
147
0.625
171
     3
172
     1
178
     0
271
     2
272
     2
274
     3
278
    44
283
     0
284
     8
340
11
  0
ENDTAB
  0
TABLE
  2
BLOCK_RECORD
  5
1
330
0
100
AcDbSymbolTable
 70
     1
  0
BLOCK_RECORD
  5
1F
330
1
100
AcDbSymbolTableRecord
100
AcDbBlockTableRecord
  2
*Model_Space
340
22
 70
     0
280
     1
281
     0
  0
BLOCK_RECORD
  5
1B
330
1
100
AcDbSymbolTableRecord
100
AcDbBlockTableRecord
  2
*Paper_Space
340
1E
 70
     0
280
     1
281
     0
  0
BLOCK_RECORD
  5
23
330
1
100
AcDbSymbolTableRecord
100
AcDbBlockTableRecord
  2
*Paper_Space0
340
26
 70
     0
280
     1
281
     0
  0
ENDTAB
  0
ENDSEC
  0
SECTION
  2
BLOCKS
  0
BLOCK
  5
20
330
1F
100
AcDbEntity
  8
0
100
AcDbBlockBegin
  2
*Model_Space
 70
     0
 10
0.0
 20
0.0
 30
0.0
  3
*Model_Space
  1

  0
ENDBLK
  5
21
330
1F
100
AcDbEntity
  8
0
100
AcDbBlockEnd
  0
BLOCK
  5
1C
330
1B
100
AcDbEntity
 67
     1
  8
0
100
AcDbBlockBegin
  2
*Paper_Space
 70
     0
 10
0.0
 20
0.0
 30
0.0
  3
*Paper_Space
  1

  0
ENDBLK
  5
1D
330
1B
100
AcDbEntity
 67
     1
  8
0
100
AcDbBlockEnd
  0
BLOCK
  5
24
330
23
100
AcDbEntity
  8
0
100
AcDbBlockBegin
  2
*Paper_Space0
 70
     0
 10
0.0
 20
0.0
 30
0.0
  3
*Paper_Space0
  1

  0
ENDBLK
  5
25
330
23
100
AcDbEntity
  8
0
100
AcDbBlockEnd
  0
ENDSEC
  0
SECTION
  2
ENTITIES
  0
LINE
  5
48
330
1F
100
AcDbEntity
  8
F-0
  6
JWW_HOJO
 62
   120
370
     5
100
AcDbLine
 10
-6300.0
 20
4424.999604096284
 30
0.0
 11
5999.999010240709
 21
4424.999604096284
 31
0.0
  0
LINE
  5
49
330
1F
100
AcDbEntity
  8
F-0
  6
JWW_HOJO
 62
   120
370
     5
100
AcDbLine
 10
-6300.0
 20
-4455.0
 30
0.0
 11
-6300.0
 21
4424.999604096284
 31
0.0
  0
LINE
  5
4A
330
1F
100
AcDbEntity
  8
F-0
  6
JWW_HOJO
 62
   120
370
     5
100
AcDbLine
 10
5999.999010240709
 20
4424.999604096284
 30
0.0
 11
5999.999010240709
 21
-4455.0
 31
0.0
  0
LINE
  5
4B
330
1F
100
AcDbEntity
  8
F-0
  6
JWW_HOJO
 62
   120
370
     5
100
AcDbLine
 10
5999.999010240709
 20
-4455.0
 30
0.0
 11
-6300.0
 21
-4455.0
 31
0.0
  0
LINE
  5
4C
330
1F
100
AcDbEntity
  8
F-1
  6
Continuous
 62
   200
370
    20
100
AcDbLine
 10
-5999.999752560178
 20
4174.999769056166
 30
0.0
 11
5699.998762800888
 21
4174.999769056166
 31
0.0
  0
LINE
  5
4D
330
1F
100
AcDbEntity
  8
F-1
  6
Continuous
 62
   200
370
    20
100
AcDbLine
 10
5699.998762800888
 20
4174.999769056166
 30
0.0
 11
5699.998762800888
 21
-4205.000164959882
 31
0.0
  0
LINE
  5
4E
330
1F
100
AcDbEntity
  8
F-1
  6
Continuous
 62
   200
370
    20
100
AcDbLine
 10
-5999.99998453501
 20
4174.999769056166
 30
0.0
 11
-5999.99998453501
 21
-4205.000164959882
 31
0.0
  0
LINE
  5
4F
330
1F
100
AcDbEntity
  8
F-1
  6
Continuous
 62
   200
370
    20
100
AcDbLine
 10
-5989.999990205507
 20
4174.999769056166
 30
0.0
 11
-5989.999990205507
 21
-4205.000164959882
 31
0.0
  0
LINE
  5
50
330
1F
100
AcDbEntity
  8
F-1
  6
Continuous
 62
   200
370
    20
100
AcDbLine
 10
-5999.999752560178
 20
4164.999983504013
 30
0.0
 11
5699.998762800888
 21
4164.999983504013
 31
0.0
  0
LINE
  5
51
330
1F
100
AcDbEntity
  8
F-1
  6
Continuous
 62
   200
370
    20
100
AcDbLine
 10
-5999.999752560178
 20
4169.999505120355
 30
0.0
 11
5699.998762800888
 21
4169.999505120355
 31
0.0
  0
LINE
  5
52
330
1F
100
AcDbEntity
  8
F-1
  6
Continuous
 62
   200
370
    20
100
AcDbLine
 10
-5994.999975771518
 20
4174.999769056166
 30
0.0
 11
-5994.999975771518
 21
-4205.000164959882
 31
0.0
  0
LINE
  5
53
330
1F
100
AcDbEntity
  8
F-1
  6
Continuous
 62
   200
370
    20
100
AcDbLine
 10
5694.998498865077
 20
4174.999769056166
 30
0.0
 11
5694.998498865077
 21
-4205.000164959882
 31
0.0
  0
LINE
  5
54
330
1F
100
AcDbEntity
  8
F-1
  6
Continuous
 62
   200
370
    20
100
AcDbLine
 10
5689.998977248734
 20
4174.999769056166
 30
0.0
 11
5689.998977248734
 21
-4205.000164959882
 31
0.0
  0
LINE
  5
55
330
1F
100
AcDbEntity
  8
F-1
  6
Continuous
 62
   200
370
    20
100
AcDbLine
 10
-150.0008660393789
 20
4174.999769056166
 30
0.0
 11
-150.0008660393789
 21
-3795.000049487965
 31
0.0
  0
LINE
  5
56
330
1F
100
AcDbEntity
  8
F-1
  6
Continuous
 62
   200
370
    20
100
AcDbLine
 10
-145.0009732633023
 20
4175.04801982158
 30
0.0
 11
-145.0009732633023
 21
-3795.000049487965
 31
0.0
  0
LINE
  5
57
330
1F
100
AcDbEntity
  8
F-1
  6
Continuous
 62
   200
370
    20
100
AcDbLine
 10
-155.0007588154554
 20
4175.04801982158
 30
0.0
 11
-155.0007588154554
 21
-3795.000049487965
 31
0.0
  0
LINE
  5
58
330
1F
100
AcDbEntity
  8
F-1
  6
Continuous
 62
   200
370
    20
100
AcDbLine
 10
5699.998762800888
 20
3710.000461887669
 30
0.0
 11
-5999.999752560178
 21
3710.000461887669
 31
0.0
  0
LINE
  5
59
330
1F
100
AcDbEntity
  8
F-1
  6
Continuous
 62
     7
370
     9
100
AcDbLine
 10
-2405.000758815456
 20
4175.04801982158
 30
0.0
 11
-2405.000758815456
 21
-3795.000049487965
 31
0.0
  0
LINE
  5
5A
330
1F
100
AcDbEntity
  8
F-1
  6
Continuous
 62
     7
370
     9
100
AcDbLine
 10
904.9995216163429
 20
4175.04801982158
 30
0.0
 11
904.9995216163429
 21
-3795.000049487965
 31
0.0
  0
LINE
  5
5B
330
1F
100
AcDbEntity
  8
F-1
  6
Continuous
 62
     7
370
     9
100
AcDbLine
 10
-4940.000028867979
 20
4174.999769056166
 30
0.0
 11
-4940.000028867979
 21
-3790.000017526987
 31
0.0
  0
LINE
  5
5C
330
1F
100
AcDbEntity
  8
F-1
  6
Continuous
 62
     7
370
     9
100
AcDbLine
 10
3439.999719568202
 20
4174.999769056166
 30
0.0
 11
3439.999719568202
 21
-3790.000017526987
 31
0.0
  0
LINE
  5
5D
330
1F
100
AcDbEntity
  8
F-1
  6
Continuous
 62
     7
370
     9
100
AcDbLine
 10
-635.0007588154554
 20
4175.048019821578
 30
0.0
 11
-635.0007588154554
 21
-3795.000049487966
 31
0.0
  0
LINE
  5
5E
330
1F
100
AcDbEntity
  8
F-1
  6
Continuous
 62
     7
370
     9
100
AcDbLine
 10
5209.999719568203
 20
4174.999769056164
 30
0.0
 11
5209.999719568203
 21
-3795.04830025338
 31
0.0
  0
LINE
  5
5F
330
1F
100
AcDbEntity
  8
F-0
  6
JWW_HOJO
 62
     7
370
     9
100
AcDbLine
 10
2.4993896484375
 20
4164.999983504013
 30
0.0
 11
2.4993896484375
 21
-3790.080698374155
 31
0.0
  0
LINE
  5
60
330
1F
100
AcDbEntity
  8
F-0
  6
JWW_HOJO
 62
     7
370
     9
100
AcDbLine
 10
-3672.500393841717
 20
3710.000461887669
 30
0.0
 11
-3672.500393841717
 21
-3790.000017526987
 31
0.0
  0
LINE
  5
61
330
1F
100
AcDbEntity
  8
F-0
  6
JWW_HOJO
 62
     7
370
     9
100
AcDbLine
 10
-5839.999982473011
 20
4164.999983504013
 30
0.0
 11
-5839.999982473011
 21
-3785.470894478463
 31
0.0
  0
LINE
  5
62
330
1F
100
AcDbEntity
  8
F-1
  6
Continuous
 62
   200
370
    20
100
AcDbLine
 10
5699.998762800888
 20
3720.000247440669
 30
0.0
 11
-5999.999752560178
 21
3720.000247440669
 31
0.0
  0
LINE
  5
63
330
1F
100
AcDbEntity
  8
F-0
  6
JWW_HOJO
 62
     7
370
     9
100
AcDbLine
 10
2172.499156642605
 20
3710.000461887669
 30
0.0
 11
2172.499156642605
 21
-3790.000017526987
 31
0.0
  0
LINE
  5
64
330
1F
100
AcDbEntity
  8
F-1
  6
Continuous
 62
     7
370
     9
100
AcDbLine
 10
-2405.000758815456
 20
3947.500379407728
 30
0.0
 11
-1580.000758815456
 21
3947.500379407728
 31
0.0
  0
LINE
  5
65
330
1F
100
AcDbEntity
  8
F-1
  6
Continuous
 62
     7
370
     9
100
AcDbLine
 10
-1580.000758815456
 20
4175.048019821578
 30
0.0
 11
-1580.000758815456
 21
-3795.000049487966
 31
0.0
  0
LINE
  5
66
330
1F
100
AcDbEntity
  8
0-0
  6
JWW_HOJO
 62
     7
370
     9
100
AcDbLine
 10
-1550.000758815456
 20
4175.048019821578
 30
0.0
 11
-1550.000758815456
 21
-3795.000049487966
 31
0.0
  0
LINE
  5
67
330
1F
100
AcDbEntity
  8
F-1
  6
Continuous
 62
     7
370
     9
100
AcDbLine
 10
3439.999719568202
 20
3947.452128642314
 30
0.0
 11
4264.999719568202
 21
3947.452128642314
 31
0.0
  0
LINE
  5
68
330
1F
100
AcDbEntity
  8
F-1
  6
Continuous
 62
     7
370
     9
100
AcDbLine
 10
4264.999719568202
 20
4174.999769056164
 30
0.0
 11
4264.999719568202
 21
-3795.04830025338
 31
0.0
  0
LINE
  5
69
330
1F
100
AcDbEntity
  8
F-0
  6
JWW_HOJO
 62
   120
370
     5
100
AcDbLine
 10
-5989.99959584829
 20
3947.500379407728
 30
0.0
 11
5690.337474926098
 21
3947.500379407728
 31
0.0
  0
LINE
  5
6A
330
1F
100
AcDbEntity
  8
0-0
  6
JWW_HOJO
 62
     7
370
     9
100
AcDbLine
 10
4294.999719568202
 20
4174.999769056164
 30
0.0
 11
4294.999719568202
 21
-3795.04830025338
 31
0.0
  0
LINE
  5
6B
330
1F
100
AcDbEntity
  8
F-1
  6
JWW_DASHED1
 62
     7
370
     9
100
AcDbLine
 10
-155.0007588154554
 20
-2852.499957600156
 30
0.0
 11
-2405.000758815456
 21
-2852.499957600156
 31
0.0
  0
LINE
  5
6C
330
1F
100
AcDbEntity
  8
F-1
  6
Continuous
 62
     7
370
     9
100
AcDbLine
 10
5699.998762800888
 20
2460.000381985226
 30
0.0
 11
904.9995216163429
 21
2460.000381985226
 31
0.0
  0
LINE
  5
6D
330
1F
100
AcDbEntity
  8
F-1
  6
Continuous
 62
     7
370
     9
100
AcDbLine
 10
5699.998762800888
 20
1210.000302082783
 30
0.0
 11
904.9995216163429
 21
1210.000302082783
 31
0.0
  0
LINE
  5
6E
330
1F
100
AcDbEntity
  8
F-1
  6
Continuous
 62
     7
370
     9
100
AcDbLine
 10
5699.998762800888
 20
-39.99977781965981
 30
0.0
 11
904.9995216163429
 21
-39.99977781965981
 31
0.0
  0
LINE
  5
6F
330
1F
100
AcDbEntity
  8
F-1
  6
Continuous
 62
     7
370
     9
100
AcDbLine
 10
5699.998762800888
 20
-1289.999857722102
 30
0.0
 11
904.9995216163429
 21
-1289.999857722102
 31
0.0
  0
LINE
  5
70
330
1F
100
AcDbEntity
  8
F-1
  6
Continuous
 62
     7
370
     9
100
AcDbLine
 10
5699.998762800888
 20
-2539.999937624545
 30
0.0
 11
904.9995216163429
 21
-2539.999937624545
 31
0.0
  0
LINE
  5
71
330
1F
100
AcDbEntity
  8
F-1
  6
JWW_DASHED1
 62
     7
370
     9
100
AcDbLine
 10
-155.0007588154554
 20
-3633.750007539182
 30
0.0
 11
-2405.000758815456
 21
-3633.750007539182
 31
0.0
  0
LINE
  5
72
330
1F
100
AcDbEntity
  8
F-1
  6
JWW_DASHED1
 62
     7
370
     9
100
AcDbLine
 10
-155.0007588154554
 20
-3164.999977575766
 30
0.0
 11
-2405.000758815456
 21
-3164.999977575766
 31
0.0
  0
LINE
  5
73
330
1F
100
AcDbEntity
  8
F-1
  6
JWW_DASHED1
 62
     7
370
     9
100
AcDbLine
 10
-155.0007588154554
 20
-3321.24998756357
 30
0.0
 11
-2405.000758815456
 21
-3321.24998756357
 31
0.0
  0
LINE
  5
74
330
1F
100
AcDbEntity
  8
F-1
  6
JWW_DASHED1
 62
     7
370
     9
100
AcDbLine
 10
-155.0007588154554
 20
-3477.499997551376
 30
0.0
 11
-2405.000758815456
 21
-3477.499997551376
 31
0.0
  0
LINE
  5
75
330
1F
100
AcDbEntity
  8
F-1
  6
JWW_DASHED1
 62
     7
370
     9
100
AcDbLine
 10
5689.999719568202
 20
2616.250391973032
 30
0.0
 11
3439.999719568202
 21
2616.250391973032
 31
0.0
  0
LINE
  5
76
330
1F
100
AcDbEntity
  8
F-1
  6
JWW_DASHED1
 62
     7
370
     9
100
AcDbLine
 10
5689.999719568202
 20
3397.500441912059
 30
0.0
 11
3439.999719568202
 21
3397.500441912059
 31
0.0
  0
LINE
  5
77
330
1F
100
AcDbEntity
  8
F-1
  6
JWW_DASHED1
 62
     7
370
     9
100
AcDbLine
 10
5689.999719568202
 20
3241.250431924253
 30
0.0
 11
3439.999719568202
 21
3241.250431924253
 31
0.0
  0
LINE
  5
78
330
1F
100
AcDbEntity
  8
F-1
  6
JWW_DASHED1
 62
     7
370
     9
100
AcDbLine
 10
5689.999719568202
 20
3085.000421936448
 30
0.0
 11
3439.999719568202
 21
3085.000421936448
 31
0.0
  0
LINE
  5
79
330
1F
100
AcDbEntity
  8
F-1
  6
JWW_DASHED1
 62
     7
370
     9
100
AcDbLine
 10
5689.999719568202
 20
2928.750411948643
 30
0.0
 11
3439.999719568202
 21
2928.750411948643
 31
0.0
  0
LINE
  5
7A
330
1F
100
AcDbEntity
  8
F-1
  6
JWW_DASHED1
 62
     7
370
     9
100
AcDbLine
 10
5689.999719568202
 20
2772.500401960837
 30
0.0
 11
3439.999719568202
 21
2772.500401960837
 31
0.0
  0
LINE
  5
7B
330
1F
100
AcDbEntity
  8
F-1
  6
JWW_DASHED1
 62
     7
370
     9
100
AcDbLine
 10
5689.999719568202
 20
1366.250312070589
 30
0.0
 11
3439.999719568202
 21
1366.250312070589
 31
0.0
  0
LINE
  5
7C
330
1F
100
AcDbEntity
  8
F-1
  6
JWW_DASHED1
 62
     7
370
     9
100
AcDbLine
 10
5689.999719568202
 20
2147.500362009616
 30
0.0
 11
3439.999719568202
 21
2147.500362009616
 31
0.0
  0
LINE
  5
7D
330
1F
100
AcDbEntity
  8
F-1
  6
JWW_DASHED1
 62
     7
370
     9
100
AcDbLine
 10
5689.999719568202
 20
1991.25035202181
 30
0.0
 11
3439.999719568202
 21
1991.25035202181
 31
0.0
  0
LINE
  5
7E
330
1F
100
AcDbEntity
  8
F-1
  6
JWW_DASHED1
 62
     7
370
     9
100
AcDbLine
 10
5689.999719568202
 20
1835.000342034005
 30
0.0
 11
3439.999719568202
 21
1835.000342034005
 31
0.0
  0
LINE
  5
7F
330
1F
100
AcDbEntity
  8
F-1
  6
JWW_DASHED1
 62
     7
370
     9
100
AcDbLine
 10
5689.999719568202
 20
1678.7503320462
 30
0.0
 11
3439.999719568202
 21
1678.7503320462
 31
0.0
  0
LINE
  5
80
330
1F
100
AcDbEntity
  8
F-1
  6
JWW_DASHED1
 62
     7
370
     9
100
AcDbLine
 10
5689.999719568202
 20
1522.500322058395
 30
0.0
 11
3439.999719568202
 21
1522.500322058395
 31
0.0
  0
LINE
  5
81
330
1F
100
AcDbEntity
  8
F-1
  6
JWW_DASHED1
 62
     7
370
     9
100
AcDbLine
 10
5689.999719568202
 20
116.2502321681467
 30
0.0
 11
3439.999719568202
 21
116.2502321681467
 31
0.0
  0
LINE
  5
82
330
1F
100
AcDbEntity
  8
F-1
  6
JWW_DASHED1
 62
     7
370
     9
100
AcDbLine
 10
5689.999719568202
 20
897.5002821071723
 30
0.0
 11
3439.999719568202
 21
897.5002821071723
 31
0.0
  0
LINE
  5
83
330
1F
100
AcDbEntity
  8
F-1
  6
JWW_DASHED1
 62
     7
370
     9
100
AcDbLine
 10
5689.999719568202
 20
741.2502721193675
 30
0.0
 11
3439.999719568202
 21
741.2502721193675
 31
0.0
  0
LINE
  5
84
330
1F
100
AcDbEntity
  8
F-1
  6
JWW_DASHED1
 62
     7
370
     9
100
AcDbLine
 10
5689.999719568202
 20
585.0002621315627
 30
0.0
 11
3439.999719568202
 21
585.0002621315627
 31
0.0
  0
LINE
  5
85
330
1F
100
AcDbEntity
  8
F-1
  6
JWW_DASHED1
 62
     7
370
     9
100
AcDbLine
 10
5689.999719568202
 20
428.7502521437571
 30
0.0
 11
3439.999719568202
 21
428.7502521437571
 31
0.0
  0
LINE
  5
86
330
1F
100
AcDbEntity
  8
F-1
  6
JWW_DASHED1
 62
     7
370
     9
100
AcDbLine
 10
5689.999719568202
 20
272.5002421559515
 30
0.0
 11
3439.999719568202
 21
272.5002421559515
 31
0.0
  0
LINE
  5
87
330
1F
100
AcDbEntity
  8
F-1
  6
JWW_DASHED1
 62
     7
370
     9
100
AcDbLine
 10
5689.999719568202
 20
-1133.749847734297
 30
0.0
 11
3439.999719568202
 21
-1133.749847734297
 31
0.0
  0
LINE
  5
88
330
1F
100
AcDbEntity
  8
F-1
  6
JWW_DASHED1
 62
     7
370
     9
100
AcDbLine
 10
5689.999719568202
 20
-352.4997977952702
 30
0.0
 11
3439.999719568202
 21
-352.4997977952702
 31
0.0
  0
LINE
  5
89
330
1F
100
AcDbEntity
  8
F-1
  6
JWW_DASHED1
 62
     7
370
     9
100
AcDbLine
 10
5689.999719568202
 20
-508.7498077830759
 30
0.0
 11
3439.999719568202
 21
-508.7498077830759
 31
0.0
  0
LINE
  5
8A
330
1F
100
AcDbEntity
  8
F-1
  6
JWW_DASHED1
 62
     7
370
     9
100
AcDbLine
 10
5689.999719568202
 20
-664.9998177708807
 30
0.0
 11
3439.999719568202
 21
-664.9998177708807
 31
0.0
  0
LINE
  5
8B
330
1F
100
AcDbEntity
  8
F-1
  6
JWW_DASHED1
 62
     7
370
     9
100
AcDbLine
 10
5689.999719568202
 20
-821.2498277586855
 30
0.0
 11
3439.999719568202
 21
-821.2498277586855
 31
0.0
  0
LINE
  5
8C
330
1F
100
AcDbEntity
  8
F-1
  6
JWW_DASHED1
 62
     7
370
     9
100
AcDbLine
 10
5689.999719568202
 20
-977.499837746491
 30
0.0
 11
3439.999719568202
 21
-977.499837746491
 31
0.0
  0
LINE
  5
8D
330
1F
100
AcDbEntity
  8
F-1
  6
JWW_DASHED1
 62
     7
370
     9
100
AcDbLine
 10
5689.999719568202
 20
-2383.749927636738
 30
0.0
 11
3439.999719568202
 21
-2383.749927636738
 31
0.0
  0
LINE
  5
8E
330
1F
100
AcDbEntity
  8
F-1
  6
JWW_DASHED1
 62
     7
370
     9
100
AcDbLine
 10
5689.999719568202
 20
-1602.499877697713
 30
0.0
 11
3439.999719568202
 21
-1602.499877697713
 31
0.0
  0
LINE
  5
8F
330
1F
100
AcDbEntity
  8
F-1
  6
JWW_DASHED1
 62
     7
370
     9
100
AcDbLine
 10
5689.999719568202
 20
-1758.749887685517
 30
0.0
 11
3439.999719568202
 21
-1758.749887685517
 31
0.0
  0
LINE
  5
90
330
1F
100
AcDbEntity
  8
F-1
  6
JWW_DASHED1
 62
     7
370
     9
100
AcDbLine
 10
5689.999719568202
 20
-1914.999897673323
 30
0.0
 11
3439.999719568202
 21
-1914.999897673323
 31
0.0
  0
LINE
  5
91
330
1F
100
AcDbEntity
  8
F-1
  6
JWW_DASHED1
 62
     7
370
     9
100
AcDbLine
 10
5689.999719568202
 20
-2071.249907661129
 30
0.0
 11
3439.999719568202
 21
-2071.249907661129
 31
0.0
  0
LINE
  5
92
330
1F
100
AcDbEntity
  8
F-1
  6
JWW_DASHED1
 62
     7
370
     9
100
AcDbLine
 10
5689.999719568202
 20
-2227.499917648934
 30
0.0
 11
3439.999719568202
 21
-2227.499917648934
 31
0.0
  0
LINE
  5
93
330
1F
100
AcDbEntity
  8
F-1
  6
JWW_DASHED1
 62
     7
370
     9
100
AcDbLine
 10
5689.999719568202
 20
-3633.750007539182
 30
0.0
 11
3439.999719568202
 21
-3633.750007539182
 31
0.0
  0
LINE
  5
94
330
1F
100
AcDbEntity
  8
F-1
  6
JWW_DASHED1
 62
     7
370
     9
100
AcDbLine
 10
5689.999719568202
 20
-2852.499957600156
 30
0.0
 11
3439.999719568202
 21
-2852.499957600156
 31
0.0
  0
LINE
  5
95
330
1F
100
AcDbEntity
  8
F-1
  6
JWW_DASHED1
 62
     7
370
     9
100
AcDbLine
 10
5689.999719568202
 20
-3008.749967587961
 30
0.0
 11
3439.999719568202
 21
-3008.749967587961
 31
0.0
  0
LINE
  5
96
330
1F
100
AcDbEntity
  8
F-1
  6
JWW_DASHED1
 62
     7
370
     9
100
AcDbLine
 10
5689.999719568202
 20
-3164.999977575766
 30
0.0
 11
3439.999719568202
 21
-3164.999977575766
 31
0.0
  0
LINE
  5
97
330
1F
100
AcDbEntity
  8
F-1
  6
JWW_DASHED1
 62
     7
370
     9
100
AcDbLine
 10
5689.999719568202
 20
-3321.24998756357
 30
0.0
 11
3439.999719568202
 21
-3321.24998756357
 31
0.0
  0
LINE
  5
98
330
1F
100
AcDbEntity
  8
F-1
  6
JWW_DASHED1
 62
     7
370
     9
100
AcDbLine
 10
5689.999719568202
 20
-3477.499997551376
 30
0.0
 11
3439.999719568202
 21
-3477.499997551376
 31
0.0
  0
LINE
  5
99
330
1F
100
AcDbEntity
  8
F-1
  6
JWW_DASHED1
 62
     7
370
     9
100
AcDbLine
 10
-155.0007588154554
 20
1366.250312070589
 30
0.0
 11
-2405.000758815456
 21
1366.250312070589
 31
0.0
  0
LINE
  5
9A
330
1F
100
AcDbEntity
  8
F-1
  6
JWW_DASHED1
 62
     7
370
     9
100
AcDbLine
 10
-155.0007588154554
 20
2147.500362009616
 30
0.0
 11
-2405.000758815456
 21
2147.500362009616
 31
0.0
  0
LINE
  5
9B
330
1F
100
AcDbEntity
  8
F-1
  6
JWW_DASHED1
 62
     7
370
     9
100
AcDbLine
 10
-155.0007588154554
 20
1991.25035202181
 30
0.0
 11
-2405.000758815456
 21
1991.25035202181
 31
0.0
  0
LINE
  5
9C
330
1F
100
AcDbEntity
  8
F-1
  6
JWW_DASHED1
 62
     7
370
     9
100
AcDbLine
 10
-155.0007588154554
 20
1835.000342034005
 30
0.0
 11
-2405.000758815456
 21
1835.000342034005
 31
0.0
  0
LINE
  5
9D
330
1F
100
AcDbEntity
  8
F-1
  6
JWW_DASHED1
 62
     7
370
     9
100
AcDbLine
 10
-155.0007588154554
 20
1678.7503320462
 30
0.0
 11
-2405.000758815456
 21
1678.7503320462
 31
0.0
  0
LINE
  5
9E
330
1F
100
AcDbEntity
  8
F-1
  6
JWW_DASHED1
 62
     7
370
     9
100
AcDbLine
 10
-155.0007588154554
 20
1522.500322058395
 30
0.0
 11
-2405.000758815456
 21
1522.500322058395
 31
0.0
  0
LINE
  5
9F
330
1F
100
AcDbEntity
  8
F-1
  6
JWW_DASHED1
 62
     7
370
     9
100
AcDbLine
 10
-155.0007588154554
 20
116.2502321681467
 30
0.0
 11
-2405.000758815456
 21
116.2502321681467
 31
0.0
  0
LINE
  5
A0
330
1F
100
AcDbEntity
  8
F-1
  6
JWW_DASHED1
 62
     7
370
     9
100
AcDbLine
 10
-155.0007588154554
 20
897.5002821071723
 30
0.0
 11
-2405.000758815456
 21
897.5002821071723
 31
0.0
  0
LINE
  5
A1
330
1F
100
AcDbEntity
  8
F-1
  6
JWW_DASHED1
 62
     7
370
     9
100
AcDbLine
 10
-155.0007588154554
 20
741.2502721193675
 30
0.0
 11
-2405.000758815456
 21
741.2502721193675
 31
0.0
  0
LINE
  5
A2
330
1F
100
AcDbEntity
  8
F-1
  6
JWW_DASHED1
 62
     7
370
     9
100
AcDbLine
 10
-155.0007588154554
 20
585.0002621315627
 30
0.0
 11
-2405.000758815456
 21
585.0002621315627
 31
0.0
  0
LINE
  5
A3
330
1F
100
AcDbEntity
  8
F-1
  6
JWW_DASHED1
 62
     7
370
     9
100
AcDbLine
 10
-155.0007588154554
 20
428.7502521437571
 30
0.0
 11
-2405.000758815456
 21
428.7502521437571
 31
0.0
  0
LINE
  5
A4
330
1F
100
AcDbEntity
  8
F-1
  6
JWW_DASHED1
 62
     7
370
     9
100
AcDbLine
 10
-155.0007588154554
 20
272.5002421559515
 30
0.0
 11
-2405.000758815456
 21
272.5002421559515
 31
0.0
  0
LINE
  5
A5
330
1F
100
AcDbEntity
  8
F-1
  6
JWW_DASHED1
 62
     7
370
     9
100
AcDbLine
 10
-155.0007588154554
 20
-1133.749847734297
 30
0.0
 11
-2405.000758815456
 21
-1133.749847734297
 31
0.0
  0
LINE
  5
A6
330
1F
100
AcDbEntity
  8
F-1
  6
JWW_DASHED1
 62
     7
370
     9
100
AcDbLine
 10
-155.0007588154554
 20
-352.4997977952702
 30
0.0
 11
-2405.000758815456
 21
-352.4997977952702
 31
0.0
  0
LINE
  5
A7
330
1F
100
AcDbEntity
  8
F-1
  6
JWW_DASHED1
 62
     7
370
     9
100
AcDbLine
 10
-155.0007588154554
 20
-508.7498077830759
 30
0.0
 11
-2405.000758815456
 21
-508.7498077830759
 31
0.0
  0
LINE
  5
A8
330
1F
100
AcDbEntity
  8
F-1
  6
JWW_DASHED1
 62
     7
370
     9
100
AcDbLine
 10
-155.0007588154554
 20
-664.9998177708807
 30
0.0
 11
-2405.000758815456
 21
-664.9998177708807
 31
0.0
  0
LINE
  5
A9
330
1F
100
AcDbEntity
  8
F-1
  6
JWW_DASHED1
 62
     7
370
     9
100
AcDbLine
 10
-155.0007588154554
 20
-821.2498277586855
 30
0.0
 11
-2405.000758815456
 21
-821.2498277586855
 31
0.0
  0
LINE
  5
AA
330
1F
100
AcDbEntity
  8
F-1
  6
JWW_DASHED1
 62
     7
370
     9
100
AcDbLine
 10
-155.0007588154554
 20
-977.499837746491
 30
0.0
 11
-2405.000758815456
 21
-977.499837746491
 31
0.0
  0
LINE
  5
AB
330
1F
100
AcDbEntity
  8
F-1
  6
JWW_DASHED1
 62
     7
370
     9
100
AcDbLine
 10
-155.0007588154554
 20
-2383.749927636738
 30
0.0
 11
-2405.000758815456
 21
-2383.749927636738
 31
0.0
  0
LINE
  5
AC
330
1F
100
AcDbEntity
  8
F-1
  6
JWW_DASHED1
 62
     7
370
     9
100
AcDbLine
 10
-155.0007588154554
 20
-1602.499877697713
 30
0.0
 11
-2405.000758815456
 21
-1602.499877697713
 31
0.0
  0
LINE
  5
AD
330
1F
100
AcDbEntity
  8
F-1
  6
JWW_DASHED1
 62
     7
370
     9
100
AcDbLine
 10
-155.0007588154554
 20
-1758.749887685517
 30
0.0
 11
-2405.000758815456
 21
-1758.749887685517
 31
0.0
  0
LINE
  5
AE
330
1F
100
AcDbEntity
  8
F-1
  6
JWW_DASHED1
 62
     7
370
     9
100
AcDbLine
 10
-155.0007588154554
 20
-1914.999897673323
 30
0.0
 11
-2405.000758815456
 21
-1914.999897673323
 31
0.0
  0
LINE
  5
AF
330
1F
100
AcDbEntity
  8
F-1
  6
JWW_DASHED1
 62
     7
370
     9
100
AcDbLine
 10
-155.0007588154554
 20
-2071.249907661129
 30
0.0
 11
-2405.000758815456
 21
-2071.249907661129
 31
0.0
  0
LINE
  5
B0
330
1F
100
AcDbEntity
  8
F-1
  6
JWW_DASHED1
 62
     7
370
     9
100
AcDbLine
 10
-155.0007588154554
 20
-2227.499917648934
 30
0.0
 11
-2405.000758815456
 21
-2227.499917648934
 31
0.0
  0
LINE
  5
B1
330
1F
100
AcDbEntity
  8
F-1
  6
JWW_DASHED1
 62
     7
370
     9
100
AcDbLine
 10
-155.0007588154554
 20
-3008.749967587961
 30
0.0
 11
-2405.000758815456
 21
-3008.749967587961
 31
0.0
  0
LINE
  5
B2
330
1F
100
AcDbEntity
  8
F-1
  6
JWW_DASHED1
 62
     7
370
     9
100
AcDbLine
 10
-155.0007588154554
 20
-2696.24994761235
 30
0.0
 11
-2405.000758815456
 21
-2696.24994761235
 31
0.0
  0
LINE
  5
B3
330
1F
100
AcDbEntity
  8
F-1
  6
JWW_DASHED1
 62
     7
370
     9
100
AcDbLine
 10
-155.0007588154554
 20
-1446.249867709908
 30
0.0
 11
-2405.000758815456
 21
-1446.249867709908
 31
0.0
  0
LINE
  5
B4
330
1F
100
AcDbEntity
  8
F-1
  6
JWW_DASHED1
 62
     7
370
     9
100
AcDbLine
 10
-155.0007588154554
 20
-196.2497878074646
 30
0.0
 11
-2405.000758815456
 21
-196.2497878074646
 31
0.0
  0
LINE
  5
B5
330
1F
100
AcDbEntity
  8
F-1
  6
JWW_DASHED1
 62
     7
370
     9
100
AcDbLine
 10
-155.0007588154554
 20
1053.750292094978
 30
0.0
 11
-2405.000758815456
 21
1053.750292094978
 31
0.0
  0
LINE
  5
B6
330
1F
100
AcDbEntity
  8
F-1
  6
JWW_DASHED1
 62
     7
370
     9
100
AcDbLine
 10
5689.999719568202
 20
3553.750451899864
 30
0.0
 11
3439.999719568202
 21
3553.750451899864
 31
0.0
  0
LINE
  5
B7
330
1F
100
AcDbEntity
  8
F-1
  6
Continuous
 62
     7
370
     9
100
AcDbLine
 10
-145.0007876834351
 20
2460.000381985226
 30
0.0
 11
-4940.000028867979
 21
2460.000381985226
 31
0.0
  0
LINE
  5
B8
330
1F
100
AcDbEntity
  8
F-1
  6
Continuous
 62
     7
370
     9
100
AcDbLine
 10
-145.0007876834351
 20
1210.000302082783
 30
0.0
 11
-4940.000028867979
 21
1210.000302082783
 31
0.0
  0
LINE
  5
B9
330
1F
100
AcDbEntity
  8
F-1
  6
Continuous
 62
     7
370
     9
100
AcDbLine
 10
-145.0007876834351
 20
-39.99977781965981
 30
0.0
 11
-4940.000028867979
 21
-39.99977781965981
 31
0.0
  0
LINE
  5
BA
330
1F
100
AcDbEntity
  8
F-1
  6
Continuous
 62
     7
370
     9
100
AcDbLine
 10
-145.0007876834351
 20
-1289.999857722102
 30
0.0
 11
-4940.000028867979
 21
-1289.999857722102
 31
0.0
  0
LINE
  5
BB
330
1F
100
AcDbEntity
  8
F-1
  6
Continuous
 62
     7
370
     9
100
AcDbLine
 10
-145.0007876834351
 20
-2539.999937624545
 30
0.0
 11
-4940.000028867979
 21
-2539.999937624545
 31
0.0
  0
LINE
  5
BC
330
1F
100
AcDbEntity
  8
F-1
  6
JWW_DASHED1
 62
     7
370
     9
100
AcDbLine
 10
-155.0007588154554
 20
3553.750451899864
 30
0.0
 11
-2405.000758815456
 21
3553.750451899864
 31
0.0
  0
LINE
  5
BD
330
1F
100
AcDbEntity
  8
F-1
  6
JWW_DASHED1
 62
     7
370
     9
100
AcDbLine
 10
-155.0007588154554
 20
2616.250391973032
 30
0.0
 11
-2405.000758815456
 21
2616.250391973032
 31
0.0
  0
LINE
  5
BE
330
1F
100
AcDbEntity
  8
F-1
  6
JWW_DASHED1
 62
     7
370
     9
100
AcDbLine
 10
-155.0007588154554
 20
3397.500441912059
 30
0.0
 11
-2405.000758815456
 21
3397.500441912059
 31
0.0
  0
LINE
  5
BF
330
1F
100
AcDbEntity
  8
F-1
  6
JWW_DASHED1
 62
     7
370
     9
100
AcDbLine
 10
-155.0007588154554
 20
3241.250431924253
 30
0.0
 11
-2405.000758815456
 21
3241.250431924253
 31
0.0
  0
LINE
  5
C0
330
1F
100
AcDbEntity
  8
F-1
  6
JWW_DASHED1
 62
     7
370
     9
100
AcDbLine
 10
-155.0007588154554
 20
3085.000421936448
 30
0.0
 11
-2405.000758815456
 21
3085.000421936448
 31
0.0
  0
LINE
  5
C1
330
1F
100
AcDbEntity
  8
F-1
  6
JWW_DASHED1
 62
     7
370
     9
100
AcDbLine
 10
-155.0007588154554
 20
2928.750411948643
 30
0.0
 11
-2405.000758815456
 21
2928.750411948643
 31
0.0
  0
LINE
  5
C2
330
1F
100
AcDbEntity
  8
F-1
  6
JWW_DASHED1
 62
     7
370
     9
100
AcDbLine
 10
-155.0007588154554
 20
2772.500401960837
 30
0.0
 11
-2405.000758815456
 21
2772.500401960837
 31
0.0
  0
LINE
  5
C3
330
1F
100
AcDbEntity
  8
F-1
  6
JWW_DASHED1
 62
     7
370
     9
100
AcDbLine
 10
-155.0007588154554
 20
2303.750371997421
 30
0.0
 11
-2405.000758815456
 21
2303.750371997421
 31
0.0
  0
LWPOLYLINE
  5
C4
330
1F
100
AcDbEntity
  8
0-B
  6
Continuous
 62
     7
370
     9
100
AcDbPolyline
 90
        4
 70
     1
 43
3.0
 10
-4548.500393841717
 20
2798.327241248018
 42
0.4142135623731
 10
-4550.000393841718
 20
2799.827241248018
 42
0.4142135623731
 10
-4551.500393841718
 20
2798.327241248018
 42
0.4142135623731
 10
-4550.000393841718
 20
2796.827241248019
 42
0.4142135623731
  0
LINE
  5
C5
330
1F
100
AcDbEntity
  8
0-B
  6
Continuous
 62
   120
370
     5
100
AcDbLine
 10
-4550.000393841718
 20
2798.327241248018
 30
0.0
 11
-4475.000393841718
 21
2798.327241248018
 31
0.0
  0
LINE
  5
C6
330
1F
100
AcDbEntity
  8
0-4
  6
Continuous
 62
    92
370
    13
100
AcDbLine
 10
-3575.000393841717
 20
2798.327241248018
 30
0.0
 11
-4400.000393841718
 21
2798.327241248018
 31
0.0
  0
LWPOLYLINE
  5
C7
330
1F
100
AcDbEntity
  8
0-B
  6
Continuous
 62
     7
370
     9
100
AcDbPolyline
 90
        4
 70
     1
 43
3.0
 10
-4548.500393841717
 20
1548.327161345576
 42
0.4142135623731
 10
-4550.000393841718
 20
1549.827161345576
 42
0.4142135623731
 10
-4551.500393841718
 20
1548.327161345576
 42
0.4142135623731
 10
-4550.000393841718
 20
1546.827161345576
 42
0.4142135623731
  0
LINE
  5
C8
330
1F
100
AcDbEntity
  8
0-B
  6
Continuous
 62
   120
370
     5
100
AcDbLine
 10
-4550.000393841718
 20
1548.327161345576
 30
0.0
 11
-4475.000393841718
 21
1548.327161345576
 31
0.0
  0
LINE
  5
C9
330
1F
100
AcDbEntity
  8
0-4
  6
Continuous
 62
    92
370
    13
100
AcDbLine
 10
-3500.000393841717
 20
1548.327161345576
 30
0.0
 11
-4400.000393841718
 21
1548.327161345576
 31
0.0
  0
LWPOLYLINE
  5
CA
330
1F
100
AcDbEntity
  8
0-B
  6
Continuous
 62
     7
370
     9
100
AcDbPolyline
 90
        4
 70
     1
 43
3.0
 10
-4548.500393841717
 20
298.3270814431324
 42
0.4142135623731
 10
-4550.000393841718
 20
299.8270814431324
 42
0.4142135623731
 10
-4551.500393841718
 20
298.3270814431324
 42
0.4142135623731
 10
-4550.000393841718
 20
296.8270814431324
 42
0.4142135623731
  0
LINE
  5
CB
330
1F
100
AcDbEntity
  8
0-B
  6
Continuous
 62
   120
370
     5
100
AcDbLine
 10
-4550.000393841718
 20
298.3270814431324
 30
0.0
 11
-4475.000393841718
 21
298.3270814431324
 31
0.0
  0
LINE
  5
CC
330
1F
100
AcDbEntity
  8
0-4
  6
Continuous
 62
    92
370
    13
100
AcDbLine
 10
-3425.000393841717
 20
298.3270814431324
 30
0.0
 11
-4400.000393841718
 21
298.3270814431324
 31
0.0
  0
LWPOLYLINE
  5
CD
330
1F
100
AcDbEntity
  8
0-B
  6
Continuous
 62
     7
370
     9
100
AcDbPolyline
 90
        4
 70
     1
 43
3.0
 10
-4548.500393841717
 20
-951.6729984593097
 42
0.4142135623731
 10
-4550.000393841718
 20
-950.1729984593097
 42
0.4142135623731
 10
-4551.500393841718
 20
-951.6729984593097
 42
0.4142135623731
 10
-4550.000393841718
 20
-953.1729984593097
 42
0.4142135623731
  0
LINE
  5
CE
330
1F
100
AcDbEntity
  8
0-B
  6
Continuous
 62
   120
370
     5
100
AcDbLine
 10
-4550.000393841718
 20
-951.6729984593097
 30
0.0
 11
-4475.000393841718
 21
-951.6729984593097
 31
0.0
  0
LINE
  5
CF
330
1F
100
AcDbEntity
  8
0-4
  6
Continuous
 62
    92
370
    13
100
AcDbLine
 10
-3350.000393841717
 20
-951.6729984593097
 30
0.0
 11
-4400.000393841718
 21
-951.6729984593097
 31
0.0
  0
LWPOLYLINE
  5
D0
330
1F
100
AcDbEntity
  8
0-B
  6
Continuous
 62
     7
370
     9
100
AcDbPolyline
 90
        4
 70
     1
 43
3.0
 10
-4548.500393841717
 20
-2201.673078361755
 42
0.4142135623731
 10
-4550.000393841718
 20
-2200.173078361755
 42
0.4142135623731
 10
-4551.500393841718
 20
-2201.673078361755
 42
0.4142135623731
 10
-4550.000393841718
 20
-2203.173078361755
 42
0.4142135623731
  0
LINE
  5
D1
330
1F
100
AcDbEntity
  8
0-B
  6
Continuous
 62
   120
370
     5
100
AcDbLine
 10
-4550.000393841718
 20
-2201.673078361755
 30
0.0
 11
-4475.000393841718
 21
-2201.673078361755
 31
0.0
  0
LINE
  5
D2
330
1F
100
AcDbEntity
  8
0-4
  6
Continuous
 62
    92
370
    13
100
AcDbLine
 10
-3275.000393841717
 20
-2201.673078361755
 30
0.0
 11
-4400.000393841718
 21
-2201.673078361755
 31
0.0
  0
LWPOLYLINE
  5
D3
330
1F
100
AcDbEntity
  8
0-B
  6
Continuous
 62
     7
370
     9
100
AcDbPolyline
 90
        4
 70
     1
 43
3.0
 10
-4548.500393841717
 20
-3447.500185064367
 42
0.4142135623731
 10
-4550.000393841718
 20
-3446.000185064367
 42
0.4142135623731
 10
-4551.500393841718
 20
-3447.500185064367
 42
0.4142135623731
 10
-4550.000393841718
 20
-3449.000185064367
 42
0.4142135623731
  0
LINE
  5
D4
330
1F
100
AcDbEntity
  8
0-B
  6
Continuous
 62
   120
370
     5
100
AcDbLine
 10
-4550.000393841718
 20
-3447.500185064367
 30
0.0
 11
-4475.000393841718
 21
-3447.500185064367
 31
0.0
  0
LINE
  5
D5
330
1F
100
AcDbEntity
  8
0-4
  6
Continuous
 62
    92
370
    13
100
AcDbLine
 10
-3200.000393841717
 20
-3447.500185064367
 30
0.0
 11
-4400.000393841718
 21
-3447.500185064367
 31
0.0
  0
LWPOLYLINE
  5
D6
330
1F
100
AcDbEntity
  8
0-B
  6
Continuous
 62
     7
370
     9
100
AcDbPolyline
 90
        4
 70
     1
 43
3.0
 10
1296.50008454194
 20
2798.327241248018
 42
0.4142135623731
 10
1295.00008454194
 20
2799.827241248018
 42
0.4142135623731
 10
1293.50008454194
 20
2798.327241248018
 42
0.4142135623731
 10
1295.00008454194
 20
2796.827241248019
 42
0.4142135623731
  0
LINE
  5
D7
330
1F
100
AcDbEntity
  8
0-B
  6
Continuous
 62
   120
370
     5
100
AcDbLine
 10
1295.00008454194
 20
2798.327241248018
 30
0.0
 11
1370.00008454194
 21
2798.327241248018
 31
0.0
  0
LINE
  5
D8
330
1F
100
AcDbEntity
  8
0-4
  6
Continuous
 62
    92
370
    13
100
AcDbLine
 10
2720.00008454194
 20
2798.327241248018
 30
0.0
 11
1445.00008454194
 21
2798.327241248018
 31
0.0
  0
LWPOLYLINE
  5
D9
330
1F
100
AcDbEntity
  8
0-B
  6
Continuous
 62
     7
370
     9
100
AcDbPolyline
 90
        4
 70
     1
 43
3.0
 10
1296.50008454194
 20
1548.327161345575
 42
0.4142135623731
 10
1295.00008454194
 20
1549.827161345575
 42
0.4142135623731
 10
1293.50008454194
 20
1548.327161345575
 42
0.4142135623731
 10
1295.00008454194
 20
1546.827161345575
 42
0.4142135623731
  0
LINE
  5
DA
330
1F
100
AcDbEntity
  8
0-B
  6
Continuous
 62
   120
370
     5
100
AcDbLine
 10
1295.00008454194
 20
1548.327161345575
 30
0.0
 11
1370.00008454194
 21
1548.327161345575
 31
0.0
  0
LINE
  5
DB
330
1F
100
AcDbEntity
  8
0-4
  6
Continuous
 62
    92
370
    13
100
AcDbLine
 10
2795.00008454194
 20
1548.327161345575
 30
0.0
 11
1445.00008454194
 21
1548.327161345575
 31
0.0
  0
LWPOLYLINE
  5
DC
330
1F
100
AcDbEntity
  8
0-B
  6
Continuous
 62
     7
370
     9
100
AcDbPolyline
 90
        4
 70
     1
 43
3.0
 10
1296.50008454194
 20
298.3270814431324
 42
0.4142135623731
 10
1295.00008454194
 20
299.8270814431324
 42
0.4142135623731
 10
1293.50008454194
 20
298.3270814431324
 42
0.4142135623731
 10
1295.00008454194
 20
296.8270814431324
 42
0.4142135623731
  0
LINE
  5
DD
330
1F
100
AcDbEntity
  8
0-B
  6
Continuous
 62
   120
370
     5
100
AcDbLine
 10
1295.00008454194
 20
298.3270814431324
 30
0.0
 11
1370.00008454194
 21
298.3270814431324
 31
0.0
  0
LINE
  5
DE
330
1F
100
AcDbEntity
  8
0-4
  6
Continuous
 62
    92
370
    13
100
AcDbLine
 10
2870.00008454194
 20
298.3270814431324
 30
0.0
 11
1445.00008454194
 21
298.3270814431324
 31
0.0
  0
LINE
  5
DF
330
1F
100
AcDbEntity
  8
F-1
  6
JWW_DASHED1
 62
     7
370
     9
100
AcDbLine
 10
5689.999719568202
 20
-1446.249867709908
 30
0.0
 11
4264.999719568202
 21
-1446.249867709908
 31
0.0
  0
LINE
  5
E0
330
1F
100
AcDbEntity
  8
F-1
  6
JWW_DASHED1
 62
     7
370
     9
100
AcDbLine
 10
5689.999719568202
 20
-196.2497878074646
 30
0.0
 11
4264.999719568202
 21
-196.2497878074646
 31
0.0
  0
LINE
  5
E1
330
1F
100
AcDbEntity
  8
F-1
  6
JWW_DASHED1
 62
     7
370
     9
100
AcDbLine
 10
5689.999719568202
 20
1053.750292094978
 30
0.0
 11
4264.999719568202
 21
1053.750292094978
 31
0.0
  0
LWPOLYLINE
  5
E2
330
1F
100
AcDbEntity
  8
0-B
  6
Continuous
 62
     7
370
     9
100
AcDbPolyline
 90
        4
 70
     1
 43
3.0
 10
1296.50008454194
 20
-941.6955742772298
 42
0.4142135623731
 10
1295.00008454194
 20
-940.1955742772298
 42
0.4142135623731
 10
1293.50008454194
 20
-941.6955742772298
 42
0.4142135623731
 10
1295.00008454194
 20
-943.1955742772298
 42
0.4142135623731
  0
LINE
  5
E3
330
1F
100
AcDbEntity
  8
0-B
  6
Continuous
 62
   120
370
     5
100
AcDbLine
 10
1295.00008454194
 20
-941.6955742772298
 30
0.0
 11
1370.00008454194
 21
-941.6955742772298
 31
0.0
  0
LINE
  5
E4
330
1F
100
AcDbEntity
  8
0-4
  6
Continuous
 62
    92
370
    13
100
AcDbLine
 10
2945.000084541939
 20
-941.6955742772298
 30
0.0
 11
1445.00008454194
 21
-941.6955742772298
 31
0.0
  0
LWPOLYLINE
  5
E5
330
1F
100
AcDbEntity
  8
0-B
  6
Continuous
 62
     7
370
     9
100
AcDbPolyline
 90
        4
 70
     1
 43
3.0
 10
1296.50008454194
 20
-2248.003193581752
 42
0.4142135623731
 10
1295.00008454194
 20
-2246.503193581752
 42
0.4142135623731
 10
1293.50008454194
 20
-2248.003193581752
 42
0.4142135623731
 10
1295.00008454194
 20
-2249.503193581752
 42
0.4142135623731
  0
LINE
  5
E6
330
1F
100
AcDbEntity
  8
0-B
  6
Continuous
 62
   120
370
     5
100
AcDbLine
 10
1295.00008454194
 20
-2248.003193581752
 30
0.0
 11
1370.00008454194
 21
-2248.003193581752
 31
0.0
  0
LINE
  5
E7
330
1F
100
AcDbEntity
  8
0-4
  6
Continuous
 62
    92
370
    13
100
AcDbLine
 10
3020.000084541939
 20
-2248.003193581752
 30
0.0
 11
1445.00008454194
 21
-2248.003193581752
 31
0.0
  0
LINE
  5
E8
330
1F
100
AcDbEntity
  8
0-4
  6
Continuous
 62
    92
370
    13
100
AcDbLine
 10
-4346.967385252728
 20
3098.327241248018
 30
0.0
 11
-4400.000393841718
 21
3045.294232659028
 31
0.0
  0
LINE
  5
E9
330
1F
100
AcDbEntity
  8
0-4
  6
Continuous
 62
    92
370
    13
100
AcDbLine
 10
-4343.860783534929
 20
3090.827241248018
 30
0.0
 11
-4392.500393841718
 21
3042.18763094123
 31
0.0
  0
LINE
  5
EA
330
1F
100
AcDbEntity
  8
0-4
  6
Continuous
 62
    92
370
    13
100
AcDbLine
 10
-4400.000393841718
 20
3045.294232659028
 30
0.0
 11
-4400.000393841718
 21
2798.327241248018
 31
0.0
  0
LINE
  5
EB
330
1F
100
AcDbEntity
  8
0-4
  6
Continuous
 62
    92
370
    13
100
AcDbLine
 10
-4392.500393841718
 20
3042.18763094123
 30
0.0
 11
-4392.500393841718
 21
2805.827241248018
 31
0.0
  0
LINE
  5
EC
330
1F
100
AcDbEntity
  8
0-B
  6
Continuous
 62
   120
370
     5
100
AcDbLine
 10
-4550.000393841718
 20
3098.327241248018
 30
0.0
 11
-4550.000393841718
 21
2798.327241248018
 31
0.0
  0
LWPOLYLINE
  5
ED
330
1F
100
AcDbEntity
  8
0-B
  6
Continuous
 62
     7
370
     9
100
AcDbPolyline
 90
        4
 70
     1
 43
3.0
 10
-4548.500393841717
 20
3098.327241248018
 42
0.4142135623731
 10
-4550.000393841718
 20
3099.827241248018
 42
0.4142135623731
 10
-4551.500393841718
 20
3098.327241248018
 42
0.4142135623731
 10
-4550.000393841718
 20
3096.827241248019
 42
0.4142135623731
  0
LINE
  5
EE
330
1F
100
AcDbEntity
  8
0-B
  6
Continuous
 62
   120
370
     5
100
AcDbLine
 10
-4550.000393841718
 20
3098.327241248018
 30
0.0
 11
-4475.000393841718
 21
3098.327241248018
 31
0.0
  0
LINE
  5
EF
330
1F
100
AcDbEntity
  8
0-B
  6
Continuous
 62
   120
370
     5
100
AcDbLine
 10
-4453.03340243071
 20
3204.393258426001
 30
0.0
 11
-4506.0664110197
 21
3151.360249837009
 31
0.0
  0
LWPOLYLINE
  5
F0
330
1F
100
AcDbEntity
  8
0-B
  6
Continuous
 62
     7
370
     9
100
AcDbPolyline
 90
        4
 70
     1
 43
3.0
 10
-4451.53340243071
 20
3204.393258426001
 42
0.4142135623731
 10
-4453.03340243071
 20
3205.893258426001
 42
0.4142135623731
 10
-4454.53340243071
 20
3204.393258426001
 42
0.4142135623731
 10
-4453.03340243071
 20
3202.893258426001
 42
0.4142135623731
  0
LWPOLYLINE
  5
F1
330
1F
100
AcDbEntity
  8
0-B
  6
Continuous
 62
     7
370
     9
100
AcDbPolyline
 90
        4
 70
     1
 43
3.0
 10
-4504.566411019699
 20
3151.360249837009
 42
0.4142135623731
 10
-4506.0664110197
 20
3152.860249837009
 42
0.4142135623731
 10
-4507.5664110197
 20
3151.360249837009
 42
0.4142135623731
 10
-4506.0664110197
 20
3149.860249837009
 42
0.4142135623731
  0
LINE
  5
F2
330
1F
100
AcDbEntity
  8
0-B
  6
Continuous
 62
   120
370
     5
100
AcDbLine
 10
-4453.03340243071
 20
3204.393258426001
 30
0.0
 11
-4400.000393841719
 21
3151.360249837009
 31
0.0
  0
LINE
  5
F3
330
1F
100
AcDbEntity
  8
0-B
  6
Continuous
 62
   120
370
     5
100
AcDbLine
 10
-4506.0664110197
 20
3151.360249837009
 30
0.0
 11
-4453.03340243071
 21
3098.327241248019
 31
0.0
  0
LWPOLYLINE
  5
F4
330
1F
100
AcDbEntity
  8
0-B
  6
Continuous
 62
     7
370
     9
100
AcDbPolyline
 90
        4
 70
     1
 43
3.0
 10
-4398.500393841717
 20
3323.327241248017
 42
0.4142135623731
 10
-4400.000393841718
 20
3324.827241248017
 42
0.4142135623731
 10
-4401.500393841718
 20
3323.327241248017
 42
0.4142135623731
 10
-4400.000393841718
 20
3321.827241248018
 42
0.4142135623731
  0
LINE
  5
F5
330
1F
100
AcDbEntity
  8
0-B
  6
Continuous
 62
   120
370
     5
100
AcDbLine
 10
-4400.000393841718
 20
3323.327241248017
 30
0.0
 11
-4400.000393841718
 21
3173.327241248018
 31
0.0
  0
LINE
  5
F6
330
1F
100
AcDbEntity
  8
0-4
  6
Continuous
 62
    92
370
    13
100
AcDbLine
 10
-3575.000393841717
 20
2798.327241248018
 30
0.0
 11
-3575.000393841717
 21
3053.327241248018
 31
0.0
  0
LINE
  5
F7
330
1F
100
AcDbEntity
  8
0-4
  6
Continuous
 62
    92
370
    13
100
AcDbLine
 10
-3582.500393841717
 20
2805.827241248018
 30
0.0
 11
-3582.500393841717
 21
3045.827241248018
 31
0.0
  0
LINE
  5
F8
330
1F
100
AcDbEntity
  8
0-B
  6
Continuous
 62
   120
370
     5
100
AcDbLine
 10
-3425.000393841717
 20
3053.327241248018
 30
0.0
 11
-3425.000393841717
 21
3098.327241248018
 31
0.0
  0
LWPOLYLINE
  5
F9
330
1F
100
AcDbEntity
  8
0-B
  6
Continuous
 62
     7
370
     9
100
AcDbPolyline
 90
        4
 70
     1
 43
3.0
 10
-3423.500393841717
 20
3053.327241248018
 42
0.4142135623731
 10
-3425.000393841717
 20
3054.827241248018
 42
0.4142135623731
 10
-3426.500393841717
 20
3053.327241248018
 42
0.4142135623731
 10
-3425.000393841717
 20
3051.827241248019
 42
0.4142135623731
  0
LWPOLYLINE
  5
FA
330
1F
100
AcDbEntity
  8
0-B
  6
Continuous
 62
     7
370
     9
100
AcDbPolyline
 90
        4
 70
     1
 43
3.0
 10
-3423.500393841717
 20
3098.327241248018
 42
0.4142135623731
 10
-3425.000393841717
 20
3099.827241248018
 42
0.4142135623731
 10
-3426.500393841717
 20
3098.327241248018
 42
0.4142135623731
 10
-3425.000393841717
 20
3096.827241248019
 42
0.4142135623731
  0
LINE
  5
FB
330
1F
100
AcDbEntity
  8
0-B
  6
Continuous
 62
   120
370
     5
100
AcDbLine
 10
-3425.000393841717
 20
3053.327241248018
 30
0.0
 11
-3500.000393841717
 21
3053.327241248018
 31
0.0
  0
LINE
  5
FC
330
1F
100
AcDbEntity
  8
0-B
  6
Continuous
 62
   120
370
     5
100
AcDbLine
 10
-3425.000393841717
 20
3098.327241248018
 30
0.0
 11
-3500.000393841717
 21
3098.327241248018
 31
0.0
  0
LWPOLYLINE
  5
FD
330
1F
100
AcDbEntity
  8
0-B
  6
Continuous
 62
     7
370
     9
100
AcDbPolyline
 90
        4
 70
     1
 43
3.0
 10
-3573.500393841717
 20
3206.135396152335
 42
0.4142135623731
 10
-3575.000393841717
 20
3207.635396152335
 42
0.4142135623731
 10
-3576.500393841717
 20
3206.135396152335
 42
0.4142135623731
 10
-3575.000393841717
 20
3204.635396152335
 42
0.4142135623731
  0
LINE
  5
FE
330
1F
100
AcDbEntity
  8
0-B
  6
Continuous
 62
   120
370
     5
100
AcDbLine
 10
-3575.000393841717
 20
3323.327241248017
 30
0.0
 11
-3575.000393841717
 21
3131.135396152335
 31
0.0
  0
LINE
  5
FF
330
1F
100
AcDbEntity
  8
0-B
  6
Continuous
 62
   120
370
     5
100
AcDbLine
 10
-4400.000393841718
 20
3323.327241248017
 30
0.0
 11
-3575.000393841717
 21
3323.327241248017
 31
0.0
  0
LWPOLYLINE
  5
100
330
1F
100
AcDbEntity
  8
0-B
  6
Continuous
 62
     7
370
     9
100
AcDbPolyline
 90
        4
 70
     1
 43
3.0
 10
-3573.500393841717
 20
3323.327241248017
 42
0.4142135623731
 10
-3575.000393841717
 20
3324.827241248017
 42
0.4142135623731
 10
-3576.500393841717
 20
3323.327241248017
 42
0.4142135623731
 10
-3575.000393841717
 20
3321.827241248018
 42
0.4142135623731
  0
LINE
  5
101
330
1F
100
AcDbEntity
  8
0-0
  6
JWW_HOJO
 62
   120
370
     5
100
AcDbLine
 10
-4409.099419608691
 20
3248.327241248017
 30
0.0
 11
-4550.000393841718
 21
3107.426267014992
 31
0.0
  0
LINE
  5
102
330
1F
100
AcDbEntity
  8
0-0
  6
JWW_HOJO
 62
   120
370
     5
100
AcDbLine
 10
-4550.000393841718
 20
3107.426267014992
 30
0.0
 11
-4550.000393841718
 21
2798.327241248018
 31
0.0
  0
LINE
  5
103
330
1F
100
AcDbEntity
  8
0-0
  6
JWW_HOJO
 62
   120
370
     5
100
AcDbLine
 10
-4378.03340243071
 20
3173.327241248018
 30
0.0
 11
-4475.000393841718
 21
3076.360249837009
 31
0.0
  0
LINE
  5
104
330
1F
100
AcDbEntity
  8
0-0
  6
JWW_HOJO
 62
   120
370
     5
100
AcDbLine
 10
-4475.000393841718
 20
3076.360249837009
 30
0.0
 11
-4475.000393841718
 21
2798.327241248018
 31
0.0
  0
LINE
  5
105
330
1F
100
AcDbEntity
  8
0-0
  6
JWW_HOJO
 62
   120
370
     5
100
AcDbLine
 10
-3575.000393841717
 20
3248.327241248017
 30
0.0
 11
-4409.099419608691
 21
3248.327241248017
 31
0.0
  0
LINE
  5
106
330
1F
100
AcDbEntity
  8
0-0
  6
JWW_HOJO
 62
   120
370
     5
100
AcDbLine
 10
-3575.000393841717
 20
3173.327241248018
 30
0.0
 11
-4378.03340243071
 21
3173.327241248018
 31
0.0
  0
LINE
  5
107
330
1F
100
AcDbEntity
  8
0-0
  6
JWW_HOJO
 62
   120
370
     5
100
AcDbLine
 10
-3500.000393841717
 20
2798.327241248018
 30
0.0
 11
-3500.000393841717
 21
3098.327241248018
 31
0.0
  0
LINE
  5
108
330
1F
100
AcDbEntity
  8
0-0
  6
JWW_HOJO
 62
   120
370
     5
100
AcDbLine
 10
-3425.000393841717
 20
2798.327241248018
 30
0.0
 11
-3425.000393841717
 21
3098.327241248018
 31
0.0
  0
LINE
  5
109
330
1F
100
AcDbEntity
  8
0-0
  6
JWW_HOJO
 62
   120
370
     5
100
AcDbLine
 10
-3575.000393841717
 20
3323.327241248017
 30
0.0
 11
-4409.099419608691
 21
3323.327241248017
 31
0.0
  0
LINE
  5
10A
330
1F
100
AcDbEntity
  8
0-4
  6
Continuous
 62
    92
370
    13
100
AcDbLine
 10
-4346.967385252728
 20
1848.327161345576
 30
0.0
 11
-4400.000393841718
 21
1795.294152756584
 31
0.0
  0
LINE
  5
10B
330
1F
100
AcDbEntity
  8
0-4
  6
Continuous
 62
    92
370
    13
100
AcDbLine
 10
-4343.860783534929
 20
1840.827161345576
 30
0.0
 11
-4392.500393841718
 21
1792.187551038786
 31
0.0
  0
LINE
  5
10C
330
1F
100
AcDbEntity
  8
0-4
  6
Continuous
 62
    92
370
    13
100
AcDbLine
 10
-4400.000393841718
 20
1795.294152756584
 30
0.0
 11
-4400.000393841718
 21
1548.327161345576
 31
0.0
  0
LINE
  5
10D
330
1F
100
AcDbEntity
  8
0-4
  6
Continuous
 62
    92
370
    13
100
AcDbLine
 10
-4392.500393841718
 20
1792.187551038786
 30
0.0
 11
-4392.500393841718
 21
1555.827161345576
 31
0.0
  0
LINE
  5
10E
330
1F
100
AcDbEntity
  8
0-B
  6
Continuous
 62
   120
370
     5
100
AcDbLine
 10
-4550.000393841718
 20
1848.327161345576
 30
0.0
 11
-4550.000393841718
 21
1548.327161345576
 31
0.0
  0
LWPOLYLINE
  5
10F
330
1F
100
AcDbEntity
  8
0-B
  6
Continuous
 62
     7
370
     9
100
AcDbPolyline
 90
        4
 70
     1
 43
3.0
 10
-4548.500393841717
 20
1848.327161345576
 42
0.4142135623731
 10
-4550.000393841718
 20
1849.827161345576
 42
0.4142135623731
 10
-4551.500393841718
 20
1848.327161345576
 42
0.4142135623731
 10
-4550.000393841718
 20
1846.827161345576
 42
0.4142135623731
  0
LINE
  5
110
330
1F
100
AcDbEntity
  8
0-B
  6
Continuous
 62
   120
370
     5
100
AcDbLine
 10
-4550.000393841718
 20
1848.327161345576
 30
0.0
 11
-4475.000393841718
 21
1848.327161345576
 31
0.0
  0
LINE
  5
111
330
1F
100
AcDbEntity
  8
0-B
  6
Continuous
 62
   120
370
     5
100
AcDbLine
 10
-4453.03340243071
 20
1954.393178523557
 30
0.0
 11
-4506.0664110197
 21
1901.360169934567
 31
0.0
  0
LWPOLYLINE
  5
112
330
1F
100
AcDbEntity
  8
0-B
  6
Continuous
 62
     7
370
     9
100
AcDbPolyline
 90
        4
 70
     1
 43
3.0
 10
-4451.53340243071
 20
1954.393178523557
 42
0.4142135623731
 10
-4453.03340243071
 20
1955.893178523557
 42
0.4142135623731
 10
-4454.53340243071
 20
1954.393178523557
 42
0.4142135623731
 10
-4453.03340243071
 20
1952.893178523557
 42
0.4142135623731
  0
LWPOLYLINE
  5
113
330
1F
100
AcDbEntity
  8
0-B
  6
Continuous
 62
     7
370
     9
100
AcDbPolyline
 90
        4
 70
     1
 43
3.0
 10
-4504.566411019699
 20
1901.360169934567
 42
0.4142135623731
 10
-4506.0664110197
 20
1902.860169934566
 42
0.4142135623731
 10
-4507.5664110197
 20
1901.360169934567
 42
0.4142135623731
 10
-4506.0664110197
 20
1899.860169934567
 42
0.4142135623731
  0
LINE
  5
114
330
1F
100
AcDbEntity
  8
0-B
  6
Continuous
 62
   120
370
     5
100
AcDbLine
 10
-4453.03340243071
 20
1954.393178523557
 30
0.0
 11
-4400.000393841719
 21
1901.360169934567
 31
0.0
  0
LINE
  5
115
330
1F
100
AcDbEntity
  8
0-B
  6
Continuous
 62
   120
370
     5
100
AcDbLine
 10
-4506.0664110197
 20
1901.360169934567
 30
0.0
 11
-4453.03340243071
 21
1848.327161345576
 31
0.0
  0
LWPOLYLINE
  5
116
330
1F
100
AcDbEntity
  8
0-B
  6
Continuous
 62
     7
370
     9
100
AcDbPolyline
 90
        4
 70
     1
 43
3.0
 10
-4398.500393841717
 20
2073.327161345576
 42
0.4142135623731
 10
-4400.000393841718
 20
2074.827161345576
 42
0.4142135623731
 10
-4401.500393841718
 20
2073.327161345576
 42
0.4142135623731
 10
-4400.000393841718
 20
2071.827161345576
 42
0.4142135623731
  0
LINE
  5
117
330
1F
100
AcDbEntity
  8
0-B
  6
Continuous
 62
   120
370
     5
100
AcDbLine
 10
-4400.000393841718
 20
2073.327161345576
 30
0.0
 11
-4400.000393841718
 21
1923.327161345576
 31
0.0
  0
LINE
  5
118
330
1F
100
AcDbEntity
  8
0-4
  6
Continuous
 62
    92
370
    13
100
AcDbLine
 10
-3500.000393841717
 20
1548.327161345576
 30
0.0
 11
-3500.000393841717
 21
1803.327161345576
 31
0.0
  0
LINE
  5
119
330
1F
100
AcDbEntity
  8
0-4
  6
Continuous
 62
    92
370
    13
100
AcDbLine
 10
-3507.500393841717
 20
1555.827161345576
 30
0.0
 11
-3507.500393841717
 21
1795.827161345576
 31
0.0
  0
LINE
  5
11A
330
1F
100
AcDbEntity
  8
0-B
  6
Continuous
 62
   120
370
     5
100
AcDbLine
 10
-3350.000393841717
 20
1803.327161345576
 30
0.0
 11
-3350.000393841717
 21
1848.327161345576
 31
0.0
  0
LWPOLYLINE
  5
11B
330
1F
100
AcDbEntity
  8
0-B
  6
Continuous
 62
     7
370
     9
100
AcDbPolyline
 90
        4
 70
     1
 43
3.0
 10
-3348.500393841717
 20
1803.327161345576
 42
0.4142135623731
 10
-3350.000393841717
 20
1804.827161345576
 42
0.4142135623731
 10
-3351.500393841717
 20
1803.327161345576
 42
0.4142135623731
 10
-3350.000393841717
 20
1801.827161345576
 42
0.4142135623731
  0
LWPOLYLINE
  5
11C
330
1F
100
AcDbEntity
  8
0-B
  6
Continuous
 62
     7
370
     9
100
AcDbPolyline
 90
        4
 70
     1
 43
3.0
 10
-3348.500393841717
 20
1848.327161345576
 42
0.4142135623731
 10
-3350.000393841717
 20
1849.827161345576
 42
0.4142135623731
 10
-3351.500393841717
 20
1848.327161345576
 42
0.4142135623731
 10
-3350.000393841717
 20
1846.827161345576
 42
0.4142135623731
  0
LINE
  5
11D
330
1F
100
AcDbEntity
  8
0-B
  6
Continuous
 62
   120
370
     5
100
AcDbLine
 10
-3350.000393841717
 20
1803.327161345576
 30
0.0
 11
-3425.000393841717
 21
1803.327161345576
 31
0.0
  0
LINE
  5
11E
330
1F
100
AcDbEntity
  8
0-B
  6
Continuous
 62
   120
370
     5
100
AcDbLine
 10
-3350.000393841717
 20
1848.327161345576
 30
0.0
 11
-3425.000393841717
 21
1848.327161345576
 31
0.0
  0
LWPOLYLINE
  5
11F
330
1F
100
AcDbEntity
  8
0-B
  6
Continuous
 62
     7
370
     9
100
AcDbPolyline
 90
        4
 70
     1
 43
3.0
 10
-3498.500393841717
 20
1956.135316249892
 42
0.4142135623731
 10
-3500.000393841717
 20
1957.635316249892
 42
0.4142135623731
 10
-3501.500393841717
 20
1956.135316249892
 42
0.4142135623731
 10
-3500.000393841717
 20
1954.635316249892
 42
0.4142135623731
  0
LINE
  5
120
330
1F
100
AcDbEntity
  8
0-B
  6
Continuous
 62
   120
370
     5
100
AcDbLine
 10
-3500.000393841717
 20
2073.327161345576
 30
0.0
 11
-3500.000393841717
 21
1881.135316249892
 31
0.0
  0
LINE
  5
121
330
1F
100
AcDbEntity
  8
0-B
  6
Continuous
 62
   120
370
     5
100
AcDbLine
 10
-4400.000393841718
 20
2073.327161345576
 30
0.0
 11
-3500.000393841717
 21
2073.327161345576
 31
0.0
  0
LWPOLYLINE
  5
122
330
1F
100
AcDbEntity
  8
0-B
  6
Continuous
 62
     7
370
     9
100
AcDbPolyline
 90
        4
 70
     1
 43
3.0
 10
-3498.500393841717
 20
2073.327161345576
 42
0.4142135623731
 10
-3500.000393841717
 20
2074.827161345576
 42
0.4142135623731
 10
-3501.500393841717
 20
2073.327161345576
 42
0.4142135623731
 10
-3500.000393841717
 20
2071.827161345576
 42
0.4142135623731
  0
LINE
  5
123
330
1F
100
AcDbEntity
  8
0-0
  6
JWW_HOJO
 62
   120
370
     5
100
AcDbLine
 10
-4409.099419608691
 20
1998.327161345576
 30
0.0
 11
-4550.000393841718
 21
1857.426187112549
 31
0.0
  0
LINE
  5
124
330
1F
100
AcDbEntity
  8
0-0
  6
JWW_HOJO
 62
   120
370
     5
100
AcDbLine
 10
-4550.000393841718
 20
1857.426187112549
 30
0.0
 11
-4550.000393841718
 21
1548.327161345576
 31
0.0
  0
LINE
  5
125
330
1F
100
AcDbEntity
  8
0-0
  6
JWW_HOJO
 62
   120
370
     5
100
AcDbLine
 10
-4378.03340243071
 20
1923.327161345576
 30
0.0
 11
-4475.000393841718
 21
1826.360169934567
 31
0.0
  0
LINE
  5
126
330
1F
100
AcDbEntity
  8
0-0
  6
JWW_HOJO
 62
   120
370
     5
100
AcDbLine
 10
-4475.000393841718
 20
1826.360169934567
 30
0.0
 11
-4475.000393841718
 21
1548.327161345576
 31
0.0
  0
LINE
  5
127
330
1F
100
AcDbEntity
  8
0-0
  6
JWW_HOJO
 62
   120
370
     5
100
AcDbLine
 10
-3500.000393841717
 20
1998.327161345576
 30
0.0
 11
-4409.099419608691
 21
1998.327161345576
 31
0.0
  0
LINE
  5
128
330
1F
100
AcDbEntity
  8
0-0
  6
JWW_HOJO
 62
   120
370
     5
100
AcDbLine
 10
-3500.000393841717
 20
1923.327161345576
 30
0.0
 11
-4378.03340243071
 21
1923.327161345576
 31
0.0
  0
LINE
  5
129
330
1F
100
AcDbEntity
  8
0-0
  6
JWW_HOJO
 62
   120
370
     5
100
AcDbLine
 10
-3425.000393841717
 20
1548.327161345576
 30
0.0
 11
-3425.000393841717
 21
1848.327161345576
 31
0.0
  0
LINE
  5
12A
330
1F
100
AcDbEntity
  8
0-0
  6
JWW_HOJO
 62
   120
370
     5
100
AcDbLine
 10
-3350.000393841717
 20
1548.327161345576
 30
0.0
 11
-3350.000393841717
 21
1848.327161345576
 31
0.0
  0
LINE
  5
12B
330
1F
100
AcDbEntity
  8
0-0
  6
JWW_HOJO
 62
   120
370
     5
100
AcDbLine
 10
-3500.000393841717
 20
2073.327161345576
 30
0.0
 11
-4409.099419608691
 21
2073.327161345576
 31
0.0
  0
LINE
  5
12C
330
1F
100
AcDbEntity
  8
0-4
  6
Continuous
 62
    92
370
    13
100
AcDbLine
 10
-4346.967385252728
 20
598.3270814431324
 30
0.0
 11
-4400.000393841718
 21
545.294072854141
 31
0.0
  0
LINE
  5
12D
330
1F
100
AcDbEntity
  8
0-4
  6
Continuous
 62
    92
370
    13
100
AcDbLine
 10
-4343.860783534929
 20
590.8270814431324
 30
0.0
 11
-4392.500393841718
 21
542.1874711363427
 31
0.0
  0
LINE
  5
12E
330
1F
100
AcDbEntity
  8
0-4
  6
Continuous
 62
    92
370
    13
100
AcDbLine
 10
-4400.000393841718
 20
545.294072854141
 30
0.0
 11
-4400.000393841718
 21
298.3270814431324
 31
0.0
  0
LINE
  5
12F
330
1F
100
AcDbEntity
  8
0-4
  6
Continuous
 62
    92
370
    13
100
AcDbLine
 10
-4392.500393841718
 20
542.1874711363427
 30
0.0
 11
-4392.500393841718
 21
305.8270814431324
 31
0.0
  0
LINE
  5
130
330
1F
100
AcDbEntity
  8
0-B
  6
Continuous
 62
   120
370
     5
100
AcDbLine
 10
-4550.000393841718
 20
598.3270814431324
 30
0.0
 11
-4550.000393841718
 21
298.3270814431324
 31
0.0
  0
LWPOLYLINE
  5
131
330
1F
100
AcDbEntity
  8
0-B
  6
Continuous
 62
     7
370
     9
100
AcDbPolyline
 90
        4
 70
     1
 43
3.0
 10
-4548.500393841717
 20
598.3270814431324
 42
0.4142135623731
 10
-4550.000393841718
 20
599.8270814431324
 42
0.4142135623731
 10
-4551.500393841718
 20
598.3270814431324
 42
0.4142135623731
 10
-4550.000393841718
 20
596.8270814431324
 42
0.4142135623731
  0
LINE
  5
132
330
1F
100
AcDbEntity
  8
0-B
  6
Continuous
 62
   120
370
     5
100
AcDbLine
 10
-4550.000393841718
 20
598.3270814431324
 30
0.0
 11
-4475.000393841718
 21
598.3270814431324
 31
0.0
  0
LINE
  5
133
330
1F
100
AcDbEntity
  8
0-B
  6
Continuous
 62
   120
370
     5
100
AcDbLine
 10
-4453.03340243071
 20
704.3930986211137
 30
0.0
 11
-4506.0664110197
 21
651.360090032123
 31
0.0
  0
LWPOLYLINE
  5
134
330
1F
100
AcDbEntity
  8
0-B
  6
Continuous
 62
     7
370
     9
100
AcDbPolyline
 90
        4
 70
     1
 43
3.0
 10
-4451.53340243071
 20
704.3930986211137
 42
0.4142135623731
 10
-4453.03340243071
 20
705.8930986211137
 42
0.4142135623731
 10
-4454.53340243071
 20
704.3930986211137
 42
0.4142135623731
 10
-4453.03340243071
 20
702.8930986211137
 42
0.4142135623731
  0
LWPOLYLINE
  5
135
330
1F
100
AcDbEntity
  8
0-B
  6
Continuous
 62
     7
370
     9
100
AcDbPolyline
 90
        4
 70
     1
 43
3.0
 10
-4504.566411019699
 20
651.360090032123
 42
0.4142135623731
 10
-4506.0664110197
 20
652.8600900321231
 42
0.4142135623731
 10
-4507.5664110197
 20
651.360090032123
 42
0.4142135623731
 10
-4506.0664110197
 20
649.860090032123
 42
0.4142135623731
  0
LINE
  5
136
330
1F
100
AcDbEntity
  8
0-B
  6
Continuous
 62
   120
370
     5
100
AcDbLine
 10
-4453.03340243071
 20
704.3930986211137
 30
0.0
 11
-4400.000393841719
 21
651.360090032123
 31
0.0
  0
LINE
  5
137
330
1F
100
AcDbEntity
  8
0-B
  6
Continuous
 62
   120
370
     5
100
AcDbLine
 10
-4506.0664110197
 20
651.360090032123
 30
0.0
 11
-4453.03340243071
 21
598.3270814431324
 31
0.0
  0
LWPOLYLINE
  5
138
330
1F
100
AcDbEntity
  8
0-B
  6
Continuous
 62
     7
370
     9
100
AcDbPolyline
 90
        4
 70
     1
 43
3.0
 10
-4398.500393841717
 20
823.3270814431324
 42
0.4142135623731
 10
-4400.000393841718
 20
824.8270814431324
 42
0.4142135623731
 10
-4401.500393841718
 20
823.3270814431324
 42
0.4142135623731
 10
-4400.000393841718
 20
821.8270814431324
 42
0.4142135623731
  0
LINE
  5
139
330
1F
100
AcDbEntity
  8
0-B
  6
Continuous
 62
   120
370
     5
100
AcDbLine
 10
-4400.000393841718
 20
823.3270814431324
 30
0.0
 11
-4400.000393841718
 21
673.3270814431324
 31
0.0
  0
LINE
  5
13A
330
1F
100
AcDbEntity
  8
0-4
  6
Continuous
 62
    92
370
    13
100
AcDbLine
 10
-3425.000393841717
 20
298.3270814431324
 30
0.0
 11
-3425.000393841717
 21
553.3270814431324
 31
0.0
  0
LINE
  5
13B
330
1F
100
AcDbEntity
  8
0-4
  6
Continuous
 62
    92
370
    13
100
AcDbLine
 10
-3432.500393841717
 20
305.8270814431324
 30
0.0
 11
-3432.500393841717
 21
545.8270814431324
 31
0.0
  0
LINE
  5
13C
330
1F
100
AcDbEntity
  8
0-B
  6
Continuous
 62
   120
370
     5
100
AcDbLine
 10
-3275.000393841717
 20
553.3270814431324
 30
0.0
 11
-3275.000393841717
 21
598.3270814431324
 31
0.0
  0
LWPOLYLINE
  5
13D
330
1F
100
AcDbEntity
  8
0-B
  6
Continuous
 62
     7
370
     9
100
AcDbPolyline
 90
        4
 70
     1
 43
3.0
 10
-3273.500393841717
 20
553.3270814431324
 42
0.4142135623731
 10
-3275.000393841717
 20
554.8270814431324
 42
0.4142135623731
 10
-3276.500393841717
 20
553.3270814431324
 42
0.4142135623731
 10
-3275.000393841717
 20
551.8270814431324
 42
0.4142135623731
  0
LWPOLYLINE
  5
13E
330
1F
100
AcDbEntity
  8
0-B
  6
Continuous
 62
     7
370
     9
100
AcDbPolyline
 90
        4
 70
     1
 43
3.0
 10
-3273.500393841717
 20
598.3270814431324
 42
0.4142135623731
 10
-3275.000393841717
 20
599.8270814431324
 42
0.4142135623731
 10
-3276.500393841717
 20
598.3270814431324
 42
0.4142135623731
 10
-3275.000393841717
 20
596.8270814431324
 42
0.4142135623731
  0
LINE
  5
13F
330
1F
100
AcDbEntity
  8
0-B
  6
Continuous
 62
   120
370
     5
100
AcDbLine
 10
-3275.000393841717
 20
553.3270814431324
 30
0.0
 11
-3350.000393841717
 21
553.3270814431324
 31
0.0
  0
LINE
  5
140
330
1F
100
AcDbEntity
  8
0-B
  6
Continuous
 62
   120
370
     5
100
AcDbLine
 10
-3275.000393841717
 20
598.3270814431324
 30
0.0
 11
-3350.000393841717
 21
598.3270814431324
 31
0.0
  0
LWPOLYLINE
  5
141
330
1F
100
AcDbEntity
  8
0-B
  6
Continuous
 62
     7
370
     9
100
AcDbPolyline
 90
        4
 70
     1
 43
3.0
 10
-3423.500393841717
 20
706.1352363474487
 42
0.4142135623731
 10
-3425.000393841717
 20
707.6352363474487
 42
0.4142135623731
 10
-3426.500393841717
 20
706.1352363474487
 42
0.4142135623731
 10
-3425.000393841717
 20
704.6352363474487
 42
0.4142135623731
  0
LINE
  5
142
330
1F
100
AcDbEntity
  8
0-B
  6
Continuous
 62
   120
370
     5
100
AcDbLine
 10
-3425.000393841717
 20
823.3270814431324
 30
0.0
 11
-3425.000393841717
 21
631.1352363474487
 31
0.0
  0
LINE
  5
143
330
1F
100
AcDbEntity
  8
0-B
  6
Continuous
 62
   120
370
     5
100
AcDbLine
 10
-4400.000393841718
 20
823.3270814431324
 30
0.0
 11
-3425.000393841717
 21
823.3270814431324
 31
0.0
  0
LWPOLYLINE
  5
144
330
1F
100
AcDbEntity
  8
0-B
  6
Continuous
 62
     7
370
     9
100
AcDbPolyline
 90
        4
 70
     1
 43
3.0
 10
-3423.500393841717
 20
823.3270814431324
 42
0.4142135623731
 10
-3425.000393841717
 20
824.8270814431324
 42
0.4142135623731
 10
-3426.500393841717
 20
823.3270814431324
 42
0.4142135623731
 10
-3425.000393841717
 20
821.8270814431324
 42
0.4142135623731
  0
LINE
  5
145
330
1F
100
AcDbEntity
  8
0-0
  6
JWW_HOJO
 62
   120
370
     5
100
AcDbLine
 10
-4409.099419608691
 20
748.3270814431324
 30
0.0
 11
-4550.000393841718
 21
607.4261072101052
 31
0.0
  0
LINE
  5
146
330
1F
100
AcDbEntity
  8
0-0
  6
JWW_HOJO
 62
   120
370
     5
100
AcDbLine
 10
-4550.000393841718
 20
607.4261072101052
 30
0.0
 11
-4550.000393841718
 21
298.3270814431324
 31
0.0
  0
LINE
  5
147
330
1F
100
AcDbEntity
  8
0-0
  6
JWW_HOJO
 62
   120
370
     5
100
AcDbLine
 10
-4378.03340243071
 20
673.3270814431324
 30
0.0
 11
-4475.000393841718
 21
576.360090032123
 31
0.0
  0
LINE
  5
148
330
1F
100
AcDbEntity
  8
0-0
  6
JWW_HOJO
 62
   120
370
     5
100
AcDbLine
 10
-4475.000393841718
 20
576.360090032123
 30
0.0
 11
-4475.000393841718
 21
298.3270814431324
 31
0.0
  0
LINE
  5
149
330
1F
100
AcDbEntity
  8
0-0
  6
JWW_HOJO
 62
   120
370
     5
100
AcDbLine
 10
-3425.000393841717
 20
748.3270814431324
 30
0.0
 11
-4409.099419608691
 21
748.3270814431324
 31
0.0
  0
LINE
  5
14A
330
1F
100
AcDbEntity
  8
0-0
  6
JWW_HOJO
 62
   120
370
     5
100
AcDbLine
 10
-3425.000393841717
 20
673.3270814431324
 30
0.0
 11
-4378.03340243071
 21
673.3270814431324
 31
0.0
  0
LINE
  5
14B
330
1F
100
AcDbEntity
  8
0-0
  6
JWW_HOJO
 62
   120
370
     5
100
AcDbLine
 10
-3350.000393841717
 20
298.3270814431324
 30
0.0
 11
-3350.000393841717
 21
598.3270814431324
 31
0.0
  0
LINE
  5
14C
330
1F
100
AcDbEntity
  8
0-0
  6
JWW_HOJO
 62
   120
370
     5
100
AcDbLine
 10
-3275.000393841717
 20
298.3270814431324
 30
0.0
 11
-3275.000393841717
 21
598.3270814431324
 31
0.0
  0
LINE
  5
14D
330
1F
100
AcDbEntity
  8
0-0
  6
JWW_HOJO
 62
   120
370
     5
100
AcDbLine
 10
-3425.000393841717
 20
823.3270814431324
 30
0.0
 11
-4409.099419608691
 21
823.3270814431324
 31
0.0
  0
LINE
  5
14E
330
1F
100
AcDbEntity
  8
0-4
  6
Continuous
 62
    92
370
    13
100
AcDbLine
 10
-4346.967385252728
 20
-651.6729984593097
 30
0.0
 11
-4400.000393841718
 21
-704.7060070483008
 31
0.0
  0
LINE
  5
14F
330
1F
100
AcDbEntity
  8
0-4
  6
Continuous
 62
    92
370
    13
100
AcDbLine
 10
-4343.860783534929
 20
-659.1729984593097
 30
0.0
 11
-4392.500393841718
 21
-707.8126087660991
 31
0.0
  0
LINE
  5
150
330
1F
100
AcDbEntity
  8
0-4
  6
Continuous
 62
    92
370
    13
100
AcDbLine
 10
-4400.000393841718
 20
-704.7060070483008
 30
0.0
 11
-4400.000393841718
 21
-951.6729984593097
 31
0.0
  0
LINE
  5
151
330
1F
100
AcDbEntity
  8
0-4
  6
Continuous
 62
    92
370
    13
100
AcDbLine
 10
-4392.500393841718
 20
-707.8126087660991
 30
0.0
 11
-4392.500393841718
 21
-944.1729984593097
 31
0.0
  0
LINE
  5
152
330
1F
100
AcDbEntity
  8
0-B
  6
Continuous
 62
   120
370
     5
100
AcDbLine
 10
-4550.000393841718
 20
-651.6729984593097
 30
0.0
 11
-4550.000393841718
 21
-951.6729984593097
 31
0.0
  0
LWPOLYLINE
  5
153
330
1F
100
AcDbEntity
  8
0-B
  6
Continuous
 62
     7
370
     9
100
AcDbPolyline
 90
        4
 70
     1
 43
3.0
 10
-4548.500393841717
 20
-651.6729984593097
 42
0.4142135623731
 10
-4550.000393841718
 20
-650.1729984593097
 42
0.4142135623731
 10
-4551.500393841718
 20
-651.6729984593097
 42
0.4142135623731
 10
-4550.000393841718
 20
-653.1729984593097
 42
0.4142135623731
  0
LINE
  5
154
330
1F
100
AcDbEntity
  8
0-B
  6
Continuous
 62
   120
370
     5
100
AcDbLine
 10
-4550.000393841718
 20
-651.6729984593097
 30
0.0
 11
-4475.000393841718
 21
-651.6729984593097
 31
0.0
  0
LINE
  5
155
330
1F
100
AcDbEntity
  8
0-B
  6
Continuous
 62
   120
370
     5
100
AcDbLine
 10
-4453.03340243071
 20
-545.606981281328
 30
0.0
 11
-4506.0664110197
 21
-598.6399898703187
 31
0.0
  0
LWPOLYLINE
  5
156
330
1F
100
AcDbEntity
  8
0-B
  6
Continuous
 62
     7
370
     9
100
AcDbPolyline
 90
        4
 70
     1
 43
3.0
 10
-4451.53340243071
 20
-545.606981281328
 42
0.4142135623731
 10
-4453.03340243071
 20
-544.106981281328
 42
0.4142135623731
 10
-4454.53340243071
 20
-545.606981281328
 42
0.4142135623731
 10
-4453.03340243071
 20
-547.106981281328
 42
0.4142135623731
  0
LWPOLYLINE
  5
157
330
1F
100
AcDbEntity
  8
0-B
  6
Continuous
 62
     7
370
     9
100
AcDbPolyline
 90
        4
 70
     1
 43
3.0
 10
-4504.566411019699
 20
-598.6399898703187
 42
0.4142135623731
 10
-4506.0664110197
 20
-597.1399898703186
 42
0.4142135623731
 10
-4507.5664110197
 20
-598.6399898703187
 42
0.4142135623731
 10
-4506.0664110197
 20
-600.1399898703187
 42
0.4142135623731
  0
LINE
  5
158
330
1F
100
AcDbEntity
  8
0-B
  6
Continuous
 62
   120
370
     5
100
AcDbLine
 10
-4453.03340243071
 20
-545.606981281328
 30
0.0
 11
-4400.000393841719
 21
-598.6399898703187
 31
0.0
  0
LINE
  5
159
330
1F
100
AcDbEntity
  8
0-B
  6
Continuous
 62
   120
370
     5
100
AcDbLine
 10
-4506.0664110197
 20
-598.6399898703187
 30
0.0
 11
-4453.03340243071
 21
-651.6729984593093
 31
0.0
  0
LWPOLYLINE
  5
15A
330
1F
100
AcDbEntity
  8
0-B
  6
Continuous
 62
     7
370
     9
100
AcDbPolyline
 90
        4
 70
     1
 43
3.0
 10
-4398.500393841717
 20
-426.6729984593093
 42
0.4142135623731
 10
-4400.000393841718
 20
-425.1729984593093
 42
0.4142135623731
 10
-4401.500393841718
 20
-426.6729984593093
 42
0.4142135623731
 10
-4400.000393841718
 20
-428.1729984593093
 42
0.4142135623731
  0
LINE
  5
15B
330
1F
100
AcDbEntity
  8
0-B
  6
Continuous
 62
   120
370
     5
100
AcDbLine
 10
-4400.000393841718
 20
-426.6729984593093
 30
0.0
 11
-4400.000393841718
 21
-576.6729984593093
 31
0.0
  0
LINE
  5
15C
330
1F
100
AcDbEntity
  8
0-4
  6
Continuous
 62
    92
370
    13
100
AcDbLine
 10
-3350.000393841717
 20
-951.6729984593097
 30
0.0
 11
-3350.000393841717
 21
-696.6729984593097
 31
0.0
  0
LINE
  5
15D
330
1F
100
AcDbEntity
  8
0-4
  6
Continuous
 62
    92
370
    13
100
AcDbLine
 10
-3357.500393841717
 20
-944.1729984593097
 30
0.0
 11
-3357.500393841717
 21
-704.1729984593097
 31
0.0
  0
LINE
  5
15E
330
1F
100
AcDbEntity
  8
0-B
  6
Continuous
 62
   120
370
     5
100
AcDbLine
 10
-3200.000393841717
 20
-696.6729984593097
 30
0.0
 11
-3200.000393841717
 21
-651.6729984593097
 31
0.0
  0
LWPOLYLINE
  5
15F
330
1F
100
AcDbEntity
  8
0-B
  6
Continuous
 62
     7
370
     9
100
AcDbPolyline
 90
        4
 70
     1
 43
3.0
 10
-3198.500393841717
 20
-696.6729984593097
 42
0.4142135623731
 10
-3200.000393841717
 20
-695.1729984593097
 42
0.4142135623731
 10
-3201.500393841717
 20
-696.6729984593097
 42
0.4142135623731
 10
-3200.000393841717
 20
-698.1729984593097
 42
0.4142135623731
  0
LWPOLYLINE
  5
160
330
1F
100
AcDbEntity
  8
0-B
  6
Continuous
 62
     7
370
     9
100
AcDbPolyline
 90
        4
 70
     1
 43
3.0
 10
-3198.500393841717
 20
-651.6729984593097
 42
0.4142135623731
 10
-3200.000393841717
 20
-650.1729984593097
 42
0.4142135623731
 10
-3201.500393841717
 20
-651.6729984593097
 42
0.4142135623731
 10
-3200.000393841717
 20
-653.1729984593097
 42
0.4142135623731
  0
LINE
  5
161
330
1F
100
AcDbEntity
  8
0-B
  6
Continuous
 62
   120
370
     5
100
AcDbLine
 10
-3200.000393841717
 20
-696.6729984593097
 30
0.0
 11
-3275.000393841717
 21
-696.6729984593097
 31
0.0
  0
LINE
  5
162
330
1F
100
AcDbEntity
  8
0-B
  6
Continuous
 62
   120
370
     5
100
AcDbLine
 10
-3200.000393841717
 20
-651.6729984593097
 30
0.0
 11
-3275.000393841717
 21
-651.6729984593097
 31
0.0
  0
LWPOLYLINE
  5
163
330
1F
100
AcDbEntity
  8
0-B
  6
Continuous
 62
     7
370
     9
100
AcDbPolyline
 90
        4
 70
     1
 43
3.0
 10
-3348.500393841717
 20
-543.8648435549931
 42
0.4142135623731
 10
-3350.000393841717
 20
-542.3648435549931
 42
0.4142135623731
 10
-3351.500393841717
 20
-543.8648435549931
 42
0.4142135623731
 10
-3350.000393841717
 20
-545.3648435549931
 42
0.4142135623731
  0
LINE
  5
164
330
1F
100
AcDbEntity
  8
0-B
  6
Continuous
 62
   120
370
     5
100
AcDbLine
 10
-3350.000393841717
 20
-426.6729984593093
 30
0.0
 11
-3350.000393841717
 21
-618.8648435549935
 31
0.0
  0
LINE
  5
165
330
1F
100
AcDbEntity
  8
0-B
  6
Continuous
 62
   120
370
     5
100
AcDbLine
 10
-4400.000393841718
 20
-426.6729984593093
 30
0.0
 11
-3350.000393841717
 21
-426.6729984593093
 31
0.0
  0
LWPOLYLINE
  5
166
330
1F
100
AcDbEntity
  8
0-B
  6
Continuous
 62
     7
370
     9
100
AcDbPolyline
 90
        4
 70
     1
 43
3.0
 10
-3348.500393841717
 20
-426.6729984593093
 42
0.4142135623731
 10
-3350.000393841717
 20
-425.1729984593093
 42
0.4142135623731
 10
-3351.500393841717
 20
-426.6729984593093
 42
0.4142135623731
 10
-3350.000393841717
 20
-428.1729984593093
 42
0.4142135623731
  0
LINE
  5
167
330
1F
100
AcDbEntity
  8
0-0
  6
JWW_HOJO
 62
   120
370
     5
100
AcDbLine
 10
-4409.099419608691
 20
-501.6729984593093
 30
0.0
 11
-4550.000393841718
 21
-642.5739726923365
 31
0.0
  0
LINE
  5
168
330
1F
100
AcDbEntity
  8
0-0
  6
JWW_HOJO
 62
   120
370
     5
100
AcDbLine
 10
-4550.000393841718
 20
-642.5739726923365
 30
0.0
 11
-4550.000393841718
 21
-951.6729984593097
 31
0.0
  0
LINE
  5
169
330
1F
100
AcDbEntity
  8
0-0
  6
JWW_HOJO
 62
   120
370
     5
100
AcDbLine
 10
-4378.03340243071
 20
-576.6729984593093
 30
0.0
 11
-4475.000393841718
 21
-673.6399898703187
 31
0.0
  0
LINE
  5
16A
330
1F
100
AcDbEntity
  8
0-0
  6
JWW_HOJO
 62
   120
370
     5
100
AcDbLine
 10
-4475.000393841718
 20
-673.6399898703187
 30
0.0
 11
-4475.000393841718
 21
-951.6729984593097
 31
0.0
  0
LINE
  5
16B
330
1F
100
AcDbEntity
  8
0-0
  6
JWW_HOJO
 62
   120
370
     5
100
AcDbLine
 10
-3350.000393841717
 20
-501.6729984593093
 30
0.0
 11
-4409.099419608691
 21
-501.6729984593093
 31
0.0
  0
LINE
  5
16C
330
1F
100
AcDbEntity
  8
0-0
  6
JWW_HOJO
 62
   120
370
     5
100
AcDbLine
 10
-3350.000393841717
 20
-576.6729984593093
 30
0.0
 11
-4378.03340243071
 21
-576.6729984593093
 31
0.0
  0
LINE
  5
16D
330
1F
100
AcDbEntity
  8
0-0
  6
JWW_HOJO
 62
   120
370
     5
100
AcDbLine
 10
-3275.000393841717
 20
-951.6729984593097
 30
0.0
 11
-3275.000393841717
 21
-651.6729984593097
 31
0.0
  0
LINE
  5
16E
330
1F
100
AcDbEntity
  8
0-0
  6
JWW_HOJO
 62
   120
370
     5
100
AcDbLine
 10
-3200.000393841717
 20
-951.6729984593097
 30
0.0
 11
-3200.000393841717
 21
-651.6729984593097
 31
0.0
  0
LINE
  5
16F
330
1F
100
AcDbEntity
  8
0-0
  6
JWW_HOJO
 62
   120
370
     5
100
AcDbLine
 10
-3350.000393841717
 20
-426.6729984593093
 30
0.0
 11
-4409.099419608691
 21
-426.6729984593093
 31
0.0
  0
LINE
  5
170
330
1F
100
AcDbEntity
  8
0-4
  6
Continuous
 62
    92
370
    13
100
AcDbLine
 10
-4346.967385252728
 20
-1901.673078361755
 30
0.0
 11
-4400.000393841718
 21
-1954.706086950746
 31
0.0
  0
LINE
  5
171
330
1F
100
AcDbEntity
  8
0-4
  6
Continuous
 62
    92
370
    13
100
AcDbLine
 10
-4343.860783534929
 20
-1909.173078361755
 30
0.0
 11
-4392.500393841718
 21
-1957.812688668544
 31
0.0
  0
LINE
  5
172
330
1F
100
AcDbEntity
  8
0-4
  6
Continuous
 62
    92
370
    13
100
AcDbLine
 10
-4400.000393841718
 20
-1954.706086950746
 30
0.0
 11
-4400.000393841718
 21
-2201.673078361755
 31
0.0
  0
LINE
  5
173
330
1F
100
AcDbEntity
  8
0-4
  6
Continuous
 62
    92
370
    13
100
AcDbLine
 10
-4392.500393841718
 20
-1957.812688668544
 30
0.0
 11
-4392.500393841718
 21
-2194.173078361755
 31
0.0
  0
LINE
  5
174
330
1F
100
AcDbEntity
  8
0-B
  6
Continuous
 62
   120
370
     5
100
AcDbLine
 10
-4550.000393841718
 20
-1901.673078361755
 30
0.0
 11
-4550.000393841718
 21
-2201.673078361755
 31
0.0
  0
LWPOLYLINE
  5
175
330
1F
100
AcDbEntity
  8
0-B
  6
Continuous
 62
     7
370
     9
100
AcDbPolyline
 90
        4
 70
     1
 43
3.0
 10
-4548.500393841717
 20
-1901.673078361755
 42
0.4142135623731
 10
-4550.000393841718
 20
-1900.173078361755
 42
0.4142135623731
 10
-4551.500393841718
 20
-1901.673078361755
 42
0.4142135623731
 10
-4550.000393841718
 20
-1903.173078361755
 42
0.4142135623731
  0
LINE
  5
176
330
1F
100
AcDbEntity
  8
0-B
  6
Continuous
 62
   120
370
     5
100
AcDbLine
 10
-4550.000393841718
 20
-1901.673078361755
 30
0.0
 11
-4475.000393841718
 21
-1901.673078361755
 31
0.0
  0
LINE
  5
177
330
1F
100
AcDbEntity
  8
0-B
  6
Continuous
 62
   120
370
     5
100
AcDbLine
 10
-4453.03340243071
 20
-1795.607061183773
 30
0.0
 11
-4506.0664110197
 21
-1848.640069772764
 31
0.0
  0
LWPOLYLINE
  5
178
330
1F
100
AcDbEntity
  8
0-B
  6
Continuous
 62
     7
370
     9
100
AcDbPolyline
 90
        4
 70
     1
 43
3.0
 10
-4451.53340243071
 20
-1795.607061183773
 42
0.4142135623731
 10
-4453.03340243071
 20
-1794.107061183773
 42
0.4142135623731
 10
-4454.53340243071
 20
-1795.607061183773
 42
0.4142135623731
 10
-4453.03340243071
 20
-1797.107061183773
 42
0.4142135623731
  0
LWPOLYLINE
  5
179
330
1F
100
AcDbEntity
  8
0-B
  6
Continuous
 62
     7
370
     9
100
AcDbPolyline
 90
        4
 70
     1
 43
3.0
 10
-4504.566411019699
 20
-1848.640069772764
 42
0.4142135623731
 10
-4506.0664110197
 20
-1847.140069772764
 42
0.4142135623731
 10
-4507.5664110197
 20
-1848.640069772764
 42
0.4142135623731
 10
-4506.0664110197
 20
-1850.140069772764
 42
0.4142135623731
  0
LINE
  5
17A
330
1F
100
AcDbEntity
  8
0-B
  6
Continuous
 62
   120
370
     5
100
AcDbLine
 10
-4453.03340243071
 20
-1795.607061183773
 30
0.0
 11
-4400.000393841719
 21
-1848.640069772764
 31
0.0
  0
LINE
  5
17B
330
1F
100
AcDbEntity
  8
0-B
  6
Continuous
 62
   120
370
     5
100
AcDbLine
 10
-4506.0664110197
 20
-1848.640069772764
 30
0.0
 11
-4453.03340243071
 21
-1901.673078361755
 31
0.0
  0
LWPOLYLINE
  5
17C
330
1F
100
AcDbEntity
  8
0-B
  6
Continuous
 62
     7
370
     9
100
AcDbPolyline
 90
        4
 70
     1
 43
3.0
 10
-4398.500393841717
 20
-1676.673078361755
 42
0.4142135623731
 10
-4400.000393841718
 20
-1675.173078361755
 42
0.4142135623731
 10
-4401.500393841718
 20
-1676.673078361755
 42
0.4142135623731
 10
-4400.000393841718
 20
-1678.173078361755
 42
0.4142135623731
  0
LINE
  5
17D
330
1F
100
AcDbEntity
  8
0-B
  6
Continuous
 62
   120
370
     5
100
AcDbLine
 10
-4400.000393841718
 20
-1676.673078361755
 30
0.0
 11
-4400.000393841718
 21
-1826.673078361755
 31
0.0
  0
LINE
  5
17E
330
1F
100
AcDbEntity
  8
0-4
  6
Continuous
 62
    92
370
    13
100
AcDbLine
 10
-3275.000393841717
 20
-2201.673078361755
 30
0.0
 11
-3275.000393841717
 21
-1946.673078361755
 31
0.0
  0
LINE
  5
17F
330
1F
100
AcDbEntity
  8
0-4
  6
Continuous
 62
    92
370
    13
100
AcDbLine
 10
-3282.500393841717
 20
-2194.173078361755
 30
0.0
 11
-3282.500393841717
 21
-1954.173078361755
 31
0.0
  0
LINE
  5
180
330
1F
100
AcDbEntity
  8
0-B
  6
Continuous
 62
   120
370
     5
100
AcDbLine
 10
-3125.000393841717
 20
-1946.673078361755
 30
0.0
 11
-3125.000393841717
 21
-1901.673078361755
 31
0.0
  0
LWPOLYLINE
  5
181
330
1F
100
AcDbEntity
  8
0-B
  6
Continuous
 62
     7
370
     9
100
AcDbPolyline
 90
        4
 70
     1
 43
3.0
 10
-3123.500393841717
 20
-1946.673078361755
 42
0.4142135623731
 10
-3125.000393841717
 20
-1945.173078361755
 42
0.4142135623731
 10
-3126.500393841717
 20
-1946.673078361755
 42
0.4142135623731
 10
-3125.000393841717
 20
-1948.173078361755
 42
0.4142135623731
  0
LWPOLYLINE
  5
182
330
1F
100
AcDbEntity
  8
0-B
  6
Continuous
 62
     7
370
     9
100
AcDbPolyline
 90
        4
 70
     1
 43
3.0
 10
-3123.500393841717
 20
-1901.673078361755
 42
0.4142135623731
 10
-3125.000393841717
 20
-1900.173078361755
 42
0.4142135623731
 10
-3126.500393841717
 20
-1901.673078361755
 42
0.4142135623731
 10
-3125.000393841717
 20
-1903.173078361755
 42
0.4142135623731
  0
LINE
  5
183
330
1F
100
AcDbEntity
  8
0-B
  6
Continuous
 62
   120
370
     5
100
AcDbLine
 10
-3125.000393841717
 20
-1946.673078361755
 30
0.0
 11
-3200.000393841717
 21
-1946.673078361755
 31
0.0
  0
LINE
  5
184
330
1F
100
AcDbEntity
  8
0-B
  6
Continuous
 62
   120
370
     5
100
AcDbLine
 10
-3125.000393841717
 20
-1901.673078361755
 30
0.0
 11
-3200.000393841717
 21
-1901.673078361755
 31
0.0
  0
LWPOLYLINE
  5
185
330
1F
100
AcDbEntity
  8
0-B
  6
Continuous
 62
     7
370
     9
100
AcDbPolyline
 90
        4
 70
     1
 43
3.0
 10
-3273.500393841717
 20
-1793.864923457439
 42
0.4142135623731
 10
-3275.000393841717
 20
-1792.364923457439
 42
0.4142135623731
 10
-3276.500393841717
 20
-1793.864923457439
 42
0.4142135623731
 10
-3275.000393841717
 20
-1795.364923457439
 42
0.4142135623731
  0
LINE
  5
186
330
1F
100
AcDbEntity
  8
0-B
  6
Continuous
 62
   120
370
     5
100
AcDbLine
 10
-3275.000393841717
 20
-1676.673078361755
 30
0.0
 11
-3275.000393841717
 21
-1868.864923457439
 31
0.0
  0
LINE
  5
187
330
1F
100
AcDbEntity
  8
0-B
  6
Continuous
 62
   120
370
     5
100
AcDbLine
 10
-4400.000393841718
 20
-1676.673078361755
 30
0.0
 11
-3275.000393841717
 21
-1676.673078361755
 31
0.0
  0
LWPOLYLINE
  5
188
330
1F
100
AcDbEntity
  8
0-B
  6
Continuous
 62
     7
370
     9
100
AcDbPolyline
 90
        4
 70
     1
 43
3.0
 10
-3273.500393841717
 20
-1676.673078361755
 42
0.4142135623731
 10
-3275.000393841717
 20
-1675.173078361755
 42
0.4142135623731
 10
-3276.500393841717
 20
-1676.673078361755
 42
0.4142135623731
 10
-3275.000393841717
 20
-1678.173078361755
 42
0.4142135623731
  0
LINE
  5
189
330
1F
100
AcDbEntity
  8
0-0
  6
JWW_HOJO
 62
   120
370
     5
100
AcDbLine
 10
-4409.099419608691
 20
-1751.673078361755
 30
0.0
 11
-4550.000393841718
 21
-1892.574052594782
 31
0.0
  0
LINE
  5
18A
330
1F
100
AcDbEntity
  8
0-0
  6
JWW_HOJO
 62
   120
370
     5
100
AcDbLine
 10
-4550.000393841718
 20
-1892.574052594782
 30
0.0
 11
-4550.000393841718
 21
-2201.673078361755
 31
0.0
  0
LINE
  5
18B
330
1F
100
AcDbEntity
  8
0-0
  6
JWW_HOJO
 62
   120
370
     5
100
AcDbLine
 10
-4378.03340243071
 20
-1826.673078361755
 30
0.0
 11
-4475.000393841718
 21
-1923.640069772764
 31
0.0
  0
LINE
  5
18C
330
1F
100
AcDbEntity
  8
0-0
  6
JWW_HOJO
 62
   120
370
     5
100
AcDbLine
 10
-4475.000393841718
 20
-1923.640069772764
 30
0.0
 11
-4475.000393841718
 21
-2201.673078361755
 31
0.0
  0
LINE
  5
18D
330
1F
100
AcDbEntity
  8
0-0
  6
JWW_HOJO
 62
   120
370
     5
100
AcDbLine
 10
-3275.000393841717
 20
-1751.673078361755
 30
0.0
 11
-4409.099419608691
 21
-1751.673078361755
 31
0.0
  0
LINE
  5
18E
330
1F
100
AcDbEntity
  8
0-0
  6
JWW_HOJO
 62
   120
370
     5
100
AcDbLine
 10
-3275.000393841717
 20
-1826.673078361755
 30
0.0
 11
-4378.03340243071
 21
-1826.673078361755
 31
0.0
  0
LINE
  5
18F
330
1F
100
AcDbEntity
  8
0-0
  6
JWW_HOJO
 62
   120
370
     5
100
AcDbLine
 10
-3200.000393841717
 20
-2201.673078361755
 30
0.0
 11
-3200.000393841717
 21
-1901.673078361755
 31
0.0
  0
LINE
  5
190
330
1F
100
AcDbEntity
  8
0-0
  6
JWW_HOJO
 62
   120
370
     5
100
AcDbLine
 10
-3125.000393841717
 20
-2201.673078361755
 30
0.0
 11
-3125.000393841717
 21
-1901.673078361755
 31
0.0
  0
LINE
  5
191
330
1F
100
AcDbEntity
  8
0-0
  6
JWW_HOJO
 62
   120
370
     5
100
AcDbLine
 10
-3275.000393841717
 20
-1676.673078361755
 30
0.0
 11
-4409.099419608691
 21
-1676.673078361755
 31
0.0
  0
LINE
  5
192
330
1F
100
AcDbEntity
  8
0-4
  6
Continuous
 62
    92
370
    13
100
AcDbLine
 10
-4346.967385252728
 20
-3147.500185064367
 30
0.0
 11
-4400.000393841718
 21
-3200.533193653358
 31
0.0
  0
LINE
  5
193
330
1F
100
AcDbEntity
  8
0-4
  6
Continuous
 62
    92
370
    13
100
AcDbLine
 10
-4343.860783534929
 20
-3155.000185064367
 30
0.0
 11
-4392.500393841718
 21
-3203.639795371157
 31
0.0
  0
LINE
  5
194
330
1F
100
AcDbEntity
  8
0-4
  6
Continuous
 62
    92
370
    13
100
AcDbLine
 10
-4400.000393841718
 20
-3200.533193653358
 30
0.0
 11
-4400.000393841718
 21
-3447.500185064367
 31
0.0
  0
LINE
  5
195
330
1F
100
AcDbEntity
  8
0-4
  6
Continuous
 62
    92
370
    13
100
AcDbLine
 10
-4392.500393841718
 20
-3203.639795371157
 30
0.0
 11
-4392.500393841718
 21
-3440.000185064367
 31
0.0
  0
LINE
  5
196
330
1F
100
AcDbEntity
  8
0-B
  6
Continuous
 62
   120
370
     5
100
AcDbLine
 10
-4550.000393841718
 20
-3147.500185064367
 30
0.0
 11
-4550.000393841718
 21
-3447.500185064367
 31
0.0
  0
LWPOLYLINE
  5
197
330
1F
100
AcDbEntity
  8
0-B
  6
Continuous
 62
     7
370
     9
100
AcDbPolyline
 90
        4
 70
     1
 43
3.0
 10
-4548.500393841717
 20
-3147.500185064367
 42
0.4142135623731
 10
-4550.000393841718
 20
-3146.000185064367
 42
0.4142135623731
 10
-4551.500393841718
 20
-3147.500185064367
 42
0.4142135623731
 10
-4550.000393841718
 20
-3149.000185064367
 42
0.4142135623731
  0
LINE
  5
198
330
1F
100
AcDbEntity
  8
0-B
  6
Continuous
 62
   120
370
     5
100
AcDbLine
 10
-4550.000393841718
 20
-3147.500185064367
 30
0.0
 11
-4475.000393841718
 21
-3147.500185064367
 31
0.0
  0
LINE
  5
199
330
1F
100
AcDbEntity
  8
0-B
  6
Continuous
 62
   120
370
     5
100
AcDbLine
 10
-4453.03340243071
 20
-3041.434167886386
 30
0.0
 11
-4506.0664110197
 21
-3094.467176475376
 31
0.0
  0
LWPOLYLINE
  5
19A
330
1F
100
AcDbEntity
  8
0-B
  6
Continuous
 62
     7
370
     9
100
AcDbPolyline
 90
        4
 70
     1
 43
3.0
 10
-4451.53340243071
 20
-3041.434167886386
 42
0.4142135623731
 10
-4453.03340243071
 20
-3039.934167886386
 42
0.4142135623731
 10
-4454.53340243071
 20
-3041.434167886386
 42
0.4142135623731
 10
-4453.03340243071
 20
-3042.934167886385
 42
0.4142135623731
  0
LWPOLYLINE
  5
19B
330
1F
100
AcDbEntity
  8
0-B
  6
Continuous
 62
     7
370
     9
100
AcDbPolyline
 90
        4
 70
     1
 43
3.0
 10
-4504.566411019699
 20
-3094.467176475376
 42
0.4142135623731
 10
-4506.0664110197
 20
-3092.967176475376
 42
0.4142135623731
 10
-4507.5664110197
 20
-3094.467176475376
 42
0.4142135623731
 10
-4506.0664110197
 20
-3095.967176475376
 42
0.4142135623731
  0
LINE
  5
19C
330
1F
100
AcDbEntity
  8
0-B
  6
Continuous
 62
   120
370
     5
100
AcDbLine
 10
-4453.03340243071
 20
-3041.434167886386
 30
0.0
 11
-4400.000393841719
 21
-3094.467176475376
 31
0.0
  0
LINE
  5
19D
330
1F
100
AcDbEntity
  8
0-B
  6
Continuous
 62
   120
370
     5
100
AcDbLine
 10
-4506.0664110197
 20
-3094.467176475376
 30
0.0
 11
-4453.03340243071
 21
-3147.500185064367
 31
0.0
  0
LWPOLYLINE
  5
19E
330
1F
100
AcDbEntity
  8
0-B
  6
Continuous
 62
     7
370
     9
100
AcDbPolyline
 90
        4
 70
     1
 43
3.0
 10
-4398.500393841717
 20
-2922.500185064367
 42
0.4142135623731
 10
-4400.000393841718
 20
-2921.000185064367
 42
0.4142135623731
 10
-4401.500393841718
 20
-2922.500185064367
 42
0.4142135623731
 10
-4400.000393841718
 20
-2924.000185064367
 42
0.4142135623731
  0
LINE
  5
19F
330
1F
100
AcDbEntity
  8
0-B
  6
Continuous
 62
   120
370
     5
100
AcDbLine
 10
-4400.000393841718
 20
-2922.500185064367
 30
0.0
 11
-4400.000393841718
 21
-3072.500185064367
 31
0.0
  0
LINE
  5
1A0
330
1F
100
AcDbEntity
  8
0-0
  6
JWW_HOJO
 62
   120
370
     5
100
AcDbLine
 10
-4409.099419608691
 20
-2997.500185064367
 30
0.0
 11
-4550.000393841718
 21
-3138.401159297394
 31
0.0
  0
LINE
  5
1A1
330
1F
100
AcDbEntity
  8
0-0
  6
JWW_HOJO
 62
   120
370
     5
100
AcDbLine
 10
-4550.000393841718
 20
-3138.401159297394
 30
0.0
 11
-4550.000393841718
 21
-3447.500185064367
 31
0.0
  0
LINE
  5
1A2
330
1F
100
AcDbEntity
  8
0-0
  6
JWW_HOJO
 62
   120
370
     5
100
AcDbLine
 10
-4378.03340243071
 20
-3072.500185064367
 30
0.0
 11
-4475.000393841718
 21
-3169.467176475376
 31
0.0
  0
LINE
  5
1A3
330
1F
100
AcDbEntity
  8
0-0
  6
JWW_HOJO
 62
   120
370
     5
100
AcDbLine
 10
-4475.000393841718
 20
-3169.467176475376
 30
0.0
 11
-4475.000393841718
 21
-3447.500185064367
 31
0.0
  0
LINE
  5
1A4
330
1F
100
AcDbEntity
  8
0-4
  6
Continuous
 62
    92
370
    13
100
AcDbLine
 10
-3200.000393841717
 20
-3447.500185064367
 30
0.0
 11
-3200.000393841717
 21
-3192.500185064367
 31
0.0
  0
LINE
  5
1A5
330
1F
100
AcDbEntity
  8
0-4
  6
Continuous
 62
    92
370
    13
100
AcDbLine
 10
-3207.500393841717
 20
-3440.000185064367
 30
0.0
 11
-3207.500393841717
 21
-3200.000185064367
 31
0.0
  0
LINE
  5
1A6
330
1F
100
AcDbEntity
  8
0-B
  6
Continuous
 62
   120
370
     5
100
AcDbLine
 10
-3050.000393841717
 20
-3192.500185064367
 30
0.0
 11
-3050.000393841717
 21
-3147.500185064367
 31
0.0
  0
LWPOLYLINE
  5
1A7
330
1F
100
AcDbEntity
  8
0-B
  6
Continuous
 62
     7
370
     9
100
AcDbPolyline
 90
        4
 70
     1
 43
3.0
 10
-3048.500393841717
 20
-3192.500185064367
 42
0.4142135623731
 10
-3050.000393841717
 20
-3191.000185064367
 42
0.4142135623731
 10
-3051.500393841717
 20
-3192.500185064367
 42
0.4142135623731
 10
-3050.000393841717
 20
-3194.000185064367
 42
0.4142135623731
  0
LWPOLYLINE
  5
1A8
330
1F
100
AcDbEntity
  8
0-B
  6
Continuous
 62
     7
370
     9
100
AcDbPolyline
 90
        4
 70
     1
 43
3.0
 10
-3048.500393841717
 20
-3147.500185064367
 42
0.4142135623731
 10
-3050.000393841717
 20
-3146.000185064367
 42
0.4142135623731
 10
-3051.500393841717
 20
-3147.500185064367
 42
0.4142135623731
 10
-3050.000393841717
 20
-3149.000185064367
 42
0.4142135623731
  0
LINE
  5
1A9
330
1F
100
AcDbEntity
  8
0-B
  6
Continuous
 62
   120
370
     5
100
AcDbLine
 10
-3050.000393841717
 20
-3192.500185064367
 30
0.0
 11
-3125.000393841717
 21
-3192.500185064367
 31
0.0
  0
LINE
  5
1AA
330
1F
100
AcDbEntity
  8
0-B
  6
Continuous
 62
   120
370
     5
100
AcDbLine
 10
-3050.000393841717
 20
-3147.500185064367
 30
0.0
 11
-3125.000393841717
 21
-3147.500185064367
 31
0.0
  0
LWPOLYLINE
  5
1AB
330
1F
100
AcDbEntity
  8
0-B
  6
Continuous
 62
     7
370
     9
100
AcDbPolyline
 90
        4
 70
     1
 43
3.0
 10
-3198.500393841717
 20
-3039.692030160051
 42
0.4142135623731
 10
-3200.000393841717
 20
-3038.192030160051
 42
0.4142135623731
 10
-3201.500393841717
 20
-3039.692030160051
 42
0.4142135623731
 10
-3200.000393841717
 20
-3041.192030160051
 42
0.4142135623731
  0
LINE
  5
1AC
330
1F
100
AcDbEntity
  8
0-B
  6
Continuous
 62
   120
370
     5
100
AcDbLine
 10
-3200.000393841717
 20
-2922.500185064367
 30
0.0
 11
-3200.000393841717
 21
-3114.692030160051
 31
0.0
  0
LINE
  5
1AD
330
1F
100
AcDbEntity
  8
0-B
  6
Continuous
 62
   120
370
     5
100
AcDbLine
 10
-4400.000393841718
 20
-2922.500185064367
 30
0.0
 11
-3200.000393841717
 21
-2922.500185064367
 31
0.0
  0
LWPOLYLINE
  5
1AE
330
1F
100
AcDbEntity
  8
0-B
  6
Continuous
 62
     7
370
     9
100
AcDbPolyline
 90
        4
 70
     1
 43
3.0
 10
-3198.500393841717
 20
-2922.500185064367
 42
0.4142135623731
 10
-3200.000393841717
 20
-2921.000185064367
 42
0.4142135623731
 10
-3201.500393841717
 20
-2922.500185064367
 42
0.4142135623731
 10
-3200.000393841717
 20
-2924.000185064367
 42
0.4142135623731
  0
LINE
  5
1AF
330
1F
100
AcDbEntity
  8
0-0
  6
JWW_HOJO
 62
   120
370
     5
100
AcDbLine
 10
-3200.000393841717
 20
-2997.500185064367
 30
0.0
 11
-4409.099419608691
 21
-2997.500185064367
 31
0.0
  0
LINE
  5
1B0
330
1F
100
AcDbEntity
  8
0-0
  6
JWW_HOJO
 62
   120
370
     5
100
AcDbLine
 10
-3200.000393841717
 20
-3072.500185064367
 30
0.0
 11
-4378.03340243071
 21
-3072.500185064367
 31
0.0
  0
LINE
  5
1B1
330
1F
100
AcDbEntity
  8
0-0
  6
JWW_HOJO
 62
   120
370
     5
100
AcDbLine
 10
-3125.000393841717
 20
-3447.500185064367
 30
0.0
 11
-3125.000393841717
 21
-3147.500185064367
 31
0.0
  0
LINE
  5
1B2
330
1F
100
AcDbEntity
  8
0-0
  6
JWW_HOJO
 62
   120
370
     5
100
AcDbLine
 10
-3050.000393841717
 20
-3447.500185064367
 30
0.0
 11
-3050.000393841717
 21
-3147.500185064367
 31
0.0
  0
LINE
  5
1B3
330
1F
100
AcDbEntity
  8
0-0
  6
JWW_HOJO
 62
   120
370
     5
100
AcDbLine
 10
-3200.000393841717
 20
-2922.500185064367
 30
0.0
 11
-4409.099419608691
 21
-2922.500185064367
 31
0.0
  0
LINE
  5
1B4
330
1F
100
AcDbEntity
  8
0-4
  6
Continuous
 62
    92
370
    13
100
AcDbLine
 10
1498.03309313093
 20
3098.327241248018
 30
0.0
 11
1445.00008454194
 21
3045.294232659027
 31
0.0
  0
LINE
  5
1B5
330
1F
100
AcDbEntity
  8
0-4
  6
Continuous
 62
    92
370
    13
100
AcDbLine
 10
1501.139694848729
 20
3090.827241248018
 30
0.0
 11
1452.50008454194
 21
3042.187630941229
 31
0.0
  0
LINE
  5
1B6
330
1F
100
AcDbEntity
  8
0-4
  6
Continuous
 62
    92
370
    13
100
AcDbLine
 10
1445.00008454194
 20
3045.294232659027
 30
0.0
 11
1445.00008454194
 21
2798.327241248018
 31
0.0
  0
LINE
  5
1B7
330
1F
100
AcDbEntity
  8
0-4
  6
Continuous
 62
    92
370
    13
100
AcDbLine
 10
1452.50008454194
 20
3042.187630941229
 30
0.0
 11
1452.50008454194
 21
2805.827241248018
 31
0.0
  0
LINE
  5
1B8
330
1F
100
AcDbEntity
  8
0-B
  6
Continuous
 62
   120
370
     5
100
AcDbLine
 10
1295.00008454194
 20
3098.327241248018
 30
0.0
 11
1295.00008454194
 21
2798.327241248018
 31
0.0
  0
LWPOLYLINE
  5
1B9
330
1F
100
AcDbEntity
  8
0-B
  6
Continuous
 62
     7
370
     9
100
AcDbPolyline
 90
        4
 70
     1
 43
3.0
 10
1296.50008454194
 20
3098.327241248018
 42
0.4142135623731
 10
1295.00008454194
 20
3099.827241248018
 42
0.4142135623731
 10
1293.50008454194
 20
3098.327241248018
 42
0.4142135623731
 10
1295.00008454194
 20
3096.827241248019
 42
0.4142135623731
  0
LINE
  5
1BA
330
1F
100
AcDbEntity
  8
0-B
  6
Continuous
 62
   120
370
     5
100
AcDbLine
 10
1295.00008454194
 20
3098.327241248018
 30
0.0
 11
1370.00008454194
 21
3098.327241248018
 31
0.0
  0
LINE
  5
1BB
330
1F
100
AcDbEntity
  8
0-B
  6
Continuous
 62
   120
370
     5
100
AcDbLine
 10
1391.967075952948
 20
3204.393258426
 30
0.0
 11
1338.934067363958
 21
3151.360249837009
 31
0.0
  0
LWPOLYLINE
  5
1BC
330
1F
100
AcDbEntity
  8
0-B
  6
Continuous
 62
     7
370
     9
100
AcDbPolyline
 90
        4
 70
     1
 43
3.0
 10
1393.467075952948
 20
3204.393258426
 42
0.4142135623731
 10
1391.967075952948
 20
3205.893258426
 42
0.4142135623731
 10
1390.467075952949
 20
3204.393258426
 42
0.4142135623731
 10
1391.967075952948
 20
3202.893258426
 42
0.4142135623731
  0
LWPOLYLINE
  5
1BD
330
1F
100
AcDbEntity
  8
0-B
  6
Continuous
 62
     7
370
     9
100
AcDbPolyline
 90
        4
 70
     1
 43
3.0
 10
1340.434067363958
 20
3151.360249837009
 42
0.4142135623731
 10
1338.934067363958
 20
3152.860249837009
 42
0.4142135623731
 10
1337.434067363958
 20
3151.360249837009
 42
0.4142135623731
 10
1338.934067363958
 20
3149.860249837009
 42
0.4142135623731
  0
LINE
  5
1BE
330
1F
100
AcDbEntity
  8
0-B
  6
Continuous
 62
   120
370
     5
100
AcDbLine
 10
1391.967075952948
 20
3204.393258426
 30
0.0
 11
1445.000084541939
 21
3151.360249837009
 31
0.0
  0
LINE
  5
1BF
330
1F
100
AcDbEntity
  8
0-B
  6
Continuous
 62
   120
370
     5
100
AcDbLine
 10
1338.934067363958
 20
3151.360249837009
 30
0.0
 11
1391.967075952948
 21
3098.327241248018
 31
0.0
  0
LWPOLYLINE
  5
1C0
330
1F
100
AcDbEntity
  8
0-B
  6
Continuous
 62
     7
370
     9
100
AcDbPolyline
 90
        4
 70
     1
 43
3.0
 10
1446.50008454194
 20
3323.327241248017
 42
0.4142135623731
 10
1445.00008454194
 20
3324.827241248017
 42
0.4142135623731
 10
1443.50008454194
 20
3323.327241248017
 42
0.4142135623731
 10
1445.00008454194
 20
3321.827241248018
 42
0.4142135623731
  0
LINE
  5
1C1
330
1F
100
AcDbEntity
  8
0-B
  6
Continuous
 62
   120
370
     5
100
AcDbLine
 10
1445.00008454194
 20
3323.327241248017
 30
0.0
 11
1445.00008454194
 21
3173.327241248018
 31
0.0
  0
LINE
  5
1C2
330
1F
100
AcDbEntity
  8
0-0
  6
JWW_HOJO
 62
   120
370
     5
100
AcDbLine
 10
1435.901058774966
 20
3248.327241248017
 30
0.0
 11
1295.00008454194
 21
3107.426267014991
 31
0.0
  0
LINE
  5
1C3
330
1F
100
AcDbEntity
  8
0-0
  6
JWW_HOJO
 62
   120
370
     5
100
AcDbLine
 10
1295.00008454194
 20
3107.426267014991
 30
0.0
 11
1295.00008454194
 21
2798.327241248018
 31
0.0
  0
LINE
  5
1C4
330
1F
100
AcDbEntity
  8
0-0
  6
JWW_HOJO
 62
   120
370
     5
100
AcDbLine
 10
1466.967075952948
 20
3173.327241248018
 30
0.0
 11
1370.00008454194
 21
3076.360249837009
 31
0.0
  0
LINE
  5
1C5
330
1F
100
AcDbEntity
  8
0-0
  6
JWW_HOJO
 62
   120
370
     5
100
AcDbLine
 10
1370.00008454194
 20
3076.360249837009
 30
0.0
 11
1370.00008454194
 21
2798.327241248018
 31
0.0
  0
LINE
  5
1C6
330
1F
100
AcDbEntity
  8
0-4
  6
Continuous
 62
    92
370
    13
100
AcDbLine
 10
2720.00008454194
 20
2798.327241248018
 30
0.0
 11
2720.00008454194
 21
3053.327241248018
 31
0.0
  0
LINE
  5
1C7
330
1F
100
AcDbEntity
  8
0-4
  6
Continuous
 62
    92
370
    13
100
AcDbLine
 10
2712.50008454194
 20
2805.827241248018
 30
0.0
 11
2712.50008454194
 21
3045.827241248018
 31
0.0
  0
LINE
  5
1C8
330
1F
100
AcDbEntity
  8
0-B
  6
Continuous
 62
   120
370
     5
100
AcDbLine
 10
2870.00008454194
 20
3053.327241248018
 30
0.0
 11
2870.00008454194
 21
3098.327241248018
 31
0.0
  0
LWPOLYLINE
  5
1C9
330
1F
100
AcDbEntity
  8
0-B
  6
Continuous
 62
     7
370
     9
100
AcDbPolyline
 90
        4
 70
     1
 43
3.0
 10
2871.50008454194
 20
3053.327241248018
 42
0.4142135623731
 10
2870.00008454194
 20
3054.827241248018
 42
0.4142135623731
 10
2868.50008454194
 20
3053.327241248018
 42
0.4142135623731
 10
2870.00008454194
 20
3051.827241248019
 42
0.4142135623731
  0
LWPOLYLINE
  5
1CA
330
1F
100
AcDbEntity
  8
0-B
  6
Continuous
 62
     7
370
     9
100
AcDbPolyline
 90
        4
 70
     1
 43
3.0
 10
2871.50008454194
 20
3098.327241248018
 42
0.4142135623731
 10
2870.00008454194
 20
3099.827241248018
 42
0.4142135623731
 10
2868.50008454194
 20
3098.327241248018
 42
0.4142135623731
 10
2870.00008454194
 20
3096.827241248019
 42
0.4142135623731
  0
LINE
  5
1CB
330
1F
100
AcDbEntity
  8
0-B
  6
Continuous
 62
   120
370
     5
100
AcDbLine
 10
2870.00008454194
 20
3053.327241248018
 30
0.0
 11
2795.00008454194
 21
3053.327241248018
 31
0.0
  0
LINE
  5
1CC
330
1F
100
AcDbEntity
  8
0-B
  6
Continuous
 62
   120
370
     5
100
AcDbLine
 10
2870.00008454194
 20
3098.327241248018
 30
0.0
 11
2795.00008454194
 21
3098.327241248018
 31
0.0
  0
LWPOLYLINE
  5
1CD
330
1F
100
AcDbEntity
  8
0-B
  6
Continuous
 62
     7
370
     9
100
AcDbPolyline
 90
        4
 70
     1
 43
3.0
 10
2721.50008454194
 20
3206.135396152335
 42
0.4142135623731
 10
2720.00008454194
 20
3207.635396152335
 42
0.4142135623731
 10
2718.50008454194
 20
3206.135396152335
 42
0.4142135623731
 10
2720.00008454194
 20
3204.635396152335
 42
0.4142135623731
  0
LINE
  5
1CE
330
1F
100
AcDbEntity
  8
0-B
  6
Continuous
 62
   120
370
     5
100
AcDbLine
 10
2720.00008454194
 20
3323.327241248017
 30
0.0
 11
2720.00008454194
 21
3131.135396152335
 31
0.0
  0
LINE
  5
1CF
330
1F
100
AcDbEntity
  8
0-B
  6
Continuous
 62
   120
370
     5
100
AcDbLine
 10
1445.00008454194
 20
3323.327241248017
 30
0.0
 11
2720.00008454194
 21
3323.327241248017
 31
0.0
  0
LWPOLYLINE
  5
1D0
330
1F
100
AcDbEntity
  8
0-B
  6
Continuous
 62
     7
370
     9
100
AcDbPolyline
 90
        4
 70
     1
 43
3.0
 10
2721.50008454194
 20
3323.327241248017
 42
0.4142135623731
 10
2720.00008454194
 20
3324.827241248017
 42
0.4142135623731
 10
2718.50008454194
 20
3323.327241248017
 42
0.4142135623731
 10
2720.00008454194
 20
3321.827241248018
 42
0.4142135623731
  0
LINE
  5
1D1
330
1F
100
AcDbEntity
  8
0-0
  6
JWW_HOJO
 62
   120
370
     5
100
AcDbLine
 10
2720.00008454194
 20
3248.327241248017
 30
0.0
 11
1435.901058774966
 21
3248.327241248017
 31
0.0
  0
LINE
  5
1D2
330
1F
100
AcDbEntity
  8
0-0
  6
JWW_HOJO
 62
   120
370
     5
100
AcDbLine
 10
2720.00008454194
 20
3173.327241248018
 30
0.0
 11
1466.967075952948
 21
3173.327241248018
 31
0.0
  0
LINE
  5
1D3
330
1F
100
AcDbEntity
  8
0-0
  6
JWW_HOJO
 62
   120
370
     5
100
AcDbLine
 10
2795.00008454194
 20
2798.327241248018
 30
0.0
 11
2795.00008454194
 21
3098.327241248018
 31
0.0
  0
LINE
  5
1D4
330
1F
100
AcDbEntity
  8
0-0
  6
JWW_HOJO
 62
   120
370
     5
100
AcDbLine
 10
2870.00008454194
 20
2798.327241248018
 30
0.0
 11
2870.00008454194
 21
3098.327241248018
 31
0.0
  0
LINE
  5
1D5
330
1F
100
AcDbEntity
  8
0-0
  6
JWW_HOJO
 62
   120
370
     5
100
AcDbLine
 10
2720.00008454194
 20
3323.327241248017
 30
0.0
 11
1435.901058774966
 21
3323.327241248017
 31
0.0
  0
LINE
  5
1D6
330
1F
100
AcDbEntity
  8
0-4
  6
Continuous
 62
    92
370
    13
100
AcDbLine
 10
1498.03309313093
 20
1848.327161345575
 30
0.0
 11
1445.00008454194
 21
1795.294152756584
 31
0.0
  0
LINE
  5
1D7
330
1F
100
AcDbEntity
  8
0-4
  6
Continuous
 62
    92
370
    13
100
AcDbLine
 10
1501.139694848729
 20
1840.827161345575
 30
0.0
 11
1452.50008454194
 21
1792.187551038786
 31
0.0
  0
LINE
  5
1D8
330
1F
100
AcDbEntity
  8
0-4
  6
Continuous
 62
    92
370
    13
100
AcDbLine
 10
1445.00008454194
 20
1795.294152756584
 30
0.0
 11
1445.00008454194
 21
1548.327161345575
 31
0.0
  0
LINE
  5
1D9
330
1F
100
AcDbEntity
  8
0-4
  6
Continuous
 62
    92
370
    13
100
AcDbLine
 10
1452.50008454194
 20
1792.187551038786
 30
0.0
 11
1452.50008454194
 21
1555.827161345575
 31
0.0
  0
LINE
  5
1DA
330
1F
100
AcDbEntity
  8
0-B
  6
Continuous
 62
   120
370
     5
100
AcDbLine
 10
1295.00008454194
 20
1848.327161345575
 30
0.0
 11
1295.00008454194
 21
1548.327161345575
 31
0.0
  0
LWPOLYLINE
  5
1DB
330
1F
100
AcDbEntity
  8
0-B
  6
Continuous
 62
     7
370
     9
100
AcDbPolyline
 90
        4
 70
     1
 43
3.0
 10
1296.50008454194
 20
1848.327161345575
 42
0.4142135623731
 10
1295.00008454194
 20
1849.827161345575
 42
0.4142135623731
 10
1293.50008454194
 20
1848.327161345575
 42
0.4142135623731
 10
1295.00008454194
 20
1846.827161345575
 42
0.4142135623731
  0
LINE
  5
1DC
330
1F
100
AcDbEntity
  8
0-B
  6
Continuous
 62
   120
370
     5
100
AcDbLine
 10
1295.00008454194
 20
1848.327161345575
 30
0.0
 11
1370.00008454194
 21
1848.327161345575
 31
0.0
  0
LINE
  5
1DD
330
1F
100
AcDbEntity
  8
0-B
  6
Continuous
 62
   120
370
     5
100
AcDbLine
 10
1391.967075952948
 20
1954.393178523557
 30
0.0
 11
1338.934067363958
 21
1901.360169934566
 31
0.0
  0
LWPOLYLINE
  5
1DE
330
1F
100
AcDbEntity
  8
0-B
  6
Continuous
 62
     7
370
     9
100
AcDbPolyline
 90
        4
 70
     1
 43
3.0
 10
1393.467075952948
 20
1954.393178523557
 42
0.4142135623731
 10
1391.967075952948
 20
1955.893178523557
 42
0.4142135623731
 10
1390.467075952949
 20
1954.393178523557
 42
0.4142135623731
 10
1391.967075952948
 20
1952.893178523557
 42
0.4142135623731
  0
LWPOLYLINE
  5
1DF
330
1F
100
AcDbEntity
  8
0-B
  6
Continuous
 62
     7
370
     9
100
AcDbPolyline
 90
        4
 70
     1
 43
3.0
 10
1340.434067363958
 20
1901.360169934566
 42
0.4142135623731
 10
1338.934067363958
 20
1902.860169934566
 42
0.4142135623731
 10
1337.434067363958
 20
1901.360169934566
 42
0.4142135623731
 10
1338.934067363958
 20
1899.860169934566
 42
0.4142135623731
  0
LINE
  5
1E0
330
1F
100
AcDbEntity
  8
0-B
  6
Continuous
 62
   120
370
     5
100
AcDbLine
 10
1391.967075952948
 20
1954.393178523557
 30
0.0
 11
1445.000084541939
 21
1901.360169934566
 31
0.0
  0
LINE
  5
1E1
330
1F
100
AcDbEntity
  8
0-B
  6
Continuous
 62
   120
370
     5
100
AcDbLine
 10
1338.934067363958
 20
1901.360169934566
 30
0.0
 11
1391.967075952948
 21
1848.327161345576
 31
0.0
  0
LWPOLYLINE
  5
1E2
330
1F
100
AcDbEntity
  8
0-B
  6
Continuous
 62
     7
370
     9
100
AcDbPolyline
 90
        4
 70
     1
 43
3.0
 10
1446.50008454194
 20
2073.327161345575
 42
0.4142135623731
 10
1445.00008454194
 20
2074.827161345575
 42
0.4142135623731
 10
1443.50008454194
 20
2073.327161345575
 42
0.4142135623731
 10
1445.00008454194
 20
2071.827161345575
 42
0.4142135623731
  0
LINE
  5
1E3
330
1F
100
AcDbEntity
  8
0-B
  6
Continuous
 62
   120
370
     5
100
AcDbLine
 10
1445.00008454194
 20
2073.327161345575
 30
0.0
 11
1445.00008454194
 21
1923.327161345575
 31
0.0
  0
LINE
  5
1E4
330
1F
100
AcDbEntity
  8
0-0
  6
JWW_HOJO
 62
   120
370
     5
100
AcDbLine
 10
1435.901058774966
 20
1998.327161345575
 30
0.0
 11
1295.00008454194
 21
1857.426187112549
 31
0.0
  0
LINE
  5
1E5
330
1F
100
AcDbEntity
  8
0-0
  6
JWW_HOJO
 62
   120
370
     5
100
AcDbLine
 10
1295.00008454194
 20
1857.426187112549
 30
0.0
 11
1295.00008454194
 21
1548.327161345575
 31
0.0
  0
LINE
  5
1E6
330
1F
100
AcDbEntity
  8
0-0
  6
JWW_HOJO
 62
   120
370
     5
100
AcDbLine
 10
1466.967075952948
 20
1923.327161345575
 30
0.0
 11
1370.00008454194
 21
1826.360169934566
 31
0.0
  0
LINE
  5
1E7
330
1F
100
AcDbEntity
  8
0-0
  6
JWW_HOJO
 62
   120
370
     5
100
AcDbLine
 10
1370.00008454194
 20
1826.360169934566
 30
0.0
 11
1370.00008454194
 21
1548.327161345575
 31
0.0
  0
LINE
  5
1E8
330
1F
100
AcDbEntity
  8
0-4
  6
Continuous
 62
    92
370
    13
100
AcDbLine
 10
2795.00008454194
 20
1548.327161345575
 30
0.0
 11
2795.00008454194
 21
1803.327161345575
 31
0.0
  0
LINE
  5
1E9
330
1F
100
AcDbEntity
  8
0-4
  6
Continuous
 62
    92
370
    13
100
AcDbLine
 10
2787.50008454194
 20
1555.827161345575
 30
0.0
 11
2787.50008454194
 21
1795.827161345575
 31
0.0
  0
LINE
  5
1EA
330
1F
100
AcDbEntity
  8
0-B
  6
Continuous
 62
   120
370
     5
100
AcDbLine
 10
2945.00008454194
 20
1803.327161345575
 30
0.0
 11
2945.00008454194
 21
1848.327161345575
 31
0.0
  0
LWPOLYLINE
  5
1EB
330
1F
100
AcDbEntity
  8
0-B
  6
Continuous
 62
     7
370
     9
100
AcDbPolyline
 90
        4
 70
     1
 43
3.0
 10
2946.50008454194
 20
1803.327161345575
 42
0.4142135623731
 10
2945.00008454194
 20
1804.827161345575
 42
0.4142135623731
 10
2943.50008454194
 20
1803.327161345575
 42
0.4142135623731
 10
2945.00008454194
 20
1801.827161345575
 42
0.4142135623731
  0
LWPOLYLINE
  5
1EC
330
1F
100
AcDbEntity
  8
0-B
  6
Continuous
 62
     7
370
     9
100
AcDbPolyline
 90
        4
 70
     1
 43
3.0
 10
2946.50008454194
 20
1848.327161345575
 42
0.4142135623731
 10
2945.00008454194
 20
1849.827161345575
 42
0.4142135623731
 10
2943.50008454194
 20
1848.327161345575
 42
0.4142135623731
 10
2945.00008454194
 20
1846.827161345575
 42
0.4142135623731
  0
LINE
  5
1ED
330
1F
100
AcDbEntity
  8
0-B
  6
Continuous
 62
   120
370
     5
100
AcDbLine
 10
2945.00008454194
 20
1803.327161345575
 30
0.0
 11
2870.00008454194
 21
1803.327161345575
 31
0.0
  0
LINE
  5
1EE
330
1F
100
AcDbEntity
  8
0-B
  6
Continuous
 62
   120
370
     5
100
AcDbLine
 10
2945.00008454194
 20
1848.327161345575
 30
0.0
 11
2870.00008454194
 21
1848.327161345575
 31
0.0
  0
LWPOLYLINE
  5
1EF
330
1F
100
AcDbEntity
  8
0-B
  6
Continuous
 62
     7
370
     9
100
AcDbPolyline
 90
        4
 70
     1
 43
3.0
 10
2796.50008454194
 20
1956.135316249891
 42
0.4142135623731
 10
2795.00008454194
 20
1957.635316249891
 42
0.4142135623731
 10
2793.50008454194
 20
1956.135316249891
 42
0.4142135623731
 10
2795.00008454194
 20
1954.635316249891
 42
0.4142135623731
  0
LINE
  5
1F0
330
1F
100
AcDbEntity
  8
0-B
  6
Continuous
 62
   120
370
     5
100
AcDbLine
 10
2795.00008454194
 20
2073.327161345575
 30
0.0
 11
2795.00008454194
 21
1881.135316249891
 31
0.0
  0
LINE
  5
1F1
330
1F
100
AcDbEntity
  8
0-B
  6
Continuous
 62
   120
370
     5
100
AcDbLine
 10
1445.00008454194
 20
2073.327161345575
 30
0.0
 11
2795.00008454194
 21
2073.327161345575
 31
0.0
  0
LWPOLYLINE
  5
1F2
330
1F
100
AcDbEntity
  8
0-B
  6
Continuous
 62
     7
370
     9
100
AcDbPolyline
 90
        4
 70
     1
 43
3.0
 10
2796.50008454194
 20
2073.327161345575
 42
0.4142135623731
 10
2795.00008454194
 20
2074.827161345575
 42
0.4142135623731
 10
2793.50008454194
 20
2073.327161345575
 42
0.4142135623731
 10
2795.00008454194
 20
2071.827161345575
 42
0.4142135623731
  0
LINE
  5
1F3
330
1F
100
AcDbEntity
  8
0-0
  6
JWW_HOJO
 62
   120
370
     5
100
AcDbLine
 10
2795.00008454194
 20
1998.327161345575
 30
0.0
 11
1435.901058774966
 21
1998.327161345575
 31
0.0
  0
LINE
  5
1F4
330
1F
100
AcDbEntity
  8
0-0
  6
JWW_HOJO
 62
   120
370
     5
100
AcDbLine
 10
2795.00008454194
 20
1923.327161345575
 30
0.0
 11
1466.967075952948
 21
1923.327161345575
 31
0.0
  0
LINE
  5
1F5
330
1F
100
AcDbEntity
  8
0-0
  6
JWW_HOJO
 62
   120
370
     5
100
AcDbLine
 10
2870.00008454194
 20
1548.327161345575
 30
0.0
 11
2870.00008454194
 21
1848.327161345575
 31
0.0
  0
LINE
  5
1F6
330
1F
100
AcDbEntity
  8
0-0
  6
JWW_HOJO
 62
   120
370
     5
100
AcDbLine
 10
2945.00008454194
 20
1548.327161345575
 30
0.0
 11
2945.00008454194
 21
1848.327161345575
 31
0.0
  0
LINE
  5
1F7
330
1F
100
AcDbEntity
  8
0-0
  6
JWW_HOJO
 62
   120
370
     5
100
AcDbLine
 10
2795.00008454194
 20
2073.327161345575
 30
0.0
 11
1435.901058774966
 21
2073.327161345575
 31
0.0
  0
LINE
  5
1F8
330
1F
100
AcDbEntity
  8
0-4
  6
Continuous
 62
    92
370
    13
100
AcDbLine
 10
1498.03309313093
 20
598.3270814431324
 30
0.0
 11
1445.00008454194
 21
545.2940728541419
 31
0.0
  0
LINE
  5
1F9
330
1F
100
AcDbEntity
  8
0-4
  6
Continuous
 62
    92
370
    13
100
AcDbLine
 10
1501.139694848729
 20
590.8270814431324
 30
0.0
 11
1452.50008454194
 21
542.1874711363434
 31
0.0
  0
LINE
  5
1FA
330
1F
100
AcDbEntity
  8
0-4
  6
Continuous
 62
    92
370
    13
100
AcDbLine
 10
1445.00008454194
 20
545.2940728541419
 30
0.0
 11
1445.00008454194
 21
298.3270814431324
 31
0.0
  0
LINE
  5
1FB
330
1F
100
AcDbEntity
  8
0-4
  6
Continuous
 62
    92
370
    13
100
AcDbLine
 10
1452.50008454194
 20
542.1874711363434
 30
0.0
 11
1452.50008454194
 21
305.8270814431324
 31
0.0
  0
LINE
  5
1FC
330
1F
100
AcDbEntity
  8
0-B
  6
Continuous
 62
   120
370
     5
100
AcDbLine
 10
1295.00008454194
 20
598.3270814431324
 30
0.0
 11
1295.00008454194
 21
298.3270814431324
 31
0.0
  0
LWPOLYLINE
  5
1FD
330
1F
100
AcDbEntity
  8
0-B
  6
Continuous
 62
     7
370
     9
100
AcDbPolyline
 90
        4
 70
     1
 43
3.0
 10
1296.50008454194
 20
598.3270814431324
 42
0.4142135623731
 10
1295.00008454194
 20
599.8270814431324
 42
0.4142135623731
 10
1293.50008454194
 20
598.3270814431324
 42
0.4142135623731
 10
1295.00008454194
 20
596.8270814431324
 42
0.4142135623731
  0
LINE
  5
1FE
330
1F
100
AcDbEntity
  8
0-B
  6
Continuous
 62
   120
370
     5
100
AcDbLine
 10
1295.00008454194
 20
598.3270814431324
 30
0.0
 11
1370.00008454194
 21
598.3270814431324
 31
0.0
  0
LINE
  5
1FF
330
1F
100
AcDbEntity
  8
0-B
  6
Continuous
 62
   120
370
     5
100
AcDbLine
 10
1391.967075952948
 20
704.3930986211146
 30
0.0
 11
1338.934067363958
 21
651.3600900321239
 31
0.0
  0
LWPOLYLINE
  5
200
330
1F
100
AcDbEntity
  8
0-B
  6
Continuous
 62
     7
370
     9
100
AcDbPolyline
 90
        4
 70
     1
 43
3.0
 10
1393.467075952948
 20
704.3930986211146
 42
0.4142135623731
 10
1391.967075952948
 20
705.8930986211146
 42
0.4142135623731
 10
1390.467075952949
 20
704.3930986211146
 42
0.4142135623731
 10
1391.967075952948
 20
702.8930986211145
 42
0.4142135623731
  0
LWPOLYLINE
  5
201
330
1F
100
AcDbEntity
  8
0-B
  6
Continuous
 62
     7
370
     9
100
AcDbPolyline
 90
        4
 70
     1
 43
3.0
 10
1340.434067363958
 20
651.3600900321239
 42
0.4142135623731
 10
1338.934067363958
 20
652.8600900321239
 42
0.4142135623731
 10
1337.434067363958
 20
651.3600900321239
 42
0.4142135623731
 10
1338.934067363958
 20
649.8600900321239
 42
0.4142135623731
  0
LINE
  5
202
330
1F
100
AcDbEntity
  8
0-B
  6
Continuous
 62
   120
370
     5
100
AcDbLine
 10
1391.967075952948
 20
704.3930986211146
 30
0.0
 11
1445.000084541939
 21
651.3600900321239
 31
0.0
  0
LINE
  5
203
330
1F
100
AcDbEntity
  8
0-B
  6
Continuous
 62
   120
370
     5
100
AcDbLine
 10
1338.934067363958
 20
651.3600900321239
 30
0.0
 11
1391.967075952948
 21
598.3270814431332
 31
0.0
  0
LWPOLYLINE
  5
204
330
1F
100
AcDbEntity
  8
0-B
  6
Continuous
 62
     7
370
     9
100
AcDbPolyline
 90
        4
 70
     1
 43
3.0
 10
1446.50008454194
 20
823.3270814431324
 42
0.4142135623731
 10
1445.00008454194
 20
824.8270814431324
 42
0.4142135623731
 10
1443.50008454194
 20
823.3270814431324
 42
0.4142135623731
 10
1445.00008454194
 20
821.8270814431324
 42
0.4142135623731
  0
LINE
  5
205
330
1F
100
AcDbEntity
  8
0-B
  6
Continuous
 62
   120
370
     5
100
AcDbLine
 10
1445.00008454194
 20
823.3270814431324
 30
0.0
 11
1445.00008454194
 21
673.3270814431324
 31
0.0
  0
LINE
  5
206
330
1F
100
AcDbEntity
  8
0-0
  6
JWW_HOJO
 62
   120
370
     5
100
AcDbLine
 10
1435.901058774966
 20
748.3270814431324
 30
0.0
 11
1295.00008454194
 21
607.426107210106
 31
0.0
  0
LINE
  5
207
330
1F
100
AcDbEntity
  8
0-0
  6
JWW_HOJO
 62
   120
370
     5
100
AcDbLine
 10
1295.00008454194
 20
607.426107210106
 30
0.0
 11
1295.00008454194
 21
298.3270814431324
 31
0.0
  0
LINE
  5
208
330
1F
100
AcDbEntity
  8
0-0
  6
JWW_HOJO
 62
   120
370
     5
100
AcDbLine
 10
1466.967075952948
 20
673.3270814431324
 30
0.0
 11
1370.00008454194
 21
576.3600900321239
 31
0.0
  0
LINE
  5
209
330
1F
100
AcDbEntity
  8
0-0
  6
JWW_HOJO
 62
   120
370
     5
100
AcDbLine
 10
1370.00008454194
 20
576.3600900321239
 30
0.0
 11
1370.00008454194
 21
298.3270814431324
 31
0.0
  0
LINE
  5
20A
330
1F
100
AcDbEntity
  8
0-4
  6
Continuous
 62
    92
370
    13
100
AcDbLine
 10
2870.00008454194
 20
298.3270814431324
 30
0.0
 11
2870.00008454194
 21
553.3270814431324
 31
0.0
  0
LINE
  5
20B
330
1F
100
AcDbEntity
  8
0-4
  6
Continuous
 62
    92
370
    13
100
AcDbLine
 10
2862.50008454194
 20
305.8270814431324
 30
0.0
 11
2862.50008454194
 21
545.8270814431324
 31
0.0
  0
LINE
  5
20C
330
1F
100
AcDbEntity
  8
0-B
  6
Continuous
 62
   120
370
     5
100
AcDbLine
 10
3020.00008454194
 20
553.3270814431324
 30
0.0
 11
3020.00008454194
 21
598.3270814431324
 31
0.0
  0
LWPOLYLINE
  5
20D
330
1F
100
AcDbEntity
  8
0-B
  6
Continuous
 62
     7
370
     9
100
AcDbPolyline
 90
        4
 70
     1
 43
3.0
 10
3021.50008454194
 20
553.3270814431324
 42
0.4142135623731
 10
3020.00008454194
 20
554.8270814431324
 42
0.4142135623731
 10
3018.50008454194
 20
553.3270814431324
 42
0.4142135623731
 10
3020.00008454194
 20
551.8270814431324
 42
0.4142135623731
  0
LWPOLYLINE
  5
20E
330
1F
100
AcDbEntity
  8
0-B
  6
Continuous
 62
     7
370
     9
100
AcDbPolyline
 90
        4
 70
     1
 43
3.0
 10
3021.50008454194
 20
598.3270814431324
 42
0.4142135623731
 10
3020.00008454194
 20
599.8270814431324
 42
0.4142135623731
 10
3018.50008454194
 20
598.3270814431324
 42
0.4142135623731
 10
3020.00008454194
 20
596.8270814431324
 42
0.4142135623731
  0
LINE
  5
20F
330
1F
100
AcDbEntity
  8
0-B
  6
Continuous
 62
   120
370
     5
100
AcDbLine
 10
3020.00008454194
 20
553.3270814431324
 30
0.0
 11
2945.00008454194
 21
553.3270814431324
 31
0.0
  0
LINE
  5
210
330
1F
100
AcDbEntity
  8
0-B
  6
Continuous
 62
   120
370
     5
100
AcDbLine
 10
3020.00008454194
 20
598.3270814431324
 30
0.0
 11
2945.00008454194
 21
598.3270814431324
 31
0.0
  0
LWPOLYLINE
  5
211
330
1F
100
AcDbEntity
  8
0-B
  6
Continuous
 62
     7
370
     9
100
AcDbPolyline
 90
        4
 70
     1
 43
3.0
 10
2871.50008454194
 20
706.1352363474487
 42
0.4142135623731
 10
2870.00008454194
 20
707.6352363474487
 42
0.4142135623731
 10
2868.50008454194
 20
706.1352363474487
 42
0.4142135623731
 10
2870.00008454194
 20
704.6352363474487
 42
0.4142135623731
  0
LINE
  5
212
330
1F
100
AcDbEntity
  8
0-B
  6
Continuous
 62
   120
370
     5
100
AcDbLine
 10
2870.00008454194
 20
823.3270814431324
 30
0.0
 11
2870.00008454194
 21
631.1352363474487
 31
0.0
  0
LINE
  5
213
330
1F
100
AcDbEntity
  8
0-B
  6
Continuous
 62
   120
370
     5
100
AcDbLine
 10
1445.00008454194
 20
823.3270814431324
 30
0.0
 11
2870.00008454194
 21
823.3270814431324
 31
0.0
  0
LWPOLYLINE
  5
214
330
1F
100
AcDbEntity
  8
0-B
  6
Continuous
 62
     7
370
     9
100
AcDbPolyline
 90
        4
 70
     1
 43
3.0
 10
2871.50008454194
 20
823.3270814431324
 42
0.4142135623731
 10
2870.00008454194
 20
824.8270814431324
 42
0.4142135623731
 10
2868.50008454194
 20
823.3270814431324
 42
0.4142135623731
 10
2870.00008454194
 20
821.8270814431324
 42
0.4142135623731
  0
LINE
  5
215
330
1F
100
AcDbEntity
  8
0-0
  6
JWW_HOJO
 62
   120
370
     5
100
AcDbLine
 10
2870.00008454194
 20
748.3270814431324
 30
0.0
 11
1435.901058774966
 21
748.3270814431324
 31
0.0
  0
LINE
  5
216
330
1F
100
AcDbEntity
  8
0-0
  6
JWW_HOJO
 62
   120
370
     5
100
AcDbLine
 10
2870.00008454194
 20
673.3270814431324
 30
0.0
 11
1466.967075952948
 21
673.3270814431324
 31
0.0
  0
LINE
  5
217
330
1F
100
AcDbEntity
  8
0-0
  6
JWW_HOJO
 62
   120
370
     5
100
AcDbLine
 10
2945.00008454194
 20
298.3270814431324
 30
0.0
 11
2945.00008454194
 21
598.3270814431324
 31
0.0
  0
LINE
  5
218
330
1F
100
AcDbEntity
  8
0-0
  6
JWW_HOJO
 62
   120
370
     5
100
AcDbLine
 10
3020.00008454194
 20
298.3270814431324
 30
0.0
 11
3020.00008454194
 21
598.3270814431324
 31
0.0
  0
LINE
  5
219
330
1F
100
AcDbEntity
  8
0-0
  6
JWW_HOJO
 62
   120
370
     5
100
AcDbLine
 10
2870.00008454194
 20
823.3270814431324
 30
0.0
 11
1435.901058774966
 21
823.3270814431324
 31
0.0
  0
LINE
  5
21A
330
1F
100
AcDbEntity
  8
0-B
  6
Continuous
 62
   120
370
     5
100
AcDbLine
 10
2945.000084541939
 20
-416.6955742772302
 30
0.0
 11
2945.000084541939
 21
-608.887419372914
 31
0.0
  0
LINE
  5
21B
330
1F
100
AcDbEntity
  8
0-4
  6
Continuous
 62
    92
370
    13
100
AcDbLine
 10
1498.03309313093
 20
-641.6955742772302
 30
0.0
 11
1445.00008454194
 21
-694.7285828662212
 31
0.0
  0
LINE
  5
21C
330
1F
100
AcDbEntity
  8
0-4
  6
Continuous
 62
    92
370
    13
100
AcDbLine
 10
1501.139694848729
 20
-649.1955742772302
 30
0.0
 11
1452.50008454194
 21
-697.8351845840195
 31
0.0
  0
LINE
  5
21D
330
1F
100
AcDbEntity
  8
0-4
  6
Continuous
 62
    92
370
    13
100
AcDbLine
 10
1445.00008454194
 20
-694.7285828662212
 30
0.0
 11
1445.00008454194
 21
-941.6955742772298
 31
0.0
  0
LINE
  5
21E
330
1F
100
AcDbEntity
  8
0-4
  6
Continuous
 62
    92
370
    13
100
AcDbLine
 10
1452.50008454194
 20
-697.8351845840195
 30
0.0
 11
1452.50008454194
 21
-934.1955742772298
 31
0.0
  0
LINE
  5
21F
330
1F
100
AcDbEntity
  8
0-0
  6
JWW_HOJO
 62
     7
370
     9
100
AcDbLine
 10
1435.901058774966
 20
-491.6955742772302
 30
0.0
 11
1295.00008454194
 21
-632.5965485102565
 31
0.0
  0
LINE
  5
220
330
1F
100
AcDbEntity
  8
0-0
  6
JWW_HOJO
 62
     7
370
     9
100
AcDbLine
 10
1295.00008454194
 20
-632.5965485102565
 30
0.0
 11
1295.00008454194
 21
-941.6955742772298
 31
0.0
  0
LINE
  5
221
330
1F
100
AcDbEntity
  8
0-0
  6
JWW_HOJO
 62
     7
370
     9
100
AcDbLine
 10
1466.967075952948
 20
-566.6955742772302
 30
0.0
 11
1370.00008454194
 21
-663.6625656882387
 31
0.0
  0
LINE
  5
222
330
1F
100
AcDbEntity
  8
0-0
  6
JWW_HOJO
 62
     7
370
     9
100
AcDbLine
 10
1370.00008454194
 20
-663.6625656882387
 30
0.0
 11
1370.00008454194
 21
-941.6955742772298
 31
0.0
  0
LINE
  5
223
330
1F
100
AcDbEntity
  8
0-B
  6
Continuous
 62
   120
370
     5
100
AcDbLine
 10
1295.00008454194
 20
-641.6955742772302
 30
0.0
 11
1295.00008454194
 21
-941.6955742772298
 31
0.0
  0
LWPOLYLINE
  5
224
330
1F
100
AcDbEntity
  8
0-B
  6
Continuous
 62
     7
370
     9
100
AcDbPolyline
 90
        4
 70
     1
 43
3.0
 10
1296.50008454194
 20
-641.6955742772302
 42
0.4142135623731
 10
1295.00008454194
 20
-640.1955742772302
 42
0.4142135623731
 10
1293.50008454194
 20
-641.6955742772302
 42
0.4142135623731
 10
1295.00008454194
 20
-643.1955742772302
 42
0.4142135623731
  0
LINE
  5
225
330
1F
100
AcDbEntity
  8
0-B
  6
Continuous
 62
   120
370
     5
100
AcDbLine
 10
1295.00008454194
 20
-641.6955742772302
 30
0.0
 11
1370.00008454194
 21
-641.6955742772302
 31
0.0
  0
LINE
  5
226
330
1F
100
AcDbEntity
  8
0-B
  6
Continuous
 62
   120
370
     5
100
AcDbLine
 10
1391.967075952948
 20
-535.6295570992481
 30
0.0
 11
1338.934067363958
 21
-588.6625656882387
 31
0.0
  0
LWPOLYLINE
  5
227
330
1F
100
AcDbEntity
  8
0-B
  6
Continuous
 62
     7
370
     9
100
AcDbPolyline
 90
        4
 70
     1
 43
3.0
 10
1393.467075952948
 20
-535.6295570992481
 42
0.4142135623731
 10
1391.967075952948
 20
-534.129557099248
 42
0.4142135623731
 10
1390.467075952949
 20
-535.6295570992481
 42
0.4142135623731
 10
1391.967075952948
 20
-537.1295570992481
 42
0.4142135623731
  0
LWPOLYLINE
  5
228
330
1F
100
AcDbEntity
  8
0-B
  6
Continuous
 62
     7
370
     9
100
AcDbPolyline
 90
        4
 70
     1
 43
3.0
 10
1340.434067363958
 20
-588.6625656882387
 42
0.4142135623731
 10
1338.934067363958
 20
-587.1625656882387
 42
0.4142135623731
 10
1337.434067363958
 20
-588.6625656882387
 42
0.4142135623731
 10
1338.934067363958
 20
-590.1625656882387
 42
0.4142135623731
  0
LINE
  5
229
330
1F
100
AcDbEntity
  8
0-B
  6
Continuous
 62
   120
370
     5
100
AcDbLine
 10
1391.967075952948
 20
-535.6295570992481
 30
0.0
 11
1445.000084541939
 21
-588.6625656882387
 31
0.0
  0
LINE
  5
22A
330
1F
100
AcDbEntity
  8
0-B
  6
Continuous
 62
   120
370
     5
100
AcDbLine
 10
1338.934067363958
 20
-588.6625656882387
 30
0.0
 11
1391.967075952948
 21
-641.6955742772293
 31
0.0
  0
LINE
  5
22B
330
1F
100
AcDbEntity
  8
0-0
  6
JWW_HOJO
 62
     7
370
     9
100
AcDbLine
 10
2945.000084541939
 20
-566.6955742772302
 30
0.0
 11
1466.967075952948
 21
-566.6955742772302
 31
0.0
  0
LINE
  5
22C
330
1F
100
AcDbEntity
  8
0-4
  6
Continuous
 62
    92
370
    13
100
AcDbLine
 10
2937.500084541939
 20
-934.1955742772298
 30
0.0
 11
2937.500084541939
 21
-694.1955742772298
 31
0.0
  0
LWPOLYLINE
  5
22D
330
1F
100
AcDbEntity
  8
0-B
  6
Continuous
 62
     7
370
     9
100
AcDbPolyline
 90
        4
 70
     1
 43
3.0
 10
1446.50008454194
 20
-416.6955742772302
 42
0.4142135623731
 10
1445.00008454194
 20
-415.1955742772302
 42
0.4142135623731
 10
1443.50008454194
 20
-416.6955742772302
 42
0.4142135623731
 10
1445.00008454194
 20
-418.1955742772302
 42
0.4142135623731
  0
LINE
  5
22E
330
1F
100
AcDbEntity
  8
0-0
  6
JWW_HOJO
 62
     7
370
     9
100
AcDbLine
 10
2945.000084541939
 20
-416.6955742772302
 30
0.0
 11
1435.901058774966
 21
-416.6955742772302
 31
0.0
  0
LINE
  5
22F
330
1F
100
AcDbEntity
  8
0-B
  6
Continuous
 62
   120
370
     5
100
AcDbLine
 10
1445.00008454194
 20
-416.6955742772302
 30
0.0
 11
2945.000084541939
 21
-416.6955742772302
 31
0.0
  0
LINE
  5
230
330
1F
100
AcDbEntity
  8
0-B
  6
Continuous
 62
   120
370
     5
100
AcDbLine
 10
1445.00008454194
 20
-416.6955742772302
 30
0.0
 11
1445.00008454194
 21
-574.3180281945075
 31
0.0
  0
LINE
  5
231
330
1F
100
AcDbEntity
  8
0-4
  6
Continuous
 62
    92
370
    13
100
AcDbLine
 10
2945.000084541939
 20
-941.6955742772298
 30
0.0
 11
2945.000084541939
 21
-686.6955742772298
 31
0.0
  0
LINE
  5
232
330
1F
100
AcDbEntity
  8
0-B
  6
Continuous
 62
   120
370
     5
100
AcDbLine
 10
3095.000084541939
 20
-686.6955742772298
 30
0.0
 11
3095.000084541939
 21
-641.6955742772302
 31
0.0
  0
LWPOLYLINE
  5
233
330
1F
100
AcDbEntity
  8
0-B
  6
Continuous
 62
     7
370
     9
100
AcDbPolyline
 90
        4
 70
     1
 43
3.0
 10
3096.500084541939
 20
-686.6955742772298
 42
0.4142135623731
 10
3095.000084541939
 20
-685.1955742772298
 42
0.4142135623731
 10
3093.500084541939
 20
-686.6955742772298
 42
0.4142135623731
 10
3095.000084541939
 20
-688.1955742772298
 42
0.4142135623731
  0
LWPOLYLINE
  5
234
330
1F
100
AcDbEntity
  8
0-B
  6
Continuous
 62
     7
370
     9
100
AcDbPolyline
 90
        4
 70
     1
 43
3.0
 10
3096.500084541939
 20
-641.6955742772302
 42
0.4142135623731
 10
3095.000084541939
 20
-640.1955742772302
 42
0.4142135623731
 10
3093.500084541939
 20
-641.6955742772302
 42
0.4142135623731
 10
3095.000084541939
 20
-643.1955742772302
 42
0.4142135623731
  0
LINE
  5
235
330
1F
100
AcDbEntity
  8
0-B
  6
Continuous
 62
   120
370
     5
100
AcDbLine
 10
3095.000084541939
 20
-686.6955742772298
 30
0.0
 11
3020.000084541939
 21
-686.6955742772298
 31
0.0
  0
LINE
  5
236
330
1F
100
AcDbEntity
  8
0-B
  6
Continuous
 62
   120
370
     5
100
AcDbLine
 10
3095.000084541939
 20
-641.6955742772302
 30
0.0
 11
3020.000084541939
 21
-641.6955742772302
 31
0.0
  0
LWPOLYLINE
  5
237
330
1F
100
AcDbEntity
  8
0-B
  6
Continuous
 62
     7
370
     9
100
AcDbPolyline
 90
        4
 70
     1
 43
3.0
 10
2946.500084541939
 20
-533.887419372914
 42
0.4142135623731
 10
2945.000084541939
 20
-532.387419372914
 42
0.4142135623731
 10
2943.500084541939
 20
-533.887419372914
 42
0.4142135623731
 10
2945.000084541939
 20
-535.387419372914
 42
0.4142135623731
  0
LWPOLYLINE
  5
238
330
1F
100
AcDbEntity
  8
0-B
  6
Continuous
 62
     7
370
     9
100
AcDbPolyline
 90
        4
 70
     1
 43
3.0
 10
2946.500084541939
 20
-416.6955742772302
 42
0.4142135623731
 10
2945.000084541939
 20
-415.1955742772302
 42
0.4142135623731
 10
2943.500084541939
 20
-416.6955742772302
 42
0.4142135623731
 10
2945.000084541939
 20
-418.1955742772302
 42
0.4142135623731
  0
LINE
  5
239
330
1F
100
AcDbEntity
  8
0-B
  6
Continuous
 62
   120
370
     5
100
AcDbLine
 10
3020.000084541939
 20
-1723.003193581752
 30
0.0
 11
3020.000084541939
 21
-1915.195038677436
 31
0.0
  0
LINE
  5
23A
330
1F
100
AcDbEntity
  8
0-4
  6
Continuous
 62
    92
370
    13
100
AcDbLine
 10
1498.03309313093
 20
-1948.003193581752
 30
0.0
 11
1445.00008454194
 21
-2001.036202170743
 31
0.0
  0
LINE
  5
23B
330
1F
100
AcDbEntity
  8
0-4
  6
Continuous
 62
    92
370
    13
100
AcDbLine
 10
1501.139694848729
 20
-1955.503193581752
 30
0.0
 11
1452.50008454194
 21
-2004.142803888541
 31
0.0
  0
LINE
  5
23C
330
1F
100
AcDbEntity
  8
0-4
  6
Continuous
 62
    92
370
    13
100
AcDbLine
 10
1445.00008454194
 20
-2001.036202170743
 30
0.0
 11
1445.00008454194
 21
-2248.003193581752
 31
0.0
  0
LINE
  5
23D
330
1F
100
AcDbEntity
  8
0-4
  6
Continuous
 62
    92
370
    13
100
AcDbLine
 10
1452.50008454194
 20
-2004.142803888541
 30
0.0
 11
1452.50008454194
 21
-2240.503193581752
 31
0.0
  0
LINE
  5
23E
330
1F
100
AcDbEntity
  8
0-0
  6
JWW_HOJO
 62
     7
370
     9
100
AcDbLine
 10
1435.901058774966
 20
-1798.003193581752
 30
0.0
 11
1295.00008454194
 21
-1938.904167814779
 31
0.0
  0
LINE
  5
23F
330
1F
100
AcDbEntity
  8
0-0
  6
JWW_HOJO
 62
     7
370
     9
100
AcDbLine
 10
1295.00008454194
 20
-1938.904167814779
 30
0.0
 11
1295.00008454194
 21
-2248.003193581752
 31
0.0
  0
LINE
  5
240
330
1F
100
AcDbEntity
  8
0-0
  6
JWW_HOJO
 62
     7
370
     9
100
AcDbLine
 10
1466.967075952948
 20
-1873.003193581752
 30
0.0
 11
1370.00008454194
 21
-1969.970184992761
 31
0.0
  0
LINE
  5
241
330
1F
100
AcDbEntity
  8
0-0
  6
JWW_HOJO
 62
     7
370
     9
100
AcDbLine
 10
1370.00008454194
 20
-1969.970184992761
 30
0.0
 11
1370.00008454194
 21
-2248.003193581752
 31
0.0
  0
LINE
  5
242
330
1F
100
AcDbEntity
  8
0-B
  6
Continuous
 62
   120
370
     5
100
AcDbLine
 10
1295.00008454194
 20
-1948.003193581752
 30
0.0
 11
1295.00008454194
 21
-2248.003193581752
 31
0.0
  0
LWPOLYLINE
  5
243
330
1F
100
AcDbEntity
  8
0-B
  6
Continuous
 62
     7
370
     9
100
AcDbPolyline
 90
        4
 70
     1
 43
3.0
 10
1296.50008454194
 20
-1948.003193581752
 42
0.4142135623731
 10
1295.00008454194
 20
-1946.503193581752
 42
0.4142135623731
 10
1293.50008454194
 20
-1948.003193581752
 42
0.4142135623731
 10
1295.00008454194
 20
-1949.503193581752
 42
0.4142135623731
  0
LINE
  5
244
330
1F
100
AcDbEntity
  8
0-B
  6
Continuous
 62
   120
370
     5
100
AcDbLine
 10
1295.00008454194
 20
-1948.003193581752
 30
0.0
 11
1370.00008454194
 21
-1948.003193581752
 31
0.0
  0
LINE
  5
245
330
1F
100
AcDbEntity
  8
0-B
  6
Continuous
 62
   120
370
     5
100
AcDbLine
 10
1391.967075952948
 20
-1841.93717640377
 30
0.0
 11
1338.934067363958
 21
-1894.970184992761
 31
0.0
  0
LWPOLYLINE
  5
246
330
1F
100
AcDbEntity
  8
0-B
  6
Continuous
 62
     7
370
     9
100
AcDbPolyline
 90
        4
 70
     1
 43
3.0
 10
1393.467075952948
 20
-1841.93717640377
 42
0.4142135623731
 10
1391.967075952948
 20
-1840.43717640377
 42
0.4142135623731
 10
1390.467075952949
 20
-1841.93717640377
 42
0.4142135623731
 10
1391.967075952948
 20
-1843.43717640377
 42
0.4142135623731
  0
LWPOLYLINE
  5
247
330
1F
100
AcDbEntity
  8
0-B
  6
Continuous
 62
     7
370
     9
100
AcDbPolyline
 90
        4
 70
     1
 43
3.0
 10
1340.434067363958
 20
-1894.970184992761
 42
0.4142135623731
 10
1338.934067363958
 20
-1893.470184992761
 42
0.4142135623731
 10
1337.434067363958
 20
-1894.970184992761
 42
0.4142135623731
 10
1338.934067363958
 20
-1896.470184992761
 42
0.4142135623731
  0
LINE
  5
248
330
1F
100
AcDbEntity
  8
0-B
  6
Continuous
 62
   120
370
     5
100
AcDbLine
 10
1391.967075952948
 20
-1841.93717640377
 30
0.0
 11
1445.000084541939
 21
-1894.970184992761
 31
0.0
  0
LINE
  5
249
330
1F
100
AcDbEntity
  8
0-B
  6
Continuous
 62
   120
370
     5
100
AcDbLine
 10
1338.934067363958
 20
-1894.970184992761
 30
0.0
 11
1391.967075952948
 21
-1948.003193581751
 31
0.0
  0
LINE
  5
24A
330
1F
100
AcDbEntity
  8
0-0
  6
JWW_HOJO
 62
     7
370
     9
100
AcDbLine
 10
3020.000084541939
 20
-1798.003193581752
 30
0.0
 11
1435.901058774966
 21
-1798.003193581752
 31
0.0
  0
LINE
  5
24B
330
1F
100
AcDbEntity
  8
0-0
  6
JWW_HOJO
 62
     7
370
     9
100
AcDbLine
 10
3020.000084541939
 20
-1873.003193581752
 30
0.0
 11
1466.967075952948
 21
-1873.003193581752
 31
0.0
  0
LWPOLYLINE
  5
24C
330
1F
100
AcDbEntity
  8
0-B
  6
Continuous
 62
     7
370
     9
100
AcDbPolyline
 90
        4
 70
     1
 43
3.0
 10
3021.500084541939
 20
-1723.003193581752
 42
0.4142135623731
 10
3020.000084541939
 20
-1721.503193581752
 42
0.4142135623731
 10
3018.500084541939
 20
-1723.003193581752
 42
0.4142135623731
 10
3020.000084541939
 20
-1724.503193581752
 42
0.4142135623731
  0
LWPOLYLINE
  5
24D
330
1F
100
AcDbEntity
  8
0-B
  6
Continuous
 62
     7
370
     9
100
AcDbPolyline
 90
        4
 70
     1
 43
3.0
 10
1446.50008454194
 20
-1723.003193581752
 42
0.4142135623731
 10
1445.00008454194
 20
-1721.503193581752
 42
0.4142135623731
 10
1443.50008454194
 20
-1723.003193581752
 42
0.4142135623731
 10
1445.00008454194
 20
-1724.503193581752
 42
0.4142135623731
  0
LINE
  5
24E
330
1F
100
AcDbEntity
  8
0-B
  6
Continuous
 62
   120
370
     5
100
AcDbLine
 10
1445.00008454194
 20
-1723.003193581752
 30
0.0
 11
3020.000084541939
 21
-1723.003193581752
 31
0.0
  0
LINE
  5
24F
330
1F
100
AcDbEntity
  8
0-B
  6
Continuous
 62
   120
370
     5
100
AcDbLine
 10
1445.00008454194
 20
-1723.003193581752
 30
0.0
 11
1445.00008454194
 21
-1873.003193581752
 31
0.0
  0
LINE
  5
250
330
1F
100
AcDbEntity
  8
0-4
  6
Continuous
 62
    92
370
    13
100
AcDbLine
 10
3020.000084541939
 20
-2248.003193581752
 30
0.0
 11
3020.000084541939
 21
-1993.003193581752
 31
0.0
  0
LINE
  5
251
330
1F
100
AcDbEntity
  8
0-4
  6
Continuous
 62
    92
370
    13
100
AcDbLine
 10
3012.500084541939
 20
-2240.503193581752
 30
0.0
 11
3012.500084541939
 21
-2000.503193581752
 31
0.0
  0
LINE
  5
252
330
1F
100
AcDbEntity
  8
0-B
  6
Continuous
 62
   120
370
     5
100
AcDbLine
 10
3170.000084541939
 20
-1993.003193581752
 30
0.0
 11
3170.000084541939
 21
-1948.003193581752
 31
0.0
  0
LWPOLYLINE
  5
253
330
1F
100
AcDbEntity
  8
0-B
  6
Continuous
 62
     7
370
     9
100
AcDbPolyline
 90
        4
 70
     1
 43
3.0
 10
3171.500084541939
 20
-1993.003193581752
 42
0.4142135623731
 10
3170.000084541939
 20
-1991.503193581752
 42
0.4142135623731
 10
3168.500084541939
 20
-1993.003193581752
 42
0.4142135623731
 10
3170.000084541939
 20
-1994.503193581752
 42
0.4142135623731
  0
LWPOLYLINE
  5
254
330
1F
100
AcDbEntity
  8
0-B
  6
Continuous
 62
     7
370
     9
100
AcDbPolyline
 90
        4
 70
     1
 43
3.0
 10
3171.500084541939
 20
-1948.003193581752
 42
0.4142135623731
 10
3170.000084541939
 20
-1946.503193581752
 42
0.4142135623731
 10
3168.500084541939
 20
-1948.003193581752
 42
0.4142135623731
 10
3170.000084541939
 20
-1949.503193581752
 42
0.4142135623731
  0
LINE
  5
255
330
1F
100
AcDbEntity
  8
0-B
  6
Continuous
 62
   120
370
     5
100
AcDbLine
 10
3170.000084541939
 20
-1993.003193581752
 30
0.0
 11
3095.000084541939
 21
-1993.003193581752
 31
0.0
  0
LINE
  5
256
330
1F
100
AcDbEntity
  8
0-B
  6
Continuous
 62
   120
370
     5
100
AcDbLine
 10
3170.000084541939
 20
-1948.003193581752
 30
0.0
 11
3095.000084541939
 21
-1948.003193581752
 31
0.0
  0
LWPOLYLINE
  5
257
330
1F
100
AcDbEntity
  8
0-B
  6
Continuous
 62
     7
370
     9
100
AcDbPolyline
 90
        4
 70
     1
 43
3.0
 10
3021.500084541939
 20
-1840.195038677436
 42
0.4142135623731
 10
3020.000084541939
 20
-1838.695038677436
 42
0.4142135623731
 10
3018.500084541939
 20
-1840.195038677436
 42
0.4142135623731
 10
3020.000084541939
 20
-1841.695038677436
 42
0.4142135623731
  0
LINE
  5
258
330
1F
100
AcDbEntity
  8
F-0
  6
JWW_HOJO
 62
     7
370
     9
100
AcDbLine
 10
849.9995876002961
 20
-3795.000003092998
 30
0.0
 11
849.9995876002961
 21
-4195.000008247994
 31
0.0
  0
LINE
  5
259
330
1F
100
AcDbEntity
  8
F-0
  6
JWW_HOJO
 62
     7
370
     9
100
AcDbLine
 10
349.9999175200594
 20
-3795.000003092998
 30
0.0
 11
349.9999175200594
 21
-4195.000008247994
 31
0.0
  0
LINE
  5
25A
330
1F
100
AcDbEntity
  8
F-1
  6
Continuous
 62
   200
370
    20
100
AcDbLine
 10
5699.998762800888
 20
-4205.000002577498
 30
0.0
 11
-5999.999752560178
 21
-4205.000002577498
 31
0.0
  0
LINE
  5
25B
330
1F
100
AcDbEntity
  8
F-1
  6
Continuous
 62
   200
370
    20
100
AcDbLine
 10
5699.998762800888
 20
-4199.999993814004
 30
0.0
 11
-5999.999752560178
 21
-4199.999993814004
 31
0.0
  0
LINE
  5
25C
330
1F
100
AcDbEntity
  8
F-1
  6
Continuous
 62
   200
370
    20
100
AcDbLine
 10
5699.998762800888
 20
-4195.000008247994
 30
0.0
 11
-5999.999752560178
 21
-4195.000008247994
 31
0.0
  0
LINE
  5
25D
330
1F
100
AcDbEntity
  8
F-1
  6
Continuous
 62
   200
370
    20
100
AcDbLine
 10
4189.999224688556
 20
-3795.000003092998
 30
0.0
 11
4189.999224688556
 21
-4195.000008247994
 31
0.0
  0
LINE
  5
25E
330
1F
100
AcDbEntity
  8
F-1
  6
Continuous
 62
   200
370
    20
100
AcDbLine
 10
2689.998729808911
 20
-3795.000003092998
 30
0.0
 11
2689.998729808911
 21
-4195.000008247994
 31
0.0
  0
LINE
  5
25F
330
1F
100
AcDbEntity
  8
F-1
  6
Continuous
 62
   200
370
    20
100
AcDbLine
 10
-150.0001237199109
 20
-3795.000003092998
 30
0.0
 11
-150.0001237199109
 21
-4195.000008247994
 31
0.0
  0
LINE
  5
260
330
1F
100
AcDbEntity
  8
F-1
  6
Continuous
 62
   200
370
    20
100
AcDbLine
 10
-150.0001237199109
 20
-3994.999936078046
 30
0.0
 11
5689.998977248734
 21
-3995.005364289155
 31
0.0
  0
LINE
  5
261
330
1F
100
AcDbEntity
  8
F-0
  6
JWW_HOJO
 62
     7
370
     9
100
AcDbLine
 10
-5989.999990205507
 20
-3994.99993607839
 30
0.0
 11
-150.0001237199109
 21
-3994.99993607839
 31
0.0
  0
LINE
  5
262
330
1F
100
AcDbEntity
  8
F-0
  6
JWW_HOJO
 62
     7
370
     9
100
AcDbLine
 10
-5989.999990205507
 20
-3904.99993607839
 30
0.0
 11
-150.0001237199109
 21
-3904.99993607839
 31
0.0
  0
LINE
  5
263
330
1F
100
AcDbEntity
  8
F-0
  6
JWW_HOJO
 62
     7
370
     9
100
AcDbLine
 10
-5989.999990205507
 20
-4084.99993607839
 30
0.0
 11
-150.0001237199109
 21
-4084.99993607839
 31
0.0
  0
LINE
  5
264
330
1F
100
AcDbEntity
  8
F-0
  6
JWW_HOJO
 62
     7
370
     9
100
AcDbLine
 10
-150.0002584955388
 20
-4139.999739777983
 30
0.0
 11
5689.998842473105
 21
-4140.005167989091
 31
0.0
  0
LINE
  5
265
330
1F
100
AcDbEntity
  8
F-0
  6
JWW_HOJO
 62
     7
370
     9
100
AcDbLine
 10
-150.0001748415872
 20
-4049.999739778022
 30
0.0
 11
5689.998926127057
 21
-4050.005167989131
 31
0.0
  0
LINE
  5
266
330
1F
100
AcDbEntity
  8
F-0
  6
JWW_HOJO
 62
     7
370
     9
100
AcDbLine
 10
-150.0000725978671
 20
-3939.99973721807
 30
0.0
 11
5689.999028370777
 21
-3940.005165429179
 31
0.0
  0
LINE
  5
267
330
1F
100
AcDbEntity
  8
F-0
  6
JWW_HOJO
 62
     7
370
     9
100
AcDbLine
 10
-149.9999889439155
 20
-3849.999737218109
 30
0.0
 11
5689.999112024728
 21
-3850.005165429218
 31
0.0
  0
LINE
  5
268
330
1F
100
AcDbEntity
  8
F-0
  6
JWW_HOJO
 62
     7
370
     9
100
AcDbLine
 10
2779.998729808911
 20
-3795.000003092998
 30
0.0
 11
2779.998729808911
 21
-4195.000008247994
 31
0.0
  0
LINE
  5
269
330
1F
100
AcDbEntity
  8
F-0
  6
JWW_HOJO
 62
     7
370
     9
100
AcDbLine
 10
-60.0001237199109
 20
-3795.000003092998
 30
0.0
 11
-60.0001237199109
 21
-4195.000008247994
 31
0.0
  0
LINE
  5
26A
330
1F
100
AcDbEntity
  8
F-0
  6
JWW_HOJO
 62
     7
370
     9
100
AcDbLine
 10
4279.999224688556
 20
-3795.000003092998
 30
0.0
 11
4279.999224688556
 21
-4195.000008247994
 31
0.0
  0
LINE
  5
26B
330
1F
100
AcDbEntity
  8
F-1
  6
Continuous
 62
   200
370
    20
100
AcDbLine
 10
5699.998762800888
 20
-3795.000003092998
 30
0.0
 11
-5999.999752560178
 21
-3795.000003092998
 31
0.0
  0
LINE
  5
26C
330
1F
100
AcDbEntity
  8
F-1
  6
Continuous
 62
   200
370
    20
100
AcDbLine
 10
5699.998762800888
 20
-3790.000017526987
 30
0.0
 11
-5999.999752560178
 21
-3790.000017526987
 31
0.0
  0
LINE
  5
26D
330
1F
100
AcDbEntity
  8
F-0
  6
JWW_HOJO
 62
     7
370
     9
100
AcDbLine
 10
-5247.547376752838
 20
-3795.000003092999
 30
0.0
 11
-5247.547376752838
 21
-4205.000164959882
 31
0.0
  0
LINE
  5
26E
330
1F
100
AcDbEntity
  8
F-0
  6
JWW_HOJO
 62
     7
370
     9
100
AcDbLine
 10
-210.0001237199109
 20
-3795.000003092998
 30
0.0
 11
-210.0001237199109
 21
-4195.000008247994
 31
0.0
  0
LWPOLYLINE
  5
26F
330
1F
100
AcDbEntity
  8
0-B
  6
Continuous
 62
     7
370
     9
100
AcDbPolyline
 90
        4
 70
     1
 43
3.0
 10
2998.999156642606
 20
-2934.134698647315
 42
0.4142135623731
 10
2997.499156642606
 20
-2932.634698647315
 42
0.4142135623731
 10
2995.999156642606
 20
-2934.134698647315
 42
0.4142135623731
 10
2997.499156642606
 20
-2935.634698647315
 42
0.4142135623731
  0
LINE
  5
270
330
1F
100
AcDbEntity
  8
0-B
  6
Continuous
 62
   120
370
     5
100
AcDbLine
 10
2997.499156642606
 20
-2934.134698647315
 30
0.0
 11
2997.499156642606
 21
-3126.326543742999
 31
0.0
  0
LWPOLYLINE
  5
271
330
1F
100
AcDbEntity
  8
0-B
  6
Continuous
 62
     7
370
     9
100
AcDbPolyline
 90
        4
 70
     1
 43
3.0
 10
2998.999156642606
 20
-3051.326543742999
 42
0.4142135623731
 10
2997.499156642606
 20
-3049.826543742999
 42
0.4142135623731
 10
2995.999156642606
 20
-3051.326543742999
 42
0.4142135623731
 10
2997.499156642606
 20
-3052.826543742999
 42
0.4142135623731
  0
LINE
  5
272
330
1F
100
AcDbEntity
  8
0-B
  6
Continuous
 62
   120
370
     5
100
AcDbLine
 10
3147.499156642606
 20
-3159.134698647315
 30
0.0
 11
3072.499156642606
 21
-3159.134698647315
 31
0.0
  0
LINE
  5
273
330
1F
100
AcDbEntity
  8
0-B
  6
Continuous
 62
   120
370
     5
100
AcDbLine
 10
3147.499156642606
 20
-3204.134698647315
 30
0.0
 11
3072.499156642606
 21
-3204.134698647315
 31
0.0
  0
LWPOLYLINE
  5
274
330
1F
100
AcDbEntity
  8
0-B
  6
Continuous
 62
     7
370
     9
100
AcDbPolyline
 90
        4
 70
     1
 43
3.0
 10
3148.999156642606
 20
-3159.134698647315
 42
0.4142135623731
 10
3147.499156642606
 20
-3157.634698647315
 42
0.4142135623731
 10
3145.999156642606
 20
-3159.134698647315
 42
0.4142135623731
 10
3147.499156642606
 20
-3160.634698647315
 42
0.4142135623731
  0
LWPOLYLINE
  5
275
330
1F
100
AcDbEntity
  8
0-B
  6
Continuous
 62
     7
370
     9
100
AcDbPolyline
 90
        4
 70
     1
 43
3.0
 10
3148.999156642606
 20
-3204.134698647315
 42
0.4142135623731
 10
3147.499156642606
 20
-3202.634698647315
 42
0.4142135623731
 10
3145.999156642606
 20
-3204.134698647315
 42
0.4142135623731
 10
3147.499156642606
 20
-3205.634698647315
 42
0.4142135623731
  0
LINE
  5
276
330
1F
100
AcDbEntity
  8
0-B
  6
Continuous
 62
   120
370
     5
100
AcDbLine
 10
3147.499156642606
 20
-3204.134698647315
 30
0.0
 11
3147.499156642606
 21
-3159.134698647315
 31
0.0
  0
LINE
  5
277
330
1F
100
AcDbEntity
  8
0-4
  6
Continuous
 62
    92
370
    13
100
AcDbLine
 10
2989.999156642606
 20
-3451.634698647315
 30
0.0
 11
2989.999156642606
 21
-3211.634698647315
 31
0.0
  0
LINE
  5
278
330
1F
100
AcDbEntity
  8
0-4
  6
Continuous
 62
    92
370
    13
100
AcDbLine
 10
2997.499156642606
 20
-3459.134698647315
 30
0.0
 11
2997.499156642606
 21
-3204.134698647315
 31
0.0
  0
LINE
  5
279
330
1F
100
AcDbEntity
  8
0-B
  6
Continuous
 62
   120
370
     5
100
AcDbLine
 10
1347.499156642606
 20
-2934.134698647315
 30
0.0
 11
1347.499156642606
 21
-3084.134698647315
 31
0.0
  0
LINE
  5
27A
330
1F
100
AcDbEntity
  8
0-B
  6
Continuous
 62
   120
370
     5
100
AcDbLine
 10
1347.499156642606
 20
-2934.134698647315
 30
0.0
 11
2997.499156642606
 21
-2934.134698647315
 31
0.0
  0
LWPOLYLINE
  5
27B
330
1F
100
AcDbEntity
  8
0-B
  6
Continuous
 62
     7
370
     9
100
AcDbPolyline
 90
        4
 70
     1
 43
3.0
 10
1348.999156642605
 20
-2934.134698647315
 42
0.4142135623731
 10
1347.499156642606
 20
-2932.634698647315
 42
0.4142135623731
 10
1345.999156642606
 20
-2934.134698647315
 42
0.4142135623731
 10
1347.499156642606
 20
-2935.634698647315
 42
0.4142135623731
  0
LINE
  5
27C
330
1F
100
AcDbEntity
  8
0-0
  6
JWW_HOJO
 62
     7
370
     9
100
AcDbLine
 10
2997.499156642606
 20
-3084.134698647315
 30
0.0
 11
1369.466148053612
 21
-3084.134698647315
 31
0.0
  0
LINE
  5
27D
330
1F
100
AcDbEntity
  8
0-0
  6
JWW_HOJO
 62
     7
370
     9
100
AcDbLine
 10
2997.499156642606
 20
-3009.134698647315
 30
0.0
 11
1338.400130875631
 21
-3009.134698647315
 31
0.0
  0
LINE
  5
27E
330
1F
100
AcDbEntity
  8
0-B
  6
Continuous
 62
   120
370
     5
100
AcDbLine
 10
1241.433139464623
 20
-3106.101690058324
 30
0.0
 11
1294.466148053612
 21
-3159.134698647315
 31
0.0
  0
LINE
  5
27F
330
1F
100
AcDbEntity
  8
0-B
  6
Continuous
 62
   120
370
     5
100
AcDbLine
 10
1294.466148053612
 20
-3053.068681469333
 30
0.0
 11
1347.499156642604
 21
-3106.101690058324
 31
0.0
  0
LWPOLYLINE
  5
280
330
1F
100
AcDbEntity
  8
0-B
  6
Continuous
 62
     7
370
     9
100
AcDbPolyline
 90
        4
 70
     1
 43
3.0
 10
1242.933139464622
 20
-3106.101690058324
 42
0.4142135623731
 10
1241.433139464623
 20
-3104.601690058324
 42
0.4142135623731
 10
1239.933139464623
 20
-3106.101690058324
 42
0.4142135623731
 10
1241.433139464623
 20
-3107.601690058324
 42
0.4142135623731
  0
LWPOLYLINE
  5
281
330
1F
100
AcDbEntity
  8
0-B
  6
Continuous
 62
     7
370
     9
100
AcDbPolyline
 90
        4
 70
     1
 43
3.0
 10
1295.966148053612
 20
-3053.068681469333
 42
0.4142135623731
 10
1294.466148053612
 20
-3051.568681469333
 42
0.4142135623731
 10
1292.966148053612
 20
-3053.068681469333
 42
0.4142135623731
 10
1294.466148053612
 20
-3054.568681469333
 42
0.4142135623731
  0
LINE
  5
282
330
1F
100
AcDbEntity
  8
0-B
  6
Continuous
 62
   120
370
     5
100
AcDbLine
 10
1294.466148053612
 20
-3053.068681469333
 30
0.0
 11
1241.433139464623
 21
-3106.101690058324
 31
0.0
  0
LINE
  5
283
330
1F
100
AcDbEntity
  8
0-B
  6
Continuous
 62
   120
370
     5
100
AcDbLine
 10
1197.499156642606
 20
-3159.134698647315
 30
0.0
 11
1272.499156642606
 21
-3159.134698647315
 31
0.0
  0
LWPOLYLINE
  5
284
330
1F
100
AcDbEntity
  8
0-B
  6
Continuous
 62
     7
370
     9
100
AcDbPolyline
 90
        4
 70
     1
 43
3.0
 10
1198.999156642605
 20
-3159.134698647315
 42
0.4142135623731
 10
1197.499156642606
 20
-3157.634698647315
 42
0.4142135623731
 10
1195.999156642606
 20
-3159.134698647315
 42
0.4142135623731
 10
1197.499156642606
 20
-3160.634698647315
 42
0.4142135623731
  0
LINE
  5
285
330
1F
100
AcDbEntity
  8
0-B
  6
Continuous
 62
   120
370
     5
100
AcDbLine
 10
1197.499156642606
 20
-3159.134698647315
 30
0.0
 11
1197.499156642606
 21
-3459.134698647315
 31
0.0
  0
LINE
  5
286
330
1F
100
AcDbEntity
  8
0-0
  6
JWW_HOJO
 62
     7
370
     9
100
AcDbLine
 10
1272.499156642606
 20
-3181.101690058324
 30
0.0
 11
1272.499156642606
 21
-3459.134698647315
 31
0.0
  0
LINE
  5
287
330
1F
100
AcDbEntity
  8
0-0
  6
JWW_HOJO
 62
     7
370
     9
100
AcDbLine
 10
1369.466148053612
 20
-3084.134698647315
 30
0.0
 11
1272.499156642606
 21
-3181.101690058324
 31
0.0
  0
LINE
  5
288
330
1F
100
AcDbEntity
  8
0-0
  6
JWW_HOJO
 62
     7
370
     9
100
AcDbLine
 10
1197.499156642606
 20
-3150.035672880342
 30
0.0
 11
1197.499156642606
 21
-3459.134698647315
 31
0.0
  0
LINE
  5
289
330
1F
100
AcDbEntity
  8
0-0
  6
JWW_HOJO
 62
     7
370
     9
100
AcDbLine
 10
1338.400130875631
 20
-3009.134698647315
 30
0.0
 11
1197.499156642606
 21
-3150.035672880342
 31
0.0
  0
LINE
  5
28A
330
1F
100
AcDbEntity
  8
0-4
  6
Continuous
 62
    92
370
    13
100
AcDbLine
 10
1354.999156642606
 20
-3215.274308954104
 30
0.0
 11
1354.999156642606
 21
-3451.634698647315
 31
0.0
  0
LINE
  5
28B
330
1F
100
AcDbEntity
  8
0-4
  6
Continuous
 62
    92
370
    13
100
AcDbLine
 10
1347.499156642606
 20
-3212.167707236306
 30
0.0
 11
1347.499156642606
 21
-3459.134698647315
 31
0.0
  0
LINE
  5
28C
330
1F
100
AcDbEntity
  8
0-4
  6
Continuous
 62
    92
370
    13
100
AcDbLine
 10
1403.638766949394
 20
-3166.634698647315
 30
0.0
 11
1354.999156642606
 21
-3215.274308954104
 31
0.0
  0
LINE
  5
28D
330
1F
100
AcDbEntity
  8
0-4
  6
Continuous
 62
    92
370
    13
100
AcDbLine
 10
1400.532165231595
 20
-3159.134698647315
 30
0.0
 11
1347.499156642606
 21
-3212.167707236306
 31
0.0
  0
LINE
  5
28E
330
1F
100
AcDbEntity
  8
0-4
  6
Continuous
 62
    92
370
    13
100
AcDbLine
 10
2997.499156642606
 20
-3459.134698647315
 30
0.0
 11
1347.499156642606
 21
-3459.134698647315
 31
0.0
  0
LINE
  5
28F
330
1F
100
AcDbEntity
  8
0-B
  6
Continuous
 62
   120
370
     5
100
AcDbLine
 10
1197.499156642606
 20
-3459.134698647315
 30
0.0
 11
1272.499156642606
 21
-3459.134698647315
 31
0.0
  0
LWPOLYLINE
  5
290
330
1F
100
AcDbEntity
  8
0-B
  6
Continuous
 62
     7
370
     9
100
AcDbPolyline
 90
        4
 70
     1
 43
3.0
 10
1198.999156642605
 20
-3459.134698647315
 42
0.4142135623731
 10
1197.499156642606
 20
-3457.634698647315
 42
0.4142135623731
 10
1195.999156642606
 20
-3459.134698647315
 42
0.4142135623731
 10
1197.499156642606
 20
-3460.634698647315
 42
0.4142135623731
  0
LINE
  5
291
330
1F
100
AcDbEntity
  8
F-1
  6
JWW_DASHED1
 62
     7
370
     9
100
AcDbLine
 10
5689.999719568202
 20
-2696.24994761235
 30
0.0
 11
4264.999719568202
 21
-2696.24994761235
 31
0.0
  0
MTEXT
  5
292
330
1F
100
AcDbEntity
  8
0-A
  6
Continuous
 62
     7
370
     9
100
AcDbMText
 10
-2285.000758815456
 20
3576.165456893767
 30
0.0
 40
68.58
 41
585.0
 46
0.0
 71
     7
 72
     1
  1
{\fＭＳ ゴシック|b0|i0|c128|p49;3,900×55×20}
 73
     1
 44
1.0
  0
MTEXT
  5
293
330
1F
100
AcDbEntity
  8
0-A
  6
Continuous
 62
     7
370
     9
100
AcDbMText
 10
-552.5007588154554
 20
3576.165456893767
 30
0.0
 40
68.57999999999998
 41
315.0
 46
0.0
 71
     7
 72
     1
  1
{\fＭＳ ゴシック|b0|i0|c128|p49;2(偶数)}
 73
     1
 44
1.0
  0
MTEXT
  5
294
330
1F
100
AcDbEntity
  8
0-A
  6
Continuous
 62
     7
370
     9
100
AcDbMText
 10
3559.999719568202
 20
3576.165456893767
 30
0.0
 40
68.58
 41
585.0
 46
0.0
 71
     7
 72
     1
  1
{\fＭＳ ゴシック|b0|i0|c128|p49;3,900×85×20}
 73
     1
 44
1.0
  0
MTEXT
  5
295
330
1F
100
AcDbEntity
  8
0-A
  6
Continuous
 62
     7
370
     9
100
AcDbMText
 10
5292.499348408469
 20
3576.165456893767
 30
0.0
 40
68.57999999999998
 41
315.0
 46
0.0
 71
     7
 72
     1
  1
{\fＭＳ ゴシック|b0|i0|c128|p49;2(偶数)}
 73
     1
 44
1.0
  0
MTEXT
  5
296
330
1F
100
AcDbEntity
  8
0-A
  6
Continuous
 62
     7
370
     9
100
AcDbMText
 10
-4895.000028867979
 20
3533.577961887669
 30
0.0
 40
97.15499999999999
 41
255.0
 46
0.0
 71
     7
 72
     1
  1
{\fＭＳ ゴシック|b0|i0|c128|p49;55幅}
 73
     1
 44
1.0
  0
MTEXT
  5
297
330
1F
100
AcDbEntity
  8
0-A
  6
Continuous
 62
     7
370
     9
100
AcDbMText
 10
949.9995216163429
 20
3533.577961887669
 30
0.0
 40
97.15499999999999
 41
255.0
 46
0.0
 71
     7
 72
     1
  1
{\fＭＳ ゴシック|b0|i0|c128|p49;85幅}
 73
     1
 44
1.0
  0
MTEXT
  5
298
330
1F
100
AcDbEntity
  8
0-A
  6
Continuous
 62
     7
370
     9
100
AcDbMText
 10
-2285.000758815456
 20
2326.165376991323
 30
0.0
 40
68.58
 41
585.0
 46
0.0
 71
     7
 72
     1
  1
{\fＭＳ ゴシック|b0|i0|c128|p49;3,900×60×20}
 73
     1
 44
1.0
  0
MTEXT
  5
299
330
1F
100
AcDbEntity
  8
0-A
  6
Continuous
 62
     7
370
     9
100
AcDbMText
 10
-552.5007588154554
 20
2326.165376991323
 30
0.0
 40
68.57999999999998
 41
315.0
 46
0.0
 71
     7
 72
     1
  1
{\fＭＳ ゴシック|b0|i0|c128|p49;2(偶数)}
 73
     1
 44
1.0
  0
MTEXT
  5
29A
330
1F
100
AcDbEntity
  8
0-A
  6
Continuous
 62
     7
370
     9
100
AcDbMText
 10
5292.499348408469
 20
2326.165376991323
 30
0.0
 40
68.57999999999998
 41
315.0
 46
0.0
 71
     7
 72
     1
  1
{\fＭＳ ゴシック|b0|i0|c128|p49;2(偶数)}
 73
     1
 44
1.0
  0
MTEXT
  5
29B
330
1F
100
AcDbEntity
  8
0-A
  6
Continuous
 62
     7
370
     9
100
AcDbMText
 10
-4895.000028867979
 20
2283.577881985226
 30
0.0
 40
97.15499999999999
 41
255.0
 46
0.0
 71
     7
 72
     1
  1
{\fＭＳ ゴシック|b0|i0|c128|p49;60幅}
 73
     1
 44
1.0
  0
MTEXT
  5
29C
330
1F
100
AcDbEntity
  8
0-A
  6
Continuous
 62
     7
370
     9
100
AcDbMText
 10
949.9995216163429
 20
2283.577881985226
 30
0.0
 40
97.15499999999999
 41
255.0
 46
0.0
 71
     7
 72
     1
  1
{\fＭＳ ゴシック|b0|i0|c128|p49;90幅}
 73
     1
 44
1.0
  0
MTEXT
  5
29D
330
1F
100
AcDbEntity
  8
0-A
  6
Continuous
 62
     7
370
     9
100
AcDbMText
 10
-2285.000758815456
 20
1076.165297088881
 30
0.0
 40
68.58
 41
585.0
 46
0.0
 71
     7
 72
     1
  1
{\fＭＳ ゴシック|b0|i0|c128|p49;3,900×65×20}
 73
     1
 44
1.0
  0
MTEXT
  5
29E
330
1F
100
AcDbEntity
  8
0-A
  6
Continuous
 62
     7
370
     9
100
AcDbMText
 10
-552.5007588154554
 20
1076.16529708888
 30
0.0
 40
68.57999999999998
 41
315.0
 46
0.0
 71
     7
 72
     1
  1
{\fＭＳ ゴシック|b0|i0|c128|p49;2(偶数)}
 73
     1
 44
1.0
  0
MTEXT
  5
29F
330
1F
100
AcDbEntity
  8
0-A
  6
Continuous
 62
     7
370
     9
100
AcDbMText
 10
5292.499348408469
 20
1076.165297088881
 30
0.0
 40
68.57999999999998
 41
315.0
 46
0.0
 71
     7
 72
     1
  1
{\fＭＳ ゴシック|b0|i0|c128|p49;2(偶数)}
 73
     1
 44
1.0
  0
MTEXT
  5
2A0
330
1F
100
AcDbEntity
  8
0-A
  6
Continuous
 62
     7
370
     9
100
AcDbMText
 10
-4895.000028867979
 20
1033.577802082784
 30
0.0
 40
97.15499999999999
 41
255.0
 46
0.0
 71
     7
 72
     1
  1
{\fＭＳ ゴシック|b0|i0|c128|p49;65幅}
 73
     1
 44
1.0
  0
MTEXT
  5
2A1
330
1F
100
AcDbEntity
  8
0-A
  6
Continuous
 62
     7
370
     9
100
AcDbMText
 10
949.9995216163429
 20
1033.577802082784
 30
0.0
 40
97.15499999999999
 41
255.0
 46
0.0
 71
     7
 72
     1
  1
{\fＭＳ ゴシック|b0|i0|c128|p49;95幅}
 73
     1
 44
1.0
  0
MTEXT
  5
2A2
330
1F
100
AcDbEntity
  8
0-A
  6
Continuous
 62
     7
370
     9
100
AcDbMText
 10
3559.999719568202
 20
998.040292094978
 30
0.0
 40
68.58
 41
585.0
 46
0.0
 71
     7
 72
     1
  1
{\fＭＳ ゴシック|b0|i0|c128|p49;3,900×95×20}
 73
     1
 44
1.0
  0
MTEXT
  5
2A3
330
1F
100
AcDbEntity
  8
0-A
  6
Continuous
 62
     7
370
     9
100
AcDbMText
 10
5427.499348408469
 20
919.9152871010756
 30
0.0
 40
68.58
 41
45.0
 46
0.0
 71
     7
 72
     1
  1
{\fＭＳ ゴシック|b0|i0|c128|p49;1}
 73
     1
 44
1.0
  0
MTEXT
  5
2A4
330
1F
100
AcDbEntity
  8
0-A
  6
Continuous
 62
     7
370
     9
100
AcDbMText
 10
-5659.999626778267
 20
489.5284204631135
 30
0.0
 40
99.06
 41
390.0
 46
0.0
 71
     7
 72
     1
  1
{\fＭＳ ゴシック|b0|i0|c128|p49;窓枠・}
 73
     1
 44
1.0
  0
MTEXT
  5
2A5
330
1F
100
AcDbEntity
  8
0-A
  6
Continuous
 62
     7
370
     9
100
AcDbMText
 10
184.9999237060555
 20
489.5284204631135
 30
0.0
 40
99.06
 41
390.0
 46
0.0
 71
     7
 72
     1
  1
{\fＭＳ ゴシック|b0|i0|c128|p49;窓枠・}
 73
     1
 44
1.0
  0
MTEXT
  5
2A6
330
1F
100
AcDbEntity
  8
0-A
  6
Continuous
 62
     7
370
     9
100
AcDbMText
 10
-5659.999626778267
 20
189.5285442131128
 30
0.0
 40
99.06
 41
390.0
 46
0.0
 71
     7
 72
     1
  1
{\fＭＳ ゴシック|b0|i0|c128|p49;ＡＳ型}
 73
     1
 44
1.0
  0
MTEXT
  5
2A7
330
1F
100
AcDbEntity
  8
0-A
  6
Continuous
 62
     7
370
     9
100
AcDbMText
 10
184.9999237060555
 20
189.5285442131128
 30
0.0
 40
99.06
 41
390.0
 46
0.0
 71
     7
 72
     1
  1
{\fＭＳ ゴシック|b0|i0|c128|p49;ＡＳ型}
 73
     1
 44
1.0
  0
MTEXT
  5
2A8
330
1F
100
AcDbEntity
  8
0-A
  6
Continuous
 62
     7
370
     9
100
AcDbMText
 10
-5807.500006701495
 20
-48.92651766188679
 30
0.0
 40
57.15
 41
675.0
 46
0.0
 71
     7
 72
     1
  1
{\fＭＳ ゴシック|b0|i0|c128|p49;サッシアングル加工}
 73
     1
 44
1.0
  0
MTEXT
  5
2A9
330
1F
100
AcDbEntity
  8
0-A
  6
Continuous
 62
     7
370
     9
100
AcDbMText
 10
37.49954378282695
 20
-48.92651766188679
 30
0.0
 40
57.15
 41
675.0
 46
0.0
 71
     7
 72
     1
  1
{\fＭＳ ゴシック|b0|i0|c128|p49;サッシアングル加工}
 73
     1
 44
1.0
  0
MTEXT
  5
2AA
330
1F
100
AcDbEntity
  8
0-A
  6
Continuous
 62
     7
370
     9
100
AcDbMText
 10
-5770.000006701495
 20
-123.9265176618868
 30
0.0
 40
57.15
 41
600.0
 46
0.0
 71
     7
 72
     1
  1
{\fＭＳ ゴシック|b0|i0|c128|p49;／シート書き込み}
 73
     1
 44
1.0
  0
MTEXT
  5
2AB
330
1F
100
AcDbEntity
  8
0-A
  6
Continuous
 62
     7
370
     9
100
AcDbMText
 10
74.99954378282695
 20
-123.9265176618868
 30
0.0
 40
57.15
 41
600.0
 46
0.0
 71
     7
 72
     1
  1
{\fＭＳ ゴシック|b0|i0|c128|p49;／シート書き込み}
 73
     1
 44
1.0
  0
MTEXT
  5
2AC
330
1F
100
AcDbEntity
  8
0-A
  6
Continuous
 62
     7
370
     9
100
AcDbMText
 10
-5918.749626778267
 20
-142.1365176618868
 30
0.0
 40
125.73
 41
907.5
 46
0.0
 71
     7
 72
     1
  1
{\fＭＳ ゴシック|b0|i0|c128|p49;(　　 　　)}
 73
     1
 44
1.0
  0
MTEXT
  5
2AD
330
1F
100
AcDbEntity
  8
0-A
  6
Continuous
 62
     7
370
     9
100
AcDbMText
 10
-73.75007629394446
 20
-142.1365176618868
 30
0.0
 40
125.73
 41
907.5
 46
0.0
 71
     7
 72
     1
  1
{\fＭＳ ゴシック|b0|i0|c128|p49;(　　 　　)}
 73
     1
 44
1.0
  0
MTEXT
  5
2AE
330
1F
100
AcDbEntity
  8
0-A
  6
Continuous
 62
     7
370
     9
100
AcDbMText
 10
-2285.000758815456
 20
-173.8347828135622
 30
0.0
 40
68.58
 41
585.0
 46
0.0
 71
     7
 72
     1
  1
{\fＭＳ ゴシック|b0|i0|c128|p49;3,900×70×20}
 73
     1
 44
1.0
  0
MTEXT
  5
2AF
330
1F
100
AcDbEntity
  8
0-A
  6
Continuous
 62
     7
370
     9
100
AcDbMText
 10
-552.5007588154554
 20
-173.8347828135622
 30
0.0
 40
68.57999999999998
 41
315.0
 46
0.0
 71
     7
 72
     1
  1
{\fＭＳ ゴシック|b0|i0|c128|p49;2(偶数)}
 73
     1
 44
1.0
  0
MTEXT
  5
2B0
330
1F
100
AcDbEntity
  8
0-A
  6
Continuous
 62
     7
370
     9
100
AcDbMText
 10
5292.499348408469
 20
-173.8347828135622
 30
0.0
 40
68.57999999999998
 41
315.0
 46
0.0
 71
     7
 72
     1
  1
{\fＭＳ ゴシック|b0|i0|c128|p49;2(偶数)}
 73
     1
 44
1.0
  0
MTEXT
  5
2B1
330
1F
100
AcDbEntity
  8
0-A
  6
Continuous
 62
     7
370
     9
100
AcDbMText
 10
-4895.000028867979
 20
-216.4222778196598
 30
0.0
 40
97.15499999999999
 41
255.0
 46
0.0
 71
     7
 72
     1
  1
{\fＭＳ ゴシック|b0|i0|c128|p49;70幅}
 73
     1
 44
1.0
  0
MTEXT
  5
2B2
330
1F
100
AcDbEntity
  8
0-A
  6
Continuous
 62
     7
370
     9
100
AcDbMText
 10
949.9995216163429
 20
-215.8507778196598
 30
0.0
 40
98.29799999999999
 41
322.5
 46
0.0
 71
     7
 72
     1
  1
{\fＭＳ ゴシック|b0|i0|c128|p49;100幅}
 73
     1
 44
1.0
  0
MTEXT
  5
2B3
330
1F
100
AcDbEntity
  8
0-A
  6
Continuous
 62
     7
370
     9
100
AcDbMText
 10
3537.499719568202
 20
-251.9597878074646
 30
0.0
 40
68.58
 41
630.0
 46
0.0
 71
     7
 72
     1
  1
{\fＭＳ ゴシック|b0|i0|c128|p49;3,900×100×20}
 73
     1
 44
1.0
  0
MTEXT
  5
2B4
330
1F
100
AcDbEntity
  8
0-A
  6
Continuous
 62
     7
370
     9
100
AcDbMText
 10
5427.499348408469
 20
-330.0847928013678
 30
0.0
 40
68.58
 41
45.0
 46
0.0
 71
     7
 72
     1
  1
{\fＭＳ ゴシック|b0|i0|c128|p49;1}
 73
     1
 44
1.0
  0
MTEXT
  5
2B5
330
1F
100
AcDbEntity
  8
0-A
  6
Continuous
 62
     7
370
     9
100
AcDbMText
 10
-2285.000758815456
 20
-1423.834862716005
 30
0.0
 40
68.58
 41
585.0
 46
0.0
 71
     7
 72
     1
  1
{\fＭＳ ゴシック|b0|i0|c128|p49;3,900×75×20}
 73
     1
 44
1.0
  0
MTEXT
  5
2B6
330
1F
100
AcDbEntity
  8
0-A
  6
Continuous
 62
     7
370
     9
100
AcDbMText
 10
-552.5007588154554
 20
-1423.834862716006
 30
0.0
 40
68.57999999999998
 41
315.0
 46
0.0
 71
     7
 72
     1
  1
{\fＭＳ ゴシック|b0|i0|c128|p49;2(偶数)}
 73
     1
 44
1.0
  0
MTEXT
  5
2B7
330
1F
100
AcDbEntity
  8
0-A
  6
Continuous
 62
     7
370
     9
100
AcDbMText
 10
5292.499348408469
 20
-1423.834862716005
 30
0.0
 40
68.57999999999998
 41
315.0
 46
0.0
 71
     7
 72
     1
  1
{\fＭＳ ゴシック|b0|i0|c128|p49;2(偶数)}
 73
     1
 44
1.0
  0
MTEXT
  5
2B8
330
1F
100
AcDbEntity
  8
0-A
  6
Continuous
 62
     7
370
     9
100
AcDbMText
 10
-4895.000028867979
 20
-1466.422357722102
 30
0.0
 40
97.15499999999999
 41
255.0
 46
0.0
 71
     7
 72
     1
  1
{\fＭＳ ゴシック|b0|i0|c128|p49;75幅}
 73
     1
 44
1.0
  0
MTEXT
  5
2B9
330
1F
100
AcDbEntity
  8
0-A
  6
Continuous
 62
     7
370
     9
100
AcDbMText
 10
949.9995216163429
 20
-1465.850857722102
 30
0.0
 40
98.29799999999999
 41
322.5
 46
0.0
 71
     7
 72
     1
  1
{\fＭＳ ゴシック|b0|i0|c128|p49;105幅}
 73
     1
 44
1.0
  0
MTEXT
  5
2BA
330
1F
100
AcDbEntity
  8
0-A
  6
Continuous
 62
     7
370
     9
100
AcDbMText
 10
3537.499719568202
 20
-1501.959867709907
 30
0.0
 40
68.58
 41
630.0
 46
0.0
 71
     7
 72
     1
  1
{\fＭＳ ゴシック|b0|i0|c128|p49;3,900×105×20}
 73
     1
 44
1.0
  0
MTEXT
  5
2BB
330
1F
100
AcDbEntity
  8
0-A
  6
Continuous
 62
     7
370
     9
100
AcDbMText
 10
5427.499348408469
 20
-1580.084872703811
 30
0.0
 40
68.58
 41
45.0
 46
0.0
 71
     7
 72
     1
  1
{\fＭＳ ゴシック|b0|i0|c128|p49;1}
 73
     1
 44
1.0
  0
MTEXT
  5
2BC
330
1F
100
AcDbEntity
  8
0-A
  6
Continuous
 62
     7
370
     9
100
AcDbMText
 10
-2285.000758815456
 20
-2673.834942618447
 30
0.0
 40
68.58
 41
585.0
 46
0.0
 71
     7
 72
     1
  1
{\fＭＳ ゴシック|b0|i0|c128|p49;3,900×80×20}
 73
     1
 44
1.0
  0
MTEXT
  5
2BD
330
1F
100
AcDbEntity
  8
0-A
  6
Continuous
 62
     7
370
     9
100
AcDbMText
 10
-552.5007588154554
 20
-2673.834942618449
 30
0.0
 40
68.57999999999998
 41
315.0
 46
0.0
 71
     7
 72
     1
  1
{\fＭＳ ゴシック|b0|i0|c128|p49;2(偶数)}
 73
     1
 44
1.0
  0
MTEXT
  5
2BE
330
1F
100
AcDbEntity
  8
0-A
  6
Continuous
 62
     7
370
     9
100
AcDbMText
 10
5292.498791668867
 20
-2673.834942618447
 30
0.0
 40
68.57999999999998
 41
315.0
 46
0.0
 71
     7
 72
     1
  1
{\fＭＳ ゴシック|b0|i0|c128|p49;2(偶数)}
 73
     1
 44
1.0
  0
MTEXT
  5
2BF
330
1F
100
AcDbEntity
  8
0-A
  6
Continuous
 62
     7
370
     9
100
AcDbMText
 10
-4895.000028867979
 20
-2716.422437624545
 30
0.0
 40
97.15499999999999
 41
255.0
 46
0.0
 71
     7
 72
     1
  1
{\fＭＳ ゴシック|b0|i0|c128|p49;80幅}
 73
     1
 44
1.0
  0
MTEXT
  5
2C0
330
1F
100
AcDbEntity
  8
0-A
  6
Continuous
 62
     7
370
     9
100
AcDbMText
 10
949.9995216163429
 20
-2715.850937624545
 30
0.0
 40
98.29799999999999
 41
322.5
 46
0.0
 71
     7
 72
     1
  1
{\fＭＳ ゴシック|b0|i0|c128|p49;110幅}
 73
     1
 44
1.0
  0
MTEXT
  5
2C1
330
1F
100
AcDbEntity
  8
0-A
  6
Continuous
 62
     7
370
     9
100
AcDbMText
 10
3537.498791668866
 20
-2751.95994761235
 30
0.0
 40
68.58
 41
630.0
 46
0.0
 71
     7
 72
     1
  1
{\fＭＳ ゴシック|b0|i0|c128|p49;3,900×110×20}
 73
     1
 44
1.0
  0
MTEXT
  5
2C2
330
1F
100
AcDbEntity
  8
0-A
  6
Continuous
 62
     7
370
     9
100
AcDbMText
 10
5427.498791668867
 20
-2830.084952606252
 30
0.0
 40
68.58
 41
45.0
 46
0.0
 71
     7
 72
     1
  1
{\fＭＳ ゴシック|b0|i0|c128|p49;1}
 73
     1
 44
1.0
  0
MTEXT
  5
2C3
330
1F
100
AcDbEntity
  8
0-B
  6
Continuous
 62
     7
370
   211
100
AcDbMText
 10
-4032.500393841717
 20
3327.617241248017
 30
0.0
 40
68.58
 41
90.0
 46
0.0
 71
     7
 72
     1
  1
{\fＭＳ ゴシック|b0|i0|c128|p49;55}
 73
     1
 44
1.0
  0
MTEXT
  5
2C4
330
1F
100
AcDbEntity
  8
0-B
  6
Continuous
 62
     7
370
   211
100
AcDbMText
 10
2037.50008454194
 20
3327.617241248017
 30
0.0
 40
68.58
 41
90.0
 46
0.0
 71
     7
 72
     1
  1
{\fＭＳ ゴシック|b0|i0|c128|p49;85}
 73
     1
 44
1.0
  0
MTEXT
  5
2C5
330
1F
100
AcDbEntity
  8
0-B
  6
Continuous
 62
     7
370
   211
100
AcDbMText
 10
-4506.066411019699
 20
3161.863453272607
 30
0.0
 40
68.57999999999963
 41
44.99999999999976
 46
0.0
 71
     7
 72
     1
  1
{\fＭＳ ゴシック|b0|i0|c128|p49;5}
 11
0.707106781186519
 21
0.707106781186576
 31
0.0
 73
     1
 44
1.0
  0
MTEXT
  5
2C6
330
1F
100
AcDbEntity
  8
0-B
  6
Continuous
 62
     7
370
   211
100
AcDbMText
 10
1338.934067363958
 20
3161.863453272606
 30
0.0
 40
68.57999999999987
 41
44.99999999999991
 46
0.0
 71
     7
 72
     1
  1
{\fＭＳ ゴシック|b0|i0|c128|p49;5}
 11
0.7071067811865476
 21
0.7071067811865475
 31
0.0
 73
     1
 44
1.0
  0
MTEXT
  5
2C7
330
1F
100
AcDbEntity
  8
0-B
  6
Continuous
 62
     7
370
   211
100
AcDbMText
 10
-4565.000393841718
 20
2881.367241248018
 30
0.0
 40
68.58
 41
90.0
 46
0.0
 71
     7
 72
     1
  1
{\fＭＳ ゴシック|b0|i0|c128|p49;20}
 11
6.123031769111886E-17
 21
1.0
 31
0.0
 73
     1
 44
1.0
  0
MTEXT
  5
2C8
330
1F
100
AcDbEntity
  8
0-B
  6
Continuous
 62
     7
370
   211
100
AcDbMText
 10
1280.00008454194
 20
2881.367241248018
 30
0.0
 40
68.58
 41
90.0
 46
0.0
 71
     7
 72
     1
  1
{\fＭＳ ゴシック|b0|i0|c128|p49;20}
 11
6.123031769111886E-17
 21
1.0
 31
0.0
 73
     1
 44
1.0
  0
MTEXT
  5
2C9
330
1F
100
AcDbEntity
  8
0-B
  6
Continuous
 62
     7
370
   211
100
AcDbMText
 10
-3995.000393841717
 20
2077.617161345576
 30
0.0
 40
68.58
 41
90.0
 46
0.0
 71
     7
 72
     1
  1
{\fＭＳ ゴシック|b0|i0|c128|p49;60}
 73
     1
 44
1.0
  0
MTEXT
  5
2CA
330
1F
100
AcDbEntity
  8
0-B
  6
Continuous
 62
     7
370
   211
100
AcDbMText
 10
2075.00008454194
 20
2077.617161345575
 30
0.0
 40
68.58
 41
90.0
 46
0.0
 71
     7
 72
     1
  1
{\fＭＳ ゴシック|b0|i0|c128|p49;90}
 73
     1
 44
1.0
  0
MTEXT
  5
2CB
330
1F
100
AcDbEntity
  8
0-B
  6
Continuous
 62
     7
370
   211
100
AcDbMText
 10
-4506.0664110197
 20
1911.863373370163
 30
0.0
 40
68.58000000000008
 41
45.00000000000006
 46
0.0
 71
     7
 72
     1
  1
{\fＭＳ ゴシック|b0|i0|c128|p49;5}
 11
0.7071067811865285
 21
0.7071067811865666
 31
0.0
 73
     1
 44
1.0
  0
MTEXT
  5
2CC
330
1F
100
AcDbEntity
  8
0-B
  6
Continuous
 62
     7
370
   211
100
AcDbMText
 10
1338.934067363957
 20
1911.863373370163
 30
0.0
 40
68.57999999999987
 41
44.99999999999991
 46
0.0
 71
     7
 72
     1
  1
{\fＭＳ ゴシック|b0|i0|c128|p49;5}
 11
0.7071067811865476
 21
0.7071067811865475
 31
0.0
 73
     1
 44
1.0
  0
MTEXT
  5
2CD
330
1F
100
AcDbEntity
  8
0-B
  6
Continuous
 62
     7
370
   211
100
AcDbMText
 10
-4565.000393841718
 20
1631.367161345576
 30
0.0
 40
68.58
 41
90.0
 46
0.0
 71
     7
 72
     1
  1
{\fＭＳ ゴシック|b0|i0|c128|p49;20}
 11
6.123031769111886E-17
 21
1.0
 31
0.0
 73
     1
 44
1.0
  0
MTEXT
  5
2CE
330
1F
100
AcDbEntity
  8
0-B
  6
Continuous
 62
     7
370
   211
100
AcDbMText
 10
1280.00008454194
 20
1631.367161345575
 30
0.0
 40
68.58
 41
90.0
 46
0.0
 71
     7
 72
     1
  1
{\fＭＳ ゴシック|b0|i0|c128|p49;20}
 11
6.123031769111886E-17
 21
1.0
 31
0.0
 73
     1
 44
1.0
  0
MTEXT
  5
2CF
330
1F
100
AcDbEntity
  8
0-B
  6
Continuous
 62
     7
370
   211
100
AcDbMText
 10
-3957.500393841717
 20
827.6170814431324
 30
0.0
 40
68.58
 41
90.0
 46
0.0
 71
     7
 72
     1
  1
{\fＭＳ ゴシック|b0|i0|c128|p49;65}
 73
     1
 44
1.0
  0
MTEXT
  5
2D0
330
1F
100
AcDbEntity
  8
0-B
  6
Continuous
 62
     7
370
   211
100
AcDbMText
 10
2112.50008454194
 20
827.6170814431324
 30
0.0
 40
68.58
 41
90.0
 46
0.0
 71
     7
 72
     1
  1
{\fＭＳ ゴシック|b0|i0|c128|p49;95}
 73
     1
 44
1.0
  0
MTEXT
  5
2D1
330
1F
100
AcDbEntity
  8
0-B
  6
Continuous
 62
     7
370
   211
100
AcDbMText
 10
-4506.0664110197
 20
661.8632934677198
 30
0.0
 40
68.58000000000033
 41
45.00000000000021
 46
0.0
 71
     7
 72
     1
  1
{\fＭＳ ゴシック|b0|i0|c128|p49;5}
 11
0.7071067811865285
 21
0.7071067811865666
 31
0.0
 73
     1
 44
1.0
  0
MTEXT
  5
2D2
330
1F
100
AcDbEntity
  8
0-B
  6
Continuous
 62
     7
370
   211
100
AcDbMText
 10
1338.934067363958
 20
661.8632934677206
 30
0.0
 40
68.58000000000008
 41
45.00000000000006
 46
0.0
 71
     7
 72
     1
  1
{\fＭＳ ゴシック|b0|i0|c128|p49;5}
 11
0.7071067811865476
 21
0.7071067811865475
 31
0.0
 73
     1
 44
1.0
  0
MTEXT
  5
2D3
330
1F
100
AcDbEntity
  8
0-B
  6
Continuous
 62
     7
370
   211
100
AcDbMText
 10
-4565.000393841718
 20
381.3670814431325
 30
0.0
 40
68.58
 41
90.0
 46
0.0
 71
     7
 72
     1
  1
{\fＭＳ ゴシック|b0|i0|c128|p49;20}
 11
6.123031769111886E-17
 21
1.0
 31
0.0
 73
     1
 44
1.0
  0
MTEXT
  5
2D4
330
1F
100
AcDbEntity
  8
0-B
  6
Continuous
 62
     7
370
   211
100
AcDbMText
 10
1280.00008454194
 20
381.3670814431325
 30
0.0
 40
68.58
 41
90.0
 46
0.0
 71
     7
 72
     1
  1
{\fＭＳ ゴシック|b0|i0|c128|p49;20}
 11
6.123031769111886E-17
 21
1.0
 31
0.0
 73
     1
 44
1.0
  0
MTEXT
  5
2D5
330
1F
100
AcDbEntity
  8
0-B
  6
Continuous
 62
     7
370
   211
100
AcDbMText
 10
2120.000084541939
 20
-408.5955742772302
 30
0.0
 40
76.19999999999999
 41
150.0
 46
0.0
 71
     7
 72
     1
  1
{\fＭＳ ゴシック|b0|i0|c128|p49;100}
 73
     1
 44
1.0
  0
MTEXT
  5
2D6
330
1F
100
AcDbEntity
  8
0-B
  6
Continuous
 62
     7
370
   211
100
AcDbMText
 10
-3920.000393841717
 20
-422.3829984593092
 30
0.0
 40
68.58
 41
90.0
 46
0.0
 71
     7
 72
     1
  1
{\fＭＳ ゴシック|b0|i0|c128|p49;70}
 73
     1
 44
1.0
  0
MTEXT
  5
2D7
330
1F
100
AcDbEntity
  8
0-B
  6
Continuous
 62
     7
370
   211
100
AcDbMText
 10
1338.934067363958
 20
-578.159362252642
 30
0.0
 40
68.58000000000008
 41
45.00000000000006
 46
0.0
 71
     7
 72
     1
  1
{\fＭＳ ゴシック|b0|i0|c128|p49;5}
 11
0.7071067811865476
 21
0.7071067811865475
 31
0.0
 73
     1
 44
1.0
  0
MTEXT
  5
2D8
330
1F
100
AcDbEntity
  8
0-B
  6
Continuous
 62
     7
370
   211
100
AcDbMText
 10
-4506.0664110197
 20
-588.1367864347219
 30
0.0
 40
68.58000000000033
 41
45.00000000000021
 46
0.0
 71
     7
 72
     1
  1
{\fＭＳ ゴシック|b0|i0|c128|p49;5}
 11
0.7071067811865285
 21
0.7071067811865666
 31
0.0
 73
     1
 44
1.0
  0
MTEXT
  5
2D9
330
1F
100
AcDbEntity
  8
0-B
  6
Continuous
 62
     7
370
   211
100
AcDbMText
 10
1280.00008454194
 20
-855.7980742772297
 30
0.0
 40
74.295
 41
97.5
 46
0.0
 71
     7
 72
     1
  1
{\fＭＳ ゴシック|b0|i0|c128|p49;20}
 11
6.123031769111886E-17
 21
1.0
 31
0.0
 73
     1
 44
1.0
  0
MTEXT
  5
2DA
330
1F
100
AcDbEntity
  8
0-B
  6
Continuous
 62
     7
370
   211
100
AcDbMText
 10
-4565.000393841718
 20
-868.6329984593098
 30
0.0
 40
68.58
 41
90.0
 46
0.0
 71
     7
 72
     1
  1
{\fＭＳ ゴシック|b0|i0|c128|p49;20}
 11
6.123031769111886E-17
 21
1.0
 31
0.0
 73
     1
 44
1.0
  0
MTEXT
  5
2DB
330
1F
100
AcDbEntity
  8
0-B
  6
Continuous
 62
     7
370
   211
100
AcDbMText
 10
-3882.500393841717
 20
-1672.383078361755
 30
0.0
 40
68.58
 41
90.0
 46
0.0
 71
     7
 72
     1
  1
{\fＭＳ ゴシック|b0|i0|c128|p49;75}
 73
     1
 44
1.0
  0
MTEXT
  5
2DC
330
1F
100
AcDbEntity
  8
0-B
  6
Continuous
 62
     7
370
   211
100
AcDbMText
 10
2157.500084541939
 20
-1714.903193581752
 30
0.0
 40
76.19999999999999
 41
150.0
 46
0.0
 71
     7
 72
     1
  1
{\fＭＳ ゴシック|b0|i0|c128|p49;105}
 73
     1
 44
1.0
  0
MTEXT
  5
2DD
330
1F
100
AcDbEntity
  8
0-B
  6
Continuous
 62
     7
370
   211
100
AcDbMText
 10
-4506.0664110197
 20
-1838.136866337167
 30
0.0
 40
68.57999999999987
 41
44.99999999999991
 46
0.0
 71
     7
 72
     1
  1
{\fＭＳ ゴシック|b0|i0|c128|p49;5}
 11
0.707106781186538
 21
0.707106781186557
 31
0.0
 73
     1
 44
1.0
  0
MTEXT
  5
2DE
330
1F
100
AcDbEntity
  8
0-B
  6
Continuous
 62
     7
370
   211
100
AcDbMText
 10
1338.934067363958
 20
-1884.466981557165
 30
0.0
 40
68.58000000000008
 41
45.00000000000006
 46
0.0
 71
     7
 72
     1
  1
{\fＭＳ ゴシック|b0|i0|c128|p49;5}
 11
0.7071067811865569
 21
0.707106781186538
 31
0.0
 73
     1
 44
1.0
  0
MTEXT
  5
2DF
330
1F
100
AcDbEntity
  8
0-B
  6
Continuous
 62
     7
370
   211
100
AcDbMText
 10
-4565.000393841718
 20
-2118.633078361755
 30
0.0
 40
68.58
 41
90.0
 46
0.0
 71
     7
 72
     1
  1
{\fＭＳ ゴシック|b0|i0|c128|p49;20}
 11
6.123031769111886E-17
 21
1.0
 31
0.0
 73
     1
 44
1.0
  0
MTEXT
  5
2E0
330
1F
100
AcDbEntity
  8
0-B
  6
Continuous
 62
     7
370
   211
100
AcDbMText
 10
1280.00008454194
 20
-2147.105693581752
 30
0.0
 40
74.295
 41
97.5
 46
0.0
 71
     7
 72
     1
  1
{\fＭＳ ゴシック|b0|i0|c128|p49;20}
 11
6.123031769111886E-17
 21
1.0
 31
0.0
 73
     1
 44
1.0
  0
MTEXT
  5
2E1
330
1F
100
AcDbEntity
  8
0-B
  6
Continuous
 62
     7
370
   211
100
AcDbMText
 10
-3845.000393841717
 20
-2918.210185064367
 30
0.0
 40
68.58
 41
90.0
 46
0.0
 71
     7
 72
     1
  1
{\fＭＳ ゴシック|b0|i0|c128|p49;80}
 73
     1
 44
1.0
  0
MTEXT
  5
2E2
330
1F
100
AcDbEntity
  8
0-B
  6
Continuous
 62
     7
370
   211
100
AcDbMText
 10
2097.499156642606
 20
-2926.034698647315
 30
0.0
 40
76.19999999999999
 41
150.0
 46
0.0
 71
     7
 72
     1
  1
{\fＭＳ ゴシック|b0|i0|c128|p49;110}
 73
     1
 44
1.0
  0
MTEXT
  5
2E3
330
1F
100
AcDbEntity
  8
0-B
  6
Continuous
 62
     7
370
   211
100
AcDbMText
 10
-4506.0664110197
 20
-3083.963973039779
 30
0.0
 40
68.58000000000008
 41
45.00000000000006
 46
0.0
 71
     7
 72
     1
  1
{\fＭＳ ゴシック|b0|i0|c128|p49;5}
 11
0.7071067811865334
 21
0.7071067811865617
 31
0.0
 73
     1
 44
1.0
  0
MTEXT
  5
2E4
330
1F
100
AcDbEntity
  8
0-B
  6
Continuous
 62
     7
370
   211
100
AcDbMText
 10
1241.433139464623
 20
-3095.598486622727
 30
0.0
 40
68.57999999999987
 41
44.99999999999991
 46
0.0
 71
     7
 72
     1
  1
{\fＭＳ ゴシック|b0|i0|c128|p49;5}
 11
0.7071067811865285
 21
0.7071067811865666
 31
0.0
 73
     1
 44
1.0
  0
MTEXT
  5
2E5
330
1F
100
AcDbEntity
  8
0-B
  6
Continuous
 62
     7
370
   211
100
AcDbMText
 10
-4565.000393841718
 20
-3364.460185064367
 30
0.0
 40
68.58
 41
90.0
 46
0.0
 71
     7
 72
     1
  1
{\fＭＳ ゴシック|b0|i0|c128|p49;20}
 11
6.123031769111886E-17
 21
1.0
 31
0.0
 73
     1
 44
1.0
  0
MTEXT
  5
2E6
330
1F
100
AcDbEntity
  8
0-B
  6
Continuous
 62
     7
370
   211
100
AcDbMText
 10
1182.499156642606
 20
-3365.737198647315
 30
0.0
 40
74.295
 41
97.5
 46
0.0
 71
     7
 72
     1
  1
{\fＭＳ ゴシック|b0|i0|c128|p49;20}
 11
6.123031769111886E-17
 21
1.0
 31
0.0
 73
     1
 44
1.0
  0
MTEXT
  5
2E7
330
1F
100
AcDbEntity
  8
F-A
  6
Continuous
 62
     7
370
     0
100
AcDbMText
 10
-2120.000758815456
 20
3984.82768145587
 30
0.0
 40
97.15499999999999
 41
255.0
 46
0.0
 71
     7
 72
     1
  1
{\fＭＳ ゴシック|b0|i0|c128|p49;寸法}
 73
     1
 44
1.0
  0
MTEXT
  5
2E8
330
1F
100
AcDbEntity
  8
F-A
  6
Continuous
 62
     7
370
     0
100
AcDbMText
 10
-522.5007588154554
 20
3984.827681455869
 30
0.0
 40
97.15499999999999
 41
255.0
 46
0.0
 71
     7
 72
     1
  1
{\fＭＳ ゴシック|b0|i0|c128|p49;発注}
 73
     1
 44
1.0
  0
MTEXT
  5
2E9
330
1F
100
AcDbEntity
  8
F-A
  6
Continuous
 62
     7
370
     0
100
AcDbMText
 10
3724.999719568202
 20
3984.82768145587
 30
0.0
 40
97.15499999999999
 41
255.0
 46
0.0
 71
     7
 72
     1
  1
{\fＭＳ ゴシック|b0|i0|c128|p49;寸法}
 73
     1
 44
1.0
  0
MTEXT
  5
2EA
330
1F
100
AcDbEntity
  8
F-A
  6
Continuous
 62
     7
370
     0
100
AcDbMText
 10
5322.499719568203
 20
3984.779430690454
 30
0.0
 40
97.15499999999999
 41
255.0
 46
0.0
 71
     7
 72
     1
  1
{\fＭＳ ゴシック|b0|i0|c128|p49;発注}
 73
     1
 44
1.0
  0
MTEXT
  5
2EB
330
1F
100
AcDbEntity
  8
F-A
  6
Continuous
 62
     7
370
     0
100
AcDbMText
 10
-5659.999812358134
 20
3877.030379407729
 30
0.0
 40
99.06
 41
390.0
 46
0.0
 71
     7
 72
     1
  1
{\fＭＳ ゴシック|b0|i0|c128|p49;部材名}
 73
     1
 44
1.0
  0
MTEXT
  5
2EC
330
1F
100
AcDbEntity
  8
F-A
  6
Continuous
 62
     7
370
     0
100
AcDbMText
 10
-3935.000393841717
 20
3877.506629407728
 30
0.0
 40
100.0125
 41
525.0
 46
0.0
 71
     7
 72
     1
  1
{\fＭＳ ゴシック|b0|i0|c128|p49;断面形状}
 73
     1
 44
1.0
  0
MTEXT
  5
2ED
330
1F
100
AcDbEntity
  8
F-A
  6
Continuous
 62
     7
370
     0
100
AcDbMText
 10
-1235.000758815456
 20
3876.077879407728
 30
0.0
 40
97.15499999999999
 41
255.0
 46
0.0
 71
     7
 72
     1
  1
{\fＭＳ ゴシック|b0|i0|c128|p49;品番}
 73
     1
 44
1.0
  0
MTEXT
  5
2EE
330
1F
100
AcDbEntity
  8
F-A
  6
Continuous
 62
     7
370
     0
100
AcDbMText
 10
179.9993814004438
 20
3877.030379407729
 30
0.0
 40
99.06
 41
390.0
 46
0.0
 71
     7
 72
     1
  1
{\fＭＳ ゴシック|b0|i0|c128|p49;部材名}
 73
     1
 44
1.0
  0
MTEXT
  5
2EF
330
1F
100
AcDbEntity
  8
F-A
  6
Continuous
 62
     7
370
     0
100
AcDbMText
 10
4609.999719568202
 20
3876.077879407728
 30
0.0
 40
97.15499999999999
 41
255.0
 46
0.0
 71
     7
 72
     1
  1
{\fＭＳ ゴシック|b0|i0|c128|p49;品番}
 73
     1
 44
1.0
  0
MTEXT
  5
2F0
330
1F
100
AcDbEntity
  8
F-A
  6
Continuous
 62
     7
370
     0
100
AcDbMText
 10
1909.999991752006
 20
3877.50643145587
 30
0.0
 40
100.0125
 41
525.0
 46
0.0
 71
     7
 72
     1
  1
{\fＭＳ ゴシック|b0|i0|c128|p49;断面形状}
 73
     1
 44
1.0
  0
MTEXT
  5
2F1
330
1F
100
AcDbEntity
  8
F-A
  6
Continuous
 62
     7
370
     0
100
AcDbMText
 10
-522.5007588154554
 20
3767.328077359584
 30
0.0
 40
97.15499999999999
 41
255.0
 46
0.0
 71
     7
 72
     1
  1
{\fＭＳ ゴシック|b0|i0|c128|p49;単位}
 73
     1
 44
1.0
  0
MTEXT
  5
2F2
330
1F
100
AcDbEntity
  8
F-A
  6
Continuous
 62
     7
370
     0
100
AcDbMText
 10
5322.499719568203
 20
3767.27982659417
 30
0.0
 40
97.15499999999999
 41
255.0
 46
0.0
 71
     7
 72
     1
  1
{\fＭＳ ゴシック|b0|i0|c128|p49;単位}
 73
     1
 44
1.0
  0
MTEXT
  5
2F3
330
1F
100
AcDbEntity
  8
F-A
  6
Continuous
 62
     7
370
     0
100
AcDbMText
 10
-2397.500758815456
 20
3748.040313424198
 30
0.0
 40
68.58
 41
810.0
 46
0.0
 71
     7
 72
     1
  1
{\fＭＳ ゴシック|b0|i0|c128|p49;長さ×幅×厚さ(㎜)}
 73
     1
 44
1.0
  0
MTEXT
  5
2F4
330
1F
100
AcDbEntity
  8
F-A
  6
Continuous
 62
     7
370
     0
100
AcDbMText
 10
3447.499719568202
 20
3748.040313424198
 30
0.0
 40
68.58
 41
810.0
 46
0.0
 71
     7
 72
     1
  1
{\fＭＳ ゴシック|b0|i0|c128|p49;長さ×幅×厚さ(㎜)}
 73
     1
 44
1.0
  0
MTEXT
  5
2F5
330
1F
100
AcDbEntity
  8
F-A
  6
Continuous
 62
     7
370
     0
100
AcDbMText
 10
-60.0001237199109
 20
-3887.139820871936
 30
0.0
 40
45.72
 41
180.0
 46
0.0
 71
     7
 72
     1
  1
{\fＭＳ ゴシック|b0|i0|c128|p49;図面名}
 73
     1
 44
1.0
  0
MTEXT
  5
2F6
330
1F
100
AcDbEntity
  8
F-A
  6
Continuous
 62
     7
370
     0
100
AcDbMText
 10
2779.998729808911
 20
-3887.142460617774
 30
0.0
 40
45.72
 41
300.0
 46
0.0
 71
     7
 72
     1
  1
{\fＭＳ ゴシック|b0|i0|c128|p49;ＳＣＡＬＥ}
 73
     1
 44
1.0
  0
MTEXT
  5
2F7
330
1F
100
AcDbEntity
  8
F-A
  6
Continuous
 62
     7
370
     0
100
AcDbMText
 10
4279.999224688556
 20
-3887.143854850754
 30
0.0
 40
45.72
 41
240.0
 46
0.0
 71
     7
 72
     1
  1
{\fＭＳ ゴシック|b0|i0|c128|p49;ＤＡＴＥ}
 73
     1
 44
1.0
  0
MTEXT
  5
2F8
330
1F
100
AcDbEntity
  8
F-A
  6
Continuous
 62
     7
370
     0
100
AcDbMText
 10
1180.417701903719
 20
-3946.138161599839
 30
0.0
 40
77.724
 41
510.0
 46
0.0
 71
     7
 72
     1
  1
{\fＭＳ ゴシック|b0|i0|c128|p49;洋風造作材}
 73
     1
 44
1.0
  0
MTEXT
  5
2F9
330
1F
100
AcDbEntity
  8
F-A
  6
Continuous
 62
     7
370
     0
100
AcDbMText
 10
3409.998977248734
 20
-3946.903115907308
 30
0.0
 40
76.19999999999999
 41
150.0
 46
0.0
 71
     7
 72
     1
  1
{\fＭＳ ゴシック|b0|i0|c128|p49;1/2}
 73
     1
 44
1.0
  0
MTEXT
  5
2FA
330
1F
100
AcDbEntity
  8
F-A
  6
Continuous
 62
     7
370
     0
100
AcDbMText
 10
349.9999175200594
 20
-3951.497291872503
 30
0.0
 40
68.58000000000001
 41
360.0
 46
0.0
 71
     7
 72
     1
  1
{\fＭＳ ゴシック|b0|i0|c128|p49;DOORETUS}
 73
     1
 44
1.0
  0
MTEXT
  5
2FB
330
1F
100
AcDbEntity
  8
F-A
  6
Continuous
 62
     7
370
     0
100
AcDbMText
 10
2779.998729808911
 20
-4087.14246317786
 30
0.0
 40
45.72
 41
240.0
 46
0.0
 71
     7
 72
     1
  1
{\fＭＳ ゴシック|b0|i0|c128|p49;ＦＩＬＥ}
 73
     1
 44
1.0
  0
MTEXT
  5
2FC
330
1F
100
AcDbEntity
  8
F-A
  6
Continuous
 62
     7
370
     0
100
AcDbMText
 10
4279.999224688556
 20
-4087.143857410839
 30
0.0
 40
45.72
 41
180.0
 46
0.0
 71
     7
 72
     1
  1
{\fＭＳ ゴシック|b0|i0|c128|p49;ＮＯ．}
 73
     1
 44
1.0
  0
MTEXT
  5
2FD
330
1F
100
AcDbEntity
  8
F-A
  6
Continuous
 62
     7
370
     0
100
AcDbMText
 10
1234.998729808911
 20
-4096.140669266149
 30
0.0
 40
45.72
 41
120.0
 46
0.0
 71
     7
 72
     1
  1
{\fＭＳ ゴシック|b0|i0|c128|p49;株式}
 73
     1
 44
1.0
  0
MTEXT
  5
2FE
330
1F
100
AcDbEntity
  8
F-A
  6
Continuous
 62
     7
370
     0
100
AcDbMText
 10
1444.998729808911
 20
-4164.281754523929
 30
0.0
 40
101.44125
 41
1065.0
 46
0.0
 71
     7
 72
     1
  1
{\fＭＳ ゴシック|b0|i0|c128|p49;ウッドワン・・・}
 73
     1
 44
1.0
  0
MTEXT
  5
2FF
330
1F
100
AcDbEntity
  8
F-A
  6
Continuous
 62
     7
370
     0
100
AcDbMText
 10
1234.998729808911
 20
-4168.140669266187
 30
0.0
 40
45.72
 41
120.0
 46
0.0
 71
     7
 72
     1
  1
{\fＭＳ ゴシック|b0|i0|c128|p49;会社}
 73
     1
 44
1.0
  0
MTEXT
  5
300
330
1F
100
AcDbEntity
  8
F-A
  6
Continuous
 62
     7
370
     0
100
AcDbMText
 10
5608.403311109712
 20
-4314.841256638534
 30
0.0
 40
68.58
 41
90.0
 46
0.0
 71
     7
 72
     1
  1
{\fＭＳ ゴシック|b0|i0|c128|p49;）}
 73
     1
 44
1.0
  0
MTEXT
  5
301
330
1F
100
AcDbEntity
  8
F-A
  6
Continuous
 62
     7
370
     0
100
AcDbMText
 10
5190.195950842071
 20
-4316.235281487472
 30
0.0
 40
68.58
 41
45.0
 46
0.0
 71
     7
 72
     1
  1
{\fＭＳ ゴシック|b0|i0|c128|p49;,}
 73
     1
 44
1.0
  0
MTEXT
  5
302
330
1F
100
AcDbEntity
  8
F-A
  6
Continuous
 62
     7
370
     0
100
AcDbMText
 10
4923.937261915373
 20
-4314.771804905898
 30
0.0
 40
74.295
 41
97.5
 46
0.0
 71
     7
 72
     1
  1
{\fＭＳ ゴシック|b0|i0|c128|p49;$y}
 73
     1
 44
1.0
  0
MTEXT
  5
303
330
1F
100
AcDbEntity
  8
F-A
  6
Continuous
 62
     7
370
     0
100
AcDbMText
 10
5078.673982954195
 20
-4314.771804905898
 30
0.0
 40
74.295
 41
97.5
 46
0.0
 71
     7
 72
     1
  1
{\fＭＳ ゴシック|b0|i0|c128|p49;$m}
 73
     1
 44
1.0
  0
MTEXT
  5
304
330
1F
100
AcDbEntity
  8
F-A
  6
Continuous
 62
     7
370
     0
100
AcDbMText
 10
5233.410715437103
 20
-4314.771804905898
 30
0.0
 40
74.295
 41
97.5
 46
0.0
 71
     7
 72
     1
  1
{\fＭＳ ゴシック|b0|i0|c128|p49;$d}
 73
     1
 44
1.0
  0
MTEXT
  5
305
330
1F
100
AcDbEntity
  8
F-A
  6
Continuous
 62
     7
370
     0
100
AcDbMText
 10
5388.147447920011
 20
-4314.771804905898
 30
0.0
 40
74.295
 41
195.0
 46
0.0
 71
     7
 72
     1
  1
{\fＭＳ ゴシック|b0|i0|c128|p49;印刷}
 73
     1
 44
1.0
  0
MTEXT
  5
306
330
1F
100
AcDbEntity
  8
F-A
  6
Continuous
 62
     7
370
     0
100
AcDbMText
 10
4784.033374252999
 20
-4319.023331185347
 30
0.0
 40
68.58
 41
90.0
 46
0.0
 71
     7
 72
     1
  1
{\fＭＳ ゴシック|b0|i0|c128|p49;（}
 73
     1
 44
1.0
  0
MTEXT
  5
307
330
1F
100
AcDbEntity
  8
F-A
  6
Continuous
 62
     7
370
     0
100
AcDbMText
 10
5031.277143812345
 20
-4319.023331185347
 30
0.0
 40
68.58
 41
45.0
 46
0.0
 71
     7
 72
     1
  1
{\fＭＳ ゴシック|b0|i0|c128|p49;,}
 73
     1
 44
1.0
  0
LINE
  5
308
330
1F
100
AcDbEntity
  8
0-4
  6
Continuous
 62
    92
370
    13
100
AcDbLine
 10
-4100.000393841718
 20
2805.827241248018
 30
0.0
 11
-4100.000393841718
 21
2798.327241248018
 31
0.0
  0
LINE
  5
309
330
1F
100
AcDbEntity
  8
0-4
  6
Continuous
 62
    92
370
    13
100
AcDbLine
 10
-4100.000393841718
 20
2805.827241248018
 30
0.0
 11
-4392.500393841718
 21
2805.827241248018
 31
0.0
  0
LINE
  5
30A
330
1F
100
AcDbEntity
  8
0-4
  6
Continuous
 62
    92
370
    13
100
AcDbLine
 10
-3725.000393841717
 20
2798.327241248018
 30
0.0
 11
-3725.000393841717
 21
2805.827241248018
 31
0.0
  0
LINE
  5
30B
330
1F
100
AcDbEntity
  8
0-4
  6
Continuous
 62
    92
370
    13
100
AcDbLine
 10
-3725.000393841717
 20
2805.827241248018
 30
0.0
 11
-3582.500393841717
 21
2805.827241248018
 31
0.0
  0
LINE
  5
30C
330
1F
100
AcDbEntity
  8
0-4
  6
Continuous
 62
    92
370
    13
100
AcDbLine
 10
-4100.000393841718
 20
1555.827161345576
 30
0.0
 11
-4392.500393841718
 21
1555.827161345576
 31
0.0
  0
LINE
  5
30D
330
1F
100
AcDbEntity
  8
0-4
  6
Continuous
 62
    92
370
    13
100
AcDbLine
 10
-4100.000393841718
 20
1555.827161345576
 30
0.0
 11
-4100.000393841718
 21
1548.327161345576
 31
0.0
  0
LINE
  5
30E
330
1F
100
AcDbEntity
  8
0-4
  6
Continuous
 62
    92
370
    13
100
AcDbLine
 10
-3650.000393841717
 20
1548.327161345576
 30
0.0
 11
-3650.000393841717
 21
1555.827161345576
 31
0.0
  0
LINE
  5
30F
330
1F
100
AcDbEntity
  8
0-4
  6
Continuous
 62
    92
370
    13
100
AcDbLine
 10
-3650.000393841717
 20
1555.827161345576
 30
0.0
 11
-3507.500393841717
 21
1555.827161345576
 31
0.0
  0
LINE
  5
310
330
1F
100
AcDbEntity
  8
0-4
  6
Continuous
 62
    92
370
    13
100
AcDbLine
 10
-3575.000393841717
 20
298.3270814431324
 30
0.0
 11
-3575.000393841717
 21
305.8270814431324
 31
0.0
  0
LINE
  5
311
330
1F
100
AcDbEntity
  8
0-4
  6
Continuous
 62
    92
370
    13
100
AcDbLine
 10
-3575.000393841717
 20
305.8270814431324
 30
0.0
 11
-3432.500393841717
 21
305.8270814431324
 31
0.0
  0
LINE
  5
312
330
1F
100
AcDbEntity
  8
0-4
  6
Continuous
 62
    92
370
    13
100
AcDbLine
 10
-4100.000393841718
 20
305.8270814431324
 30
0.0
 11
-4100.000393841718
 21
298.3270814431324
 31
0.0
  0
LINE
  5
313
330
1F
100
AcDbEntity
  8
0-4
  6
Continuous
 62
    92
370
    13
100
AcDbLine
 10
-4100.000393841718
 20
305.8270814431324
 30
0.0
 11
-4392.500393841718
 21
305.8270814431324
 31
0.0
  0
LINE
  5
314
330
1F
100
AcDbEntity
  8
0-4
  6
Continuous
 62
    92
370
    13
100
AcDbLine
 10
-3500.000393841717
 20
-951.6729984593097
 30
0.0
 11
-3500.000393841717
 21
-944.1729984593097
 31
0.0
  0
LINE
  5
315
330
1F
100
AcDbEntity
  8
0-4
  6
Continuous
 62
    92
370
    13
100
AcDbLine
 10
-3500.000393841717
 20
-944.1729984593097
 30
0.0
 11
-3357.500393841717
 21
-944.1729984593097
 31
0.0
  0
LINE
  5
316
330
1F
100
AcDbEntity
  8
0-4
  6
Continuous
 62
    92
370
    13
100
AcDbLine
 10
-4100.000393841718
 20
-944.1729984593097
 30
0.0
 11
-4392.500393841718
 21
-944.1729984593097
 31
0.0
  0
LINE
  5
317
330
1F
100
AcDbEntity
  8
0-4
  6
Continuous
 62
    92
370
    13
100
AcDbLine
 10
-4100.000393841718
 20
-944.1729984593097
 30
0.0
 11
-4100.000393841718
 21
-951.6729984593097
 31
0.0
  0
LINE
  5
318
330
1F
100
AcDbEntity
  8
0-4
  6
Continuous
 62
    92
370
    13
100
AcDbLine
 10
-4100.000393841718
 20
-2194.173078361755
 30
0.0
 11
-4392.500393841718
 21
-2194.173078361755
 31
0.0
  0
LINE
  5
319
330
1F
100
AcDbEntity
  8
0-4
  6
Continuous
 62
    92
370
    13
100
AcDbLine
 10
-4100.000393841718
 20
-2194.173078361755
 30
0.0
 11
-4100.000393841718
 21
-2201.673078361755
 31
0.0
  0
LINE
  5
31A
330
1F
100
AcDbEntity
  8
0-4
  6
Continuous
 62
    92
370
    13
100
AcDbLine
 10
-3425.000393841717
 20
-2201.673078361755
 30
0.0
 11
-3425.000393841717
 21
-2194.173078361755
 31
0.0
  0
LINE
  5
31B
330
1F
100
AcDbEntity
  8
0-4
  6
Continuous
 62
    92
370
    13
100
AcDbLine
 10
-3425.000393841717
 20
-2194.173078361755
 30
0.0
 11
-3282.500393841717
 21
-2194.173078361755
 31
0.0
  0
LINE
  5
31C
330
1F
100
AcDbEntity
  8
0-4
  6
Continuous
 62
    92
370
    13
100
AcDbLine
 10
-3350.000393841717
 20
-3447.500185064367
 30
0.0
 11
-3350.000393841717
 21
-3440.000185064367
 31
0.0
  0
LINE
  5
31D
330
1F
100
AcDbEntity
  8
0-4
  6
Continuous
 62
    92
370
    13
100
AcDbLine
 10
-3350.000393841717
 20
-3440.000185064367
 30
0.0
 11
-3207.500393841717
 21
-3440.000185064367
 31
0.0
  0
LINE
  5
31E
330
1F
100
AcDbEntity
  8
0-4
  6
Continuous
 62
    92
370
    13
100
AcDbLine
 10
-4100.000393841718
 20
-3440.000185064367
 30
0.0
 11
-4392.500393841718
 21
-3440.000185064367
 31
0.0
  0
LINE
  5
31F
330
1F
100
AcDbEntity
  8
0-4
  6
Continuous
 62
    92
370
    13
100
AcDbLine
 10
-4100.000393841718
 20
-3440.000185064367
 30
0.0
 11
-4100.000393841718
 21
-3447.500185064367
 31
0.0
  0
LINE
  5
320
330
1F
100
AcDbEntity
  8
0-4
  6
Continuous
 62
    92
370
    13
100
AcDbLine
 10
1745.00008454194
 20
2805.827241248018
 30
0.0
 11
1745.00008454194
 21
2798.327241248018
 31
0.0
  0
LINE
  5
321
330
1F
100
AcDbEntity
  8
0-4
  6
Continuous
 62
    92
370
    13
100
AcDbLine
 10
1745.00008454194
 20
2805.827241248018
 30
0.0
 11
1452.50008454194
 21
2805.827241248018
 31
0.0
  0
LINE
  5
322
330
1F
100
AcDbEntity
  8
0-4
  6
Continuous
 62
    92
370
    13
100
AcDbLine
 10
2570.00008454194
 20
2805.827241248018
 30
0.0
 11
2712.50008454194
 21
2805.827241248018
 31
0.0
  0
LINE
  5
323
330
1F
100
AcDbEntity
  8
0-4
  6
Continuous
 62
    92
370
    13
100
AcDbLine
 10
2570.00008454194
 20
2798.327241248018
 30
0.0
 11
2570.00008454194
 21
2805.827241248018
 31
0.0
  0
LINE
  5
324
330
1F
100
AcDbEntity
  8
0-4
  6
Continuous
 62
    92
370
    13
100
AcDbLine
 10
2645.00008454194
 20
1548.327161345575
 30
0.0
 11
2645.00008454194
 21
1555.827161345575
 31
0.0
  0
LINE
  5
325
330
1F
100
AcDbEntity
  8
0-4
  6
Continuous
 62
    92
370
    13
100
AcDbLine
 10
2645.00008454194
 20
1555.827161345575
 30
0.0
 11
2787.50008454194
 21
1555.827161345575
 31
0.0
  0
LINE
  5
326
330
1F
100
AcDbEntity
  8
0-4
  6
Continuous
 62
    92
370
    13
100
AcDbLine
 10
1745.00008454194
 20
1555.827161345575
 30
0.0
 11
1452.50008454194
 21
1555.827161345575
 31
0.0
  0
LINE
  5
327
330
1F
100
AcDbEntity
  8
0-4
  6
Continuous
 62
    92
370
    13
100
AcDbLine
 10
1745.00008454194
 20
1555.827161345575
 30
0.0
 11
1745.00008454194
 21
1548.327161345575
 31
0.0
  0
LINE
  5
328
330
1F
100
AcDbEntity
  8
0-4
  6
Continuous
 62
    92
370
    13
100
AcDbLine
 10
1745.00008454194
 20
305.8270814431324
 30
0.0
 11
1452.50008454194
 21
305.8270814431324
 31
0.0
  0
LINE
  5
329
330
1F
100
AcDbEntity
  8
0-4
  6
Continuous
 62
    92
370
    13
100
AcDbLine
 10
1745.00008454194
 20
305.8270814431324
 30
0.0
 11
1745.00008454194
 21
298.3270814431324
 31
0.0
  0
LINE
  5
32A
330
1F
100
AcDbEntity
  8
0-4
  6
Continuous
 62
    92
370
    13
100
AcDbLine
 10
2720.00008454194
 20
305.8270814431324
 30
0.0
 11
2862.50008454194
 21
305.8270814431324
 31
0.0
  0
LINE
  5
32B
330
1F
100
AcDbEntity
  8
0-4
  6
Continuous
 62
    92
370
    13
100
AcDbLine
 10
2720.00008454194
 20
298.3270814431324
 30
0.0
 11
2720.00008454194
 21
305.8270814431324
 31
0.0
  0
LINE
  5
32C
330
1F
100
AcDbEntity
  8
0-4
  6
Continuous
 62
    92
370
    13
100
AcDbLine
 10
2795.000084541939
 20
-941.6955742772298
 30
0.0
 11
2795.000084541939
 21
-934.1955742772298
 31
0.0
  0
LINE
  5
32D
330
1F
100
AcDbEntity
  8
0-4
  6
Continuous
 62
    92
370
    13
100
AcDbLine
 10
2795.000084541939
 20
-934.1955742772298
 30
0.0
 11
2937.500084541939
 21
-934.1955742772298
 31
0.0
  0
LINE
  5
32E
330
1F
100
AcDbEntity
  8
0-4
  6
Continuous
 62
    92
370
    13
100
AcDbLine
 10
1745.00008454194
 20
-934.1955742772298
 30
0.0
 11
1452.50008454194
 21
-934.1955742772298
 31
0.0
  0
LINE
  5
32F
330
1F
100
AcDbEntity
  8
0-4
  6
Continuous
 62
    92
370
    13
100
AcDbLine
 10
1745.00008454194
 20
-934.1955742772298
 30
0.0
 11
1745.00008454194
 21
-941.6955742772298
 31
0.0
  0
LINE
  5
330
330
1F
100
AcDbEntity
  8
0-4
  6
Continuous
 62
    92
370
    13
100
AcDbLine
 10
2870.000084541939
 20
-2248.003193581752
 30
0.0
 11
2870.000084541939
 21
-2240.503193581752
 31
0.0
  0
LINE
  5
331
330
1F
100
AcDbEntity
  8
0-4
  6
Continuous
 62
    92
370
    13
100
AcDbLine
 10
2870.000084541939
 20
-2240.503193581752
 30
0.0
 11
3012.500084541939
 21
-2240.503193581752
 31
0.0
  0
LINE
  5
332
330
1F
100
AcDbEntity
  8
0-4
  6
Continuous
 62
    92
370
    13
100
AcDbLine
 10
1745.00008454194
 20
-2240.503193581752
 30
0.0
 11
1452.50008454194
 21
-2240.503193581752
 31
0.0
  0
LINE
  5
333
330
1F
100
AcDbEntity
  8
0-4
  6
Continuous
 62
    92
370
    13
100
AcDbLine
 10
1745.00008454194
 20
-2240.503193581752
 30
0.0
 11
1745.00008454194
 21
-2248.003193581752
 31
0.0
  0
LINE
  5
334
330
1F
100
AcDbEntity
  8
0-4
  6
Continuous
 62
    92
370
    13
100
AcDbLine
 10
2847.499156642606
 20
-3459.134698647315
 30
0.0
 11
2847.499156642606
 21
-3451.634698647315
 31
0.0
  0
LINE
  5
335
330
1F
100
AcDbEntity
  8
0-4
  6
Continuous
 62
    92
370
    13
100
AcDbLine
 10
2847.499156642606
 20
-3451.634698647315
 30
0.0
 11
2989.999156642606
 21
-3451.634698647315
 31
0.0
  0
LINE
  5
336
330
1F
100
AcDbEntity
  8
0-4
  6
Continuous
 62
    92
370
    13
100
AcDbLine
 10
1647.499156642606
 20
-3451.634698647315
 30
0.0
 11
1647.499156642606
 21
-3459.134698647315
 31
0.0
  0
LINE
  5
337
330
1F
100
AcDbEntity
  8
0-4
  6
Continuous
 62
    92
370
    13
100
AcDbLine
 10
1647.499156642606
 20
-3451.634698647315
 30
0.0
 11
1354.999156642606
 21
-3451.634698647315
 31
0.0
  0
LINE
  5
338
330
1F
100
AcDbEntity
  8
0-4
  6
Continuous
 62
    92
370
    13
100
AcDbLine
 10
-3792.500393841717
 20
3098.327241248018
 30
0.0
 11
-3792.500393841717
 21
3053.327241248018
 31
0.0
  0
LINE
  5
339
330
1F
100
AcDbEntity
  8
0-4
  6
Continuous
 62
    92
370
    13
100
AcDbLine
 10
-3800.000393841717
 20
3090.827241248018
 30
0.0
 11
-3800.000393841717
 21
3045.827241248018
 31
0.0
  0
LINE
  5
33A
330
1F
100
AcDbEntity
  8
0-4
  6
Continuous
 62
    92
370
    13
100
AcDbLine
 10
-3792.500393841717
 20
3053.327241248018
 30
0.0
 11
-3575.000393841717
 21
3053.327241248018
 31
0.0
  0
LINE
  5
33B
330
1F
100
AcDbEntity
  8
0-4
  6
Continuous
 62
    92
370
    13
100
AcDbLine
 10
-3800.000393841717
 20
3045.827241248018
 30
0.0
 11
-3582.500393841717
 21
3045.827241248018
 31
0.0
  0
LINE
  5
33C
330
1F
100
AcDbEntity
  8
0-4
  6
Continuous
 62
    92
370
    13
100
AcDbLine
 10
-4346.967385252728
 20
3098.327241248018
 30
0.0
 11
-3792.500393841717
 21
3098.327241248018
 31
0.0
  0
LINE
  5
33D
330
1F
100
AcDbEntity
  8
0-4
  6
Continuous
 62
    92
370
    13
100
AcDbLine
 10
-4343.860783534929
 20
3090.827241248018
 30
0.0
 11
-3800.000393841717
 21
3090.827241248018
 31
0.0
  0
LINE
  5
33E
330
1F
100
AcDbEntity
  8
0-B
  6
Continuous
 62
   120
370
     5
100
AcDbLine
 10
-3792.500393841717
 20
3206.135396152335
 30
0.0
 11
-3575.000393841717
 21
3206.135396152335
 31
0.0
  0
LWPOLYLINE
  5
33F
330
1F
100
AcDbEntity
  8
0-B
  6
Continuous
 62
     7
370
     9
100
AcDbPolyline
 90
        4
 70
     1
 43
3.0
 10
-3791.000393841717
 20
3206.135396152335
 42
0.4142135623731
 10
-3792.500393841717
 20
3207.635396152335
 42
0.4142135623731
 10
-3794.000393841717
 20
3206.135396152335
 42
0.4142135623731
 10
-3792.500393841717
 20
3204.635396152335
 42
0.4142135623731
  0
LINE
  5
340
330
1F
100
AcDbEntity
  8
0-B
  6
Continuous
 62
   120
370
     5
100
AcDbLine
 10
-3792.500393841717
 20
3206.135396152335
 30
0.0
 11
-3792.500393841717
 21
3131.135396152335
 31
0.0
  0
LINE
  5
341
330
1F
100
AcDbEntity
  8
0-4
  6
Continuous
 62
    92
370
    13
100
AcDbLine
 10
-3717.500393841717
 20
1848.327161345576
 30
0.0
 11
-3717.500393841717
 21
1803.327161345576
 31
0.0
  0
LINE
  5
342
330
1F
100
AcDbEntity
  8
0-4
  6
Continuous
 62
    92
370
    13
100
AcDbLine
 10
-3725.000393841717
 20
1840.827161345576
 30
0.0
 11
-3725.000393841717
 21
1795.827161345576
 31
0.0
  0
LINE
  5
343
330
1F
100
AcDbEntity
  8
0-4
  6
Continuous
 62
    92
370
    13
100
AcDbLine
 10
-3717.500393841717
 20
1803.327161345576
 30
0.0
 11
-3500.000393841717
 21
1803.327161345576
 31
0.0
  0
LINE
  5
344
330
1F
100
AcDbEntity
  8
0-4
  6
Continuous
 62
    92
370
    13
100
AcDbLine
 10
-3725.000393841717
 20
1795.827161345576
 30
0.0
 11
-3507.500393841717
 21
1795.827161345576
 31
0.0
  0
LINE
  5
345
330
1F
100
AcDbEntity
  8
0-4
  6
Continuous
 62
    92
370
    13
100
AcDbLine
 10
-4346.967385252728
 20
1848.327161345576
 30
0.0
 11
-3717.500393841717
 21
1848.327161345576
 31
0.0
  0
LINE
  5
346
330
1F
100
AcDbEntity
  8
0-4
  6
Continuous
 62
    92
370
    13
100
AcDbLine
 10
-4343.860783534929
 20
1840.827161345576
 30
0.0
 11
-3725.000393841717
 21
1840.827161345576
 31
0.0
  0
LINE
  5
347
330
1F
100
AcDbEntity
  8
0-B
  6
Continuous
 62
   120
370
     5
100
AcDbLine
 10
-3717.500393841717
 20
1956.135316249892
 30
0.0
 11
-3500.000393841717
 21
1956.135316249892
 31
0.0
  0
LWPOLYLINE
  5
348
330
1F
100
AcDbEntity
  8
0-B
  6
Continuous
 62
     7
370
     9
100
AcDbPolyline
 90
        4
 70
     1
 43
3.0
 10
-3716.000393841717
 20
1956.135316249892
 42
0.4142135623731
 10
-3717.500393841717
 20
1957.635316249892
 42
0.4142135623731
 10
-3719.000393841717
 20
1956.135316249892
 42
0.4142135623731
 10
-3717.500393841717
 20
1954.635316249892
 42
0.4142135623731
  0
LINE
  5
349
330
1F
100
AcDbEntity
  8
0-B
  6
Continuous
 62
   120
370
     5
100
AcDbLine
 10
-3717.500393841717
 20
1956.135316249892
 30
0.0
 11
-3717.500393841717
 21
1881.135316249892
 31
0.0
  0
LINE
  5
34A
330
1F
100
AcDbEntity
  8
0-4
  6
Continuous
 62
    92
370
    13
100
AcDbLine
 10
-3642.500393841717
 20
598.3270814431324
 30
0.0
 11
-3642.500393841717
 21
553.3270814431324
 31
0.0
  0
LINE
  5
34B
330
1F
100
AcDbEntity
  8
0-4
  6
Continuous
 62
    92
370
    13
100
AcDbLine
 10
-3650.000393841717
 20
590.8270814431324
 30
0.0
 11
-3650.000393841717
 21
545.8270814431324
 31
0.0
  0
LINE
  5
34C
330
1F
100
AcDbEntity
  8
0-4
  6
Continuous
 62
    92
370
    13
100
AcDbLine
 10
-3642.500393841717
 20
553.3270814431324
 30
0.0
 11
-3425.000393841717
 21
553.3270814431324
 31
0.0
  0
LINE
  5
34D
330
1F
100
AcDbEntity
  8
0-4
  6
Continuous
 62
    92
370
    13
100
AcDbLine
 10
-3650.000393841717
 20
545.8270814431324
 30
0.0
 11
-3432.500393841717
 21
545.8270814431324
 31
0.0
  0
LINE
  5
34E
330
1F
100
AcDbEntity
  8
0-4
  6
Continuous
 62
    92
370
    13
100
AcDbLine
 10
-4346.967385252728
 20
598.3270814431324
 30
0.0
 11
-3642.500393841717
 21
598.3270814431324
 31
0.0
  0
LINE
  5
34F
330
1F
100
AcDbEntity
  8
0-4
  6
Continuous
 62
    92
370
    13
100
AcDbLine
 10
-4343.860783534929
 20
590.8270814431324
 30
0.0
 11
-3650.000393841717
 21
590.8270814431324
 31
0.0
  0
LINE
  5
350
330
1F
100
AcDbEntity
  8
0-B
  6
Continuous
 62
   120
370
     5
100
AcDbLine
 10
-3642.500393841717
 20
706.1352363474487
 30
0.0
 11
-3425.000393841717
 21
706.1352363474487
 31
0.0
  0
LWPOLYLINE
  5
351
330
1F
100
AcDbEntity
  8
0-B
  6
Continuous
 62
     7
370
     9
100
AcDbPolyline
 90
        4
 70
     1
 43
3.0
 10
-3641.000393841717
 20
706.1352363474487
 42
0.4142135623731
 10
-3642.500393841717
 20
707.6352363474487
 42
0.4142135623731
 10
-3644.000393841717
 20
706.1352363474487
 42
0.4142135623731
 10
-3642.500393841717
 20
704.6352363474487
 42
0.4142135623731
  0
LINE
  5
352
330
1F
100
AcDbEntity
  8
0-B
  6
Continuous
 62
   120
370
     5
100
AcDbLine
 10
-3642.500393841717
 20
706.1352363474487
 30
0.0
 11
-3642.500393841717
 21
631.1352363474487
 31
0.0
  0
LINE
  5
353
330
1F
100
AcDbEntity
  8
0-4
  6
Continuous
 62
    92
370
    13
100
AcDbLine
 10
-3567.500393841717
 20
-651.6729984593097
 30
0.0
 11
-3567.500393841717
 21
-696.6729984593097
 31
0.0
  0
LINE
  5
354
330
1F
100
AcDbEntity
  8
0-4
  6
Continuous
 62
    92
370
    13
100
AcDbLine
 10
-3575.000393841717
 20
-659.1729984593097
 30
0.0
 11
-3575.000393841717
 21
-704.1729984593097
 31
0.0
  0
LINE
  5
355
330
1F
100
AcDbEntity
  8
0-4
  6
Continuous
 62
    92
370
    13
100
AcDbLine
 10
-3567.500393841717
 20
-696.6729984593097
 30
0.0
 11
-3350.000393841717
 21
-696.6729984593097
 31
0.0
  0
LINE
  5
356
330
1F
100
AcDbEntity
  8
0-4
  6
Continuous
 62
    92
370
    13
100
AcDbLine
 10
-3575.000393841717
 20
-704.1729984593097
 30
0.0
 11
-3357.500393841717
 21
-704.1729984593097
 31
0.0
  0
LINE
  5
357
330
1F
100
AcDbEntity
  8
0-4
  6
Continuous
 62
    92
370
    13
100
AcDbLine
 10
-4346.967385252728
 20
-651.6729984593097
 30
0.0
 11
-3567.500393841717
 21
-651.6729984593097
 31
0.0
  0
LINE
  5
358
330
1F
100
AcDbEntity
  8
0-4
  6
Continuous
 62
    92
370
    13
100
AcDbLine
 10
-4343.860783534929
 20
-659.1729984593097
 30
0.0
 11
-3575.000393841717
 21
-659.1729984593097
 31
0.0
  0
LINE
  5
359
330
1F
100
AcDbEntity
  8
0-B
  6
Continuous
 62
   120
370
     5
100
AcDbLine
 10
-3567.500393841717
 20
-543.8648435549931
 30
0.0
 11
-3350.000393841717
 21
-543.8648435549931
 31
0.0
  0
LWPOLYLINE
  5
35A
330
1F
100
AcDbEntity
  8
0-B
  6
Continuous
 62
     7
370
     9
100
AcDbPolyline
 90
        4
 70
     1
 43
3.0
 10
-3566.000393841717
 20
-543.8648435549931
 42
0.4142135623731
 10
-3567.500393841717
 20
-542.3648435549931
 42
0.4142135623731
 10
-3569.000393841717
 20
-543.8648435549931
 42
0.4142135623731
 10
-3567.500393841717
 20
-545.3648435549931
 42
0.4142135623731
  0
LINE
  5
35B
330
1F
100
AcDbEntity
  8
0-B
  6
Continuous
 62
   120
370
     5
100
AcDbLine
 10
-3567.500393841717
 20
-543.8648435549931
 30
0.0
 11
-3567.500393841717
 21
-618.8648435549935
 31
0.0
  0
LINE
  5
35C
330
1F
100
AcDbEntity
  8
0-4
  6
Continuous
 62
    92
370
    13
100
AcDbLine
 10
-3492.500393841717
 20
-1901.673078361755
 30
0.0
 11
-3492.500393841717
 21
-1946.673078361755
 31
0.0
  0
LINE
  5
35D
330
1F
100
AcDbEntity
  8
0-4
  6
Continuous
 62
    92
370
    13
100
AcDbLine
 10
-3500.000393841717
 20
-1909.173078361755
 30
0.0
 11
-3500.000393841717
 21
-1954.173078361755
 31
0.0
  0
LINE
  5
35E
330
1F
100
AcDbEntity
  8
0-4
  6
Continuous
 62
    92
370
    13
100
AcDbLine
 10
-3492.500393841717
 20
-1946.673078361755
 30
0.0
 11
-3275.000393841717
 21
-1946.673078361755
 31
0.0
  0
LINE
  5
35F
330
1F
100
AcDbEntity
  8
0-4
  6
Continuous
 62
    92
370
    13
100
AcDbLine
 10
-3500.000393841717
 20
-1954.173078361755
 30
0.0
 11
-3282.500393841717
 21
-1954.173078361755
 31
0.0
  0
LINE
  5
360
330
1F
100
AcDbEntity
  8
0-4
  6
Continuous
 62
    92
370
    13
100
AcDbLine
 10
-4346.967385252728
 20
-1901.673078361755
 30
0.0
 11
-3492.500393841717
 21
-1901.673078361755
 31
0.0
  0
LINE
  5
361
330
1F
100
AcDbEntity
  8
0-4
  6
Continuous
 62
    92
370
    13
100
AcDbLine
 10
-4343.860783534929
 20
-1909.173078361755
 30
0.0
 11
-3500.000393841717
 21
-1909.173078361755
 31
0.0
  0
LINE
  5
362
330
1F
100
AcDbEntity
  8
0-B
  6
Continuous
 62
   120
370
     5
100
AcDbLine
 10
-3492.500393841717
 20
-1793.864923457439
 30
0.0
 11
-3275.000393841717
 21
-1793.864923457439
 31
0.0
  0
LWPOLYLINE
  5
363
330
1F
100
AcDbEntity
  8
0-B
  6
Continuous
 62
     7
370
     9
100
AcDbPolyline
 90
        4
 70
     1
 43
3.0
 10
-3491.000393841717
 20
-1793.864923457439
 42
0.4142135623731
 10
-3492.500393841717
 20
-1792.364923457439
 42
0.4142135623731
 10
-3494.000393841717
 20
-1793.864923457439
 42
0.4142135623731
 10
-3492.500393841717
 20
-1795.364923457439
 42
0.4142135623731
  0
LINE
  5
364
330
1F
100
AcDbEntity
  8
0-B
  6
Continuous
 62
   120
370
     5
100
AcDbLine
 10
-3492.500393841717
 20
-1793.864923457439
 30
0.0
 11
-3492.500393841717
 21
-1868.864923457439
 31
0.0
  0
LINE
  5
365
330
1F
100
AcDbEntity
  8
0-4
  6
Continuous
 62
    92
370
    13
100
AcDbLine
 10
-3417.500393841717
 20
-3147.500185064367
 30
0.0
 11
-3417.500393841717
 21
-3192.500185064367
 31
0.0
  0
LINE
  5
366
330
1F
100
AcDbEntity
  8
0-4
  6
Continuous
 62
    92
370
    13
100
AcDbLine
 10
-3425.000393841717
 20
-3155.000185064367
 30
0.0
 11
-3425.000393841717
 21
-3200.000185064367
 31
0.0
  0
LINE
  5
367
330
1F
100
AcDbEntity
  8
0-4
  6
Continuous
 62
    92
370
    13
100
AcDbLine
 10
-3417.500393841717
 20
-3192.500185064367
 30
0.0
 11
-3200.000393841717
 21
-3192.500185064367
 31
0.0
  0
LINE
  5
368
330
1F
100
AcDbEntity
  8
0-4
  6
Continuous
 62
    92
370
    13
100
AcDbLine
 10
-3425.000393841717
 20
-3200.000185064367
 30
0.0
 11
-3207.500393841717
 21
-3200.000185064367
 31
0.0
  0
LINE
  5
369
330
1F
100
AcDbEntity
  8
0-4
  6
Continuous
 62
    92
370
    13
100
AcDbLine
 10
-4346.967385252728
 20
-3147.500185064367
 30
0.0
 11
-3417.500393841717
 21
-3147.500185064367
 31
0.0
  0
LINE
  5
36A
330
1F
100
AcDbEntity
  8
0-4
  6
Continuous
 62
    92
370
    13
100
AcDbLine
 10
-4343.860783534929
 20
-3155.000185064367
 30
0.0
 11
-3425.000393841717
 21
-3155.000185064367
 31
0.0
  0
LINE
  5
36B
330
1F
100
AcDbEntity
  8
0-B
  6
Continuous
 62
   120
370
     5
100
AcDbLine
 10
-3417.500393841717
 20
-3039.692030160051
 30
0.0
 11
-3200.000393841717
 21
-3039.692030160051
 31
0.0
  0
LWPOLYLINE
  5
36C
330
1F
100
AcDbEntity
  8
0-B
  6
Continuous
 62
     7
370
     9
100
AcDbPolyline
 90
        4
 70
     1
 43
3.0
 10
-3416.000393841717
 20
-3039.692030160051
 42
0.4142135623731
 10
-3417.500393841717
 20
-3038.192030160051
 42
0.4142135623731
 10
-3419.000393841717
 20
-3039.692030160051
 42
0.4142135623731
 10
-3417.500393841717
 20
-3041.192030160051
 42
0.4142135623731
  0
LINE
  5
36D
330
1F
100
AcDbEntity
  8
0-B
  6
Continuous
 62
   120
370
     5
100
AcDbLine
 10
-3417.500393841717
 20
-3039.692030160051
 30
0.0
 11
-3417.500393841717
 21
-3114.692030160051
 31
0.0
  0
LINE
  5
36E
330
1F
100
AcDbEntity
  8
0-4
  6
Continuous
 62
    92
370
    13
100
AcDbLine
 10
2502.50008454194
 20
3098.327241248018
 30
0.0
 11
2502.50008454194
 21
3053.327241248018
 31
0.0
  0
LINE
  5
36F
330
1F
100
AcDbEntity
  8
0-4
  6
Continuous
 62
    92
370
    13
100
AcDbLine
 10
2495.00008454194
 20
3090.827241248018
 30
0.0
 11
2495.00008454194
 21
3045.827241248018
 31
0.0
  0
LINE
  5
370
330
1F
100
AcDbEntity
  8
0-4
  6
Continuous
 62
    92
370
    13
100
AcDbLine
 10
2502.50008454194
 20
3053.327241248018
 30
0.0
 11
2720.00008454194
 21
3053.327241248018
 31
0.0
  0
LINE
  5
371
330
1F
100
AcDbEntity
  8
0-4
  6
Continuous
 62
    92
370
    13
100
AcDbLine
 10
2495.00008454194
 20
3045.827241248018
 30
0.0
 11
2712.50008454194
 21
3045.827241248018
 31
0.0
  0
LINE
  5
372
330
1F
100
AcDbEntity
  8
0-4
  6
Continuous
 62
    92
370
    13
100
AcDbLine
 10
1498.03309313093
 20
3098.327241248018
 30
0.0
 11
2502.50008454194
 21
3098.327241248018
 31
0.0
  0
LINE
  5
373
330
1F
100
AcDbEntity
  8
0-4
  6
Continuous
 62
    92
370
    13
100
AcDbLine
 10
1501.139694848729
 20
3090.827241248018
 30
0.0
 11
2495.00008454194
 21
3090.827241248018
 31
0.0
  0
LINE
  5
374
330
1F
100
AcDbEntity
  8
0-B
  6
Continuous
 62
   120
370
     5
100
AcDbLine
 10
2502.50008454194
 20
3206.135396152335
 30
0.0
 11
2720.00008454194
 21
3206.135396152335
 31
0.0
  0
LWPOLYLINE
  5
375
330
1F
100
AcDbEntity
  8
0-B
  6
Continuous
 62
     7
370
     9
100
AcDbPolyline
 90
        4
 70
     1
 43
3.0
 10
2504.00008454194
 20
3206.135396152335
 42
0.4142135623731
 10
2502.50008454194
 20
3207.635396152335
 42
0.4142135623731
 10
2501.00008454194
 20
3206.135396152335
 42
0.4142135623731
 10
2502.50008454194
 20
3204.635396152335
 42
0.4142135623731
  0
LINE
  5
376
330
1F
100
AcDbEntity
  8
0-B
  6
Continuous
 62
   120
370
     5
100
AcDbLine
 10
2502.50008454194
 20
3206.135396152335
 30
0.0
 11
2502.50008454194
 21
3131.135396152335
 31
0.0
  0
LINE
  5
377
330
1F
100
AcDbEntity
  8
0-4
  6
Continuous
 62
    92
370
    13
100
AcDbLine
 10
2577.50008454194
 20
1848.327161345575
 30
0.0
 11
2577.50008454194
 21
1803.327161345575
 31
0.0
  0
LINE
  5
378
330
1F
100
AcDbEntity
  8
0-4
  6
Continuous
 62
    92
370
    13
100
AcDbLine
 10
2570.00008454194
 20
1840.827161345575
 30
0.0
 11
2570.00008454194
 21
1795.827161345575
 31
0.0
  0
LINE
  5
379
330
1F
100
AcDbEntity
  8
0-4
  6
Continuous
 62
    92
370
    13
100
AcDbLine
 10
2577.50008454194
 20
1803.327161345575
 30
0.0
 11
2795.00008454194
 21
1803.327161345575
 31
0.0
  0
LINE
  5
37A
330
1F
100
AcDbEntity
  8
0-4
  6
Continuous
 62
    92
370
    13
100
AcDbLine
 10
2570.00008454194
 20
1795.827161345575
 30
0.0
 11
2787.50008454194
 21
1795.827161345575
 31
0.0
  0
LINE
  5
37B
330
1F
100
AcDbEntity
  8
0-4
  6
Continuous
 62
    92
370
    13
100
AcDbLine
 10
1498.03309313093
 20
1848.327161345575
 30
0.0
 11
2577.50008454194
 21
1848.327161345575
 31
0.0
  0
LINE
  5
37C
330
1F
100
AcDbEntity
  8
0-4
  6
Continuous
 62
    92
370
    13
100
AcDbLine
 10
1501.139694848729
 20
1840.827161345575
 30
0.0
 11
2570.00008454194
 21
1840.827161345575
 31
0.0
  0
LINE
  5
37D
330
1F
100
AcDbEntity
  8
0-B
  6
Continuous
 62
   120
370
     5
100
AcDbLine
 10
2577.50008454194
 20
1956.135316249891
 30
0.0
 11
2795.00008454194
 21
1956.135316249891
 31
0.0
  0
LWPOLYLINE
  5
37E
330
1F
100
AcDbEntity
  8
0-B
  6
Continuous
 62
     7
370
     9
100
AcDbPolyline
 90
        4
 70
     1
 43
3.0
 10
2579.00008454194
 20
1956.135316249891
 42
0.4142135623731
 10
2577.50008454194
 20
1957.635316249891
 42
0.4142135623731
 10
2576.00008454194
 20
1956.135316249891
 42
0.4142135623731
 10
2577.50008454194
 20
1954.635316249891
 42
0.4142135623731
  0
LINE
  5
37F
330
1F
100
AcDbEntity
  8
0-B
  6
Continuous
 62
   120
370
     5
100
AcDbLine
 10
2577.50008454194
 20
1956.135316249891
 30
0.0
 11
2577.50008454194
 21
1881.135316249891
 31
0.0
  0
LINE
  5
380
330
1F
100
AcDbEntity
  8
0-4
  6
Continuous
 62
    92
370
    13
100
AcDbLine
 10
2652.50008454194
 20
598.3270814431324
 30
0.0
 11
2652.50008454194
 21
553.3270814431324
 31
0.0
  0
LINE
  5
381
330
1F
100
AcDbEntity
  8
0-4
  6
Continuous
 62
    92
370
    13
100
AcDbLine
 10
2645.00008454194
 20
590.8270814431324
 30
0.0
 11
2645.00008454194
 21
545.8270814431324
 31
0.0
  0
LINE
  5
382
330
1F
100
AcDbEntity
  8
0-4
  6
Continuous
 62
    92
370
    13
100
AcDbLine
 10
2652.50008454194
 20
553.3270814431324
 30
0.0
 11
2870.00008454194
 21
553.3270814431324
 31
0.0
  0
LINE
  5
383
330
1F
100
AcDbEntity
  8
0-4
  6
Continuous
 62
    92
370
    13
100
AcDbLine
 10
2645.00008454194
 20
545.8270814431324
 30
0.0
 11
2862.50008454194
 21
545.8270814431324
 31
0.0
  0
LINE
  5
384
330
1F
100
AcDbEntity
  8
0-4
  6
Continuous
 62
    92
370
    13
100
AcDbLine
 10
1498.03309313093
 20
598.3270814431324
 30
0.0
 11
2652.50008454194
 21
598.3270814431324
 31
0.0
  0
LINE
  5
385
330
1F
100
AcDbEntity
  8
0-4
  6
Continuous
 62
    92
370
    13
100
AcDbLine
 10
1501.139694848729
 20
590.8270814431324
 30
0.0
 11
2645.00008454194
 21
590.8270814431324
 31
0.0
  0
LINE
  5
386
330
1F
100
AcDbEntity
  8
0-B
  6
Continuous
 62
   120
370
     5
100
AcDbLine
 10
2652.50008454194
 20
706.1352363474487
 30
0.0
 11
2870.00008454194
 21
706.1352363474487
 31
0.0
  0
LWPOLYLINE
  5
387
330
1F
100
AcDbEntity
  8
0-B
  6
Continuous
 62
     7
370
     9
100
AcDbPolyline
 90
        4
 70
     1
 43
3.0
 10
2654.00008454194
 20
706.1352363474487
 42
0.4142135623731
 10
2652.50008454194
 20
707.6352363474487
 42
0.4142135623731
 10
2651.00008454194
 20
706.1352363474487
 42
0.4142135623731
 10
2652.50008454194
 20
704.6352363474487
 42
0.4142135623731
  0
LINE
  5
388
330
1F
100
AcDbEntity
  8
0-B
  6
Continuous
 62
   120
370
     5
100
AcDbLine
 10
2652.50008454194
 20
706.1352363474487
 30
0.0
 11
2652.50008454194
 21
631.1352363474487
 31
0.0
  0
LINE
  5
389
330
1F
100
AcDbEntity
  8
0-4
  6
Continuous
 62
    92
370
    13
100
AcDbLine
 10
2720.000084541939
 20
-694.1955742772298
 30
0.0
 11
2937.500084541939
 21
-694.1955742772298
 31
0.0
  0
LINE
  5
38A
330
1F
100
AcDbEntity
  8
0-4
  6
Continuous
 62
    92
370
    13
100
AcDbLine
 10
2727.500084541939
 20
-686.6955742772298
 30
0.0
 11
2945.000084541939
 21
-686.6955742772298
 31
0.0
  0
LINE
  5
38B
330
1F
100
AcDbEntity
  8
0-4
  6
Continuous
 62
    92
370
    13
100
AcDbLine
 10
2720.000084541939
 20
-694.1955742772298
 30
0.0
 11
2720.000084541939
 21
-649.1955742772302
 31
0.0
  0
LINE
  5
38C
330
1F
100
AcDbEntity
  8
0-4
  6
Continuous
 62
    92
370
    13
100
AcDbLine
 10
2720.000084541939
 20
-649.1955742772302
 30
0.0
 11
1501.139694848729
 21
-649.1955742772302
 31
0.0
  0
LINE
  5
38D
330
1F
100
AcDbEntity
  8
0-4
  6
Continuous
 62
    92
370
    13
100
AcDbLine
 10
2727.500084541939
 20
-686.6955742772298
 30
0.0
 11
2727.500084541939
 21
-641.6955742772302
 31
0.0
  0
LINE
  5
38E
330
1F
100
AcDbEntity
  8
0-4
  6
Continuous
 62
    92
370
    13
100
AcDbLine
 10
2727.500084541939
 20
-641.6955742772302
 30
0.0
 11
1498.03309313093
 21
-641.6955742772302
 31
0.0
  0
LINE
  5
38F
330
1F
100
AcDbEntity
  8
0-B
  6
Continuous
 62
   120
370
     5
100
AcDbLine
 10
2727.500084541939
 20
-533.887419372914
 30
0.0
 11
2945.000084541939
 21
-533.887419372914
 31
0.0
  0
LWPOLYLINE
  5
390
330
1F
100
AcDbEntity
  8
0-B
  6
Continuous
 62
     7
370
     9
100
AcDbPolyline
 90
        4
 70
     1
 43
3.0
 10
2729.000084541939
 20
-533.887419372914
 42
0.4142135623731
 10
2727.500084541939
 20
-532.387419372914
 42
0.4142135623731
 10
2726.000084541939
 20
-533.887419372914
 42
0.4142135623731
 10
2727.500084541939
 20
-535.387419372914
 42
0.4142135623731
  0
LINE
  5
391
330
1F
100
AcDbEntity
  8
0-B
  6
Continuous
 62
   120
370
     5
100
AcDbLine
 10
2727.500084541939
 20
-533.887419372914
 30
0.0
 11
2727.500084541939
 21
-608.887419372914
 31
0.0
  0
LINE
  5
392
330
1F
100
AcDbEntity
  8
0-4
  6
Continuous
 62
    92
370
    13
100
AcDbLine
 10
2802.500084541939
 20
-1948.003193581752
 30
0.0
 11
2802.500084541939
 21
-1993.003193581752
 31
0.0
  0
LINE
  5
393
330
1F
100
AcDbEntity
  8
0-4
  6
Continuous
 62
    92
370
    13
100
AcDbLine
 10
2802.500084541939
 20
-1948.003193581752
 30
0.0
 11
1498.03309313093
 21
-1948.003193581752
 31
0.0
  0
LINE
  5
394
330
1F
100
AcDbEntity
  8
0-4
  6
Continuous
 62
    92
370
    13
100
AcDbLine
 10
2802.500084541939
 20
-1993.003193581752
 30
0.0
 11
3020.000084541939
 21
-1993.003193581752
 31
0.0
  0
LINE
  5
395
330
1F
100
AcDbEntity
  8
0-4
  6
Continuous
 62
    92
370
    13
100
AcDbLine
 10
2795.000084541939
 20
-1955.503193581752
 30
0.0
 11
1501.139694848729
 21
-1955.503193581752
 31
0.0
  0
LINE
  5
396
330
1F
100
AcDbEntity
  8
0-4
  6
Continuous
 62
    92
370
    13
100
AcDbLine
 10
2795.000084541939
 20
-1955.503193581752
 30
0.0
 11
2795.000084541939
 21
-2000.503193581752
 31
0.0
  0
LINE
  5
397
330
1F
100
AcDbEntity
  8
0-4
  6
Continuous
 62
    92
370
    13
100
AcDbLine
 10
2795.000084541939
 20
-2000.503193581752
 30
0.0
 11
3012.500084541939
 21
-2000.503193581752
 31
0.0
  0
LINE
  5
398
330
1F
100
AcDbEntity
  8
0-B
  6
Continuous
 62
   120
370
     5
100
AcDbLine
 10
2802.500084541939
 20
-1840.195038677436
 30
0.0
 11
3020.000084541939
 21
-1840.195038677436
 31
0.0
  0
LWPOLYLINE
  5
399
330
1F
100
AcDbEntity
  8
0-B
  6
Continuous
 62
     7
370
     9
100
AcDbPolyline
 90
        4
 70
     1
 43
3.0
 10
2804.000084541939
 20
-1840.195038677436
 42
0.4142135623731
 10
2802.500084541939
 20
-1838.695038677436
 42
0.4142135623731
 10
2801.000084541939
 20
-1840.195038677436
 42
0.4142135623731
 10
2802.500084541939
 20
-1841.695038677436
 42
0.4142135623731
  0
LINE
  5
39A
330
1F
100
AcDbEntity
  8
0-B
  6
Continuous
 62
   120
370
     5
100
AcDbLine
 10
2802.500084541939
 20
-1840.195038677436
 30
0.0
 11
2802.500084541939
 21
-1915.195038677436
 31
0.0
  0
LINE
  5
39B
330
1F
100
AcDbEntity
  8
0-B
  6
Continuous
 62
   120
370
     5
100
AcDbLine
 10
2779.999156642606
 20
-3051.326543742999
 30
0.0
 11
2779.999156642606
 21
-3126.326543742999
 31
0.0
  0
LWPOLYLINE
  5
39C
330
1F
100
AcDbEntity
  8
0-B
  6
Continuous
 62
     7
370
     9
100
AcDbPolyline
 90
        4
 70
     1
 43
3.0
 10
2781.499156642606
 20
-3051.326543742999
 42
0.4142135623731
 10
2779.999156642606
 20
-3049.826543742999
 42
0.4142135623731
 10
2778.499156642606
 20
-3051.326543742999
 42
0.4142135623731
 10
2779.999156642606
 20
-3052.826543742999
 42
0.4142135623731
  0
LINE
  5
39D
330
1F
100
AcDbEntity
  8
0-B
  6
Continuous
 62
   120
370
     5
100
AcDbLine
 10
2779.999156642606
 20
-3051.326543742999
 30
0.0
 11
2997.499156642606
 21
-3051.326543742999
 31
0.0
  0
LINE
  5
39E
330
1F
100
AcDbEntity
  8
0-4
  6
Continuous
 62
    92
370
    13
100
AcDbLine
 10
2772.499156642606
 20
-3211.634698647315
 30
0.0
 11
2989.999156642606
 21
-3211.634698647315
 31
0.0
  0
LINE
  5
39F
330
1F
100
AcDbEntity
  8
0-4
  6
Continuous
 62
    92
370
    13
100
AcDbLine
 10
2779.999156642606
 20
-3204.134698647315
 30
0.0
 11
2997.499156642606
 21
-3204.134698647315
 31
0.0
  0
LINE
  5
3A0
330
1F
100
AcDbEntity
  8
0-4
  6
Continuous
 62
    92
370
    13
100
AcDbLine
 10
2772.499156642606
 20
-3166.634698647315
 30
0.0
 11
2772.499156642606
 21
-3211.634698647315
 31
0.0
  0
LINE
  5
3A1
330
1F
100
AcDbEntity
  8
0-4
  6
Continuous
 62
    92
370
    13
100
AcDbLine
 10
2772.499156642606
 20
-3166.634698647315
 30
0.0
 11
1403.638766949394
 21
-3166.634698647315
 31
0.0
  0
LINE
  5
3A2
330
1F
100
AcDbEntity
  8
0-4
  6
Continuous
 62
    92
370
    13
100
AcDbLine
 10
2779.999156642606
 20
-3159.134698647315
 30
0.0
 11
2779.999156642606
 21
-3204.134698647315
 31
0.0
  0
LINE
  5
3A3
330
1F
100
AcDbEntity
  8
0-4
  6
Continuous
 62
    92
370
    13
100
AcDbLine
 10
2779.999156642606
 20
-3159.134698647315
 30
0.0
 11
1400.532165231595
 21
-3159.134698647315
 31
0.0
  0
MTEXT
  5
3A4
330
1F
100
AcDbEntity
  8
0-B
  6
Continuous
 62
     7
370
   211
100
AcDbMText
 10
-3781.250393841717
 20
3210.425396152335
 30
0.0
 40
68.58
 41
180.0
 46
0.0
 71
     7
 72
     1
  1
{\fＭＳ ゴシック|b0|i0|c128|p49;14.5}
 73
     1
 44
1.0
  0
MTEXT
  5
3A5
330
1F
100
AcDbEntity
  8
0-B
  6
Continuous
 62
     7
370
   211
100
AcDbMText
 10
2513.75008454194
 20
3210.425396152335
 30
0.0
 40
68.58
 41
180.0
 46
0.0
 71
     7
 72
     1
  1
{\fＭＳ ゴシック|b0|i0|c128|p49;14.5}
 73
     1
 44
1.0
  0
MTEXT
  5
3A6
330
1F
100
AcDbEntity
  8
0-B
  6
Continuous
 62
     7
370
   211
100
AcDbMText
 10
-3403.978400197204
 20
3020.117241248018
 30
0.0
 40
68.58
 41
45.0
 46
0.0
 71
     7
 72
     1
  1
{\fＭＳ ゴシック|b0|i0|c128|p49;3}
 73
     1
 44
1.0
  0
MTEXT
  5
3A7
330
1F
100
AcDbEntity
  8
0-B
  6
Continuous
 62
     7
370
   211
100
AcDbMText
 10
2894.296080606396
 20
3020.117241248018
 30
0.0
 40
68.58
 41
45.0
 46
0.0
 71
     7
 72
     1
  1
{\fＭＳ ゴシック|b0|i0|c128|p49;3}
 73
     1
 44
1.0
  0
MTEXT
  5
3A8
330
1F
100
AcDbEntity
  8
0-B
  6
Continuous
 62
     7
370
   211
100
AcDbMText
 10
-3706.250393841717
 20
1960.425316249892
 30
0.0
 40
68.58
 41
180.0
 46
0.0
 71
     7
 72
     1
  1
{\fＭＳ ゴシック|b0|i0|c128|p49;14.5}
 73
     1
 44
1.0
  0
MTEXT
  5
3A9
330
1F
100
AcDbEntity
  8
0-B
  6
Continuous
 62
     7
370
   211
100
AcDbMText
 10
2588.75008454194
 20
1960.425316249891
 30
0.0
 40
68.58
 41
180.0
 46
0.0
 71
     7
 72
     1
  1
{\fＭＳ ゴシック|b0|i0|c128|p49;14.5}
 73
     1
 44
1.0
  0
MTEXT
  5
3AA
330
1F
100
AcDbEntity
  8
0-B
  6
Continuous
 62
     7
370
   211
100
AcDbMText
 10
-3328.918315153758
 20
1770.117161345576
 30
0.0
 40
68.58
 41
45.0
 46
0.0
 71
     7
 72
     1
  1
{\fＭＳ ゴシック|b0|i0|c128|p49;3}
 73
     1
 44
1.0
  0
MTEXT
  5
3AB
330
1F
100
AcDbEntity
  8
0-B
  6
Continuous
 62
     7
370
   211
100
AcDbMText
 10
2966.767886855241
 20
1770.117161345575
 30
0.0
 40
68.58
 41
45.0
 46
0.0
 71
     7
 72
     1
  1
{\fＭＳ ゴシック|b0|i0|c128|p49;3}
 73
     1
 44
1.0
  0
MTEXT
  5
3AC
330
1F
100
AcDbEntity
  8
0-B
  6
Continuous
 62
     7
370
   211
100
AcDbMText
 10
-3631.250393841717
 20
710.4252363474486
 30
0.0
 40
68.58
 41
180.0
 46
0.0
 71
     7
 72
     1
  1
{\fＭＳ ゴシック|b0|i0|c128|p49;14.5}
 73
     1
 44
1.0
  0
MTEXT
  5
3AD
330
1F
100
AcDbEntity
  8
0-B
  6
Continuous
 62
     7
370
   211
100
AcDbMText
 10
2663.75008454194
 20
710.4252363474486
 30
0.0
 40
68.58
 41
180.0
 46
0.0
 71
     7
 72
     1
  1
{\fＭＳ ゴシック|b0|i0|c128|p49;14.5}
 73
     1
 44
1.0
  0
MTEXT
  5
3AE
330
1F
100
AcDbEntity
  8
0-B
  6
Continuous
 62
     7
370
   211
100
AcDbMText
 10
-3251.78760707463
 20
520.1170814431324
 30
0.0
 40
68.58
 41
45.0
 46
0.0
 71
     7
 72
     1
  1
{\fＭＳ ゴシック|b0|i0|c128|p49;3}
 73
     1
 44
1.0
  0
MTEXT
  5
3AF
330
1F
100
AcDbEntity
  8
0-B
  6
Continuous
 62
     7
370
   211
100
AcDbMText
 10
3032.326180402925
 20
520.1170814431324
 30
0.0
 40
68.58
 41
45.0
 46
0.0
 71
     7
 72
     1
  1
{\fＭＳ ゴシック|b0|i0|c128|p49;3}
 73
     1
 44
1.0
  0
MTEXT
  5
3B0
330
1F
100
AcDbEntity
  8
0-B
  6
Continuous
 62
     7
370
   211
100
AcDbMText
 10
2731.250084541939
 20
-525.311169372914
 30
0.0
 40
77.15249999999999
 41
202.5
 46
0.0
 71
     7
 72
     1
  1
{\fＭＳ ゴシック|b0|i0|c128|p49;14.5}
 73
     1
 44
1.0
  0
MTEXT
  5
3B1
330
1F
100
AcDbEntity
  8
0-B
  6
Continuous
 62
     7
370
   211
100
AcDbMText
 10
-3556.250393841717
 20
-539.5748435549931
 30
0.0
 40
68.58
 41
180.0
 46
0.0
 71
     7
 72
     1
  1
{\fＭＳ ゴシック|b0|i0|c128|p49;14.5}
 73
     1
 44
1.0
  0
MTEXT
  5
3B2
330
1F
100
AcDbEntity
  8
0-B
  6
Continuous
 62
     7
370
   211
100
AcDbMText
 10
3108.087909040488
 20
-719.9055742772298
 30
0.0
 40
68.58
 41
45.0
 46
0.0
 71
     7
 72
     1
  1
{\fＭＳ ゴシック|b0|i0|c128|p49;3}
 73
     1
 44
1.0
  0
MTEXT
  5
3B3
330
1F
100
AcDbEntity
  8
0-B
  6
Continuous
 62
     7
370
   211
100
AcDbMText
 10
-3179.833456584706
 20
-729.8829984593098
 30
0.0
 40
68.58
 41
45.0
 46
0.0
 71
     7
 72
     1
  1
{\fＭＳ ゴシック|b0|i0|c128|p49;3}
 73
     1
 44
1.0
  0
MTEXT
  5
3B4
330
1F
100
AcDbEntity
  8
0-B
  6
Continuous
 62
     7
370
   211
100
AcDbMText
 10
-3481.250393841717
 20
-1789.574923457439
 30
0.0
 40
68.58
 41
180.0
 46
0.0
 71
     7
 72
     1
  1
{\fＭＳ ゴシック|b0|i0|c128|p49;14.5}
 73
     1
 44
1.0
  0
MTEXT
  5
3B5
330
1F
100
AcDbEntity
  8
0-B
  6
Continuous
 62
     7
370
   211
100
AcDbMText
 10
2806.250084541939
 20
-1831.618788677436
 30
0.0
 40
77.15249999999999
 41
202.5
 46
0.0
 71
     7
 72
     1
  1
{\fＭＳ ゴシック|b0|i0|c128|p49;14.5}
 73
     1
 44
1.0
  0
MTEXT
  5
3B6
330
1F
100
AcDbEntity
  8
0-B
  6
Continuous
 62
     7
370
   211
100
AcDbMText
 10
-3105.118475380541
 20
-1979.883078361755
 30
0.0
 40
68.58
 41
45.0
 46
0.0
 71
     7
 72
     1
  1
{\fＭＳ ゴシック|b0|i0|c128|p49;3}
 73
     1
 44
1.0
  0
MTEXT
  5
3B7
330
1F
100
AcDbEntity
  8
0-B
  6
Continuous
 62
     7
370
   211
100
AcDbMText
 10
3185.736272878536
 20
-2026.213193581752
 30
0.0
 40
68.58
 41
45.0
 46
0.0
 71
     7
 72
     1
  1
{\fＭＳ ゴシック|b0|i0|c128|p49;3}
 73
     1
 44
1.0
  0
MTEXT
  5
3B8
330
1F
100
AcDbEntity
  8
0-B
  6
Continuous
 62
     7
370
   211
100
AcDbMText
 10
-3406.250393841717
 20
-3035.402030160051
 30
0.0
 40
68.58
 41
180.0
 46
0.0
 71
     7
 72
     1
  1
{\fＭＳ ゴシック|b0|i0|c128|p49;14.5}
 73
     1
 44
1.0
  0
MTEXT
  5
3B9
330
1F
100
AcDbEntity
  8
0-B
  6
Continuous
 62
     7
370
   211
100
AcDbMText
 10
2783.749156642606
 20
-3042.750293743
 30
0.0
 40
77.15249999999999
 41
202.5
 46
0.0
 71
     7
 72
     1
  1
{\fＭＳ ゴシック|b0|i0|c128|p49;14.5}
 73
     1
 44
1.0
  0
MTEXT
  5
3BA
330
1F
100
AcDbEntity
  8
0-B
  6
Continuous
 62
     7
370
   211
100
AcDbMText
 10
-3030.576046096015
 20
-3225.710185064367
 30
0.0
 40
68.58
 41
45.0
 46
0.0
 71
     7
 72
     1
  1
{\fＭＳ ゴシック|b0|i0|c128|p49;3}
 73
     1
 44
1.0
  0
MTEXT
  5
3BB
330
1F
100
AcDbEntity
  8
0-B
  6
Continuous
 62
     7
370
   211
100
AcDbMText
 10
3147.499156642606
 20
-3237.344698647315
 30
0.0
 40
68.58
 41
45.0
 46
0.0
 71
     7
 72
     1
  1
{\fＭＳ ゴシック|b0|i0|c128|p49;3}
 73
     1
 44
1.0
  0
MTEXT
  5
3BC
330
1F
100
AcDbEntity
  8
F-A
  6
Continuous
 62
     7
370
     9
100
AcDbMText
 10
4936.24903358083
 20
-4147.857012699985
 30
0.0
 40
74.295
 41
97.5
 46
0.0
 71
     7
 72
     1
  1
{\fＭＳ ゴシック|b0|i0|c128|p49;01}
 73
     1
 44
1.0
  0
LINE
  5
3BD
330
1F
100
AcDbEntity
  8
0-B
  6
Continuous
 62
   120
370
     5
100
AcDbLine
 10
-4400.000393841718
 20
2648.327241248018
 30
0.0
 11
-4100.000393841718
 21
2648.327241248018
 31
0.0
  0
LWPOLYLINE
  5
3BE
330
1F
100
AcDbEntity
  8
0-B
  6
Continuous
 62
     7
370
     9
100
AcDbPolyline
 90
        4
 70
     1
 43
3.0
 10
-4398.500393841717
 20
2648.327241248018
 42
0.4142135623731
 10
-4400.000393841718
 20
2649.827241248018
 42
0.4142135623731
 10
-4401.500393841718
 20
2648.327241248018
 42
0.4142135623731
 10
-4400.000393841718
 20
2646.827241248019
 42
0.4142135623731
  0
LWPOLYLINE
  5
3BF
330
1F
100
AcDbEntity
  8
0-B
  6
Continuous
 62
     7
370
     9
100
AcDbPolyline
 90
        4
 70
     1
 43
3.0
 10
-4098.500393841717
 20
2648.327241248018
 42
0.4142135623731
 10
-4100.000393841718
 20
2649.827241248018
 42
0.4142135623731
 10
-4101.500393841718
 20
2648.327241248018
 42
0.4142135623731
 10
-4100.000393841718
 20
2646.827241248019
 42
0.4142135623731
  0
LINE
  5
3C0
330
1F
100
AcDbEntity
  8
0-B
  6
Continuous
 62
   120
370
     5
100
AcDbLine
 10
-4400.000393841718
 20
2648.327241248018
 30
0.0
 11
-4400.000393841718
 21
2723.327241248018
 31
0.0
  0
LINE
  5
3C1
330
1F
100
AcDbEntity
  8
0-B
  6
Continuous
 62
   120
370
     5
100
AcDbLine
 10
-4100.000393841718
 20
2648.327241248018
 30
0.0
 11
-4100.000393841718
 21
2723.327241248018
 31
0.0
  0
MTEXT
  5
3C2
330
1F
100
AcDbEntity
  8
0-B
  6
Continuous
 62
     7
370
   211
100
AcDbMText
 10
-4295.000393841718
 20
2652.617241248018
 30
0.0
 40
68.58
 41
90.0
 46
0.0
 71
     7
 72
     1
  1
{\fＭＳ ゴシック|b0|i0|c128|p49;20}
 73
     1
 44
1.0
  0
MTEXT
  5
3C3
330
1F
100
AcDbEntity
  8
F-A
  6
Continuous
 62
     7
370
     0
100
AcDbMText
 10
-5239.999990205507
 20
-4045.254708805663
 30
0.0
 40
79.49045454545454
 41
2295.0
 46
0.0
 71
     7
 72
     1
  1
{\fＭＳ ゴシック|b0|i0|c128|p49;ドレタス　洋風造作材　窓枠ＡＳ型 55幅－110幅}
 73
     1
 44
1.0
  0
MTEXT
  5
3C4
330
1F
100
AcDbEntity
  8
0-A
  6
Continuous
 62
     7
370
     9
100
AcDbMText
 10
5427.499348408469
 20
2169.915367003518
 30
0.0
 40
68.58
 41
45.0
 46
0.0
 71
     7
 72
     1
  1
{\fＭＳ ゴシック|b0|i0|c128|p49;1}
 73
     1
 44
1.0
  0
LINE
  5
3C5
330
1F
100
AcDbEntity
  8
F-1
  6
JWW_DASHED1
 62
     7
370
     9
100
AcDbLine
 10
5689.999719568202
 20
2303.750371997421
 30
0.0
 11
4264.999719568202
 21
2303.750371997421
 31
0.0
  0
MTEXT
  5
3C6
330
1F
100
AcDbEntity
  8
0-A
  6
Continuous
 62
     7
370
     9
100
AcDbMText
 10
3559.999719568202
 20
2248.040371997421
 30
0.0
 40
68.58
 41
585.0
 46
0.0
 71
     7
 72
     1
  1
{\fＭＳ ゴシック|b0|i0|c128|p49;3,900×90×20}
 73
     1
 44
1.0
  0
LINE
  5
3C7
330
1F
100
AcDbEntity
  8
0-B
  6
Continuous
 62
   120
370
     5
100
AcDbLine
 10
-4400.000393841718
 20
1398.327161345576
 30
0.0
 11
-4100.000393841718
 21
1398.327161345576
 31
0.0
  0
LWPOLYLINE
  5
3C8
330
1F
100
AcDbEntity
  8
0-B
  6
Continuous
 62
     7
370
     9
100
AcDbPolyline
 90
        4
 70
     1
 43
3.0
 10
-4398.500393841717
 20
1398.327161345576
 42
0.4142135623731
 10
-4400.000393841718
 20
1399.827161345576
 42
0.4142135623731
 10
-4401.500393841718
 20
1398.327161345576
 42
0.4142135623731
 10
-4400.000393841718
 20
1396.827161345576
 42
0.4142135623731
  0
LWPOLYLINE
  5
3C9
330
1F
100
AcDbEntity
  8
0-B
  6
Continuous
 62
     7
370
     9
100
AcDbPolyline
 90
        4
 70
     1
 43
3.0
 10
-4098.500393841717
 20
1398.327161345576
 42
0.4142135623731
 10
-4100.000393841718
 20
1399.827161345576
 42
0.4142135623731
 10
-4101.500393841718
 20
1398.327161345576
 42
0.4142135623731
 10
-4100.000393841718
 20
1396.827161345576
 42
0.4142135623731
  0
LINE
  5
3CA
330
1F
100
AcDbEntity
  8
0-B
  6
Continuous
 62
   120
370
     5
100
AcDbLine
 10
-4400.000393841718
 20
1398.327161345576
 30
0.0
 11
-4400.000393841718
 21
1473.327161345576
 31
0.0
  0
LINE
  5
3CB
330
1F
100
AcDbEntity
  8
0-B
  6
Continuous
 62
   120
370
     5
100
AcDbLine
 10
-4100.000393841718
 20
1398.327161345576
 30
0.0
 11
-4100.000393841718
 21
1473.327161345576
 31
0.0
  0
MTEXT
  5
3CC
330
1F
100
AcDbEntity
  8
0-B
  6
Continuous
 62
     7
370
   211
100
AcDbMText
 10
-4295.000393841718
 20
1402.617161345576
 30
0.0
 40
68.58
 41
90.0
 46
0.0
 71
     7
 72
     1
  1
{\fＭＳ ゴシック|b0|i0|c128|p49;20}
 73
     1
 44
1.0
  0
LINE
  5
3CD
330
1F
100
AcDbEntity
  8
0-B
  6
Continuous
 62
   120
370
     5
100
AcDbLine
 10
-4400.000393841718
 20
148.3270814431324
 30
0.0
 11
-4100.000393841718
 21
148.3270814431324
 31
0.0
  0
LWPOLYLINE
  5
3CE
330
1F
100
AcDbEntity
  8
0-B
  6
Continuous
 62
     7
370
     9
100
AcDbPolyline
 90
        4
 70
     1
 43
3.0
 10
-4398.500393841717
 20
148.3270814431324
 42
0.4142135623731
 10
-4400.000393841718
 20
149.8270814431324
 42
0.4142135623731
 10
-4401.500393841718
 20
148.3270814431324
 42
0.4142135623731
 10
-4400.000393841718
 20
146.8270814431324
 42
0.4142135623731
  0
LWPOLYLINE
  5
3CF
330
1F
100
AcDbEntity
  8
0-B
  6
Continuous
 62
     7
370
     9
100
AcDbPolyline
 90
        4
 70
     1
 43
3.0
 10
-4098.500393841717
 20
148.3270814431324
 42
0.4142135623731
 10
-4100.000393841718
 20
149.8270814431324
 42
0.4142135623731
 10
-4101.500393841718
 20
148.3270814431324
 42
0.4142135623731
 10
-4100.000393841718
 20
146.8270814431324
 42
0.4142135623731
  0
LINE
  5
3D0
330
1F
100
AcDbEntity
  8
0-B
  6
Continuous
 62
   120
370
     5
100
AcDbLine
 10
-4400.000393841718
 20
148.3270814431324
 30
0.0
 11
-4400.000393841718
 21
223.3270814431324
 31
0.0
  0
LINE
  5
3D1
330
1F
100
AcDbEntity
  8
0-B
  6
Continuous
 62
   120
370
     5
100
AcDbLine
 10
-4100.000393841718
 20
148.3270814431324
 30
0.0
 11
-4100.000393841718
 21
223.3270814431324
 31
0.0
  0
MTEXT
  5
3D2
330
1F
100
AcDbEntity
  8
0-B
  6
Continuous
 62
     7
370
   211
100
AcDbMText
 10
-4295.000393841718
 20
152.6170814431324
 30
0.0
 40
68.58
 41
90.0
 46
0.0
 71
     7
 72
     1
  1
{\fＭＳ ゴシック|b0|i0|c128|p49;20}
 73
     1
 44
1.0
  0
LINE
  5
3D3
330
1F
100
AcDbEntity
  8
0-B
  6
Continuous
 62
   120
370
     5
100
AcDbLine
 10
-4400.000393841718
 20
-3597.500185064368
 30
0.0
 11
-4100.000393841718
 21
-3597.500185064368
 31
0.0
  0
LWPOLYLINE
  5
3D4
330
1F
100
AcDbEntity
  8
0-B
  6
Continuous
 62
     7
370
     9
100
AcDbPolyline
 90
        4
 70
     1
 43
3.0
 10
-4398.500393841717
 20
-3597.500185064368
 42
0.4142135623731
 10
-4400.000393841718
 20
-3596.000185064368
 42
0.4142135623731
 10
-4401.500393841718
 20
-3597.500185064368
 42
0.4142135623731
 10
-4400.000393841718
 20
-3599.000185064368
 42
0.4142135623731
  0
LWPOLYLINE
  5
3D5
330
1F
100
AcDbEntity
  8
0-B
  6
Continuous
 62
     7
370
     9
100
AcDbPolyline
 90
        4
 70
     1
 43
3.0
 10
-4098.500393841717
 20
-3597.500185064368
 42
0.4142135623731
 10
-4100.000393841718
 20
-3596.000185064368
 42
0.4142135623731
 10
-4101.500393841718
 20
-3597.500185064368
 42
0.4142135623731
 10
-4100.000393841718
 20
-3599.000185064368
 42
0.4142135623731
  0
LINE
  5
3D6
330
1F
100
AcDbEntity
  8
0-B
  6
Continuous
 62
   120
370
     5
100
AcDbLine
 10
-4400.000393841718
 20
-3597.500185064368
 30
0.0
 11
-4400.000393841718
 21
-3522.500185064368
 31
0.0
  0
LINE
  5
3D7
330
1F
100
AcDbEntity
  8
0-B
  6
Continuous
 62
   120
370
     5
100
AcDbLine
 10
-4100.000393841718
 20
-3597.500185064368
 30
0.0
 11
-4100.000393841718
 21
-3522.500185064368
 31
0.0
  0
MTEXT
  5
3D8
330
1F
100
AcDbEntity
  8
0-B
  6
Continuous
 62
     7
370
   211
100
AcDbMText
 10
-4295.000393841718
 20
-3593.210185064368
 30
0.0
 40
68.58
 41
90.0
 46
0.0
 71
     7
 72
     1
  1
{\fＭＳ ゴシック|b0|i0|c128|p49;20}
 73
     1
 44
1.0
  0
LINE
  5
3D9
330
1F
100
AcDbEntity
  8
0-B
  6
Continuous
 62
   120
370
     5
100
AcDbLine
 10
-4400.000393841718
 20
-2351.673078361755
 30
0.0
 11
-4100.000393841718
 21
-2351.673078361755
 31
0.0
  0
LWPOLYLINE
  5
3DA
330
1F
100
AcDbEntity
  8
0-B
  6
Continuous
 62
     7
370
     9
100
AcDbPolyline
 90
        4
 70
     1
 43
3.0
 10
-4398.500393841717
 20
-2351.673078361755
 42
0.4142135623731
 10
-4400.000393841718
 20
-2350.173078361755
 42
0.4142135623731
 10
-4401.500393841718
 20
-2351.673078361755
 42
0.4142135623731
 10
-4400.000393841718
 20
-2353.173078361755
 42
0.4142135623731
  0
LWPOLYLINE
  5
3DB
330
1F
100
AcDbEntity
  8
0-B
  6
Continuous
 62
     7
370
     9
100
AcDbPolyline
 90
        4
 70
     1
 43
3.0
 10
-4098.500393841717
 20
-2351.673078361755
 42
0.4142135623731
 10
-4100.000393841718
 20
-2350.173078361755
 42
0.4142135623731
 10
-4101.500393841718
 20
-2351.673078361755
 42
0.4142135623731
 10
-4100.000393841718
 20
-2353.173078361755
 42
0.4142135623731
  0
LINE
  5
3DC
330
1F
100
AcDbEntity
  8
0-B
  6
Continuous
 62
   120
370
     5
100
AcDbLine
 10
-4400.000393841718
 20
-2351.673078361755
 30
0.0
 11
-4400.000393841718
 21
-2276.673078361755
 31
0.0
  0
LINE
  5
3DD
330
1F
100
AcDbEntity
  8
0-B
  6
Continuous
 62
   120
370
     5
100
AcDbLine
 10
-4100.000393841718
 20
-2351.673078361755
 30
0.0
 11
-4100.000393841718
 21
-2276.673078361755
 31
0.0
  0
MTEXT
  5
3DE
330
1F
100
AcDbEntity
  8
0-B
  6
Continuous
 62
     7
370
   211
100
AcDbMText
 10
-4295.000393841718
 20
-2347.383078361755
 30
0.0
 40
68.58
 41
90.0
 46
0.0
 71
     7
 72
     1
  1
{\fＭＳ ゴシック|b0|i0|c128|p49;20}
 73
     1
 44
1.0
  0
LINE
  5
3DF
330
1F
100
AcDbEntity
  8
0-B
  6
Continuous
 62
   120
370
     5
100
AcDbLine
 10
-4400.000393841718
 20
-1101.67299845931
 30
0.0
 11
-4100.000393841718
 21
-1101.67299845931
 31
0.0
  0
LWPOLYLINE
  5
3E0
330
1F
100
AcDbEntity
  8
0-B
  6
Continuous
 62
     7
370
     9
100
AcDbPolyline
 90
        4
 70
     1
 43
3.0
 10
-4398.500393841717
 20
-1101.67299845931
 42
0.4142135623731
 10
-4400.000393841718
 20
-1100.17299845931
 42
0.4142135623731
 10
-4401.500393841718
 20
-1101.67299845931
 42
0.4142135623731
 10
-4400.000393841718
 20
-1103.17299845931
 42
0.4142135623731
  0
LWPOLYLINE
  5
3E1
330
1F
100
AcDbEntity
  8
0-B
  6
Continuous
 62
     7
370
     9
100
AcDbPolyline
 90
        4
 70
     1
 43
3.0
 10
-4098.500393841717
 20
-1101.67299845931
 42
0.4142135623731
 10
-4100.000393841718
 20
-1100.17299845931
 42
0.4142135623731
 10
-4101.500393841718
 20
-1101.67299845931
 42
0.4142135623731
 10
-4100.000393841718
 20
-1103.17299845931
 42
0.4142135623731
  0
LINE
  5
3E2
330
1F
100
AcDbEntity
  8
0-B
  6
Continuous
 62
   120
370
     5
100
AcDbLine
 10
-4400.000393841718
 20
-1101.67299845931
 30
0.0
 11
-4400.000393841718
 21
-1026.67299845931
 31
0.0
  0
LINE
  5
3E3
330
1F
100
AcDbEntity
  8
0-B
  6
Continuous
 62
   120
370
     5
100
AcDbLine
 10
-4100.000393841718
 20
-1101.67299845931
 30
0.0
 11
-4100.000393841718
 21
-1026.67299845931
 31
0.0
  0
MTEXT
  5
3E4
330
1F
100
AcDbEntity
  8
0-B
  6
Continuous
 62
     7
370
   211
100
AcDbMText
 10
-4295.000393841718
 20
-1097.38299845931
 30
0.0
 40
68.58
 41
90.0
 46
0.0
 71
     7
 72
     1
  1
{\fＭＳ ゴシック|b0|i0|c128|p49;20}
 73
     1
 44
1.0
  0
LINE
  5
3E5
330
1F
100
AcDbEntity
  8
0-B
  6
Continuous
 62
   120
370
     5
100
AcDbLine
 10
1347.499156642606
 20
-3609.134698647315
 30
0.0
 11
1647.499156642606
 21
-3609.134698647315
 31
0.0
  0
LWPOLYLINE
  5
3E6
330
1F
100
AcDbEntity
  8
0-B
  6
Continuous
 62
     7
370
     9
100
AcDbPolyline
 90
        4
 70
     1
 43
3.0
 10
1348.999156642605
 20
-3609.134698647315
 42
0.4142135623731
 10
1347.499156642606
 20
-3607.634698647315
 42
0.4142135623731
 10
1345.999156642606
 20
-3609.134698647315
 42
0.4142135623731
 10
1347.499156642606
 20
-3610.634698647315
 42
0.4142135623731
  0
LWPOLYLINE
  5
3E7
330
1F
100
AcDbEntity
  8
0-B
  6
Continuous
 62
     7
370
     9
100
AcDbPolyline
 90
        4
 70
     1
 43
3.0
 10
1648.999156642605
 20
-3609.134698647315
 42
0.4142135623731
 10
1647.499156642606
 20
-3607.634698647315
 42
0.4142135623731
 10
1645.999156642606
 20
-3609.134698647315
 42
0.4142135623731
 10
1647.499156642606
 20
-3610.634698647315
 42
0.4142135623731
  0
LINE
  5
3E8
330
1F
100
AcDbEntity
  8
0-B
  6
Continuous
 62
   120
370
     5
100
AcDbLine
 10
1347.499156642606
 20
-3609.134698647315
 30
0.0
 11
1347.499156642606
 21
-3534.134698647315
 31
0.0
  0
LINE
  5
3E9
330
1F
100
AcDbEntity
  8
0-B
  6
Continuous
 62
   120
370
     5
100
AcDbLine
 10
1647.499156642606
 20
-3609.134698647315
 30
0.0
 11
1647.499156642606
 21
-3534.134698647315
 31
0.0
  0
MTEXT
  5
3EA
330
1F
100
AcDbEntity
  8
0-B
  6
Continuous
 62
     7
370
   211
100
AcDbMText
 10
1452.499156642606
 20
-3604.844698647315
 30
0.0
 40
68.58
 41
90.0
 46
0.0
 71
     7
 72
     1
  1
{\fＭＳ ゴシック|b0|i0|c128|p49;20}
 73
     1
 44
1.0
  0
LINE
  5
3EB
330
1F
100
AcDbEntity
  8
0-B
  6
Continuous
 62
   120
370
     5
100
AcDbLine
 10
1445.00008454194
 20
-2398.003193581752
 30
0.0
 11
1745.00008454194
 21
-2398.003193581752
 31
0.0
  0
LWPOLYLINE
  5
3EC
330
1F
100
AcDbEntity
  8
0-B
  6
Continuous
 62
     7
370
     9
100
AcDbPolyline
 90
        4
 70
     1
 43
3.0
 10
1446.50008454194
 20
-2398.003193581752
 42
0.4142135623731
 10
1445.00008454194
 20
-2396.503193581752
 42
0.4142135623731
 10
1443.50008454194
 20
-2398.003193581752
 42
0.4142135623731
 10
1445.00008454194
 20
-2399.503193581752
 42
0.4142135623731
  0
LWPOLYLINE
  5
3ED
330
1F
100
AcDbEntity
  8
0-B
  6
Continuous
 62
     7
370
     9
100
AcDbPolyline
 90
        4
 70
     1
 43
3.0
 10
1746.50008454194
 20
-2398.003193581752
 42
0.4142135623731
 10
1745.00008454194
 20
-2396.503193581752
 42
0.4142135623731
 10
1743.50008454194
 20
-2398.003193581752
 42
0.4142135623731
 10
1745.00008454194
 20
-2399.503193581752
 42
0.4142135623731
  0
LINE
  5
3EE
330
1F
100
AcDbEntity
  8
0-B
  6
Continuous
 62
   120
370
     5
100
AcDbLine
 10
1445.00008454194
 20
-2398.003193581752
 30
0.0
 11
1445.00008454194
 21
-2323.003193581752
 31
0.0
  0
LINE
  5
3EF
330
1F
100
AcDbEntity
  8
0-B
  6
Continuous
 62
   120
370
     5
100
AcDbLine
 10
1745.00008454194
 20
-2398.003193581752
 30
0.0
 11
1745.00008454194
 21
-2323.003193581752
 31
0.0
  0
MTEXT
  5
3F0
330
1F
100
AcDbEntity
  8
0-B
  6
Continuous
 62
     7
370
   211
100
AcDbMText
 10
1550.00008454194
 20
-2393.713193581752
 30
0.0
 40
68.58
 41
90.0
 46
0.0
 71
     7
 72
     1
  1
{\fＭＳ ゴシック|b0|i0|c128|p49;20}
 73
     1
 44
1.0
  0
LINE
  5
3F1
330
1F
100
AcDbEntity
  8
0-B
  6
Continuous
 62
   120
370
     5
100
AcDbLine
 10
1445.00008454194
 20
-1091.69557427723
 30
0.0
 11
1745.00008454194
 21
-1091.69557427723
 31
0.0
  0
LWPOLYLINE
  5
3F2
330
1F
100
AcDbEntity
  8
0-B
  6
Continuous
 62
     7
370
     9
100
AcDbPolyline
 90
        4
 70
     1
 43
3.0
 10
1446.50008454194
 20
-1091.69557427723
 42
0.4142135623731
 10
1445.00008454194
 20
-1090.19557427723
 42
0.4142135623731
 10
1443.50008454194
 20
-1091.69557427723
 42
0.4142135623731
 10
1445.00008454194
 20
-1093.19557427723
 42
0.4142135623731
  0
LWPOLYLINE
  5
3F3
330
1F
100
AcDbEntity
  8
0-B
  6
Continuous
 62
     7
370
     9
100
AcDbPolyline
 90
        4
 70
     1
 43
3.0
 10
1746.50008454194
 20
-1091.69557427723
 42
0.4142135623731
 10
1745.00008454194
 20
-1090.19557427723
 42
0.4142135623731
 10
1743.50008454194
 20
-1091.69557427723
 42
0.4142135623731
 10
1745.00008454194
 20
-1093.19557427723
 42
0.4142135623731
  0
LINE
  5
3F4
330
1F
100
AcDbEntity
  8
0-B
  6
Continuous
 62
   120
370
     5
100
AcDbLine
 10
1445.00008454194
 20
-1091.69557427723
 30
0.0
 11
1445.00008454194
 21
-1016.69557427723
 31
0.0
  0
LINE
  5
3F5
330
1F
100
AcDbEntity
  8
0-B
  6
Continuous
 62
   120
370
     5
100
AcDbLine
 10
1745.00008454194
 20
-1091.69557427723
 30
0.0
 11
1745.00008454194
 21
-1016.69557427723
 31
0.0
  0
MTEXT
  5
3F6
330
1F
100
AcDbEntity
  8
0-B
  6
Continuous
 62
     7
370
   211
100
AcDbMText
 10
1550.00008454194
 20
-1087.40557427723
 30
0.0
 40
68.58
 41
90.0
 46
0.0
 71
     7
 72
     1
  1
{\fＭＳ ゴシック|b0|i0|c128|p49;20}
 73
     1
 44
1.0
  0
LINE
  5
3F7
330
1F
100
AcDbEntity
  8
0-B
  6
Continuous
 62
   120
370
     5
100
AcDbLine
 10
1445.00008454194
 20
148.3270814431324
 30
0.0
 11
1745.00008454194
 21
148.3270814431324
 31
0.0
  0
LWPOLYLINE
  5
3F8
330
1F
100
AcDbEntity
  8
0-B
  6
Continuous
 62
     7
370
     9
100
AcDbPolyline
 90
        4
 70
     1
 43
3.0
 10
1446.50008454194
 20
148.3270814431324
 42
0.4142135623731
 10
1445.00008454194
 20
149.8270814431324
 42
0.4142135623731
 10
1443.50008454194
 20
148.3270814431324
 42
0.4142135623731
 10
1445.00008454194
 20
146.8270814431324
 42
0.4142135623731
  0
LWPOLYLINE
  5
3F9
330
1F
100
AcDbEntity
  8
0-B
  6
Continuous
 62
     7
370
     9
100
AcDbPolyline
 90
        4
 70
     1
 43
3.0
 10
1746.50008454194
 20
148.3270814431324
 42
0.4142135623731
 10
1745.00008454194
 20
149.8270814431324
 42
0.4142135623731
 10
1743.50008454194
 20
148.3270814431324
 42
0.4142135623731
 10
1745.00008454194
 20
146.8270814431324
 42
0.4142135623731
  0
LINE
  5
3FA
330
1F
100
AcDbEntity
  8
0-B
  6
Continuous
 62
   120
370
     5
100
AcDbLine
 10
1445.00008454194
 20
148.3270814431324
 30
0.0
 11
1445.00008454194
 21
223.3270814431324
 31
0.0
  0
LINE
  5
3FB
330
1F
100
AcDbEntity
  8
0-B
  6
Continuous
 62
   120
370
     5
100
AcDbLine
 10
1745.00008454194
 20
148.3270814431324
 30
0.0
 11
1745.00008454194
 21
223.3270814431324
 31
0.0
  0
MTEXT
  5
3FC
330
1F
100
AcDbEntity
  8
0-B
  6
Continuous
 62
     7
370
   211
100
AcDbMText
 10
1550.00008454194
 20
152.6170814431324
 30
0.0
 40
68.58
 41
90.0
 46
0.0
 71
     7
 72
     1
  1
{\fＭＳ ゴシック|b0|i0|c128|p49;20}
 73
     1
 44
1.0
  0
LINE
  5
3FD
330
1F
100
AcDbEntity
  8
0-B
  6
Continuous
 62
   120
370
     5
100
AcDbLine
 10
1445.00008454194
 20
1398.327161345575
 30
0.0
 11
1745.00008454194
 21
1398.327161345575
 31
0.0
  0
LWPOLYLINE
  5
3FE
330
1F
100
AcDbEntity
  8
0-B
  6
Continuous
 62
     7
370
     9
100
AcDbPolyline
 90
        4
 70
     1
 43
3.0
 10
1446.50008454194
 20
1398.327161345575
 42
0.4142135623731
 10
1445.00008454194
 20
1399.827161345575
 42
0.4142135623731
 10
1443.50008454194
 20
1398.327161345575
 42
0.4142135623731
 10
1445.00008454194
 20
1396.827161345575
 42
0.4142135623731
  0
LWPOLYLINE
  5
3FF
330
1F
100
AcDbEntity
  8
0-B
  6
Continuous
 62
     7
370
     9
100
AcDbPolyline
 90
        4
 70
     1
 43
3.0
 10
1746.50008454194
 20
1398.327161345575
 42
0.4142135623731
 10
1745.00008454194
 20
1399.827161345575
 42
0.4142135623731
 10
1743.50008454194
 20
1398.327161345575
 42
0.4142135623731
 10
1745.00008454194
 20
1396.827161345575
 42
0.4142135623731
  0
LINE
  5
400
330
1F
100
AcDbEntity
  8
0-B
  6
Continuous
 62
   120
370
     5
100
AcDbLine
 10
1445.00008454194
 20
1398.327161345575
 30
0.0
 11
1445.00008454194
 21
1473.327161345575
 31
0.0
  0
LINE
  5
401
330
1F
100
AcDbEntity
  8
0-B
  6
Continuous
 62
   120
370
     5
100
AcDbLine
 10
1745.00008454194
 20
1398.327161345575
 30
0.0
 11
1745.00008454194
 21
1473.327161345575
 31
0.0
  0
MTEXT
  5
402
330
1F
100
AcDbEntity
  8
0-B
  6
Continuous
 62
     7
370
   211
100
AcDbMText
 10
1550.00008454194
 20
1402.617161345575
 30
0.0
 40
68.58
 41
90.0
 46
0.0
 71
     7
 72
     1
  1
{\fＭＳ ゴシック|b0|i0|c128|p49;20}
 73
     1
 44
1.0
  0
LINE
  5
403
330
1F
100
AcDbEntity
  8
0-B
  6
Continuous
 62
   120
370
     5
100
AcDbLine
 10
1445.00008454194
 20
2648.327241248018
 30
0.0
 11
1745.00008454194
 21
2648.327241248018
 31
0.0
  0
LWPOLYLINE
  5
404
330
1F
100
AcDbEntity
  8
0-B
  6
Continuous
 62
     7
370
     9
100
AcDbPolyline
 90
        4
 70
     1
 43
3.0
 10
1446.50008454194
 20
2648.327241248018
 42
0.4142135623731
 10
1445.00008454194
 20
2649.827241248018
 42
0.4142135623731
 10
1443.50008454194
 20
2648.327241248018
 42
0.4142135623731
 10
1445.00008454194
 20
2646.827241248019
 42
0.4142135623731
  0
LWPOLYLINE
  5
405
330
1F
100
AcDbEntity
  8
0-B
  6
Continuous
 62
     7
370
     9
100
AcDbPolyline
 90
        4
 70
     1
 43
3.0
 10
1746.50008454194
 20
2648.327241248018
 42
0.4142135623731
 10
1745.00008454194
 20
2649.827241248018
 42
0.4142135623731
 10
1743.50008454194
 20
2648.327241248018
 42
0.4142135623731
 10
1745.00008454194
 20
2646.827241248019
 42
0.4142135623731
  0
LINE
  5
406
330
1F
100
AcDbEntity
  8
0-B
  6
Continuous
 62
   120
370
     5
100
AcDbLine
 10
1445.00008454194
 20
2648.327241248018
 30
0.0
 11
1445.00008454194
 21
2723.327241248018
 31
0.0
  0
LINE
  5
407
330
1F
100
AcDbEntity
  8
0-B
  6
Continuous
 62
   120
370
     5
100
AcDbLine
 10
1745.00008454194
 20
2648.327241248018
 30
0.0
 11
1745.00008454194
 21
2723.327241248018
 31
0.0
  0
MTEXT
  5
408
330
1F
100
AcDbEntity
  8
0-B
  6
Continuous
 62
     7
370
   211
100
AcDbMText
 10
1550.00008454194
 20
2652.617241248018
 30
0.0
 40
68.58
 41
90.0
 46
0.0
 71
     7
 72
     1
  1
{\fＭＳ ゴシック|b0|i0|c128|p49;20}
 73
     1
 44
1.0
  0
LINE
  5
409
330
1F
100
AcDbEntity
  8
0-B
  6
Continuous
 62
   120
370
     5
100
AcDbLine
 10
-3725.000393841717
 20
2648.327241248018
 30
0.0
 11
-3575.000393841717
 21
2648.327241248018
 31
0.0
  0
LWPOLYLINE
  5
40A
330
1F
100
AcDbEntity
  8
0-B
  6
Continuous
 62
     7
370
     9
100
AcDbPolyline
 90
        4
 70
     1
 43
3.0
 10
-3723.500393841717
 20
2648.327241248018
 42
0.4142135623731
 10
-3725.000393841717
 20
2649.827241248018
 42
0.4142135623731
 10
-3726.500393841717
 20
2648.327241248018
 42
0.4142135623731
 10
-3725.000393841717
 20
2646.827241248019
 42
0.4142135623731
  0
LWPOLYLINE
  5
40B
330
1F
100
AcDbEntity
  8
0-B
  6
Continuous
 62
     7
370
     9
100
AcDbPolyline
 90
        4
 70
     1
 43
3.0
 10
-3573.500393841717
 20
2648.327241248018
 42
0.4142135623731
 10
-3575.000393841717
 20
2649.827241248018
 42
0.4142135623731
 10
-3576.500393841717
 20
2648.327241248018
 42
0.4142135623731
 10
-3575.000393841717
 20
2646.827241248019
 42
0.4142135623731
  0
LINE
  5
40C
330
1F
100
AcDbEntity
  8
0-B
  6
Continuous
 62
   120
370
     5
100
AcDbLine
 10
-3725.000393841717
 20
2648.327241248018
 30
0.0
 11
-3725.000393841717
 21
2723.327241248018
 31
0.0
  0
LINE
  5
40D
330
1F
100
AcDbEntity
  8
0-B
  6
Continuous
 62
   120
370
     5
100
AcDbLine
 10
-3575.000393841717
 20
2648.327241248018
 30
0.0
 11
-3575.000393841717
 21
2723.327241248018
 31
0.0
  0
MTEXT
  5
40E
330
1F
100
AcDbEntity
  8
0-B
  6
Continuous
 62
     7
370
   211
100
AcDbMText
 10
-3695.000393841717
 20
2652.617241248018
 30
0.0
 40
68.58
 41
90.0
 46
0.0
 71
     7
 72
     1
  1
{\fＭＳ ゴシック|b0|i0|c128|p49;10}
 73
     1
 44
1.0
  0
LINE
  5
40F
330
1F
100
AcDbEntity
  8
0-B
  6
Continuous
 62
   120
370
     5
100
AcDbLine
 10
-3650.000393841717
 20
1398.327161345576
 30
0.0
 11
-3500.000393841717
 21
1398.327161345576
 31
0.0
  0
LWPOLYLINE
  5
410
330
1F
100
AcDbEntity
  8
0-B
  6
Continuous
 62
     7
370
     9
100
AcDbPolyline
 90
        4
 70
     1
 43
3.0
 10
-3648.500393841717
 20
1398.327161345576
 42
0.4142135623731
 10
-3650.000393841717
 20
1399.827161345576
 42
0.4142135623731
 10
-3651.500393841717
 20
1398.327161345576
 42
0.4142135623731
 10
-3650.000393841717
 20
1396.827161345576
 42
0.4142135623731
  0
LWPOLYLINE
  5
411
330
1F
100
AcDbEntity
  8
0-B
  6
Continuous
 62
     7
370
     9
100
AcDbPolyline
 90
        4
 70
     1
 43
3.0
 10
-3498.500393841717
 20
1398.327161345576
 42
0.4142135623731
 10
-3500.000393841717
 20
1399.827161345576
 42
0.4142135623731
 10
-3501.500393841717
 20
1398.327161345576
 42
0.4142135623731
 10
-3500.000393841717
 20
1396.827161345576
 42
0.4142135623731
  0
LINE
  5
412
330
1F
100
AcDbEntity
  8
0-B
  6
Continuous
 62
   120
370
     5
100
AcDbLine
 10
-3650.000393841717
 20
1398.327161345576
 30
0.0
 11
-3650.000393841717
 21
1473.327161345576
 31
0.0
  0
LINE
  5
413
330
1F
100
AcDbEntity
  8
0-B
  6
Continuous
 62
   120
370
     5
100
AcDbLine
 10
-3500.000393841717
 20
1398.327161345576
 30
0.0
 11
-3500.000393841717
 21
1473.327161345576
 31
0.0
  0
MTEXT
  5
414
330
1F
100
AcDbEntity
  8
0-B
  6
Continuous
 62
     7
370
   211
100
AcDbMText
 10
-3620.000393841717
 20
1402.617161345576
 30
0.0
 40
68.58
 41
90.0
 46
0.0
 71
     7
 72
     1
  1
{\fＭＳ ゴシック|b0|i0|c128|p49;10}
 73
     1
 44
1.0
  0
LINE
  5
415
330
1F
100
AcDbEntity
  8
0-B
  6
Continuous
 62
   120
370
     5
100
AcDbLine
 10
-3575.000393841717
 20
148.3270814431324
 30
0.0
 11
-3425.000393841717
 21
148.3270814431324
 31
0.0
  0
LWPOLYLINE
  5
416
330
1F
100
AcDbEntity
  8
0-B
  6
Continuous
 62
     7
370
     9
100
AcDbPolyline
 90
        4
 70
     1
 43
3.0
 10
-3573.500393841717
 20
148.3270814431324
 42
0.4142135623731
 10
-3575.000393841717
 20
149.8270814431324
 42
0.4142135623731
 10
-3576.500393841717
 20
148.3270814431324
 42
0.4142135623731
 10
-3575.000393841717
 20
146.8270814431324
 42
0.4142135623731
  0
LWPOLYLINE
  5
417
330
1F
100
AcDbEntity
  8
0-B
  6
Continuous
 62
     7
370
     9
100
AcDbPolyline
 90
        4
 70
     1
 43
3.0
 10
-3423.500393841717
 20
148.3270814431324
 42
0.4142135623731
 10
-3425.000393841717
 20
149.8270814431324
 42
0.4142135623731
 10
-3426.500393841717
 20
148.3270814431324
 42
0.4142135623731
 10
-3425.000393841717
 20
146.8270814431324
 42
0.4142135623731
  0
LINE
  5
418
330
1F
100
AcDbEntity
  8
0-B
  6
Continuous
 62
   120
370
     5
100
AcDbLine
 10
-3575.000393841717
 20
148.3270814431324
 30
0.0
 11
-3575.000393841717
 21
223.3270814431324
 31
0.0
  0
LINE
  5
419
330
1F
100
AcDbEntity
  8
0-B
  6
Continuous
 62
   120
370
     5
100
AcDbLine
 10
-3425.000393841717
 20
148.3270814431324
 30
0.0
 11
-3425.000393841717
 21
223.3270814431324
 31
0.0
  0
MTEXT
  5
41A
330
1F
100
AcDbEntity
  8
0-B
  6
Continuous
 62
     7
370
   211
100
AcDbMText
 10
-3545.000393841717
 20
152.6170814431324
 30
0.0
 40
68.58
 41
90.0
 46
0.0
 71
     7
 72
     1
  1
{\fＭＳ ゴシック|b0|i0|c128|p49;10}
 73
     1
 44
1.0
  0
LINE
  5
41B
330
1F
100
AcDbEntity
  8
0-B
  6
Continuous
 62
   120
370
     5
100
AcDbLine
 10
-3500.000393841717
 20
-1101.67299845931
 30
0.0
 11
-3350.000393841717
 21
-1101.67299845931
 31
0.0
  0
LWPOLYLINE
  5
41C
330
1F
100
AcDbEntity
  8
0-B
  6
Continuous
 62
     7
370
     9
100
AcDbPolyline
 90
        4
 70
     1
 43
3.0
 10
-3498.500393841717
 20
-1101.67299845931
 42
0.4142135623731
 10
-3500.000393841717
 20
-1100.17299845931
 42
0.4142135623731
 10
-3501.500393841717
 20
-1101.67299845931
 42
0.4142135623731
 10
-3500.000393841717
 20
-1103.17299845931
 42
0.4142135623731
  0
LWPOLYLINE
  5
41D
330
1F
100
AcDbEntity
  8
0-B
  6
Continuous
 62
     7
370
     9
100
AcDbPolyline
 90
        4
 70
     1
 43
3.0
 10
-3348.500393841717
 20
-1101.67299845931
 42
0.4142135623731
 10
-3350.000393841717
 20
-1100.17299845931
 42
0.4142135623731
 10
-3351.500393841717
 20
-1101.67299845931
 42
0.4142135623731
 10
-3350.000393841717
 20
-1103.17299845931
 42
0.4142135623731
  0
LINE
  5
41E
330
1F
100
AcDbEntity
  8
0-B
  6
Continuous
 62
   120
370
     5
100
AcDbLine
 10
-3500.000393841717
 20
-1101.67299845931
 30
0.0
 11
-3500.000393841717
 21
-1026.67299845931
 31
0.0
  0
LINE
  5
41F
330
1F
100
AcDbEntity
  8
0-B
  6
Continuous
 62
   120
370
     5
100
AcDbLine
 10
-3350.000393841717
 20
-1101.67299845931
 30
0.0
 11
-3350.000393841717
 21
-1026.67299845931
 31
0.0
  0
MTEXT
  5
420
330
1F
100
AcDbEntity
  8
0-B
  6
Continuous
 62
     7
370
   211
100
AcDbMText
 10
-3470.000393841717
 20
-1097.38299845931
 30
0.0
 40
68.58
 41
90.0
 46
0.0
 71
     7
 72
     1
  1
{\fＭＳ ゴシック|b0|i0|c128|p49;10}
 73
     1
 44
1.0
  0
LINE
  5
421
330
1F
100
AcDbEntity
  8
0-B
  6
Continuous
 62
   120
370
     5
100
AcDbLine
 10
-3425.000393841717
 20
-2351.673078361755
 30
0.0
 11
-3275.000393841717
 21
-2351.673078361755
 31
0.0
  0
LWPOLYLINE
  5
422
330
1F
100
AcDbEntity
  8
0-B
  6
Continuous
 62
     7
370
     9
100
AcDbPolyline
 90
        4
 70
     1
 43
3.0
 10
-3423.500393841717
 20
-2351.673078361755
 42
0.4142135623731
 10
-3425.000393841717
 20
-2350.173078361755
 42
0.4142135623731
 10
-3426.500393841717
 20
-2351.673078361755
 42
0.4142135623731
 10
-3425.000393841717
 20
-2353.173078361755
 42
0.4142135623731
  0
LWPOLYLINE
  5
423
330
1F
100
AcDbEntity
  8
0-B
  6
Continuous
 62
     7
370
     9
100
AcDbPolyline
 90
        4
 70
     1
 43
3.0
 10
-3273.500393841717
 20
-2351.673078361755
 42
0.4142135623731
 10
-3275.000393841717
 20
-2350.173078361755
 42
0.4142135623731
 10
-3276.500393841717
 20
-2351.673078361755
 42
0.4142135623731
 10
-3275.000393841717
 20
-2353.173078361755
 42
0.4142135623731
  0
LINE
  5
424
330
1F
100
AcDbEntity
  8
0-B
  6
Continuous
 62
   120
370
     5
100
AcDbLine
 10
-3425.000393841717
 20
-2351.673078361755
 30
0.0
 11
-3425.000393841717
 21
-2276.673078361755
 31
0.0
  0
LINE
  5
425
330
1F
100
AcDbEntity
  8
0-B
  6
Continuous
 62
   120
370
     5
100
AcDbLine
 10
-3275.000393841717
 20
-2351.673078361755
 30
0.0
 11
-3275.000393841717
 21
-2276.673078361755
 31
0.0
  0
MTEXT
  5
426
330
1F
100
AcDbEntity
  8
0-B
  6
Continuous
 62
     7
370
   211
100
AcDbMText
 10
-3395.000393841717
 20
-2347.383078361755
 30
0.0
 40
68.58
 41
90.0
 46
0.0
 71
     7
 72
     1
  1
{\fＭＳ ゴシック|b0|i0|c128|p49;10}
 73
     1
 44
1.0
  0
LINE
  5
427
330
1F
100
AcDbEntity
  8
0-B
  6
Continuous
 62
   120
370
     5
100
AcDbLine
 10
2870.000084541939
 20
-2398.003193581752
 30
0.0
 11
3020.000084541939
 21
-2398.003193581752
 31
0.0
  0
LWPOLYLINE
  5
428
330
1F
100
AcDbEntity
  8
0-B
  6
Continuous
 62
     7
370
     9
100
AcDbPolyline
 90
        4
 70
     1
 43
3.0
 10
2871.500084541939
 20
-2398.003193581752
 42
0.4142135623731
 10
2870.000084541939
 20
-2396.503193581752
 42
0.4142135623731
 10
2868.500084541939
 20
-2398.003193581752
 42
0.4142135623731
 10
2870.000084541939
 20
-2399.503193581752
 42
0.4142135623731
  0
LWPOLYLINE
  5
429
330
1F
100
AcDbEntity
  8
0-B
  6
Continuous
 62
     7
370
     9
100
AcDbPolyline
 90
        4
 70
     1
 43
3.0
 10
3021.500084541939
 20
-2398.003193581752
 42
0.4142135623731
 10
3020.000084541939
 20
-2396.503193581752
 42
0.4142135623731
 10
3018.500084541939
 20
-2398.003193581752
 42
0.4142135623731
 10
3020.000084541939
 20
-2399.503193581752
 42
0.4142135623731
  0
LINE
  5
42A
330
1F
100
AcDbEntity
  8
0-B
  6
Continuous
 62
   120
370
     5
100
AcDbLine
 10
2870.000084541939
 20
-2398.003193581752
 30
0.0
 11
2870.000084541939
 21
-2323.003193581752
 31
0.0
  0
LINE
  5
42B
330
1F
100
AcDbEntity
  8
0-B
  6
Continuous
 62
   120
370
     5
100
AcDbLine
 10
3020.000084541939
 20
-2398.003193581752
 30
0.0
 11
3020.000084541939
 21
-2323.003193581752
 31
0.0
  0
MTEXT
  5
42C
330
1F
100
AcDbEntity
  8
0-B
  6
Continuous
 62
     7
370
   211
100
AcDbMText
 10
2900.000084541939
 20
-2393.713193581752
 30
0.0
 40
68.58
 41
90.0
 46
0.0
 71
     7
 72
     1
  1
{\fＭＳ ゴシック|b0|i0|c128|p49;10}
 73
     1
 44
1.0
  0
LINE
  5
42D
330
1F
100
AcDbEntity
  8
0-B
  6
Continuous
 62
   120
370
     5
100
AcDbLine
 10
2795.000084541939
 20
-1091.69557427723
 30
0.0
 11
2945.000084541939
 21
-1091.69557427723
 31
0.0
  0
LWPOLYLINE
  5
42E
330
1F
100
AcDbEntity
  8
0-B
  6
Continuous
 62
     7
370
     9
100
AcDbPolyline
 90
        4
 70
     1
 43
3.0
 10
2796.500084541939
 20
-1091.69557427723
 42
0.4142135623731
 10
2795.000084541939
 20
-1090.19557427723
 42
0.4142135623731
 10
2793.500084541939
 20
-1091.69557427723
 42
0.4142135623731
 10
2795.000084541939
 20
-1093.19557427723
 42
0.4142135623731
  0
LWPOLYLINE
  5
42F
330
1F
100
AcDbEntity
  8
0-B
  6
Continuous
 62
     7
370
     9
100
AcDbPolyline
 90
        4
 70
     1
 43
3.0
 10
2946.500084541939
 20
-1091.69557427723
 42
0.4142135623731
 10
2945.000084541939
 20
-1090.19557427723
 42
0.4142135623731
 10
2943.500084541939
 20
-1091.69557427723
 42
0.4142135623731
 10
2945.000084541939
 20
-1093.19557427723
 42
0.4142135623731
  0
LINE
  5
430
330
1F
100
AcDbEntity
  8
0-B
  6
Continuous
 62
   120
370
     5
100
AcDbLine
 10
2795.000084541939
 20
-1091.69557427723
 30
0.0
 11
2795.000084541939
 21
-1016.69557427723
 31
0.0
  0
LINE
  5
431
330
1F
100
AcDbEntity
  8
0-B
  6
Continuous
 62
   120
370
     5
100
AcDbLine
 10
2945.000084541939
 20
-1091.69557427723
 30
0.0
 11
2945.000084541939
 21
-1016.69557427723
 31
0.0
  0
MTEXT
  5
432
330
1F
100
AcDbEntity
  8
0-B
  6
Continuous
 62
     7
370
   211
100
AcDbMText
 10
2825.000084541939
 20
-1087.40557427723
 30
0.0
 40
68.58
 41
90.0
 46
0.0
 71
     7
 72
     1
  1
{\fＭＳ ゴシック|b0|i0|c128|p49;10}
 73
     1
 44
1.0
  0
LINE
  5
433
330
1F
100
AcDbEntity
  8
0-B
  6
Continuous
 62
   120
370
     5
100
AcDbLine
 10
2720.00008454194
 20
148.3270814431324
 30
0.0
 11
2870.00008454194
 21
148.3270814431324
 31
0.0
  0
LWPOLYLINE
  5
434
330
1F
100
AcDbEntity
  8
0-B
  6
Continuous
 62
     7
370
     9
100
AcDbPolyline
 90
        4
 70
     1
 43
3.0
 10
2721.50008454194
 20
148.3270814431324
 42
0.4142135623731
 10
2720.00008454194
 20
149.8270814431324
 42
0.4142135623731
 10
2718.50008454194
 20
148.3270814431324
 42
0.4142135623731
 10
2720.00008454194
 20
146.8270814431324
 42
0.4142135623731
  0
LWPOLYLINE
  5
435
330
1F
100
AcDbEntity
  8
0-B
  6
Continuous
 62
     7
370
     9
100
AcDbPolyline
 90
        4
 70
     1
 43
3.0
 10
2871.50008454194
 20
148.3270814431324
 42
0.4142135623731
 10
2870.00008454194
 20
149.8270814431324
 42
0.4142135623731
 10
2868.50008454194
 20
148.3270814431324
 42
0.4142135623731
 10
2870.00008454194
 20
146.8270814431324
 42
0.4142135623731
  0
LINE
  5
436
330
1F
100
AcDbEntity
  8
0-B
  6
Continuous
 62
   120
370
     5
100
AcDbLine
 10
2720.00008454194
 20
148.3270814431324
 30
0.0
 11
2720.00008454194
 21
223.3270814431324
 31
0.0
  0
LINE
  5
437
330
1F
100
AcDbEntity
  8
0-B
  6
Continuous
 62
   120
370
     5
100
AcDbLine
 10
2870.00008454194
 20
148.3270814431324
 30
0.0
 11
2870.00008454194
 21
223.3270814431324
 31
0.0
  0
MTEXT
  5
438
330
1F
100
AcDbEntity
  8
0-B
  6
Continuous
 62
     7
370
   211
100
AcDbMText
 10
2750.00008454194
 20
152.6170814431324
 30
0.0
 40
68.58
 41
90.0
 46
0.0
 71
     7
 72
     1
  1
{\fＭＳ ゴシック|b0|i0|c128|p49;10}
 73
     1
 44
1.0
  0
LINE
  5
439
330
1F
100
AcDbEntity
  8
0-B
  6
Continuous
 62
   120
370
     5
100
AcDbLine
 10
2645.00008454194
 20
1398.327161345575
 30
0.0
 11
2795.00008454194
 21
1398.327161345575
 31
0.0
  0
LWPOLYLINE
  5
43A
330
1F
100
AcDbEntity
  8
0-B
  6
Continuous
 62
     7
370
     9
100
AcDbPolyline
 90
        4
 70
     1
 43
3.0
 10
2646.50008454194
 20
1398.327161345575
 42
0.4142135623731
 10
2645.00008454194
 20
1399.827161345575
 42
0.4142135623731
 10
2643.50008454194
 20
1398.327161345575
 42
0.4142135623731
 10
2645.00008454194
 20
1396.827161345575
 42
0.4142135623731
  0
LWPOLYLINE
  5
43B
330
1F
100
AcDbEntity
  8
0-B
  6
Continuous
 62
     7
370
     9
100
AcDbPolyline
 90
        4
 70
     1
 43
3.0
 10
2796.50008454194
 20
1398.327161345575
 42
0.4142135623731
 10
2795.00008454194
 20
1399.827161345575
 42
0.4142135623731
 10
2793.50008454194
 20
1398.327161345575
 42
0.4142135623731
 10
2795.00008454194
 20
1396.827161345575
 42
0.4142135623731
  0
LINE
  5
43C
330
1F
100
AcDbEntity
  8
0-B
  6
Continuous
 62
   120
370
     5
100
AcDbLine
 10
2645.00008454194
 20
1398.327161345575
 30
0.0
 11
2645.00008454194
 21
1473.327161345575
 31
0.0
  0
LINE
  5
43D
330
1F
100
AcDbEntity
  8
0-B
  6
Continuous
 62
   120
370
     5
100
AcDbLine
 10
2795.00008454194
 20
1398.327161345575
 30
0.0
 11
2795.00008454194
 21
1473.327161345575
 31
0.0
  0
MTEXT
  5
43E
330
1F
100
AcDbEntity
  8
0-B
  6
Continuous
 62
     7
370
   211
100
AcDbMText
 10
2675.00008454194
 20
1402.617161345575
 30
0.0
 40
68.58
 41
90.0
 46
0.0
 71
     7
 72
     1
  1
{\fＭＳ ゴシック|b0|i0|c128|p49;10}
 73
     1
 44
1.0
  0
LINE
  5
43F
330
1F
100
AcDbEntity
  8
0-B
  6
Continuous
 62
   120
370
     5
100
AcDbLine
 10
2570.00008454194
 20
2648.327241248018
 30
0.0
 11
2720.00008454194
 21
2648.327241248018
 31
0.0
  0
LWPOLYLINE
  5
440
330
1F
100
AcDbEntity
  8
0-B
  6
Continuous
 62
     7
370
     9
100
AcDbPolyline
 90
        4
 70
     1
 43
3.0
 10
2571.50008454194
 20
2648.327241248018
 42
0.4142135623731
 10
2570.00008454194
 20
2649.827241248018
 42
0.4142135623731
 10
2568.50008454194
 20
2648.327241248018
 42
0.4142135623731
 10
2570.00008454194
 20
2646.827241248019
 42
0.4142135623731
  0
LWPOLYLINE
  5
441
330
1F
100
AcDbEntity
  8
0-B
  6
Continuous
 62
     7
370
     9
100
AcDbPolyline
 90
        4
 70
     1
 43
3.0
 10
2721.50008454194
 20
2648.327241248018
 42
0.4142135623731
 10
2720.00008454194
 20
2649.827241248018
 42
0.4142135623731
 10
2718.50008454194
 20
2648.327241248018
 42
0.4142135623731
 10
2720.00008454194
 20
2646.827241248019
 42
0.4142135623731
  0
LINE
  5
442
330
1F
100
AcDbEntity
  8
0-B
  6
Continuous
 62
   120
370
     5
100
AcDbLine
 10
2570.00008454194
 20
2648.327241248018
 30
0.0
 11
2570.00008454194
 21
2723.327241248018
 31
0.0
  0
LINE
  5
443
330
1F
100
AcDbEntity
  8
0-B
  6
Continuous
 62
   120
370
     5
100
AcDbLine
 10
2720.00008454194
 20
2648.327241248018
 30
0.0
 11
2720.00008454194
 21
2723.327241248018
 31
0.0
  0
MTEXT
  5
444
330
1F
100
AcDbEntity
  8
0-B
  6
Continuous
 62
     7
370
   211
100
AcDbMText
 10
2600.00008454194
 20
2652.617241248018
 30
0.0
 40
68.58
 41
90.0
 46
0.0
 71
     7
 72
     1
  1
{\fＭＳ ゴシック|b0|i0|c128|p49;10}
 73
     1
 44
1.0
  0
LINE
  5
445
330
1F
100
AcDbEntity
  8
0-B
  6
Continuous
 62
   120
370
     5
100
AcDbLine
 10
2847.499156642606
 20
-3609.134698647316
 30
0.0
 11
2997.499156642606
 21
-3609.134698647316
 31
0.0
  0
LWPOLYLINE
  5
446
330
1F
100
AcDbEntity
  8
0-B
  6
Continuous
 62
     7
370
     9
100
AcDbPolyline
 90
        4
 70
     1
 43
3.0
 10
2848.999156642606
 20
-3609.134698647316
 42
0.4142135623731
 10
2847.499156642606
 20
-3607.634698647316
 42
0.4142135623731
 10
2845.999156642606
 20
-3609.134698647316
 42
0.4142135623731
 10
2847.499156642606
 20
-3610.634698647315
 42
0.4142135623731
  0
LWPOLYLINE
  5
447
330
1F
100
AcDbEntity
  8
0-B
  6
Continuous
 62
     7
370
     9
100
AcDbPolyline
 90
        4
 70
     1
 43
3.0
 10
2998.999156642606
 20
-3609.134698647316
 42
0.4142135623731
 10
2997.499156642606
 20
-3607.634698647316
 42
0.4142135623731
 10
2995.999156642606
 20
-3609.134698647316
 42
0.4142135623731
 10
2997.499156642606
 20
-3610.634698647315
 42
0.4142135623731
  0
LINE
  5
448
330
1F
100
AcDbEntity
  8
0-B
  6
Continuous
 62
   120
370
     5
100
AcDbLine
 10
2847.499156642606
 20
-3609.134698647316
 30
0.0
 11
2847.499156642606
 21
-3534.134698647316
 31
0.0
  0
LINE
  5
449
330
1F
100
AcDbEntity
  8
0-B
  6
Continuous
 62
   120
370
     5
100
AcDbLine
 10
2997.499156642606
 20
-3609.134698647316
 30
0.0
 11
2997.499156642606
 21
-3534.134698647316
 31
0.0
  0
MTEXT
  5
44A
330
1F
100
AcDbEntity
  8
0-B
  6
Continuous
 62
     7
370
   211
100
AcDbMText
 10
2877.499156642606
 20
-3604.844698647316
 30
0.0
 40
68.58
 41
90.0
 46
0.0
 71
     7
 72
     1
  1
{\fＭＳ ゴシック|b0|i0|c128|p49;10}
 73
     1
 44
1.0
  0
MTEXT
  5
44B
330
1F
100
AcDbEntity
  8
F-A
  6
Continuous
 62
     7
370
     0
100
AcDbMText
 10
4778.749126529666
 20
-3938.071010139966
 30
0.0
 40
78.86699999999999
 41
517.5
 46
0.0
 71
     7
 72
     1
  1
{\fＭＳ ゴシック|b0|i0|c128|p49;2021.04.01}
 73
     1
 44
1.0
  0
MTEXT
  5
44C
330
1F
100
AcDbEntity
  8
0-A
  6
Continuous
 62
     7
370
     9
100
AcDbMText
 10
-1550.000758815456
 20
3576.165456893767
 30
0.0
 40
68.58000000000001
 41
765.0
 46
0.0
 71
     7
 72
     1
  1
{\fＭＳ ゴシック|b0|i0|c128|p49;ＤＥＢ055Ａ-Ｓ-□}
 73
     1
 44
1.0
  0
MTEXT
  5
44D
330
1F
100
AcDbEntity
  8
0-A
  6
Continuous
 62
     7
370
     9
100
AcDbMText
 10
-1550.000758815456
 20
2326.165376991323
 30
0.0
 40
68.58000000000001
 41
765.0
 46
0.0
 71
     7
 72
     1
  1
{\fＭＳ ゴシック|b0|i0|c128|p49;ＤＥＢ060Ａ-Ｓ-□}
 73
     1
 44
1.0
  0
MTEXT
  5
44E
330
1F
100
AcDbEntity
  8
0-A
  6
Continuous
 62
     7
370
     9
100
AcDbMText
 10
-1550.000758815456
 20
1076.165297088881
 30
0.0
 40
68.58000000000001
 41
765.0
 46
0.0
 71
     7
 72
     1
  1
{\fＭＳ ゴシック|b0|i0|c128|p49;ＤＥＢ065Ａ-Ｓ-□}
 73
     1
 44
1.0
  0
MTEXT
  5
44F
330
1F
100
AcDbEntity
  8
0-A
  6
Continuous
 62
     7
370
     9
100
AcDbMText
 10
-1550.000758815456
 20
-173.8347828135622
 30
0.0
 40
68.58000000000001
 41
765.0
 46
0.0
 71
     7
 72
     1
  1
{\fＭＳ ゴシック|b0|i0|c128|p49;ＤＥＢ070Ａ-Ｓ-□}
 73
     1
 44
1.0
  0
MTEXT
  5
450
330
1F
100
AcDbEntity
  8
0-A
  6
Continuous
 62
     7
370
     9
100
AcDbMText
 10
-1550.000758815456
 20
-1423.834862716006
 30
0.0
 40
68.58000000000003
 41
765.0000000000002
 46
0.0
 71
     7
 72
     1
  1
{\fＭＳ ゴシック|b0|i0|c128|p49;ＤＥＢ075Ａ-Ｓ-□}
 73
     1
 44
1.0
  0
MTEXT
  5
451
330
1F
100
AcDbEntity
  8
0-A
  6
Continuous
 62
     7
370
     9
100
AcDbMText
 10
-1550.000758815456
 20
-2673.834942618447
 30
0.0
 40
68.58000000000001
 41
765.0
 46
0.0
 71
     7
 72
     1
  1
{\fＭＳ ゴシック|b0|i0|c128|p49;ＤＥＢ080Ａ-Ｓ-□}
 73
     1
 44
1.0
  0
MTEXT
  5
452
330
1F
100
AcDbEntity
  8
0-A
  6
Continuous
 62
     7
370
     9
100
AcDbMText
 10
4294.999719568202
 20
3576.165456893767
 30
0.0
 40
68.58000000000001
 41
765.0
 46
0.0
 71
     7
 72
     1
  1
{\fＭＳ ゴシック|b0|i0|c128|p49;ＤＥＢ085Ａ-Ｓ-□}
 73
     1
 44
1.0
  0
MTEXT
  5
453
330
1F
100
AcDbEntity
  8
0-A
  6
Continuous
 62
     7
370
     9
100
AcDbMText
 10
4294.999719568202
 20
2326.165376991323
 30
0.0
 40
68.58000000000001
 41
765.0
 46
0.0
 71
     7
 72
     1
  1
{\fＭＳ ゴシック|b0|i0|c128|p49;ＤＥＢ090Ａ-Ｓ-□}
 73
     1
 44
1.0
  0
MTEXT
  5
454
330
1F
100
AcDbEntity
  8
0-A
  6
Continuous
 62
     7
370
     9
100
AcDbMText
 10
4294.999719568202
 20
2169.915367003518
 30
0.0
 40
68.58
 41
810.0
 46
0.0
 71
     7
 72
     1
  1
{\fＭＳ ゴシック|b0|i0|c128|p49;ＤＥＢ090Ａ1-Ｓ-□}
 73
     1
 44
1.0
  0
MTEXT
  5
455
330
1F
100
AcDbEntity
  8
0-A
  6
Continuous
 62
     7
370
     9
100
AcDbMText
 10
4294.999719568202
 20
1076.165297088881
 30
0.0
 40
68.58000000000001
 41
765.0
 46
0.0
 71
     7
 72
     1
  1
{\fＭＳ ゴシック|b0|i0|c128|p49;ＤＥＢ095Ａ-Ｓ-□}
 73
     1
 44
1.0
  0
MTEXT
  5
456
330
1F
100
AcDbEntity
  8
0-A
  6
Continuous
 62
     7
370
     9
100
AcDbMText
 10
4294.999719568202
 20
919.9152871010756
 30
0.0
 40
68.58
 41
810.0
 46
0.0
 71
     7
 72
     1
  1
{\fＭＳ ゴシック|b0|i0|c128|p49;ＤＥＢ095Ａ1-Ｓ-□}
 73
     1
 44
1.0
  0
MTEXT
  5
457
330
1F
100
AcDbEntity
  8
0-A
  6
Continuous
 62
     7
370
     9
100
AcDbMText
 10
4294.999719568202
 20
-173.8347828135622
 30
0.0
 40
68.58000000000001
 41
765.0
 46
0.0
 71
     7
 72
     1
  1
{\fＭＳ ゴシック|b0|i0|c128|p49;ＤＥＢ100Ａ-Ｓ-□}
 73
     1
 44
1.0
  0
MTEXT
  5
458
330
1F
100
AcDbEntity
  8
0-A
  6
Continuous
 62
     7
370
     9
100
AcDbMText
 10
4294.999719568202
 20
-330.0847928013665
 30
0.0
 40
68.58
 41
810.0
 46
0.0
 71
     7
 72
     1
  1
{\fＭＳ ゴシック|b0|i0|c128|p49;ＤＥＢ100Ａ1-Ｓ-□}
 73
     1
 44
1.0
  0
MTEXT
  5
459
330
1F
100
AcDbEntity
  8
0-A
  6
Continuous
 62
     7
370
     9
100
AcDbMText
 10
4294.999719568202
 20
-1423.834862716004
 30
0.0
 40
68.58000000000001
 41
765.0
 46
0.0
 71
     7
 72
     1
  1
{\fＭＳ ゴシック|b0|i0|c128|p49;ＤＥＢ105Ａ-Ｓ-□}
 73
     1
 44
1.0
  0
MTEXT
  5
45A
330
1F
100
AcDbEntity
  8
0-A
  6
Continuous
 62
     7
370
     9
100
AcDbMText
 10
4294.999719568202
 20
-1580.08487270381
 30
0.0
 40
68.58
 41
810.0
 46
0.0
 71
     7
 72
     1
  1
{\fＭＳ ゴシック|b0|i0|c128|p49;ＤＥＢ105Ａ1-Ｓ-□}
 73
     1
 44
1.0
  0
MTEXT
  5
45B
330
1F
100
AcDbEntity
  8
0-A
  6
Continuous
 62
     7
370
     9
100
AcDbMText
 10
4294.998791668866
 20
-2673.834942618447
 30
0.0
 40
68.58000000000001
 41
765.0
 46
0.0
 71
     7
 72
     1
  1
{\fＭＳ ゴシック|b0|i0|c128|p49;ＤＥＢ110Ａ-Ｓ-□}
 73
     1
 44
1.0
  0
MTEXT
  5
45C
330
1F
100
AcDbEntity
  8
0-A
  6
Continuous
 62
     7
370
     9
100
AcDbMText
 10
4294.998791668866
 20
-2830.084952606252
 30
0.0
 40
68.58
 41
810.0
 46
0.0
 71
     7
 72
     1
  1
{\fＭＳ ゴシック|b0|i0|c128|p49;ＤＥＢ110Ａ1-Ｓ-□}
 73
     1
 44
1.0
  0
ENDSEC
  0
SECTION
  2
OBJECTS
  0
DICTIONARY
  5
C
330
0
100
AcDbDictionary
281
     1
  3
ACAD_GROUP
350
D
  3
ACAD_LAYOUT
350
1A
  3
ACAD_MATERIAL
350
3B
  3
ACAD_MLEADERSTYLE
350
45E
  3
ACAD_MLINESTYLE
350
17
  3
ACAD_PLOTSETTINGS
350
19
  3
ACAD_PLOTSTYLENAME
350
E
  3
ACAD_TABLESTYLE
350
45D
  3
ACAD_VISUALSTYLE
350
2A
  0
DICTIONARY
  5
D
102
{ACAD_REACTORS
330
C
102
}
330
C
100
AcDbDictionary
281
     1
  0
DICTIONARY
  5
1A
102
{ACAD_REACTORS
330
C
102
}
330
C
100
AcDbDictionary
281
     1
  3
Layout1
350
1E
  3
Layout2
350
26
  3
Model
350
22
  0
DICTIONARY
  5
3B
102
{ACAD_REACTORS
330
C
102
}
330
C
100
AcDbDictionary
281
     1
  3
ByBlock
350
3D
  3
ByLayer
350
3C
  3
Global
350
3E
  0
DICTIONARY
  5
45E
102
{ACAD_REACTORS
330
C
102
}
330
C
100
AcDbDictionary
281
     1
  0
DICTIONARY
  5
17
102
{ACAD_REACTORS
330
C
102
}
330
C
100
AcDbDictionary
281
     1
  3
Standard
350
18
  0
DICTIONARY
  5
19
102
{ACAD_REACTORS
330
C
102
}
330
C
100
AcDbDictionary
281
     1
  0
ACDBDICTIONARYWDFLT
  5
E
102
{ACAD_REACTORS
330
C
102
}
330
C
100
AcDbDictionary
281
     1
  3
Normal
350
F
100
AcDbDictionaryWithDefault
340
F
  0
DICTIONARY
  5
45D
102
{ACAD_REACTORS
330
C
102
}
330
C
100
AcDbDictionary
281
     1
  0
DICTIONARY
  5
2A
102
{ACAD_REACTORS
330
C
102
}
330
C
100
AcDbDictionary
281
     1
  3
2dWireframe
350
2F
  3
3D Hidden
350
31
  3
3dWireframe
350
30
  3
Basic
350
32
  3
Brighten
350
36
  3
ColorChange
350
3A
  3
Conceptual
350
34
  3
Dim
350
35
  3
Facepattern
350
39
  3
Flat
350
2B
  3
FlatWithEdges
350
2C
  3
Gouraud
350
2D
  3
GouraudWithEdges
350
2E
  3
Linepattern
350
38
  3
Realistic
350
33
  3
Thicken
350
37
  0
LAYOUT
  5
1E
102
{ACAD_REACTORS
330
1A
102
}
330
1A
100
AcDbPlotSettings
  1

  2
none_device
  4

  6

 40
0.0
 41
0.0
 42
0.0
 43
0.0
 44
0.0
 45
0.0
 46
0.0
 47
0.0
 48
0.0
 49
0.0
140
0.0
141
0.0
142
1.0
143
1.0
 70
   688
 72
     0
 73
     0
 74
     5
  7

 75
    16
 76
     0
 77
     5
 78
   300
147
1.0
148
0.0
149
0.0
100
AcDbLayout
  1
Layout1
 70
     1
 71
     1
 10
0.0
 20
0.0
 11
420.0
 21
297.0
 12
0.0
 22
0.0
 32
0.0
 14
1.000000000000000E+20
 24
1.000000000000000E+20
 34
1.000000000000000E+20
 15
-1.000000000000000E+20
 25
-1.000000000000000E+20
 35
-1.000000000000000E+20
146
0.0
 13
0.0
 23
0.0
 33
0.0
 16
1.0
 26
0.0
 36
0.0
 17
0.0
 27
1.0
 37
0.0
 76
     0
330
1B
  0
LAYOUT
  5
26
102
{ACAD_REACTORS
330
1A
102
}
330
1A
100
AcDbPlotSettings
  1

  2
none_device
  4

  6

 40
0.0
 41
0.0
 42
0.0
 43
0.0
 44
0.0
 45
0.0
 46
0.0
 47
0.0
 48
0.0
 49
0.0
140
0.0
141
0.0
142
1.0
143
1.0
 70
   688
 72
     0
 73
     0
 74
     5
  7

 75
    16
 76
     0
 77
     5
 78
   300
147
1.0
148
0.0
149
0.0
100
AcDbLayout
  1
Layout2
 70
     1
 71
     2
 10
0.0
 20
0.0
 11
0.0
 21
0.0
 12
0.0
 22
0.0
 32
0.0
 14
0.0
 24
0.0
 34
0.0
 15
0.0
 25
0.0
 35
0.0
146
0.0
 13
0.0
 23
0.0
 33
0.0
 16
1.0
 26
0.0
 36
0.0
 17
0.0
 27
1.0
 37
0.0
 76
     0
330
23
  0
LAYOUT
  5
22
102
{ACAD_REACTORS
330
1A
102
}
330
1A
100
AcDbPlotSettings
  1

  2
none_device
  4

  6

 40
0.0
 41
0.0
 42
0.0
 43
0.0
 44
0.0
 45
0.0
 46
0.0
 47
0.0
 48
0.0
 49
0.0
140
0.0
141
0.0
142
1.0
143
1.0
 70
  1712
 72
     0
 73
     0
 74
     0
  7

 75
     0
 76
     0
 77
     5
 78
   300
147
1.0
148
0.0
149
0.0
100
AcDbLayout
  1
Model
 70
     1
 71
     0
 10
-6300.0
 20
-4455.0
 11
6300.0
 21
4455.0
 12
0.0
 22
0.0
 32
0.0
 14
-6300.0
 24
-4455.0
 34
0.0
 15
6300.0
 25
4455.0
 35
0.0
146
0.0
 13
0.0
 23
0.0
 33
0.0
 16
1.0
 26
0.0
 36
0.0
 17
0.0
 27
1.0
 37
0.0
 76
     0
330
1F
331
29
  0
MATERIAL
  5
3D
102
{ACAD_REACTORS
330
3B
102
}
330
3B
100
AcDbMaterial
  1
ByBlock
 72
     1
 94
      127
  0
MATERIAL
  5
3C
102
{ACAD_REACTORS
330
3B
102
}
330
3B
100
AcDbMaterial
  1
ByLayer
 72
     1
 94
      127
  0
MATERIAL
  5
3E
102
{ACAD_REACTORS
330
3B
102
}
330
3B
100
AcDbMaterial
  1
Global
 72
     1
 94
      127
  0
MLINESTYLE
  5
18
102
{ACAD_REACTORS
330
17
102
}
330
17
100
AcDbMlineStyle
  2
Standard
 70
     0
  3

 62
   256
 51
90.0
 52
90.0
 71
     2
 49
0.5
 62
   256
  6
BYLAYER
 49
-0.5
 62
   256
  6
BYLAYER
  0
ACDBPLACEHOLDER
  5
F
102
{ACAD_REACTORS
330
E
102
}
330
E
  0
VISUALSTYLE
  5
2F
102
{ACAD_REACTORS
330
2A
102
}
330
2A
100
AcDbVisualStyle
  2
2dWireframe
 70
     4
177
     2
291
     0
 71
     0
176
     1
 72
     2
176
     1
 73
     0
176
     1
 90
        0
176
     1
 40
-0.6
176
     1
 41
-30.0
176
     1
 62
     5
 63
     7
421
 16777215
176
     1
 74
     1
176
     1
 91
        4
176
     1
 64
     7
176
     1
 65
   257
176
     1
 75
     1
176
     1
175
     1
176
     1
 42
1.0
176
     1
 92
        0
176
     1
 66
   257
176
     1
 43
1.0
176
     1
 76
     1
176
     1
 77
     6
176
     1
 78
     2
176
     1
 67
     7
176
     1
 79
     5
176
     1
170
     0
176
     1
171
     0
176
     1
290
     0
176
     1
 93
        1
176
     1
 44
0.0
176
     1
173
     0
176
     1
  0
VISUALSTYLE
  5
31
102
{ACAD_REACTORS
330
2A
102
}
330
2A
100
AcDbVisualStyle
  2
3D Hidden
 70
     6
177
     2
291
     0
 71
     1
176
     1
 72
     2
176
     1
 73
     2
176
     1
 90
        0
176
     1
 40
-0.6
176
     1
 41
-30.0
176
     1
 62
     5
 63
     7
421
 16777215
176
     1
 74
     2
176
     1
 91
        2
176
     1
 64
     7
176
     1
 65
   257
176
     1
 75
     2
176
     1
175
     1
176
     1
 42
40.0
176
     1
 92
        0
176
     1
 66
   257
176
     1
 43
1.0
176
     1
 76
     1
176
     1
 77
     6
176
     1
 78
     2
176
     1
 67
     7
176
     1
 79
     3
176
     1
170
     0
176
     1
171
     0
176
     1
290
     0
176
     1
 93
        1
176
     1
 44
0.0
176
     1
173
     0
176
     1
  0
VISUALSTYLE
  5
30
102
{ACAD_REACTORS
330
2A
102
}
330
2A
100
AcDbVisualStyle
  2
3dWireframe
 70
     5
177
     2
291
     0
 71
     0
176
     1
 72
     2
176
     1
 73
     0
176
     1
 90
        0
176
     1
 40
-0.6
176
     1
 41
-30.0
176
     1
 62
     5
 63
     7
421
 16777215
176
     1
 74
     1
176
     1
 91
        4
176
     1
 64
     7
176
     1
 65
   257
176
     1
 75
     1
176
     1
175
     1
176
     1
 42
1.0
176
     1
 92
        0
176
     1
 66
   257
176
     1
 43
1.0
176
     1
 76
     1
176
     1
 77
     6
176
     1
 78
     2
176
     1
 67
     7
176
     1
 79
     5
176
     1
170
     0
176
     1
171
     0
176
     1
290
     0
176
     1
 93
        1
176
     1
 44
0.0
176
     1
173
     0
176
     1
  0
VISUALSTYLE
  5
32
102
{ACAD_REACTORS
330
2A
102
}
330
2A
100
AcDbVisualStyle
  2
Basic
 70
     7
177
     2
291
     1
 71
     1
176
     1
 72
     0
176
     1
 73
     1
176
     1
 90
        0
176
     1
 40
-0.6
176
     1
 41
-30.0
176
     1
 62
     5
 63
     7
421
 16777215
176
     1
 74
     0
176
     1
 91
        4
176
     1
 64
     7
176
     1
 65
   257
176
     1
 75
     1
176
     1
175
     1
176
     1
 42
1.0
176
     1
 92
        8
176
     1
 66
     7
176
     1
 43
1.0
176
     1
 76
     1
176
     1
 77
     6
176
     1
 78
     2
176
     1
 67
     7
176
     1
 79
     5
176
     1
170
     0
176
     1
171
     0
176
     1
290
     0
176
     1
 93
        1
176
     1
 44
0.0
176
     1
173
     0
176
     1
  0
VISUALSTYLE
  5
36
102
{ACAD_REACTORS
330
2A
102
}
330
2A
100
AcDbVisualStyle
  2
Brighten
 70
    12
177
     2
291
     1
 71
     2
176
     1
 72
     2
176
     1
 73
     0
176
     1
 90
        0
176
     1
 40
-0.6
176
     1
 41
-30.0
176
     1
 62
     5
 63
     7
421
 16777215
176
     1
 74
     1
176
     1
 91
        4
176
     1
 64
     7
176
     1
 65
   257
176
     1
 75
     1
176
     1
175
     1
176
     1
 42
1.0
176
     1
 92
        8
176
     1
 66
     7
176
     1
 43
1.0
176
     1
 76
     1
176
     1
 77
     6
176
     1
 78
     2
176
     1
 67
     7
176
     1
 79
     5
176
     1
170
     0
176
     1
171
     0
176
     1
290
     0
176
     1
 93
        1
176
     1
 44
50.0
176
     1
173
     0
176
     1
  0
VISUALSTYLE
  5
3A
102
{ACAD_REACTORS
330
2A
102
}
330
2A
100
AcDbVisualStyle
  2
ColorChange
 70
    16
177
     2
291
     1
 71
     2
176
     1
 72
     2
176
     1
 73
     3
176
     1
 90
        0
176
     1
 40
-0.6
176
     1
 41
-30.0
176
     1
 62
     5
 63
     8
421
  8421504
176
     1
 74
     1
176
     1
 91
        4
176
     1
 64
     7
176
     1
 65
   257
176
     1
 75
     1
176
     1
175
     1
176
     1
 42
1.0
176
     1
 92
        8
176
     1
 66
     8
424
  8421504
176
     1
 43
1.0
176
     1
 76
     1
176
     1
 77
     6
176
     1
 78
     2
176
     1
 67
     7
176
     1
 79
     5
176
     1
170
     0
176
     1
171
     0
176
     1
290
     0
176
     1
 93
        1
176
     1
 44
0.0
176
     1
173
     0
176
     1
  0
VISUALSTYLE
  5
34
102
{ACAD_REACTORS
330
2A
102
}
330
2A
100
AcDbVisualStyle
  2
Conceptual
 70
     9
177
     2
291
     0
 71
     3
176
     1
 72
     2
176
     1
 73
     0
176
     1
 90
        0
176
     1
 40
-0.6
176
     1
 41
-30.0
176
     1
 62
     5
 63
     7
421
 16777215
176
     1
 74
     2
176
     1
 91
        2
176
     1
 64
     7
176
     1
 65
   257
176
     1
 75
     1
176
     1
175
     1
176
     1
 42
40.0
176
     1
 92
        8
176
     1
 66
     7
176
     1
 43
1.0
176
     1
 76
     1
176
     1
 77
     6
176
     1
 78
     2
176
     1
 67
     7
176
     1
 79
     3
176
     1
170
     0
176
     1
171
     0
176
     1
290
     0
176
     1
 93
        1
176
     1
 44
0.0
176
     1
173
     0
176
     1
  0
VISUALSTYLE
  5
35
102
{ACAD_REACTORS
330
2A
102
}
330
2A
100
AcDbVisualStyle
  2
Dim
 70
    11
177
     2
291
     1
 71
     2
176
     1
 72
     2
176
     1
 73
     0
176
     1
 90
        0
176
     1
 40
-0.6
176
     1
 41
-30.0
176
     1
 62
     5
 63
     7
421
 16777215
176
     1
 74
     1
176
     1
 91
        4
176
     1
 64
     7
176
     1
 65
   257
176
     1
 75
     1
176
     1
175
     1
176
     1
 42
1.0
176
     1
 92
        8
176
     1
 66
     7
176
     1
 43
1.0
176
     1
 76
     1
176
     1
 77
     6
176
     1
 78
     2
176
     1
 67
     7
176
     1
 79
     5
176
     1
170
     0
176
     1
171
     0
176
     1
290
     0
176
     1
 93
        1
176
     1
 44
-50.0
176
     1
173
     0
176
     1
  0
VISUALSTYLE
  5
39
102
{ACAD_REACTORS
330
2A
102
}
330
2A
100
AcDbVisualStyle
  2
Facepattern
 70
    15
177
     2
291
     1
 71
     2
176
     1
 72
     2
176
     1
 73
     0
176
     1
 90
        0
176
     1
 40
-0.6
176
     1
 41
-30.0
176
     1
 62
     5
 63
     7
421
 16777215
176
     1
 74
     1
176
     1
 91
        4
176
     1
 64
     7
176
     1
 65
   257
176
     1
 75
     1
176
     1
175
     1
176
     1
 42
1.0
176
     1
 92
        8
176
     1
 66
     7
176
     1
 43
1.0
176
     1
 76
     1
176
     1
 77
     6
176
     1
 78
     2
176
     1
 67
     7
176
     1
 79
     5
176
     1
170
     0
176
     1
171
     0
176
     1
290
     0
176
     1
 93
        1
176
     1
 44
0.0
176
     1
173
     0
176
     1
  0
VISUALSTYLE
  5
2B
102
{ACAD_REACTORS
330
2A
102
}
330
2A
100
AcDbVisualStyle
  2
Flat
 70
     0
177
     2
291
     1
 71
     2
176
     1
 72
     1
176
     1
 73
     1
176
     1
 90
        2
176
     1
 40
-0.6
176
     1
 41
30.0
176
     1
 62
     5
 63
     7
421
 16777215
176
     1
 74
     0
176
     1
 91
        4
176
     1
 64
     7
176
     1
 65
   257
176
     1
 75
     1
176
     1
175
     1
176
     1
 42
1.0
176
     1
 92
        8
176
     1
 66
     7
176
     1
 43
1.0
176
     1
 76
     1
176
     1
 77
     6
176
     1
 78
     2
176
     1
 67
     7
176
     1
 79
     5
176
     1
170
     0
176
     1
171
     0
176
     1
290
     0
176
     1
 93
       13
176
     1
 44
0.0
176
     1
173
     0
176
     1
  0
VISUALSTYLE
  5
2C
102
{ACAD_REACTORS
330
2A
102
}
330
2A
100
AcDbVisualStyle
  2
FlatWithEdges
 70
     1
177
     2
291
     1
 71
     2
176
     1
 72
     1
176
     1
 73
     1
176
     1
 90
        2
176
     1
 40
-0.6
176
     1
 41
30.0
176
     1
 62
     5
 63
     7
421
 16777215
176
     1
 74
     1
176
     1
 91
        4
176
     1
 64
     7
176
     1
 65
   257
176
     1
 75
     1
176
     1
175
     1
176
     1
 42
1.0
176
     1
 92
        0
176
     1
 66
   257
176
     1
 43
1.0
176
     1
 76
     1
176
     1
 77
     6
176
     1
 78
     2
176
     1
 67
     7
176
     1
 79
     5
176
     1
170
     0
176
     1
171
     0
176
     1
290
     0
176
     1
 93
       13
176
     1
 44
0.0
176
     1
173
     0
176
     1
  0
VISUALSTYLE
  5
2D
102
{ACAD_REACTORS
330
2A
102
}
330
2A
100
AcDbVisualStyle
  2
Gouraud
 70
     2
177
     2
291
     1
 71
     2
176
     1
 72
     2
176
     1
 73
     1
176
     1
 90
        2
176
     1
 40
-0.6
176
     1
 41
30.0
176
     1
 62
     5
 63
     7
421
 16777215
176
     1
 74
     0
176
     1
 91
        4
176
     1
 64
     7
176
     1
 65
   257
176
     1
 75
     1
176
     1
175
     1
176
     1
 42
1.0
176
     1
 92
        0
176
     1
 66
     7
176
     1
 43
1.0
176
     1
 76
     1
176
     1
 77
     6
176
     1
 78
     2
176
     1
 67
     7
176
     1
 79
     5
176
     1
170
     0
176
     1
171
     0
176
     1
290
     0
176
     1
 93
       13
176
     1
 44
0.0
176
     1
173
     0
176
     1
  0
VISUALSTYLE
  5
2E
102
{ACAD_REACTORS
330
2A
102
}
330
2A
100
AcDbVisualStyle
  2
GouraudWithEdges
 70
     3
177
     2
291
     1
 71
     2
176
     1
 72
     2
176
     1
 73
     1
176
     1
 90
        2
176
     1
 40
-0.6
176
     1
 41
30.0
176
     1
 62
     5
 63
     7
421
 16777215
176
     1
 74
     1
176
     1
 91
        4
176
     1
 64
     7
176
     1
 65
   257
176
     1
 75
     1
176
     1
175
     1
176
     1
 42
1.0
176
     1
 92
        0
176
     1
 66
   257
176
     1
 43
1.0
176
     1
 76
     1
176
     1
 77
     6
176
     1
 78
     2
176
     1
 67
     7
176
     1
 79
     5
176
     1
170
     0
176
     1
171
     0
176
     1
290
     0
176
     1
 93
       13
176
     1
 44
0.0
176
     1
173
     0
176
     1
  0
VISUALSTYLE
  5
38
102
{ACAD_REACTORS
330
2A
102
}
330
2A
100
AcDbVisualStyle
  2
Linepattern
 70
    14
177
     2
291
     1
 71
     2
176
     1
 72
     2
176
     1
 73
     0
176
     1
 90
        0
176
     1
 40
-0.6
176
     1
 41
-30.0
176
     1
 62
     5
 63
     7
421
 16777215
176
     1
 74
     1
176
     1
 91
        4
176
     1
 64
     7
176
     1
 65
   257
176
     1
 75
     7
176
     1
175
     7
176
     1
 42
1.0
176
     1
 92
        8
176
     1
 66
     7
176
     1
 43
1.0
176
     1
 76
     1
176
     1
 77
     6
176
     1
 78
     2
176
     1
 67
     7
176
     1
 79
     5
176
     1
170
     0
176
     1
171
     0
176
     1
290
     0
176
     1
 93
        1
176
     1
 44
0.0
176
     1
173
     0
176
     1
  0
VISUALSTYLE
  5
33
102
{ACAD_REACTORS
330
2A
102
}
330
2A
100
AcDbVisualStyle
  2
Realistic
 70
     8
177
     2
291
     0
 71
     2
176
     1
 72
     2
176
     1
 73
     0
176
     1
 90
        0
176
     1
 40
-0.6
176
     1
 41
-30.0
176
     1
 62
     5
 63
     7
421
 16777215
176
     1
 74
     1
176
     1
 91
        0
176
     1
 64
     7
176
     1
 65
   257
176
     1
 75
     1
176
     1
175
     1
176
     1
 42
1.0
176
     1
 92
        8
176
     1
 66
     8
424
  7895160
176
     1
 43
1.0
176
     1
 76
     1
176
     1
 77
     6
176
     1
 78
     2
176
     1
 67
     7
176
     1
 79
     5
176
     1
170
     0
176
     1
171
     0
176
     1
290
     0
176
     1
 93
       13
176
     1
 44
0.0
176
     1
173
     0
176
     1
  0
VISUALSTYLE
  5
37
102
{ACAD_REACTORS
330
2A
102
}
330
2A
100
AcDbVisualStyle
  2
Thicken
 70
    13
177
     2
291
     1
 71
     2
176
     1
 72
     2
176
     1
 73
     0
176
     1
 90
        0
176
     1
 40
-0.6
176
     1
 41
-30.0
176
     1
 62
     5
 63
     7
421
 16777215
176
     1
 74
     1
176
     1
 91
        4
176
     1
 64
     7
176
     1
 65
   257
176
     1
 75
     1
176
     1
175
     1
176
     1
 42
1.0
176
     1
 92
       12
176
     1
 66
     7
176
     1
 43
1.0
176
     1
 76
     1
176
     1
 77
     6
176
     1
 78
     2
176
     1
 67
     7
176
     1
 79
     5
176
     1
170
     0
176
     1
171
     0
176
     1
290
     0
176
     1
 93
        1
176
     1
 44
0.0
176
     1
173
     0
176
     1
  0
ENDSEC
  0
EOF
