  0
SECTION
  2
HEADER
  9
$ACADVER
  1
AC1024
  9
$ACADMAINTVER
 70
     6
  9
$DWGCODEPAGE
  3
ANSI_932
  9
$INSBASE
 10
0.0
 20
0.0
 30
0.0
  9
$EXTMIN
 10
-6300.0
 20
-4455.0
 30
0.0
  9
$EXTMAX
 10
6300.0
 20
4455.0
 30
0.0
  9
$LIMMIN
 10
-6300.0
 20
-4455.0
  9
$LIMMAX
 10
6300.0
 20
4455.0
  9
$ORTHOMODE
 70
     0
  9
$REGENMODE
 70
     1
  9
$FILLMODE
 70
     1
  9
$QTEXTMODE
 70
     0
  9
$MIRRTEXT
 70
     1
  9
$LTSCALE
 40
30.0
  9
$ATTMODE
 70
     1
  9
$TEXTSIZE
 40
2.5
  9
$TRACEWID
 40
1.0
  9
$TEXTSTYLE
  7
Standard
  9
$CLAYER
  8
0
  9
$CELTYPE
  6
ByLayer
  9
$CECOLOR
 62
   256
  9
$CELTSCALE
 40
1.0
  9
$DISPSILH
 70
     0
  9
$DIMSCALE
 40
1.0
  9
$DIMASZ
 40
2.5
  9
$DIMEXO
 40
0.625
  9
$DIMDLI
 40
3.75
  9
$DIMRND
 40
0.0
  9
$DIMDLE
 40
0.0
  9
$DIMEXE
 40
1.25
  9
$DIMTP
 40
0.0
  9
$DIMTM
 40
0.0
  9
$DIMTXT
 40
2.5
  9
$DIMCEN
 40
2.5
  9
$DIMTSZ
 40
0.0
  9
$DIMTOL
 70
     0
  9
$DIMLIM
 70
     0
  9
$DIMTIH
 70
     0
  9
$DIMTOH
 70
     0
  9
$DIMSE1
 70
     0
  9
$DIMSE2
 70
     0
  9
$DIMTAD
 70
     1
  9
$DIMZIN
 70
     8
  9
$DIMBLK
  1

  9
$DIMASO
 70
     1
  9
$DIMSHO
 70
     1
  9
$DIMPOST
  1

  9
$DIMAPOST
  1

  9
$DIMALT
 70
     0
  9
$DIMALTD
 70
     3
  9
$DIMALTF
 40
0.03937007874016
  9
$DIMLFAC
 40
1.0
  9
$DIMTOFL
 70
     1
  9
$DIMTVP
 40
0.0
  9
$DIMTIX
 70
     0
  9
$DIMSOXD
 70
     0
  9
$DIMSAH
 70
     0
  9
$DIMBLK1
  1

  9
$DIMBLK2
  1

  9
$DIMSTYLE
  2
ISO-25
  9
$DIMCLRD
 70
     0
  9
$DIMCLRE
 70
     0
  9
$DIMCLRT
 70
     0
  9
$DIMTFAC
 40
1.0
  9
$DIMGAP
 40
0.625
  9
$DIMJUST
 70
     0
  9
$DIMSD1
 70
     0
  9
$DIMSD2
 70
     0
  9
$DIMTOLJ
 70
     0
  9
$DIMTZIN
 70
     8
  9
$DIMALTZ
 70
     0
  9
$DIMALTTZ
 70
     0
  9
$DIMUPT
 70
     0
  9
$DIMDEC
 70
     2
  9
$DIMTDEC
 70
     2
  9
$DIMALTU
 70
     2
  9
$DIMALTTD
 70
     3
  9
$DIMTXSTY
  7
Standard
  9
$DIMAUNIT
 70
     0
  9
$DIMADEC
 70
     0
  9
$DIMALTRND
 40
0.0
  9
$DIMAZIN
 70
     0
  9
$DIMDSEP
 70
    44
  9
$DIMATFIT
 70
     3
  9
$DIMFRAC
 70
     0
  9
$DIMLDRBLK
  1

  9
$DIMLUNIT
 70
     2
  9
$DIMLWD
 70
    -2
  9
$DIMLWE
 70
    -2
  9
$DIMTMOVE
 70
     0
  9
$DIMFXL
 40
1.0
  9
$DIMFXLON
 70
     0
  9
$DIMJOGANG
 40
0.7853981633974483
  9
$DIMTFILL
 70
     0
  9
$DIMTFILLCLR
 70
     0
  9
$DIMARCSYM
 70
     0
  9
$DIMLTYPE
  6

  9
$DIMLTEX1
  6

  9
$DIMLTEX2
  6

  9
$DIMTXTDIRECTION
 70
     0
  9
$LUNITS
 70
     2
  9
$LUPREC
 70
     4
  9
$SKETCHINC
 40
1.0
  9
$FILLETRAD
 40
10.0
  9
$AUNITS
 70
     0
  9
$AUPREC
 70
     0
  9
$MENU
  1
.
  9
$ELEVATION
 40
0.0
  9
$PELEVATION
 40
0.0
  9
$THICKNESS
 40
0.0
  9
$LIMCHECK
 70
     0
  9
$CHAMFERA
 40
10.0
  9
$CHAMFERB
 40
10.0
  9
$CHAMFERC
 40
20.0
  9
$CHAMFERD
 40
0.0
  9
$SKPOLY
 70
     0
  9
$TDCREATE
 40
2459396.579192129
  9
$TDUCREATE
 40
2459396.204192129
  9
$TDUPDATE
 40
2459396.579192141
  9
$TDUUPDATE
 40
2459396.204192141
  9
$TDINDWG
 40
0.0000000116
  9
$TDUSRTIMER
 40
0.0000000116
  9
$USRTIMER
 70
     1
  9
$ANGBASE
 50
0.0
  9
$ANGDIR
 70
     0
  9
$PDMODE
 70
     0
  9
$PDSIZE
 40
0.0
  9
$PLINEWID
 40
0.0
  9
$SPLFRAME
 70
     0
  9
$SPLINETYPE
 70
     6
  9
$SPLINESEGS
 70
     8
  9
$HANDSEED
  5
332
  9
$SURFTAB1
 70
     6
  9
$SURFTAB2
 70
     6
  9
$SURFTYPE
 70
     6
  9
$SURFU
 70
     6
  9
$SURFV
 70
     6
  9
$UCSBASE
  2

  9
$UCSNAME
  2

  9
$UCSORG
 10
0.0
 20
0.0
 30
0.0
  9
$UCSXDIR
 10
1.0
 20
0.0
 30
0.0
  9
$UCSYDIR
 10
0.0
 20
1.0
 30
0.0
  9
$UCSORTHOREF
  2

  9
$UCSORTHOVIEW
 70
     0
  9
$UCSORGTOP
 10
0.0
 20
0.0
 30
0.0
  9
$UCSORGBOTTOM
 10
0.0
 20
0.0
 30
0.0
  9
$UCSORGLEFT
 10
0.0
 20
0.0
 30
0.0
  9
$UCSORGRIGHT
 10
0.0
 20
0.0
 30
0.0
  9
$UCSORGFRONT
 10
0.0
 20
0.0
 30
0.0
  9
$UCSORGBACK
 10
0.0
 20
0.0
 30
0.0
  9
$PUCSBASE
  2

  9
$PUCSNAME
  2

  9
$PUCSORG
 10
0.0
 20
0.0
 30
0.0
  9
$PUCSXDIR
 10
1.0
 20
0.0
 30
0.0
  9
$PUCSYDIR
 10
0.0
 20
1.0
 30
0.0
  9
$PUCSORTHOREF
  2

  9
$PUCSORTHOVIEW
 70
     0
  9
$PUCSORGTOP
 10
0.0
 20
0.0
 30
0.0
  9
$PUCSORGBOTTOM
 10
0.0
 20
0.0
 30
0.0
  9
$PUCSORGLEFT
 10
0.0
 20
0.0
 30
0.0
  9
$PUCSORGRIGHT
 10
0.0
 20
0.0
 30
0.0
  9
$PUCSORGFRONT
 10
0.0
 20
0.0
 30
0.0
  9
$PUCSORGBACK
 10
0.0
 20
0.0
 30
0.0
  9
$USERI1
 70
     0
  9
$USERI2
 70
     0
  9
$USERI3
 70
     0
  9
$USERI4
 70
     0
  9
$USERI5
 70
     0
  9
$USERR1
 40
0.0
  9
$USERR2
 40
0.0
  9
$USERR3
 40
0.0
  9
$USERR4
 40
0.0
  9
$USERR5
 40
0.0
  9
$WORLDVIEW
 70
     1
  9
$SHADEDGE
 70
     3
  9
$SHADEDIF
 70
    70
  9
$TILEMODE
 70
     1
  9
$MAXACTVP
 70
    64
  9
$PINSBASE
 10
0.0
 20
0.0
 30
0.0
  9
$PLIMCHECK
 70
     0
  9
$PEXTMIN
 10
1.000000000000000E+20
 20
1.000000000000000E+20
 30
1.000000000000000E+20
  9
$PEXTMAX
 10
-1.000000000000000E+20
 20
-1.000000000000000E+20
 30
-1.000000000000000E+20
  9
$PLIMMIN
 10
0.0
 20
0.0
  9
$PLIMMAX
 10
420.0
 20
297.0
  9
$UNITMODE
 70
     0
  9
$VISRETAIN
 70
     1
  9
$PLINEGEN
 70
     0
  9
$PSLTSCALE
 70
     1
  9
$TREEDEPTH
 70
  3020
  9
$CMLSTYLE
  2
Standard
  9
$CMLJUST
 70
     0
  9
$CMLSCALE
 40
20.0
  9
$PROXYGRAPHICS
 70
     1
  9
$MEASUREMENT
 70
     1
  9
$CELWEIGHT
370
    -1
  9
$ENDCAPS
280
     0
  9
$JOINSTYLE
280
     0
  9
$LWDISPLAY
290
     0
  9
$INSUNITS
 70
     4
  9
$HYPERLINKBASE
  1

  9
$STYLESHEET
  1

  9
$XEDIT
290
     1
  9
$CEPSNTYPE
380
     0
  9
$PSTYLEMODE
290
     1
  9
$FINGERPRINTGUID
  2
{81A4EAF4-BA27-49CF-878F-3E13756C0404}
  9
$VERSIONGUID
  2
{FAEB1C32-E019-11D5-929B-00C0DF256EC4}
  9
$EXTNAMES
290
     1
  9
$PSVPSCALE
 40
0.0
  9
$OLESTARTUP
290
     0
  9
$SORTENTS
280
   127
  9
$INDEXCTL
280
     0
  9
$HIDETEXT
280
     1
  9
$XCLIPFRAME
280
     2
  9
$HALOGAP
280
     0
  9
$OBSCOLOR
 70
   257
  9
$OBSLTYPE
280
     0
  9
$INTERSECTIONDISPLAY
280
     0
  9
$INTERSECTIONCOLOR
 70
   257
  9
$DIMASSOC
280
     2
  9
$PROJECTNAME
  1

  9
$CAMERADISPLAY
290
     0
  9
$LENSLENGTH
 40
50.0
  9
$CAMERAHEIGHT
 40
0.0
  9
$STEPSPERSEC
 40
2.0
  9
$STEPSIZE
 40
6.0
  9
$3DDWFPREC
 40
2.0
  9
$PSOLWIDTH
 40
5.0
  9
$PSOLHEIGHT
 40
80.0
  9
$LOFTANG1
 40
1.570796326794897
  9
$LOFTANG2
 40
1.570796326794897
  9
$LOFTMAG1
 40
0.0
  9
$LOFTMAG2
 40
0.0
  9
$LOFTPARAM
 70
     7
  9
$LOFTNORMALS
280
     1
  9
$LATITUDE
 40
37.795
  9
$LONGITUDE
 40
-122.394
  9
$NORTHDIRECTION
 40
0.0
  9
$TIMEZONE
 70
 -8000
  9
$LIGHTGLYPHDISPLAY
280
     1
  9
$TILEMODELIGHTSYNCH
280
     1
  9
$SOLIDHIST
280
     1
  9
$SHOWHIST
280
     1
  9
$DWFFRAME
280
     2
  9
$DGNFRAME
280
     2
  9
$REALWORLDSCALE
290
     1
  9
$INTERFERECOLOR
 62
   256
  9
$CSHADOW
280
     0
  9
$SHADOWPLANELOCATION
 40
0.0
  0
ENDSEC
  0
SECTION
  2
CLASSES
  0
CLASS
  1
ACDBDICTIONARYWDFLT
  2
AcDbDictionaryWithDefault
  3
ObjectDBX Classes
 90
        0
 91
        4
280
     0
281
     0
  0
CLASS
  1
VISUALSTYLE
  2
AcDbVisualStyle
  3
ObjectDBX Classes
 90
     4095
 91
        4
280
     0
281
     0
  0
CLASS
  1
MATERIAL
  2
AcDbMaterial
  3
ObjectDBX Classes
 90
     1153
 91
        4
280
     0
281
     0
  0
ENDSEC
  0
SECTION
  2
TABLES
  0
TABLE
  2
VPORT
  5
8
330
0
100
AcDbSymbolTable
 70
     1
  0
VPORT
  5
29
330
8
100
AcDbSymbolTableRecord
100
AcDbViewportTableRecord
  2
*Active
 70
     0
 10
0.0
 20
0.0
 11
1.0
 21
1.0
 12
0.0
 22
0.0
 13
0.0
 23
0.0
 14
10.0
 24
10.0
 15
10.0
 25
10.0
 16
0.0
 26
0.0
 36
1.0
 17
0.0
 27
0.0
 37
0.0
 40
9801.0
 41
1.414141414141414
 42
50.0
 43
0.0
 44
0.0
 50
0.0
 51
0.0
 71
     0
 72
 10000
 73
     1
 74
     3
 75
     0
 76
     0
 77
     0
 78
     0
281
     0
 65
     1
110
0.0
120
0.0
130
0.0
111
1.0
121
0.0
131
0.0
112
0.0
122
1.0
132
0.0
 79
     0
146
0.0
 60
     3
 61
     5
292
     1
282
     1
141
0.0
142
0.0
 63
   250
  0
ENDTAB
  0
TABLE
  2
LTYPE
  5
5
330
0
100
AcDbSymbolTable
 70
     4
  0
LTYPE
  5
14
330
5
100
AcDbSymbolTableRecord
100
AcDbLinetypeTableRecord
  2
ByBlock
 70
     0
  3

 72
    65
 73
     0
 40
0.0
  0
LTYPE
  5
15
330
5
100
AcDbSymbolTableRecord
100
AcDbLinetypeTableRecord
  2
ByLayer
 70
     0
  3

 72
    65
 73
     0
 40
0.0
  0
LTYPE
  5
16
330
5
100
AcDbSymbolTableRecord
100
AcDbLinetypeTableRecord
  2
Continuous
 70
     0
  3
Solid line
 72
    65
 73
     0
 40
0.0
  0
LTYPE
  5
3F
330
5
100
AcDbSymbolTableRecord
100
AcDbLinetypeTableRecord
  2
JWW_HOJO
 70
     0
  3
  -   -   -   -   -   -   -   - 
 72
    65
 73
     2
 40
1.693333333333333
 49
-1.27
 74
     0
 49
0.4233333333333333
 74
     0
  0
LTYPE
  5
40
330
5
100
AcDbSymbolTableRecord
100
AcDbLinetypeTableRecord
  2
JWW_DASHED1
 70
     0
  3
-  --  --  --  --  --  --  --  -
 72
    65
 73
     2
 40
0.3386666666666667
 49
0.1693333333333333
 74
     0
 49
-0.1693333333333333
 74
     0
  0
LTYPE
  5
41
330
5
100
AcDbSymbolTableRecord
100
AcDbLinetypeTableRecord
  2
JWW_CENTER1
 70
     0
  3
-----  --  ----------  --  -----
 72
    65
 73
     4
 40
3.386666666666667
 49
2.116666666666667
 74
     0
 49
-0.4233333333333333
 74
     0
 49
0.4233333333333333
 74
     0
 49
-0.4233333333333333
 74
     0
  0
ENDTAB
  0
TABLE
  2
LAYER
  5
2
330
0
100
AcDbSymbolTable
 70
    11
  0
LAYER
  5
10
330
2
100
AcDbSymbolTableRecord
100
AcDbLayerTableRecord
  2
0
 70
     0
 62
     7
  6
Continuous
370
    -3
390
F
347
3E
  0
LAYER
  5
42
330
2
100
AcDbSymbolTableRecord
100
AcDbLayerTableRecord
  2
0-2_扉
 70
     0
 62
     7
  6
Continuous
370
    -3
390
F
347
3E
  0
LAYER
  5
43
330
2
100
AcDbSymbolTableRecord
100
AcDbLayerTableRecord
  2
0-C_ハッチ
 70
     0
 62
     7
  6
Continuous
370
    -3
390
F
347
3E
  0
LAYER
  5
44
330
2
100
AcDbSymbolTableRecord
100
AcDbLayerTableRecord
  2
F-0_補助線
 70
     0
 62
     7
  6
Continuous
370
    -3
390
F
347
3E
  0
LAYER
  5
45
330
2
100
AcDbSymbolTableRecord
100
AcDbLayerTableRecord
  2
F-1_枠
 70
     0
 62
     7
  6
Continuous
370
    -3
390
F
347
3E
  0
LAYER
  5
46
330
2
100
AcDbSymbolTableRecord
100
AcDbLayerTableRecord
  2
0-B_寸法
 70
     0
 62
     7
  6
Continuous
370
    -3
390
F
347
3E
  0
LAYER
  5
47
330
2
100
AcDbSymbolTableRecord
100
AcDbLayerTableRecord
  2
0-0_補助線
 70
     0
 62
     7
  6
Continuous
370
    -3
390
F
347
3E
  0
LAYER
  5
48
330
2
100
AcDbSymbolTableRecord
100
AcDbLayerTableRecord
  2
0-4_枠
 70
     0
 62
     7
  6
Continuous
370
    -3
390
F
347
3E
  0
LAYER
  5
49
330
2
100
AcDbSymbolTableRecord
100
AcDbLayerTableRecord
  2
F-A_文字
 70
     0
 62
     7
  6
Continuous
370
    -3
390
F
347
3E
  0
LAYER
  5
4A
330
2
100
AcDbSymbolTableRecord
100
AcDbLayerTableRecord
  2
0-A_文字
 70
     0
 62
     7
  6
Continuous
370
    -3
390
F
347
3E
  0
LAYER
  5
4B
330
2
100
AcDbSymbolTableRecord
100
AcDbLayerTableRecord
  2
引手
 70
     0
 62
     7
  6
Continuous
370
    -3
390
F
347
3E
  0
ENDTAB
  0
TABLE
  2
STYLE
  5
3
330
0
100
AcDbSymbolTable
 70
     1
  0
STYLE
  5
11
330
3
100
AcDbSymbolTableRecord
100
AcDbTextStyleTableRecord
  2
Standard
 70
     0
 40
0.0
 41
1.0
 50
0.0
 71
     0
 42
2.5
  3
txt
  4

  0
ENDTAB
  0
TABLE
  2
VIEW
  5
6
330
0
100
AcDbSymbolTable
 70
     0
  0
ENDTAB
  0
TABLE
  2
UCS
  5
7
330
0
100
AcDbSymbolTable
 70
     0
  0
ENDTAB
  0
TABLE
  2
APPID
  5
9
330
0
100
AcDbSymbolTable
 70
     1
  0
APPID
  5
12
330
9
100
AcDbSymbolTableRecord
100
AcDbRegAppTableRecord
  2
ACAD
 70
     0
  0
ENDTAB
  0
TABLE
  2
DIMSTYLE
  5
A
330
0
100
AcDbSymbolTable
 70
     1
100
AcDbDimStyleTable
  0
DIMSTYLE
105
27
330
A
100
AcDbSymbolTableRecord
100
AcDbDimStyleTableRecord
  2
ISO-25
 70
     0
 41
2.5
 42
0.625
 43
3.75
 44
1.25
 73
     0
 74
     0
 77
     1
 78
     8
140
2.5
141
2.5
143
0.03937007874016
147
0.625
171
     3
172
     1
178
     0
271
     2
272
     2
274
     3
278
    44
283
     0
284
     8
340
11
  0
ENDTAB
  0
TABLE
  2
BLOCK_RECORD
  5
1
330
0
100
AcDbSymbolTable
 70
     1
  0
BLOCK_RECORD
  5
1F
330
1
100
AcDbSymbolTableRecord
100
AcDbBlockTableRecord
  2
*Model_Space
340
22
 70
     0
280
     1
281
     0
  0
BLOCK_RECORD
  5
1B
330
1
100
AcDbSymbolTableRecord
100
AcDbBlockTableRecord
  2
*Paper_Space
340
1E
 70
     0
280
     1
281
     0
  0
BLOCK_RECORD
  5
23
330
1
100
AcDbSymbolTableRecord
100
AcDbBlockTableRecord
  2
*Paper_Space0
340
26
 70
     0
280
     1
281
     0
  0
ENDTAB
  0
ENDSEC
  0
SECTION
  2
BLOCKS
  0
BLOCK
  5
20
330
1F
100
AcDbEntity
  8
0
100
AcDbBlockBegin
  2
*Model_Space
 70
     0
 10
0.0
 20
0.0
 30
0.0
  3
*Model_Space
  1

  0
ENDBLK
  5
21
330
1F
100
AcDbEntity
  8
0
100
AcDbBlockEnd
  0
BLOCK
  5
1C
330
1B
100
AcDbEntity
 67
     1
  8
0
100
AcDbBlockBegin
  2
*Paper_Space
 70
     0
 10
0.0
 20
0.0
 30
0.0
  3
*Paper_Space
  1

  0
ENDBLK
  5
1D
330
1B
100
AcDbEntity
 67
     1
  8
0
100
AcDbBlockEnd
  0
BLOCK
  5
24
330
23
100
AcDbEntity
  8
0
100
AcDbBlockBegin
  2
*Paper_Space0
 70
     0
 10
0.0
 20
0.0
 30
0.0
  3
*Paper_Space0
  1

  0
ENDBLK
  5
25
330
23
100
AcDbEntity
  8
0
100
AcDbBlockEnd
  0
ENDSEC
  0
SECTION
  2
ENTITIES
  0
LINE
  5
4C
330
1F
100
AcDbEntity
  8
0-2_扉
  6
Continuous
 62
     7
370
     9
100
AcDbLine
 10
-3889.499820606127
 20
3289.499950512036
 30
0.0
 11
-3503.000010309991
 21
3289.499950512036
 31
0.0
  0
LINE
  5
4D
330
1F
100
AcDbEntity
  8
0-C_ハッチ
  6
Continuous
 62
   120
370
     5
100
AcDbLine
 10
-3659.168742134229
 20
3274.500148463894
 30
0.0
 11
-3874.500158773885
 21
3075.119207130877
 31
0.0
  0
LINE
  5
4E
330
1F
100
AcDbEntity
  8
0-C_ハッチ
  6
Continuous
 62
   120
370
     5
100
AcDbLine
 10
-3856.231979993531
 20
2376.542040534061
 30
0.0
 11
-3874.500018557985
 21
2359.627190011417
 31
0.0
  0
LINE
  5
4F
330
1F
100
AcDbEntity
  8
0-C_ハッチ
  6
Continuous
 62
   120
370
     5
100
AcDbLine
 10
-3825.814943289489
 20
2370.634908791555
 30
0.0
 11
-3874.500158773885
 21
2325.556005565263
 31
0.0
  0
LINE
  5
50
330
1F
100
AcDbEntity
  8
0-C_ハッチ
  6
Continuous
 62
   120
370
     5
100
AcDbLine
 10
-3843.152437063969
 20
3274.500148463894
 30
0.0
 11
-3874.500158773885
 21
3245.474480213972
 31
0.0
  0
LINE
  5
51
330
1F
100
AcDbEntity
  8
0-C_ハッチ
  6
Continuous
 62
   120
370
     5
100
AcDbLine
 10
-3695.965481120177
 20
3274.500148463894
 30
0.0
 11
-3874.500158773885
 21
3109.190261747497
 31
0.0
  0
LINE
  5
52
330
1F
100
AcDbEntity
  8
0-C_ハッチ
  6
Continuous
 62
   120
370
     5
100
AcDbLine
 10
-3732.762220106125
 20
3274.500148463894
 30
0.0
 11
-3874.500158773885
 21
3143.261316364115
 31
0.0
  0
LINE
  5
53
330
1F
100
AcDbEntity
  8
0-C_ハッチ
  6
Continuous
 62
   120
370
     5
100
AcDbLine
 10
-3769.558959092074
 20
3274.500148463894
 30
0.0
 11
-3874.500158773885
 21
3177.332370980735
 31
0.0
  0
LINE
  5
54
330
1F
100
AcDbEntity
  8
0-C_ハッチ
  6
Continuous
 62
   120
370
     5
100
AcDbLine
 10
-3806.355698078021
 20
3274.500148463894
 30
0.0
 11
-3874.500158773885
 21
3211.403425597353
 31
0.0
  0
LINE
  5
55
330
1F
100
AcDbEntity
  8
F-0_補助線
  6
JWW_HOJO
 62
   120
370
     5
100
AcDbLine
 10
5999.999010240709
 20
-4455.0
 30
0.0
 11
-6300.0
 21
-4455.0
 31
0.0
  0
LINE
  5
56
330
1F
100
AcDbEntity
  8
F-1_枠
  6
Continuous
 62
   200
370
    20
100
AcDbLine
 10
-5999.999752560178
 20
4174.999769056166
 30
0.0
 11
5699.998762800888
 21
4174.999769056166
 31
0.0
  0
LINE
  5
57
330
1F
100
AcDbEntity
  8
F-0_補助線
  6
JWW_HOJO
 62
   120
370
     5
100
AcDbLine
 10
-6300.0
 20
-4455.0
 30
0.0
 11
-6300.0
 21
4424.999604096284
 31
0.0
  0
LINE
  5
58
330
1F
100
AcDbEntity
  8
F-0_補助線
  6
JWW_HOJO
 62
   120
370
     5
100
AcDbLine
 10
5999.999010240709
 20
4424.999604096284
 30
0.0
 11
5999.999010240709
 21
-4455.0
 31
0.0
  0
LINE
  5
59
330
1F
100
AcDbEntity
  8
F-1_枠
  6
Continuous
 62
   200
370
    20
100
AcDbLine
 10
-5999.999752560178
 20
4164.999983504013
 30
0.0
 11
5699.998762800888
 21
4164.999983504013
 31
0.0
  0
LINE
  5
5A
330
1F
100
AcDbEntity
  8
F-1_枠
  6
Continuous
 62
   200
370
    20
100
AcDbLine
 10
-5999.999752560178
 20
4169.999505120355
 30
0.0
 11
5699.998762800888
 21
4169.999505120355
 31
0.0
  0
LINE
  5
5B
330
1F
100
AcDbEntity
  8
F-1_枠
  6
Continuous
 62
   200
370
    20
100
AcDbLine
 10
5689.998977248734
 20
4174.999769056166
 30
0.0
 11
5689.998977248734
 21
-4205.000164959882
 31
0.0
  0
LINE
  5
5C
330
1F
100
AcDbEntity
  8
F-1_枠
  6
Continuous
 62
   200
370
    20
100
AcDbLine
 10
5694.998498865077
 20
4174.999769056166
 30
0.0
 11
5694.998498865077
 21
-4205.000164959882
 31
0.0
  0
LINE
  5
5D
330
1F
100
AcDbEntity
  8
F-1_枠
  6
Continuous
 62
   200
370
    20
100
AcDbLine
 10
5699.998762800888
 20
4174.999769056166
 30
0.0
 11
5699.998762800888
 21
-4205.000164959882
 31
0.0
  0
LINE
  5
5E
330
1F
100
AcDbEntity
  8
F-1_枠
  6
Continuous
 62
   200
370
    20
100
AcDbLine
 10
-5989.999990205507
 20
4174.999769056166
 30
0.0
 11
-5989.999990205507
 21
-4205.000164959882
 31
0.0
  0
LINE
  5
5F
330
1F
100
AcDbEntity
  8
F-1_枠
  6
Continuous
 62
   200
370
    20
100
AcDbLine
 10
-5994.999975771518
 20
4174.999769056166
 30
0.0
 11
-5994.999975771518
 21
-4205.000164959882
 31
0.0
  0
LINE
  5
60
330
1F
100
AcDbEntity
  8
F-1_枠
  6
Continuous
 62
   200
370
    20
100
AcDbLine
 10
-5999.99998453501
 20
4174.999769056166
 30
0.0
 11
-5999.99998453501
 21
-4205.000164959882
 31
0.0
  0
LINE
  5
61
330
1F
100
AcDbEntity
  8
F-1_枠
  6
Continuous
 62
   200
370
    20
100
AcDbLine
 10
-5490.000018557986
 20
4174.999769056166
 30
0.0
 11
-5490.000018557986
 21
-3790.000179909372
 31
0.0
  0
LINE
  5
62
330
1F
100
AcDbEntity
  8
F-0_補助線
  6
JWW_HOJO
 62
   120
370
     5
100
AcDbLine
 10
-6300.0
 20
4424.999604096284
 30
0.0
 11
5999.999010240709
 21
4424.999604096284
 31
0.0
  0
LINE
  5
63
330
1F
100
AcDbEntity
  8
F-0_補助線
  6
JWW_HOJO
 62
     7
370
     9
100
AcDbLine
 10
849.9995876002961
 20
-3795.000003092998
 30
0.0
 11
849.9995876002961
 21
-4195.000008247994
 31
0.0
  0
LINE
  5
64
330
1F
100
AcDbEntity
  8
F-0_補助線
  6
JWW_HOJO
 62
     7
370
     9
100
AcDbLine
 10
349.9999175200594
 20
-3795.000003092998
 30
0.0
 11
349.9999175200594
 21
-4195.000008247994
 31
0.0
  0
LINE
  5
65
330
1F
100
AcDbEntity
  8
F-1_枠
  6
Continuous
 62
   200
370
    20
100
AcDbLine
 10
5699.998762800888
 20
-4205.000002577498
 30
0.0
 11
-5999.999752560178
 21
-4205.000002577498
 31
0.0
  0
LINE
  5
66
330
1F
100
AcDbEntity
  8
F-1_枠
  6
Continuous
 62
   200
370
    20
100
AcDbLine
 10
5699.998762800888
 20
-4199.999993814004
 30
0.0
 11
-5999.999752560178
 21
-4199.999993814004
 31
0.0
  0
LINE
  5
67
330
1F
100
AcDbEntity
  8
F-1_枠
  6
Continuous
 62
   200
370
    20
100
AcDbLine
 10
5699.998762800888
 20
-4195.000008247994
 30
0.0
 11
-5999.999752560178
 21
-4195.000008247994
 31
0.0
  0
LINE
  5
68
330
1F
100
AcDbEntity
  8
F-1_枠
  6
Continuous
 62
   200
370
    20
100
AcDbLine
 10
4189.999224688556
 20
-3795.000003092998
 30
0.0
 11
4189.999224688556
 21
-4195.000008247994
 31
0.0
  0
LINE
  5
69
330
1F
100
AcDbEntity
  8
F-1_枠
  6
Continuous
 62
   200
370
    20
100
AcDbLine
 10
2689.998729808911
 20
-3795.000003092998
 30
0.0
 11
2689.998729808911
 21
-4195.000008247994
 31
0.0
  0
LINE
  5
6A
330
1F
100
AcDbEntity
  8
F-1_枠
  6
Continuous
 62
   200
370
    20
100
AcDbLine
 10
-150.0001237199109
 20
-3795.000003092998
 30
0.0
 11
-150.0001237199109
 21
-4195.000008247994
 31
0.0
  0
LINE
  5
6B
330
1F
100
AcDbEntity
  8
F-1_枠
  6
Continuous
 62
   200
370
    20
100
AcDbLine
 10
-150.0001237199109
 20
-3994.999936078046
 30
0.0
 11
5689.998977248734
 21
-3995.005364289155
 31
0.0
  0
LINE
  5
6C
330
1F
100
AcDbEntity
  8
F-0_補助線
  6
JWW_HOJO
 62
     7
370
     9
100
AcDbLine
 10
-5989.999990205507
 20
-3994.99993607839
 30
0.0
 11
-150.0001237199109
 21
-3994.99993607839
 31
0.0
  0
LINE
  5
6D
330
1F
100
AcDbEntity
  8
F-0_補助線
  6
JWW_HOJO
 62
     7
370
     9
100
AcDbLine
 10
-5989.999990205507
 20
-3904.99993607839
 30
0.0
 11
-150.0001237199109
 21
-3904.99993607839
 31
0.0
  0
LINE
  5
6E
330
1F
100
AcDbEntity
  8
F-0_補助線
  6
JWW_HOJO
 62
     7
370
     9
100
AcDbLine
 10
-5989.999990205507
 20
-4084.99993607839
 30
0.0
 11
-150.0001237199109
 21
-4084.99993607839
 31
0.0
  0
LINE
  5
6F
330
1F
100
AcDbEntity
  8
F-0_補助線
  6
JWW_HOJO
 62
     7
370
     9
100
AcDbLine
 10
-150.0002584955388
 20
-4139.999739777983
 30
0.0
 11
5689.998842473105
 21
-4140.005167989091
 31
0.0
  0
LINE
  5
70
330
1F
100
AcDbEntity
  8
F-0_補助線
  6
JWW_HOJO
 62
     7
370
     9
100
AcDbLine
 10
-150.0001748415872
 20
-4049.999739778022
 30
0.0
 11
5689.998926127057
 21
-4050.005167989131
 31
0.0
  0
LINE
  5
71
330
1F
100
AcDbEntity
  8
F-0_補助線
  6
JWW_HOJO
 62
     7
370
     9
100
AcDbLine
 10
-150.0000725978671
 20
-3939.99973721807
 30
0.0
 11
5689.999028370777
 21
-3940.005165429179
 31
0.0
  0
LINE
  5
72
330
1F
100
AcDbEntity
  8
F-0_補助線
  6
JWW_HOJO
 62
     7
370
     9
100
AcDbLine
 10
-149.9999889439155
 20
-3849.999737218109
 30
0.0
 11
5689.999112024728
 21
-3850.005165429218
 31
0.0
  0
LINE
  5
73
330
1F
100
AcDbEntity
  8
F-0_補助線
  6
JWW_HOJO
 62
     7
370
     9
100
AcDbLine
 10
2779.998729808911
 20
-3795.000003092998
 30
0.0
 11
2779.998729808911
 21
-4195.000008247994
 31
0.0
  0
LINE
  5
74
330
1F
100
AcDbEntity
  8
F-0_補助線
  6
JWW_HOJO
 62
     7
370
     9
100
AcDbLine
 10
-60.0001237199109
 20
-3795.000003092998
 30
0.0
 11
-60.0001237199109
 21
-4195.000008247994
 31
0.0
  0
LINE
  5
75
330
1F
100
AcDbEntity
  8
F-0_補助線
  6
JWW_HOJO
 62
     7
370
     9
100
AcDbLine
 10
4279.999224688556
 20
-3795.000003092998
 30
0.0
 11
4279.999224688556
 21
-4195.000008247994
 31
0.0
  0
LINE
  5
76
330
1F
100
AcDbEntity
  8
F-0_補助線
  6
JWW_HOJO
 62
     7
370
     9
100
AcDbLine
 10
-5247.547376752838
 20
-3795.000003092999
 30
0.0
 11
-5247.547376752838
 21
-4205.000164959882
 31
0.0
  0
LINE
  5
77
330
1F
100
AcDbEntity
  8
F-0_補助線
  6
JWW_HOJO
 62
     7
370
     9
100
AcDbLine
 10
-210.0001237199109
 20
-3795.000003092998
 30
0.0
 11
-210.0001237199109
 21
-4195.000008247994
 31
0.0
  0
LINE
  5
78
330
1F
100
AcDbEntity
  8
0-B_寸法
  6
Continuous
 62
   120
370
     5
100
AcDbLine
 10
-3093.000018557985
 20
1168.000148463893
 30
0.0
 11
-3993.000018557985
 21
1168.000148463893
 31
0.0
  0
LINE
  5
79
330
1F
100
AcDbEntity
  8
0-B_寸法
  6
Continuous
 62
   120
370
     5
100
AcDbLine
 10
-3093.000018557985
 20
1168.000148463893
 30
0.0
 11
-3093.000018557985
 21
1368.000148463894
 31
0.0
  0
LINE
  5
7A
330
1F
100
AcDbEntity
  8
0-B_寸法
  6
Continuous
 62
   120
370
     5
100
AcDbLine
 10
-3993.000018557985
 20
1168.000148463893
 30
0.0
 11
-3993.000018557985
 21
1368.000148463894
 31
0.0
  0
LWPOLYLINE
  5
7B
330
1F
100
AcDbEntity
  8
0-B_寸法
  6
Continuous
 62
     7
370
     9
100
AcDbPolyline
 90
        4
 70
     1
 43
3.0
 10
-3091.500018557985
 20
1168.000148463893
 42
0.4142135623731
 10
-3093.000018557985
 20
1169.500148463893
 42
0.4142135623731
 10
-3094.500018557985
 20
1168.000148463893
 42
0.4142135623731
 10
-3093.000018557985
 20
1166.500148463893
 42
0.4142135623731
  0
LWPOLYLINE
  5
7C
330
1F
100
AcDbEntity
  8
0-B_寸法
  6
Continuous
 62
     7
370
     9
100
AcDbPolyline
 90
        4
 70
     1
 43
3.0
 10
-3991.500018557985
 20
1168.000148463893
 42
0.4142135623731
 10
-3993.000018557985
 20
1169.500148463893
 42
0.4142135623731
 10
-3994.500018557985
 20
1168.000148463893
 42
0.4142135623731
 10
-3993.000018557985
 20
1166.500148463893
 42
0.4142135623731
  0
LINE
  5
7D
330
1F
100
AcDbEntity
  8
0-B_寸法
  6
Continuous
 62
   120
370
     5
100
AcDbLine
 10
-1509.000018557983
 20
1168.000148463893
 30
0.0
 11
-1509.000018557983
 21
1368.000148463894
 31
0.0
  0
LINE
  5
7E
330
1F
100
AcDbEntity
  8
0-B_寸法
  6
Continuous
 62
   120
370
     5
100
AcDbLine
 10
-699.0000185579828
 20
1168.000148463893
 30
0.0
 11
-699.0000185579828
 21
1368.000148463894
 31
0.0
  0
LINE
  5
7F
330
1F
100
AcDbEntity
  8
0-B_寸法
  6
Continuous
 62
   120
370
     5
100
AcDbLine
 10
-699.0000185579828
 20
1168.000148463893
 30
0.0
 11
-1509.000018557983
 21
1168.000148463893
 31
0.0
  0
LWPOLYLINE
  5
80
330
1F
100
AcDbEntity
  8
0-B_寸法
  6
Continuous
 62
     7
370
     9
100
AcDbPolyline
 90
        4
 70
     1
 43
3.0
 10
-1507.500018557983
 20
1168.000148463893
 42
0.4142135623731
 10
-1509.000018557983
 20
1169.500148463893
 42
0.4142135623731
 10
-1510.500018557983
 20
1168.000148463893
 42
0.4142135623731
 10
-1509.000018557983
 20
1166.500148463893
 42
0.4142135623731
  0
LWPOLYLINE
  5
81
330
1F
100
AcDbEntity
  8
0-B_寸法
  6
Continuous
 62
     7
370
     9
100
AcDbPolyline
 90
        4
 70
     1
 43
3.0
 10
-697.5000185579828
 20
1168.000148463893
 42
0.4142135623731
 10
-699.0000185579828
 20
1169.500148463893
 42
0.4142135623731
 10
-700.5000185579828
 20
1168.000148463893
 42
0.4142135623731
 10
-699.0000185579828
 20
1166.500148463893
 42
0.4142135623731
  0
LINE
  5
82
330
1F
100
AcDbEntity
  8
0-B_寸法
  6
Continuous
 62
   120
370
     5
100
AcDbLine
 10
1500.999981442021
 20
1168.000148463893
 30
0.0
 11
1500.999981442021
 21
1368.000148463894
 31
0.0
  0
LWPOLYLINE
  5
83
330
1F
100
AcDbEntity
  8
0-B_寸法
  6
Continuous
 62
     7
370
     9
100
AcDbPolyline
 90
        4
 70
     1
 43
3.0
 10
1502.499981442021
 20
1168.000148463893
 42
0.4142135623731
 10
1500.999981442021
 20
1169.500148463893
 42
0.4142135623731
 10
1499.499981442021
 20
1168.000148463893
 42
0.4142135623731
 10
1500.999981442021
 20
1166.500148463893
 42
0.4142135623731
  0
LINE
  5
84
330
1F
100
AcDbEntity
  8
0-B_寸法
  6
Continuous
 62
   120
370
     5
100
AcDbLine
 10
1500.999981442021
 20
1168.000148463893
 30
0.0
 11
787.9999814420205
 21
1168.000148463893
 31
0.0
  0
LINE
  5
85
330
1F
100
AcDbEntity
  8
0-B_寸法
  6
Continuous
 62
   120
370
     5
100
AcDbLine
 10
787.9999814420205
 20
1168.000148463893
 30
0.0
 11
787.9999814420205
 21
1368.000148463894
 31
0.0
  0
LWPOLYLINE
  5
86
330
1F
100
AcDbEntity
  8
0-B_寸法
  6
Continuous
 62
     7
370
     9
100
AcDbPolyline
 90
        4
 70
     1
 43
3.0
 10
789.4999814420205
 20
1168.000148463893
 42
0.4142135623731
 10
787.9999814420205
 20
1169.500148463893
 42
0.4142135623731
 10
786.4999814420205
 20
1168.000148463893
 42
0.4142135623731
 10
787.9999814420205
 20
1166.500148463893
 42
0.4142135623731
  0
LINE
  5
87
330
1F
100
AcDbEntity
  8
0-0_補助線
  6
JWW_HOJO
 62
     7
370
     9
100
AcDbLine
 10
-5490.000018557986
 20
1418.000148463893
 30
0.0
 11
5689.998977248734
 21
1418.000148463893
 31
0.0
  0
LINE
  5
88
330
1F
100
AcDbEntity
  8
0-0_補助線
  6
JWW_HOJO
 62
   120
370
     5
100
AcDbLine
 10
-5490.000018557986
 20
1368.000148463894
 30
0.0
 11
5689.998977248734
 21
1368.000148463894
 31
0.0
  0
LINE
  5
89
330
1F
100
AcDbEntity
  8
0-0_補助線
  6
JWW_HOJO
 62
     7
370
     9
100
AcDbLine
 10
-5490.000018557986
 20
-2701.250083820241
 30
0.0
 11
5699.998762800888
 21
-2701.250083820241
 31
0.0
  0
LINE
  5
8A
330
1F
100
AcDbEntity
  8
0-0_補助線
  6
JWW_HOJO
 62
   120
370
     5
100
AcDbLine
 10
-5490.000018557986
 20
-2751.250083820241
 30
0.0
 11
5699.998762800888
 21
-2751.250083820241
 31
0.0
  0
LINE
  5
8B
330
1F
100
AcDbEntity
  8
F-1_枠
  6
Continuous
 62
   200
370
    20
100
AcDbLine
 10
-2916.000018557986
 20
-3790.000179909372
 30
0.0
 11
-2916.000018557986
 21
4174.999769056166
 31
0.0
  0
LINE
  5
8C
330
1F
100
AcDbEntity
  8
F-1_枠
  6
Continuous
 62
   200
370
    20
100
AcDbLine
 10
-522.0000185579818
 20
-3790.000179909372
 30
0.0
 11
-522.0000185579818
 21
4174.999769056166
 31
0.0
  0
LINE
  5
8D
330
1F
100
AcDbEntity
  8
F-1_枠
  6
Continuous
 62
   200
370
    20
100
AcDbLine
 10
1677.99998144202
 20
-3790.000179909372
 30
0.0
 11
1677.99998144202
 21
4174.999769056166
 31
0.0
  0
LINE
  5
8E
330
1F
100
AcDbEntity
  8
F-1_枠
  6
Continuous
 62
   200
370
    20
100
AcDbLine
 10
3751.999981442023
 20
-3790.000179909372
 30
0.0
 11
3751.999981442023
 21
4174.999769056166
 31
0.0
  0
LINE
  5
8F
330
1F
100
AcDbEntity
  8
0-0_補助線
  6
JWW_HOJO
 62
     7
370
     9
100
AcDbLine
 10
-4890.000018557986
 20
3964.999818544131
 30
0.0
 11
-4890.000018557986
 21
-3790.000179909372
 31
0.0
  0
LINE
  5
90
330
1F
100
AcDbEntity
  8
0-0_補助線
  6
JWW_HOJO
 62
   120
370
     5
100
AcDbLine
 10
-4940.000018557987
 20
3964.999818544131
 30
0.0
 11
-4940.000018557987
 21
-3790.000179909372
 31
0.0
  0
LINE
  5
91
330
1F
100
AcDbEntity
  8
0-0_補助線
  6
JWW_HOJO
 62
     7
370
     9
100
AcDbLine
 10
-2316.000018557984
 20
3964.999818544131
 30
0.0
 11
-2316.000018557984
 21
-3790.000179909372
 31
0.0
  0
LINE
  5
92
330
1F
100
AcDbEntity
  8
0-0_補助線
  6
JWW_HOJO
 62
   120
370
     5
100
AcDbLine
 10
-2366.000018557984
 20
3964.999818544131
 30
0.0
 11
-2366.000018557984
 21
-3790.000179909372
 31
0.0
  0
LINE
  5
93
330
1F
100
AcDbEntity
  8
0-0_補助線
  6
JWW_HOJO
 62
     7
370
     9
100
AcDbLine
 10
77.99998144201822
 20
3964.999818544131
 30
0.0
 11
77.99998144201822
 21
-3790.000179909372
 31
0.0
  0
LINE
  5
94
330
1F
100
AcDbEntity
  8
0-0_補助線
  6
JWW_HOJO
 62
   120
370
     5
100
AcDbLine
 10
27.99998144201851
 20
3964.999818544131
 30
0.0
 11
27.99998144201851
 21
-3790.000179909372
 31
0.0
  0
LINE
  5
95
330
1F
100
AcDbEntity
  8
0-0_補助線
  6
JWW_HOJO
 62
     7
370
     9
100
AcDbLine
 10
2277.999981442021
 20
3964.999818544131
 30
0.0
 11
2277.999981442021
 21
-3790.000179909372
 31
0.0
  0
LINE
  5
96
330
1F
100
AcDbEntity
  8
0-0_補助線
  6
JWW_HOJO
 62
   120
370
     5
100
AcDbLine
 10
2227.999981442021
 20
3964.999818544131
 30
0.0
 11
2227.999981442021
 21
-3790.000179909372
 31
0.0
  0
LINE
  5
97
330
1F
100
AcDbEntity
  8
0-0_補助線
  6
JWW_HOJO
 62
     7
370
     9
100
AcDbLine
 10
4351.999981442024
 20
3964.999818544131
 30
0.0
 11
4351.999981442024
 21
-3790.000179909372
 31
0.0
  0
LINE
  5
98
330
1F
100
AcDbEntity
  8
0-0_補助線
  6
JWW_HOJO
 62
   120
370
     5
100
AcDbLine
 10
4301.999981442023
 20
3964.999818544131
 30
0.0
 11
4301.999981442023
 21
-3790.000179909372
 31
0.0
  0
LINE
  5
99
330
1F
100
AcDbEntity
  8
0-0_補助線
  6
JWW_HOJO
 62
     7
370
     9
100
AcDbLine
 10
-5490.000018557986
 20
1168.000148463894
 30
0.0
 11
5689.998977248734
 21
1168.000148463894
 31
0.0
  0
LINE
  5
9A
330
1F
100
AcDbEntity
  8
0-0_補助線
  6
JWW_HOJO
 62
     7
370
     9
100
AcDbLine
 10
-5490.000018557986
 20
-2951.250083820241
 30
0.0
 11
5699.998762800888
 21
-2951.250083820241
 31
0.0
  0
LINE
  5
9B
330
1F
100
AcDbEntity
  8
F-1_枠
  6
Continuous
 62
   200
370
    20
100
AcDbLine
 10
5699.998762800888
 20
-3795.000003092998
 30
0.0
 11
-5999.99998453501
 21
-3795.000003092998
 31
0.0
  0
LINE
  5
9C
330
1F
100
AcDbEntity
  8
F-1_枠
  6
Continuous
 62
   200
370
    20
100
AcDbLine
 10
-5999.99998453501
 20
3964.999818544131
 30
0.0
 11
5699.998762800888
 21
3964.999818544131
 31
0.0
  0
LINE
  5
9D
330
1F
100
AcDbEntity
  8
F-1_枠
  6
Continuous
 62
   200
370
    20
100
AcDbLine
 10
5699.998762800888
 20
-3790.000017526987
 30
0.0
 11
-5999.99998453501
 21
-3790.000017526987
 31
0.0
  0
LINE
  5
9E
330
1F
100
AcDbEntity
  8
F-1_枠
  6
Continuous
 62
   200
370
    20
100
AcDbLine
 10
-5999.99998453501
 20
190.5001831054688
 30
0.0
 11
5699.998762800888
 21
190.5001831054688
 31
0.0
  0
LINE
  5
9F
330
1F
100
AcDbEntity
  8
F-1_枠
  6
Continuous
 62
   200
370
    20
100
AcDbLine
 10
-5999.99998453501
 20
-15.50015011349217
 30
0.0
 11
5699.998762800888
 21
-15.50015011349217
 31
0.0
  0
LINE
  5
A0
330
1F
100
AcDbEntity
  8
F-1_枠
  6
Continuous
 62
   200
370
    20
100
AcDbLine
 10
-5999.99998453501
 20
184.5000148463899
 30
0.0
 11
5699.998762800888
 21
184.5000148463899
 31
0.0
  0
LINE
  5
A1
330
1F
100
AcDbEntity
  8
F-1_枠
  6
Continuous
 62
   200
370
    20
100
AcDbLine
 10
-5999.99998453501
 20
187.5000989759289
 30
0.0
 11
5699.998762800888
 21
187.5000989759289
 31
0.0
  0
LWPOLYLINE
  5
A2
330
1F
100
AcDbEntity
  8
0-B_寸法
  6
Continuous
 62
     7
370
     9
100
AcDbPolyline
 90
        4
 70
     1
 43
3.0
 10
-5138.500018557985
 20
1426.500148463893
 42
0.4142135623731
 10
-5140.000018557986
 20
1428.000148463893
 42
0.4142135623731
 10
-5141.500018557986
 20
1426.500148463893
 42
0.4142135623731
 10
-5140.000018557986
 20
1425.000148463893
 42
0.4142135623731
  0
LINE
  5
A3
330
1F
100
AcDbEntity
  8
0-B_寸法
  6
Continuous
 62
   120
370
     5
100
AcDbLine
 10
-5140.000018557986
 20
3409.500148463893
 30
0.0
 11
-5140.000018557986
 21
1426.500148463893
 31
0.0
  0
LWPOLYLINE
  5
A4
330
1F
100
AcDbEntity
  8
0-B_寸法
  6
Continuous
 62
     7
370
     9
100
AcDbPolyline
 90
        4
 70
     1
 43
3.0
 10
-5138.500018557985
 20
3409.500148463893
 42
0.4142135623731
 10
-5140.000018557986
 20
3411.000148463893
 42
0.4142135623731
 10
-5141.500018557986
 20
3409.500148463893
 42
0.4142135623731
 10
-5140.000018557986
 20
3408.000148463893
 42
0.4142135623731
  0
LINE
  5
A5
330
1F
100
AcDbEntity
  8
0-B_寸法
  6
Continuous
 62
   120
370
     5
100
AcDbLine
 10
-5140.000018557986
 20
1426.500148463893
 30
0.0
 11
-4940.000018557985
 21
1426.500148463893
 31
0.0
  0
LINE
  5
A6
330
1F
100
AcDbEntity
  8
0-B_寸法
  6
Continuous
 62
   120
370
     5
100
AcDbLine
 10
-5140.000018557986
 20
3409.500148463893
 30
0.0
 11
-4940.000018557985
 21
3409.500148463893
 31
0.0
  0
LINE
  5
A7
330
1F
100
AcDbEntity
  8
0-2_扉
  6
JWW_DASHED1
 62
   120
370
     5
100
AcDbLine
 10
-3093.000018557985
 20
1426.500148463893
 30
0.0
 11
-3093.000018557985
 21
3409.500148463893
 31
0.0
  0
LWPOLYLINE
  5
A8
330
1F
100
AcDbEntity
  8
0-B_寸法
  6
Continuous
 62
     7
370
     9
100
AcDbPolyline
 90
        4
 70
     1
 43
3.0
 10
-2564.500018557985
 20
1426.500148463893
 42
0.4142135623731
 10
-2566.000018557985
 20
1428.000148463893
 42
0.4142135623731
 10
-2567.500018557985
 20
1426.500148463893
 42
0.4142135623731
 10
-2566.000018557985
 20
1425.000148463893
 42
0.4142135623731
  0
LINE
  5
A9
330
1F
100
AcDbEntity
  8
0-B_寸法
  6
Continuous
 62
   120
370
     5
100
AcDbLine
 10
-2566.000018557985
 20
3409.500148463893
 30
0.0
 11
-2566.000018557985
 21
1426.500148463893
 31
0.0
  0
LWPOLYLINE
  5
AA
330
1F
100
AcDbEntity
  8
0-B_寸法
  6
Continuous
 62
     7
370
     9
100
AcDbPolyline
 90
        4
 70
     1
 43
3.0
 10
-2564.500018557985
 20
3409.500148463893
 42
0.4142135623731
 10
-2566.000018557985
 20
3411.000148463893
 42
0.4142135623731
 10
-2567.500018557985
 20
3409.500148463893
 42
0.4142135623731
 10
-2566.000018557985
 20
3408.000148463893
 42
0.4142135623731
  0
LINE
  5
AB
330
1F
100
AcDbEntity
  8
0-B_寸法
  6
Continuous
 62
   120
370
     5
100
AcDbLine
 10
-2566.000018557985
 20
1426.500148463893
 30
0.0
 11
-2366.000018557984
 21
1426.500148463893
 31
0.0
  0
LINE
  5
AC
330
1F
100
AcDbEntity
  8
0-B_寸法
  6
Continuous
 62
   120
370
     5
100
AcDbLine
 10
-2566.000018557985
 20
3409.500148463893
 30
0.0
 11
-2366.000018557984
 21
3409.500148463893
 31
0.0
  0
LINE
  5
AD
330
1F
100
AcDbEntity
  8
0-2_扉
  6
JWW_DASHED1
 62
   120
370
     5
100
AcDbLine
 10
-699.0000185579828
 20
1426.500148463893
 30
0.0
 11
-699.0000185579828
 21
3409.500148463893
 31
0.0
  0
LWPOLYLINE
  5
AE
330
1F
100
AcDbEntity
  8
0-B_寸法
  6
Continuous
 62
     7
370
     9
100
AcDbPolyline
 90
        4
 70
     1
 43
3.0
 10
-170.5000185579812
 20
1426.500148463893
 42
0.4142135623731
 10
-172.0000185579812
 20
1428.000148463893
 42
0.4142135623731
 10
-173.5000185579812
 20
1426.500148463893
 42
0.4142135623731
 10
-172.0000185579812
 20
1425.000148463893
 42
0.4142135623731
  0
LINE
  5
AF
330
1F
100
AcDbEntity
  8
0-B_寸法
  6
Continuous
 62
   120
370
     5
100
AcDbLine
 10
-172.0000185579812
 20
3409.500148463893
 30
0.0
 11
-172.0000185579812
 21
1426.500148463893
 31
0.0
  0
LWPOLYLINE
  5
B0
330
1F
100
AcDbEntity
  8
0-B_寸法
  6
Continuous
 62
     7
370
     9
100
AcDbPolyline
 90
        4
 70
     1
 43
3.0
 10
-170.5000185579812
 20
3409.500148463893
 42
0.4142135623731
 10
-172.0000185579812
 20
3411.000148463893
 42
0.4142135623731
 10
-173.5000185579812
 20
3409.500148463893
 42
0.4142135623731
 10
-172.0000185579812
 20
3408.000148463893
 42
0.4142135623731
  0
LINE
  5
B1
330
1F
100
AcDbEntity
  8
0-B_寸法
  6
Continuous
 62
   120
370
     5
100
AcDbLine
 10
-172.0000185579812
 20
1426.500148463893
 30
0.0
 11
27.99998144201936
 21
1426.500148463893
 31
0.0
  0
LINE
  5
B2
330
1F
100
AcDbEntity
  8
0-B_寸法
  6
Continuous
 62
   120
370
     5
100
AcDbLine
 10
-172.0000185579812
 20
3409.500148463893
 30
0.0
 11
27.99998144201936
 21
3409.500148463893
 31
0.0
  0
LINE
  5
B3
330
1F
100
AcDbEntity
  8
0-4_枠
  6
JWW_DASHED1
 62
   120
370
     5
100
AcDbLine
 10
-3993.000018557985
 20
1418.000148463893
 30
0.0
 11
-3993.000018557985
 21
3423.000148463893
 31
0.0
  0
LINE
  5
B4
330
1F
100
AcDbEntity
  8
0-4_枠
  6
JWW_DASHED1
 62
   120
370
     5
100
AcDbLine
 10
-3963.000018557985
 20
1418.000148463893
 30
0.0
 11
-3963.000018557985
 21
3423.000148463893
 31
0.0
  0
LINE
  5
B5
330
1F
100
AcDbEntity
  8
0-4_枠
  6
JWW_DASHED1
 62
   120
370
     5
100
AcDbLine
 10
-1509.000018557983
 20
1418.000148463893
 30
0.0
 11
-1509.000018557983
 21
3423.000148463893
 31
0.0
  0
LINE
  5
B6
330
1F
100
AcDbEntity
  8
0-4_枠
  6
JWW_DASHED1
 62
   120
370
     5
100
AcDbLine
 10
-1479.000018557983
 20
1418.000148463893
 30
0.0
 11
-1479.000018557983
 21
3423.000148463893
 31
0.0
  0
LINE
  5
B7
330
1F
100
AcDbEntity
  8
0-4_枠
  6
JWW_DASHED1
 62
   120
370
     5
100
AcDbLine
 10
787.9999814420205
 20
1418.000148463893
 30
0.0
 11
787.9999814420205
 21
3423.000148463893
 31
0.0
  0
LINE
  5
B8
330
1F
100
AcDbEntity
  8
0-4_枠
  6
JWW_DASHED1
 62
   120
370
     5
100
AcDbLine
 10
817.9999814420205
 20
1418.000148463893
 30
0.0
 11
817.9999814420205
 21
3423.000148463893
 31
0.0
  0
LINE
  5
B9
330
1F
100
AcDbEntity
  8
0-4_枠
  6
Continuous
 62
    92
370
    13
100
AcDbLine
 10
-4890.000018557986
 20
1418.000148463893
 30
0.0
 11
-4890.000018557986
 21
3453.000148463893
 31
0.0
  0
LINE
  5
BA
330
1F
100
AcDbEntity
  8
0-4_枠
  6
Continuous
 62
    92
370
    13
100
AcDbLine
 10
-3066.000018557984
 20
1418.000148463893
 30
0.0
 11
-3066.000018557984
 21
3453.000148463893
 31
0.0
  0
LINE
  5
BB
330
1F
100
AcDbEntity
  8
0-4_枠
  6
Continuous
 62
    92
370
    13
100
AcDbLine
 10
-4860.000018557986
 20
3423.000148463893
 30
0.0
 11
-3096.000018557984
 21
3423.000148463893
 31
0.0
  0
LINE
  5
BC
330
1F
100
AcDbEntity
  8
0-4_枠
  6
Continuous
 62
    92
370
    13
100
AcDbLine
 10
-4890.000018557986
 20
3453.000148463893
 30
0.0
 11
-3066.000018557984
 21
3453.000148463893
 31
0.0
  0
LINE
  5
BD
330
1F
100
AcDbEntity
  8
0-4_枠
  6
Continuous
 62
    92
370
    13
100
AcDbLine
 10
-2316.000018557984
 20
1418.000148463893
 30
0.0
 11
-2316.000018557984
 21
3453.000148463893
 31
0.0
  0
LINE
  5
BE
330
1F
100
AcDbEntity
  8
0-4_枠
  6
Continuous
 62
    92
370
    13
100
AcDbLine
 10
-672.0000185579827
 20
1418.000148463893
 30
0.0
 11
-672.0000185579827
 21
3453.000148463893
 31
0.0
  0
LINE
  5
BF
330
1F
100
AcDbEntity
  8
0-4_枠
  6
Continuous
 62
    92
370
    13
100
AcDbLine
 10
-2286.000018557984
 20
3423.000148463893
 30
0.0
 11
-702.0000185579827
 21
3423.000148463893
 31
0.0
  0
LINE
  5
C0
330
1F
100
AcDbEntity
  8
0-4_枠
  6
Continuous
 62
    92
370
    13
100
AcDbLine
 10
-2316.000018557984
 20
3453.000148463893
 30
0.0
 11
-672.0000185579827
 21
3453.000148463893
 31
0.0
  0
LINE
  5
C1
330
1F
100
AcDbEntity
  8
0-4_枠
  6
Continuous
 62
    92
370
    13
100
AcDbLine
 10
77.99998144201908
 20
1418.000148463893
 30
0.0
 11
77.99998144201908
 21
3453.000148463893
 31
0.0
  0
LINE
  5
C2
330
1F
100
AcDbEntity
  8
0-4_枠
  6
Continuous
 62
    92
370
    13
100
AcDbLine
 10
1527.99998144202
 20
1418.000148463893
 30
0.0
 11
1527.99998144202
 21
3453.000148463893
 31
0.0
  0
LINE
  5
C3
330
1F
100
AcDbEntity
  8
0-4_枠
  6
Continuous
 62
    92
370
    13
100
AcDbLine
 10
107.9999814420191
 20
3423.000148463893
 30
0.0
 11
1497.99998144202
 21
3423.000148463893
 31
0.0
  0
LINE
  5
C4
330
1F
100
AcDbEntity
  8
0-4_枠
  6
Continuous
 62
    92
370
    13
100
AcDbLine
 10
77.99998144201908
 20
3453.000148463893
 30
0.0
 11
1527.99998144202
 21
3453.000148463893
 31
0.0
  0
LINE
  5
C5
330
1F
100
AcDbEntity
  8
0-0_補助線
  6
JWW_HOJO
 62
     7
370
     9
100
AcDbLine
 10
-5490.000018557986
 20
3453.000148463891
 30
0.0
 11
5689.998977248734
 21
3453.000148463891
 31
0.0
  0
LINE
  5
C6
330
1F
100
AcDbEntity
  8
0-4_枠
  6
Continuous
 62
    92
370
    13
100
AcDbLine
 10
-4890.000018557986
 20
1418.000148463893
 30
0.0
 11
-4860.000018557986
 21
1418.000148463893
 31
0.0
  0
LINE
  5
C7
330
1F
100
AcDbEntity
  8
0-4_枠
  6
Continuous
 62
    92
370
    13
100
AcDbLine
 10
-4860.000018557986
 20
1418.000148463893
 30
0.0
 11
-4860.000018557986
 21
3423.000148463893
 31
0.0
  0
LINE
  5
C8
330
1F
100
AcDbEntity
  8
0-4_枠
  6
Continuous
 62
    92
370
    13
100
AcDbLine
 10
-3096.000018557984
 20
1418.000148463893
 30
0.0
 11
-3096.000018557984
 21
3423.000148463893
 31
0.0
  0
LINE
  5
C9
330
1F
100
AcDbEntity
  8
0-4_枠
  6
Continuous
 62
    92
370
    13
100
AcDbLine
 10
-3096.000018557984
 20
1418.000148463893
 30
0.0
 11
-3066.000018557984
 21
1418.000148463893
 31
0.0
  0
LINE
  5
CA
330
1F
100
AcDbEntity
  8
0-4_枠
  6
Continuous
 62
    92
370
    13
100
AcDbLine
 10
-2316.000018557984
 20
1418.000148463893
 30
0.0
 11
-2286.000018557984
 21
1418.000148463893
 31
0.0
  0
LINE
  5
CB
330
1F
100
AcDbEntity
  8
0-4_枠
  6
Continuous
 62
    92
370
    13
100
AcDbLine
 10
-2286.000018557984
 20
1418.000148463893
 30
0.0
 11
-2286.000018557984
 21
3423.000148463893
 31
0.0
  0
LINE
  5
CC
330
1F
100
AcDbEntity
  8
0-4_枠
  6
Continuous
 62
    92
370
    13
100
AcDbLine
 10
-702.0000185579827
 20
1418.000148463893
 30
0.0
 11
-672.0000185579827
 21
1418.000148463893
 31
0.0
  0
LINE
  5
CD
330
1F
100
AcDbEntity
  8
0-4_枠
  6
Continuous
 62
    92
370
    13
100
AcDbLine
 10
-702.0000185579827
 20
1418.000148463893
 30
0.0
 11
-702.0000185579827
 21
3423.000148463893
 31
0.0
  0
LINE
  5
CE
330
1F
100
AcDbEntity
  8
0-4_枠
  6
Continuous
 62
    92
370
    13
100
AcDbLine
 10
77.99998144201908
 20
1418.000148463893
 30
0.0
 11
107.9999814420191
 21
1418.000148463893
 31
0.0
  0
LINE
  5
CF
330
1F
100
AcDbEntity
  8
0-4_枠
  6
Continuous
 62
    92
370
    13
100
AcDbLine
 10
107.9999814420191
 20
1418.000148463893
 30
0.0
 11
107.9999814420191
 21
3423.000148463893
 31
0.0
  0
LINE
  5
D0
330
1F
100
AcDbEntity
  8
0-4_枠
  6
Continuous
 62
    92
370
    13
100
AcDbLine
 10
1497.99998144202
 20
1418.000148463893
 30
0.0
 11
1527.99998144202
 21
1418.000148463893
 31
0.0
  0
LINE
  5
D1
330
1F
100
AcDbEntity
  8
0-4_枠
  6
Continuous
 62
    92
370
    13
100
AcDbLine
 10
1497.99998144202
 20
1418.000148463893
 30
0.0
 11
1497.99998144202
 21
3423.000148463893
 31
0.0
  0
LINE
  5
D2
330
1F
100
AcDbEntity
  8
0-4_枠
  6
JWW_DASHED1
 62
   120
370
     5
100
AcDbLine
 10
-3993.000018557985
 20
1418.000148463893
 30
0.0
 11
-3963.000018557985
 21
1418.000148463893
 31
0.0
  0
LINE
  5
D3
330
1F
100
AcDbEntity
  8
0-4_枠
  6
JWW_DASHED1
 62
   120
370
     5
100
AcDbLine
 10
-1509.000018557983
 20
1418.000148463893
 30
0.0
 11
-1479.000018557983
 21
1418.000148463893
 31
0.0
  0
LINE
  5
D4
330
1F
100
AcDbEntity
  8
0-4_枠
  6
JWW_DASHED1
 62
   120
370
     5
100
AcDbLine
 10
787.9999814420205
 20
1418.000148463893
 30
0.0
 11
817.9999814420205
 21
1418.000148463893
 31
0.0
  0
LINE
  5
D5
330
1F
100
AcDbEntity
  8
F-A_文字
  6
Continuous
 62
     7
370
     9
100
AcDbLine
 10
1677.99998144202
 20
-3790.000017526987
 30
0.0
 11
3751.999981442023
 21
184.5000148463899
 31
0.0
  0
LINE
  5
D6
330
1F
100
AcDbEntity
  8
F-A_文字
  6
Continuous
 62
     7
370
     9
100
AcDbLine
 10
3751.999981442023
 20
-3790.000017526987
 30
0.0
 11
5689.998977248734
 21
184.5000148463899
 31
0.0
  0
LINE
  5
D7
330
1F
100
AcDbEntity
  8
F-A_文字
  6
Continuous
 62
     7
370
     9
100
AcDbLine
 10
1677.99998144202
 20
184.5000148463899
 30
0.0
 11
-522.0000185579818
 21
-3790.000017526987
 31
0.0
  0
LINE
  5
D8
330
1F
100
AcDbEntity
  8
F-A_文字
  6
Continuous
 62
     7
370
     9
100
AcDbLine
 10
-2916.000018557986
 20
-3790.000017526987
 30
0.0
 11
-522.0000185579818
 21
184.5000148463899
 31
0.0
  0
LINE
  5
D9
330
1F
100
AcDbEntity
  8
F-A_文字
  6
Continuous
 62
     7
370
     9
100
AcDbLine
 10
-2916.000018557986
 20
184.5000148463899
 30
0.0
 11
-5490.000018557986
 21
-3790.000017526987
 31
0.0
  0
MTEXT
  5
DA
330
1F
100
AcDbEntity
  8
0-B_寸法
  6
Continuous
 62
     7
370
    70
100
AcDbMText
 10
-5155.000018557986
 20
2202.825148463893
 30
0.0
 40
57.14999999999999
 41
412.5
 46
0.0
 71
     7
 72
     1
  1
{\fＭＳ ゴシック|b0|i0|c128|p49;ＤＨ＝1,983}
 11
6.123031769111886E-17
 21
1.0
 31
0.0
 73
     1
 44
1.0
  0
MTEXT
  5
DB
330
1F
100
AcDbEntity
  8
0-B_寸法
  6
Continuous
 62
     7
370
    70
100
AcDbMText
 10
-2581.000018557985
 20
2202.825148463893
 30
0.0
 40
57.14999999999999
 41
412.5
 46
0.0
 71
     7
 72
     1
  1
{\fＭＳ ゴシック|b0|i0|c128|p49;ＤＨ＝1,983}
 11
6.123031769111886E-17
 21
1.0
 31
0.0
 73
     1
 44
1.0
  0
MTEXT
  5
DC
330
1F
100
AcDbEntity
  8
0-B_寸法
  6
Continuous
 62
     7
370
    70
100
AcDbMText
 10
-187.0000185579812
 20
2202.825148463893
 30
0.0
 40
57.14999999999999
 41
412.5
 46
0.0
 71
     7
 72
     1
  1
{\fＭＳ ゴシック|b0|i0|c128|p49;ＤＨ＝1,983}
 11
6.123031769111886E-17
 21
1.0
 31
0.0
 73
     1
 44
1.0
  0
MTEXT
  5
DD
330
1F
100
AcDbEntity
  8
0-B_寸法
  6
Continuous
 62
     7
370
   211
100
AcDbMText
 10
-3711.750018557983
 20
1174.075148463893
 30
0.0
 40
57.15
 41
337.5
 46
0.0
 71
     7
 72
     1
  1
{\fＭＳ ゴシック|b0|i0|c128|p49;ＤＷ＝900}
 73
     1
 44
1.0
  0
MTEXT
  5
DE
330
1F
100
AcDbEntity
  8
0-B_寸法
  6
Continuous
 62
     7
370
   211
100
AcDbMText
 10
-1272.750018557983
 20
1174.075148463893
 30
0.0
 40
57.15
 41
337.5
 46
0.0
 71
     7
 72
     1
  1
{\fＭＳ ゴシック|b0|i0|c128|p49;ＤＷ＝810}
 73
     1
 44
1.0
  0
MTEXT
  5
DF
330
1F
100
AcDbEntity
  8
0-B_寸法
  6
Continuous
 62
     7
370
   211
100
AcDbMText
 10
975.749981442022
 20
1174.075148463893
 30
0.0
 40
57.15
 41
337.5
 46
0.0
 71
     7
 72
     1
  1
{\fＭＳ ゴシック|b0|i0|c128|p49;ＤＷ＝713}
 73
     1
 44
1.0
  0
MTEXT
  5
E0
330
1F
100
AcDbEntity
  8
F-A_文字
  6
Continuous
 62
     7
370
     9
100
AcDbMText
 10
-5890.000004381747
 20
4018.575148463894
 30
0.0
 40
57.15
 41
300.0
 46
0.0
 71
     7
 72
     1
  1
{\fＭＳ ゴシック|b0|i0|c128|p49;デザイン}
 73
     1
 44
1.0
  0
MTEXT
  5
E1
330
1F
100
AcDbEntity
  8
F-A_文字
  6
Continuous
 62
     7
370
     9
100
AcDbMText
 10
-5852.500004381747
 20
2031.325062684755
 30
0.0
 40
57.15
 41
225.0
 46
0.0
 71
     7
 72
     1
  1
{\fＭＳ ゴシック|b0|i0|c128|p49;姿　図}
 73
     1
 44
1.0
  0
MTEXT
  5
E2
330
1F
100
AcDbEntity
  8
F-A_文字
  6
Continuous
 62
     7
370
     9
100
AcDbMText
 10
-5890.000004381747
 20
38.07493236644844
 30
0.0
 40
57.15
 41
300.0
 46
0.0
 71
     7
 72
     1
  1
{\fＭＳ ゴシック|b0|i0|c128|p49;デザイン}
 73
     1
 44
1.0
  0
MTEXT
  5
E3
330
1F
100
AcDbEntity
  8
F-A_文字
  6
Continuous
 62
     7
370
     9
100
AcDbMText
 10
-5852.500004381747
 20
-1949.175091552734
 30
0.0
 40
57.15
 41
225.0
 46
0.0
 71
     7
 72
     1
  1
{\fＭＳ ゴシック|b0|i0|c128|p49;姿　図}
 73
     1
 44
1.0
  0
MTEXT
  5
E4
330
1F
100
AcDbEntity
  8
F-A_文字
  6
Continuous
 62
     7
370
     0
100
AcDbMText
 10
-60.0001237199109
 20
-3887.139820871936
 30
0.0
 40
45.72
 41
180.0
 46
0.0
 71
     7
 72
     1
  1
{\fＭＳ ゴシック|b0|i0|c128|p49;図面名}
 73
     1
 44
1.0
  0
MTEXT
  5
E5
330
1F
100
AcDbEntity
  8
F-A_文字
  6
Continuous
 62
     7
370
     0
100
AcDbMText
 10
2779.998729808911
 20
-3887.142460617774
 30
0.0
 40
45.72
 41
300.0
 46
0.0
 71
     7
 72
     1
  1
{\fＭＳ ゴシック|b0|i0|c128|p49;ＳＣＡＬＥ}
 73
     1
 44
1.0
  0
MTEXT
  5
E6
330
1F
100
AcDbEntity
  8
F-A_文字
  6
Continuous
 62
     7
370
     0
100
AcDbMText
 10
4279.999224688556
 20
-3887.143854850754
 30
0.0
 40
45.72
 41
240.0
 46
0.0
 71
     7
 72
     1
  1
{\fＭＳ ゴシック|b0|i0|c128|p49;ＤＡＴＥ}
 73
     1
 44
1.0
  0
MTEXT
  5
E7
330
1F
100
AcDbEntity
  8
F-A_文字
  6
Continuous
 62
     7
370
     0
100
AcDbMText
 10
1180.417701903719
 20
-3946.423911599839
 30
0.0
 40
77.15249999999999
 41
405.0
 46
0.0
 71
     7
 72
     1
  1
{\fＭＳ ゴシック|b0|i0|c128|p49;建具姿図}
 73
     1
 44
1.0
  0
MTEXT
  5
E8
330
1F
100
AcDbEntity
  8
F-A_文字
  6
Continuous
 62
     7
370
     0
100
AcDbMText
 10
3383.748977248734
 20
-3946.426865907308
 30
0.0
 40
77.15249999999999
 41
202.5
 46
0.0
 71
     7
 72
     1
  1
{\fＭＳ ゴシック|b0|i0|c128|p49;1/30}
 73
     1
 44
1.0
  0
MTEXT
  5
E9
330
1F
100
AcDbEntity
  8
F-A_文字
  6
Continuous
 62
     7
370
     0
100
AcDbMText
 10
349.9999175200594
 20
-3946.496666872502
 30
0.0
 40
78.58125
 41
412.5
 46
0.0
 71
     7
 72
     1
  1
{\fＭＳ ゴシック|b0|i0|c128|p49;DOORETUS}
 73
     1
 44
1.0
  0
MTEXT
  5
EA
330
1F
100
AcDbEntity
  8
F-A_文字
  6
Continuous
 62
     7
370
     0
100
AcDbMText
 10
2779.998729808911
 20
-4087.14246317786
 30
0.0
 40
45.72
 41
240.0
 46
0.0
 71
     7
 72
     1
  1
{\fＭＳ ゴシック|b0|i0|c128|p49;ＦＩＬＥ}
 73
     1
 44
1.0
  0
MTEXT
  5
EB
330
1F
100
AcDbEntity
  8
F-A_文字
  6
Continuous
 62
     7
370
     0
100
AcDbMText
 10
4279.999224688556
 20
-4087.143857410839
 30
0.0
 40
45.72
 41
180.0
 46
0.0
 71
     7
 72
     1
  1
{\fＭＳ ゴシック|b0|i0|c128|p49;ＮＯ．}
 73
     1
 44
1.0
  0
MTEXT
  5
EC
330
1F
100
AcDbEntity
  8
F-A_文字
  6
Continuous
 62
     7
370
     0
100
AcDbMText
 10
1234.998729808911
 20
-4096.140669266149
 30
0.0
 40
45.72
 41
120.0
 46
0.0
 71
     7
 72
     1
  1
{\fＭＳ ゴシック|b0|i0|c128|p49;株式}
 73
     1
 44
1.0
  0
MTEXT
  5
ED
330
1F
100
AcDbEntity
  8
F-A_文字
  6
Continuous
 62
     7
370
     9
100
AcDbMText
 10
4936.249033580831
 20
-4147.857012699985
 30
0.0
 40
74.295
 41
97.5
 46
0.0
 71
     7
 72
     1
  1
{\fＭＳ ゴシック|b0|i0|c128|p49;01}
 73
     1
 44
1.0
  0
MTEXT
  5
EE
330
1F
100
AcDbEntity
  8
F-A_文字
  6
Continuous
 62
     7
370
     0
100
AcDbMText
 10
1444.998729808911
 20
-4164.281754523929
 30
0.0
 40
101.44125
 41
1065.0
 46
0.0
 71
     7
 72
     1
  1
{\fＭＳ ゴシック|b0|i0|c128|p49;ウッドワン・・・}
 73
     1
 44
1.0
  0
MTEXT
  5
EF
330
1F
100
AcDbEntity
  8
F-A_文字
  6
Continuous
 62
     7
370
     0
100
AcDbMText
 10
1234.998729808911
 20
-4168.140669266187
 30
0.0
 40
45.72
 41
120.0
 46
0.0
 71
     7
 72
     1
  1
{\fＭＳ ゴシック|b0|i0|c128|p49;会社}
 73
     1
 44
1.0
  0
MTEXT
  5
F0
330
1F
100
AcDbEntity
  8
F-A_文字
  6
Continuous
 62
     7
370
     0
100
AcDbMText
 10
5608.403311109712
 20
-4314.841419020919
 30
0.0
 40
68.58
 41
90.0
 46
0.0
 71
     7
 72
     1
  1
{\fＭＳ ゴシック|b0|i0|c128|p49;）}
 73
     1
 44
1.0
  0
MTEXT
  5
F1
330
1F
100
AcDbEntity
  8
F-A_文字
  6
Continuous
 62
     7
370
     0
100
AcDbMText
 10
5190.195950842071
 20
-4316.235443869856
 30
0.0
 40
68.58
 41
45.0
 46
0.0
 71
     7
 72
     1
  1
{\fＭＳ ゴシック|b0|i0|c128|p49;,}
 73
     1
 44
1.0
  0
MTEXT
  5
F2
330
1F
100
AcDbEntity
  8
F-A_文字
  6
Continuous
 62
     7
370
     0
100
AcDbMText
 10
4923.937261915373
 20
-4314.771967288282
 30
0.0
 40
74.295
 41
97.5
 46
0.0
 71
     7
 72
     1
  1
{\fＭＳ ゴシック|b0|i0|c128|p49;$y}
 73
     1
 44
1.0
  0
MTEXT
  5
F3
330
1F
100
AcDbEntity
  8
F-A_文字
  6
Continuous
 62
     7
370
     0
100
AcDbMText
 10
5078.673982954195
 20
-4314.771967288282
 30
0.0
 40
74.295
 41
97.5
 46
0.0
 71
     7
 72
     1
  1
{\fＭＳ ゴシック|b0|i0|c128|p49;$m}
 73
     1
 44
1.0
  0
MTEXT
  5
F4
330
1F
100
AcDbEntity
  8
F-A_文字
  6
Continuous
 62
     7
370
     0
100
AcDbMText
 10
5233.410715437103
 20
-4314.771967288282
 30
0.0
 40
74.295
 41
97.5
 46
0.0
 71
     7
 72
     1
  1
{\fＭＳ ゴシック|b0|i0|c128|p49;$d}
 73
     1
 44
1.0
  0
MTEXT
  5
F5
330
1F
100
AcDbEntity
  8
F-A_文字
  6
Continuous
 62
     7
370
     0
100
AcDbMText
 10
5388.147447920011
 20
-4314.771967288282
 30
0.0
 40
74.295
 41
195.0
 46
0.0
 71
     7
 72
     1
  1
{\fＭＳ ゴシック|b0|i0|c128|p49;印刷}
 73
     1
 44
1.0
  0
MTEXT
  5
F6
330
1F
100
AcDbEntity
  8
F-A_文字
  6
Continuous
 62
     7
370
     0
100
AcDbMText
 10
4784.033374252999
 20
-4319.023493567732
 30
0.0
 40
68.58
 41
90.0
 46
0.0
 71
     7
 72
     1
  1
{\fＭＳ ゴシック|b0|i0|c128|p49;（}
 73
     1
 44
1.0
  0
MTEXT
  5
F7
330
1F
100
AcDbEntity
  8
F-A_文字
  6
Continuous
 62
     7
370
     0
100
AcDbMText
 10
5031.277143812345
 20
-4319.023493567732
 30
0.0
 40
68.58
 41
45.0
 46
0.0
 71
     7
 72
     1
  1
{\fＭＳ ゴシック|b0|i0|c128|p49;,}
 73
     1
 44
1.0
  0
LINE
  5
F8
330
1F
100
AcDbEntity
  8
0-0_補助線
  6
JWW_HOJO
 62
   120
370
     5
100
AcDbLine
 10
-5999.99998453501
 20
670.5001831054692
 30
0.0
 11
5699.998762800888
 21
670.5001831054692
 31
0.0
  0
LINE
  5
F9
330
1F
100
AcDbEntity
  8
0-0_補助線
  6
JWW_HOJO
 62
   120
370
     5
100
AcDbLine
 10
-5999.99998453501
 20
550.5001831054688
 30
0.0
 11
5699.998762800888
 21
550.5001831054688
 31
0.0
  0
LINE
  5
FA
330
1F
100
AcDbEntity
  8
0-0_補助線
  6
JWW_HOJO
 62
   120
370
     5
100
AcDbLine
 10
-5999.99998453501
 20
430.5001831054688
 30
0.0
 11
5699.998762800888
 21
430.5001831054688
 31
0.0
  0
LINE
  5
FB
330
1F
100
AcDbEntity
  8
0-0_補助線
  6
JWW_HOJO
 62
   120
370
     5
100
AcDbLine
 10
-5999.99998453501
 20
310.5001831054688
 30
0.0
 11
5699.998762800888
 21
310.5001831054688
 31
0.0
  0
LINE
  5
FC
330
1F
100
AcDbEntity
  8
0-0_補助線
  6
JWW_HOJO
 62
   120
370
     5
100
AcDbLine
 10
-5370.000018557986
 20
4174.999769056166
 30
0.0
 11
-5370.000018557986
 21
-3790.000179909371
 31
0.0
  0
LINE
  5
FD
330
1F
100
AcDbEntity
  8
0-0_補助線
  6
JWW_HOJO
 62
   120
370
     5
100
AcDbLine
 10
5699.998762800888
 20
-3430.000017526988
 30
0.0
 11
-5999.99998453501
 21
-3430.000017526988
 31
0.0
  0
LINE
  5
FE
330
1F
100
AcDbEntity
  8
0-0_補助線
  6
JWW_HOJO
 62
   120
370
     5
100
AcDbLine
 10
5699.998762800888
 20
-3550.000017526988
 30
0.0
 11
-5999.99998453501
 21
-3550.000017526988
 31
0.0
  0
LINE
  5
FF
330
1F
100
AcDbEntity
  8
0-0_補助線
  6
JWW_HOJO
 62
   120
370
     5
100
AcDbLine
 10
5699.998762800888
 20
-3670.000017526988
 30
0.0
 11
-5999.99998453501
 21
-3670.000017526988
 31
0.0
  0
MTEXT
  5
100
330
1F
100
AcDbEntity
  8
F-A_文字
  6
Continuous
 62
     7
370
     0
100
AcDbMText
 10
4726.249126529666
 20
-3938.071010139966
 30
0.0
 40
78.86699999999999
 41
517.5
 46
0.0
 71
     7
 72
     1
  1
{\fＭＳ ゴシック|b0|i0|c128|p49;2021.04.01}
 73
     1
 44
1.0
  0
LINE
  5
101
330
1F
100
AcDbEntity
  8
F-0_補助線
  6
JWW_HOJO
 62
   200
370
    20
100
AcDbLine
 10
-5999.99998453501
 20
4064.999901024072
 30
0.0
 11
5689.998977248734
 21
4064.999901024072
 31
0.0
  0
LINE
  5
102
330
1F
100
AcDbEntity
  8
F-0_補助線
  6
JWW_HOJO
 62
   200
370
    20
100
AcDbLine
 10
-5999.99998453501
 20
84.49993236644843
 30
0.0
 11
5694.998498865077
 21
84.49993236644843
 31
0.0
  0
LINE
  5
103
330
1F
100
AcDbEntity
  8
0-0_補助線
  6
JWW_HOJO
 62
     7
370
     9
100
AcDbLine
 10
-5490.000018557986
 20
-466.2500838202413
 30
0.0
 11
5689.998977248734
 21
-466.2500838202413
 31
0.0
  0
MTEXT
  5
104
330
1F
100
AcDbEntity
  8
F-A_文字
  6
Continuous
 62
     7
370
     0
100
AcDbMText
 10
-5247.547376752838
 20
-4045.206602745057
 30
0.0
 40
79.58666666666667
 41
2820.0
 46
0.0
 71
     7
 72
     1
  1
{\fＭＳ ゴシック|b0|i0|c128|p49;ドレタス　片引き戸／引き込み戸　上吊りタイプ　Ｂ－ＹＩ}
 73
     1
 44
1.0
  0
LINE
  5
105
330
1F
100
AcDbEntity
  8
0-2_扉
  6
Continuous
 62
     7
370
     9
100
AcDbLine
 10
-3993.000018557985
 20
3409.500148463893
 30
0.0
 11
-3993.000018557985
 21
1426.500039590371
 31
0.0
  0
LINE
  5
106
330
1F
100
AcDbEntity
  8
0-2_扉
  6
Continuous
 62
     7
370
     9
100
AcDbLine
 10
-3490.499969070021
 20
3274.500148463894
 30
0.0
 11
-3505.213606963284
 21
3289.213662637247
 31
0.0
  0
LINE
  5
107
330
1F
100
AcDbEntity
  8
0-2_扉
  6
Continuous
 62
     7
370
     9
100
AcDbLine
 10
-3595.499944326038
 20
3274.500148463894
 30
0.0
 11
-3580.500018557985
 21
3289.499950512036
 31
0.0
  0
LINE
  5
108
330
1F
100
AcDbEntity
  8
0-2_扉
  6
Continuous
 62
     7
370
     9
100
AcDbLine
 10
-3595.499944326038
 20
3274.500148463894
 30
0.0
 11
-3595.499944326038
 21
2986.497639424093
 31
0.0
  0
LINE
  5
109
330
1F
100
AcDbEntity
  8
0-2_扉
  6
Continuous
 62
     7
370
     9
100
AcDbLine
 10
-3490.499969070021
 20
3274.500148463894
 30
0.0
 11
-3490.499969070021
 21
2986.497639424093
 31
0.0
  0
LINE
  5
10A
330
1F
100
AcDbEntity
  8
0-2_扉
  6
Continuous
 62
     7
370
     9
100
AcDbLine
 10
-3635.499952574032
 20
1616.500047838366
 30
0.0
 11
-3617.822356765333
 21
1598.822390169711
 31
0.0
  0
LINE
  5
10B
330
1F
100
AcDbEntity
  8
0-2_扉
  6
Continuous
 62
     7
370
     9
100
AcDbLine
 10
-3450.499960822026
 20
1616.500047838366
 30
0.0
 11
-3450.499960822026
 21
1617.931116052576
 31
0.0
  0
LINE
  5
10C
330
1F
100
AcDbEntity
  8
0-2_扉
  6
Continuous
 62
     7
370
     9
100
AcDbLine
 10
-3450.499960822026
 20
1616.500047838366
 30
0.0
 11
-3468.177680350636
 21
1598.822390169711
 31
0.0
  0
LINE
  5
10D
330
1F
100
AcDbEntity
  8
0-2_扉
  6
Continuous
 62
     7
370
     9
100
AcDbLine
 10
-3505.500018557985
 20
2214.500113822318
 30
0.0
 11
-3490.499969070021
 21
2229.500039590372
 31
0.0
  0
LINE
  5
10E
330
1F
100
AcDbEntity
  8
0-2_扉
  6
Continuous
 62
     7
370
     9
100
AcDbLine
 10
-3595.499944326038
 20
2124.50253873258
 30
0.0
 11
-3580.500018557985
 21
2139.502588220545
 31
0.0
  0
LINE
  5
10F
330
1F
100
AcDbEntity
  8
0-2_扉
  6
Continuous
 62
     7
370
     9
100
AcDbLine
 10
-3505.500018557985
 20
2139.502588220545
 30
0.0
 11
-3490.499969070021
 21
2124.50253873258
 31
0.0
  0
LINE
  5
110
330
1F
100
AcDbEntity
  8
0-2_扉
  6
Continuous
 62
     7
370
     9
100
AcDbLine
 10
-3595.499944326038
 20
2229.500039590372
 30
0.0
 11
-3580.500018557985
 21
2214.500113822318
 31
0.0
  0
LINE
  5
111
330
1F
100
AcDbEntity
  8
0-2_扉
  6
Continuous
 62
     7
370
     9
100
AcDbLine
 10
-3595.499944326038
 20
2229.500039590372
 30
0.0
 11
-3784.499924530852
 21
2229.500039590372
 31
0.0
  0
LINE
  5
112
330
1F
100
AcDbEntity
  8
0-2_扉
  6
Continuous
 62
     7
370
     9
100
AcDbLine
 10
-3266.4999971132
 20
2229.500039590372
 30
0.0
 11
-3490.499969070021
 21
2229.500039590372
 31
0.0
  0
LINE
  5
113
330
1F
100
AcDbEntity
  8
0-2_扉
  6
Continuous
 62
     7
370
     9
100
AcDbLine
 10
-3635.463826359927
 20
2084.50253873258
 30
0.0
 11
-3617.786230551228
 21
2102.180258261191
 31
0.0
  0
LINE
  5
114
330
1F
100
AcDbEntity
  8
0-2_扉
  6
Continuous
 62
     7
370
     9
100
AcDbLine
 10
-3450.499960822026
 20
2084.50253873258
 30
0.0
 11
-3468.177680350636
 21
2102.180258261191
 31
0.0
  0
LINE
  5
115
330
1F
100
AcDbEntity
  8
0-2_扉
  6
Continuous
 62
     7
370
     9
100
AcDbLine
 10
-3595.499944326038
 20
2986.497639424093
 30
0.0
 11
-3595.499944326038
 21
2229.500039590372
 31
0.0
  0
LINE
  5
116
330
1F
100
AcDbEntity
  8
0-2_扉
  6
JWW_HOJO
 62
     7
370
     9
100
AcDbLine
 10
-3580.500018557985
 20
3289.499950512036
 30
0.0
 11
-3580.500018557985
 21
2214.500113822318
 31
0.0
  0
LINE
  5
117
330
1F
100
AcDbEntity
  8
0-2_扉
  6
Continuous
 62
     7
370
     9
100
AcDbLine
 10
-3580.500018557985
 20
3289.499950512036
 30
0.0
 11
-3580.500018557985
 21
2214.500113822318
 31
0.0
  0
LINE
  5
118
330
1F
100
AcDbEntity
  8
0-2_扉
  6
Continuous
 62
     7
370
     9
100
AcDbLine
 10
-3505.500018557985
 20
3289.499950512036
 30
0.0
 11
-3505.500018557985
 21
2214.500113822318
 31
0.0
  0
LINE
  5
119
330
1F
100
AcDbEntity
  8
0-2_扉
  6
Continuous
 62
     7
370
     9
100
AcDbLine
 10
-3490.499969070021
 20
2986.497639424093
 30
0.0
 11
-3490.499969070021
 21
2229.500039590372
 31
0.0
  0
LINE
  5
11A
330
1F
100
AcDbEntity
  8
0-2_扉
  6
Continuous
 62
     7
370
     9
100
AcDbLine
 10
-3635.499952574032
 20
2084.50253873258
 30
0.0
 11
-3635.499952574032
 21
1616.500047838366
 31
0.0
  0
LINE
  5
11B
330
1F
100
AcDbEntity
  8
0-2_扉
  6
Continuous
 62
     7
370
     9
100
AcDbLine
 10
-3595.499944326038
 20
2124.50253873258
 30
0.0
 11
-3595.499944326038
 21
1576.500039590372
 31
0.0
  0
LINE
  5
11C
330
1F
100
AcDbEntity
  8
0-2_扉
  6
JWW_HOJO
 62
     7
370
     9
100
AcDbLine
 10
-3580.500018557985
 20
2139.502588220545
 30
0.0
 11
-3580.500018557985
 21
1561.500051962363
 31
0.0
  0
LINE
  5
11D
330
1F
100
AcDbEntity
  8
0-2_扉
  6
Continuous
 62
     7
370
     9
100
AcDbLine
 10
-3580.500018557985
 20
2139.502588220545
 30
0.0
 11
-3580.500018557985
 21
1561.500051962363
 31
0.0
  0
LINE
  5
11E
330
1F
100
AcDbEntity
  8
0-2_扉
  6
JWW_HOJO
 62
     7
370
     9
100
AcDbLine
 10
-3505.500018557985
 20
2139.502588220545
 30
0.0
 11
-3505.500018557985
 21
1561.500051962363
 31
0.0
  0
LINE
  5
11F
330
1F
100
AcDbEntity
  8
0-2_扉
  6
Continuous
 62
     7
370
     9
100
AcDbLine
 10
-3505.500018557985
 20
2139.502588220545
 30
0.0
 11
-3505.500018557985
 21
1561.500051962363
 31
0.0
  0
LINE
  5
120
330
1F
100
AcDbEntity
  8
0-2_扉
  6
Continuous
 62
     7
370
     9
100
AcDbLine
 10
-3490.499969070021
 20
2124.50253873258
 30
0.0
 11
-3490.499969070021
 21
1576.500039590372
 31
0.0
  0
LINE
  5
121
330
1F
100
AcDbEntity
  8
0-2_扉
  6
Continuous
 62
     7
370
     9
100
AcDbLine
 10
-3450.499960822026
 20
1617.931116052576
 30
0.0
 11
-3450.499960822026
 21
2084.50253873258
 31
0.0
  0
LINE
  5
122
330
1F
100
AcDbEntity
  8
0-2_扉
  6
Continuous
 62
     7
370
     9
100
AcDbLine
 10
-3874.311964292782
 20
3091.49761468011
 30
0.0
 11
-3874.500018557985
 21
3091.49761468011
 31
0.0
  0
LINE
  5
123
330
1F
100
AcDbEntity
  8
0-2_扉
  6
Continuous
 62
     7
370
     9
100
AcDbLine
 10
-3834.536012804184
 20
1616.500047838366
 30
0.0
 11
-3834.536012804184
 21
1617.931116052576
 31
0.0
  0
LINE
  5
124
330
1F
100
AcDbEntity
  8
0-2_扉
  6
Continuous
 62
     7
370
     9
100
AcDbLine
 10
-3834.536012804184
 20
1616.500047838366
 30
0.0
 11
-3852.213608612883
 21
1598.822390169711
 31
0.0
  0
LINE
  5
125
330
1F
100
AcDbEntity
  8
0-2_扉
  6
Continuous
 62
     7
370
     9
100
AcDbLine
 10
-3889.499820606127
 20
2048.196338550465
 30
0.0
 11
-3889.499820606127
 21
2221.50009732633
 31
0.0
  0
LINE
  5
126
330
1F
100
AcDbEntity
  8
0-2_扉
  6
Continuous
 62
     7
370
     9
100
AcDbLine
 10
-3834.49988659008
 20
2084.50253873258
 30
0.0
 11
-3852.177729838601
 21
2102.180258261191
 31
0.0
  0
LINE
  5
127
330
1F
100
AcDbEntity
  8
0-2_扉
  6
Continuous
 62
     7
370
     9
100
AcDbLine
 10
-3874.500018557985
 20
2229.500039590372
 30
0.0
 11
-3874.500018557985
 21
2371.549057419236
 31
0.0
  0
LINE
  5
128
330
1F
100
AcDbEntity
  8
0-2_扉
  6
Continuous
 62
     7
370
     9
100
AcDbLine
 10
-3874.500018557985
 20
1576.500039590372
 30
0.0
 11
-3874.500018557985
 21
2124.50253873258
 31
0.0
  0
LINE
  5
129
330
1F
100
AcDbEntity
  8
0-2_扉
  6
Continuous
 62
     7
370
     9
100
AcDbLine
 10
-3874.500018557985
 20
2371.549057419236
 30
0.0
 11
-3874.500018557985
 21
3274.500148463894
 31
0.0
  0
LINE
  5
12A
330
1F
100
AcDbEntity
  8
0-2_扉
  6
Continuous
 62
     7
370
     9
100
AcDbLine
 10
-3211.500018557984
 20
1576.500039590372
 30
0.0
 11
-3211.500018557984
 21
2124.50253873258
 31
0.0
  0
LINE
  5
12B
330
1F
100
AcDbEntity
  8
0-2_扉
  6
Continuous
 62
     7
370
     9
100
AcDbLine
 10
-3251.500026805978
 20
2084.50253873258
 30
0.0
 11
-3233.822307277367
 21
2102.180258261191
 31
0.0
  0
LINE
  5
12C
330
1F
100
AcDbEntity
  8
0-2_扉
  6
Continuous
 62
     7
370
     9
100
AcDbLine
 10
-3251.500026805978
 20
1616.500047838366
 30
0.0
 11
-3233.822307277367
 21
1598.822390169711
 31
0.0
  0
LINE
  5
12D
330
1F
100
AcDbEntity
  8
0-2_扉
  6
Continuous
 62
     7
370
     9
100
AcDbLine
 10
-3889.499820606127
 20
3289.499950512036
 30
0.0
 11
-3874.500018557985
 21
3274.500148463894
 31
0.0
  0
LINE
  5
12E
330
1F
100
AcDbEntity
  8
0-2_扉
  6
Continuous
 62
     7
370
     9
100
AcDbLine
 10
-3874.500018557985
 20
3274.500148463894
 30
0.0
 11
-3595.499944326038
 21
3274.500148463894
 31
0.0
  0
LINE
  5
12F
330
1F
100
AcDbEntity
  8
0-2_扉
  6
Continuous
 62
     7
370
     9
100
AcDbLine
 10
-3503.000010309991
 20
3289.499950512036
 30
0.0
 11
-3196.49996907002
 21
3289.499950512036
 31
0.0
  0
LINE
  5
130
330
1F
100
AcDbEntity
  8
0-2_扉
  6
Continuous
 62
     7
370
     9
100
AcDbLine
 10
-3196.49996907002
 20
3289.499950512036
 30
0.0
 11
-3211.500018557984
 21
3274.500148463894
 31
0.0
  0
LINE
  5
131
330
1F
100
AcDbEntity
  8
0-2_扉
  6
Continuous
 62
     7
370
     9
100
AcDbLine
 10
-3490.499969070021
 20
3274.500148463894
 30
0.0
 11
-3211.500018557984
 21
3274.500148463894
 31
0.0
  0
LINE
  5
132
330
1F
100
AcDbEntity
  8
0-2_扉
  6
Continuous
 62
     7
370
     9
100
AcDbLine
 10
-3874.500018557985
 20
2229.500039590372
 30
0.0
 11
-3630.499936078044
 21
2229.500039590372
 31
0.0
  0
LINE
  5
133
330
1F
100
AcDbEntity
  8
0-2_扉
  6
Continuous
 62
     7
370
     9
100
AcDbLine
 10
-3889.499820606127
 20
2214.500113822318
 30
0.0
 11
-3874.500018557985
 21
2229.500039590372
 31
0.0
  0
LINE
  5
134
330
1F
100
AcDbEntity
  8
0-2_扉
  6
Continuous
 62
     7
370
     9
100
AcDbLine
 10
-3505.500018557985
 20
2214.500113822318
 30
0.0
 11
-3889.499820606127
 21
2214.500113822318
 31
0.0
  0
LINE
  5
135
330
1F
100
AcDbEntity
  8
0-2_扉
  6
Continuous
 62
     7
370
     9
100
AcDbLine
 10
-3889.499820606127
 20
2139.502588220545
 30
0.0
 11
-3505.500018557985
 21
2139.502588220545
 31
0.0
  0
LINE
  5
136
330
1F
100
AcDbEntity
  8
0-2_扉
  6
Continuous
 62
     7
370
     9
100
AcDbLine
 10
-3889.499820606127
 20
2139.502588220545
 30
0.0
 11
-3874.500018557985
 21
2124.50253873258
 31
0.0
  0
LINE
  5
137
330
1F
100
AcDbEntity
  8
0-2_扉
  6
Continuous
 62
     7
370
     9
100
AcDbLine
 10
-3874.500018557985
 20
2124.50253873258
 30
0.0
 11
-3595.499944326038
 21
2124.50253873258
 31
0.0
  0
LINE
  5
138
330
1F
100
AcDbEntity
  8
0-2_扉
  6
Continuous
 62
     7
370
     9
100
AcDbLine
 10
-3635.463826359927
 20
2084.50253873258
 30
0.0
 11
-3834.536012804184
 21
2084.50253873258
 31
0.0
  0
LINE
  5
139
330
1F
100
AcDbEntity
  8
0-2_扉
  6
Continuous
 62
     7
370
     9
100
AcDbLine
 10
-3490.499969070021
 20
2229.500039590372
 30
0.0
 11
-3211.500018557984
 21
2229.500039590372
 31
0.0
  0
LINE
  5
13A
330
1F
100
AcDbEntity
  8
0-2_扉
  6
Continuous
 62
     7
370
     9
100
AcDbLine
 10
-3211.500018557984
 20
2229.500039590372
 30
0.0
 11
-3211.500018557984
 21
3274.500148463894
 31
0.0
  0
LINE
  5
13B
330
1F
100
AcDbEntity
  8
0-2_扉
  6
Continuous
 62
     7
370
     9
100
AcDbLine
 10
-3211.500018557984
 20
2229.500039590372
 30
0.0
 11
-3196.49996907002
 21
2214.500113822318
 31
0.0
  0
LINE
  5
13C
330
1F
100
AcDbEntity
  8
0-2_扉
  6
Continuous
 62
     7
370
     9
100
AcDbLine
 10
-3196.49996907002
 20
2214.500113822318
 30
0.0
 11
-3505.500018557985
 21
2214.500113822318
 31
0.0
  0
LINE
  5
13D
330
1F
100
AcDbEntity
  8
0-2_扉
  6
Continuous
 62
     7
370
     9
100
AcDbLine
 10
-3505.500018557985
 20
2139.502588220545
 30
0.0
 11
-3196.49996907002
 21
2139.502588220545
 31
0.0
  0
LINE
  5
13E
330
1F
100
AcDbEntity
  8
0-2_扉
  6
Continuous
 62
     7
370
     9
100
AcDbLine
 10
-3211.500018557984
 20
2124.50253873258
 30
0.0
 11
-3196.49996907002
 21
2139.502588220545
 31
0.0
  0
LINE
  5
13F
330
1F
100
AcDbEntity
  8
0-2_扉
  6
Continuous
 62
     7
370
     9
100
AcDbLine
 10
-3490.499969070021
 20
2124.50253873258
 30
0.0
 11
-3211.500018557984
 21
2124.50253873258
 31
0.0
  0
LINE
  5
140
330
1F
100
AcDbEntity
  8
0-2_扉
  6
Continuous
 62
     7
370
     9
100
AcDbLine
 10
-3251.500026805978
 20
2084.50253873258
 30
0.0
 11
-3450.499960822026
 21
2084.50253873258
 31
0.0
  0
LINE
  5
141
330
1F
100
AcDbEntity
  8
0-2_扉
  6
Continuous
 62
     7
370
     9
100
AcDbLine
 10
-3834.536012804184
 20
1616.500047838366
 30
0.0
 11
-3834.536012804184
 21
2084.50253873258
 31
0.0
  0
LINE
  5
142
330
1F
100
AcDbEntity
  8
0-2_扉
  6
Continuous
 62
     7
370
     9
100
AcDbLine
 10
-3635.499952574032
 20
1616.500047838366
 30
0.0
 11
-3834.536012804184
 21
1616.500047838366
 31
0.0
  0
LINE
  5
143
330
1F
100
AcDbEntity
  8
0-2_扉
  6
Continuous
 62
     7
370
     9
100
AcDbLine
 10
-3874.500018557985
 20
1576.500039590372
 30
0.0
 11
-3595.499944326038
 21
1576.500039590372
 31
0.0
  0
LINE
  5
144
330
1F
100
AcDbEntity
  8
0-2_扉
  6
Continuous
 62
     7
370
     9
100
AcDbLine
 10
-3874.500018557985
 20
1576.500039590372
 30
0.0
 11
-3889.499820606127
 21
1561.500051962363
 31
0.0
  0
LINE
  5
145
330
1F
100
AcDbEntity
  8
0-2_扉
  6
Continuous
 62
     7
370
     9
100
AcDbLine
 10
-3889.499820606127
 20
1561.500051962363
 30
0.0
 11
-3505.500018557985
 21
1561.500051962363
 31
0.0
  0
LINE
  5
146
330
1F
100
AcDbEntity
  8
0-2_扉
  6
Continuous
 62
     7
370
     9
100
AcDbLine
 10
-3251.500026805978
 20
1616.500047838366
 30
0.0
 11
-3450.499960822026
 21
1616.500047838366
 31
0.0
  0
LINE
  5
147
330
1F
100
AcDbEntity
  8
0-2_扉
  6
Continuous
 62
     7
370
     9
100
AcDbLine
 10
-3251.500026805978
 20
2084.50253873258
 30
0.0
 11
-3251.500026805978
 21
1616.500047838366
 31
0.0
  0
LINE
  5
148
330
1F
100
AcDbEntity
  8
0-2_扉
  6
Continuous
 62
     7
370
     9
100
AcDbLine
 10
-3490.499969070021
 20
1576.500039590372
 30
0.0
 11
-3211.500018557984
 21
1576.500039590372
 31
0.0
  0
LINE
  5
149
330
1F
100
AcDbEntity
  8
0-2_扉
  6
Continuous
 62
     7
370
     9
100
AcDbLine
 10
-3211.500018557984
 20
1576.500039590372
 30
0.0
 11
-3196.49996907002
 21
1561.500051962363
 31
0.0
  0
LINE
  5
14A
330
1F
100
AcDbEntity
  8
0-2_扉
  6
Continuous
 62
     7
370
     9
100
AcDbLine
 10
-3505.500018557985
 20
1561.500051962363
 30
0.0
 11
-3196.49996907002
 21
1561.500051962363
 31
0.0
  0
LINE
  5
14B
330
1F
100
AcDbEntity
  8
0-2_扉
  6
Continuous
 62
     7
370
     9
100
AcDbLine
 10
-3595.499944326038
 20
1576.500039590372
 30
0.0
 11
-3580.499987627975
 21
1561.500082892309
 31
0.0
  0
LINE
  5
14C
330
1F
100
AcDbEntity
  8
0-2_扉
  6
Continuous
 62
     7
370
     9
100
AcDbLine
 10
-3490.499969070021
 20
1576.500039590372
 30
0.0
 11
-3505.499987628039
 21
1561.500021032353
 31
0.0
  0
LINE
  5
14D
330
1F
100
AcDbEntity
  8
0-2_扉
  6
Continuous
 62
     7
370
     9
100
AcDbLine
 10
-3993.000018557985
 20
1426.500039590371
 30
0.0
 11
-3096.000018557984
 21
1426.500039590371
 31
0.0
  0
LINE
  5
14E
330
1F
100
AcDbEntity
  8
0-2_扉
  6
JWW_DASHED1
 62
   120
370
     5
100
AcDbLine
 10
-3093.000018557985
 20
1426.500148463893
 30
0.0
 11
-3096.000018557984
 21
1426.500148463893
 31
0.0
  0
LINE
  5
14F
330
1F
100
AcDbEntity
  8
0-2_扉
  6
Continuous
 62
     7
370
     9
100
AcDbLine
 10
-3889.500068045949
 20
1426.500039590371
 30
0.0
 11
-3889.500068045949
 21
3409.500148463893
 31
0.0
  0
LINE
  5
150
330
1F
100
AcDbEntity
  8
0-2_扉
  6
Continuous
 62
     7
370
     9
100
AcDbLine
 10
-3196.49996907002
 20
1426.500039590371
 30
0.0
 11
-3196.49996907002
 21
3409.500148463893
 31
0.0
  0
LINE
  5
151
330
1F
100
AcDbEntity
  8
0-2_扉
  6
Continuous
 62
     7
370
     9
100
AcDbLine
 10
-1509.000018557983
 20
3409.500148463893
 30
0.0
 11
-1509.000018557983
 21
1426.500101450327
 31
0.0
  0
LINE
  5
152
330
1F
100
AcDbEntity
  8
0-2_扉
  6
Continuous
 62
     7
370
     9
100
AcDbLine
 10
-1405.500068045947
 20
1426.500101450327
 30
0.0
 11
-1405.500068045947
 21
3409.500210323848
 31
0.0
  0
LINE
  5
153
330
1F
100
AcDbEntity
  8
0-2_扉
  6
Continuous
 62
     7
370
     9
100
AcDbLine
 10
-802.5000185579828
 20
1426.500101450327
 30
0.0
 11
-802.5000185579828
 21
3409.500210323848
 31
0.0
  0
LINE
  5
154
330
1F
100
AcDbEntity
  8
0-2_扉
  6
Continuous
 62
     7
370
     9
100
AcDbLine
 10
-1066.499919582054
 20
2139.5026500805
 30
0.0
 11
-1066.499919582054
 21
1561.500051962363
 31
0.0
  0
LINE
  5
155
330
1F
100
AcDbEntity
  8
0-2_扉
  6
Continuous
 62
     7
370
     9
100
AcDbLine
 10
-1051.499870094089
 20
2124.502600592536
 30
0.0
 11
-1051.499870094089
 21
1576.500101450327
 31
0.0
  0
LINE
  5
156
330
1F
100
AcDbEntity
  8
0-2_扉
  6
Continuous
 62
     7
370
     9
100
AcDbLine
 10
-1011.499985566007
 20
1617.931116052576
 30
0.0
 11
-1011.499985566007
 21
2084.502600592536
 31
0.0
  0
LINE
  5
157
330
1F
100
AcDbEntity
  8
0-2_扉
  6
JWW_HOJO
 62
     7
370
     9
100
AcDbLine
 10
-1066.499919582054
 20
2139.5026500805
 30
0.0
 11
-1066.499919582054
 21
1561.500051962363
 31
0.0
  0
LINE
  5
158
330
1F
100
AcDbEntity
  8
0-2_扉
  6
Continuous
 62
     7
370
     9
100
AcDbLine
 10
-1141.499919582054
 20
2139.5026500805
 30
0.0
 11
-1141.499919582054
 21
1561.500051962363
 31
0.0
  0
LINE
  5
159
330
1F
100
AcDbEntity
  8
0-2_扉
  6
Continuous
 62
     7
370
     9
100
AcDbLine
 10
-1051.499870094089
 20
3274.500148463893
 30
0.0
 11
-1066.213631707265
 21
3289.213662637246
 31
0.0
  0
LINE
  5
15A
330
1F
100
AcDbEntity
  8
0-2_扉
  6
Continuous
 62
     7
370
     9
100
AcDbLine
 10
-1156.499969070018
 20
3274.500148463893
 30
0.0
 11
-1141.499919582054
 21
3289.499950512035
 31
0.0
  0
LINE
  5
15B
330
1F
100
AcDbEntity
  8
0-2_扉
  6
Continuous
 62
     7
370
     9
100
AcDbLine
 10
-1156.499969070018
 20
3274.500148463893
 30
0.0
 11
-1156.499969070018
 21
2986.497639424092
 31
0.0
  0
LINE
  5
15C
330
1F
100
AcDbEntity
  8
0-2_扉
  6
Continuous
 62
     7
370
     9
100
AcDbLine
 10
-1051.499870094089
 20
3274.500148463893
 30
0.0
 11
-1051.499870094089
 21
2986.497639424092
 31
0.0
  0
LINE
  5
15D
330
1F
100
AcDbEntity
  8
0-2_扉
  6
Continuous
 62
     7
370
     9
100
AcDbLine
 10
-1196.499853598102
 20
1616.500047838365
 30
0.0
 11
-1178.822257789402
 21
1598.822390169711
 31
0.0
  0
LINE
  5
15E
330
1F
100
AcDbEntity
  8
0-2_扉
  6
Continuous
 62
     7
370
     9
100
AcDbLine
 10
-1011.499985566007
 20
1616.500047838365
 30
0.0
 11
-1011.499985566007
 21
1617.931116052576
 31
0.0
  0
LINE
  5
15F
330
1F
100
AcDbEntity
  8
0-2_扉
  6
Continuous
 62
     7
370
     9
100
AcDbLine
 10
-1011.499985566007
 20
1616.500047838365
 30
0.0
 11
-1029.177581374706
 21
1598.822390169711
 31
0.0
  0
LINE
  5
160
330
1F
100
AcDbEntity
  8
0-2_扉
  6
Continuous
 62
     7
370
     9
100
AcDbLine
 10
-1066.499919582054
 20
2214.500175682274
 30
0.0
 11
-1051.499870094089
 21
2229.500101450327
 31
0.0
  0
LINE
  5
161
330
1F
100
AcDbEntity
  8
0-2_扉
  6
Continuous
 62
     7
370
     9
100
AcDbLine
 10
-1156.499969070018
 20
2124.502600592536
 30
0.0
 11
-1141.499919582054
 21
2139.5026500805
 31
0.0
  0
LINE
  5
162
330
1F
100
AcDbEntity
  8
0-2_扉
  6
Continuous
 62
     7
370
     9
100
AcDbLine
 10
-1066.499919582054
 20
2139.5026500805
 30
0.0
 11
-1051.499870094089
 21
2124.502600592536
 31
0.0
  0
LINE
  5
163
330
1F
100
AcDbEntity
  8
0-2_扉
  6
Continuous
 62
     7
370
     9
100
AcDbLine
 10
-1156.499969070018
 20
2229.500101450327
 30
0.0
 11
-1141.499919582054
 21
2214.500175682274
 31
0.0
  0
LINE
  5
164
330
1F
100
AcDbEntity
  8
0-2_扉
  6
Continuous
 62
     7
370
     9
100
AcDbLine
 10
-1051.499870094089
 20
2229.500101450327
 30
0.0
 11
-862.4998898892744
 21
2229.500101450327
 31
0.0
  0
LINE
  5
165
330
1F
100
AcDbEntity
  8
0-2_扉
  6
Continuous
 62
     7
370
     9
100
AcDbLine
 10
-1156.499969070018
 20
2229.500101450327
 30
0.0
 11
-1345.499949274833
 21
2229.500101450327
 31
0.0
  0
LINE
  5
166
330
1F
100
AcDbEntity
  8
0-2_扉
  6
Continuous
 62
     7
370
     9
100
AcDbLine
 10
-1196.463974823819
 20
2084.502600592536
 30
0.0
 11
-1178.786131575297
 21
2102.180320121146
 31
0.0
  0
LINE
  5
167
330
1F
100
AcDbEntity
  8
0-2_扉
  6
Continuous
 62
     7
370
     9
100
AcDbLine
 10
-1011.499985566007
 20
2084.502600592536
 30
0.0
 11
-1029.177581374706
 21
2102.180320121146
 31
0.0
  0
LINE
  5
168
330
1F
100
AcDbEntity
  8
0-2_扉
  6
Continuous
 62
     7
370
     9
100
AcDbLine
 10
-1156.499969070018
 20
2986.497639424092
 30
0.0
 11
-1156.499969070018
 21
2229.500101450327
 31
0.0
  0
LINE
  5
169
330
1F
100
AcDbEntity
  8
0-2_扉
  6
JWW_HOJO
 62
     7
370
     9
100
AcDbLine
 10
-1141.499919582054
 20
3289.499950512035
 30
0.0
 11
-1141.499919582054
 21
2214.500175682274
 31
0.0
  0
LINE
  5
16A
330
1F
100
AcDbEntity
  8
0-2_扉
  6
Continuous
 62
     7
370
     9
100
AcDbLine
 10
-1141.499919582054
 20
3289.499950512035
 30
0.0
 11
-1141.499919582054
 21
2214.500175682274
 31
0.0
  0
LINE
  5
16B
330
1F
100
AcDbEntity
  8
0-2_扉
  6
JWW_HOJO
 62
     7
370
     9
100
AcDbLine
 10
-1066.499919582054
 20
3289.213662637246
 30
0.0
 11
-1066.499919582054
 21
2214.500175682274
 31
0.0
  0
LINE
  5
16C
330
1F
100
AcDbEntity
  8
0-2_扉
  6
Continuous
 62
     7
370
     9
100
AcDbLine
 10
-1066.499919582054
 20
3289.499950512035
 30
0.0
 11
-1066.499919582054
 21
2214.500175682274
 31
0.0
  0
LINE
  5
16D
330
1F
100
AcDbEntity
  8
0-2_扉
  6
Continuous
 62
     7
370
     9
100
AcDbLine
 10
-1051.499870094089
 20
2986.497639424092
 30
0.0
 11
-1051.499870094089
 21
2229.500101450327
 31
0.0
  0
LINE
  5
16E
330
1F
100
AcDbEntity
  8
0-2_扉
  6
Continuous
 62
     7
370
     9
100
AcDbLine
 10
-1196.499853598102
 20
2084.502600592536
 30
0.0
 11
-1196.499853598102
 21
1616.500047838365
 31
0.0
  0
LINE
  5
16F
330
1F
100
AcDbEntity
  8
0-2_扉
  6
Continuous
 62
     7
370
     9
100
AcDbLine
 10
-1156.499969070018
 20
2124.502600592536
 30
0.0
 11
-1156.499969070018
 21
1576.500101450327
 31
0.0
  0
LINE
  5
170
330
1F
100
AcDbEntity
  8
0-2_扉
  6
Continuous
 62
     7
370
     9
100
AcDbLine
 10
-1390.311964292781
 20
3091.49761468011
 30
0.0
 11
-1390.500018557983
 21
3091.49761468011
 31
0.0
  0
LINE
  5
171
330
1F
100
AcDbEntity
  8
0-2_扉
  6
Continuous
 62
     7
370
     9
100
AcDbLine
 10
-1350.499886590078
 20
1616.500047838365
 30
0.0
 11
-1350.499886590078
 21
1617.931116052576
 31
0.0
  0
LINE
  5
172
330
1F
100
AcDbEntity
  8
0-2_扉
  6
Continuous
 62
     7
370
     9
100
AcDbLine
 10
-1350.499886590078
 20
1616.500047838365
 30
0.0
 11
-1368.177482398776
 21
1598.822390169711
 31
0.0
  0
LINE
  5
173
330
1F
100
AcDbEntity
  8
0-2_扉
  6
Continuous
 62
     7
370
     9
100
AcDbLine
 10
-1350.463760375972
 20
2084.502600592536
 30
0.0
 11
-1368.141603624495
 21
2102.180320121146
 31
0.0
  0
LINE
  5
174
330
1F
100
AcDbEntity
  8
0-2_扉
  6
Continuous
 62
     7
370
     9
100
AcDbLine
 10
-1390.500018557983
 20
2229.500101450327
 30
0.0
 11
-1390.500018557983
 21
2371.549057419236
 31
0.0
  0
LINE
  5
175
330
1F
100
AcDbEntity
  8
0-2_扉
  6
Continuous
 62
     7
370
     9
100
AcDbLine
 10
-1390.500018557983
 20
1576.500101450327
 30
0.0
 11
-1390.500018557983
 21
2124.502600592536
 31
0.0
  0
LINE
  5
176
330
1F
100
AcDbEntity
  8
0-2_扉
  6
Continuous
 62
     7
370
     9
100
AcDbLine
 10
-1390.500018557983
 20
2360.736123240599
 30
0.0
 11
-1390.500018557983
 21
3274.500148463893
 31
0.0
  0
LINE
  5
177
330
1F
100
AcDbEntity
  8
0-2_扉
  6
Continuous
 62
     7
370
     9
100
AcDbLine
 10
-857.4999525740296
 20
2084.502600592536
 30
0.0
 11
-839.8223567653307
 21
2102.180320121146
 31
0.0
  0
LINE
  5
178
330
1F
100
AcDbEntity
  8
0-2_扉
  6
Continuous
 62
     7
370
     9
100
AcDbLine
 10
-857.4999525740296
 20
1616.500047838365
 30
0.0
 11
-839.8223567653307
 21
1598.822390169711
 31
0.0
  0
LINE
  5
179
330
1F
100
AcDbEntity
  8
0-2_扉
  6
Continuous
 62
     7
370
     9
100
AcDbLine
 10
-1405.499820606125
 20
3289.499950512035
 30
0.0
 11
-1064.00003505397
 21
3289.499950512035
 31
0.0
  0
LINE
  5
17A
330
1F
100
AcDbEntity
  8
0-2_扉
  6
Continuous
 62
     7
370
     9
100
AcDbLine
 10
-1405.499820606125
 20
3289.499950512035
 30
0.0
 11
-1390.500018557983
 21
3274.500148463893
 31
0.0
  0
LINE
  5
17B
330
1F
100
AcDbEntity
  8
0-2_扉
  6
Continuous
 62
     7
370
     9
100
AcDbLine
 10
-1390.500018557983
 20
3274.500148463893
 30
0.0
 11
-1156.499969070018
 21
3274.500148463893
 31
0.0
  0
LINE
  5
17C
330
1F
100
AcDbEntity
  8
0-2_扉
  6
Continuous
 62
     7
370
     9
100
AcDbLine
 10
-1051.499870094089
 20
3274.500148463893
 30
0.0
 11
-817.5000680459474
 21
3274.500148463893
 31
0.0
  0
LINE
  5
17D
330
1F
100
AcDbEntity
  8
0-2_扉
  6
Continuous
 62
     7
370
     9
100
AcDbLine
 10
-802.5000185579828
 20
3289.499950512035
 30
0.0
 11
-817.5000680459474
 21
3274.500148463893
 31
0.0
  0
LINE
  5
17E
330
1F
100
AcDbEntity
  8
0-2_扉
  6
Continuous
 62
     7
370
     9
100
AcDbLine
 10
-1064.00003505397
 20
3289.499950512035
 30
0.0
 11
-802.5000185579828
 21
3289.499950512035
 31
0.0
  0
LINE
  5
17F
330
1F
100
AcDbEntity
  8
0-2_扉
  6
Continuous
 62
     7
370
     9
100
AcDbLine
 10
-1390.500018557983
 20
2229.500101450327
 30
0.0
 11
-1191.500084541935
 21
2229.500101450327
 31
0.0
  0
LINE
  5
180
330
1F
100
AcDbEntity
  8
0-2_扉
  6
Continuous
 62
     7
370
     9
100
AcDbLine
 10
-1405.499820606125
 20
2214.500175682274
 30
0.0
 11
-1390.500018557983
 21
2229.500101450327
 31
0.0
  0
LINE
  5
181
330
1F
100
AcDbEntity
  8
0-2_扉
  6
Continuous
 62
     7
370
     9
100
AcDbLine
 10
-1066.499919582054
 20
2214.500175682274
 30
0.0
 11
-1405.499820606125
 21
2214.500175682274
 31
0.0
  0
LINE
  5
182
330
1F
100
AcDbEntity
  8
0-2_扉
  6
Continuous
 62
     7
370
     9
100
AcDbLine
 10
-1405.499820606125
 20
2139.5026500805
 30
0.0
 11
-1066.499919582054
 21
2139.5026500805
 31
0.0
  0
LINE
  5
183
330
1F
100
AcDbEntity
  8
0-2_扉
  6
Continuous
 62
     7
370
     9
100
AcDbLine
 10
-1405.499820606125
 20
2139.5026500805
 30
0.0
 11
-1390.500018557983
 21
2124.502600592536
 31
0.0
  0
LINE
  5
184
330
1F
100
AcDbEntity
  8
0-2_扉
  6
Continuous
 62
     7
370
     9
100
AcDbLine
 10
-1390.500018557983
 20
2124.502600592536
 30
0.0
 11
-1156.499969070018
 21
2124.502600592536
 31
0.0
  0
LINE
  5
185
330
1F
100
AcDbEntity
  8
0-2_扉
  6
Continuous
 62
     7
370
     9
100
AcDbLine
 10
-1196.463974823819
 20
2084.502600592536
 30
0.0
 11
-1350.499886590078
 21
2084.502600592536
 31
0.0
  0
LINE
  5
186
330
1F
100
AcDbEntity
  8
0-2_扉
  6
Continuous
 62
     7
370
     9
100
AcDbLine
 10
-817.5000680459474
 20
2229.500101450327
 30
0.0
 11
-1051.499870094089
 21
2229.500101450327
 31
0.0
  0
LINE
  5
187
330
1F
100
AcDbEntity
  8
0-2_扉
  6
Continuous
 62
     7
370
     9
100
AcDbLine
 10
-817.5000680459474
 20
2229.500101450327
 30
0.0
 11
-817.5000680459474
 21
3274.500148463893
 31
0.0
  0
LINE
  5
188
330
1F
100
AcDbEntity
  8
0-2_扉
  6
Continuous
 62
     7
370
     9
100
AcDbLine
 10
-817.5000680459474
 20
2229.500101450327
 30
0.0
 11
-802.5000185579828
 21
2214.500175682274
 31
0.0
  0
LINE
  5
189
330
1F
100
AcDbEntity
  8
0-2_扉
  6
Continuous
 62
     7
370
     9
100
AcDbLine
 10
-802.5000185579828
 20
2214.500175682274
 30
0.0
 11
-1066.499919582054
 21
2214.500175682274
 31
0.0
  0
LINE
  5
18A
330
1F
100
AcDbEntity
  8
0-2_扉
  6
Continuous
 62
     7
370
     9
100
AcDbLine
 10
-1051.499870094089
 20
2124.502600592536
 30
0.0
 11
-817.5000680459474
 21
2124.502600592536
 31
0.0
  0
LINE
  5
18B
330
1F
100
AcDbEntity
  8
0-2_扉
  6
Continuous
 62
     7
370
     9
100
AcDbLine
 10
-817.5000680459474
 20
1576.500101450327
 30
0.0
 11
-817.5000680459474
 21
2124.502600592536
 31
0.0
  0
LINE
  5
18C
330
1F
100
AcDbEntity
  8
0-2_扉
  6
Continuous
 62
     7
370
     9
100
AcDbLine
 10
-817.5000680459474
 20
2124.502600592536
 30
0.0
 11
-802.5000185579828
 21
2139.5026500805
 31
0.0
  0
LINE
  5
18D
330
1F
100
AcDbEntity
  8
0-2_扉
  6
Continuous
 62
     7
370
     9
100
AcDbLine
 10
-1066.499919582054
 20
2139.5026500805
 30
0.0
 11
-802.5000185579828
 21
2139.5026500805
 31
0.0
  0
LINE
  5
18E
330
1F
100
AcDbEntity
  8
0-2_扉
  6
Continuous
 62
     7
370
     9
100
AcDbLine
 10
-857.4999525740296
 20
2084.502600592536
 30
0.0
 11
-1011.499985566007
 21
2084.502600592536
 31
0.0
  0
LINE
  5
18F
330
1F
100
AcDbEntity
  8
0-2_扉
  6
Continuous
 62
     7
370
     9
100
AcDbLine
 10
-1350.499886590078
 20
1616.500047838365
 30
0.0
 11
-1350.499886590078
 21
2084.502600592536
 31
0.0
  0
LINE
  5
190
330
1F
100
AcDbEntity
  8
0-2_扉
  6
Continuous
 62
     7
370
     9
100
AcDbLine
 10
-1196.499853598102
 20
1616.500047838365
 30
0.0
 11
-1350.499886590078
 21
1616.500047838365
 31
0.0
  0
LINE
  5
191
330
1F
100
AcDbEntity
  8
0-2_扉
  6
Continuous
 62
     7
370
     9
100
AcDbLine
 10
-1390.500018557983
 20
1576.500101450327
 30
0.0
 11
-1156.499969070018
 21
1576.500101450327
 31
0.0
  0
LINE
  5
192
330
1F
100
AcDbEntity
  8
0-2_扉
  6
Continuous
 62
     7
370
     9
100
AcDbLine
 10
-1390.500018557983
 20
1576.500101450327
 30
0.0
 11
-1405.499820606125
 21
1561.500051962363
 31
0.0
  0
LINE
  5
193
330
1F
100
AcDbEntity
  8
0-2_扉
  6
Continuous
 62
     7
370
     9
100
AcDbLine
 10
-1405.499820606125
 20
1561.500051962363
 30
0.0
 11
-1066.499919582054
 21
1561.500051962363
 31
0.0
  0
LINE
  5
194
330
1F
100
AcDbEntity
  8
0-2_扉
  6
Continuous
 62
     7
370
     9
100
AcDbLine
 10
-1051.499870094089
 20
1576.500101450327
 30
0.0
 11
-817.5000680459474
 21
1576.500101450327
 31
0.0
  0
LINE
  5
195
330
1F
100
AcDbEntity
  8
0-2_扉
  6
Continuous
 62
     7
370
     9
100
AcDbLine
 10
-817.5000680459474
 20
1576.500101450327
 30
0.0
 11
-802.5000185579828
 21
1561.500051962363
 31
0.0
  0
LINE
  5
196
330
1F
100
AcDbEntity
  8
0-2_扉
  6
Continuous
 62
     7
370
     9
100
AcDbLine
 10
-1066.499919582054
 20
1561.500051962363
 30
0.0
 11
-802.5000185579828
 21
1561.500051962363
 31
0.0
  0
LINE
  5
197
330
1F
100
AcDbEntity
  8
0-2_扉
  6
Continuous
 62
     7
370
     9
100
AcDbLine
 10
-857.4999525740296
 20
1616.500047838365
 30
0.0
 11
-1011.499985566007
 21
1616.500047838365
 31
0.0
  0
LINE
  5
198
330
1F
100
AcDbEntity
  8
0-2_扉
  6
Continuous
 62
     7
370
     9
100
AcDbLine
 10
-857.4999525740296
 20
2084.502600592536
 30
0.0
 11
-857.4999525740296
 21
1616.500047838365
 31
0.0
  0
LINE
  5
199
330
1F
100
AcDbEntity
  8
0-2_扉
  6
Continuous
 62
     7
370
     9
100
AcDbLine
 10
-1156.499969070018
 20
1576.500101450327
 30
0.0
 11
-1141.499919582054
 21
1561.500051962362
 31
0.0
  0
LINE
  5
19A
330
1F
100
AcDbEntity
  8
0-2_扉
  6
Continuous
 62
     7
370
     9
100
AcDbLine
 10
-1051.499870094089
 20
1576.500101450327
 30
0.0
 11
-1066.499919582053
 21
1561.500051962362
 31
0.0
  0
LINE
  5
19B
330
1F
100
AcDbEntity
  8
0-2_扉
  6
Continuous
 62
     7
370
     9
100
AcDbLine
 10
-1509.000018557983
 20
1426.500101450327
 30
0.0
 11
-702.0000185579827
 21
1426.500101450327
 31
0.0
  0
LINE
  5
19C
330
1F
100
AcDbEntity
  8
0-2_扉
  6
JWW_DASHED1
 62
   120
370
     5
100
AcDbLine
 10
-699.0000185579828
 20
1426.500148463893
 30
0.0
 11
-702.0000185579827
 21
1426.500148463893
 31
0.0
  0
LINE
  5
19D
330
1F
100
AcDbEntity
  8
0-2_扉
  6
Continuous
 62
     7
370
     9
100
AcDbLine
 10
887.9999402020496
 20
1426.500039590371
 30
0.0
 11
887.9999402020496
 21
3409.500148463893
 31
0.0
  0
LINE
  5
19E
330
1F
100
AcDbEntity
  8
0-2_扉
  6
Continuous
 62
     7
370
     9
100
AcDbLine
 10
1401.000036703581
 20
1426.500039590371
 30
0.0
 11
1401.000036703581
 21
3409.500148463893
 31
0.0
  0
LINE
  5
19F
330
1F
100
AcDbEntity
  8
0-2_扉
  6
Continuous
 62
     7
370
     9
100
AcDbLine
 10
787.9999814420205
 20
3409.500148463893
 30
0.0
 11
787.9999814420205
 21
1426.500039590371
 31
0.0
  0
LINE
  5
1A0
330
1F
100
AcDbEntity
  8
0-2_扉
  6
Continuous
 62
     7
370
     9
100
AcDbLine
 10
887.9999402020496
 20
3289.499950512035
 30
0.0
 11
902.9999896900142
 21
3274.500148463893
 31
0.0
  0
LINE
  5
1A1
330
1F
100
AcDbEntity
  8
0-2_扉
  6
Continuous
 62
     7
370
     9
100
AcDbLine
 10
1400.999974843625
 20
3289.499950512035
 30
0.0
 11
1385.999987215616
 21
3274.500148463893
 31
0.0
  0
LINE
  5
1A2
330
1F
100
AcDbEntity
  8
0-2_扉
  6
Continuous
 62
     7
370
     9
100
AcDbLine
 10
902.9999896900142
 20
1576.500039590371
 30
0.0
 11
887.9999402020496
 21
1561.499990102407
 31
0.0
  0
LINE
  5
1A3
330
1F
100
AcDbEntity
  8
0-2_扉
  6
Continuous
 62
     7
370
     9
100
AcDbLine
 10
1385.999987215616
 20
1576.500039590371
 30
0.0
 11
1400.999974843625
 21
1561.499990102407
 31
0.0
  0
LINE
  5
1A4
330
1F
100
AcDbEntity
  8
0-2_扉
  6
Continuous
 62
     7
370
     9
100
AcDbLine
 10
1184.500027630787
 20
3289.499950512035
 30
0.0
 11
1400.999974843625
 21
3289.499950512035
 31
0.0
  0
LINE
  5
1A5
330
1F
100
AcDbEntity
  8
0-2_扉
  6
Continuous
 62
     7
370
     9
100
AcDbLine
 10
903.1877965153944
 20
3091.49761468011
 30
0.0
 11
902.9999896900142
 21
3091.49761468011
 31
0.0
  0
LINE
  5
1A6
330
1F
100
AcDbEntity
  8
0-2_扉
  6
Continuous
 62
     7
370
     9
100
AcDbLine
 10
887.9999402020496
 20
3289.499950512035
 30
0.0
 11
1184.500027630787
 21
3289.499950512035
 31
0.0
  0
LINE
  5
1A7
330
1F
100
AcDbEntity
  8
0-2_扉
  6
Continuous
 62
     7
370
     9
100
AcDbLine
 10
1196.999945150847
 20
3274.500148463893
 30
0.0
 11
1182.286307257582
 21
3289.213910077069
 31
0.0
  0
LINE
  5
1A8
330
1F
100
AcDbEntity
  8
0-2_扉
  6
Continuous
 62
     7
370
     9
100
AcDbLine
 10
1091.999969894829
 20
3274.500148463893
 30
0.0
 11
1107.000019382793
 21
3289.499950512035
 31
0.0
  0
LINE
  5
1A9
330
1F
100
AcDbEntity
  8
0-2_扉
  6
Continuous
 62
     7
370
     9
100
AcDbLine
 10
1196.999945150847
 20
1576.500039590371
 30
0.0
 11
1385.999987215616
 21
1576.500039590371
 31
0.0
  0
LINE
  5
1AA
330
1F
100
AcDbEntity
  8
0-2_扉
  6
Continuous
 62
     7
370
     9
100
AcDbLine
 10
1182.000019382793
 20
1561.499990102407
 30
0.0
 11
1400.999974843625
 21
1561.499990102407
 31
0.0
  0
LINE
  5
1AB
330
1F
100
AcDbEntity
  8
0-2_扉
  6
Continuous
 62
     7
370
     9
100
AcDbLine
 10
902.9999896900142
 20
1576.500039590371
 30
0.0
 11
1091.999969894829
 21
1576.500039590371
 31
0.0
  0
LINE
  5
1AC
330
1F
100
AcDbEntity
  8
0-2_扉
  6
Continuous
 62
     7
370
     9
100
AcDbLine
 10
887.9999402020496
 20
1561.499990102407
 30
0.0
 11
1182.000019382793
 21
1561.499990102407
 31
0.0
  0
LINE
  5
1AD
330
1F
100
AcDbEntity
  8
0-2_扉
  6
Continuous
 62
     7
370
     9
100
AcDbLine
 10
1051.999961646834
 20
1616.500171558276
 30
0.0
 11
942.9999979380085
 21
1616.500171558276
 31
0.0
  0
LINE
  5
1AE
330
1F
100
AcDbEntity
  8
0-2_扉
  6
Continuous
 62
     7
370
     9
100
AcDbLine
 10
942.9999979380085
 20
1616.500171558276
 30
0.0
 11
942.9999979380085
 21
1617.931116052575
 31
0.0
  0
LINE
  5
1AF
330
1F
100
AcDbEntity
  8
0-2_扉
  6
Continuous
 62
     7
370
     9
100
AcDbLine
 10
942.9999979380085
 20
1616.500171558276
 30
0.0
 11
925.3222784093975
 21
1598.822328309755
 31
0.0
  0
LINE
  5
1B0
330
1F
100
AcDbEntity
  8
0-2_扉
  6
Continuous
 62
     7
370
     9
100
AcDbLine
 10
1051.999961646834
 20
1616.500171558276
 30
0.0
 11
1069.677681175445
 21
1598.822328309755
 31
0.0
  0
LINE
  5
1B1
330
1F
100
AcDbEntity
  8
0-2_扉
  6
Continuous
 62
     7
370
     9
100
AcDbLine
 10
1345.999978967622
 20
1616.500171558276
 30
0.0
 11
1236.99995339884
 21
1616.500171558276
 31
0.0
  0
LINE
  5
1B2
330
1F
100
AcDbEntity
  8
0-2_扉
  6
Continuous
 62
     7
370
     9
100
AcDbLine
 10
1236.99995339884
 20
1616.500171558276
 30
0.0
 11
1236.99995339884
 21
1617.931116052575
 31
0.0
  0
LINE
  5
1B3
330
1F
100
AcDbEntity
  8
0-2_扉
  6
Continuous
 62
     7
370
     9
100
AcDbLine
 10
1236.99995339884
 20
1616.500171558276
 30
0.0
 11
1219.322295730185
 21
1598.822328309755
 31
0.0
  0
LINE
  5
1B4
330
1F
100
AcDbEntity
  8
0-2_扉
  6
Continuous
 62
     7
370
     9
100
AcDbLine
 10
1345.999978967622
 20
1616.500171558276
 30
0.0
 11
1363.677636636277
 21
1598.822328309755
 31
0.0
  0
LINE
  5
1B5
330
1F
100
AcDbEntity
  8
0-2_扉
  6
Continuous
 62
     7
370
     9
100
AcDbLine
 10
1091.999969894829
 20
3274.500148463893
 30
0.0
 11
1091.999969894829
 21
2986.497515704181
 31
0.0
  0
LINE
  5
1B6
330
1F
100
AcDbEntity
  8
0-2_扉
  6
Continuous
 62
     7
370
     9
100
AcDbLine
 10
1196.999945150847
 20
3274.500148463893
 30
0.0
 11
1196.999945150847
 21
2986.497515704181
 31
0.0
  0
LINE
  5
1B7
330
1F
100
AcDbEntity
  8
0-2_扉
  6
Continuous
 62
     7
370
     9
100
AcDbLine
 10
1182.000019382793
 20
2139.502589870143
 30
0.0
 11
1400.999974843625
 21
2139.502589870143
 31
0.0
  0
LINE
  5
1B8
330
1F
100
AcDbEntity
  8
0-2_扉
  6
Continuous
 62
     7
370
     9
100
AcDbLine
 10
1400.999974843625
 20
2214.500115471917
 30
0.0
 11
1182.000019382793
 21
2214.500115471917
 31
0.0
  0
LINE
  5
1B9
330
1F
100
AcDbEntity
  8
0-2_扉
  6
Continuous
 62
     7
370
     9
100
AcDbLine
 10
1196.999945150847
 20
2124.502787822002
 30
0.0
 11
1385.999987215616
 21
2124.502787822002
 31
0.0
  0
LINE
  5
1BA
330
1F
100
AcDbEntity
  8
0-2_扉
  6
Continuous
 62
     7
370
     9
100
AcDbLine
 10
902.9999896900142
 20
2124.502787822002
 30
0.0
 11
1091.999969894829
 21
2124.502787822002
 31
0.0
  0
LINE
  5
1BB
330
1F
100
AcDbEntity
  8
0-2_扉
  6
Continuous
 62
     7
370
     9
100
AcDbLine
 10
1182.000019382793
 20
2214.500115471917
 30
0.0
 11
1196.999945150847
 21
2229.499917520059
 31
0.0
  0
LINE
  5
1BC
330
1F
100
AcDbEntity
  8
0-2_扉
  6
Continuous
 62
     7
370
     9
100
AcDbLine
 10
1091.999969894829
 20
2124.502787822002
 30
0.0
 11
1107.000019382793
 21
2139.502589870143
 31
0.0
  0
LINE
  5
1BD
330
1F
100
AcDbEntity
  8
0-2_扉
  6
Continuous
 62
     7
370
     9
100
AcDbLine
 10
1385.999987215616
 20
2124.502787822002
 30
0.0
 11
1400.999974843625
 21
2139.502589870143
 31
0.0
  0
LINE
  5
1BE
330
1F
100
AcDbEntity
  8
0-2_扉
  6
Continuous
 62
     7
370
     9
100
AcDbLine
 10
887.9999402020496
 20
2214.500115471917
 30
0.0
 11
902.9999896900142
 21
2229.499917520059
 31
0.0
  0
LINE
  5
1BF
330
1F
100
AcDbEntity
  8
0-2_扉
  6
Continuous
 62
     7
370
     9
100
AcDbLine
 10
887.9999402020496
 20
2139.502589870143
 30
0.0
 11
902.9999896900142
 21
2124.502787822002
 31
0.0
  0
LINE
  5
1C0
330
1F
100
AcDbEntity
  8
0-2_扉
  6
Continuous
 62
     7
370
     9
100
AcDbLine
 10
1182.000019382793
 20
2139.502589870143
 30
0.0
 11
1196.999945150847
 21
2124.502787822002
 31
0.0
  0
LINE
  5
1C1
330
1F
100
AcDbEntity
  8
0-2_扉
  6
Continuous
 62
     7
370
     9
100
AcDbLine
 10
1385.999987215616
 20
2229.499917520059
 30
0.0
 11
1400.999974843625
 21
2214.500115471917
 31
0.0
  0
LINE
  5
1C2
330
1F
100
AcDbEntity
  8
0-2_扉
  6
Continuous
 62
     7
370
     9
100
AcDbLine
 10
1091.999969894829
 20
2229.499917520059
 30
0.0
 11
902.9999896900142
 21
2229.499917520059
 31
0.0
  0
LINE
  5
1C3
330
1F
100
AcDbEntity
  8
0-2_扉
  6
Continuous
 62
     7
370
     9
100
AcDbLine
 10
1385.999987215616
 20
2229.499917520059
 30
0.0
 11
1196.999945150847
 21
2229.499917520059
 31
0.0
  0
LINE
  5
1C4
330
1F
100
AcDbEntity
  8
0-2_扉
  6
Continuous
 62
     7
370
     9
100
AcDbLine
 10
902.9999896900142
 20
2229.499917520059
 30
0.0
 11
1091.999969894829
 21
2229.499917520059
 31
0.0
  0
LINE
  5
1C5
330
1F
100
AcDbEntity
  8
0-2_扉
  6
Continuous
 62
     7
370
     9
100
AcDbLine
 10
1091.999969894829
 20
2229.499917520059
 30
0.0
 11
1107.000019382793
 21
2214.500115471917
 31
0.0
  0
LINE
  5
1C6
330
1F
100
AcDbEntity
  8
0-2_扉
  6
Continuous
 62
     7
370
     9
100
AcDbLine
 10
1182.000019382793
 20
2214.500115471917
 30
0.0
 11
887.9999402020496
 21
2214.500115471917
 31
0.0
  0
LINE
  5
1C7
330
1F
100
AcDbEntity
  8
0-2_扉
  6
Continuous
 62
     7
370
     9
100
AcDbLine
 10
887.9999402020496
 20
2139.502589870143
 30
0.0
 11
1182.000019382793
 21
2139.502589870143
 31
0.0
  0
LINE
  5
1C8
330
1F
100
AcDbEntity
  8
0-2_扉
  6
Continuous
 62
     7
370
     9
100
AcDbLine
 10
1196.999945150847
 20
2229.499917520059
 30
0.0
 11
1385.999987215616
 21
2229.499917520059
 31
0.0
  0
LINE
  5
1C9
330
1F
100
AcDbEntity
  8
0-2_扉
  6
Continuous
 62
     7
370
     9
100
AcDbLine
 10
1052.036087860939
 20
2084.502655854095
 30
0.0
 11
943.0361241521132
 21
2084.502655854095
 31
0.0
  0
LINE
  5
1CA
330
1F
100
AcDbEntity
  8
0-2_扉
  6
Continuous
 62
     7
370
     9
100
AcDbLine
 10
1052.036087860939
 20
2084.502655854095
 30
0.0
 11
1069.713683669638
 21
2102.180251662795
 31
0.0
  0
LINE
  5
1CB
330
1F
100
AcDbEntity
  8
0-2_扉
  6
Continuous
 62
     7
370
     9
100
AcDbLine
 10
943.0361241521132
 20
2084.502655854095
 30
0.0
 11
925.3584046235028
 21
2102.180251662795
 31
0.0
  0
LINE
  5
1CC
330
1F
100
AcDbEntity
  8
0-2_扉
  6
Continuous
 62
     7
370
     9
100
AcDbLine
 10
1345.999978967622
 20
2084.502655854095
 30
0.0
 11
1236.99995339884
 21
2084.502655854095
 31
0.0
  0
LINE
  5
1CD
330
1F
100
AcDbEntity
  8
0-2_扉
  6
Continuous
 62
     7
370
     9
100
AcDbLine
 10
1345.999978967622
 20
2084.502655854095
 30
0.0
 11
1363.677636636277
 21
2102.180251662795
 31
0.0
  0
LINE
  5
1CE
330
1F
100
AcDbEntity
  8
0-2_扉
  6
Continuous
 62
     7
370
     9
100
AcDbLine
 10
1236.99995339884
 20
2084.502655854095
 30
0.0
 11
1219.322295730185
 21
2102.180251662795
 31
0.0
  0
LINE
  5
1CF
330
1F
100
AcDbEntity
  8
0-2_扉
  6
Continuous
 62
     7
370
     9
100
AcDbLine
 10
902.9999896900142
 20
1576.500039590371
 30
0.0
 11
902.9999896900142
 21
2124.502787822002
 31
0.0
  0
LINE
  5
1D0
330
1F
100
AcDbEntity
  8
0-2_扉
  6
Continuous
 62
     7
370
     9
100
AcDbLine
 10
1091.999969894829
 20
2124.502787822002
 30
0.0
 11
1091.999969894829
 21
1576.500039590371
 31
0.0
  0
LINE
  5
1D1
330
1F
100
AcDbEntity
  8
0-2_扉
  6
Continuous
 62
     7
370
     9
100
AcDbLine
 10
1107.000019382793
 20
2139.502589870143
 30
0.0
 11
1107.000019382793
 21
1561.499990102407
 31
0.0
  0
LINE
  5
1D2
330
1F
100
AcDbEntity
  8
0-2_扉
  6
JWW_HOJO
 62
     7
370
     9
100
AcDbLine
 10
1182.000019382793
 20
2139.502589870143
 30
0.0
 11
1182.000019382793
 21
1561.499990102407
 31
0.0
  0
LINE
  5
1D3
330
1F
100
AcDbEntity
  8
0-2_扉
  6
Continuous
 62
     7
370
     9
100
AcDbLine
 10
1182.000019382793
 20
2139.502589870143
 30
0.0
 11
1182.000019382793
 21
1561.499990102407
 31
0.0
  0
LINE
  5
1D4
330
1F
100
AcDbEntity
  8
0-2_扉
  6
Continuous
 62
     7
370
     9
100
AcDbLine
 10
1196.999945150847
 20
2124.502787822002
 30
0.0
 11
1196.999945150847
 21
1576.500039590371
 31
0.0
  0
LINE
  5
1D5
330
1F
100
AcDbEntity
  8
0-2_扉
  6
Continuous
 62
     7
370
     9
100
AcDbLine
 10
1385.999987215616
 20
1576.500039590371
 30
0.0
 11
1385.999987215616
 21
2124.502787822002
 31
0.0
  0
LINE
  5
1D6
330
1F
100
AcDbEntity
  8
0-2_扉
  6
Continuous
 62
     7
370
     9
100
AcDbLine
 10
1345.999978967622
 20
2084.502655854095
 30
0.0
 11
1345.999978967622
 21
1616.500171558276
 31
0.0
  0
LINE
  5
1D7
330
1F
100
AcDbEntity
  8
0-2_扉
  6
Continuous
 62
     7
370
     9
100
AcDbLine
 10
1236.99995339884
 20
1627.774024757178
 30
0.0
 11
1236.99995339884
 21
2084.502655854095
 31
0.0
  0
LINE
  5
1D8
330
1F
100
AcDbEntity
  8
0-2_扉
  6
Continuous
 62
     7
370
     9
100
AcDbLine
 10
1051.999961646834
 20
2084.502655854095
 30
0.0
 11
1051.999961646834
 21
1616.500171558276
 31
0.0
  0
LINE
  5
1D9
330
1F
100
AcDbEntity
  8
0-2_扉
  6
Continuous
 62
     7
370
     9
100
AcDbLine
 10
942.9999979380085
 20
1616.500171558276
 30
0.0
 11
942.9999979380085
 21
2084.502655854095
 31
0.0
  0
LINE
  5
1DA
330
1F
100
AcDbEntity
  8
0-2_扉
  6
Continuous
 62
     7
370
     9
100
AcDbLine
 10
902.9999896900142
 20
2229.499917520059
 30
0.0
 11
902.9999896900142
 21
2372.021296320735
 31
0.0
  0
LINE
  5
1DB
330
1F
100
AcDbEntity
  8
0-2_扉
  6
Continuous
 62
     7
370
     9
100
AcDbLine
 10
1091.999969894829
 20
2986.497515704181
 30
0.0
 11
1091.999969894829
 21
2229.499917520059
 31
0.0
  0
LINE
  5
1DC
330
1F
100
AcDbEntity
  8
0-2_扉
  6
Continuous
 62
     7
370
     9
100
AcDbLine
 10
1107.000019382793
 20
3289.499950512035
 30
0.0
 11
1107.000019382793
 21
2214.500115471917
 31
0.0
  0
LINE
  5
1DD
330
1F
100
AcDbEntity
  8
0-2_扉
  6
JWW_HOJO
 62
     7
370
     9
100
AcDbLine
 10
1182.000019382793
 20
3289.213910077069
 30
0.0
 11
1182.000019382793
 21
2214.500115471917
 31
0.0
  0
LINE
  5
1DE
330
1F
100
AcDbEntity
  8
0-2_扉
  6
Continuous
 62
     7
370
     9
100
AcDbLine
 10
1182.000019382793
 20
3289.499950512035
 30
0.0
 11
1182.000019382793
 21
2214.500115471917
 31
0.0
  0
LINE
  5
1DF
330
1F
100
AcDbEntity
  8
0-2_扉
  6
Continuous
 62
     7
370
     9
100
AcDbLine
 10
1196.999945150847
 20
2986.497515704181
 30
0.0
 11
1196.999945150847
 21
2229.499917520059
 31
0.0
  0
LINE
  5
1E0
330
1F
100
AcDbEntity
  8
0-2_扉
  6
Continuous
 62
     7
370
     9
100
AcDbLine
 10
902.9999896900142
 20
2372.021296320735
 30
0.0
 11
902.9999896900142
 21
3274.500148463893
 31
0.0
  0
LINE
  5
1E1
330
1F
100
AcDbEntity
  8
0-2_扉
  6
Continuous
 62
     7
370
     9
100
AcDbLine
 10
902.9999896900142
 20
3274.500148463893
 30
0.0
 11
1091.999969894829
 21
3274.500148463893
 31
0.0
  0
LINE
  5
1E2
330
1F
100
AcDbEntity
  8
0-2_扉
  6
Continuous
 62
     7
370
     9
100
AcDbLine
 10
1196.999945150847
 20
3274.500148463893
 30
0.0
 11
1385.999987215616
 21
3274.500148463893
 31
0.0
  0
LINE
  5
1E3
330
1F
100
AcDbEntity
  8
0-2_扉
  6
Continuous
 62
     7
370
     9
100
AcDbLine
 10
1385.999987215616
 20
2229.499917520059
 30
0.0
 11
1385.999987215616
 21
3274.500148463893
 31
0.0
  0
LINE
  5
1E4
330
1F
100
AcDbEntity
  8
0-2_扉
  6
Continuous
 62
     7
370
     9
100
AcDbLine
 10
1196.999945150847
 20
1576.500039590371
 30
0.0
 11
1181.99995752271
 21
1561.500051962234
 31
0.0
  0
LINE
  5
1E5
330
1F
100
AcDbEntity
  8
0-2_扉
  6
Continuous
 62
     7
370
     9
100
AcDbLine
 10
1091.999969894829
 20
1576.500039590371
 30
0.0
 11
1107.000019382793
 21
1561.499990102407
 31
0.0
  0
LINE
  5
1E6
330
1F
100
AcDbEntity
  8
0-2_扉
  6
Continuous
 62
     7
370
     9
100
AcDbLine
 10
787.9999814420205
 20
1426.500039590371
 30
0.0
 11
1497.99998144202
 21
1426.500039590371
 31
0.0
  0
LINE
  5
1E7
330
1F
100
AcDbEntity
  8
0-2_扉
  6
JWW_DASHED1
 62
   120
370
     5
100
AcDbLine
 10
1500.999981442021
 20
1426.500148463893
 30
0.0
 11
1497.99998144202
 21
1426.500148463893
 31
0.0
  0
LINE
  5
1E8
330
1F
100
AcDbEntity
  8
0-2_扉
  6
JWW_DASHED1
 62
   120
370
     5
100
AcDbLine
 10
1500.999981442021
 20
1426.500148463893
 30
0.0
 11
1500.999981442021
 21
3409.340423785835
 31
0.0
  0
LINE
  5
1E9
330
1F
100
AcDbEntity
  8
0-2_扉
  6
JWW_DASHED1
 62
   120
370
     5
100
AcDbLine
 10
1500.999981442021
 20
3409.340423785835
 30
0.0
 11
1500.999981442021
 21
3409.500148463893
 31
0.0
  0
LINE
  5
1EA
330
1F
100
AcDbEntity
  8
0-2_扉
  6
Continuous
 62
     7
370
     9
100
AcDbLine
 10
787.9999814420205
 20
3409.500148463893
 30
0.0
 11
1497.578554046986
 21
3409.500148463893
 31
0.0
  0
LINE
  5
1EB
330
1F
100
AcDbEntity
  8
0-2_扉
  6
Continuous
 62
     7
370
     9
100
AcDbLine
 10
1497.578554046986
 20
3409.500148463893
 30
0.0
 11
1497.99998144202
 21
3409.500148463893
 31
0.0
  0
LINE
  5
1EC
330
1F
100
AcDbEntity
  8
0-2_扉
  6
Continuous
 62
     7
370
     9
100
AcDbLine
 10
-1509.000018557983
 20
3409.500148463893
 30
0.0
 11
-702.0000185579827
 21
3409.500148463893
 31
0.0
  0
LINE
  5
1ED
330
1F
100
AcDbEntity
  8
0-2_扉
  6
JWW_DASHED1
 62
   120
370
     5
100
AcDbLine
 10
-699.0000185579828
 20
3409.500148463893
 30
0.0
 11
-702.0000185579827
 21
3409.500148463893
 31
0.0
  0
LINE
  5
1EE
330
1F
100
AcDbEntity
  8
0-2_扉
  6
Continuous
 62
     7
370
     9
100
AcDbLine
 10
-3993.000018557985
 20
3409.500148463893
 30
0.0
 11
-3096.000018557984
 21
3409.500148463893
 31
0.0
  0
LINE
  5
1EF
330
1F
100
AcDbEntity
  8
0-2_扉
  6
JWW_DASHED1
 62
   120
370
     5
100
AcDbLine
 10
-3093.000018557985
 20
3409.500148463893
 30
0.0
 11
-3096.000018557984
 21
3409.500148463893
 31
0.0
  0
LINE
  5
1F0
330
1F
100
AcDbEntity
  8
0-2_扉
  6
Continuous
 62
     7
370
     9
100
AcDbLine
 10
-2876.000018557985
 20
3713.527553644068
 30
0.0
 11
-2876.000018557985
 21
3563.527553644069
 31
0.0
  0
LINE
  5
1F1
330
1F
100
AcDbEntity
  8
0-2_扉
  6
Continuous
 62
     7
370
     9
100
AcDbLine
 10
-2866.000018557985
 20
3703.527553644069
 30
0.0
 11
-2866.000018557985
 21
3573.527553644069
 31
0.0
  0
LINE
  5
1F2
330
1F
100
AcDbEntity
  8
0-2_扉
  6
Continuous
 62
     7
370
     9
100
AcDbLine
 10
-2876.000018557985
 20
3713.527553644068
 30
0.0
 11
-2244.966380964436
 21
3713.527553644068
 31
0.0
  0
LINE
  5
1F3
330
1F
100
AcDbEntity
  8
0-2_扉
  6
Continuous
 62
     7
370
     9
100
AcDbLine
 10
-2244.966380964436
 20
3713.527553644068
 30
0.0
 11
-2244.966380964436
 21
3563.527553644069
 31
0.0
  0
LINE
  5
1F4
330
1F
100
AcDbEntity
  8
0-2_扉
  6
Continuous
 62
     7
370
     9
100
AcDbLine
 10
-2876.000018557985
 20
3563.527553644069
 30
0.0
 11
-2244.966380964436
 21
3563.527553644069
 31
0.0
  0
LINE
  5
1F5
330
1F
100
AcDbEntity
  8
0-2_扉
  6
Continuous
 62
     7
370
     9
100
AcDbLine
 10
-2866.000018557985
 20
3573.527553644069
 30
0.0
 11
-2254.966380964437
 21
3573.527553644069
 31
0.0
  0
LINE
  5
1F6
330
1F
100
AcDbEntity
  8
0-2_扉
  6
Continuous
 62
     7
370
     9
100
AcDbLine
 10
-2254.966380964437
 20
3703.527553644069
 30
0.0
 11
-2254.966380964437
 21
3573.527553644069
 31
0.0
  0
LINE
  5
1F7
330
1F
100
AcDbEntity
  8
0-2_扉
  6
Continuous
 62
     7
370
     9
100
AcDbLine
 10
-2866.000018557985
 20
3703.527553644069
 30
0.0
 11
-2254.966380964437
 21
3703.527553644069
 31
0.0
  0
MTEXT
  5
1F8
330
1F
100
AcDbEntity
  8
0-2_扉
  6
Continuous
 62
     7
370
     9
100
AcDbMText
 10
-2811.337310866298
 20
3587.389553644069
 30
0.0
 40
77.724
 41
510.0
 46
0.0
 71
     7
 72
     1
  1
{\fＭＳ ゴシック|b0|i0|c128|p49;引き込み戸}
 73
     1
 44
1.0
  0
LINE
  5
1F9
330
1F
100
AcDbEntity
  8
0-2_扉
  6
Continuous
 62
     7
370
     9
100
AcDbLine
 10
-482.0000185579815
 20
3713.527553644068
 30
0.0
 11
-482.0000185579815
 21
3563.527553644069
 31
0.0
  0
LINE
  5
1FA
330
1F
100
AcDbEntity
  8
0-2_扉
  6
Continuous
 62
     7
370
     9
100
AcDbLine
 10
-472.0000185579812
 20
3703.527553644069
 30
0.0
 11
-472.0000185579812
 21
3573.527553644069
 31
0.0
  0
LINE
  5
1FB
330
1F
100
AcDbEntity
  8
0-2_扉
  6
Continuous
 62
     7
370
     9
100
AcDbLine
 10
-482.0000185579815
 20
3713.527553644068
 30
0.0
 11
149.0336190355674
 21
3713.527553644068
 31
0.0
  0
LINE
  5
1FC
330
1F
100
AcDbEntity
  8
0-2_扉
  6
Continuous
 62
     7
370
     9
100
AcDbLine
 10
149.0336190355674
 20
3713.527553644068
 30
0.0
 11
149.0336190355674
 21
3563.527553644069
 31
0.0
  0
LINE
  5
1FD
330
1F
100
AcDbEntity
  8
0-2_扉
  6
Continuous
 62
     7
370
     9
100
AcDbLine
 10
-482.0000185579815
 20
3563.527553644069
 30
0.0
 11
149.0336190355674
 21
3563.527553644069
 31
0.0
  0
LINE
  5
1FE
330
1F
100
AcDbEntity
  8
0-2_扉
  6
Continuous
 62
     7
370
     9
100
AcDbLine
 10
-472.0000185579812
 20
3573.527553644069
 30
0.0
 11
139.0336190355671
 21
3573.527553644069
 31
0.0
  0
LINE
  5
1FF
330
1F
100
AcDbEntity
  8
0-2_扉
  6
Continuous
 62
     7
370
     9
100
AcDbLine
 10
139.0336190355671
 20
3703.527553644069
 30
0.0
 11
139.0336190355671
 21
3573.527553644069
 31
0.0
  0
LINE
  5
200
330
1F
100
AcDbEntity
  8
0-2_扉
  6
Continuous
 62
     7
370
     9
100
AcDbLine
 10
-472.0000185579812
 20
3703.527553644069
 30
0.0
 11
139.0336190355671
 21
3703.527553644069
 31
0.0
  0
MTEXT
  5
201
330
1F
100
AcDbEntity
  8
0-2_扉
  6
Continuous
 62
     7
370
     9
100
AcDbMText
 10
-417.337310866294
 20
3587.389553644069
 30
0.0
 40
77.724
 41
510.0
 46
0.0
 71
     7
 72
     1
  1
{\fＭＳ ゴシック|b0|i0|c128|p49;引き込み戸}
 73
     1
 44
1.0
  0
LINE
  5
202
330
1F
100
AcDbEntity
  8
0-2_扉
  6
Continuous
 62
     7
370
     9
100
AcDbLine
 10
-2876.000018557985
 20
3924.999818544131
 30
0.0
 11
-2876.000018557985
 21
3774.999818544131
 31
0.0
  0
LINE
  5
203
330
1F
100
AcDbEntity
  8
0-2_扉
  6
Continuous
 62
     7
370
     9
100
AcDbLine
 10
-2866.000018557985
 20
3914.999818544132
 30
0.0
 11
-2866.000018557985
 21
3784.999818544131
 31
0.0
  0
LINE
  5
204
330
1F
100
AcDbEntity
  8
0-2_扉
  6
Continuous
 62
     7
370
     9
100
AcDbLine
 10
-2876.000018557985
 20
3924.999818544131
 30
0.0
 11
-2244.966380964436
 21
3924.999818544131
 31
0.0
  0
LINE
  5
205
330
1F
100
AcDbEntity
  8
0-2_扉
  6
Continuous
 62
     7
370
     9
100
AcDbLine
 10
-2244.966380964436
 20
3924.999818544131
 30
0.0
 11
-2244.966380964436
 21
3774.999818544131
 31
0.0
  0
LINE
  5
206
330
1F
100
AcDbEntity
  8
0-2_扉
  6
Continuous
 62
     7
370
     9
100
AcDbLine
 10
-2876.000018557985
 20
3774.999818544131
 30
0.0
 11
-2244.966380964436
 21
3774.999818544131
 31
0.0
  0
LINE
  5
207
330
1F
100
AcDbEntity
  8
0-2_扉
  6
Continuous
 62
     7
370
     9
100
AcDbLine
 10
-2866.000018557985
 20
3784.999818544131
 30
0.0
 11
-2254.966380964437
 21
3784.999818544131
 31
0.0
  0
LINE
  5
208
330
1F
100
AcDbEntity
  8
0-2_扉
  6
Continuous
 62
     7
370
     9
100
AcDbLine
 10
-2254.966380964437
 20
3914.999818544132
 30
0.0
 11
-2254.966380964437
 21
3784.999818544131
 31
0.0
  0
LINE
  5
209
330
1F
100
AcDbEntity
  8
0-2_扉
  6
Continuous
 62
     7
370
     9
100
AcDbLine
 10
-2866.000018557985
 20
3914.999818544132
 30
0.0
 11
-2254.966380964437
 21
3914.999818544132
 31
0.0
  0
LINE
  5
20A
330
1F
100
AcDbEntity
  8
0-2_扉
  6
Continuous
 62
     7
370
     9
100
AcDbLine
 10
-482.0000185579815
 20
3924.999818544131
 30
0.0
 11
-482.0000185579815
 21
3774.999818544131
 31
0.0
  0
LINE
  5
20B
330
1F
100
AcDbEntity
  8
0-2_扉
  6
Continuous
 62
     7
370
     9
100
AcDbLine
 10
-472.0000185579812
 20
3914.999818544132
 30
0.0
 11
-472.0000185579812
 21
3784.999818544131
 31
0.0
  0
LINE
  5
20C
330
1F
100
AcDbEntity
  8
0-2_扉
  6
Continuous
 62
     7
370
     9
100
AcDbLine
 10
-482.0000185579815
 20
3924.999818544131
 30
0.0
 11
149.0336190355674
 21
3924.999818544131
 31
0.0
  0
LINE
  5
20D
330
1F
100
AcDbEntity
  8
0-2_扉
  6
Continuous
 62
     7
370
     9
100
AcDbLine
 10
149.0336190355674
 20
3924.999818544131
 30
0.0
 11
149.0336190355674
 21
3774.999818544131
 31
0.0
  0
LINE
  5
20E
330
1F
100
AcDbEntity
  8
0-2_扉
  6
Continuous
 62
     7
370
     9
100
AcDbLine
 10
-482.0000185579815
 20
3774.999818544131
 30
0.0
 11
149.0336190355674
 21
3774.999818544131
 31
0.0
  0
LINE
  5
20F
330
1F
100
AcDbEntity
  8
0-2_扉
  6
Continuous
 62
     7
370
     9
100
AcDbLine
 10
-472.0000185579812
 20
3784.999818544131
 30
0.0
 11
139.0336190355671
 21
3784.999818544131
 31
0.0
  0
LINE
  5
210
330
1F
100
AcDbEntity
  8
0-2_扉
  6
Continuous
 62
     7
370
     9
100
AcDbLine
 10
139.0336190355671
 20
3914.999818544132
 30
0.0
 11
139.0336190355671
 21
3784.999818544131
 31
0.0
  0
LINE
  5
211
330
1F
100
AcDbEntity
  8
0-2_扉
  6
Continuous
 62
     7
370
     9
100
AcDbLine
 10
-472.0000185579812
 20
3914.999818544132
 30
0.0
 11
139.0336190355671
 21
3914.999818544132
 31
0.0
  0
MTEXT
  5
212
330
1F
100
AcDbEntity
  8
0-2_扉
  6
Continuous
 62
     7
370
     9
100
AcDbMText
 10
-2762.983199761211
 20
3798.576068544131
 30
0.0
 40
77.15249999999999
 41
405.0
 46
0.0
 71
     7
 72
     1
  1
{\fＭＳ ゴシック|b0|i0|c128|p49;片引き戸}
 73
     1
 44
1.0
  0
MTEXT
  5
213
330
1F
100
AcDbEntity
  8
0-2_扉
  6
Continuous
 62
     7
370
     9
100
AcDbMText
 10
-368.9831997612071
 20
3798.576068544131
 30
0.0
 40
77.15249999999999
 41
405.0
 46
0.0
 71
     7
 72
     1
  1
{\fＭＳ ゴシック|b0|i0|c128|p49;片引き戸}
 73
     1
 44
1.0
  0
LINE
  5
214
330
1F
100
AcDbEntity
  8
0-2_扉
  6
Continuous
 62
     7
370
     9
100
AcDbLine
 10
-5450.000018557986
 20
3924.999818544131
 30
0.0
 11
-5450.000018557986
 21
3774.999818544131
 31
0.0
  0
LINE
  5
215
330
1F
100
AcDbEntity
  8
0-2_扉
  6
Continuous
 62
     7
370
     9
100
AcDbLine
 10
-5440.000018557986
 20
3914.999818544132
 30
0.0
 11
-5440.000018557986
 21
3784.999818544131
 31
0.0
  0
LINE
  5
216
330
1F
100
AcDbEntity
  8
0-2_扉
  6
Continuous
 62
     7
370
     9
100
AcDbLine
 10
-5450.000018557986
 20
3924.999818544131
 30
0.0
 11
-4818.966380964437
 21
3924.999818544131
 31
0.0
  0
LINE
  5
217
330
1F
100
AcDbEntity
  8
0-2_扉
  6
Continuous
 62
     7
370
     9
100
AcDbLine
 10
-4818.966380964437
 20
3924.999818544131
 30
0.0
 11
-4818.966380964437
 21
3774.999818544131
 31
0.0
  0
LINE
  5
218
330
1F
100
AcDbEntity
  8
0-2_扉
  6
Continuous
 62
     7
370
     9
100
AcDbLine
 10
-5450.000018557986
 20
3774.999818544131
 30
0.0
 11
-4818.966380964437
 21
3774.999818544131
 31
0.0
  0
LINE
  5
219
330
1F
100
AcDbEntity
  8
0-2_扉
  6
Continuous
 62
     7
370
     9
100
AcDbLine
 10
-5440.000018557986
 20
3784.999818544131
 30
0.0
 11
-4828.966380964437
 21
3784.999818544131
 31
0.0
  0
LINE
  5
21A
330
1F
100
AcDbEntity
  8
0-2_扉
  6
Continuous
 62
     7
370
     9
100
AcDbLine
 10
-4828.966380964437
 20
3914.999818544132
 30
0.0
 11
-4828.966380964437
 21
3784.999818544131
 31
0.0
  0
LINE
  5
21B
330
1F
100
AcDbEntity
  8
0-2_扉
  6
Continuous
 62
     7
370
     9
100
AcDbLine
 10
-5440.000018557986
 20
3914.999818544132
 30
0.0
 11
-4828.966380964437
 21
3914.999818544132
 31
0.0
  0
MTEXT
  5
21C
330
1F
100
AcDbEntity
  8
0-2_扉
  6
Continuous
 62
     7
370
     9
100
AcDbMText
 10
-5336.983199761211
 20
3798.576068544131
 30
0.0
 40
77.15249999999999
 41
405.0
 46
0.0
 71
     7
 72
     1
  1
{\fＭＳ ゴシック|b0|i0|c128|p49;片引き戸}
 73
     1
 44
1.0
  0
LINE
  5
21D
330
1F
100
AcDbEntity
  8
F-A_文字
  6
Continuous
 62
     7
370
     9
100
AcDbLine
 10
1677.99998144202
 20
190.5001831054688
 30
0.0
 11
3751.999981442023
 21
4165.000215478846
 31
0.0
  0
LINE
  5
21E
330
1F
100
AcDbEntity
  8
F-A_文字
  6
Continuous
 62
     7
370
     9
100
AcDbLine
 10
3751.999981442023
 20
190.5001831054688
 30
0.0
 11
5689.998977248734
 21
4165.000215478846
 31
0.0
  0
MTEXT
  5
21F
330
1F
100
AcDbEntity
  8
0-A_文字
  6
Continuous
 62
     7
370
     9
100
AcDbMText
 10
-4405.500018557986
 20
4013.576151024072
 30
0.0
 40
77.15249999999999
 41
405.0
 46
0.0
 71
     7
 72
     1
  1
{\fＭＳ ゴシック|b0|i0|c128|p49;Ｂ－ＹＩ}
 73
     1
 44
1.0
  0
MTEXT
  5
220
330
1F
100
AcDbEntity
  8
0-A_文字
  6
Continuous
 62
     7
370
     9
100
AcDbMText
 10
-1921.500018557984
 20
4013.576151024072
 30
0.0
 40
77.15249999999999
 41
405.0
 46
0.0
 71
     7
 72
     1
  1
{\fＭＳ ゴシック|b0|i0|c128|p49;Ｂ－ＹＩ}
 73
     1
 44
1.0
  0
MTEXT
  5
221
330
1F
100
AcDbEntity
  8
0-A_文字
  6
Continuous
 62
     7
370
     9
100
AcDbMText
 10
375.4999814420192
 20
4013.576151024072
 30
0.0
 40
77.15249999999999
 41
405.0
 46
0.0
 71
     7
 72
     1
  1
{\fＭＳ ゴシック|b0|i0|c128|p49;Ｂ－ＹＩ}
 73
     1
 44
1.0
  0
LINE
  5
222
330
1F
100
AcDbEntity
  8
0-C_ハッチ
  6
Continuous
 62
   120
370
     5
100
AcDbLine
 10
-3595.499944326038
 20
2311.32110052847
 30
0.0
 11
-3683.866554740111
 21
2229.500164959883
 31
0.0
  0
LINE
  5
223
330
1F
100
AcDbEntity
  8
0-C_ハッチ
  6
Continuous
 62
   120
370
     5
100
AcDbLine
 10
-3595.499944326038
 20
2345.392155145089
 30
0.0
 11
-3720.663293726058
 21
2229.500164959883
 31
0.0
  0
LINE
  5
224
330
1F
100
AcDbEntity
  8
0-C_ハッチ
  6
Continuous
 62
   120
370
     5
100
AcDbLine
 10
-3595.499944326038
 20
2379.463209761707
 30
0.0
 11
-3757.460032712007
 21
2229.500164959883
 31
0.0
  0
LINE
  5
225
330
1F
100
AcDbEntity
  8
0-C_ハッチ
  6
Continuous
 62
   120
370
     5
100
AcDbLine
 10
-3595.499944326038
 20
2413.534264378326
 30
0.0
 11
-3794.256771697954
 21
2229.500164959883
 31
0.0
  0
LINE
  5
226
330
1F
100
AcDbEntity
  8
0-C_ハッチ
  6
Continuous
 62
   120
370
     5
100
AcDbLine
 10
-3595.499944326038
 20
2447.605318994944
 30
0.0
 11
-3831.053510683903
 21
2229.500164959883
 31
0.0
  0
LINE
  5
227
330
1F
100
AcDbEntity
  8
0-C_ハッチ
  6
Continuous
 62
   120
370
     5
100
AcDbLine
 10
-3595.499944326038
 20
2481.676373611564
 30
0.0
 11
-3867.850249669851
 21
2229.500164959883
 31
0.0
  0
LINE
  5
228
330
1F
100
AcDbEntity
  8
0-C_ハッチ
  6
Continuous
 62
   120
370
     5
100
AcDbLine
 10
-3595.499944326038
 20
2515.747428228183
 30
0.0
 11
-3874.500158773885
 21
2257.413896332026
 31
0.0
  0
LINE
  5
229
330
1F
100
AcDbEntity
  8
0-C_ハッチ
  6
Continuous
 62
   120
370
     5
100
AcDbLine
 10
-3595.499944326038
 20
2549.818482844801
 30
0.0
 11
-3874.500158773885
 21
2291.484950948644
 31
0.0
  0
LINE
  5
22A
330
1F
100
AcDbEntity
  8
0-C_ハッチ
  6
Continuous
 62
   120
370
     5
100
AcDbLine
 10
-3595.499944326038
 20
2652.031646694658
 30
0.0
 11
-3874.500158773885
 21
2393.698114798501
 31
0.0
  0
LINE
  5
22B
330
1F
100
AcDbEntity
  8
0-C_ハッチ
  6
Continuous
 62
   120
370
     5
100
AcDbLine
 10
-3595.499944326038
 20
2686.102701311276
 30
0.0
 11
-3874.500158773885
 21
2427.769169415119
 31
0.0
  0
LINE
  5
22C
330
1F
100
AcDbEntity
  8
0-C_ハッチ
  6
Continuous
 62
   120
370
     5
100
AcDbLine
 10
-3595.499944326038
 20
2720.173755927896
 30
0.0
 11
-3874.500158773885
 21
2461.840224031739
 31
0.0
  0
LINE
  5
22D
330
1F
100
AcDbEntity
  8
0-C_ハッチ
  6
Continuous
 62
   120
370
     5
100
AcDbLine
 10
-3595.499944326038
 20
2754.244810544514
 30
0.0
 11
-3874.500158773885
 21
2495.911278648357
 31
0.0
  0
LINE
  5
22E
330
1F
100
AcDbEntity
  8
0-C_ハッチ
  6
Continuous
 62
   120
370
     5
100
AcDbLine
 10
-3595.499944326038
 20
2788.315865161133
 30
0.0
 11
-3874.500158773885
 21
2529.982333264976
 31
0.0
  0
LINE
  5
22F
330
1F
100
AcDbEntity
  8
0-C_ハッチ
  6
Continuous
 62
   120
370
     5
100
AcDbLine
 10
-3595.499944326038
 20
2822.386919777752
 30
0.0
 11
-3874.500158773885
 21
2564.053387881595
 31
0.0
  0
LINE
  5
230
330
1F
100
AcDbEntity
  8
0-C_ハッチ
  6
Continuous
 62
   120
370
     5
100
AcDbLine
 10
-3595.499944326038
 20
2856.457974394371
 30
0.0
 11
-3874.500158773885
 21
2598.124442498214
 31
0.0
  0
LINE
  5
231
330
1F
100
AcDbEntity
  8
0-C_ハッチ
  6
Continuous
 62
   120
370
     5
100
AcDbLine
 10
-3595.499944326038
 20
2890.52902901099
 30
0.0
 11
-3874.500158773885
 21
2632.195497114833
 31
0.0
  0
LINE
  5
232
330
1F
100
AcDbEntity
  8
0-C_ハッチ
  6
Continuous
 62
   120
370
     5
100
AcDbLine
 10
-3595.499944326038
 20
2924.600083627609
 30
0.0
 11
-3874.500158773885
 21
2666.266551731452
 31
0.0
  0
LINE
  5
233
330
1F
100
AcDbEntity
  8
0-C_ハッチ
  6
Continuous
 62
   120
370
     5
100
AcDbLine
 10
-3595.499944326038
 20
2958.671138244227
 30
0.0
 11
-3874.500158773885
 21
2700.33760634807
 31
0.0
  0
LINE
  5
234
330
1F
100
AcDbEntity
  8
0-C_ハッチ
  6
Continuous
 62
   120
370
     5
100
AcDbLine
 10
-3595.499944326038
 20
2992.742192860846
 30
0.0
 11
-3874.500158773885
 21
2734.408660964689
 31
0.0
  0
LINE
  5
235
330
1F
100
AcDbEntity
  8
0-C_ハッチ
  6
Continuous
 62
   120
370
     5
100
AcDbLine
 10
-3595.499944326038
 20
3026.813247477465
 30
0.0
 11
-3874.500158773885
 21
2768.479715581308
 31
0.0
  0
LINE
  5
236
330
1F
100
AcDbEntity
  8
0-C_ハッチ
  6
Continuous
 62
   120
370
     5
100
AcDbLine
 10
-3595.499944326038
 20
3060.884302094084
 30
0.0
 11
-3874.500158773885
 21
2802.550770197927
 31
0.0
  0
LINE
  5
237
330
1F
100
AcDbEntity
  8
0-C_ハッチ
  6
Continuous
 62
   120
370
     5
100
AcDbLine
 10
-3595.499944326038
 20
3094.955356710703
 30
0.0
 11
-3874.500158773885
 21
2836.621824814546
 31
0.0
  0
LINE
  5
238
330
1F
100
AcDbEntity
  8
0-C_ハッチ
  6
Continuous
 62
   120
370
     5
100
AcDbLine
 10
-3595.499944326038
 20
3129.026411327322
 30
0.0
 11
-3874.500158773885
 21
2870.692879431165
 31
0.0
  0
LINE
  5
239
330
1F
100
AcDbEntity
  8
0-C_ハッチ
  6
Continuous
 62
   120
370
     5
100
AcDbLine
 10
-3595.499944326038
 20
3163.097465943941
 30
0.0
 11
-3874.500158773885
 21
2904.763934047784
 31
0.0
  0
LINE
  5
23A
330
1F
100
AcDbEntity
  8
0-C_ハッチ
  6
Continuous
 62
   120
370
     5
100
AcDbLine
 10
-3595.499944326038
 20
3197.16852056056
 30
0.0
 11
-3874.500158773885
 21
2938.834988664403
 31
0.0
  0
LINE
  5
23B
330
1F
100
AcDbEntity
  8
0-C_ハッチ
  6
Continuous
 62
   120
370
     5
100
AcDbLine
 10
-3595.499944326038
 20
3231.239575177179
 30
0.0
 11
-3874.500158773885
 21
2972.906043281022
 31
0.0
  0
LINE
  5
23C
330
1F
100
AcDbEntity
  8
0-C_ハッチ
  6
Continuous
 62
   120
370
     5
100
AcDbLine
 10
-3595.499944326038
 20
3265.310629793797
 30
0.0
 11
-3874.500158773885
 21
3006.977097897641
 31
0.0
  0
LINE
  5
23D
330
1F
100
AcDbEntity
  8
0-C_ハッチ
  6
Continuous
 62
   120
370
     5
100
AcDbLine
 10
-3595.499944326038
 20
2617.960592078038
 30
0.0
 11
-3856.231979993531
 21
2376.542040534061
 31
0.0
  0
LINE
  5
23E
330
1F
100
AcDbEntity
  8
0-C_ハッチ
  6
Continuous
 62
   120
370
     5
100
AcDbLine
 10
-3595.499944326038
 20
2583.88953746142
 30
0.0
 11
-3825.814943289489
 21
2370.634908791555
 31
0.0
  0
LINE
  5
23F
330
1F
100
AcDbEntity
  8
0-C_ハッチ
  6
Continuous
 62
   120
370
     5
100
AcDbLine
 10
-3622.372003148282
 20
3274.500148463894
 30
0.0
 11
-3874.500158773885
 21
3041.048152514259
 31
0.0
  0
LINE
  5
240
330
1F
100
AcDbEntity
  8
0-C_ハッチ
  6
Continuous
 62
   120
370
     5
100
AcDbLine
 10
-3475.18504720449
 20
3274.500148463894
 30
0.0
 11
-3490.499969070021
 21
3260.31966525507
 31
0.0
  0
LINE
  5
241
330
1F
100
AcDbEntity
  8
0-C_ハッチ
  6
Continuous
 62
   120
370
     5
100
AcDbLine
 10
-3327.998091260698
 20
3274.500148463894
 30
0.0
 11
-3490.499969070021
 21
3124.035446788594
 31
0.0
  0
LINE
  5
242
330
1F
100
AcDbEntity
  8
0-C_ハッチ
  6
Continuous
 62
   120
370
     5
100
AcDbLine
 10
-3364.794830246646
 20
3274.500148463894
 30
0.0
 11
-3490.499969070021
 21
3158.106501405212
 31
0.0
  0
LINE
  5
243
330
1F
100
AcDbEntity
  8
0-C_ハッチ
  6
Continuous
 62
   120
370
     5
100
AcDbLine
 10
-3401.591569232593
 20
3274.500148463894
 30
0.0
 11
-3490.499969070021
 21
3192.177556021831
 31
0.0
  0
LINE
  5
244
330
1F
100
AcDbEntity
  8
0-C_ハッチ
  6
Continuous
 62
   120
370
     5
100
AcDbLine
 10
-3438.388308218542
 20
3274.500148463894
 30
0.0
 11
-3490.499969070021
 21
3226.24861063845
 31
0.0
  0
LINE
  5
245
330
1F
100
AcDbEntity
  8
0-C_ハッチ
  6
Continuous
 62
   120
370
     5
100
AcDbLine
 10
-3211.500018557984
 20
2326.166041184558
 30
0.0
 11
-3315.899432115642
 21
2229.499917520059
 31
0.0
  0
LINE
  5
246
330
1F
100
AcDbEntity
  8
0-C_ハッチ
  6
Continuous
 62
   120
370
     5
100
AcDbLine
 10
-3211.500018557984
 20
2360.237095801178
 30
0.0
 11
-3352.696171101589
 21
2229.499917520059
 31
0.0
  0
LINE
  5
247
330
1F
100
AcDbEntity
  8
0-C_ハッチ
  6
Continuous
 62
   120
370
     5
100
AcDbLine
 10
-3211.500018557984
 20
2428.379205034414
 30
0.0
 11
-3426.289381838475
 21
2229.500164959883
 31
0.0
  0
LINE
  5
248
330
1F
100
AcDbEntity
  8
0-C_ハッチ
  6
Continuous
 62
   120
370
     5
100
AcDbLine
 10
-3211.500018557984
 20
2462.450259651032
 30
0.0
 11
-3463.086120824424
 21
2229.500164959883
 31
0.0
  0
LINE
  5
249
330
1F
100
AcDbEntity
  8
0-C_ハッチ
  6
Continuous
 62
   120
370
     5
100
AcDbLine
 10
-3211.500018557984
 20
2394.308150417797
 30
0.0
 11
-3389.492642852527
 21
2229.500164959883
 31
0.0
  0
LINE
  5
24A
330
1F
100
AcDbEntity
  8
0-C_ハッチ
  6
Continuous
 62
   120
370
     5
100
AcDbLine
 10
-3211.500018557984
 20
2496.521314267651
 30
0.0
 11
-3490.499969070021
 21
2238.188026756504
 31
0.0
  0
LINE
  5
24B
330
1F
100
AcDbEntity
  8
0-C_ハッチ
  6
Continuous
 62
   120
370
     5
100
AcDbLine
 10
-3211.500018557984
 20
2939.445024283697
 30
0.0
 11
-3490.499969070021
 21
2681.111736772549
 31
0.0
  0
LINE
  5
24C
330
1F
100
AcDbEntity
  8
0-C_ハッチ
  6
Continuous
 62
   120
370
     5
100
AcDbLine
 10
-3211.500018557984
 20
2973.516078900315
 30
0.0
 11
-3490.499969070021
 21
2715.182791389167
 31
0.0
  0
LINE
  5
24D
330
1F
100
AcDbEntity
  8
0-C_ハッチ
  6
Continuous
 62
   120
370
     5
100
AcDbLine
 10
-3211.500018557984
 20
2598.734478117508
 30
0.0
 11
-3490.499969070021
 21
2340.401190606361
 31
0.0
  0
LINE
  5
24E
330
1F
100
AcDbEntity
  8
0-C_ハッチ
  6
Continuous
 62
   120
370
     5
100
AcDbLine
 10
-3211.500018557984
 20
2632.805532734127
 30
0.0
 11
-3490.499969070021
 21
2374.472245222979
 31
0.0
  0
LINE
  5
24F
330
1F
100
AcDbEntity
  8
0-C_ハッチ
  6
Continuous
 62
   120
370
     5
100
AcDbLine
 10
-3211.500018557984
 20
2666.876587350746
 30
0.0
 11
-3490.499969070021
 21
2408.543299839598
 31
0.0
  0
LINE
  5
250
330
1F
100
AcDbEntity
  8
0-C_ハッチ
  6
Continuous
 62
   120
370
     5
100
AcDbLine
 10
-3211.500018557984
 20
2700.947641967364
 30
0.0
 11
-3490.499969070021
 21
2442.614354456216
 31
0.0
  0
LINE
  5
251
330
1F
100
AcDbEntity
  8
0-C_ハッチ
  6
Continuous
 62
   120
370
     5
100
AcDbLine
 10
-3211.500018557984
 20
2735.018696583983
 30
0.0
 11
-3490.499969070021
 21
2476.685409072835
 31
0.0
  0
LINE
  5
252
330
1F
100
AcDbEntity
  8
0-C_ハッチ
  6
Continuous
 62
   120
370
     5
100
AcDbLine
 10
-3211.500018557984
 20
2769.089751200602
 30
0.0
 11
-3490.499969070021
 21
2510.756463689454
 31
0.0
  0
LINE
  5
253
330
1F
100
AcDbEntity
  8
0-C_ハッチ
  6
Continuous
 62
   120
370
     5
100
AcDbLine
 10
-3211.500018557984
 20
2803.160805817221
 30
0.0
 11
-3490.499969070021
 21
2544.827518306073
 31
0.0
  0
LINE
  5
254
330
1F
100
AcDbEntity
  8
0-C_ハッチ
  6
Continuous
 62
   120
370
     5
100
AcDbLine
 10
-3211.500018557984
 20
2837.23186043384
 30
0.0
 11
-3490.499969070021
 21
2578.898572922692
 31
0.0
  0
LINE
  5
255
330
1F
100
AcDbEntity
  8
0-C_ハッチ
  6
Continuous
 62
   120
370
     5
100
AcDbLine
 10
-3211.500018557984
 20
2871.302915050459
 30
0.0
 11
-3490.499969070021
 21
2612.969627539311
 31
0.0
  0
LINE
  5
256
330
1F
100
AcDbEntity
  8
0-C_ハッチ
  6
Continuous
 62
   120
370
     5
100
AcDbLine
 10
-3211.500018557984
 20
2905.373969667077
 30
0.0
 11
-3490.499969070021
 21
2647.040682155929
 31
0.0
  0
LINE
  5
257
330
1F
100
AcDbEntity
  8
0-C_ハッチ
  6
Continuous
 62
   120
370
     5
100
AcDbLine
 10
-3211.500018557984
 20
3007.587133516934
 30
0.0
 11
-3490.499969070021
 21
2749.253846005786
 31
0.0
  0
LINE
  5
258
330
1F
100
AcDbEntity
  8
0-C_ハッチ
  6
Continuous
 62
   120
370
     5
100
AcDbLine
 10
-3211.500018557984
 20
3041.658188133553
 30
0.0
 11
-3490.499969070021
 21
2783.324900622404
 31
0.0
  0
LINE
  5
259
330
1F
100
AcDbEntity
  8
0-C_ハッチ
  6
Continuous
 62
   120
370
     5
100
AcDbLine
 10
-3211.500018557984
 20
3075.729242750172
 30
0.0
 11
-3490.499969070021
 21
2817.395955239024
 31
0.0
  0
LINE
  5
25A
330
1F
100
AcDbEntity
  8
0-C_ハッチ
  6
Continuous
 62
   120
370
     5
100
AcDbLine
 10
-3211.500018557984
 20
3109.80029736679
 30
0.0
 11
-3490.499969070021
 21
2851.467009855643
 31
0.0
  0
LINE
  5
25B
330
1F
100
AcDbEntity
  8
0-C_ハッチ
  6
Continuous
 62
   120
370
     5
100
AcDbLine
 10
-3211.500018557984
 20
3143.87135198341
 30
0.0
 11
-3490.499969070021
 21
2885.538064472262
 31
0.0
  0
LINE
  5
25C
330
1F
100
AcDbEntity
  8
0-C_ハッチ
  6
Continuous
 62
   120
370
     5
100
AcDbLine
 10
-3211.500018557984
 20
3177.942406600028
 30
0.0
 11
-3490.499969070021
 21
2919.60911908888
 31
0.0
  0
LINE
  5
25D
330
1F
100
AcDbEntity
  8
0-C_ハッチ
  6
Continuous
 62
   120
370
     5
100
AcDbLine
 10
-3211.500018557984
 20
3212.013461216647
 30
0.0
 11
-3490.499969070021
 21
2953.680173705499
 31
0.0
  0
LINE
  5
25E
330
1F
100
AcDbEntity
  8
0-C_ハッチ
  6
Continuous
 62
   120
370
     5
100
AcDbLine
 10
-3211.500018557984
 20
3246.084515833266
 30
0.0
 11
-3490.499969070021
 21
2987.751228322118
 31
0.0
  0
LINE
  5
25F
330
1F
100
AcDbEntity
  8
0-C_ハッチ
  6
Continuous
 62
   120
370
     5
100
AcDbLine
 10
-3211.500018557984
 20
2564.66342350089
 30
0.0
 11
-3490.499969070021
 21
2306.330135989741
 31
0.0
  0
LINE
  5
260
330
1F
100
AcDbEntity
  8
0-C_ハッチ
  6
Continuous
 62
   120
370
     5
100
AcDbLine
 10
-3211.500018557984
 20
2530.59236888427
 30
0.0
 11
-3490.499969070021
 21
2272.259081373123
 31
0.0
  0
LINE
  5
261
330
1F
100
AcDbEntity
  8
0-C_ハッチ
  6
Continuous
 62
   120
370
     5
100
AcDbLine
 10
-3291.20135227475
 20
3274.500148463894
 30
0.0
 11
-3490.499969070021
 21
3089.964392171975
 31
0.0
  0
LINE
  5
262
330
1F
100
AcDbEntity
  8
0-C_ハッチ
  6
Continuous
 62
   120
370
     5
100
AcDbLine
 10
-3254.404613288802
 20
3274.500148463894
 30
0.0
 11
-3490.499969070021
 21
3055.893337555356
 31
0.0
  0
LINE
  5
263
330
1F
100
AcDbEntity
  8
0-C_ハッチ
  6
Continuous
 62
   120
370
     5
100
AcDbLine
 10
-3217.607874302854
 20
3274.500148463894
 30
0.0
 11
-3490.499969070021
 21
3021.822282938737
 31
0.0
  0
LINE
  5
264
330
1F
100
AcDbEntity
  8
0-C_ハッチ
  6
Continuous
 62
   120
370
     5
100
AcDbLine
 10
-3595.499944326038
 20
2277.250045911851
 30
0.0
 11
-3647.069951153234
 21
2229.500039590372
 31
0.0
  0
LINE
  5
265
330
1F
100
AcDbEntity
  8
0-C_ハッチ
  6
Continuous
 62
   120
370
     5
100
AcDbLine
 10
-3211.500018557984
 20
2292.094986567939
 30
0.0
 11
-3279.102561293756
 21
2229.500039590372
 31
0.0
  0
LINE
  5
266
330
1F
100
AcDbEntity
  8
0-C_ハッチ
  6
Continuous
 62
   120
370
     5
100
AcDbLine
 10
-3211.500018557984
 20
2258.023931951321
 30
0.0
 11
-3242.305822307809
 21
2229.500039590372
 31
0.0
  0
LINE
  5
267
330
1F
100
AcDbEntity
  8
0-C_ハッチ
  6
Continuous
 62
   120
370
     5
100
AcDbLine
 10
-1175.168742134227
 20
3274.500148463894
 30
0.0
 11
-1390.500158773882
 21
3075.119207130877
 31
0.0
  0
LINE
  5
268
330
1F
100
AcDbEntity
  8
0-C_ハッチ
  6
Continuous
 62
   120
370
     5
100
AcDbLine
 10
-1372.231979993529
 20
2376.542040534061
 30
0.0
 11
-1390.500018557983
 21
2359.627190011417
 31
0.0
  0
LINE
  5
269
330
1F
100
AcDbEntity
  8
0-C_ハッチ
  6
Continuous
 62
   120
370
     5
100
AcDbLine
 10
-1341.814943289487
 20
2370.634908791555
 30
0.0
 11
-1390.500158773882
 21
2325.556005565263
 31
0.0
  0
LINE
  5
26A
330
1F
100
AcDbEntity
  8
0-C_ハッチ
  6
Continuous
 62
   120
370
     5
100
AcDbLine
 10
-1359.152437063967
 20
3274.500148463894
 30
0.0
 11
-1390.500158773882
 21
3245.474480213972
 31
0.0
  0
LINE
  5
26B
330
1F
100
AcDbEntity
  8
0-C_ハッチ
  6
Continuous
 62
   120
370
     5
100
AcDbLine
 10
-1211.965481120175
 20
3274.500148463894
 30
0.0
 11
-1390.500158773882
 21
3109.190261747497
 31
0.0
  0
LINE
  5
26C
330
1F
100
AcDbEntity
  8
0-C_ハッチ
  6
Continuous
 62
   120
370
     5
100
AcDbLine
 10
-1248.762220106123
 20
3274.500148463894
 30
0.0
 11
-1390.500158773882
 21
3143.261316364115
 31
0.0
  0
LINE
  5
26D
330
1F
100
AcDbEntity
  8
0-C_ハッチ
  6
Continuous
 62
   120
370
     5
100
AcDbLine
 10
-1285.558959092071
 20
3274.500148463894
 30
0.0
 11
-1390.500158773882
 21
3177.332370980735
 31
0.0
  0
LINE
  5
26E
330
1F
100
AcDbEntity
  8
0-C_ハッチ
  6
Continuous
 62
   120
370
     5
100
AcDbLine
 10
-1322.355698078018
 20
3274.500148463894
 30
0.0
 11
-1390.500158773882
 21
3211.403425597353
 31
0.0
  0
LINE
  5
26F
330
1F
100
AcDbEntity
  8
0-C_ハッチ
  6
Continuous
 62
   120
370
     5
100
AcDbLine
 10
921.2680282544684
 20
2376.542040534061
 30
0.0
 11
902.9999896900142
 21
2359.627190011417
 31
0.0
  0
LINE
  5
270
330
1F
100
AcDbEntity
  8
0-C_ハッチ
  6
Continuous
 62
   120
370
     5
100
AcDbLine
 10
951.6850649585101
 20
2370.634908791555
 30
0.0
 11
902.9998494741147
 21
2325.556005565263
 31
0.0
  0
LINE
  5
271
330
1F
100
AcDbEntity
  8
0-C_ハッチ
  6
Continuous
 62
   120
370
     5
100
AcDbLine
 10
934.3475711840304
 20
3274.500148463894
 30
0.0
 11
902.9998494741147
 21
3245.474480213972
 31
0.0
  0
LINE
  5
272
330
1F
100
AcDbEntity
  8
0-C_ハッチ
  6
Continuous
 62
   120
370
     5
100
AcDbLine
 10
1081.534527127822
 20
3274.500148463894
 30
0.0
 11
902.9998494741147
 21
3109.190261747497
 31
0.0
  0
LINE
  5
273
330
1F
100
AcDbEntity
  8
0-C_ハッチ
  6
Continuous
 62
   120
370
     5
100
AcDbLine
 10
1044.737788141874
 20
3274.500148463894
 30
0.0
 11
902.9998494741147
 21
3143.261316364115
 31
0.0
  0
LINE
  5
274
330
1F
100
AcDbEntity
  8
0-C_ハッチ
  6
Continuous
 62
   120
370
     5
100
AcDbLine
 10
1007.941049155926
 20
3274.500148463894
 30
0.0
 11
902.9998494741147
 21
3177.332370980735
 31
0.0
  0
LINE
  5
275
330
1F
100
AcDbEntity
  8
0-C_ハッチ
  6
Continuous
 62
   120
370
     5
100
AcDbLine
 10
971.1443101699786
 20
3274.500148463894
 30
0.0
 11
902.9998494741147
 21
3211.403425597353
 31
0.0
  0
LINE
  5
276
330
1F
100
AcDbEntity
  8
0-C_ハッチ
  6
Continuous
 62
   120
370
     5
100
AcDbLine
 10
-1036.184948228559
 20
3274.500148463894
 30
0.0
 11
-1051.499870094089
 21
3260.31966525507
 31
0.0
  0
LINE
  5
277
330
1F
100
AcDbEntity
  8
0-C_ハッチ
  6
Continuous
 62
   120
370
     5
100
AcDbLine
 10
-888.9979922847671
 20
3274.500148463894
 30
0.0
 11
-1051.499870094089
 21
3124.035446788594
 31
0.0
  0
LINE
  5
278
330
1F
100
AcDbEntity
  8
0-C_ハッチ
  6
Continuous
 62
   120
370
     5
100
AcDbLine
 10
-925.7947312707144
 20
3274.500148463894
 30
0.0
 11
-1051.499870094089
 21
3158.106501405212
 31
0.0
  0
LINE
  5
279
330
1F
100
AcDbEntity
  8
0-C_ハッチ
  6
Continuous
 62
   120
370
     5
100
AcDbLine
 10
-962.5914702566616
 20
3274.500148463894
 30
0.0
 11
-1051.499870094089
 21
3192.177556021831
 31
0.0
  0
LINE
  5
27A
330
1F
100
AcDbEntity
  8
0-C_ハッチ
  6
Continuous
 62
   120
370
     5
100
AcDbLine
 10
-999.3882092426106
 20
3274.500148463894
 30
0.0
 11
-1051.499870094089
 21
3226.24861063845
 31
0.0
  0
LINE
  5
27B
330
1F
100
AcDbEntity
  8
0-C_ハッチ
  6
Continuous
 62
   120
370
     5
100
AcDbLine
 10
-852.201253298819
 20
3274.500148463894
 30
0.0
 11
-1051.499870094089
 21
3089.964392171975
 31
0.0
  0
LINE
  5
27C
330
1F
100
AcDbEntity
  8
0-C_ハッチ
  6
Continuous
 62
   120
370
     5
100
AcDbLine
 10
-1156.499969070018
 20
3257.714994832654
 30
0.0
 11
-1390.500158773882
 21
3041.048152514259
 31
0.0
  0
LINE
  5
27D
330
1F
100
AcDbEntity
  8
0-C_ハッチ
  6
Continuous
 62
   120
370
     5
100
AcDbLine
 10
-1156.499969070018
 20
2269.654410950708
 30
0.0
 11
-1199.866554740108
 21
2229.500164959883
 31
0.0
  0
LINE
  5
27E
330
1F
100
AcDbEntity
  8
0-C_ハッチ
  6
Continuous
 62
   120
370
     5
100
AcDbLine
 10
-1156.499969070018
 20
2303.725465567326
 30
0.0
 11
-1236.663293726055
 21
2229.500164959883
 31
0.0
  0
LINE
  5
27F
330
1F
100
AcDbEntity
  8
0-C_ハッチ
  6
Continuous
 62
   120
370
     5
100
AcDbLine
 10
-1156.499969070018
 20
2337.796520183945
 30
0.0
 11
-1273.460032712004
 21
2229.500164959883
 31
0.0
  0
LINE
  5
280
330
1F
100
AcDbEntity
  8
0-C_ハッチ
  6
Continuous
 62
   120
370
     5
100
AcDbLine
 10
-1156.499969070018
 20
2371.867574800563
 30
0.0
 11
-1310.256771697952
 21
2229.500164959883
 31
0.0
  0
LINE
  5
281
330
1F
100
AcDbEntity
  8
0-C_ハッチ
  6
Continuous
 62
   120
370
     5
100
AcDbLine
 10
-1156.499969070018
 20
2405.938629417182
 30
0.0
 11
-1347.053510683901
 21
2229.500164959883
 31
0.0
  0
LINE
  5
282
330
1F
100
AcDbEntity
  8
0-C_ハッチ
  6
Continuous
 62
   120
370
     5
100
AcDbLine
 10
-1156.499969070018
 20
2440.009684033801
 30
0.0
 11
-1383.850249669848
 21
2229.500164959883
 31
0.0
  0
LINE
  5
283
330
1F
100
AcDbEntity
  8
0-C_ハッチ
  6
Continuous
 62
   120
370
     5
100
AcDbLine
 10
-1156.499969070018
 20
2474.080738650421
 30
0.0
 11
-1390.500158773882
 21
2257.413896332026
 31
0.0
  0
LINE
  5
284
330
1F
100
AcDbEntity
  8
0-C_ハッチ
  6
Continuous
 62
   120
370
     5
100
AcDbLine
 10
-1156.499969070018
 20
2508.151793267039
 30
0.0
 11
-1390.500158773882
 21
2291.484950948644
 31
0.0
  0
LINE
  5
285
330
1F
100
AcDbEntity
  8
0-C_ハッチ
  6
Continuous
 62
   120
370
     5
100
AcDbLine
 10
-1156.499969070018
 20
2610.364957116896
 30
0.0
 11
-1390.500158773882
 21
2393.698114798501
 31
0.0
  0
LINE
  5
286
330
1F
100
AcDbEntity
  8
0-C_ハッチ
  6
Continuous
 62
   120
370
     5
100
AcDbLine
 10
-1156.499969070018
 20
2644.436011733514
 30
0.0
 11
-1390.500158773882
 21
2427.769169415119
 31
0.0
  0
LINE
  5
287
330
1F
100
AcDbEntity
  8
0-C_ハッチ
  6
Continuous
 62
   120
370
     5
100
AcDbLine
 10
-1156.499969070018
 20
2678.507066350134
 30
0.0
 11
-1390.500158773882
 21
2461.840224031739
 31
0.0
  0
LINE
  5
288
330
1F
100
AcDbEntity
  8
0-C_ハッチ
  6
Continuous
 62
   120
370
     5
100
AcDbLine
 10
-1156.499969070018
 20
2712.578120966752
 30
0.0
 11
-1390.500158773882
 21
2495.911278648357
 31
0.0
  0
LINE
  5
289
330
1F
100
AcDbEntity
  8
0-C_ハッチ
  6
Continuous
 62
   120
370
     5
100
AcDbLine
 10
-1156.499969070018
 20
2746.649175583371
 30
0.0
 11
-1390.500158773882
 21
2529.982333264976
 31
0.0
  0
LINE
  5
28A
330
1F
100
AcDbEntity
  8
0-C_ハッチ
  6
Continuous
 62
   120
370
     5
100
AcDbLine
 10
-1156.499969070018
 20
2780.72023019999
 30
0.0
 11
-1390.500158773882
 21
2564.053387881595
 31
0.0
  0
LINE
  5
28B
330
1F
100
AcDbEntity
  8
0-C_ハッチ
  6
Continuous
 62
   120
370
     5
100
AcDbLine
 10
-1156.499969070018
 20
2814.791284816609
 30
0.0
 11
-1390.500158773882
 21
2598.124442498214
 31
0.0
  0
LINE
  5
28C
330
1F
100
AcDbEntity
  8
0-C_ハッチ
  6
Continuous
 62
   120
370
     5
100
AcDbLine
 10
-1156.499969070018
 20
2848.862339433228
 30
0.0
 11
-1390.500158773882
 21
2632.195497114833
 31
0.0
  0
LINE
  5
28D
330
1F
100
AcDbEntity
  8
0-C_ハッチ
  6
Continuous
 62
   120
370
     5
100
AcDbLine
 10
-1156.499969070018
 20
2882.933394049847
 30
0.0
 11
-1390.500158773882
 21
2666.266551731452
 31
0.0
  0
LINE
  5
28E
330
1F
100
AcDbEntity
  8
0-C_ハッチ
  6
Continuous
 62
   120
370
     5
100
AcDbLine
 10
-1156.499969070018
 20
2917.004448666465
 30
0.0
 11
-1390.500158773882
 21
2700.33760634807
 31
0.0
  0
LINE
  5
28F
330
1F
100
AcDbEntity
  8
0-C_ハッチ
  6
Continuous
 62
   120
370
     5
100
AcDbLine
 10
-1156.499969070018
 20
2951.075503283084
 30
0.0
 11
-1390.500158773882
 21
2734.408660964689
 31
0.0
  0
LINE
  5
290
330
1F
100
AcDbEntity
  8
0-C_ハッチ
  6
Continuous
 62
   120
370
     5
100
AcDbLine
 10
-1156.499969070018
 20
2985.146557899703
 30
0.0
 11
-1390.500158773882
 21
2768.479715581308
 31
0.0
  0
LINE
  5
291
330
1F
100
AcDbEntity
  8
0-C_ハッチ
  6
Continuous
 62
   120
370
     5
100
AcDbLine
 10
-1156.499969070018
 20
3019.217612516322
 30
0.0
 11
-1390.500158773882
 21
2802.550770197927
 31
0.0
  0
LINE
  5
292
330
1F
100
AcDbEntity
  8
0-C_ハッチ
  6
Continuous
 62
   120
370
     5
100
AcDbLine
 10
-1156.499969070018
 20
3053.288667132941
 30
0.0
 11
-1390.500158773882
 21
2836.621824814546
 31
0.0
  0
LINE
  5
293
330
1F
100
AcDbEntity
  8
0-C_ハッチ
  6
Continuous
 62
   120
370
     5
100
AcDbLine
 10
-1156.499969070018
 20
3087.35972174956
 30
0.0
 11
-1390.500158773882
 21
2870.692879431165
 31
0.0
  0
LINE
  5
294
330
1F
100
AcDbEntity
  8
0-C_ハッチ
  6
Continuous
 62
   120
370
     5
100
AcDbLine
 10
-1156.499969070018
 20
3121.430776366179
 30
0.0
 11
-1390.500158773882
 21
2904.763934047784
 31
0.0
  0
LINE
  5
295
330
1F
100
AcDbEntity
  8
0-C_ハッチ
  6
Continuous
 62
   120
370
     5
100
AcDbLine
 10
-1156.499969070018
 20
3155.501830982797
 30
0.0
 11
-1390.500158773882
 21
2938.834988664403
 31
0.0
  0
LINE
  5
296
330
1F
100
AcDbEntity
  8
0-C_ハッチ
  6
Continuous
 62
   120
370
     5
100
AcDbLine
 10
-1156.499969070018
 20
3189.572885599417
 30
0.0
 11
-1390.500158773882
 21
2972.906043281022
 31
0.0
  0
LINE
  5
297
330
1F
100
AcDbEntity
  8
0-C_ハッチ
  6
Continuous
 62
   120
370
     5
100
AcDbLine
 10
-1156.499969070018
 20
3223.643940216035
 30
0.0
 11
-1390.500158773882
 21
3006.977097897641
 31
0.0
  0
LINE
  5
298
330
1F
100
AcDbEntity
  8
0-C_ハッチ
  6
Continuous
 62
   120
370
     5
100
AcDbLine
 10
-1156.499969070018
 20
2576.293902500276
 30
0.0
 11
-1372.231979993529
 21
2376.542040534061
 31
0.0
  0
LINE
  5
299
330
1F
100
AcDbEntity
  8
0-C_ハッチ
  6
Continuous
 62
   120
370
     5
100
AcDbLine
 10
-1156.499969070018
 20
2542.222847883658
 30
0.0
 11
-1341.814943289487
 21
2370.634908791555
 31
0.0
  0
LINE
  5
29A
330
1F
100
AcDbEntity
  8
0-C_ハッチ
  6
Continuous
 62
   120
370
     5
100
AcDbLine
 10
-817.5000680459474
 20
3238.488766316649
 30
0.0
 11
-1051.499870094089
 21
3021.822282938737
 31
0.0
  0
LINE
  5
29B
330
1F
100
AcDbEntity
  8
0-C_ハッチ
  6
Continuous
 62
   120
370
     5
100
AcDbLine
 10
-817.5000680459474
 20
2250.428182434703
 30
0.0
 11
-840.1024623178248
 21
2229.500039590372
 31
0.0
  0
LINE
  5
29C
330
1F
100
AcDbEntity
  8
0-C_ハッチ
  6
Continuous
 62
   120
370
     5
100
AcDbLine
 10
-817.5000680459474
 20
2284.499237051322
 30
0.0
 11
-876.8993331397103
 21
2229.499917520059
 31
0.0
  0
LINE
  5
29D
330
1F
100
AcDbEntity
  8
0-C_ハッチ
  6
Continuous
 62
   120
370
     5
100
AcDbLine
 10
-817.5000680459474
 20
2318.570291667942
 30
0.0
 11
-913.6960721256576
 21
2229.499917520059
 31
0.0
  0
LINE
  5
29E
330
1F
100
AcDbEntity
  8
0-C_ハッチ
  6
Continuous
 62
   120
370
     5
100
AcDbLine
 10
-817.5000680459474
 20
2386.712400901178
 30
0.0
 11
-987.289282862544
 21
2229.500164959883
 31
0.0
  0
LINE
  5
29F
330
1F
100
AcDbEntity
  8
0-C_ハッチ
  6
Continuous
 62
   120
370
     5
100
AcDbLine
 10
-817.5000680459474
 20
2420.783455517796
 30
0.0
 11
-1024.086021848492
 21
2229.500164959883
 31
0.0
  0
LINE
  5
2A0
330
1F
100
AcDbEntity
  8
0-C_ハッチ
  6
Continuous
 62
   120
370
     5
100
AcDbLine
 10
-817.5000680459474
 20
2352.64134628456
 30
0.0
 11
-950.4925438765958
 21
2229.500164959883
 31
0.0
  0
LINE
  5
2A1
330
1F
100
AcDbEntity
  8
0-C_ハッチ
  6
Continuous
 62
   120
370
     5
100
AcDbLine
 10
-817.5000680459474
 20
2454.854510134415
 30
0.0
 11
-1051.499870094089
 21
2238.188026756504
 31
0.0
  0
LINE
  5
2A2
330
1F
100
AcDbEntity
  8
0-C_ハッチ
  6
Continuous
 62
   120
370
     5
100
AcDbLine
 10
-817.5000680459474
 20
2897.77822015046
 30
0.0
 11
-1051.499870094089
 21
2681.111736772549
 31
0.0
  0
LINE
  5
2A3
330
1F
100
AcDbEntity
  8
0-C_ハッチ
  6
Continuous
 62
   120
370
     5
100
AcDbLine
 10
-817.5000680459474
 20
2931.849274767078
 30
0.0
 11
-1051.499870094089
 21
2715.182791389167
 31
0.0
  0
LINE
  5
2A4
330
1F
100
AcDbEntity
  8
0-C_ハッチ
  6
Continuous
 62
   120
370
     5
100
AcDbLine
 10
-817.5000680459474
 20
2557.067673984272
 30
0.0
 11
-1051.499870094089
 21
2340.401190606361
 31
0.0
  0
LINE
  5
2A5
330
1F
100
AcDbEntity
  8
0-C_ハッチ
  6
Continuous
 62
   120
370
     5
100
AcDbLine
 10
-817.5000680459474
 20
2591.138728600891
 30
0.0
 11
-1051.499870094089
 21
2374.472245222979
 31
0.0
  0
LINE
  5
2A6
330
1F
100
AcDbEntity
  8
0-C_ハッチ
  6
Continuous
 62
   120
370
     5
100
AcDbLine
 10
-817.5000680459474
 20
2625.20978321751
 30
0.0
 11
-1051.499870094089
 21
2408.543299839598
 31
0.0
  0
LINE
  5
2A7
330
1F
100
AcDbEntity
  8
0-C_ハッチ
  6
Continuous
 62
   120
370
     5
100
AcDbLine
 10
-817.5000680459474
 20
2659.280837834128
 30
0.0
 11
-1051.499870094089
 21
2442.614354456216
 31
0.0
  0
LINE
  5
2A8
330
1F
100
AcDbEntity
  8
0-C_ハッチ
  6
Continuous
 62
   120
370
     5
100
AcDbLine
 10
-817.5000680459474
 20
2693.351892450747
 30
0.0
 11
-1051.499870094089
 21
2476.685409072835
 31
0.0
  0
LINE
  5
2A9
330
1F
100
AcDbEntity
  8
0-C_ハッチ
  6
Continuous
 62
   120
370
     5
100
AcDbLine
 10
-817.5000680459474
 20
2727.422947067366
 30
0.0
 11
-1051.499870094089
 21
2510.756463689454
 31
0.0
  0
LINE
  5
2AA
330
1F
100
AcDbEntity
  8
0-C_ハッチ
  6
Continuous
 62
   120
370
     5
100
AcDbLine
 10
-817.5000680459474
 20
2761.494001683985
 30
0.0
 11
-1051.499870094089
 21
2544.827518306073
 31
0.0
  0
LINE
  5
2AB
330
1F
100
AcDbEntity
  8
0-C_ハッチ
  6
Continuous
 62
   120
370
     5
100
AcDbLine
 10
-817.5000680459474
 20
2795.565056300603
 30
0.0
 11
-1051.499870094089
 21
2578.898572922692
 31
0.0
  0
LINE
  5
2AC
330
1F
100
AcDbEntity
  8
0-C_ハッチ
  6
Continuous
 62
   120
370
     5
100
AcDbLine
 10
-817.5000680459474
 20
2829.636110917223
 30
0.0
 11
-1051.499870094089
 21
2612.969627539311
 31
0.0
  0
LINE
  5
2AD
330
1F
100
AcDbEntity
  8
0-C_ハッチ
  6
Continuous
 62
   120
370
     5
100
AcDbLine
 10
-817.5000680459474
 20
2863.707165533841
 30
0.0
 11
-1051.499870094089
 21
2647.040682155929
 31
0.0
  0
LINE
  5
2AE
330
1F
100
AcDbEntity
  8
0-C_ハッチ
  6
Continuous
 62
   120
370
     5
100
AcDbLine
 10
-817.5000680459474
 20
2965.920329383698
 30
0.0
 11
-1051.499870094089
 21
2749.253846005786
 31
0.0
  0
LINE
  5
2AF
330
1F
100
AcDbEntity
  8
0-C_ハッチ
  6
Continuous
 62
   120
370
     5
100
AcDbLine
 10
-817.5000680459474
 20
2999.991384000317
 30
0.0
 11
-1051.499870094089
 21
2783.324900622404
 31
0.0
  0
LINE
  5
2B0
330
1F
100
AcDbEntity
  8
0-C_ハッチ
  6
Continuous
 62
   120
370
     5
100
AcDbLine
 10
-817.5000680459474
 20
3034.062438616936
 30
0.0
 11
-1051.499870094089
 21
2817.395955239024
 31
0.0
  0
LINE
  5
2B1
330
1F
100
AcDbEntity
  8
0-C_ハッチ
  6
Continuous
 62
   120
370
     5
100
AcDbLine
 10
-817.5000680459474
 20
3068.133493233554
 30
0.0
 11
-1051.499870094089
 21
2851.467009855643
 31
0.0
  0
LINE
  5
2B2
330
1F
100
AcDbEntity
  8
0-C_ハッチ
  6
Continuous
 62
   120
370
     5
100
AcDbLine
 10
-817.5000680459474
 20
3102.204547850173
 30
0.0
 11
-1051.499870094089
 21
2885.538064472262
 31
0.0
  0
LINE
  5
2B3
330
1F
100
AcDbEntity
  8
0-C_ハッチ
  6
Continuous
 62
   120
370
     5
100
AcDbLine
 10
-817.5000680459474
 20
3136.275602466791
 30
0.0
 11
-1051.499870094089
 21
2919.60911908888
 31
0.0
  0
LINE
  5
2B4
330
1F
100
AcDbEntity
  8
0-C_ハッチ
  6
Continuous
 62
   120
370
     5
100
AcDbLine
 10
-817.5000680459474
 20
3170.346657083411
 30
0.0
 11
-1051.499870094089
 21
2953.680173705499
 31
0.0
  0
LINE
  5
2B5
330
1F
100
AcDbEntity
  8
0-C_ハッチ
  6
Continuous
 62
   120
370
     5
100
AcDbLine
 10
-817.5000680459474
 20
3204.41771170003
 30
0.0
 11
-1051.499870094089
 21
2987.751228322118
 31
0.0
  0
LINE
  5
2B6
330
1F
100
AcDbEntity
  8
0-C_ハッチ
  6
Continuous
 62
   120
370
     5
100
AcDbLine
 10
-817.5000680459474
 20
2522.996619367653
 30
0.0
 11
-1051.499870094089
 21
2306.330135989741
 31
0.0
  0
LINE
  5
2B7
330
1F
100
AcDbEntity
  8
0-C_ハッチ
  6
Continuous
 62
   120
370
     5
100
AcDbLine
 10
-817.5000680459474
 20
2488.925564751034
 30
0.0
 11
-1051.499870094089
 21
2272.259081373123
 31
0.0
  0
LINE
  5
2B8
330
1F
100
AcDbEntity
  8
0-C_ハッチ
  6
Continuous
 62
   120
370
     5
100
AcDbLine
 10
1091.999969894829
 20
3250.11931863154
 30
0.0
 11
902.9998494741147
 21
3075.119207130877
 31
0.0
  0
LINE
  5
2B9
330
1F
100
AcDbEntity
  8
0-C_ハッチ
  6
Continuous
 62
   120
370
     5
100
AcDbLine
 10
1091.999969894829
 20
2262.058734749593
 30
0.0
 11
1056.836714521942
 21
2229.500164959883
 31
0.0
  0
LINE
  5
2BA
330
1F
100
AcDbEntity
  8
0-C_ハッチ
  6
Continuous
 62
   120
370
     5
100
AcDbLine
 10
1091.999969894829
 20
2296.129789366213
 30
0.0
 11
1020.039975535992
 21
2229.500164959883
 31
0.0
  0
LINE
  5
2BB
330
1F
100
AcDbEntity
  8
0-C_ハッチ
  6
Continuous
 62
   120
370
     5
100
AcDbLine
 10
1091.999969894829
 20
2330.200843982831
 30
0.0
 11
983.2432365500451
 21
2229.500164959883
 31
0.0
  0
LINE
  5
2BC
330
1F
100
AcDbEntity
  8
0-C_ハッチ
  6
Continuous
 62
   120
370
     5
100
AcDbLine
 10
1091.999969894829
 20
2364.271898599451
 30
0.0
 11
946.4464975640963
 21
2229.500164959883
 31
0.0
  0
LINE
  5
2BD
330
1F
100
AcDbEntity
  8
0-C_ハッチ
  6
Continuous
 62
   120
370
     5
100
AcDbLine
 10
1091.999969894829
 20
2398.342953216069
 30
0.0
 11
909.649758578149
 21
2229.500164959883
 31
0.0
  0
LINE
  5
2BE
330
1F
100
AcDbEntity
  8
0-C_ハッチ
  6
Continuous
 62
   120
370
     5
100
AcDbLine
 10
1091.999969894829
 20
2432.414007832688
 30
0.0
 11
902.9998494741147
 21
2257.413896332026
 31
0.0
  0
LINE
  5
2BF
330
1F
100
AcDbEntity
  8
0-C_ハッチ
  6
Continuous
 62
   120
370
     5
100
AcDbLine
 10
1091.999969894829
 20
2466.485062449307
 30
0.0
 11
902.9998494741147
 21
2291.484950948644
 31
0.0
  0
LINE
  5
2C0
330
1F
100
AcDbEntity
  8
0-C_ハッチ
  6
Continuous
 62
   120
370
     5
100
AcDbLine
 10
1091.999969894829
 20
2568.698226299164
 30
0.0
 11
902.9998494741147
 21
2393.698114798501
 31
0.0
  0
LINE
  5
2C1
330
1F
100
AcDbEntity
  8
0-C_ハッチ
  6
Continuous
 62
   120
370
     5
100
AcDbLine
 10
1091.999969894829
 20
2602.769280915781
 30
0.0
 11
902.9998494741147
 21
2427.769169415119
 31
0.0
  0
LINE
  5
2C2
330
1F
100
AcDbEntity
  8
0-C_ハッチ
  6
Continuous
 62
   120
370
     5
100
AcDbLine
 10
1091.999969894829
 20
2636.840335532401
 30
0.0
 11
902.9998494741147
 21
2461.840224031739
 31
0.0
  0
LINE
  5
2C3
330
1F
100
AcDbEntity
  8
0-C_ハッチ
  6
Continuous
 62
   120
370
     5
100
AcDbLine
 10
1091.999969894829
 20
2670.91139014902
 30
0.0
 11
902.9998494741147
 21
2495.911278648357
 31
0.0
  0
LINE
  5
2C4
330
1F
100
AcDbEntity
  8
0-C_ハッチ
  6
Continuous
 62
   120
370
     5
100
AcDbLine
 10
1091.999969894829
 20
2704.982444765639
 30
0.0
 11
902.9998494741147
 21
2529.982333264976
 31
0.0
  0
LINE
  5
2C5
330
1F
100
AcDbEntity
  8
0-C_ハッチ
  6
Continuous
 62
   120
370
     5
100
AcDbLine
 10
1091.999969894829
 20
2739.053499382258
 30
0.0
 11
902.9998494741147
 21
2564.053387881595
 31
0.0
  0
LINE
  5
2C6
330
1F
100
AcDbEntity
  8
0-C_ハッチ
  6
Continuous
 62
   120
370
     5
100
AcDbLine
 10
1091.999969894829
 20
2773.124553998877
 30
0.0
 11
902.9998494741147
 21
2598.124442498214
 31
0.0
  0
LINE
  5
2C7
330
1F
100
AcDbEntity
  8
0-C_ハッチ
  6
Continuous
 62
   120
370
     5
100
AcDbLine
 10
1091.999969894829
 20
2807.195608615496
 30
0.0
 11
902.9998494741147
 21
2632.195497114833
 31
0.0
  0
LINE
  5
2C8
330
1F
100
AcDbEntity
  8
0-C_ハッチ
  6
Continuous
 62
   120
370
     5
100
AcDbLine
 10
1091.999969894829
 20
2841.266663232114
 30
0.0
 11
902.9998494741147
 21
2666.266551731452
 31
0.0
  0
LINE
  5
2C9
330
1F
100
AcDbEntity
  8
0-C_ハッチ
  6
Continuous
 62
   120
370
     5
100
AcDbLine
 10
1091.999969894829
 20
2875.337717848733
 30
0.0
 11
902.9998494741147
 21
2700.33760634807
 31
0.0
  0
LINE
  5
2CA
330
1F
100
AcDbEntity
  8
0-C_ハッチ
  6
Continuous
 62
   120
370
     5
100
AcDbLine
 10
1091.999969894829
 20
2909.408772465352
 30
0.0
 11
902.9998494741147
 21
2734.408660964689
 31
0.0
  0
LINE
  5
2CB
330
1F
100
AcDbEntity
  8
0-C_ハッチ
  6
Continuous
 62
   120
370
     5
100
AcDbLine
 10
1091.999969894829
 20
2943.479827081971
 30
0.0
 11
902.9998494741147
 21
2768.479715581308
 31
0.0
  0
LINE
  5
2CC
330
1F
100
AcDbEntity
  8
0-C_ハッチ
  6
Continuous
 62
   120
370
     5
100
AcDbLine
 10
1091.999969894829
 20
2977.55088169859
 30
0.0
 11
902.9998494741147
 21
2802.550770197927
 31
0.0
  0
LINE
  5
2CD
330
1F
100
AcDbEntity
  8
0-C_ハッチ
  6
Continuous
 62
   120
370
     5
100
AcDbLine
 10
1091.999969894829
 20
3011.621936315209
 30
0.0
 11
902.9998494741147
 21
2836.621824814546
 31
0.0
  0
LINE
  5
2CE
330
1F
100
AcDbEntity
  8
0-C_ハッチ
  6
Continuous
 62
   120
370
     5
100
AcDbLine
 10
1091.999969894829
 20
3045.692990931828
 30
0.0
 11
902.9998494741147
 21
2870.692879431165
 31
0.0
  0
LINE
  5
2CF
330
1F
100
AcDbEntity
  8
0-C_ハッチ
  6
Continuous
 62
   120
370
     5
100
AcDbLine
 10
1091.999969894829
 20
3079.764045548447
 30
0.0
 11
902.9998494741147
 21
2904.763934047784
 31
0.0
  0
LINE
  5
2D0
330
1F
100
AcDbEntity
  8
0-C_ハッチ
  6
Continuous
 62
   120
370
     5
100
AcDbLine
 10
1091.999969894829
 20
3113.835100165066
 30
0.0
 11
902.9998494741147
 21
2938.834988664403
 31
0.0
  0
LINE
  5
2D1
330
1F
100
AcDbEntity
  8
0-C_ハッチ
  6
Continuous
 62
   120
370
     5
100
AcDbLine
 10
1091.999969894829
 20
3147.906154781684
 30
0.0
 11
902.9998494741147
 21
2972.906043281022
 31
0.0
  0
LINE
  5
2D2
330
1F
100
AcDbEntity
  8
0-C_ハッチ
  6
Continuous
 62
   120
370
     5
100
AcDbLine
 10
1091.999969894829
 20
3181.977209398303
 30
0.0
 11
902.9998494741147
 21
3006.977097897641
 31
0.0
  0
LINE
  5
2D3
330
1F
100
AcDbEntity
  8
0-C_ハッチ
  6
Continuous
 62
   120
370
     5
100
AcDbLine
 10
1091.999969894829
 20
2534.627171682544
 30
0.0
 11
921.2680282544684
 21
2376.542040534061
 31
0.0
  0
LINE
  5
2D4
330
1F
100
AcDbEntity
  8
0-C_ハッチ
  6
Continuous
 62
   120
370
     5
100
AcDbLine
 10
1091.999969894829
 20
2500.556117065926
 30
0.0
 11
951.6850649585101
 21
2370.634908791555
 31
0.0
  0
LINE
  5
2D5
330
1F
100
AcDbEntity
  8
0-C_ハッチ
  6
Continuous
 62
   120
370
     5
100
AcDbLine
 10
1091.999969894829
 20
3216.048264014922
 30
0.0
 11
902.9998494741147
 21
3041.048152514259
 31
0.0
  0
LINE
  5
2D6
330
1F
100
AcDbEntity
  8
0-C_ハッチ
  6
Continuous
 62
   120
370
     5
100
AcDbLine
 10
1212.314867016377
 20
3274.500148463894
 30
0.0
 11
1196.999945150847
 21
3260.31966525507
 31
0.0
  0
LINE
  5
2D7
330
1F
100
AcDbEntity
  8
0-C_ハッチ
  6
Continuous
 62
   120
370
     5
100
AcDbLine
 10
1359.501822960169
 20
3274.500148463894
 30
0.0
 11
1196.999945150847
 21
3124.035446788594
 31
0.0
  0
LINE
  5
2D8
330
1F
100
AcDbEntity
  8
0-C_ハッチ
  6
Continuous
 62
   120
370
     5
100
AcDbLine
 10
1322.705083974221
 20
3274.500148463894
 30
0.0
 11
1196.999945150847
 21
3158.106501405212
 31
0.0
  0
LINE
  5
2D9
330
1F
100
AcDbEntity
  8
0-C_ハッチ
  6
Continuous
 62
   120
370
     5
100
AcDbLine
 10
1285.908344988274
 20
3274.500148463894
 30
0.0
 11
1196.999945150847
 21
3192.177556021831
 31
0.0
  0
LINE
  5
2DA
330
1F
100
AcDbEntity
  8
0-C_ハッチ
  6
Continuous
 62
   120
370
     5
100
AcDbLine
 10
1249.111606002325
 20
3274.500148463894
 30
0.0
 11
1196.999945150847
 21
3226.24861063845
 31
0.0
  0
LINE
  5
2DB
330
1F
100
AcDbEntity
  8
0-C_ハッチ
  6
Continuous
 62
   120
370
     5
100
AcDbLine
 10
1385.999987215616
 20
3264.964431120838
 30
0.0
 11
1196.999945150847
 21
3089.964392171975
 31
0.0
  0
LINE
  5
2DC
330
1F
100
AcDbEntity
  8
0-C_ハッチ
  6
Continuous
 62
   120
370
     5
100
AcDbLine
 10
1385.999987215616
 20
2242.832792622273
 30
0.0
 11
1371.600482105225
 21
2229.499917520059
 31
0.0
  0
LINE
  5
2DD
330
1F
100
AcDbEntity
  8
0-C_ハッチ
  6
Continuous
 62
   120
370
     5
100
AcDbLine
 10
1385.999987215616
 20
2276.903847238892
 30
0.0
 11
1334.803743119278
 21
2229.499917520059
 31
0.0
  0
LINE
  5
2DE
330
1F
100
AcDbEntity
  8
0-C_ハッチ
  6
Continuous
 62
   120
370
     5
100
AcDbLine
 10
1385.999987215616
 20
2345.04595647213
 30
0.0
 11
1261.210532382391
 21
2229.500164959883
 31
0.0
  0
LINE
  5
2DF
330
1F
100
AcDbEntity
  8
0-C_ハッチ
  6
Continuous
 62
   120
370
     5
100
AcDbLine
 10
1385.999987215616
 20
2379.117011088748
 30
0.0
 11
1224.413793396443
 21
2229.500164959883
 31
0.0
  0
LINE
  5
2E0
330
1F
100
AcDbEntity
  8
0-C_ハッチ
  6
Continuous
 62
   120
370
     5
100
AcDbLine
 10
1385.999987215616
 20
2310.974901855511
 30
0.0
 11
1298.00727136834
 21
2229.500164959883
 31
0.0
  0
LINE
  5
2E1
330
1F
100
AcDbEntity
  8
0-C_ハッチ
  6
Continuous
 62
   120
370
     5
100
AcDbLine
 10
1385.999987215616
 20
2413.188065705367
 30
0.0
 11
1196.999945150847
 21
2238.188026756504
 31
0.0
  0
LINE
  5
2E2
330
1F
100
AcDbEntity
  8
0-C_ハッチ
  6
Continuous
 62
   120
370
     5
100
AcDbLine
 10
1385.999987215616
 20
2856.111775721412
 30
0.0
 11
1196.999945150847
 21
2681.111736772549
 31
0.0
  0
LINE
  5
2E3
330
1F
100
AcDbEntity
  8
0-C_ハッチ
  6
Continuous
 62
   120
370
     5
100
AcDbLine
 10
1385.999987215616
 20
2890.18283033803
 30
0.0
 11
1196.999945150847
 21
2715.182791389167
 31
0.0
  0
LINE
  5
2E4
330
1F
100
AcDbEntity
  8
0-C_ハッチ
  6
Continuous
 62
   120
370
     5
100
AcDbLine
 10
1385.999987215616
 20
2515.401229555224
 30
0.0
 11
1196.999945150847
 21
2340.401190606361
 31
0.0
  0
LINE
  5
2E5
330
1F
100
AcDbEntity
  8
0-C_ハッチ
  6
Continuous
 62
   120
370
     5
100
AcDbLine
 10
1385.999987215616
 20
2549.472284171843
 30
0.0
 11
1196.999945150847
 21
2374.472245222979
 31
0.0
  0
LINE
  5
2E6
330
1F
100
AcDbEntity
  8
0-C_ハッチ
  6
Continuous
 62
   120
370
     5
100
AcDbLine
 10
1385.999987215616
 20
2583.543338788461
 30
0.0
 11
1196.999945150847
 21
2408.543299839598
 31
0.0
  0
LINE
  5
2E7
330
1F
100
AcDbEntity
  8
0-C_ハッチ
  6
Continuous
 62
   120
370
     5
100
AcDbLine
 10
1385.999987215616
 20
2617.614393405079
 30
0.0
 11
1196.999945150847
 21
2442.614354456216
 31
0.0
  0
LINE
  5
2E8
330
1F
100
AcDbEntity
  8
0-C_ハッチ
  6
Continuous
 62
   120
370
     5
100
AcDbLine
 10
1385.999987215616
 20
2651.685448021698
 30
0.0
 11
1196.999945150847
 21
2476.685409072835
 31
0.0
  0
LINE
  5
2E9
330
1F
100
AcDbEntity
  8
0-C_ハッチ
  6
Continuous
 62
   120
370
     5
100
AcDbLine
 10
1385.999987215616
 20
2685.756502638318
 30
0.0
 11
1196.999945150847
 21
2510.756463689454
 31
0.0
  0
LINE
  5
2EA
330
1F
100
AcDbEntity
  8
0-C_ハッチ
  6
Continuous
 62
   120
370
     5
100
AcDbLine
 10
1385.999987215616
 20
2719.827557254936
 30
0.0
 11
1196.999945150847
 21
2544.827518306073
 31
0.0
  0
LINE
  5
2EB
330
1F
100
AcDbEntity
  8
0-C_ハッチ
  6
Continuous
 62
   120
370
     5
100
AcDbLine
 10
1385.999987215616
 20
2753.898611871555
 30
0.0
 11
1196.999945150847
 21
2578.898572922692
 31
0.0
  0
LINE
  5
2EC
330
1F
100
AcDbEntity
  8
0-C_ハッチ
  6
Continuous
 62
   120
370
     5
100
AcDbLine
 10
1385.999987215616
 20
2787.969666488174
 30
0.0
 11
1196.999945150847
 21
2612.969627539311
 31
0.0
  0
LINE
  5
2ED
330
1F
100
AcDbEntity
  8
0-C_ハッチ
  6
Continuous
 62
   120
370
     5
100
AcDbLine
 10
1385.999987215616
 20
2822.040721104792
 30
0.0
 11
1196.999945150847
 21
2647.040682155929
 31
0.0
  0
LINE
  5
2EE
330
1F
100
AcDbEntity
  8
0-C_ハッチ
  6
Continuous
 62
   120
370
     5
100
AcDbLine
 10
1385.999987215616
 20
2924.253884954649
 30
0.0
 11
1196.999945150847
 21
2749.253846005786
 31
0.0
  0
LINE
  5
2EF
330
1F
100
AcDbEntity
  8
0-C_ハッチ
  6
Continuous
 62
   120
370
     5
100
AcDbLine
 10
1385.999987215616
 20
2958.324939571268
 30
0.0
 11
1196.999945150847
 21
2783.324900622404
 31
0.0
  0
LINE
  5
2F0
330
1F
100
AcDbEntity
  8
0-C_ハッチ
  6
Continuous
 62
   120
370
     5
100
AcDbLine
 10
1385.999987215616
 20
2992.395994187887
 30
0.0
 11
1196.999945150847
 21
2817.395955239024
 31
0.0
  0
LINE
  5
2F1
330
1F
100
AcDbEntity
  8
0-C_ハッチ
  6
Continuous
 62
   120
370
     5
100
AcDbLine
 10
1385.999987215616
 20
3026.467048804506
 30
0.0
 11
1196.999945150847
 21
2851.467009855643
 31
0.0
  0
LINE
  5
2F2
330
1F
100
AcDbEntity
  8
0-C_ハッチ
  6
Continuous
 62
   120
370
     5
100
AcDbLine
 10
1385.999987215616
 20
3060.538103421125
 30
0.0
 11
1196.999945150847
 21
2885.538064472262
 31
0.0
  0
LINE
  5
2F3
330
1F
100
AcDbEntity
  8
0-C_ハッチ
  6
Continuous
 62
   120
370
     5
100
AcDbLine
 10
1385.999987215616
 20
3094.609158037743
 30
0.0
 11
1196.999945150847
 21
2919.60911908888
 31
0.0
  0
LINE
  5
2F4
330
1F
100
AcDbEntity
  8
0-C_ハッチ
  6
Continuous
 62
   120
370
     5
100
AcDbLine
 10
1385.999987215616
 20
3128.680212654363
 30
0.0
 11
1196.999945150847
 21
2953.680173705499
 31
0.0
  0
LINE
  5
2F5
330
1F
100
AcDbEntity
  8
0-C_ハッチ
  6
Continuous
 62
   120
370
     5
100
AcDbLine
 10
1385.999987215616
 20
3162.751267270981
 30
0.0
 11
1196.999945150847
 21
2987.751228322118
 31
0.0
  0
LINE
  5
2F6
330
1F
100
AcDbEntity
  8
0-C_ハッチ
  6
Continuous
 62
   120
370
     5
100
AcDbLine
 10
1385.999987215616
 20
2481.330174938605
 30
0.0
 11
1196.999945150847
 21
2306.330135989741
 31
0.0
  0
LINE
  5
2F7
330
1F
100
AcDbEntity
  8
0-C_ハッチ
  6
Continuous
 62
   120
370
     5
100
AcDbLine
 10
1385.999987215616
 20
2447.259120321985
 30
0.0
 11
1196.999945150847
 21
2272.259081373123
 31
0.0
  0
LINE
  5
2F8
330
1F
100
AcDbEntity
  8
0-C_ハッチ
  6
Continuous
 62
   120
370
     5
100
AcDbLine
 10
1385.999987215616
 20
3230.893376504219
 30
0.0
 11
1196.999945150847
 21
3055.893337555356
 31
0.0
  0
LINE
  5
2F9
330
1F
100
AcDbEntity
  8
0-C_ハッチ
  6
Continuous
 62
   120
370
     5
100
AcDbLine
 10
1385.999987215616
 20
3196.8223218876
 30
0.0
 11
1196.999945150847
 21
3021.822282938737
 31
0.0
  0
LINE
  5
2FA
330
1F
100
AcDbEntity
  8
引手
  6
JWW_DASHED1
 62
     7
370
     9
100
AcDbLine
 10
-766.0000185579833
 20
2335.401257489178
 30
0.0
 11
-766.0000185579833
 21
2437.401257489178
 31
0.0
  0
LINE
  5
2FB
330
1F
100
AcDbEntity
  8
引手
  6
JWW_DASHED1
 62
     7
370
     9
100
AcDbLine
 10
-734.0000185579851
 20
2335.401257489178
 30
0.0
 11
-766.0000185579833
 21
2335.401257489178
 31
0.0
  0
LINE
  5
2FC
330
1F
100
AcDbEntity
  8
引手
  6
JWW_DASHED1
 62
     7
370
     9
100
AcDbLine
 10
-734.0000185579851
 20
2335.401257489178
 30
0.0
 11
-734.0000185579851
 21
2437.401257489178
 31
0.0
  0
LINE
  5
2FD
330
1F
100
AcDbEntity
  8
引手
  6
JWW_DASHED1
 62
     7
370
     9
100
AcDbLine
 10
-734.0000185579851
 20
2437.401257489178
 30
0.0
 11
-766.0000185579833
 21
2437.401257489178
 31
0.0
  0
LINE
  5
2FE
330
1F
100
AcDbEntity
  8
引手
  6
Continuous
 62
     7
370
     9
100
AcDbLine
 10
-731.0000185579834
 20
2331.401257489178
 30
0.0
 11
-769.000018557985
 21
2331.401257489178
 31
0.0
  0
LINE
  5
2FF
330
1F
100
AcDbEntity
  8
引手
  6
Continuous
 62
     7
370
     9
100
AcDbLine
 10
-737.5000185579843
 20
2347.401257489178
 30
0.0
 11
-762.500018557984
 21
2347.401257489178
 31
0.0
  0
LINE
  5
300
330
1F
100
AcDbEntity
  8
引手
  6
Continuous
 62
     7
370
     9
100
AcDbLine
 10
-737.5000185579843
 20
2425.401257489178
 30
0.0
 11
-762.500018557984
 21
2425.401257489178
 31
0.0
  0
LINE
  5
301
330
1F
100
AcDbEntity
  8
引手
  6
Continuous
 62
     7
370
     9
100
AcDbLine
 10
-731.0000185579834
 20
2441.401257489178
 30
0.0
 11
-769.000018557985
 21
2441.401257489178
 31
0.0
  0
LINE
  5
302
330
1F
100
AcDbEntity
  8
引手
  6
Continuous
 62
     7
370
     9
100
AcDbLine
 10
-731.0000185579834
 20
2331.401257489178
 30
0.0
 11
-731.0000185579834
 21
2441.401257489178
 31
0.0
  0
LINE
  5
303
330
1F
100
AcDbEntity
  8
引手
  6
Continuous
 62
     7
370
     9
100
AcDbLine
 10
-737.5000185579843
 20
2347.401257489178
 30
0.0
 11
-737.5000185579843
 21
2425.401257489178
 31
0.0
  0
LINE
  5
304
330
1F
100
AcDbEntity
  8
引手
  6
Continuous
 62
     7
370
     9
100
AcDbLine
 10
-762.500018557984
 20
2347.401257489178
 30
0.0
 11
-762.500018557984
 21
2425.401257489178
 31
0.0
  0
LINE
  5
305
330
1F
100
AcDbEntity
  8
引手
  6
Continuous
 62
     7
370
     9
100
AcDbLine
 10
-769.000018557985
 20
2331.401257489178
 30
0.0
 11
-769.000018557985
 21
2441.401257489178
 31
0.0
  0
LINE
  5
306
330
1F
100
AcDbEntity
  8
引手
  6
JWW_DASHED1
 62
     7
370
     9
100
AcDbLine
 10
1433.99998144202
 20
2335.401195629222
 30
0.0
 11
1433.99998144202
 21
2437.401195629222
 31
0.0
  0
LINE
  5
307
330
1F
100
AcDbEntity
  8
引手
  6
JWW_DASHED1
 62
     7
370
     9
100
AcDbLine
 10
1465.999981442019
 20
2335.401195629222
 30
0.0
 11
1433.99998144202
 21
2335.401195629222
 31
0.0
  0
LINE
  5
308
330
1F
100
AcDbEntity
  8
引手
  6
JWW_DASHED1
 62
     7
370
     9
100
AcDbLine
 10
1465.999981442019
 20
2335.401195629222
 30
0.0
 11
1465.999981442019
 21
2437.401195629222
 31
0.0
  0
LINE
  5
309
330
1F
100
AcDbEntity
  8
引手
  6
JWW_DASHED1
 62
     7
370
     9
100
AcDbLine
 10
1465.999981442019
 20
2437.401195629222
 30
0.0
 11
1433.99998144202
 21
2437.401195629222
 31
0.0
  0
LINE
  5
30A
330
1F
100
AcDbEntity
  8
引手
  6
Continuous
 62
     7
370
     9
100
AcDbLine
 10
1468.99998144202
 20
2331.401195629222
 30
0.0
 11
1430.999981442018
 21
2331.401195629222
 31
0.0
  0
LINE
  5
30B
330
1F
100
AcDbEntity
  8
引手
  6
Continuous
 62
     7
370
     9
100
AcDbLine
 10
1462.499981442019
 20
2347.401195629222
 30
0.0
 11
1437.499981442019
 21
2347.401195629222
 31
0.0
  0
LINE
  5
30C
330
1F
100
AcDbEntity
  8
引手
  6
Continuous
 62
     7
370
     9
100
AcDbLine
 10
1462.499981442019
 20
2425.401195629222
 30
0.0
 11
1437.499981442019
 21
2425.401195629222
 31
0.0
  0
LINE
  5
30D
330
1F
100
AcDbEntity
  8
引手
  6
Continuous
 62
     7
370
     9
100
AcDbLine
 10
1468.99998144202
 20
2441.401195629222
 30
0.0
 11
1430.999981442018
 21
2441.401195629222
 31
0.0
  0
LINE
  5
30E
330
1F
100
AcDbEntity
  8
引手
  6
Continuous
 62
     7
370
     9
100
AcDbLine
 10
1468.99998144202
 20
2331.401195629222
 30
0.0
 11
1468.99998144202
 21
2441.401195629222
 31
0.0
  0
LINE
  5
30F
330
1F
100
AcDbEntity
  8
引手
  6
Continuous
 62
     7
370
     9
100
AcDbLine
 10
1462.499981442019
 20
2347.401195629222
 30
0.0
 11
1462.499981442019
 21
2425.401195629222
 31
0.0
  0
LINE
  5
310
330
1F
100
AcDbEntity
  8
引手
  6
Continuous
 62
     7
370
     9
100
AcDbLine
 10
1437.499981442019
 20
2347.401195629222
 30
0.0
 11
1437.499981442019
 21
2425.401195629222
 31
0.0
  0
LINE
  5
311
330
1F
100
AcDbEntity
  8
引手
  6
Continuous
 62
     7
370
     9
100
AcDbLine
 10
1430.999981442018
 20
2331.401195629222
 30
0.0
 11
1430.999981442018
 21
2441.401195629222
 31
0.0
  0
LINE
  5
312
330
1F
100
AcDbEntity
  8
引手
  6
JWW_CENTER1
 62
     7
370
     9
100
AcDbLine
 10
-3144.000018557985
 20
2294.791910348291
 30
0.0
 11
-3144.000018557985
 21
2465.642181772426
 31
0.0
  0
LINE
  5
313
330
1F
100
AcDbEntity
  8
引手
  6
JWW_CENTER1
 62
     7
370
     9
100
AcDbLine
 10
-750.000018557984
 20
2294.170588953653
 30
0.0
 11
-750.000018557984
 21
2465.020860377789
 31
0.0
  0
LINE
  5
314
330
1F
100
AcDbEntity
  8
引手
  6
JWW_CENTER1
 62
     7
370
     9
100
AcDbLine
 10
-788.0741843593084
 20
2386.401257489177
 30
0.0
 11
-715.5644877501475
 21
2386.401257489177
 31
0.0
  0
LINE
  5
315
330
1F
100
AcDbEntity
  8
引手
  6
JWW_CENTER1
 62
     7
370
     9
100
AcDbLine
 10
1449.999981442019
 20
2294.170527093698
 30
0.0
 11
1449.999981442019
 21
2465.020798517834
 31
0.0
  0
LINE
  5
316
330
1F
100
AcDbEntity
  8
引手
  6
JWW_CENTER1
 62
     7
370
     9
100
AcDbLine
 10
1411.925815640695
 20
2386.401195629221
 30
0.0
 11
1484.435512249856
 21
2386.401195629221
 31
0.0
  0
LINE
  5
317
330
1F
100
AcDbEntity
  8
引手
  6
JWW_DASHED1
 62
     7
370
     9
100
AcDbLine
 10
-3160.000018557984
 20
2335.401195629222
 30
0.0
 11
-3160.000018557984
 21
2437.401195629222
 31
0.0
  0
LINE
  5
318
330
1F
100
AcDbEntity
  8
引手
  6
JWW_DASHED1
 62
     7
370
     9
100
AcDbLine
 10
-3128.000018557986
 20
2335.401195629222
 30
0.0
 11
-3160.000018557984
 21
2335.401195629222
 31
0.0
  0
LINE
  5
319
330
1F
100
AcDbEntity
  8
引手
  6
JWW_DASHED1
 62
     7
370
     9
100
AcDbLine
 10
-3128.000018557986
 20
2335.401195629222
 30
0.0
 11
-3128.000018557986
 21
2437.401195629222
 31
0.0
  0
LINE
  5
31A
330
1F
100
AcDbEntity
  8
引手
  6
JWW_DASHED1
 62
     7
370
     9
100
AcDbLine
 10
-3128.000018557986
 20
2437.401195629222
 30
0.0
 11
-3160.000018557984
 21
2437.401195629222
 31
0.0
  0
LINE
  5
31B
330
1F
100
AcDbEntity
  8
引手
  6
Continuous
 62
     7
370
     9
100
AcDbLine
 10
-3125.000018557985
 20
2331.401195629222
 30
0.0
 11
-3163.000018557986
 21
2331.401195629222
 31
0.0
  0
LINE
  5
31C
330
1F
100
AcDbEntity
  8
引手
  6
Continuous
 62
     7
370
     9
100
AcDbLine
 10
-3131.500018557986
 20
2347.401195629222
 30
0.0
 11
-3156.500018557985
 21
2347.401195629222
 31
0.0
  0
LINE
  5
31D
330
1F
100
AcDbEntity
  8
引手
  6
Continuous
 62
     7
370
     9
100
AcDbLine
 10
-3131.500018557986
 20
2425.401195629222
 30
0.0
 11
-3156.500018557985
 21
2425.401195629222
 31
0.0
  0
LINE
  5
31E
330
1F
100
AcDbEntity
  8
引手
  6
Continuous
 62
     7
370
     9
100
AcDbLine
 10
-3125.000018557985
 20
2441.401195629222
 30
0.0
 11
-3163.000018557986
 21
2441.401195629222
 31
0.0
  0
LINE
  5
31F
330
1F
100
AcDbEntity
  8
引手
  6
Continuous
 62
     7
370
     9
100
AcDbLine
 10
-3125.000018557985
 20
2331.401195629222
 30
0.0
 11
-3125.000018557985
 21
2441.401195629222
 31
0.0
  0
LINE
  5
320
330
1F
100
AcDbEntity
  8
引手
  6
Continuous
 62
     7
370
     9
100
AcDbLine
 10
-3131.500018557986
 20
2347.401195629222
 30
0.0
 11
-3131.500018557986
 21
2425.401195629222
 31
0.0
  0
LINE
  5
321
330
1F
100
AcDbEntity
  8
引手
  6
Continuous
 62
     7
370
     9
100
AcDbLine
 10
-3156.500018557985
 20
2347.401195629222
 30
0.0
 11
-3156.500018557985
 21
2425.401195629222
 31
0.0
  0
LINE
  5
322
330
1F
100
AcDbEntity
  8
引手
  6
Continuous
 62
     7
370
     9
100
AcDbLine
 10
-3163.000018557986
 20
2331.401195629222
 30
0.0
 11
-3163.000018557986
 21
2441.401195629222
 31
0.0
  0
LINE
  5
323
330
1F
100
AcDbEntity
  8
引手
  6
JWW_CENTER1
 62
     7
370
     9
100
AcDbLine
 10
-3182.07418435931
 20
2386.401195629221
 30
0.0
 11
-3109.564487750149
 21
2386.401195629221
 31
0.0
  0
LINE
  5
324
330
1F
100
AcDbEntity
  8
0-C_ハッチ
  6
Continuous
 62
   120
370
     5
100
AcDbLine
 10
-817.5000680459474
 20
3272.559820933267
 30
0.0
 11
-1051.499870094089
 21
3055.893337555356
 31
0.0
  0
MTEXT
  5
325
330
1F
100
AcDbEntity
  8
0-A_文字
  6
Continuous
 62
     7
370
     9
100
AcDbMText
 10
-5370.000018557986
 20
421.5754150803023
 30
0.0
 40
57.15000000000001
 41
1050.0
 46
0.0
 71
     7
 72
     1
  1
{\fＭＳ ゴシック|b0|i0|c128|p49;ハイドアの対応はありません。}
 73
     1
 44
1.0
  0
MTEXT
  5
326
330
1F
100
AcDbEntity
  8
0-A_文字
  6
Continuous
 62
     7
370
     9
100
AcDbMText
 10
-2796.000018557986
 20
421.5754150803023
 30
0.0
 40
57.15000000000001
 41
1050.0
 46
0.0
 71
     7
 72
     1
  1
{\fＭＳ ゴシック|b0|i0|c128|p49;ハイドアの対応はありません。}
 73
     1
 44
1.0
  0
MTEXT
  5
327
330
1F
100
AcDbEntity
  8
0-A_文字
  6
Continuous
 62
     7
370
     9
100
AcDbMText
 10
-402.0000185579818
 20
421.5754150803023
 30
0.0
 40
57.15000000000001
 41
1050.0
 46
0.0
 71
     7
 72
     1
  1
{\fＭＳ ゴシック|b0|i0|c128|p49;ハイドアの対応はありません。}
 73
     1
 44
1.0
  0
MTEXT
  5
328
330
1F
100
AcDbEntity
  8
0-A_文字
  6
Continuous
 62
     7
370
     9
100
AcDbMText
 10
-5370.000018557986
 20
661.5754150803024
 30
0.0
 40
57.15000000000003
 41
975.0
 46
0.0
 71
     7
 72
     1
  1
{\fＭＳ ゴシック|b0|i0|c128|p49;枠外幅 1,824mm（DW=900mm）}
 73
     1
 44
1.0
  0
MTEXT
  5
329
330
1F
100
AcDbEntity
  8
0-A_文字
  6
Continuous
 62
     7
370
     9
100
AcDbMText
 10
-5370.000018557986
 20
541.5754150803024
 30
0.0
 40
57.15
 41
675.0
 46
0.0
 71
     7
 72
     1
  1
{\fＭＳ ゴシック|b0|i0|c128|p49;カスミ熱処理ガラス}
 73
     1
 44
1.0
  0
MTEXT
  5
32A
330
1F
100
AcDbEntity
  8
0-A_文字
  6
Continuous
 62
     7
370
     9
100
AcDbMText
 10
-2796.000018557986
 20
541.5754150803024
 30
0.0
 40
57.15
 41
675.0
 46
0.0
 71
     7
 72
     1
  1
{\fＭＳ ゴシック|b0|i0|c128|p49;カスミ熱処理ガラス}
 73
     1
 44
1.0
  0
MTEXT
  5
32B
330
1F
100
AcDbEntity
  8
0-A_文字
  6
Continuous
 62
     7
370
     9
100
AcDbMText
 10
-2796.000018557986
 20
661.5754150803024
 30
0.0
 40
57.15000000000003
 41
975.0
 46
0.0
 71
     7
 72
     1
  1
{\fＭＳ ゴシック|b0|i0|c128|p49;枠外幅 1,644mm（DW=810mm）}
 73
     1
 44
1.0
  0
MTEXT
  5
32C
330
1F
100
AcDbEntity
  8
0-A_文字
  6
Continuous
 62
     7
370
     9
100
AcDbMText
 10
-402.0000185579818
 20
541.5754150803024
 30
0.0
 40
57.15
 41
675.0
 46
0.0
 71
     7
 72
     1
  1
{\fＭＳ ゴシック|b0|i0|c128|p49;カスミ熱処理ガラス}
 73
     1
 44
1.0
  0
MTEXT
  5
32D
330
1F
100
AcDbEntity
  8
0-A_文字
  6
Continuous
 62
     7
370
     9
100
AcDbMText
 10
-402.0000185579818
 20
661.5754150803024
 30
0.0
 40
57.15000000000003
 41
975.0
 46
0.0
 71
     7
 72
     1
  1
{\fＭＳ ゴシック|b0|i0|c128|p49;枠外幅 1,450mm（DW=713mm）}
 73
     1
 44
1.0
  0
LINE
  5
32E
330
1F
100
AcDbEntity
  8
0-0_補助線
  6
JWW_HOJO
 62
   120
370
     5
100
AcDbLine
 10
-5999.99998453501
 20
790.5001831054697
 30
0.0
 11
5699.998762800888
 21
790.5001831054697
 31
0.0
  0
LINE
  5
32F
330
1F
100
AcDbEntity
  8
0-2_扉
  6
JWW_DASHED1
 62
   120
370
     5
100
AcDbLine
 10
1500.999981442021
 20
3409.500148463893
 30
0.0
 11
1497.578554046986
 21
3409.500148463893
 31
0.0
  0
ENDSEC
  0
SECTION
  2
OBJECTS
  0
DICTIONARY
  5
C
330
0
100
AcDbDictionary
281
     1
  3
ACAD_GROUP
350
D
  3
ACAD_LAYOUT
350
1A
  3
ACAD_MATERIAL
350
3B
  3
ACAD_MLEADERSTYLE
350
331
  3
ACAD_MLINESTYLE
350
17
  3
ACAD_PLOTSETTINGS
350
19
  3
ACAD_PLOTSTYLENAME
350
E
  3
ACAD_TABLESTYLE
350
330
  3
ACAD_VISUALSTYLE
350
2A
  0
DICTIONARY
  5
D
102
{ACAD_REACTORS
330
C
102
}
330
C
100
AcDbDictionary
281
     1
  0
DICTIONARY
  5
1A
102
{ACAD_REACTORS
330
C
102
}
330
C
100
AcDbDictionary
281
     1
  3
Layout1
350
1E
  3
Layout2
350
26
  3
Model
350
22
  0
DICTIONARY
  5
3B
102
{ACAD_REACTORS
330
C
102
}
330
C
100
AcDbDictionary
281
     1
  3
ByBlock
350
3D
  3
ByLayer
350
3C
  3
Global
350
3E
  0
DICTIONARY
  5
331
102
{ACAD_REACTORS
330
C
102
}
330
C
100
AcDbDictionary
281
     1
  0
DICTIONARY
  5
17
102
{ACAD_REACTORS
330
C
102
}
330
C
100
AcDbDictionary
281
     1
  3
Standard
350
18
  0
DICTIONARY
  5
19
102
{ACAD_REACTORS
330
C
102
}
330
C
100
AcDbDictionary
281
     1
  0
ACDBDICTIONARYWDFLT
  5
E
102
{ACAD_REACTORS
330
C
102
}
330
C
100
AcDbDictionary
281
     1
  3
Normal
350
F
100
AcDbDictionaryWithDefault
340
F
  0
DICTIONARY
  5
330
102
{ACAD_REACTORS
330
C
102
}
330
C
100
AcDbDictionary
281
     1
  0
DICTIONARY
  5
2A
102
{ACAD_REACTORS
330
C
102
}
330
C
100
AcDbDictionary
281
     1
  3
2dWireframe
350
2F
  3
3D Hidden
350
31
  3
3dWireframe
350
30
  3
Basic
350
32
  3
Brighten
350
36
  3
ColorChange
350
3A
  3
Conceptual
350
34
  3
Dim
350
35
  3
Facepattern
350
39
  3
Flat
350
2B
  3
FlatWithEdges
350
2C
  3
Gouraud
350
2D
  3
GouraudWithEdges
350
2E
  3
Linepattern
350
38
  3
Realistic
350
33
  3
Thicken
350
37
  0
LAYOUT
  5
1E
102
{ACAD_REACTORS
330
1A
102
}
330
1A
100
AcDbPlotSettings
  1

  2
none_device
  4

  6

 40
0.0
 41
0.0
 42
0.0
 43
0.0
 44
0.0
 45
0.0
 46
0.0
 47
0.0
 48
0.0
 49
0.0
140
0.0
141
0.0
142
1.0
143
1.0
 70
   688
 72
     0
 73
     0
 74
     5
  7

 75
    16
 76
     0
 77
     5
 78
   300
147
1.0
148
0.0
149
0.0
100
AcDbLayout
  1
Layout1
 70
     1
 71
     1
 10
0.0
 20
0.0
 11
420.0
 21
297.0
 12
0.0
 22
0.0
 32
0.0
 14
1.000000000000000E+20
 24
1.000000000000000E+20
 34
1.000000000000000E+20
 15
-1.000000000000000E+20
 25
-1.000000000000000E+20
 35
-1.000000000000000E+20
146
0.0
 13
0.0
 23
0.0
 33
0.0
 16
1.0
 26
0.0
 36
0.0
 17
0.0
 27
1.0
 37
0.0
 76
     0
330
1B
  0
LAYOUT
  5
26
102
{ACAD_REACTORS
330
1A
102
}
330
1A
100
AcDbPlotSettings
  1

  2
none_device
  4

  6

 40
0.0
 41
0.0
 42
0.0
 43
0.0
 44
0.0
 45
0.0
 46
0.0
 47
0.0
 48
0.0
 49
0.0
140
0.0
141
0.0
142
1.0
143
1.0
 70
   688
 72
     0
 73
     0
 74
     5
  7

 75
    16
 76
     0
 77
     5
 78
   300
147
1.0
148
0.0
149
0.0
100
AcDbLayout
  1
Layout2
 70
     1
 71
     2
 10
0.0
 20
0.0
 11
0.0
 21
0.0
 12
0.0
 22
0.0
 32
0.0
 14
0.0
 24
0.0
 34
0.0
 15
0.0
 25
0.0
 35
0.0
146
0.0
 13
0.0
 23
0.0
 33
0.0
 16
1.0
 26
0.0
 36
0.0
 17
0.0
 27
1.0
 37
0.0
 76
     0
330
23
  0
LAYOUT
  5
22
102
{ACAD_REACTORS
330
1A
102
}
330
1A
100
AcDbPlotSettings
  1

  2
none_device
  4

  6

 40
0.0
 41
0.0
 42
0.0
 43
0.0
 44
0.0
 45
0.0
 46
0.0
 47
0.0
 48
0.0
 49
0.0
140
0.0
141
0.0
142
1.0
143
1.0
 70
  1712
 72
     0
 73
     0
 74
     0
  7

 75
     0
 76
     0
 77
     5
 78
   300
147
1.0
148
0.0
149
0.0
100
AcDbLayout
  1
Model
 70
     1
 71
     0
 10
-6300.0
 20
-4455.0
 11
6300.0
 21
4455.0
 12
0.0
 22
0.0
 32
0.0
 14
-6300.0
 24
-4455.0
 34
0.0
 15
6300.0
 25
4455.0
 35
0.0
146
0.0
 13
0.0
 23
0.0
 33
0.0
 16
1.0
 26
0.0
 36
0.0
 17
0.0
 27
1.0
 37
0.0
 76
     0
330
1F
331
29
  0
MATERIAL
  5
3D
102
{ACAD_REACTORS
330
3B
102
}
330
3B
100
AcDbMaterial
  1
ByBlock
 72
     1
 94
      127
  0
MATERIAL
  5
3C
102
{ACAD_REACTORS
330
3B
102
}
330
3B
100
AcDbMaterial
  1
ByLayer
 72
     1
 94
      127
  0
MATERIAL
  5
3E
102
{ACAD_REACTORS
330
3B
102
}
330
3B
100
AcDbMaterial
  1
Global
 72
     1
 94
      127
  0
MLINESTYLE
  5
18
102
{ACAD_REACTORS
330
17
102
}
330
17
100
AcDbMlineStyle
  2
Standard
 70
     0
  3

 62
   256
 51
90.0
 52
90.0
 71
     2
 49
0.5
 62
   256
  6
BYLAYER
 49
-0.5
 62
   256
  6
BYLAYER
  0
ACDBPLACEHOLDER
  5
F
102
{ACAD_REACTORS
330
E
102
}
330
E
  0
VISUALSTYLE
  5
2F
102
{ACAD_REACTORS
330
2A
102
}
330
2A
100
AcDbVisualStyle
  2
2dWireframe
 70
     4
177
     2
291
     0
 71
     0
176
     1
 72
     2
176
     1
 73
     0
176
     1
 90
        0
176
     1
 40
-0.6
176
     1
 41
-30.0
176
     1
 62
     5
 63
     7
421
 16777215
176
     1
 74
     1
176
     1
 91
        4
176
     1
 64
     7
176
     1
 65
   257
176
     1
 75
     1
176
     1
175
     1
176
     1
 42
1.0
176
     1
 92
        0
176
     1
 66
   257
176
     1
 43
1.0
176
     1
 76
     1
176
     1
 77
     6
176
     1
 78
     2
176
     1
 67
     7
176
     1
 79
     5
176
     1
170
     0
176
     1
171
     0
176
     1
290
     0
176
     1
 93
        1
176
     1
 44
0.0
176
     1
173
     0
176
     1
  0
VISUALSTYLE
  5
31
102
{ACAD_REACTORS
330
2A
102
}
330
2A
100
AcDbVisualStyle
  2
3D Hidden
 70
     6
177
     2
291
     0
 71
     1
176
     1
 72
     2
176
     1
 73
     2
176
     1
 90
        0
176
     1
 40
-0.6
176
     1
 41
-30.0
176
     1
 62
     5
 63
     7
421
 16777215
176
     1
 74
     2
176
     1
 91
        2
176
     1
 64
     7
176
     1
 65
   257
176
     1
 75
     2
176
     1
175
     1
176
     1
 42
40.0
176
     1
 92
        0
176
     1
 66
   257
176
     1
 43
1.0
176
     1
 76
     1
176
     1
 77
     6
176
     1
 78
     2
176
     1
 67
     7
176
     1
 79
     3
176
     1
170
     0
176
     1
171
     0
176
     1
290
     0
176
     1
 93
        1
176
     1
 44
0.0
176
     1
173
     0
176
     1
  0
VISUALSTYLE
  5
30
102
{ACAD_REACTORS
330
2A
102
}
330
2A
100
AcDbVisualStyle
  2
3dWireframe
 70
     5
177
     2
291
     0
 71
     0
176
     1
 72
     2
176
     1
 73
     0
176
     1
 90
        0
176
     1
 40
-0.6
176
     1
 41
-30.0
176
     1
 62
     5
 63
     7
421
 16777215
176
     1
 74
     1
176
     1
 91
        4
176
     1
 64
     7
176
     1
 65
   257
176
     1
 75
     1
176
     1
175
     1
176
     1
 42
1.0
176
     1
 92
        0
176
     1
 66
   257
176
     1
 43
1.0
176
     1
 76
     1
176
     1
 77
     6
176
     1
 78
     2
176
     1
 67
     7
176
     1
 79
     5
176
     1
170
     0
176
     1
171
     0
176
     1
290
     0
176
     1
 93
        1
176
     1
 44
0.0
176
     1
173
     0
176
     1
  0
VISUALSTYLE
  5
32
102
{ACAD_REACTORS
330
2A
102
}
330
2A
100
AcDbVisualStyle
  2
Basic
 70
     7
177
     2
291
     1
 71
     1
176
     1
 72
     0
176
     1
 73
     1
176
     1
 90
        0
176
     1
 40
-0.6
176
     1
 41
-30.0
176
     1
 62
     5
 63
     7
421
 16777215
176
     1
 74
     0
176
     1
 91
        4
176
     1
 64
     7
176
     1
 65
   257
176
     1
 75
     1
176
     1
175
     1
176
     1
 42
1.0
176
     1
 92
        8
176
     1
 66
     7
176
     1
 43
1.0
176
     1
 76
     1
176
     1
 77
     6
176
     1
 78
     2
176
     1
 67
     7
176
     1
 79
     5
176
     1
170
     0
176
     1
171
     0
176
     1
290
     0
176
     1
 93
        1
176
     1
 44
0.0
176
     1
173
     0
176
     1
  0
VISUALSTYLE
  5
36
102
{ACAD_REACTORS
330
2A
102
}
330
2A
100
AcDbVisualStyle
  2
Brighten
 70
    12
177
     2
291
     1
 71
     2
176
     1
 72
     2
176
     1
 73
     0
176
     1
 90
        0
176
     1
 40
-0.6
176
     1
 41
-30.0
176
     1
 62
     5
 63
     7
421
 16777215
176
     1
 74
     1
176
     1
 91
        4
176
     1
 64
     7
176
     1
 65
   257
176
     1
 75
     1
176
     1
175
     1
176
     1
 42
1.0
176
     1
 92
        8
176
     1
 66
     7
176
     1
 43
1.0
176
     1
 76
     1
176
     1
 77
     6
176
     1
 78
     2
176
     1
 67
     7
176
     1
 79
     5
176
     1
170
     0
176
     1
171
     0
176
     1
290
     0
176
     1
 93
        1
176
     1
 44
50.0
176
     1
173
     0
176
     1
  0
VISUALSTYLE
  5
3A
102
{ACAD_REACTORS
330
2A
102
}
330
2A
100
AcDbVisualStyle
  2
ColorChange
 70
    16
177
     2
291
     1
 71
     2
176
     1
 72
     2
176
     1
 73
     3
176
     1
 90
        0
176
     1
 40
-0.6
176
     1
 41
-30.0
176
     1
 62
     5
 63
     8
421
  8421504
176
     1
 74
     1
176
     1
 91
        4
176
     1
 64
     7
176
     1
 65
   257
176
     1
 75
     1
176
     1
175
     1
176
     1
 42
1.0
176
     1
 92
        8
176
     1
 66
     8
424
  8421504
176
     1
 43
1.0
176
     1
 76
     1
176
     1
 77
     6
176
     1
 78
     2
176
     1
 67
     7
176
     1
 79
     5
176
     1
170
     0
176
     1
171
     0
176
     1
290
     0
176
     1
 93
        1
176
     1
 44
0.0
176
     1
173
     0
176
     1
  0
VISUALSTYLE
  5
34
102
{ACAD_REACTORS
330
2A
102
}
330
2A
100
AcDbVisualStyle
  2
Conceptual
 70
     9
177
     2
291
     0
 71
     3
176
     1
 72
     2
176
     1
 73
     0
176
     1
 90
        0
176
     1
 40
-0.6
176
     1
 41
-30.0
176
     1
 62
     5
 63
     7
421
 16777215
176
     1
 74
     2
176
     1
 91
        2
176
     1
 64
     7
176
     1
 65
   257
176
     1
 75
     1
176
     1
175
     1
176
     1
 42
40.0
176
     1
 92
        8
176
     1
 66
     7
176
     1
 43
1.0
176
     1
 76
     1
176
     1
 77
     6
176
     1
 78
     2
176
     1
 67
     7
176
     1
 79
     3
176
     1
170
     0
176
     1
171
     0
176
     1
290
     0
176
     1
 93
        1
176
     1
 44
0.0
176
     1
173
     0
176
     1
  0
VISUALSTYLE
  5
35
102
{ACAD_REACTORS
330
2A
102
}
330
2A
100
AcDbVisualStyle
  2
Dim
 70
    11
177
     2
291
     1
 71
     2
176
     1
 72
     2
176
     1
 73
     0
176
     1
 90
        0
176
     1
 40
-0.6
176
     1
 41
-30.0
176
     1
 62
     5
 63
     7
421
 16777215
176
     1
 74
     1
176
     1
 91
        4
176
     1
 64
     7
176
     1
 65
   257
176
     1
 75
     1
176
     1
175
     1
176
     1
 42
1.0
176
     1
 92
        8
176
     1
 66
     7
176
     1
 43
1.0
176
     1
 76
     1
176
     1
 77
     6
176
     1
 78
     2
176
     1
 67
     7
176
     1
 79
     5
176
     1
170
     0
176
     1
171
     0
176
     1
290
     0
176
     1
 93
        1
176
     1
 44
-50.0
176
     1
173
     0
176
     1
  0
VISUALSTYLE
  5
39
102
{ACAD_REACTORS
330
2A
102
}
330
2A
100
AcDbVisualStyle
  2
Facepattern
 70
    15
177
     2
291
     1
 71
     2
176
     1
 72
     2
176
     1
 73
     0
176
     1
 90
        0
176
     1
 40
-0.6
176
     1
 41
-30.0
176
     1
 62
     5
 63
     7
421
 16777215
176
     1
 74
     1
176
     1
 91
        4
176
     1
 64
     7
176
     1
 65
   257
176
     1
 75
     1
176
     1
175
     1
176
     1
 42
1.0
176
     1
 92
        8
176
     1
 66
     7
176
     1
 43
1.0
176
     1
 76
     1
176
     1
 77
     6
176
     1
 78
     2
176
     1
 67
     7
176
     1
 79
     5
176
     1
170
     0
176
     1
171
     0
176
     1
290
     0
176
     1
 93
        1
176
     1
 44
0.0
176
     1
173
     0
176
     1
  0
VISUALSTYLE
  5
2B
102
{ACAD_REACTORS
330
2A
102
}
330
2A
100
AcDbVisualStyle
  2
Flat
 70
     0
177
     2
291
     1
 71
     2
176
     1
 72
     1
176
     1
 73
     1
176
     1
 90
        2
176
     1
 40
-0.6
176
     1
 41
30.0
176
     1
 62
     5
 63
     7
421
 16777215
176
     1
 74
     0
176
     1
 91
        4
176
     1
 64
     7
176
     1
 65
   257
176
     1
 75
     1
176
     1
175
     1
176
     1
 42
1.0
176
     1
 92
        8
176
     1
 66
     7
176
     1
 43
1.0
176
     1
 76
     1
176
     1
 77
     6
176
     1
 78
     2
176
     1
 67
     7
176
     1
 79
     5
176
     1
170
     0
176
     1
171
     0
176
     1
290
     0
176
     1
 93
       13
176
     1
 44
0.0
176
     1
173
     0
176
     1
  0
VISUALSTYLE
  5
2C
102
{ACAD_REACTORS
330
2A
102
}
330
2A
100
AcDbVisualStyle
  2
FlatWithEdges
 70
     1
177
     2
291
     1
 71
     2
176
     1
 72
     1
176
     1
 73
     1
176
     1
 90
        2
176
     1
 40
-0.6
176
     1
 41
30.0
176
     1
 62
     5
 63
     7
421
 16777215
176
     1
 74
     1
176
     1
 91
        4
176
     1
 64
     7
176
     1
 65
   257
176
     1
 75
     1
176
     1
175
     1
176
     1
 42
1.0
176
     1
 92
        0
176
     1
 66
   257
176
     1
 43
1.0
176
     1
 76
     1
176
     1
 77
     6
176
     1
 78
     2
176
     1
 67
     7
176
     1
 79
     5
176
     1
170
     0
176
     1
171
     0
176
     1
290
     0
176
     1
 93
       13
176
     1
 44
0.0
176
     1
173
     0
176
     1
  0
VISUALSTYLE
  5
2D
102
{ACAD_REACTORS
330
2A
102
}
330
2A
100
AcDbVisualStyle
  2
Gouraud
 70
     2
177
     2
291
     1
 71
     2
176
     1
 72
     2
176
     1
 73
     1
176
     1
 90
        2
176
     1
 40
-0.6
176
     1
 41
30.0
176
     1
 62
     5
 63
     7
421
 16777215
176
     1
 74
     0
176
     1
 91
        4
176
     1
 64
     7
176
     1
 65
   257
176
     1
 75
     1
176
     1
175
     1
176
     1
 42
1.0
176
     1
 92
        0
176
     1
 66
     7
176
     1
 43
1.0
176
     1
 76
     1
176
     1
 77
     6
176
     1
 78
     2
176
     1
 67
     7
176
     1
 79
     5
176
     1
170
     0
176
     1
171
     0
176
     1
290
     0
176
     1
 93
       13
176
     1
 44
0.0
176
     1
173
     0
176
     1
  0
VISUALSTYLE
  5
2E
102
{ACAD_REACTORS
330
2A
102
}
330
2A
100
AcDbVisualStyle
  2
GouraudWithEdges
 70
     3
177
     2
291
     1
 71
     2
176
     1
 72
     2
176
     1
 73
     1
176
     1
 90
        2
176
     1
 40
-0.6
176
     1
 41
30.0
176
     1
 62
     5
 63
     7
421
 16777215
176
     1
 74
     1
176
     1
 91
        4
176
     1
 64
     7
176
     1
 65
   257
176
     1
 75
     1
176
     1
175
     1
176
     1
 42
1.0
176
     1
 92
        0
176
     1
 66
   257
176
     1
 43
1.0
176
     1
 76
     1
176
     1
 77
     6
176
     1
 78
     2
176
     1
 67
     7
176
     1
 79
     5
176
     1
170
     0
176
     1
171
     0
176
     1
290
     0
176
     1
 93
       13
176
     1
 44
0.0
176
     1
173
     0
176
     1
  0
VISUALSTYLE
  5
38
102
{ACAD_REACTORS
330
2A
102
}
330
2A
100
AcDbVisualStyle
  2
Linepattern
 70
    14
177
     2
291
     1
 71
     2
176
     1
 72
     2
176
     1
 73
     0
176
     1
 90
        0
176
     1
 40
-0.6
176
     1
 41
-30.0
176
     1
 62
     5
 63
     7
421
 16777215
176
     1
 74
     1
176
     1
 91
        4
176
     1
 64
     7
176
     1
 65
   257
176
     1
 75
     7
176
     1
175
     7
176
     1
 42
1.0
176
     1
 92
        8
176
     1
 66
     7
176
     1
 43
1.0
176
     1
 76
     1
176
     1
 77
     6
176
     1
 78
     2
176
     1
 67
     7
176
     1
 79
     5
176
     1
170
     0
176
     1
171
     0
176
     1
290
     0
176
     1
 93
        1
176
     1
 44
0.0
176
     1
173
     0
176
     1
  0
VISUALSTYLE
  5
33
102
{ACAD_REACTORS
330
2A
102
}
330
2A
100
AcDbVisualStyle
  2
Realistic
 70
     8
177
     2
291
     0
 71
     2
176
     1
 72
     2
176
     1
 73
     0
176
     1
 90
        0
176
     1
 40
-0.6
176
     1
 41
-30.0
176
     1
 62
     5
 63
     7
421
 16777215
176
     1
 74
     1
176
     1
 91
        0
176
     1
 64
     7
176
     1
 65
   257
176
     1
 75
     1
176
     1
175
     1
176
     1
 42
1.0
176
     1
 92
        8
176
     1
 66
     8
424
  7895160
176
     1
 43
1.0
176
     1
 76
     1
176
     1
 77
     6
176
     1
 78
     2
176
     1
 67
     7
176
     1
 79
     5
176
     1
170
     0
176
     1
171
     0
176
     1
290
     0
176
     1
 93
       13
176
     1
 44
0.0
176
     1
173
     0
176
     1
  0
VISUALSTYLE
  5
37
102
{ACAD_REACTORS
330
2A
102
}
330
2A
100
AcDbVisualStyle
  2
Thicken
 70
    13
177
     2
291
     1
 71
     2
176
     1
 72
     2
176
     1
 73
     0
176
     1
 90
        0
176
     1
 40
-0.6
176
     1
 41
-30.0
176
     1
 62
     5
 63
     7
421
 16777215
176
     1
 74
     1
176
     1
 91
        4
176
     1
 64
     7
176
     1
 65
   257
176
     1
 75
     1
176
     1
175
     1
176
     1
 42
1.0
176
     1
 92
       12
176
     1
 66
     7
176
     1
 43
1.0
176
     1
 76
     1
176
     1
 77
     6
176
     1
 78
     2
176
     1
 67
     7
176
     1
 79
     5
176
     1
170
     0
176
     1
171
     0
176
     1
290
     0
176
     1
 93
        1
176
     1
 44
0.0
176
     1
173
     0
176
     1
  0
ENDSEC
  0
EOF
