  0
SECTION
  2
HEADER
  9
$ACADVER
  1
AC1024
  9
$ACADMAINTVER
 70
     6
  9
$DWGCODEPAGE
  3
ANSI_932
  9
$INSBASE
 10
0.0
 20
0.0
 30
0.0
  9
$EXTMIN
 10
-6300.0
 20
-4455.0
 30
0.0
  9
$EXTMAX
 10
6300.0
 20
4455.0
 30
0.0
  9
$LIMMIN
 10
-6300.0
 20
-4455.0
  9
$LIMMAX
 10
6300.0
 20
4455.0
  9
$ORTHOMODE
 70
     0
  9
$REGENMODE
 70
     1
  9
$FILLMODE
 70
     1
  9
$QTEXTMODE
 70
     0
  9
$MIRRTEXT
 70
     1
  9
$LTSCALE
 40
30.0
  9
$ATTMODE
 70
     1
  9
$TEXTSIZE
 40
2.5
  9
$TRACEWID
 40
1.0
  9
$TEXTSTYLE
  7
Standard
  9
$CLAYER
  8
0
  9
$CELTYPE
  6
ByLayer
  9
$CECOLOR
 62
   256
  9
$CELTSCALE
 40
1.0
  9
$DISPSILH
 70
     0
  9
$DIMSCALE
 40
1.0
  9
$DIMASZ
 40
2.5
  9
$DIMEXO
 40
0.625
  9
$DIMDLI
 40
3.75
  9
$DIMRND
 40
0.0
  9
$DIMDLE
 40
0.0
  9
$DIMEXE
 40
1.25
  9
$DIMTP
 40
0.0
  9
$DIMTM
 40
0.0
  9
$DIMTXT
 40
2.5
  9
$DIMCEN
 40
2.5
  9
$DIMTSZ
 40
0.0
  9
$DIMTOL
 70
     0
  9
$DIMLIM
 70
     0
  9
$DIMTIH
 70
     0
  9
$DIMTOH
 70
     0
  9
$DIMSE1
 70
     0
  9
$DIMSE2
 70
     0
  9
$DIMTAD
 70
     1
  9
$DIMZIN
 70
     8
  9
$DIMBLK
  1

  9
$DIMASO
 70
     1
  9
$DIMSHO
 70
     1
  9
$DIMPOST
  1

  9
$DIMAPOST
  1

  9
$DIMALT
 70
     0
  9
$DIMALTD
 70
     3
  9
$DIMALTF
 40
0.03937007874016
  9
$DIMLFAC
 40
1.0
  9
$DIMTOFL
 70
     1
  9
$DIMTVP
 40
0.0
  9
$DIMTIX
 70
     0
  9
$DIMSOXD
 70
     0
  9
$DIMSAH
 70
     0
  9
$DIMBLK1
  1

  9
$DIMBLK2
  1

  9
$DIMSTYLE
  2
ISO-25
  9
$DIMCLRD
 70
     0
  9
$DIMCLRE
 70
     0
  9
$DIMCLRT
 70
     0
  9
$DIMTFAC
 40
1.0
  9
$DIMGAP
 40
0.625
  9
$DIMJUST
 70
     0
  9
$DIMSD1
 70
     0
  9
$DIMSD2
 70
     0
  9
$DIMTOLJ
 70
     0
  9
$DIMTZIN
 70
     8
  9
$DIMALTZ
 70
     0
  9
$DIMALTTZ
 70
     0
  9
$DIMUPT
 70
     0
  9
$DIMDEC
 70
     2
  9
$DIMTDEC
 70
     2
  9
$DIMALTU
 70
     2
  9
$DIMALTTD
 70
     3
  9
$DIMTXSTY
  7
Standard
  9
$DIMAUNIT
 70
     0
  9
$DIMADEC
 70
     0
  9
$DIMALTRND
 40
0.0
  9
$DIMAZIN
 70
     0
  9
$DIMDSEP
 70
    44
  9
$DIMATFIT
 70
     3
  9
$DIMFRAC
 70
     0
  9
$DIMLDRBLK
  1

  9
$DIMLUNIT
 70
     2
  9
$DIMLWD
 70
    -2
  9
$DIMLWE
 70
    -2
  9
$DIMTMOVE
 70
     0
  9
$DIMFXL
 40
1.0
  9
$DIMFXLON
 70
     0
  9
$DIMJOGANG
 40
0.7853981633974483
  9
$DIMTFILL
 70
     0
  9
$DIMTFILLCLR
 70
     0
  9
$DIMARCSYM
 70
     0
  9
$DIMLTYPE
  6

  9
$DIMLTEX1
  6

  9
$DIMLTEX2
  6

  9
$DIMTXTDIRECTION
 70
     0
  9
$LUNITS
 70
     2
  9
$LUPREC
 70
     4
  9
$SKETCHINC
 40
1.0
  9
$FILLETRAD
 40
10.0
  9
$AUNITS
 70
     0
  9
$AUPREC
 70
     0
  9
$MENU
  1
.
  9
$ELEVATION
 40
0.0
  9
$PELEVATION
 40
0.0
  9
$THICKNESS
 40
0.0
  9
$LIMCHECK
 70
     0
  9
$CHAMFERA
 40
10.0
  9
$CHAMFERB
 40
10.0
  9
$CHAMFERC
 40
20.0
  9
$CHAMFERD
 40
0.0
  9
$SKPOLY
 70
     0
  9
$TDCREATE
 40
2459432.543738461
  9
$TDUCREATE
 40
2459432.168738461
  9
$TDUPDATE
 40
2459432.543738472
  9
$TDUUPDATE
 40
2459432.168738472
  9
$TDINDWG
 40
0.0000000116
  9
$TDUSRTIMER
 40
0.0000000116
  9
$USRTIMER
 70
     1
  9
$ANGBASE
 50
0.0
  9
$ANGDIR
 70
     0
  9
$PDMODE
 70
     0
  9
$PDSIZE
 40
0.0
  9
$PLINEWID
 40
0.0
  9
$SPLFRAME
 70
     0
  9
$SPLINETYPE
 70
     6
  9
$SPLINESEGS
 70
     8
  9
$HANDSEED
  5
255
  9
$SURFTAB1
 70
     6
  9
$SURFTAB2
 70
     6
  9
$SURFTYPE
 70
     6
  9
$SURFU
 70
     6
  9
$SURFV
 70
     6
  9
$UCSBASE
  2

  9
$UCSNAME
  2

  9
$UCSORG
 10
0.0
 20
0.0
 30
0.0
  9
$UCSXDIR
 10
1.0
 20
0.0
 30
0.0
  9
$UCSYDIR
 10
0.0
 20
1.0
 30
0.0
  9
$UCSORTHOREF
  2

  9
$UCSORTHOVIEW
 70
     0
  9
$UCSORGTOP
 10
0.0
 20
0.0
 30
0.0
  9
$UCSORGBOTTOM
 10
0.0
 20
0.0
 30
0.0
  9
$UCSORGLEFT
 10
0.0
 20
0.0
 30
0.0
  9
$UCSORGRIGHT
 10
0.0
 20
0.0
 30
0.0
  9
$UCSORGFRONT
 10
0.0
 20
0.0
 30
0.0
  9
$UCSORGBACK
 10
0.0
 20
0.0
 30
0.0
  9
$PUCSBASE
  2

  9
$PUCSNAME
  2

  9
$PUCSORG
 10
0.0
 20
0.0
 30
0.0
  9
$PUCSXDIR
 10
1.0
 20
0.0
 30
0.0
  9
$PUCSYDIR
 10
0.0
 20
1.0
 30
0.0
  9
$PUCSORTHOREF
  2

  9
$PUCSORTHOVIEW
 70
     0
  9
$PUCSORGTOP
 10
0.0
 20
0.0
 30
0.0
  9
$PUCSORGBOTTOM
 10
0.0
 20
0.0
 30
0.0
  9
$PUCSORGLEFT
 10
0.0
 20
0.0
 30
0.0
  9
$PUCSORGRIGHT
 10
0.0
 20
0.0
 30
0.0
  9
$PUCSORGFRONT
 10
0.0
 20
0.0
 30
0.0
  9
$PUCSORGBACK
 10
0.0
 20
0.0
 30
0.0
  9
$USERI1
 70
     0
  9
$USERI2
 70
     0
  9
$USERI3
 70
     0
  9
$USERI4
 70
     0
  9
$USERI5
 70
     0
  9
$USERR1
 40
0.0
  9
$USERR2
 40
0.0
  9
$USERR3
 40
0.0
  9
$USERR4
 40
0.0
  9
$USERR5
 40
0.0
  9
$WORLDVIEW
 70
     1
  9
$SHADEDGE
 70
     3
  9
$SHADEDIF
 70
    70
  9
$TILEMODE
 70
     1
  9
$MAXACTVP
 70
    64
  9
$PINSBASE
 10
0.0
 20
0.0
 30
0.0
  9
$PLIMCHECK
 70
     0
  9
$PEXTMIN
 10
1.000000000000000E+20
 20
1.000000000000000E+20
 30
1.000000000000000E+20
  9
$PEXTMAX
 10
-1.000000000000000E+20
 20
-1.000000000000000E+20
 30
-1.000000000000000E+20
  9
$PLIMMIN
 10
0.0
 20
0.0
  9
$PLIMMAX
 10
420.0
 20
297.0
  9
$UNITMODE
 70
     0
  9
$VISRETAIN
 70
     1
  9
$PLINEGEN
 70
     0
  9
$PSLTSCALE
 70
     1
  9
$TREEDEPTH
 70
  3020
  9
$CMLSTYLE
  2
Standard
  9
$CMLJUST
 70
     0
  9
$CMLSCALE
 40
20.0
  9
$PROXYGRAPHICS
 70
     1
  9
$MEASUREMENT
 70
     1
  9
$CELWEIGHT
370
    -1
  9
$ENDCAPS
280
     0
  9
$JOINSTYLE
280
     0
  9
$LWDISPLAY
290
     0
  9
$INSUNITS
 70
     4
  9
$HYPERLINKBASE
  1

  9
$STYLESHEET
  1

  9
$XEDIT
290
     1
  9
$CEPSNTYPE
380
     0
  9
$PSTYLEMODE
290
     1
  9
$FINGERPRINTGUID
  2
{53447706-0EFF-40ED-8B38-5B433C362FA5}
  9
$VERSIONGUID
  2
{FAEB1C32-E019-11D5-929B-00C0DF256EC4}
  9
$EXTNAMES
290
     1
  9
$PSVPSCALE
 40
0.0
  9
$OLESTARTUP
290
     0
  9
$SORTENTS
280
   127
  9
$INDEXCTL
280
     0
  9
$HIDETEXT
280
     1
  9
$XCLIPFRAME
280
     2
  9
$HALOGAP
280
     0
  9
$OBSCOLOR
 70
   257
  9
$OBSLTYPE
280
     0
  9
$INTERSECTIONDISPLAY
280
     0
  9
$INTERSECTIONCOLOR
 70
   257
  9
$DIMASSOC
280
     2
  9
$PROJECTNAME
  1

  9
$CAMERADISPLAY
290
     0
  9
$LENSLENGTH
 40
50.0
  9
$CAMERAHEIGHT
 40
0.0
  9
$STEPSPERSEC
 40
2.0
  9
$STEPSIZE
 40
6.0
  9
$3DDWFPREC
 40
2.0
  9
$PSOLWIDTH
 40
5.0
  9
$PSOLHEIGHT
 40
80.0
  9
$LOFTANG1
 40
1.570796326794897
  9
$LOFTANG2
 40
1.570796326794897
  9
$LOFTMAG1
 40
0.0
  9
$LOFTMAG2
 40
0.0
  9
$LOFTPARAM
 70
     7
  9
$LOFTNORMALS
280
     1
  9
$LATITUDE
 40
37.795
  9
$LONGITUDE
 40
-122.394
  9
$NORTHDIRECTION
 40
0.0
  9
$TIMEZONE
 70
 -8000
  9
$LIGHTGLYPHDISPLAY
280
     1
  9
$TILEMODELIGHTSYNCH
280
     1
  9
$SOLIDHIST
280
     1
  9
$SHOWHIST
280
     1
  9
$DWFFRAME
280
     2
  9
$DGNFRAME
280
     2
  9
$REALWORLDSCALE
290
     1
  9
$INTERFERECOLOR
 62
   256
  9
$CSHADOW
280
     0
  9
$SHADOWPLANELOCATION
 40
0.0
  0
ENDSEC
  0
SECTION
  2
CLASSES
  0
CLASS
  1
ACDBDICTIONARYWDFLT
  2
AcDbDictionaryWithDefault
  3
ObjectDBX Classes
 90
        0
 91
        4
280
     0
281
     0
  0
CLASS
  1
VISUALSTYLE
  2
AcDbVisualStyle
  3
ObjectDBX Classes
 90
     4095
 91
        4
280
     0
281
     0
  0
CLASS
  1
MATERIAL
  2
AcDbMaterial
  3
ObjectDBX Classes
 90
     1153
 91
        4
280
     0
281
     0
  0
ENDSEC
  0
SECTION
  2
TABLES
  0
TABLE
  2
VPORT
  5
8
330
0
100
AcDbSymbolTable
 70
     1
  0
VPORT
  5
29
330
8
100
AcDbSymbolTableRecord
100
AcDbViewportTableRecord
  2
*Active
 70
     0
 10
0.0
 20
0.0
 11
1.0
 21
1.0
 12
0.0
 22
0.0
 13
0.0
 23
0.0
 14
10.0
 24
10.0
 15
10.0
 25
10.0
 16
0.0
 26
0.0
 36
1.0
 17
0.0
 27
0.0
 37
0.0
 40
9801.0
 41
1.414141414141414
 42
50.0
 43
0.0
 44
0.0
 50
0.0
 51
0.0
 71
     0
 72
 10000
 73
     1
 74
     3
 75
     0
 76
     0
 77
     0
 78
     0
281
     0
 65
     1
110
0.0
120
0.0
130
0.0
111
1.0
121
0.0
131
0.0
112
0.0
122
1.0
132
0.0
 79
     0
146
0.0
 60
     3
 61
     5
292
     1
282
     1
141
0.0
142
0.0
 63
   250
  0
ENDTAB
  0
TABLE
  2
LTYPE
  5
5
330
0
100
AcDbSymbolTable
 70
     3
  0
LTYPE
  5
14
330
5
100
AcDbSymbolTableRecord
100
AcDbLinetypeTableRecord
  2
ByBlock
 70
     0
  3

 72
    65
 73
     0
 40
0.0
  0
LTYPE
  5
15
330
5
100
AcDbSymbolTableRecord
100
AcDbLinetypeTableRecord
  2
ByLayer
 70
     0
  3

 72
    65
 73
     0
 40
0.0
  0
LTYPE
  5
16
330
5
100
AcDbSymbolTableRecord
100
AcDbLinetypeTableRecord
  2
Continuous
 70
     0
  3
Solid line
 72
    65
 73
     0
 40
0.0
  0
LTYPE
  5
3F
330
5
100
AcDbSymbolTableRecord
100
AcDbLinetypeTableRecord
  2
JWW_DASHED1
 70
     0
  3
-  --  --  --  --  --  --  --  -
 72
    65
 73
     2
 40
1.693333333333333
 49
0.8466666666666667
 74
     0
 49
-0.8466666666666667
 74
     0
  0
LTYPE
  5
40
330
5
100
AcDbSymbolTableRecord
100
AcDbLinetypeTableRecord
  2
JWW_HOJO
 70
     0
  3
  -   -   -   -   -   -   -   - 
 72
    65
 73
     2
 40
1.693333333333333
 49
-1.27
 74
     0
 49
0.4233333333333333
 74
     0
  0
ENDTAB
  0
TABLE
  2
LAYER
  5
2
330
0
100
AcDbSymbolTable
 70
     8
  0
LAYER
  5
10
330
2
100
AcDbSymbolTableRecord
100
AcDbLayerTableRecord
  2
0
 70
     0
 62
     7
  6
Continuous
370
    -3
390
F
347
3E
  0
LAYER
  5
41
330
2
100
AcDbSymbolTableRecord
100
AcDbLayerTableRecord
  2
F-1
 70
     0
 62
     7
  6
Continuous
370
    -3
390
F
347
3E
  0
LAYER
  5
42
330
2
100
AcDbSymbolTableRecord
100
AcDbLayerTableRecord
  2
F-0
 70
     0
 62
     7
  6
Continuous
370
    -3
390
F
347
3E
  0
LAYER
  5
43
330
2
100
AcDbSymbolTableRecord
100
AcDbLayerTableRecord
  2
0-0
 70
     0
 62
     7
  6
Continuous
370
    -3
390
F
347
3E
  0
LAYER
  5
44
330
2
100
AcDbSymbolTableRecord
100
AcDbLayerTableRecord
  2
F-A
 70
     0
 62
     7
  6
Continuous
370
    -3
390
F
347
3E
  0
LAYER
  5
45
330
2
100
AcDbSymbolTableRecord
100
AcDbLayerTableRecord
  2
0-7
 70
     0
 62
     7
  6
Continuous
370
    -3
390
F
347
3E
  0
LAYER
  5
46
330
2
100
AcDbSymbolTableRecord
100
AcDbLayerTableRecord
  2
0-B
 70
     0
 62
     7
  6
Continuous
370
    -3
390
F
347
3E
  0
LAYER
  5
47
330
2
100
AcDbSymbolTableRecord
100
AcDbLayerTableRecord
  2
0-A
 70
     0
 62
     7
  6
Continuous
370
    -3
390
F
347
3E
  0
ENDTAB
  0
TABLE
  2
STYLE
  5
3
330
0
100
AcDbSymbolTable
 70
     1
  0
STYLE
  5
11
330
3
100
AcDbSymbolTableRecord
100
AcDbTextStyleTableRecord
  2
Standard
 70
     0
 40
0.0
 41
1.0
 50
0.0
 71
     0
 42
2.5
  3
txt
  4

  0
ENDTAB
  0
TABLE
  2
VIEW
  5
6
330
0
100
AcDbSymbolTable
 70
     0
  0
ENDTAB
  0
TABLE
  2
UCS
  5
7
330
0
100
AcDbSymbolTable
 70
     0
  0
ENDTAB
  0
TABLE
  2
APPID
  5
9
330
0
100
AcDbSymbolTable
 70
     1
  0
APPID
  5
12
330
9
100
AcDbSymbolTableRecord
100
AcDbRegAppTableRecord
  2
ACAD
 70
     0
  0
ENDTAB
  0
TABLE
  2
DIMSTYLE
  5
A
330
0
100
AcDbSymbolTable
 70
     1
100
AcDbDimStyleTable
  0
DIMSTYLE
105
27
330
A
100
AcDbSymbolTableRecord
100
AcDbDimStyleTableRecord
  2
ISO-25
 70
     0
 41
2.5
 42
0.625
 43
3.75
 44
1.25
 73
     0
 74
     0
 77
     1
 78
     8
140
2.5
141
2.5
143
0.03937007874016
147
0.625
171
     3
172
     1
178
     0
271
     2
272
     2
274
     3
278
    44
283
     0
284
     8
340
11
  0
ENDTAB
  0
TABLE
  2
BLOCK_RECORD
  5
1
330
0
100
AcDbSymbolTable
 70
     1
  0
BLOCK_RECORD
  5
1F
330
1
100
AcDbSymbolTableRecord
100
AcDbBlockTableRecord
  2
*Model_Space
340
22
 70
     0
280
     1
281
     0
  0
BLOCK_RECORD
  5
1B
330
1
100
AcDbSymbolTableRecord
100
AcDbBlockTableRecord
  2
*Paper_Space
340
1E
 70
     0
280
     1
281
     0
  0
BLOCK_RECORD
  5
23
330
1
100
AcDbSymbolTableRecord
100
AcDbBlockTableRecord
  2
*Paper_Space0
340
26
 70
     0
280
     1
281
     0
  0
ENDTAB
  0
ENDSEC
  0
SECTION
  2
BLOCKS
  0
BLOCK
  5
20
330
1F
100
AcDbEntity
  8
0
100
AcDbBlockBegin
  2
*Model_Space
 70
     0
 10
0.0
 20
0.0
 30
0.0
  3
*Model_Space
  1

  0
ENDBLK
  5
21
330
1F
100
AcDbEntity
  8
0
100
AcDbBlockEnd
  0
BLOCK
  5
1C
330
1B
100
AcDbEntity
 67
     1
  8
0
100
AcDbBlockBegin
  2
*Paper_Space
 70
     0
 10
0.0
 20
0.0
 30
0.0
  3
*Paper_Space
  1

  0
ENDBLK
  5
1D
330
1B
100
AcDbEntity
 67
     1
  8
0
100
AcDbBlockEnd
  0
BLOCK
  5
24
330
23
100
AcDbEntity
  8
0
100
AcDbBlockBegin
  2
*Paper_Space0
 70
     0
 10
0.0
 20
0.0
 30
0.0
  3
*Paper_Space0
  1

  0
ENDBLK
  5
25
330
23
100
AcDbEntity
  8
0
100
AcDbBlockEnd
  0
ENDSEC
  0
SECTION
  2
ENTITIES
  0
LINE
  5
48
330
1F
100
AcDbEntity
  8
F-1
  6
JWW_DASHED1
 62
     7
370
     9
100
AcDbLine
 10
5689.999719568203
 20
-352.4997977952702
 30
0.0
 11
3439.999719568202
 21
-352.4997977952702
 31
0.0
  0
LINE
  5
49
330
1F
100
AcDbEntity
  8
F-1
  6
JWW_DASHED1
 62
     7
370
     9
100
AcDbLine
 10
5689.999719568203
 20
-508.7498077830759
 30
0.0
 11
3439.999719568202
 21
-508.7498077830759
 31
0.0
  0
LINE
  5
4A
330
1F
100
AcDbEntity
  8
F-1
  6
JWW_DASHED1
 62
     7
370
     9
100
AcDbLine
 10
5689.999719568203
 20
-664.9998177708807
 30
0.0
 11
3439.999719568202
 21
-664.9998177708807
 31
0.0
  0
LINE
  5
4B
330
1F
100
AcDbEntity
  8
F-1
  6
JWW_DASHED1
 62
     7
370
     9
100
AcDbLine
 10
5689.999719568203
 20
-1133.749847734297
 30
0.0
 11
3439.999719568202
 21
-1133.749847734297
 31
0.0
  0
LINE
  5
4C
330
1F
100
AcDbEntity
  8
F-1
  6
JWW_DASHED1
 62
     7
370
     9
100
AcDbLine
 10
5689.999719568203
 20
-821.2498277586863
 30
0.0
 11
3439.999719568202
 21
-821.2498277586863
 31
0.0
  0
LINE
  5
4D
330
1F
100
AcDbEntity
  8
F-1
  6
JWW_DASHED1
 62
     7
370
     9
100
AcDbLine
 10
5689.999719568203
 20
-977.499837746491
 30
0.0
 11
3439.999719568202
 21
-977.499837746491
 31
0.0
  0
LINE
  5
4E
330
1F
100
AcDbEntity
  8
F-0
  6
JWW_HOJO
 62
   120
370
     5
100
AcDbLine
 10
-5989.99959584829
 20
3947.500379407728
 30
0.0
 11
5690.337474926098
 21
3947.500379407728
 31
0.0
  0
LINE
  5
4F
330
1F
100
AcDbEntity
  8
F-0
  6
JWW_HOJO
 62
   120
370
     5
100
AcDbLine
 10
-6300.0
 20
4424.999604096284
 30
0.0
 11
5999.999010240709
 21
4424.999604096284
 31
0.0
  0
LINE
  5
50
330
1F
100
AcDbEntity
  8
F-0
  6
JWW_HOJO
 62
   120
370
     5
100
AcDbLine
 10
-6300.0
 20
-4455.0
 30
0.0
 11
-6300.0
 21
4424.999604096284
 31
0.0
  0
LINE
  5
51
330
1F
100
AcDbEntity
  8
F-0
  6
JWW_HOJO
 62
   120
370
     5
100
AcDbLine
 10
5999.999010240709
 20
4424.999604096284
 30
0.0
 11
5999.999010240709
 21
-4455.0
 31
0.0
  0
LINE
  5
52
330
1F
100
AcDbEntity
  8
F-0
  6
JWW_HOJO
 62
   120
370
     5
100
AcDbLine
 10
5999.999010240709
 20
-4455.0
 30
0.0
 11
-6300.0
 21
-4455.0
 31
0.0
  0
LINE
  5
53
330
1F
100
AcDbEntity
  8
F-1
  6
Continuous
 62
   200
370
    20
100
AcDbLine
 10
-5999.999752560178
 20
4174.999769056166
 30
0.0
 11
5699.998762800888
 21
4174.999769056166
 31
0.0
  0
LINE
  5
54
330
1F
100
AcDbEntity
  8
F-1
  6
Continuous
 62
   200
370
    20
100
AcDbLine
 10
5699.998762800888
 20
4174.999769056166
 30
0.0
 11
5699.998762800888
 21
-4205.000164959882
 31
0.0
  0
LINE
  5
55
330
1F
100
AcDbEntity
  8
F-1
  6
Continuous
 62
   200
370
    20
100
AcDbLine
 10
-5999.99998453501
 20
4174.999769056166
 30
0.0
 11
-5999.99998453501
 21
-4205.000164959882
 31
0.0
  0
LINE
  5
56
330
1F
100
AcDbEntity
  8
F-1
  6
Continuous
 62
   200
370
    20
100
AcDbLine
 10
-5989.999990205507
 20
4174.999769056166
 30
0.0
 11
-5989.999990205507
 21
-4205.000164959882
 31
0.0
  0
LINE
  5
57
330
1F
100
AcDbEntity
  8
F-1
  6
Continuous
 62
   200
370
    20
100
AcDbLine
 10
-5999.999752560178
 20
4164.999983504013
 30
0.0
 11
5699.998762800888
 21
4164.999983504013
 31
0.0
  0
LINE
  5
58
330
1F
100
AcDbEntity
  8
F-1
  6
Continuous
 62
   200
370
    20
100
AcDbLine
 10
-5999.999752560178
 20
4169.999505120355
 30
0.0
 11
5699.998762800888
 21
4169.999505120355
 31
0.0
  0
LINE
  5
59
330
1F
100
AcDbEntity
  8
F-1
  6
Continuous
 62
   200
370
    20
100
AcDbLine
 10
-5994.999975771518
 20
4174.999769056166
 30
0.0
 11
-5994.999975771518
 21
-4205.000164959882
 31
0.0
  0
LINE
  5
5A
330
1F
100
AcDbEntity
  8
F-1
  6
Continuous
 62
   200
370
    20
100
AcDbLine
 10
5694.998498865077
 20
4174.999769056166
 30
0.0
 11
5694.998498865077
 21
-4205.000164959882
 31
0.0
  0
LINE
  5
5B
330
1F
100
AcDbEntity
  8
F-1
  6
Continuous
 62
   200
370
    20
100
AcDbLine
 10
5689.998977248734
 20
4174.999769056166
 30
0.0
 11
5689.998977248734
 21
-4205.000164959882
 31
0.0
  0
LINE
  5
5C
330
1F
100
AcDbEntity
  8
F-1
  6
Continuous
 62
   200
370
    20
100
AcDbLine
 10
-150.0008660393789
 20
4174.999769056166
 30
0.0
 11
-150.0008660393789
 21
-3795.000049487965
 31
0.0
  0
LINE
  5
5D
330
1F
100
AcDbEntity
  8
F-1
  6
Continuous
 62
   200
370
    20
100
AcDbLine
 10
-145.0009732633023
 20
4175.04801982158
 30
0.0
 11
-145.0009732633023
 21
-3795.000049487965
 31
0.0
  0
LINE
  5
5E
330
1F
100
AcDbEntity
  8
F-1
  6
Continuous
 62
   200
370
    20
100
AcDbLine
 10
-155.0007588154554
 20
4175.04801982158
 30
0.0
 11
-155.0007588154554
 21
-3795.000049487965
 31
0.0
  0
LINE
  5
5F
330
1F
100
AcDbEntity
  8
F-1
  6
Continuous
 62
   200
370
    20
100
AcDbLine
 10
5699.998762800888
 20
3710.000461887669
 30
0.0
 11
-5999.999752560178
 21
3710.000461887669
 31
0.0
  0
LINE
  5
60
330
1F
100
AcDbEntity
  8
F-1
  6
Continuous
 62
     7
370
     9
100
AcDbLine
 10
-2405.000758815456
 20
4175.04801982158
 30
0.0
 11
-2405.000758815456
 21
-3795.000049487965
 31
0.0
  0
LINE
  5
61
330
1F
100
AcDbEntity
  8
F-1
  6
Continuous
 62
     7
370
     9
100
AcDbLine
 10
904.9995216163429
 20
4175.04801982158
 30
0.0
 11
904.9995216163429
 21
-3795.000049487965
 31
0.0
  0
LINE
  5
62
330
1F
100
AcDbEntity
  8
F-1
  6
Continuous
 62
     7
370
     9
100
AcDbLine
 10
-4940.000028867979
 20
4174.999769056166
 30
0.0
 11
-4940.000028867979
 21
-3790.000017526987
 31
0.0
  0
LINE
  5
63
330
1F
100
AcDbEntity
  8
F-1
  6
Continuous
 62
     7
370
     9
100
AcDbLine
 10
3439.999719568202
 20
4174.999769056166
 30
0.0
 11
3439.999719568202
 21
-3790.000017526987
 31
0.0
  0
LINE
  5
64
330
1F
100
AcDbEntity
  8
F-1
  6
Continuous
 62
     7
370
     9
100
AcDbLine
 10
-2405.000758815456
 20
3947.500379407728
 30
0.0
 11
-1505.000758815456
 21
3947.500379407728
 31
0.0
  0
LINE
  5
65
330
1F
100
AcDbEntity
  8
F-1
  6
Continuous
 62
     7
370
     9
100
AcDbLine
 10
-635.0007588154554
 20
4175.048019821578
 30
0.0
 11
-635.0007588154554
 21
-3795.000049487966
 31
0.0
  0
LINE
  5
66
330
1F
100
AcDbEntity
  8
F-1
  6
Continuous
 62
     7
370
     9
100
AcDbLine
 10
-1505.000758815456
 20
4175.048019821578
 30
0.0
 11
-1505.000758815456
 21
-3795.000049487966
 31
0.0
  0
LINE
  5
67
330
1F
100
AcDbEntity
  8
0-0
  6
JWW_HOJO
 62
     7
370
     9
100
AcDbLine
 10
-1475.000758815456
 20
4175.048019821578
 30
0.0
 11
-1475.000758815456
 21
-3795.000049487966
 31
0.0
  0
LINE
  5
68
330
1F
100
AcDbEntity
  8
F-1
  6
Continuous
 62
     7
370
     9
100
AcDbLine
 10
3439.999719568202
 20
3947.452128642314
 30
0.0
 11
4339.999719568202
 21
3947.452128642314
 31
0.0
  0
LINE
  5
69
330
1F
100
AcDbEntity
  8
F-1
  6
Continuous
 62
     7
370
     9
100
AcDbLine
 10
4339.999719568202
 20
4174.999769056164
 30
0.0
 11
4339.999719568202
 21
-3795.04830025338
 31
0.0
  0
LINE
  5
6A
330
1F
100
AcDbEntity
  8
F-1
  6
Continuous
 62
     7
370
     9
100
AcDbLine
 10
5209.999719568203
 20
4174.999769056164
 30
0.0
 11
5209.999719568203
 21
-3795.04830025338
 31
0.0
  0
LINE
  5
6B
330
1F
100
AcDbEntity
  8
0-0
  6
JWW_HOJO
 62
     7
370
     9
100
AcDbLine
 10
4369.999719568202
 20
4174.999769056164
 30
0.0
 11
4369.999719568202
 21
-3795.04830025338
 31
0.0
  0
LINE
  5
6C
330
1F
100
AcDbEntity
  8
F-0
  6
JWW_HOJO
 62
     7
370
     9
100
AcDbLine
 10
2.4993896484375
 20
4164.999983504013
 30
0.0
 11
2.4993896484375
 21
-3790.080698374155
 31
0.0
  0
LINE
  5
6D
330
1F
100
AcDbEntity
  8
F-0
  6
JWW_HOJO
 62
     7
370
     9
100
AcDbLine
 10
-3672.500393841717
 20
3710.000461887669
 30
0.0
 11
-3672.500393841717
 21
-3790.000017526987
 31
0.0
  0
LINE
  5
6E
330
1F
100
AcDbEntity
  8
F-0
  6
JWW_HOJO
 62
     7
370
     9
100
AcDbLine
 10
-5839.999982473011
 20
4164.999983504013
 30
0.0
 11
-5839.999982473011
 21
-3785.470894478463
 31
0.0
  0
LINE
  5
6F
330
1F
100
AcDbEntity
  8
F-1
  6
Continuous
 62
   200
370
    20
100
AcDbLine
 10
5699.998762800888
 20
3720.000247440669
 30
0.0
 11
-5999.999752560178
 21
3720.000247440669
 31
0.0
  0
LINE
  5
70
330
1F
100
AcDbEntity
  8
F-0
  6
JWW_HOJO
 62
     7
370
     9
100
AcDbLine
 10
2172.499156642605
 20
3710.000461887669
 30
0.0
 11
2172.499156642605
 21
-3790.000017526987
 31
0.0
  0
LINE
  5
71
330
1F
100
AcDbEntity
  8
F-1
  6
JWW_DASHED1
 62
     7
370
     9
100
AcDbLine
 10
-155.0007588154554
 20
3553.750451899864
 30
0.0
 11
-2405.000758815456
 21
3553.750451899864
 31
0.0
  0
LINE
  5
72
330
1F
100
AcDbEntity
  8
F-1
  6
JWW_DASHED1
 62
     7
370
     9
100
AcDbLine
 10
-155.0007588154554
 20
2616.250391973032
 30
0.0
 11
-2405.000758815456
 21
2616.250391973032
 31
0.0
  0
LINE
  5
73
330
1F
100
AcDbEntity
  8
F-1
  6
JWW_DASHED1
 62
     7
370
     9
100
AcDbLine
 10
-155.0007588154554
 20
3397.500441912059
 30
0.0
 11
-2405.000758815456
 21
3397.500441912059
 31
0.0
  0
LINE
  5
74
330
1F
100
AcDbEntity
  8
F-1
  6
JWW_DASHED1
 62
     7
370
     9
100
AcDbLine
 10
-155.0007588154554
 20
3241.250431924253
 30
0.0
 11
-2405.000758815456
 21
3241.250431924253
 31
0.0
  0
LINE
  5
75
330
1F
100
AcDbEntity
  8
F-1
  6
JWW_DASHED1
 62
     7
370
     9
100
AcDbLine
 10
-155.0007588154554
 20
3085.000421936448
 30
0.0
 11
-2405.000758815456
 21
3085.000421936448
 31
0.0
  0
LINE
  5
76
330
1F
100
AcDbEntity
  8
F-1
  6
JWW_DASHED1
 62
     7
370
     9
100
AcDbLine
 10
-155.0007588154554
 20
2928.750411948643
 30
0.0
 11
-2405.000758815456
 21
2928.750411948643
 31
0.0
  0
LINE
  5
77
330
1F
100
AcDbEntity
  8
F-1
  6
JWW_DASHED1
 62
     7
370
     9
100
AcDbLine
 10
-155.0007588154554
 20
2772.500401960837
 30
0.0
 11
-2405.000758815456
 21
2772.500401960837
 31
0.0
  0
LINE
  5
78
330
1F
100
AcDbEntity
  8
F-1
  6
JWW_DASHED1
 62
     7
370
     9
100
AcDbLine
 10
-155.0007588154554
 20
2303.750371997421
 30
0.0
 11
-2405.000758815456
 21
2303.750371997421
 31
0.0
  0
LINE
  5
79
330
1F
100
AcDbEntity
  8
F-1
  6
JWW_DASHED1
 62
     7
370
     9
100
AcDbLine
 10
-155.0007588154554
 20
1366.250312070589
 30
0.0
 11
-2405.000758815456
 21
1366.250312070589
 31
0.0
  0
LINE
  5
7A
330
1F
100
AcDbEntity
  8
F-1
  6
JWW_DASHED1
 62
     7
370
     9
100
AcDbLine
 10
-155.0007588154554
 20
2147.500362009616
 30
0.0
 11
-2405.000758815456
 21
2147.500362009616
 31
0.0
  0
LINE
  5
7B
330
1F
100
AcDbEntity
  8
F-1
  6
JWW_DASHED1
 62
     7
370
     9
100
AcDbLine
 10
-155.0007588154554
 20
1991.25035202181
 30
0.0
 11
-2405.000758815456
 21
1991.25035202181
 31
0.0
  0
LINE
  5
7C
330
1F
100
AcDbEntity
  8
F-1
  6
JWW_DASHED1
 62
     7
370
     9
100
AcDbLine
 10
-155.0007588154554
 20
1835.000342034005
 30
0.0
 11
-2405.000758815456
 21
1835.000342034005
 31
0.0
  0
LINE
  5
7D
330
1F
100
AcDbEntity
  8
F-1
  6
JWW_DASHED1
 62
     7
370
     9
100
AcDbLine
 10
-155.0007588154554
 20
1678.7503320462
 30
0.0
 11
-2405.000758815456
 21
1678.7503320462
 31
0.0
  0
LINE
  5
7E
330
1F
100
AcDbEntity
  8
F-1
  6
JWW_DASHED1
 62
     7
370
     9
100
AcDbLine
 10
-155.0007588154554
 20
1522.500322058395
 30
0.0
 11
-2405.000758815456
 21
1522.500322058395
 31
0.0
  0
LINE
  5
7F
330
1F
100
AcDbEntity
  8
F-1
  6
JWW_DASHED1
 62
     7
370
     9
100
AcDbLine
 10
-155.0007588154554
 20
1053.750292094978
 30
0.0
 11
-2405.000758815456
 21
1053.750292094978
 31
0.0
  0
LINE
  5
80
330
1F
100
AcDbEntity
  8
F-1
  6
JWW_DASHED1
 62
     7
370
     9
100
AcDbLine
 10
-155.0007588154554
 20
116.2502321681467
 30
0.0
 11
-2405.000758815456
 21
116.2502321681467
 31
0.0
  0
LINE
  5
81
330
1F
100
AcDbEntity
  8
F-1
  6
JWW_DASHED1
 62
     7
370
     9
100
AcDbLine
 10
-155.0007588154554
 20
897.5002821071723
 30
0.0
 11
-2405.000758815456
 21
897.5002821071723
 31
0.0
  0
LINE
  5
82
330
1F
100
AcDbEntity
  8
F-1
  6
JWW_DASHED1
 62
     7
370
     9
100
AcDbLine
 10
-155.0007588154554
 20
741.2502721193675
 30
0.0
 11
-2405.000758815456
 21
741.2502721193675
 31
0.0
  0
LINE
  5
83
330
1F
100
AcDbEntity
  8
F-1
  6
JWW_DASHED1
 62
     7
370
     9
100
AcDbLine
 10
-155.0007588154554
 20
585.0002621315627
 30
0.0
 11
-2405.000758815456
 21
585.0002621315627
 31
0.0
  0
LINE
  5
84
330
1F
100
AcDbEntity
  8
F-1
  6
JWW_DASHED1
 62
     7
370
     9
100
AcDbLine
 10
-155.0007588154554
 20
428.7502521437571
 30
0.0
 11
-2405.000758815456
 21
428.7502521437571
 31
0.0
  0
LINE
  5
85
330
1F
100
AcDbEntity
  8
F-1
  6
JWW_DASHED1
 62
     7
370
     9
100
AcDbLine
 10
-155.0007588154554
 20
272.5002421559515
 30
0.0
 11
-2405.000758815456
 21
272.5002421559515
 31
0.0
  0
LINE
  5
86
330
1F
100
AcDbEntity
  8
F-1
  6
JWW_DASHED1
 62
     7
370
     9
100
AcDbLine
 10
-155.0007588154554
 20
-196.2497878074646
 30
0.0
 11
-2405.000758815456
 21
-196.2497878074646
 31
0.0
  0
LINE
  5
87
330
1F
100
AcDbEntity
  8
F-1
  6
JWW_DASHED1
 62
     7
370
     9
100
AcDbLine
 10
-155.0007588154554
 20
-1133.749847734296
 30
0.0
 11
-2405.000758815456
 21
-1133.749847734296
 31
0.0
  0
LINE
  5
88
330
1F
100
AcDbEntity
  8
F-1
  6
JWW_DASHED1
 62
     7
370
     9
100
AcDbLine
 10
-155.0007588154554
 20
-352.4997977952702
 30
0.0
 11
-2405.000758815456
 21
-352.4997977952702
 31
0.0
  0
LINE
  5
89
330
1F
100
AcDbEntity
  8
F-1
  6
JWW_DASHED1
 62
     7
370
     9
100
AcDbLine
 10
-155.0007588154554
 20
-508.7498077830759
 30
0.0
 11
-2405.000758815456
 21
-508.7498077830759
 31
0.0
  0
LINE
  5
8A
330
1F
100
AcDbEntity
  8
F-1
  6
JWW_DASHED1
 62
     7
370
     9
100
AcDbLine
 10
-155.0007588154554
 20
-664.9998177708807
 30
0.0
 11
-2405.000758815456
 21
-664.9998177708807
 31
0.0
  0
LINE
  5
8B
330
1F
100
AcDbEntity
  8
F-1
  6
JWW_DASHED1
 62
     7
370
     9
100
AcDbLine
 10
-155.0007588154554
 20
-821.2498277586859
 30
0.0
 11
-2405.000758815456
 21
-821.2498277586859
 31
0.0
  0
LINE
  5
8C
330
1F
100
AcDbEntity
  8
F-1
  6
JWW_DASHED1
 62
     7
370
     9
100
AcDbLine
 10
-155.0007588154554
 20
-977.499837746491
 30
0.0
 11
-2405.000758815456
 21
-977.499837746491
 31
0.0
  0
LINE
  5
8D
330
1F
100
AcDbEntity
  8
F-1
  6
JWW_DASHED1
 62
     7
370
     9
100
AcDbLine
 10
-155.0007588154554
 20
-1446.249867709908
 30
0.0
 11
-2405.000758815456
 21
-1446.249867709908
 31
0.0
  0
LINE
  5
8E
330
1F
100
AcDbEntity
  8
F-1
  6
JWW_DASHED1
 62
     7
370
     9
100
AcDbLine
 10
-155.0007588154554
 20
-2383.749927636739
 30
0.0
 11
-2405.000758815456
 21
-2383.749927636739
 31
0.0
  0
LINE
  5
8F
330
1F
100
AcDbEntity
  8
F-1
  6
JWW_DASHED1
 62
     7
370
     9
100
AcDbLine
 10
-155.0007588154554
 20
-1602.499877697713
 30
0.0
 11
-2405.000758815456
 21
-1602.499877697713
 31
0.0
  0
LINE
  5
90
330
1F
100
AcDbEntity
  8
F-1
  6
JWW_DASHED1
 62
     7
370
     9
100
AcDbLine
 10
-155.0007588154554
 20
-1758.749887685518
 30
0.0
 11
-2405.000758815456
 21
-1758.749887685518
 31
0.0
  0
LINE
  5
91
330
1F
100
AcDbEntity
  8
F-1
  6
JWW_DASHED1
 62
     7
370
     9
100
AcDbLine
 10
-155.0007588154554
 20
-1914.999897673323
 30
0.0
 11
-2405.000758815456
 21
-1914.999897673323
 31
0.0
  0
LINE
  5
92
330
1F
100
AcDbEntity
  8
F-1
  6
JWW_DASHED1
 62
     7
370
     9
100
AcDbLine
 10
-155.0007588154554
 20
-2071.249907661128
 30
0.0
 11
-2405.000758815456
 21
-2071.249907661128
 31
0.0
  0
LINE
  5
93
330
1F
100
AcDbEntity
  8
F-1
  6
JWW_DASHED1
 62
     7
370
     9
100
AcDbLine
 10
-155.0007588154554
 20
-2227.499917648934
 30
0.0
 11
-2405.000758815456
 21
-2227.499917648934
 31
0.0
  0
LINE
  5
94
330
1F
100
AcDbEntity
  8
F-1
  6
JWW_DASHED1
 62
     7
370
     9
100
AcDbLine
 10
-155.0007588154554
 20
-2696.24994761235
 30
0.0
 11
-2405.000758815456
 21
-2696.24994761235
 31
0.0
  0
LINE
  5
95
330
1F
100
AcDbEntity
  8
F-1
  6
JWW_DASHED1
 62
     7
370
     9
100
AcDbLine
 10
-155.0007588154554
 20
-2852.499957600156
 30
0.0
 11
-2405.000758815456
 21
-2852.499957600156
 31
0.0
  0
LINE
  5
96
330
1F
100
AcDbEntity
  8
F-1
  6
JWW_DASHED1
 62
     7
370
     9
100
AcDbLine
 10
-155.0007588154554
 20
-3008.749967587961
 30
0.0
 11
-2405.000758815456
 21
-3008.749967587961
 31
0.0
  0
LINE
  5
97
330
1F
100
AcDbEntity
  8
F-1
  6
JWW_DASHED1
 62
     7
370
     9
100
AcDbLine
 10
-155.0007588154554
 20
-3164.999977575766
 30
0.0
 11
-2405.000758815456
 21
-3164.999977575766
 31
0.0
  0
LINE
  5
98
330
1F
100
AcDbEntity
  8
F-1
  6
JWW_DASHED1
 62
     7
370
     9
100
AcDbLine
 10
-155.0007588154554
 20
-3321.249987563571
 30
0.0
 11
-2405.000758815456
 21
-3321.249987563571
 31
0.0
  0
LINE
  5
99
330
1F
100
AcDbEntity
  8
F-1
  6
JWW_DASHED1
 62
     7
370
     9
100
AcDbLine
 10
-155.0007588154554
 20
-3477.499997551376
 30
0.0
 11
-2405.000758815456
 21
-3477.499997551376
 31
0.0
  0
LINE
  5
9A
330
1F
100
AcDbEntity
  8
F-1
  6
JWW_DASHED1
 62
     7
370
     9
100
AcDbLine
 10
5689.999719568203
 20
-3321.249987563571
 30
0.0
 11
3439.999719568202
 21
-3321.249987563571
 31
0.0
  0
LINE
  5
9B
330
1F
100
AcDbEntity
  8
F-1
  6
JWW_DASHED1
 62
     7
370
     9
100
AcDbLine
 10
5689.999719568203
 20
-3477.499997551376
 30
0.0
 11
3439.999719568202
 21
-3477.499997551376
 31
0.0
  0
LINE
  5
9C
330
1F
100
AcDbEntity
  8
F-1
  6
JWW_DASHED1
 62
     7
370
     9
100
AcDbLine
 10
5689.999719568203
 20
3553.750451899864
 30
0.0
 11
3439.999719568202
 21
3553.750451899864
 31
0.0
  0
LINE
  5
9D
330
1F
100
AcDbEntity
  8
F-1
  6
JWW_DASHED1
 62
     7
370
     9
100
AcDbLine
 10
5689.999719568203
 20
2616.250391973032
 30
0.0
 11
3439.999719568202
 21
2616.250391973032
 31
0.0
  0
LINE
  5
9E
330
1F
100
AcDbEntity
  8
F-1
  6
JWW_DASHED1
 62
     7
370
     9
100
AcDbLine
 10
5689.999719568203
 20
3397.500441912059
 30
0.0
 11
3439.999719568202
 21
3397.500441912059
 31
0.0
  0
LINE
  5
9F
330
1F
100
AcDbEntity
  8
F-1
  6
JWW_DASHED1
 62
     7
370
     9
100
AcDbLine
 10
5689.999719568203
 20
3241.250431924253
 30
0.0
 11
3439.999719568202
 21
3241.250431924253
 31
0.0
  0
LINE
  5
A0
330
1F
100
AcDbEntity
  8
F-1
  6
JWW_DASHED1
 62
     7
370
     9
100
AcDbLine
 10
5689.999719568203
 20
3085.000421936448
 30
0.0
 11
3439.999719568202
 21
3085.000421936448
 31
0.0
  0
LINE
  5
A1
330
1F
100
AcDbEntity
  8
F-1
  6
JWW_DASHED1
 62
     7
370
     9
100
AcDbLine
 10
5689.999719568203
 20
2928.750411948642
 30
0.0
 11
3439.999719568202
 21
2928.750411948642
 31
0.0
  0
LINE
  5
A2
330
1F
100
AcDbEntity
  8
F-1
  6
JWW_DASHED1
 62
     7
370
     9
100
AcDbLine
 10
5689.999719568203
 20
2772.500401960837
 30
0.0
 11
3439.999719568202
 21
2772.500401960837
 31
0.0
  0
LINE
  5
A3
330
1F
100
AcDbEntity
  8
F-1
  6
JWW_DASHED1
 62
     7
370
     9
100
AcDbLine
 10
5689.999719568203
 20
2303.750371997421
 30
0.0
 11
3439.999719568202
 21
2303.750371997421
 31
0.0
  0
LINE
  5
A4
330
1F
100
AcDbEntity
  8
F-1
  6
JWW_DASHED1
 62
     7
370
     9
100
AcDbLine
 10
5689.999719568203
 20
1366.250312070589
 30
0.0
 11
3439.999719568202
 21
1366.250312070589
 31
0.0
  0
LINE
  5
A5
330
1F
100
AcDbEntity
  8
F-1
  6
JWW_DASHED1
 62
     7
370
     9
100
AcDbLine
 10
5689.999719568203
 20
2147.500362009616
 30
0.0
 11
3439.999719568202
 21
2147.500362009616
 31
0.0
  0
LINE
  5
A6
330
1F
100
AcDbEntity
  8
F-1
  6
JWW_DASHED1
 62
     7
370
     9
100
AcDbLine
 10
5689.999719568203
 20
1991.25035202181
 30
0.0
 11
3439.999719568202
 21
1991.25035202181
 31
0.0
  0
LINE
  5
A7
330
1F
100
AcDbEntity
  8
F-1
  6
JWW_DASHED1
 62
     7
370
     9
100
AcDbLine
 10
5689.999719568203
 20
1835.000342034005
 30
0.0
 11
3439.999719568202
 21
1835.000342034005
 31
0.0
  0
LINE
  5
A8
330
1F
100
AcDbEntity
  8
F-1
  6
JWW_DASHED1
 62
     7
370
     9
100
AcDbLine
 10
5689.999719568203
 20
1678.7503320462
 30
0.0
 11
3439.999719568202
 21
1678.7503320462
 31
0.0
  0
LINE
  5
A9
330
1F
100
AcDbEntity
  8
F-1
  6
JWW_DASHED1
 62
     7
370
     9
100
AcDbLine
 10
5689.999719568203
 20
1522.500322058395
 30
0.0
 11
3439.999719568202
 21
1522.500322058395
 31
0.0
  0
LINE
  5
AA
330
1F
100
AcDbEntity
  8
F-1
  6
JWW_DASHED1
 62
     7
370
     9
100
AcDbLine
 10
5689.999719568203
 20
116.2502321681467
 30
0.0
 11
3439.999719568202
 21
116.2502321681467
 31
0.0
  0
LINE
  5
AB
330
1F
100
AcDbEntity
  8
F-1
  6
JWW_DASHED1
 62
     7
370
     9
100
AcDbLine
 10
5689.999719568203
 20
897.5002821071723
 30
0.0
 11
3439.999719568202
 21
897.5002821071723
 31
0.0
  0
LINE
  5
AC
330
1F
100
AcDbEntity
  8
F-1
  6
JWW_DASHED1
 62
     7
370
     9
100
AcDbLine
 10
5689.999719568203
 20
741.2502721193675
 30
0.0
 11
3439.999719568202
 21
741.2502721193675
 31
0.0
  0
LINE
  5
AD
330
1F
100
AcDbEntity
  8
F-1
  6
JWW_DASHED1
 62
     7
370
     9
100
AcDbLine
 10
5689.999719568203
 20
585.0002621315627
 30
0.0
 11
3439.999719568202
 21
585.0002621315627
 31
0.0
  0
LINE
  5
AE
330
1F
100
AcDbEntity
  8
F-1
  6
JWW_DASHED1
 62
     7
370
     9
100
AcDbLine
 10
5689.999719568203
 20
428.7502521437563
 30
0.0
 11
3439.999719568202
 21
428.7502521437563
 31
0.0
  0
LINE
  5
AF
330
1F
100
AcDbEntity
  8
F-1
  6
JWW_DASHED1
 62
     7
370
     9
100
AcDbLine
 10
5689.999719568203
 20
272.5002421559515
 30
0.0
 11
3439.999719568202
 21
272.5002421559515
 31
0.0
  0
LINE
  5
B0
330
1F
100
AcDbEntity
  8
F-1
  6
Continuous
 62
     7
370
     9
100
AcDbLine
 10
5699.998762800888
 20
2460.000381985226
 30
0.0
 11
904.9995216163429
 21
2460.000381985226
 31
0.0
  0
LINE
  5
B1
330
1F
100
AcDbEntity
  8
F-1
  6
Continuous
 62
     7
370
     9
100
AcDbLine
 10
-155.0007588154554
 20
2460.000381985226
 30
0.0
 11
-4940.000028867979
 21
2460.000381985226
 31
0.0
  0
LINE
  5
B2
330
1F
100
AcDbEntity
  8
F-1
  6
Continuous
 62
     7
370
     9
100
AcDbLine
 10
5699.998762800888
 20
1210.000302082783
 30
0.0
 11
904.9995216163429
 21
1210.000302082783
 31
0.0
  0
LINE
  5
B3
330
1F
100
AcDbEntity
  8
F-1
  6
Continuous
 62
     7
370
     9
100
AcDbLine
 10
5699.998762800888
 20
-39.99977781965981
 30
0.0
 11
904.9995216163429
 21
-39.99977781965981
 31
0.0
  0
LINE
  5
B4
330
1F
100
AcDbEntity
  8
F-1
  6
Continuous
 62
     7
370
     9
100
AcDbLine
 10
-155.0007588154554
 20
-39.99977781965981
 30
0.0
 11
-4940.000028867979
 21
-39.99977781965981
 31
0.0
  0
LINE
  5
B5
330
1F
100
AcDbEntity
  8
F-1
  6
Continuous
 62
     7
370
     9
100
AcDbLine
 10
5699.998762800888
 20
-1289.999857722102
 30
0.0
 11
904.9995216163429
 21
-1289.999857722102
 31
0.0
  0
LINE
  5
B6
330
1F
100
AcDbEntity
  8
F-1
  6
Continuous
 62
     7
370
     9
100
AcDbLine
 10
-145.0009732633023
 20
-1289.999857722102
 30
0.0
 11
-4940.000028867979
 21
-1289.999857722102
 31
0.0
  0
LINE
  5
B7
330
1F
100
AcDbEntity
  8
F-1
  6
JWW_DASHED1
 62
     7
370
     9
100
AcDbLine
 10
5689.999719568203
 20
-1914.999897673323
 30
0.0
 11
3439.999719568202
 21
-1914.999897673323
 31
0.0
  0
LINE
  5
B8
330
1F
100
AcDbEntity
  8
F-1
  6
JWW_DASHED1
 62
     7
370
     9
100
AcDbLine
 10
5689.999719568203
 20
-2071.249907661129
 30
0.0
 11
3439.999719568202
 21
-2071.249907661129
 31
0.0
  0
LINE
  5
B9
330
1F
100
AcDbEntity
  8
F-1
  6
JWW_DASHED1
 62
     7
370
     9
100
AcDbLine
 10
5689.999719568203
 20
-1602.499877697713
 30
0.0
 11
3439.999719568202
 21
-1602.499877697713
 31
0.0
  0
LINE
  5
BA
330
1F
100
AcDbEntity
  8
F-1
  6
JWW_DASHED1
 62
     7
370
     9
100
AcDbLine
 10
5689.999719568203
 20
-1758.749887685518
 30
0.0
 11
3439.999719568202
 21
-1758.749887685518
 31
0.0
  0
LINE
  5
BB
330
1F
100
AcDbEntity
  8
F-1
  6
JWW_DASHED1
 62
     7
370
     9
100
AcDbLine
 10
5689.999719568203
 20
-3164.999977575766
 30
0.0
 11
3439.999719568202
 21
-3164.999977575766
 31
0.0
  0
LINE
  5
BC
330
1F
100
AcDbEntity
  8
F-1
  6
JWW_DASHED1
 62
     7
370
     9
100
AcDbLine
 10
5689.999719568203
 20
-2383.749927636739
 30
0.0
 11
3439.999719568202
 21
-2383.749927636739
 31
0.0
  0
LINE
  5
BD
330
1F
100
AcDbEntity
  8
F-1
  6
JWW_DASHED1
 62
     7
370
     9
100
AcDbLine
 10
5689.999719568203
 20
-2227.499917648934
 30
0.0
 11
3439.999719568202
 21
-2227.499917648934
 31
0.0
  0
LINE
  5
BE
330
1F
100
AcDbEntity
  8
F-1
  6
JWW_DASHED1
 62
     7
370
     9
100
AcDbLine
 10
5689.999719568203
 20
-2852.499957600156
 30
0.0
 11
3439.999719568202
 21
-2852.499957600156
 31
0.0
  0
LINE
  5
BF
330
1F
100
AcDbEntity
  8
F-1
  6
JWW_DASHED1
 62
     7
370
     9
100
AcDbLine
 10
5689.999719568203
 20
-3008.749967587961
 30
0.0
 11
3439.999719568202
 21
-3008.749967587961
 31
0.0
  0
LINE
  5
C0
330
1F
100
AcDbEntity
  8
F-1
  6
JWW_DASHED1
 62
     7
370
     9
100
AcDbLine
 10
5689.999719568203
 20
1053.750292094977
 30
0.0
 11
3439.999719568202
 21
1053.750292094977
 31
0.0
  0
LINE
  5
C1
330
1F
100
AcDbEntity
  8
F-1
  6
JWW_DASHED1
 62
     7
370
     9
100
AcDbLine
 10
5689.999719568203
 20
-196.2497878074655
 30
0.0
 11
3439.999719568202
 21
-196.2497878074655
 31
0.0
  0
LINE
  5
C2
330
1F
100
AcDbEntity
  8
F-1
  6
JWW_DASHED1
 62
     7
370
     9
100
AcDbLine
 10
5689.999719568203
 20
-1446.249867709908
 30
0.0
 11
3439.999719568202
 21
-1446.249867709908
 31
0.0
  0
LINE
  5
C3
330
1F
100
AcDbEntity
  8
F-1
  6
JWW_DASHED1
 62
     7
370
     9
100
AcDbLine
 10
5689.999719568203
 20
-2696.249947612351
 30
0.0
 11
3439.999719568202
 21
-2696.249947612351
 31
0.0
  0
LINE
  5
C4
330
1F
100
AcDbEntity
  8
F-1
  6
JWW_DASHED1
 62
     7
370
     9
100
AcDbLine
 10
-155.0007588154554
 20
-3633.750007539181
 30
0.0
 11
-2405.000758815456
 21
-3633.750007539181
 31
0.0
  0
LINE
  5
C5
330
1F
100
AcDbEntity
  8
F-1
  6
JWW_DASHED1
 62
     7
370
     9
100
AcDbLine
 10
5689.999719568203
 20
-3633.750007539181
 30
0.0
 11
3439.999719568202
 21
-3633.750007539181
 31
0.0
  0
LINE
  5
C6
330
1F
100
AcDbEntity
  8
F-0
  6
JWW_HOJO
 62
     7
370
     9
100
AcDbLine
 10
849.9995876002961
 20
-3795.000003092998
 30
0.0
 11
849.9995876002961
 21
-4195.000008247994
 31
0.0
  0
LINE
  5
C7
330
1F
100
AcDbEntity
  8
F-0
  6
JWW_HOJO
 62
     7
370
     9
100
AcDbLine
 10
349.9999175200594
 20
-3795.000003092998
 30
0.0
 11
349.9999175200594
 21
-4195.000008247994
 31
0.0
  0
LINE
  5
C8
330
1F
100
AcDbEntity
  8
F-1
  6
Continuous
 62
   200
370
    20
100
AcDbLine
 10
5699.998762800888
 20
-4205.000002577498
 30
0.0
 11
-5999.999752560178
 21
-4205.000002577498
 31
0.0
  0
LINE
  5
C9
330
1F
100
AcDbEntity
  8
F-1
  6
Continuous
 62
   200
370
    20
100
AcDbLine
 10
5699.998762800888
 20
-4199.999993814004
 30
0.0
 11
-5999.999752560178
 21
-4199.999993814004
 31
0.0
  0
LINE
  5
CA
330
1F
100
AcDbEntity
  8
F-1
  6
Continuous
 62
   200
370
    20
100
AcDbLine
 10
5699.998762800888
 20
-4195.000008247994
 30
0.0
 11
-5999.999752560178
 21
-4195.000008247994
 31
0.0
  0
LINE
  5
CB
330
1F
100
AcDbEntity
  8
F-1
  6
Continuous
 62
   200
370
    20
100
AcDbLine
 10
4189.999224688556
 20
-3795.000003092998
 30
0.0
 11
4189.999224688556
 21
-4195.000008247994
 31
0.0
  0
LINE
  5
CC
330
1F
100
AcDbEntity
  8
F-1
  6
Continuous
 62
   200
370
    20
100
AcDbLine
 10
2689.998729808911
 20
-3795.000003092998
 30
0.0
 11
2689.998729808911
 21
-4195.000008247994
 31
0.0
  0
LINE
  5
CD
330
1F
100
AcDbEntity
  8
F-1
  6
Continuous
 62
   200
370
    20
100
AcDbLine
 10
-150.0001237199109
 20
-3795.000003092998
 30
0.0
 11
-150.0001237199109
 21
-4195.000008247994
 31
0.0
  0
LINE
  5
CE
330
1F
100
AcDbEntity
  8
F-1
  6
Continuous
 62
   200
370
    20
100
AcDbLine
 10
-150.0001237199109
 20
-3994.999936078046
 30
0.0
 11
5689.998977248734
 21
-3995.005364289155
 31
0.0
  0
LINE
  5
CF
330
1F
100
AcDbEntity
  8
F-0
  6
JWW_HOJO
 62
     7
370
     9
100
AcDbLine
 10
-5989.999990205507
 20
-3994.99993607839
 30
0.0
 11
-150.0001237199109
 21
-3994.99993607839
 31
0.0
  0
LINE
  5
D0
330
1F
100
AcDbEntity
  8
F-0
  6
JWW_HOJO
 62
     7
370
     9
100
AcDbLine
 10
-5989.999990205507
 20
-3904.99993607839
 30
0.0
 11
-150.0001237199109
 21
-3904.99993607839
 31
0.0
  0
LINE
  5
D1
330
1F
100
AcDbEntity
  8
F-0
  6
JWW_HOJO
 62
     7
370
     9
100
AcDbLine
 10
-5989.999990205507
 20
-4084.99993607839
 30
0.0
 11
-150.0001237199109
 21
-4084.99993607839
 31
0.0
  0
LINE
  5
D2
330
1F
100
AcDbEntity
  8
F-0
  6
JWW_HOJO
 62
     7
370
     9
100
AcDbLine
 10
-150.0002584955388
 20
-4139.999739777983
 30
0.0
 11
5689.998842473105
 21
-4140.005167989091
 31
0.0
  0
LINE
  5
D3
330
1F
100
AcDbEntity
  8
F-0
  6
JWW_HOJO
 62
     7
370
     9
100
AcDbLine
 10
-150.0001748415872
 20
-4049.999739778022
 30
0.0
 11
5689.998926127057
 21
-4050.005167989131
 31
0.0
  0
LINE
  5
D4
330
1F
100
AcDbEntity
  8
F-0
  6
JWW_HOJO
 62
     7
370
     9
100
AcDbLine
 10
-150.0000725978671
 20
-3939.99973721807
 30
0.0
 11
5689.999028370777
 21
-3940.005165429179
 31
0.0
  0
LINE
  5
D5
330
1F
100
AcDbEntity
  8
F-0
  6
JWW_HOJO
 62
     7
370
     9
100
AcDbLine
 10
-149.9999889439155
 20
-3849.999737218109
 30
0.0
 11
5689.999112024728
 21
-3850.005165429218
 31
0.0
  0
LINE
  5
D6
330
1F
100
AcDbEntity
  8
F-0
  6
JWW_HOJO
 62
     7
370
     9
100
AcDbLine
 10
2779.998729808911
 20
-3795.000003092998
 30
0.0
 11
2779.998729808911
 21
-4195.000008247994
 31
0.0
  0
LINE
  5
D7
330
1F
100
AcDbEntity
  8
F-0
  6
JWW_HOJO
 62
     7
370
     9
100
AcDbLine
 10
-60.0001237199109
 20
-3795.000003092998
 30
0.0
 11
-60.0001237199109
 21
-4195.000008247994
 31
0.0
  0
LINE
  5
D8
330
1F
100
AcDbEntity
  8
F-0
  6
JWW_HOJO
 62
     7
370
     9
100
AcDbLine
 10
4279.999224688556
 20
-3795.000003092998
 30
0.0
 11
4279.999224688556
 21
-4195.000008247994
 31
0.0
  0
LINE
  5
D9
330
1F
100
AcDbEntity
  8
F-1
  6
Continuous
 62
   200
370
    20
100
AcDbLine
 10
5699.998762800888
 20
-3795.000003092998
 30
0.0
 11
-5999.999752560178
 21
-3795.000003092998
 31
0.0
  0
LINE
  5
DA
330
1F
100
AcDbEntity
  8
F-1
  6
Continuous
 62
   200
370
    20
100
AcDbLine
 10
5699.998762800888
 20
-3790.000017526987
 30
0.0
 11
-5999.999752560178
 21
-3790.000017526987
 31
0.0
  0
LINE
  5
DB
330
1F
100
AcDbEntity
  8
F-0
  6
JWW_HOJO
 62
     7
370
     9
100
AcDbLine
 10
-5247.547376752838
 20
-3795.000003092999
 30
0.0
 11
-5247.547376752838
 21
-4205.000164959882
 31
0.0
  0
LINE
  5
DC
330
1F
100
AcDbEntity
  8
F-0
  6
JWW_HOJO
 62
     7
370
     9
100
AcDbLine
 10
-210.0001237199109
 20
-3795.000003092998
 30
0.0
 11
-210.0001237199109
 21
-4195.000008247994
 31
0.0
  0
MTEXT
  5
DD
330
1F
100
AcDbEntity
  8
F-1
  6
Continuous
 62
     7
370
     0
100
AcDbMText
 10
-2082.500758815456
 20
3984.827681455869
 30
0.0
 40
97.15499999999999
 41
255.0
 46
0.0
 71
     7
 72
     1
  1
{\fＭＳ ゴシック|b0|i0|c128|p49;寸法}
 73
     1
 44
1.0
  0
MTEXT
  5
DE
330
1F
100
AcDbEntity
  8
F-1
  6
Continuous
 62
     7
370
     0
100
AcDbMText
 10
-522.5007588154554
 20
3984.827681455869
 30
0.0
 40
97.15499999999999
 41
255.0
 46
0.0
 71
     7
 72
     1
  1
{\fＭＳ ゴシック|b0|i0|c128|p49;発注}
 73
     1
 44
1.0
  0
MTEXT
  5
DF
330
1F
100
AcDbEntity
  8
F-1
  6
Continuous
 62
     7
370
     0
100
AcDbMText
 10
3762.499719568202
 20
3984.779430690454
 30
0.0
 40
97.15499999999999
 41
255.0
 46
0.0
 71
     7
 72
     1
  1
{\fＭＳ ゴシック|b0|i0|c128|p49;寸法}
 73
     1
 44
1.0
  0
MTEXT
  5
E0
330
1F
100
AcDbEntity
  8
F-1
  6
Continuous
 62
     7
370
     0
100
AcDbMText
 10
5322.499719568203
 20
3984.779430690454
 30
0.0
 40
97.15499999999999
 41
255.0
 46
0.0
 71
     7
 72
     1
  1
{\fＭＳ ゴシック|b0|i0|c128|p49;発注}
 73
     1
 44
1.0
  0
MTEXT
  5
E1
330
1F
100
AcDbEntity
  8
F-1
  6
Continuous
 62
     7
370
     0
100
AcDbMText
 10
-1197.500758815456
 20
3876.077879407728
 30
0.0
 40
97.15499999999999
 41
255.0
 46
0.0
 71
     7
 72
     1
  1
{\fＭＳ ゴシック|b0|i0|c128|p49;品番}
 73
     1
 44
1.0
  0
MTEXT
  5
E2
330
1F
100
AcDbEntity
  8
F-1
  6
Continuous
 62
     7
370
     0
100
AcDbMText
 10
4647.499719568202
 20
3876.029628642314
 30
0.0
 40
97.15499999999999
 41
255.0
 46
0.0
 71
     7
 72
     1
  1
{\fＭＳ ゴシック|b0|i0|c128|p49;品番}
 73
     1
 44
1.0
  0
MTEXT
  5
E3
330
1F
100
AcDbEntity
  8
F-1
  6
Continuous
 62
     7
370
     0
100
AcDbMText
 10
-2360.000758815456
 20
3753.040577359584
 30
0.0
 40
68.58
 41
810.0
 46
0.0
 71
     7
 72
     1
  1
{\fＭＳ ゴシック|b0|i0|c128|p49;長さ×幅×厚さ(㎜)}
 73
     1
 44
1.0
  0
MTEXT
  5
E4
330
1F
100
AcDbEntity
  8
F-1
  6
Continuous
 62
     7
370
     0
100
AcDbMText
 10
-522.5007588154554
 20
3767.328077359584
 30
0.0
 40
97.15499999999999
 41
255.0
 46
0.0
 71
     7
 72
     1
  1
{\fＭＳ ゴシック|b0|i0|c128|p49;単位}
 73
     1
 44
1.0
  0
MTEXT
  5
E5
330
1F
100
AcDbEntity
  8
F-1
  6
Continuous
 62
     7
370
     0
100
AcDbMText
 10
3484.999719568202
 20
3753.040577359584
 30
0.0
 40
68.58
 41
810.0
 46
0.0
 71
     7
 72
     1
  1
{\fＭＳ ゴシック|b0|i0|c128|p49;長さ×幅×厚さ(㎜)}
 73
     1
 44
1.0
  0
MTEXT
  5
E6
330
1F
100
AcDbEntity
  8
F-1
  6
Continuous
 62
     7
370
     0
100
AcDbMText
 10
5322.499719568203
 20
3767.27982659417
 30
0.0
 40
97.15499999999999
 41
255.0
 46
0.0
 71
     7
 72
     1
  1
{\fＭＳ ゴシック|b0|i0|c128|p49;単位}
 73
     1
 44
1.0
  0
MTEXT
  5
E7
330
1F
100
AcDbEntity
  8
F-A
  6
Continuous
 62
     7
370
     0
100
AcDbMText
 10
-5659.999812358134
 20
3877.030379407729
 30
0.0
 40
99.06
 41
390.0
 46
0.0
 71
     7
 72
     1
  1
{\fＭＳ ゴシック|b0|i0|c128|p49;部材名}
 73
     1
 44
1.0
  0
MTEXT
  5
E8
330
1F
100
AcDbEntity
  8
F-A
  6
Continuous
 62
     7
370
     0
100
AcDbMText
 10
179.9993814004438
 20
3877.030379407729
 30
0.0
 40
99.06
 41
390.0
 46
0.0
 71
     7
 72
     1
  1
{\fＭＳ ゴシック|b0|i0|c128|p49;部材名}
 73
     1
 44
1.0
  0
MTEXT
  5
E9
330
1F
100
AcDbEntity
  8
F-A
  6
Continuous
 62
     7
370
     0
100
AcDbMText
 10
-3935.000579421584
 20
3877.50643145587
 30
0.0
 40
100.0125
 41
525.0
 46
0.0
 71
     7
 72
     1
  1
{\fＭＳ ゴシック|b0|i0|c128|p49;断面形状}
 73
     1
 44
1.0
  0
MTEXT
  5
EA
330
1F
100
AcDbEntity
  8
F-A
  6
Continuous
 62
     7
370
     0
100
AcDbMText
 10
1909.999991752006
 20
3877.50643145587
 30
0.0
 40
100.0125
 41
525.0
 46
0.0
 71
     7
 72
     1
  1
{\fＭＳ ゴシック|b0|i0|c128|p49;断面形状}
 73
     1
 44
1.0
  0
MTEXT
  5
EB
330
1F
100
AcDbEntity
  8
F-A
  6
Continuous
 62
     7
370
     0
100
AcDbMText
 10
-60.0001237199109
 20
-3887.139820871936
 30
0.0
 40
45.72
 41
180.0
 46
0.0
 71
     7
 72
     1
  1
{\fＭＳ ゴシック|b0|i0|c128|p49;図面名}
 73
     1
 44
1.0
  0
MTEXT
  5
EC
330
1F
100
AcDbEntity
  8
F-A
  6
Continuous
 62
     7
370
     0
100
AcDbMText
 10
2779.998729808911
 20
-3887.142460617774
 30
0.0
 40
45.72
 41
300.0
 46
0.0
 71
     7
 72
     1
  1
{\fＭＳ ゴシック|b0|i0|c128|p49;ＳＣＡＬＥ}
 73
     1
 44
1.0
  0
MTEXT
  5
ED
330
1F
100
AcDbEntity
  8
F-A
  6
Continuous
 62
     7
370
     0
100
AcDbMText
 10
4279.999224688556
 20
-3887.143854850754
 30
0.0
 40
45.72
 41
240.0
 46
0.0
 71
     7
 72
     1
  1
{\fＭＳ ゴシック|b0|i0|c128|p49;ＤＡＴＥ}
 73
     1
 44
1.0
  0
MTEXT
  5
EE
330
1F
100
AcDbEntity
  8
F-A
  6
Continuous
 62
     7
370
     0
100
AcDbMText
 10
1180.417701903719
 20
-3946.138161599839
 30
0.0
 40
77.724
 41
510.0
 46
0.0
 71
     7
 72
     1
  1
{\fＭＳ ゴシック|b0|i0|c128|p49;洋風造作材}
 73
     1
 44
1.0
  0
MTEXT
  5
EF
330
1F
100
AcDbEntity
  8
F-A
  6
Continuous
 62
     7
370
     0
100
AcDbMText
 10
3409.998977248734
 20
-3946.903115907308
 30
0.0
 40
76.19999999999999
 41
150.0
 46
0.0
 71
     7
 72
     1
  1
{\fＭＳ ゴシック|b0|i0|c128|p49;1/2}
 73
     1
 44
1.0
  0
MTEXT
  5
F0
330
1F
100
AcDbEntity
  8
F-A
  6
Continuous
 62
     7
370
     0
100
AcDbMText
 10
349.9999175200594
 20
-3951.497291872503
 30
0.0
 40
68.58000000000001
 41
360.0
 46
0.0
 71
     7
 72
     1
  1
{\fＭＳ ゴシック|b0|i0|c128|p49;DOORETUS}
 73
     1
 44
1.0
  0
MTEXT
  5
F1
330
1F
100
AcDbEntity
  8
F-A
  6
Continuous
 62
     7
370
     0
100
AcDbMText
 10
2779.998729808911
 20
-4087.14246317786
 30
0.0
 40
45.72
 41
240.0
 46
0.0
 71
     7
 72
     1
  1
{\fＭＳ ゴシック|b0|i0|c128|p49;ＦＩＬＥ}
 73
     1
 44
1.0
  0
MTEXT
  5
F2
330
1F
100
AcDbEntity
  8
F-A
  6
Continuous
 62
     7
370
     0
100
AcDbMText
 10
4279.999224688556
 20
-4087.143857410839
 30
0.0
 40
45.72
 41
180.0
 46
0.0
 71
     7
 72
     1
  1
{\fＭＳ ゴシック|b0|i0|c128|p49;ＮＯ．}
 73
     1
 44
1.0
  0
MTEXT
  5
F3
330
1F
100
AcDbEntity
  8
F-A
  6
Continuous
 62
     7
370
     0
100
AcDbMText
 10
1234.998729808911
 20
-4096.140669266149
 30
0.0
 40
45.72
 41
120.0
 46
0.0
 71
     7
 72
     1
  1
{\fＭＳ ゴシック|b0|i0|c128|p49;株式}
 73
     1
 44
1.0
  0
MTEXT
  5
F4
330
1F
100
AcDbEntity
  8
F-A
  6
Continuous
 62
     7
370
     0
100
AcDbMText
 10
1444.998729808911
 20
-4164.281754523929
 30
0.0
 40
101.44125
 41
1065.0
 46
0.0
 71
     7
 72
     1
  1
{\fＭＳ ゴシック|b0|i0|c128|p49;ウッドワン・・・}
 73
     1
 44
1.0
  0
MTEXT
  5
F5
330
1F
100
AcDbEntity
  8
F-A
  6
Continuous
 62
     7
370
     0
100
AcDbMText
 10
1234.998729808911
 20
-4168.140669266187
 30
0.0
 40
45.72
 41
120.0
 46
0.0
 71
     7
 72
     1
  1
{\fＭＳ ゴシック|b0|i0|c128|p49;会社}
 73
     1
 44
1.0
  0
MTEXT
  5
F6
330
1F
100
AcDbEntity
  8
F-A
  6
Continuous
 62
     7
370
     0
100
AcDbMText
 10
5608.403311109712
 20
-4314.841256638534
 30
0.0
 40
68.58
 41
90.0
 46
0.0
 71
     7
 72
     1
  1
{\fＭＳ ゴシック|b0|i0|c128|p49;）}
 73
     1
 44
1.0
  0
MTEXT
  5
F7
330
1F
100
AcDbEntity
  8
F-A
  6
Continuous
 62
     7
370
     0
100
AcDbMText
 10
5190.195950842071
 20
-4316.235281487472
 30
0.0
 40
68.58
 41
45.0
 46
0.0
 71
     7
 72
     1
  1
{\fＭＳ ゴシック|b0|i0|c128|p49;,}
 73
     1
 44
1.0
  0
MTEXT
  5
F8
330
1F
100
AcDbEntity
  8
F-A
  6
Continuous
 62
     7
370
     0
100
AcDbMText
 10
4923.937261915373
 20
-4314.771804905898
 30
0.0
 40
74.295
 41
97.5
 46
0.0
 71
     7
 72
     1
  1
{\fＭＳ ゴシック|b0|i0|c128|p49;$y}
 73
     1
 44
1.0
  0
MTEXT
  5
F9
330
1F
100
AcDbEntity
  8
F-A
  6
Continuous
 62
     7
370
     0
100
AcDbMText
 10
5078.673982954195
 20
-4314.771804905898
 30
0.0
 40
74.295
 41
97.5
 46
0.0
 71
     7
 72
     1
  1
{\fＭＳ ゴシック|b0|i0|c128|p49;$m}
 73
     1
 44
1.0
  0
MTEXT
  5
FA
330
1F
100
AcDbEntity
  8
F-A
  6
Continuous
 62
     7
370
     0
100
AcDbMText
 10
5233.410715437103
 20
-4314.771804905898
 30
0.0
 40
74.295
 41
97.5
 46
0.0
 71
     7
 72
     1
  1
{\fＭＳ ゴシック|b0|i0|c128|p49;$d}
 73
     1
 44
1.0
  0
MTEXT
  5
FB
330
1F
100
AcDbEntity
  8
F-A
  6
Continuous
 62
     7
370
     0
100
AcDbMText
 10
5388.147447920011
 20
-4314.771804905898
 30
0.0
 40
74.295
 41
195.0
 46
0.0
 71
     7
 72
     1
  1
{\fＭＳ ゴシック|b0|i0|c128|p49;印刷}
 73
     1
 44
1.0
  0
MTEXT
  5
FC
330
1F
100
AcDbEntity
  8
F-A
  6
Continuous
 62
     7
370
     0
100
AcDbMText
 10
4784.033374252999
 20
-4319.023331185347
 30
0.0
 40
68.58
 41
90.0
 46
0.0
 71
     7
 72
     1
  1
{\fＭＳ ゴシック|b0|i0|c128|p49;（}
 73
     1
 44
1.0
  0
MTEXT
  5
FD
330
1F
100
AcDbEntity
  8
F-A
  6
Continuous
 62
     7
370
     0
100
AcDbMText
 10
5031.277143812345
 20
-4319.023331185347
 30
0.0
 40
68.58
 41
45.0
 46
0.0
 71
     7
 72
     1
  1
{\fＭＳ ゴシック|b0|i0|c128|p49;,}
 73
     1
 44
1.0
  0
LINE
  5
FE
330
1F
100
AcDbEntity
  8
0-7
  6
Continuous
 62
     4
370
     0
100
AcDbLine
 10
-3531.500483841719
 20
3167.500421936446
 30
0.0
 11
-3531.500483841719
 21
3003.382316936446
 31
0.0
  0
ARC
  5
FF
330
1F
100
AcDbEntity
  8
0-7
  6
Continuous
 62
     7
370
     0
100
AcDbCircle
 10
-3492.500393841719
 20
3047.500421936447
 30
0.0
 40
150.0
100
AcDbArc
 50
56.251011
 51
90.0
  0
LINE
  5
100
330
1F
100
AcDbEntity
  8
0-7
  6
Continuous
 62
     7
370
     0
100
AcDbLine
 10
-3852.500393841717
 20
3197.500421936447
 30
0.0
 11
-3492.500393841719
 21
3197.500421936447
 31
0.0
  0
ARC
  5
101
330
1F
100
AcDbEntity
  8
0-7
  6
Continuous
 62
     7
370
     0
100
AcDbCircle
 10
-3852.500393841717
 20
3047.500421936447
 30
0.0
 40
150.0
100
AcDbArc
 50
90.0
 51
123.748985
  0
LINE
  5
102
330
1F
100
AcDbEntity
  8
0-7
  6
Continuous
 62
     7
370
     0
100
AcDbLine
 10
-3942.500393841719
 20
3152.500421936446
 30
0.0
 11
-3942.500393841719
 21
3159.750146936446
 31
0.0
  0
ARC
  5
103
330
1F
100
AcDbEntity
  8
0-7
  6
Continuous
 62
     7
370
     0
100
AcDbCircle
 10
-3927.500393841717
 20
3159.750146936446
 30
0.0
 40
15.0
100
AcDbArc
 50
123.748985
 51
180.0
  0
ARC
  5
104
330
1F
100
AcDbEntity
  8
0-7
  6
Continuous
 62
     7
370
     0
100
AcDbCircle
 10
-3417.500393841719
 20
3159.750146936446
 30
0.0
 40
15.0
100
AcDbArc
 50
0.0
 51
56.251011
  0
LINE
  5
105
330
1F
100
AcDbEntity
  8
0-7
  6
Continuous
 62
     7
370
     0
100
AcDbLine
 10
-3402.500393841717
 20
3152.500421936446
 30
0.0
 11
-3402.500393841717
 21
3159.750146936446
 31
0.0
  0
LINE
  5
106
330
1F
100
AcDbEntity
  8
0-7
  6
Continuous
 62
     7
370
     0
100
AcDbLine
 10
-3512.750483841719
 20
3152.500421936446
 30
0.0
 11
-3402.500483841719
 21
3152.500421936446
 31
0.0
  0
LINE
  5
107
330
1F
100
AcDbEntity
  8
0-7
  6
Continuous
 62
     7
370
     0
100
AcDbLine
 10
-3794.750303841717
 20
3152.500421936446
 30
0.0
 11
-3550.250483841719
 21
3152.500421936446
 31
0.0
  0
LINE
  5
108
330
1F
100
AcDbEntity
  8
0-7
  6
Continuous
 62
     7
370
     0
100
AcDbLine
 10
-3942.50051384172
 20
3152.500421936446
 30
0.0
 11
-3832.250333841719
 21
3152.500421936446
 31
0.0
  0
LINE
  5
109
330
1F
100
AcDbEntity
  8
0-7
  6
Continuous
 62
     7
370
     0
100
AcDbLine
 10
-3512.750483841719
 20
3070.000421936446
 30
0.0
 11
-3512.750483841719
 21
3062.500421936446
 31
0.0
  0
LINE
  5
10A
330
1F
100
AcDbEntity
  8
0-7
  6
Continuous
 62
     7
370
     0
100
AcDbLine
 10
-3512.750483841719
 20
3107.500421936446
 30
0.0
 11
-3512.750483841719
 21
3152.500421936446
 31
0.0
  0
LINE
  5
10B
330
1F
100
AcDbEntity
  8
0-7
  6
Continuous
 62
     7
370
     0
100
AcDbLine
 10
-3512.750483841719
 20
3107.500421936446
 30
0.0
 11
-3509.641058841718
 21
3102.314486936446
 31
0.0
  0
ARC
  5
10C
330
1F
100
AcDbEntity
  8
0-7
  6
Continuous
 62
     7
370
     0
100
AcDbCircle
 10
-3513.500483841718
 20
3100.000421936446
 30
0.0
 40
4.5
100
AcDbArc
 50
329.05365
 51
30.94635
  0
LINE
  5
10D
330
1F
100
AcDbEntity
  8
0-7
  6
Continuous
 62
     7
370
     0
100
AcDbLine
 10
-3512.750483841719
 20
3092.500421936446
 30
0.0
 11
-3509.641058841718
 21
3097.686371936446
 31
0.0
  0
LINE
  5
10E
330
1F
100
AcDbEntity
  8
0-7
  6
Continuous
 62
     7
370
     0
100
AcDbLine
 10
-3512.750483841719
 20
3085.000421936447
 30
0.0
 11
-3512.750483841719
 21
3092.500421936446
 31
0.0
  0
LINE
  5
10F
330
1F
100
AcDbEntity
  8
0-7
  6
Continuous
 62
     7
370
     0
100
AcDbLine
 10
-3512.750483841719
 20
3085.000421936447
 30
0.0
 11
-3509.641058841718
 21
3079.814486936445
 31
0.0
  0
LINE
  5
110
330
1F
100
AcDbEntity
  8
0-7
  6
Continuous
 62
     7
370
     0
100
AcDbLine
 10
-3512.750483841719
 20
3070.000421936446
 30
0.0
 11
-3509.641058841718
 21
3075.186371936447
 31
0.0
  0
ARC
  5
111
330
1F
100
AcDbEntity
  8
0-7
  6
Continuous
 62
     7
370
     0
100
AcDbCircle
 10
-3513.500483841718
 20
3077.500421936446
 30
0.0
 40
4.5
100
AcDbArc
 50
329.05365
 51
30.94635
  0
LINE
  5
112
330
1F
100
AcDbEntity
  8
0-7
  6
Continuous
 62
     7
370
     0
100
AcDbLine
 10
-3512.750483841719
 20
3062.500421936446
 30
0.0
 11
-3509.641058841718
 21
3057.314486936446
 31
0.0
  0
ARC
  5
113
330
1F
100
AcDbEntity
  8
0-7
  6
Continuous
 62
     7
370
     0
100
AcDbCircle
 10
-3513.500483841718
 20
3055.000421936446
 30
0.0
 40
4.5
100
AcDbArc
 50
317.161743
 51
30.94638099999998
  0
LINE
  5
114
330
1F
100
AcDbEntity
  8
0-7
  6
Continuous
 62
     7
370
     0
100
AcDbLine
 10
-3526.000913841718
 20
3034.900946936446
 30
0.0
 11
-3510.200738841719
 21
3051.940736936447
 31
0.0
  0
ARC
  5
115
330
1F
100
AcDbEntity
  8
0-7
  6
Continuous
 62
     7
370
     0
100
AcDbCircle
 10
-3531.500483841719
 20
3040.000421936446
 30
0.0
 40
7.5
100
AcDbArc
 50
222.838272
 51
317.161743
  0
LINE
  5
116
330
1F
100
AcDbEntity
  8
0-7
  6
Continuous
 62
     7
370
     0
100
AcDbLine
 10
-3537.000053841718
 20
3034.900946936446
 30
0.0
 11
-3552.800228841717
 21
3051.940736936447
 31
0.0
  0
ARC
  5
117
330
1F
100
AcDbEntity
  8
0-7
  6
Continuous
 62
     7
370
     0
100
AcDbCircle
 10
-3549.500483841716
 20
3055.000421936446
 30
0.0
 40
4.5
100
AcDbArc
 50
149.053696
 51
222.838272
  0
LINE
  5
118
330
1F
100
AcDbEntity
  8
0-7
  6
Continuous
 62
     7
370
     0
100
AcDbLine
 10
-3550.250498841717
 20
3062.500421936446
 30
0.0
 11
-3550.250498841717
 21
3070.000421936446
 31
0.0
  0
LINE
  5
119
330
1F
100
AcDbEntity
  8
0-7
  6
Continuous
 62
     7
370
     0
100
AcDbLine
 10
-3550.250498841717
 20
3062.500421936446
 30
0.0
 11
-3553.359908841718
 21
3057.314486936446
 31
0.0
  0
LINE
  5
11A
330
1F
100
AcDbEntity
  8
0-7
  6
Continuous
 62
     7
370
     0
100
AcDbLine
 10
-3550.250498841717
 20
3070.000421936446
 30
0.0
 11
-3553.359908841718
 21
3075.186371936447
 31
0.0
  0
ARC
  5
11B
330
1F
100
AcDbEntity
  8
0-7
  6
Continuous
 62
     7
370
     0
100
AcDbCircle
 10
-3549.500483841716
 20
3077.500421936446
 30
0.0
 40
4.5
100
AcDbArc
 50
149.053665
 51
210.946335
  0
LINE
  5
11C
330
1F
100
AcDbEntity
  8
0-7
  6
Continuous
 62
     7
370
     0
100
AcDbLine
 10
-3550.250498841717
 20
3085.000421936447
 30
0.0
 11
-3553.359908841718
 21
3079.814486936445
 31
0.0
  0
LINE
  5
11D
330
1F
100
AcDbEntity
  8
0-7
  6
Continuous
 62
     7
370
     0
100
AcDbLine
 10
-3550.250498841717
 20
3085.000421936447
 30
0.0
 11
-3550.250498841717
 21
3092.500421936446
 31
0.0
  0
LINE
  5
11E
330
1F
100
AcDbEntity
  8
0-7
  6
Continuous
 62
     7
370
     0
100
AcDbLine
 10
-3550.250498841717
 20
3092.500421936446
 30
0.0
 11
-3553.359908841718
 21
3097.686371936446
 31
0.0
  0
ARC
  5
11F
330
1F
100
AcDbEntity
  8
0-7
  6
Continuous
 62
     7
370
     0
100
AcDbCircle
 10
-3549.500483841716
 20
3100.000421936446
 30
0.0
 40
4.5
100
AcDbArc
 50
149.053665
 51
210.946335
  0
LINE
  5
120
330
1F
100
AcDbEntity
  8
0-7
  6
Continuous
 62
     7
370
     0
100
AcDbLine
 10
-3550.250498841717
 20
3107.500421936446
 30
0.0
 11
-3553.359908841718
 21
3102.314486936446
 31
0.0
  0
LINE
  5
121
330
1F
100
AcDbEntity
  8
0-7
  6
Continuous
 62
     7
370
     0
100
AcDbLine
 10
-3550.250498841717
 20
3107.500421936446
 30
0.0
 11
-3550.250498841717
 21
3152.500421936446
 31
0.0
  0
LINE
  5
122
330
1F
100
AcDbEntity
  8
0-7
  6
Continuous
 62
     7
370
     0
100
AcDbLine
 10
-3832.250303841717
 20
3070.000421936446
 30
0.0
 11
-3832.250303841717
 21
3062.500421936446
 31
0.0
  0
LINE
  5
123
330
1F
100
AcDbEntity
  8
0-7
  6
Continuous
 62
     7
370
     0
100
AcDbLine
 10
-3832.250303841717
 20
3107.500421936446
 30
0.0
 11
-3832.250303841717
 21
3152.500421936446
 31
0.0
  0
LINE
  5
124
330
1F
100
AcDbEntity
  8
0-7
  6
Continuous
 62
     7
370
     0
100
AcDbLine
 10
-3832.250303841717
 20
3107.500421936446
 30
0.0
 11
-3835.359728841718
 21
3102.314486936446
 31
0.0
  0
ARC
  5
125
330
1F
100
AcDbEntity
  8
0-7
  6
Continuous
 62
     7
370
     0
100
AcDbCircle
 10
-3831.500303841718
 20
3100.000421936446
 30
0.0
 40
4.5
100
AcDbArc
 50
149.05365
 51
210.94635
  0
LINE
  5
126
330
1F
100
AcDbEntity
  8
0-7
  6
Continuous
 62
     7
370
     0
100
AcDbLine
 10
-3832.250303841717
 20
3092.500421936446
 30
0.0
 11
-3835.359728841718
 21
3097.686371936446
 31
0.0
  0
LINE
  5
127
330
1F
100
AcDbEntity
  8
0-7
  6
Continuous
 62
     7
370
     0
100
AcDbLine
 10
-3832.250303841717
 20
3085.000421936447
 30
0.0
 11
-3832.250303841717
 21
3092.500421936446
 31
0.0
  0
LINE
  5
128
330
1F
100
AcDbEntity
  8
0-7
  6
Continuous
 62
     7
370
     0
100
AcDbLine
 10
-3832.250303841717
 20
3085.000421936447
 30
0.0
 11
-3835.359728841718
 21
3079.814486936445
 31
0.0
  0
LINE
  5
129
330
1F
100
AcDbEntity
  8
0-7
  6
Continuous
 62
     7
370
     0
100
AcDbLine
 10
-3832.250303841717
 20
3070.000421936446
 30
0.0
 11
-3835.359728841718
 21
3075.186371936447
 31
0.0
  0
ARC
  5
12A
330
1F
100
AcDbEntity
  8
0-7
  6
Continuous
 62
     7
370
     0
100
AcDbCircle
 10
-3831.500303841718
 20
3077.500421936446
 30
0.0
 40
4.5
100
AcDbArc
 50
149.05365
 51
210.94635
  0
LINE
  5
12B
330
1F
100
AcDbEntity
  8
0-7
  6
Continuous
 62
     7
370
     0
100
AcDbLine
 10
-3832.250303841717
 20
3062.500421936446
 30
0.0
 11
-3835.359728841718
 21
3057.314486936446
 31
0.0
  0
ARC
  5
12C
330
1F
100
AcDbEntity
  8
0-7
  6
Continuous
 62
     7
370
     0
100
AcDbCircle
 10
-3831.500303841718
 20
3055.000421936446
 30
0.0
 40
4.5
100
AcDbArc
 50
149.053619
 51
222.838257
  0
LINE
  5
12D
330
1F
100
AcDbEntity
  8
0-7
  6
Continuous
 62
     7
370
     0
100
AcDbLine
 10
-3818.999873841718
 20
3034.900946936446
 30
0.0
 11
-3834.800048841717
 21
3051.940736936447
 31
0.0
  0
ARC
  5
12E
330
1F
100
AcDbEntity
  8
0-7
  6
Continuous
 62
     7
370
     0
100
AcDbCircle
 10
-3813.500303841717
 20
3040.000421936446
 30
0.0
 40
7.5
100
AcDbArc
 50
222.838257
 51
317.161743
  0
LINE
  5
12F
330
1F
100
AcDbEntity
  8
0-7
  6
Continuous
 62
     7
370
     0
100
AcDbLine
 10
-3808.000733841718
 20
3034.900946936446
 30
0.0
 11
-3792.200558841719
 21
3051.940736936447
 31
0.0
  0
ARC
  5
130
330
1F
100
AcDbEntity
  8
0-7
  6
Continuous
 62
     7
370
     0
100
AcDbCircle
 10
-3795.500303841716
 20
3055.000421936446
 30
0.0
 40
4.5
100
AcDbArc
 50
317.161743
 51
30.94632000000002
  0
LINE
  5
131
330
1F
100
AcDbEntity
  8
0-7
  6
Continuous
 62
     7
370
     0
100
AcDbLine
 10
-3794.750288841719
 20
3062.500421936446
 30
0.0
 11
-3794.750288841719
 21
3070.000421936446
 31
0.0
  0
LINE
  5
132
330
1F
100
AcDbEntity
  8
0-7
  6
Continuous
 62
     7
370
     0
100
AcDbLine
 10
-3794.750288841719
 20
3062.500421936446
 30
0.0
 11
-3791.64087884172
 21
3057.314486936446
 31
0.0
  0
LINE
  5
133
330
1F
100
AcDbEntity
  8
0-7
  6
Continuous
 62
     7
370
     0
100
AcDbLine
 10
-3794.750288841719
 20
3070.000421936446
 30
0.0
 11
-3791.64087884172
 21
3075.186371936447
 31
0.0
  0
ARC
  5
134
330
1F
100
AcDbEntity
  8
0-7
  6
Continuous
 62
     7
370
     0
100
AcDbCircle
 10
-3795.500303841716
 20
3077.500421936446
 30
0.0
 40
4.5
100
AcDbArc
 50
329.05365
 51
30.94632000000004
  0
LINE
  5
135
330
1F
100
AcDbEntity
  8
0-7
  6
Continuous
 62
     7
370
     0
100
AcDbLine
 10
-3794.750288841719
 20
3085.000421936447
 30
0.0
 11
-3791.64087884172
 21
3079.814486936445
 31
0.0
  0
LINE
  5
136
330
1F
100
AcDbEntity
  8
0-7
  6
Continuous
 62
     7
370
     0
100
AcDbLine
 10
-3794.750288841719
 20
3085.000421936447
 30
0.0
 11
-3794.750288841719
 21
3092.500421936446
 31
0.0
  0
LINE
  5
137
330
1F
100
AcDbEntity
  8
0-7
  6
Continuous
 62
     7
370
     0
100
AcDbLine
 10
-3794.750288841719
 20
3092.500421936446
 30
0.0
 11
-3791.64087884172
 21
3097.686371936446
 31
0.0
  0
ARC
  5
138
330
1F
100
AcDbEntity
  8
0-7
  6
Continuous
 62
     7
370
     0
100
AcDbCircle
 10
-3795.500303841716
 20
3100.000421936446
 30
0.0
 40
4.5
100
AcDbArc
 50
329.05365
 51
30.94632000000004
  0
LINE
  5
139
330
1F
100
AcDbEntity
  8
0-7
  6
Continuous
 62
     7
370
     0
100
AcDbLine
 10
-3794.750288841719
 20
3107.500421936446
 30
0.0
 11
-3791.64087884172
 21
3102.314486936446
 31
0.0
  0
LINE
  5
13A
330
1F
100
AcDbEntity
  8
0-7
  6
Continuous
 62
     7
370
     0
100
AcDbLine
 10
-3794.750288841719
 20
3107.500421936446
 30
0.0
 11
-3794.750288841719
 21
3152.500421936446
 31
0.0
  0
LINE
  5
13B
330
1F
100
AcDbEntity
  8
0-7
  6
Continuous
 62
     7
370
     0
100
AcDbLine
 10
-3672.500093841718
 20
3040.000421936446
 30
0.0
 11
-3665.000093841718
 21
3047.500421936447
 31
0.0
  0
LINE
  5
13C
330
1F
100
AcDbEntity
  8
0-7
  6
Continuous
 62
     7
370
     0
100
AcDbLine
 10
-3672.500093841718
 20
3040.000421936446
 30
0.0
 11
-3680.000093841718
 21
3047.500421936447
 31
0.0
  0
LINE
  5
13D
330
1F
100
AcDbEntity
  8
0-7
  6
Continuous
 62
     7
370
     0
100
AcDbLine
 10
-3591.500183841718
 20
3047.500421936447
 30
0.0
 11
-3665.000093841718
 21
3047.500421936447
 31
0.0
  0
LINE
  5
13E
330
1F
100
AcDbEntity
  8
0-7
  6
Continuous
 62
     7
370
     0
100
AcDbLine
 10
-3680.000093841718
 20
3047.500421936447
 30
0.0
 11
-3753.500168841721
 21
3047.500421936447
 31
0.0
  0
LINE
  5
13F
330
1F
100
AcDbEntity
  8
0-7
  6
Continuous
 62
     7
370
     0
100
AcDbLine
 10
-3591.500183841718
 20
3148.000376936446
 30
0.0
 11
-3591.500183841718
 21
3047.500421936447
 31
0.0
  0
ARC
  5
140
330
1F
100
AcDbEntity
  8
0-7
  6
Continuous
 62
     7
370
     0
100
AcDbCircle
 10
-3506.000003841719
 20
3106.750376936448
 30
0.0
 40
4.5
100
AcDbArc
 50
149.05365
 51
210.94632
  0
LINE
  5
141
330
1F
100
AcDbEntity
  8
0-7
  6
Continuous
 62
     7
370
     0
100
AcDbLine
 10
-3506.750003841719
 20
3114.250376936448
 30
0.0
 11
-3509.859428841718
 21
3109.064441936447
 31
0.0
  0
LINE
  5
142
330
1F
100
AcDbEntity
  8
0-7
  6
Continuous
 62
     7
370
     0
100
AcDbLine
 10
-3506.750003841719
 20
3099.250376936446
 30
0.0
 11
-3509.859428841718
 21
3104.436311936446
 31
0.0
  0
LINE
  5
143
330
1F
100
AcDbEntity
  8
0-7
  6
Continuous
 62
     7
370
     0
100
AcDbLine
 10
-3506.750003841719
 20
3114.250376936448
 30
0.0
 11
-3506.750003841719
 21
3133.000376936448
 31
0.0
  0
LINE
  5
144
330
1F
100
AcDbEntity
  8
0-7
  6
Continuous
 62
     7
370
     0
100
AcDbLine
 10
-3506.750003841719
 20
3028.000376936447
 30
0.0
 11
-3506.750003841719
 21
3099.250376936446
 31
0.0
  0
LINE
  5
145
330
1F
100
AcDbEntity
  8
0-7
  6
Continuous
 62
     7
370
     0
100
AcDbLine
 10
-3541.250003841718
 20
3013.000376936448
 30
0.0
 11
-3521.750003841717
 21
3013.000376936448
 31
0.0
  0
ARC
  5
146
330
1F
100
AcDbEntity
  8
0-7
  6
Continuous
 62
     7
370
     0
100
AcDbCircle
 10
-3521.750003841717
 20
3028.000376936447
 30
0.0
 40
15.0
100
AcDbArc
 50
270.0
 51
0.0
  0
ARC
  5
147
330
1F
100
AcDbEntity
  8
0-7
  6
Continuous
 62
     7
370
     0
100
AcDbCircle
 10
-3491.750003841717
 20
3133.000376936448
 30
0.0
 40
15.0
100
AcDbArc
 50
90.0
 51
180.0
  0
LINE
  5
148
330
1F
100
AcDbEntity
  8
0-7
  6
Continuous
 62
     7
370
     0
100
AcDbLine
 10
-3571.249973841718
 20
3148.000376936446
 30
0.0
 11
-3591.50015384172
 21
3148.000376936446
 31
0.0
  0
ARC
  5
149
330
1F
100
AcDbEntity
  8
0-7
  6
Continuous
 62
     7
370
     0
100
AcDbCircle
 10
-3571.249973841718
 20
3133.000376936448
 30
0.0
 40
15.0
100
AcDbArc
 50
0.0
 51
90.0
  0
LINE
  5
14A
330
1F
100
AcDbEntity
  8
0-7
  6
Continuous
 62
     7
370
     0
100
AcDbLine
 10
-3556.249973841718
 20
3114.250376936448
 30
0.0
 11
-3556.249973841718
 21
3133.000376936448
 31
0.0
  0
LINE
  5
14B
330
1F
100
AcDbEntity
  8
0-7
  6
Continuous
 62
     7
370
     0
100
AcDbLine
 10
-3556.249973841718
 20
3114.250376936448
 30
0.0
 11
-3553.140548841718
 21
3109.064441936447
 31
0.0
  0
LINE
  5
14C
330
1F
100
AcDbEntity
  8
0-7
  6
Continuous
 62
     7
370
     0
100
AcDbLine
 10
-3556.249973841718
 20
3099.250376936446
 30
0.0
 11
-3553.140548841718
 21
3104.436311936446
 31
0.0
  0
ARC
  5
14D
330
1F
100
AcDbEntity
  8
0-7
  6
Continuous
 62
     7
370
     0
100
AcDbCircle
 10
-3556.999973841717
 20
3106.750376936448
 30
0.0
 40
4.5
100
AcDbArc
 50
329.05368
 51
30.94635
  0
LINE
  5
14E
330
1F
100
AcDbEntity
  8
0-7
  6
Continuous
 62
     7
370
     0
100
AcDbLine
 10
-3556.249973841718
 20
3028.000376936447
 30
0.0
 11
-3556.249973841718
 21
3099.250376936446
 31
0.0
  0
ARC
  5
14F
330
1F
100
AcDbEntity
  8
0-7
  6
Continuous
 62
     7
370
     0
100
AcDbCircle
 10
-3541.249973841718
 20
3028.000376936447
 30
0.0
 40
15.0
100
AcDbArc
 50
180.0
 51
270.0
  0
LINE
  5
150
330
1F
100
AcDbEntity
  8
0-7
  6
Continuous
 62
     7
370
     0
100
AcDbLine
 10
-3753.500003841718
 20
3148.000376936446
 30
0.0
 11
-3753.500003841718
 21
3047.500421936447
 31
0.0
  0
ARC
  5
151
330
1F
100
AcDbEntity
  8
0-7
  6
Continuous
 62
     7
370
     0
100
AcDbCircle
 10
-3839.000303841718
 20
3106.750376936448
 30
0.0
 40
4.5
100
AcDbArc
 50
329.05368
 51
30.94635
  0
LINE
  5
152
330
1F
100
AcDbEntity
  8
0-7
  6
Continuous
 62
     7
370
     0
100
AcDbLine
 10
-3838.250303841719
 20
3114.250376936448
 30
0.0
 11
-3835.140878841717
 21
3109.064441936447
 31
0.0
  0
LINE
  5
153
330
1F
100
AcDbEntity
  8
0-7
  6
Continuous
 62
     7
370
     0
100
AcDbLine
 10
-3838.250303841719
 20
3099.250376936446
 30
0.0
 11
-3835.140878841717
 21
3104.436311936446
 31
0.0
  0
LINE
  5
154
330
1F
100
AcDbEntity
  8
0-7
  6
Continuous
 62
     7
370
     0
100
AcDbLine
 10
-3838.250303841719
 20
3114.250376936448
 30
0.0
 11
-3838.250303841719
 21
3133.000376936448
 31
0.0
  0
LINE
  5
155
330
1F
100
AcDbEntity
  8
0-7
  6
Continuous
 62
     7
370
     0
100
AcDbLine
 10
-3838.250303841719
 20
3028.000376936447
 30
0.0
 11
-3838.250303841719
 21
3099.250376936446
 31
0.0
  0
LINE
  5
156
330
1F
100
AcDbEntity
  8
0-7
  6
Continuous
 62
     7
370
     0
100
AcDbLine
 10
-3803.750303841717
 20
3013.000376936448
 30
0.0
 11
-3823.250303841717
 21
3013.000376936448
 31
0.0
  0
ARC
  5
157
330
1F
100
AcDbEntity
  8
0-7
  6
Continuous
 62
     7
370
     0
100
AcDbCircle
 10
-3823.250303841717
 20
3028.000376936447
 30
0.0
 40
15.0
100
AcDbArc
 50
180.0
 51
270.0
  0
ARC
  5
158
330
1F
100
AcDbEntity
  8
0-7
  6
Continuous
 62
     7
370
     0
100
AcDbCircle
 10
-3853.25030384172
 20
3133.000376936448
 30
0.0
 40
15.0
100
AcDbArc
 50
0.0
 51
90.0
  0
LINE
  5
159
330
1F
100
AcDbEntity
  8
0-7
  6
Continuous
 62
     7
370
     0
100
AcDbLine
 10
-3773.750213841721
 20
3148.000376936446
 30
0.0
 11
-3753.500018841721
 21
3148.000376936446
 31
0.0
  0
ARC
  5
15A
330
1F
100
AcDbEntity
  8
0-7
  6
Continuous
 62
     7
370
     0
100
AcDbCircle
 10
-3773.750213841721
 20
3133.000376936448
 30
0.0
 40
15.0
100
AcDbArc
 50
90.0
 51
180.0
  0
LINE
  5
15B
330
1F
100
AcDbEntity
  8
0-7
  6
Continuous
 62
     7
370
     0
100
AcDbLine
 10
-3788.750213841718
 20
3114.250376936448
 30
0.0
 11
-3788.750213841718
 21
3133.000376936448
 31
0.0
  0
LINE
  5
15C
330
1F
100
AcDbEntity
  8
0-7
  6
Continuous
 62
     7
370
     0
100
AcDbLine
 10
-3788.750213841718
 20
3114.250376936448
 30
0.0
 11
-3791.859623841717
 21
3109.064441936447
 31
0.0
  0
LINE
  5
15D
330
1F
100
AcDbEntity
  8
0-7
  6
Continuous
 62
     7
370
     0
100
AcDbLine
 10
-3788.750213841718
 20
3099.250376936446
 30
0.0
 11
-3791.859623841717
 21
3104.436311936446
 31
0.0
  0
ARC
  5
15E
330
1F
100
AcDbEntity
  8
0-7
  6
Continuous
 62
     7
370
     0
100
AcDbCircle
 10
-3788.000213841719
 20
3106.750376936448
 30
0.0
 40
4.5
100
AcDbArc
 50
149.05365
 51
210.94632
  0
LINE
  5
15F
330
1F
100
AcDbEntity
  8
0-7
  6
Continuous
 62
     7
370
     0
100
AcDbLine
 10
-3788.750213841718
 20
3028.000376936447
 30
0.0
 11
-3788.750213841718
 21
3099.250376936446
 31
0.0
  0
ARC
  5
160
330
1F
100
AcDbEntity
  8
0-7
  6
Continuous
 62
     7
370
     0
100
AcDbCircle
 10
-3803.750213841718
 20
3028.000376936447
 30
0.0
 40
15.0
100
AcDbArc
 50
270.0
 51
0.0
  0
LINE
  5
161
330
1F
100
AcDbEntity
  8
0-0
  6
JWW_HOJO
 62
   120
370
     5
100
AcDbLine
 10
-3813.500303841717
 20
2982.077068349205
 30
0.0
 11
-3813.500303841717
 21
3224.472441483439
 31
0.0
  0
LINE
  5
162
330
1F
100
AcDbEntity
  8
0-0
  6
JWW_HOJO
 62
   120
370
     5
100
AcDbLine
 10
-3531.500483841719
 20
2982.077068349205
 30
0.0
 11
-3531.500483841719
 21
3224.472441483439
 31
0.0
  0
LINE
  5
163
330
1F
100
AcDbEntity
  8
0-0
  6
JWW_HOJO
 62
   120
370
     5
100
AcDbLine
 10
-4017.500393841719
 20
2897.500421936447
 30
0.0
 11
-4017.500393841719
 21
3272.500421936447
 31
0.0
  0
LINE
  5
164
330
1F
100
AcDbEntity
  8
0-0
  6
JWW_HOJO
 62
   120
370
     5
100
AcDbLine
 10
-4017.500393841719
 20
3272.500421936447
 30
0.0
 11
-3327.500393841717
 21
3272.500421936447
 31
0.0
  0
LINE
  5
165
330
1F
100
AcDbEntity
  8
0-0
  6
JWW_HOJO
 62
   120
370
     5
100
AcDbLine
 10
-3327.500393841717
 20
2897.500421936447
 30
0.0
 11
-3327.500393841717
 21
3272.500421936447
 31
0.0
  0
LINE
  5
166
330
1F
100
AcDbEntity
  8
0-0
  6
JWW_HOJO
 62
   120
370
     5
100
AcDbLine
 10
-3327.500393841717
 20
2897.500421936447
 30
0.0
 11
-4017.500393841719
 21
2897.500421936447
 31
0.0
  0
LINE
  5
167
330
1F
100
AcDbEntity
  8
0-0
  6
JWW_HOJO
 62
   120
370
     5
100
AcDbLine
 10
-3177.500393841717
 20
3422.500421936447
 30
0.0
 11
-3177.500393841717
 21
2747.500421936447
 31
0.0
  0
LINE
  5
168
330
1F
100
AcDbEntity
  8
0-0
  6
JWW_HOJO
 62
   120
370
     5
100
AcDbLine
 10
-4167.500393841719
 20
2747.500421936447
 30
0.0
 11
-4167.500393841719
 21
3422.500421936447
 31
0.0
  0
LINE
  5
169
330
1F
100
AcDbEntity
  8
0-0
  6
JWW_HOJO
 62
   120
370
     5
100
AcDbLine
 10
-4167.500393841719
 20
3422.500421936447
 30
0.0
 11
-3027.500393841717
 21
3422.500421936447
 31
0.0
  0
LINE
  5
16A
330
1F
100
AcDbEntity
  8
0-0
  6
JWW_HOJO
 62
   120
370
     5
100
AcDbLine
 10
-3027.500393841717
 20
3422.500421936447
 30
0.0
 11
-3027.500393841717
 21
2747.500421936447
 31
0.0
  0
LINE
  5
16B
330
1F
100
AcDbEntity
  8
0-0
  6
JWW_HOJO
 62
   120
370
     5
100
AcDbLine
 10
-3027.500393841717
 20
2747.500421936447
 30
0.0
 11
-4167.500393841719
 21
2747.500421936447
 31
0.0
  0
LINE
  5
16C
330
1F
100
AcDbEntity
  8
0-B
  6
Continuous
 62
   120
370
     5
100
AcDbLine
 10
-3942.500393841719
 20
2747.500421936447
 30
0.0
 11
-3875.000093841718
 21
2747.500421936447
 31
0.0
  0
LWPOLYLINE
  5
16D
330
1F
100
AcDbEntity
  8
0-B
  6
Continuous
 62
     7
370
     9
100
AcDbPolyline
 90
        4
 70
     1
 43
3.0
 10
-3941.000393841719
 20
2747.500421936447
 42
0.4142135623731
 10
-3942.500393841719
 20
2749.000421936447
 42
0.4142135623731
 10
-3944.000393841719
 20
2747.500421936447
 42
0.4142135623731
 10
-3942.500393841719
 20
2746.000421936447
 42
0.4142135623731
  0
LWPOLYLINE
  5
16E
330
1F
100
AcDbEntity
  8
0-B
  6
Continuous
 62
     7
370
     9
100
AcDbPolyline
 90
        4
 70
     1
 43
3.0
 10
-3873.500093841717
 20
2747.500421936447
 42
0.4142135623731
 10
-3875.000093841718
 20
2749.000421936447
 42
0.4142135623731
 10
-3876.500093841718
 20
2747.500421936447
 42
0.4142135623731
 10
-3875.000093841718
 20
2746.000421936447
 42
0.4142135623731
  0
LINE
  5
16F
330
1F
100
AcDbEntity
  8
0-B
  6
Continuous
 62
   120
370
     5
100
AcDbLine
 10
-3942.500393841719
 20
2747.500421936447
 30
0.0
 11
-3942.500393841719
 21
2897.500421936447
 31
0.0
  0
LINE
  5
170
330
1F
100
AcDbEntity
  8
0-B
  6
Continuous
 62
   120
370
     5
100
AcDbLine
 10
-3875.000093841718
 20
2747.500421936447
 30
0.0
 11
-3875.000093841718
 21
2897.500421936447
 31
0.0
  0
LINE
  5
171
330
1F
100
AcDbEntity
  8
0-B
  6
Continuous
 62
   120
370
     5
100
AcDbLine
 10
-3875.000093841718
 20
2747.500421936447
 30
0.0
 11
-3470.000183841717
 21
2747.500421936447
 31
0.0
  0
LWPOLYLINE
  5
172
330
1F
100
AcDbEntity
  8
0-B
  6
Continuous
 62
     7
370
     9
100
AcDbPolyline
 90
        4
 70
     1
 43
3.0
 10
-3468.500183841718
 20
2747.500421936447
 42
0.4142135623731
 10
-3470.000183841717
 20
2749.000421936447
 42
0.4142135623731
 10
-3471.500183841717
 20
2747.500421936447
 42
0.4142135623731
 10
-3470.000183841717
 20
2746.000421936447
 42
0.4142135623731
  0
LINE
  5
173
330
1F
100
AcDbEntity
  8
0-B
  6
Continuous
 62
   120
370
     5
100
AcDbLine
 10
-3470.000183841717
 20
2747.500421936447
 30
0.0
 11
-3470.000183841717
 21
2897.500421936447
 31
0.0
  0
LINE
  5
174
330
1F
100
AcDbEntity
  8
0-B
  6
Continuous
 62
   120
370
     5
100
AcDbLine
 10
-3470.000183841717
 20
2747.500421936447
 30
0.0
 11
-3402.500393841717
 21
2747.500421936447
 31
0.0
  0
LWPOLYLINE
  5
175
330
1F
100
AcDbEntity
  8
0-B
  6
Continuous
 62
     7
370
     9
100
AcDbPolyline
 90
        4
 70
     1
 43
3.0
 10
-3401.000393841717
 20
2747.500421936447
 42
0.4142135623731
 10
-3402.500393841717
 20
2749.000421936447
 42
0.4142135623731
 10
-3404.000393841717
 20
2747.500421936447
 42
0.4142135623731
 10
-3402.500393841717
 20
2746.000421936447
 42
0.4142135623731
  0
LINE
  5
176
330
1F
100
AcDbEntity
  8
0-B
  6
Continuous
 62
   120
370
     5
100
AcDbLine
 10
-3402.500393841717
 20
2747.500421936447
 30
0.0
 11
-3402.500393841717
 21
2897.500421936447
 31
0.0
  0
LINE
  5
177
330
1F
100
AcDbEntity
  8
0-B
  6
Continuous
 62
   120
370
     5
100
AcDbLine
 10
-3942.50051384172
 20
3422.500421936447
 30
0.0
 11
-3402.500483841719
 21
3422.500421936447
 31
0.0
  0
LWPOLYLINE
  5
178
330
1F
100
AcDbEntity
  8
0-B
  6
Continuous
 62
     7
370
     9
100
AcDbPolyline
 90
        4
 70
     1
 43
3.0
 10
-3941.00051384172
 20
3422.500421936447
 42
0.4142135623731
 10
-3942.50051384172
 20
3424.000421936447
 42
0.4142135623731
 10
-3944.00051384172
 20
3422.500421936447
 42
0.4142135623731
 10
-3942.50051384172
 20
3421.000421936447
 42
0.4142135623731
  0
LWPOLYLINE
  5
179
330
1F
100
AcDbEntity
  8
0-B
  6
Continuous
 62
     7
370
     9
100
AcDbPolyline
 90
        4
 70
     1
 43
3.0
 10
-3401.000483841719
 20
3422.500421936447
 42
0.4142135623731
 10
-3402.500483841719
 20
3424.000421936447
 42
0.4142135623731
 10
-3404.000483841719
 20
3422.500421936447
 42
0.4142135623731
 10
-3402.500483841719
 20
3421.000421936447
 42
0.4142135623731
  0
LINE
  5
17A
330
1F
100
AcDbEntity
  8
0-B
  6
Continuous
 62
   120
370
     5
100
AcDbLine
 10
-3942.50051384172
 20
3422.500421936447
 30
0.0
 11
-3942.50051384172
 21
3272.500421936447
 31
0.0
  0
LINE
  5
17B
330
1F
100
AcDbEntity
  8
0-B
  6
Continuous
 62
   120
370
     5
100
AcDbLine
 10
-3402.500483841719
 20
3422.500421936447
 30
0.0
 11
-3402.500483841719
 21
3272.500421936447
 31
0.0
  0
LINE
  5
17C
330
1F
100
AcDbEntity
  8
0-B
  6
Continuous
 62
   120
370
     5
100
AcDbLine
 10
-3177.500393841717
 20
2972.500421936447
 30
0.0
 11
-3177.500393841717
 21
3152.500421936446
 31
0.0
  0
LWPOLYLINE
  5
17D
330
1F
100
AcDbEntity
  8
0-B
  6
Continuous
 62
     7
370
     9
100
AcDbPolyline
 90
        4
 70
     1
 43
3.0
 10
-3176.000393841717
 20
2972.500421936447
 42
0.4142135623731
 10
-3177.500393841717
 20
2974.000421936447
 42
0.4142135623731
 10
-3179.000393841717
 20
2972.500421936447
 42
0.4142135623731
 10
-3177.500393841717
 20
2971.000421936447
 42
0.4142135623731
  0
LWPOLYLINE
  5
17E
330
1F
100
AcDbEntity
  8
0-B
  6
Continuous
 62
     7
370
     9
100
AcDbPolyline
 90
        4
 70
     1
 43
3.0
 10
-3176.000393841717
 20
3152.500421936446
 42
0.4142135623731
 10
-3177.500393841717
 20
3154.000421936445
 42
0.4142135623731
 10
-3179.000393841717
 20
3152.500421936446
 42
0.4142135623731
 10
-3177.500393841717
 20
3151.000421936446
 42
0.4142135623731
  0
LINE
  5
17F
330
1F
100
AcDbEntity
  8
0-B
  6
Continuous
 62
   120
370
     5
100
AcDbLine
 10
-3027.500393841717
 20
2972.500421936447
 30
0.0
 11
-3327.500393841717
 21
2972.500421936447
 31
0.0
  0
LINE
  5
180
330
1F
100
AcDbEntity
  8
0-B
  6
Continuous
 62
   120
370
     5
100
AcDbLine
 10
-3177.500393841717
 20
3152.500421936446
 30
0.0
 11
-3327.500393841717
 21
3152.500421936446
 31
0.0
  0
LINE
  5
181
330
1F
100
AcDbEntity
  8
0-B
  6
Continuous
 62
   120
370
     5
100
AcDbLine
 10
-3177.500393841717
 20
3152.500421936446
 30
0.0
 11
-3177.500393841717
 21
3197.500421936447
 31
0.0
  0
LWPOLYLINE
  5
182
330
1F
100
AcDbEntity
  8
0-B
  6
Continuous
 62
     7
370
     9
100
AcDbPolyline
 90
        4
 70
     1
 43
3.0
 10
-3176.000393841717
 20
3197.500421936447
 42
0.4142135623731
 10
-3177.500393841717
 20
3199.000421936447
 42
0.4142135623731
 10
-3179.000393841717
 20
3197.500421936447
 42
0.4142135623731
 10
-3177.500393841717
 20
3196.000421936447
 42
0.4142135623731
  0
LINE
  5
183
330
1F
100
AcDbEntity
  8
0-B
  6
Continuous
 62
   120
370
     5
100
AcDbLine
 10
-3027.500393841717
 20
3197.500421936447
 30
0.0
 11
-3327.500393841717
 21
3197.500421936447
 31
0.0
  0
LINE
  5
184
330
1F
100
AcDbEntity
  8
0-B
  6
Continuous
 62
   120
370
     5
100
AcDbLine
 10
-3027.500393841717
 20
2972.500421936447
 30
0.0
 11
-3027.500393841717
 21
3197.500421936447
 31
0.0
  0
LWPOLYLINE
  5
185
330
1F
100
AcDbEntity
  8
0-B
  6
Continuous
 62
     7
370
     9
100
AcDbPolyline
 90
        4
 70
     1
 43
3.0
 10
-3026.000393841717
 20
2972.500421936447
 42
0.4142135623731
 10
-3027.500393841717
 20
2974.000421936447
 42
0.4142135623731
 10
-3029.000393841717
 20
2972.500421936447
 42
0.4142135623731
 10
-3027.500393841717
 20
2971.000421936447
 42
0.4142135623731
  0
LWPOLYLINE
  5
186
330
1F
100
AcDbEntity
  8
0-B
  6
Continuous
 62
     7
370
     9
100
AcDbPolyline
 90
        4
 70
     1
 43
3.0
 10
-3026.000393841717
 20
3197.500421936447
 42
0.4142135623731
 10
-3027.500393841717
 20
3199.000421936447
 42
0.4142135623731
 10
-3029.000393841717
 20
3197.500421936447
 42
0.4142135623731
 10
-3027.500393841717
 20
3196.000421936447
 42
0.4142135623731
  0
LINE
  5
187
330
1F
100
AcDbEntity
  8
0-7
  6
Continuous
 62
     7
370
     0
100
AcDbLine
 10
-3875.000093841718
 20
3148.000376936446
 30
0.0
 11
-3875.000093841718
 21
2972.500421936447
 31
0.0
  0
LINE
  5
188
330
1F
100
AcDbEntity
  8
0-7
  6
Continuous
 62
     7
370
     0
100
AcDbLine
 10
-3853.25030384172
 20
3148.000376936446
 30
0.0
 11
-3875.000093841718
 21
3148.000376936446
 31
0.0
  0
LINE
  5
189
330
1F
100
AcDbEntity
  8
0-7
  6
Continuous
 62
     7
370
     0
100
AcDbLine
 10
-3491.750003841717
 20
3148.000376936446
 30
0.0
 11
-3470.000093841718
 21
3148.000376936446
 31
0.0
  0
LINE
  5
18A
330
1F
100
AcDbEntity
  8
0-7
  6
Continuous
 62
     7
370
     0
100
AcDbLine
 10
-3470.000093841718
 20
3148.000376936446
 30
0.0
 11
-3470.000093841718
 21
2972.500421936447
 31
0.0
  0
LINE
  5
18B
330
1F
100
AcDbEntity
  8
0-7
  6
Continuous
 62
     7
370
     0
100
AcDbLine
 10
-3470.000093841718
 20
2972.500421936447
 30
0.0
 11
-3875.000093841718
 21
2972.500421936447
 31
0.0
  0
LINE
  5
18C
330
1F
100
AcDbEntity
  8
0-7
  6
Continuous
 62
     7
370
     0
100
AcDbLine
 10
-3873.500093841717
 20
3148.000376936446
 30
0.0
 11
-3873.500093841717
 21
2972.500421936447
 31
0.0
  0
LINE
  5
18D
330
1F
100
AcDbEntity
  8
0-7
  6
Continuous
 62
     7
370
     0
100
AcDbLine
 10
-3471.500093841717
 20
3148.000376936446
 30
0.0
 11
-3471.500093841717
 21
2972.500421936447
 31
0.0
  0
MTEXT
  5
18E
330
1F
100
AcDbEntity
  8
0-A
  6
Continuous
 62
     7
370
     9
100
AcDbMText
 10
-417.4998309161202
 20
3576.165456893767
 30
0.0
 40
68.58
 41
45.0
 46
0.0
 71
     7
 72
     1
  1
{\fＭＳ ゴシック|b0|i0|c128|p49;1}
 73
     1
 44
1.0
  0
MTEXT
  5
18F
330
1F
100
AcDbEntity
  8
0-A
  6
Continuous
 62
     7
370
     9
100
AcDbMText
 10
-4890.379562868473
 20
3527.063696719459
 30
0.0
 40
91.43999999999998
 41
540.0
 46
0.0
 71
     7
 72
     1
  1
{\fＭＳ ゴシック|b0|i0|c128|p49;両ﾂﾊﾞﾀｲﾌﾟ}
 73
     1
 44
1.0
  0
MTEXT
  5
190
330
1F
100
AcDbEntity
  8
0-A
  6
Continuous
 62
     7
370
     9
100
AcDbMText
 10
-417.4998309161202
 20
3419.915446905961
 30
0.0
 40
68.58
 41
45.0
 46
0.0
 71
     7
 72
     1
  1
{\fＭＳ ゴシック|b0|i0|c128|p49;1}
 73
     1
 44
1.0
  0
MTEXT
  5
191
330
1F
100
AcDbEntity
  8
0-A
  6
Continuous
 62
     7
370
     9
100
AcDbMText
 10
-417.4998309161202
 20
3263.665436918156
 30
0.0
 40
68.58
 41
45.0
 46
0.0
 71
     7
 72
     1
  1
{\fＭＳ ゴシック|b0|i0|c128|p49;1}
 73
     1
 44
1.0
  0
MTEXT
  5
192
330
1F
100
AcDbEntity
  8
0-B
  6
Continuous
 62
     7
370
   211
100
AcDbMText
 10
-3736.250498841719
 20
3426.077921936447
 30
0.0
 40
97.15499999999999
 41
127.5
 46
0.0
 71
     7
 72
     1
  1
{\fＭＳ ゴシック|b0|i0|c128|p49;36}
 73
     1
 44
1.0
  0
MTEXT
  5
193
330
1F
100
AcDbEntity
  8
0-B
  6
Continuous
 62
     7
370
   211
100
AcDbMText
 10
-3192.500393841717
 20
3205.015963984019
 30
0.0
 40
91.44
 41
60.0
 46
0.0
 71
     7
 72
     1
  1
{\fＭＳ ゴシック|b0|i0|c128|p49;3}
 11
6.123031769111886E-17
 21
1.0
 31
0.0
 73
     1
 44
1.0
  0
MTEXT
  5
194
330
1F
100
AcDbEntity
  8
0-B
  6
Continuous
 62
     7
370
   211
100
AcDbMText
 10
-3042.500393841717
 20
3009.827921936447
 30
0.0
 40
97.15499999999999
 41
127.5
 46
0.0
 71
     7
 72
     1
  1
{\fＭＳ ゴシック|b0|i0|c128|p49;15}
 11
6.123031769111886E-17
 21
1.0
 31
0.0
 73
     1
 44
1.0
  0
MTEXT
  5
195
330
1F
100
AcDbEntity
  8
0-B
  6
Continuous
 62
     7
370
   211
100
AcDbMText
 10
-3192.500393841717
 20
2987.327921936446
 30
0.0
 40
97.15499999999999
 41
127.5
 46
0.0
 71
     7
 72
     1
  1
{\fＭＳ ゴシック|b0|i0|c128|p49;12}
 11
6.123031769111886E-17
 21
1.0
 31
0.0
 73
     1
 44
1.0
  0
MTEXT
  5
196
330
1F
100
AcDbEntity
  8
0-B
  6
Continuous
 62
     7
370
   211
100
AcDbMText
 10
-4152.394928212037
 20
2752.030421936448
 30
0.0
 40
99.06
 41
195.0
 46
0.0
 71
     7
 72
     1
  1
{\fＭＳ ゴシック|b0|i0|c128|p49;4.5}
 73
     1
 44
1.0
  0
MTEXT
  5
197
330
1F
100
AcDbEntity
  8
0-B
  6
Continuous
 62
     7
370
   211
100
AcDbMText
 10
-3736.250138841718
 20
2751.077921936447
 30
0.0
 40
97.15499999999999
 41
127.5
 46
0.0
 71
     7
 72
     1
  1
{\fＭＳ ゴシック|b0|i0|c128|p49;27}
 73
     1
 44
1.0
  0
MTEXT
  5
198
330
1F
100
AcDbEntity
  8
0-B
  6
Continuous
 62
     7
370
   211
100
AcDbMText
 10
-3373.571502176274
 20
2752.030421936448
 30
0.0
 40
99.06
 41
195.0
 46
0.0
 71
     7
 72
     1
  1
{\fＭＳ ゴシック|b0|i0|c128|p49;4.5}
 73
     1
 44
1.0
  0
LINE
  5
199
330
1F
100
AcDbEntity
  8
F-1
  6
Continuous
 62
     7
370
     9
100
AcDbLine
 10
5699.998762800888
 20
-2539.999937624545
 30
0.0
 11
904.9995216163429
 21
-2539.999937624545
 31
0.0
  0
LINE
  5
19A
330
1F
100
AcDbEntity
  8
F-1
  6
Continuous
 62
     7
370
     9
100
AcDbLine
 10
-155.0007588154554
 20
-2539.999937624545
 30
0.0
 11
-4940.000028867979
 21
-2539.999937624545
 31
0.0
  0
LINE
  5
19B
330
1F
100
AcDbEntity
  8
0-B
  6
Continuous
 62
   120
370
     5
100
AcDbLine
 10
-3942.500393841719
 20
1422.500342034005
 30
0.0
 11
-3875.000093841718
 21
1422.500342034005
 31
0.0
  0
LWPOLYLINE
  5
19C
330
1F
100
AcDbEntity
  8
0-B
  6
Continuous
 62
     7
370
     9
100
AcDbPolyline
 90
        4
 70
     1
 43
3.0
 10
-3941.000393841719
 20
1422.500342034005
 42
0.4142135623731
 10
-3942.500393841719
 20
1424.000342034005
 42
0.4142135623731
 10
-3944.000393841719
 20
1422.500342034005
 42
0.4142135623731
 10
-3942.500393841719
 20
1421.000342034005
 42
0.4142135623731
  0
LWPOLYLINE
  5
19D
330
1F
100
AcDbEntity
  8
0-B
  6
Continuous
 62
     7
370
     9
100
AcDbPolyline
 90
        4
 70
     1
 43
3.0
 10
-3873.500093841717
 20
1422.500342034005
 42
0.4142135623731
 10
-3875.000093841718
 20
1424.000342034005
 42
0.4142135623731
 10
-3876.500093841718
 20
1422.500342034005
 42
0.4142135623731
 10
-3875.000093841718
 20
1421.000342034005
 42
0.4142135623731
  0
LINE
  5
19E
330
1F
100
AcDbEntity
  8
0-B
  6
Continuous
 62
   120
370
     5
100
AcDbLine
 10
-3942.500393841719
 20
1422.500342034005
 30
0.0
 11
-3942.500393841719
 21
1572.500342034005
 31
0.0
  0
LINE
  5
19F
330
1F
100
AcDbEntity
  8
0-B
  6
Continuous
 62
   120
370
     5
100
AcDbLine
 10
-3875.000093841718
 20
1422.500342034005
 30
0.0
 11
-3875.000093841718
 21
1572.500342034005
 31
0.0
  0
LINE
  5
1A0
330
1F
100
AcDbEntity
  8
0-B
  6
Continuous
 62
   120
370
     5
100
AcDbLine
 10
-3875.000093841718
 20
1422.500342034005
 30
0.0
 11
-3470.000183841718
 21
1422.500342034005
 31
0.0
  0
LWPOLYLINE
  5
1A1
330
1F
100
AcDbEntity
  8
0-B
  6
Continuous
 62
     7
370
     9
100
AcDbPolyline
 90
        4
 70
     1
 43
3.0
 10
-3468.500183841719
 20
1422.500342034005
 42
0.4142135623731
 10
-3470.000183841718
 20
1424.000342034005
 42
0.4142135623731
 10
-3471.500183841718
 20
1422.500342034005
 42
0.4142135623731
 10
-3470.000183841718
 20
1421.000342034005
 42
0.4142135623731
  0
LINE
  5
1A2
330
1F
100
AcDbEntity
  8
0-B
  6
Continuous
 62
   120
370
     5
100
AcDbLine
 10
-3470.000183841718
 20
1422.500342034005
 30
0.0
 11
-3470.000183841718
 21
1572.500342034005
 31
0.0
  0
LINE
  5
1A3
330
1F
100
AcDbEntity
  8
0-B
  6
Continuous
 62
   120
370
     5
100
AcDbLine
 10
-3470.000183841718
 20
1422.500342034005
 30
0.0
 11
-3402.500393841717
 21
1422.500342034005
 31
0.0
  0
LWPOLYLINE
  5
1A4
330
1F
100
AcDbEntity
  8
0-B
  6
Continuous
 62
     7
370
     9
100
AcDbPolyline
 90
        4
 70
     1
 43
3.0
 10
-3401.000393841717
 20
1422.500342034005
 42
0.4142135623731
 10
-3402.500393841717
 20
1424.000342034005
 42
0.4142135623731
 10
-3404.000393841717
 20
1422.500342034005
 42
0.4142135623731
 10
-3402.500393841717
 20
1421.000342034005
 42
0.4142135623731
  0
LINE
  5
1A5
330
1F
100
AcDbEntity
  8
0-B
  6
Continuous
 62
   120
370
     5
100
AcDbLine
 10
-3402.500393841717
 20
1422.500342034005
 30
0.0
 11
-3402.500393841717
 21
1572.500342034005
 31
0.0
  0
LINE
  5
1A6
330
1F
100
AcDbEntity
  8
0-B
  6
Continuous
 62
   120
370
     5
100
AcDbLine
 10
-3177.500393841717
 20
1647.500342034005
 30
0.0
 11
-3177.500393841717
 21
1827.500342034003
 31
0.0
  0
LWPOLYLINE
  5
1A7
330
1F
100
AcDbEntity
  8
0-B
  6
Continuous
 62
     7
370
     9
100
AcDbPolyline
 90
        4
 70
     1
 43
3.0
 10
-3176.000393841717
 20
1647.500342034005
 42
0.4142135623731
 10
-3177.500393841717
 20
1649.000342034005
 42
0.4142135623731
 10
-3179.000393841717
 20
1647.500342034005
 42
0.4142135623731
 10
-3177.500393841717
 20
1646.000342034005
 42
0.4142135623731
  0
LWPOLYLINE
  5
1A8
330
1F
100
AcDbEntity
  8
0-B
  6
Continuous
 62
     7
370
     9
100
AcDbPolyline
 90
        4
 70
     1
 43
3.0
 10
-3176.000393841717
 20
1827.500342034003
 42
0.4142135623731
 10
-3177.500393841717
 20
1829.000342034003
 42
0.4142135623731
 10
-3179.000393841717
 20
1827.500342034003
 42
0.4142135623731
 10
-3177.500393841717
 20
1826.000342034003
 42
0.4142135623731
  0
LINE
  5
1A9
330
1F
100
AcDbEntity
  8
0-B
  6
Continuous
 62
   120
370
     5
100
AcDbLine
 10
-3027.500393841717
 20
1647.500342034005
 30
0.0
 11
-3327.500393841717
 21
1647.500342034005
 31
0.0
  0
LINE
  5
1AA
330
1F
100
AcDbEntity
  8
0-B
  6
Continuous
 62
   120
370
     5
100
AcDbLine
 10
-3177.500393841717
 20
1827.500342034003
 30
0.0
 11
-3327.500393841717
 21
1827.500342034003
 31
0.0
  0
LINE
  5
1AB
330
1F
100
AcDbEntity
  8
0-B
  6
Continuous
 62
   120
370
     5
100
AcDbLine
 10
-3177.500393841717
 20
1827.500342034003
 30
0.0
 11
-3177.500393841717
 21
1872.500342034005
 31
0.0
  0
LWPOLYLINE
  5
1AC
330
1F
100
AcDbEntity
  8
0-B
  6
Continuous
 62
     7
370
     9
100
AcDbPolyline
 90
        4
 70
     1
 43
3.0
 10
-3176.000393841717
 20
1872.500342034005
 42
0.4142135623731
 10
-3177.500393841717
 20
1874.000342034005
 42
0.4142135623731
 10
-3179.000393841717
 20
1872.500342034005
 42
0.4142135623731
 10
-3177.500393841717
 20
1871.000342034005
 42
0.4142135623731
  0
LINE
  5
1AD
330
1F
100
AcDbEntity
  8
0-B
  6
Continuous
 62
   120
370
     5
100
AcDbLine
 10
-3027.500393841717
 20
1872.500342034005
 30
0.0
 11
-3327.500393841717
 21
1872.500342034005
 31
0.0
  0
LINE
  5
1AE
330
1F
100
AcDbEntity
  8
0-B
  6
Continuous
 62
   120
370
     5
100
AcDbLine
 10
-3027.500393841717
 20
1647.500342034005
 30
0.0
 11
-3027.500393841717
 21
1872.500342034005
 31
0.0
  0
LWPOLYLINE
  5
1AF
330
1F
100
AcDbEntity
  8
0-B
  6
Continuous
 62
     7
370
     9
100
AcDbPolyline
 90
        4
 70
     1
 43
3.0
 10
-3026.000393841717
 20
1647.500342034005
 42
0.4142135623731
 10
-3027.500393841717
 20
1649.000342034005
 42
0.4142135623731
 10
-3029.000393841717
 20
1647.500342034005
 42
0.4142135623731
 10
-3027.500393841717
 20
1646.000342034005
 42
0.4142135623731
  0
LWPOLYLINE
  5
1B0
330
1F
100
AcDbEntity
  8
0-B
  6
Continuous
 62
     7
370
     9
100
AcDbPolyline
 90
        4
 70
     1
 43
3.0
 10
-3026.000393841717
 20
1872.500342034005
 42
0.4142135623731
 10
-3027.500393841717
 20
1874.000342034005
 42
0.4142135623731
 10
-3029.000393841717
 20
1872.500342034005
 42
0.4142135623731
 10
-3027.500393841717
 20
1871.000342034005
 42
0.4142135623731
  0
LINE
  5
1B1
330
1F
100
AcDbEntity
  8
0-0
  6
JWW_HOJO
 62
   120
370
     5
100
AcDbLine
 10
-3327.500393841717
 20
1572.500342034005
 30
0.0
 11
-3327.500393841717
 21
1947.500342034005
 31
0.0
  0
LINE
  5
1B2
330
1F
100
AcDbEntity
  8
0-0
  6
JWW_HOJO
 62
   120
370
     5
100
AcDbLine
 10
-3327.500393841717
 20
1947.500342034005
 30
0.0
 11
-4017.500393841719
 21
1947.500342034005
 31
0.0
  0
LINE
  5
1B3
330
1F
100
AcDbEntity
  8
0-0
  6
JWW_HOJO
 62
   120
370
     5
100
AcDbLine
 10
-4017.500393841719
 20
1572.500342034005
 30
0.0
 11
-4017.500393841719
 21
1947.500342034005
 31
0.0
  0
LINE
  5
1B4
330
1F
100
AcDbEntity
  8
0-0
  6
JWW_HOJO
 62
   120
370
     5
100
AcDbLine
 10
-4017.500393841719
 20
1572.500342034005
 30
0.0
 11
-3327.500393841717
 21
1572.500342034005
 31
0.0
  0
LINE
  5
1B5
330
1F
100
AcDbEntity
  8
0-0
  6
JWW_HOJO
 62
   120
370
     5
100
AcDbLine
 10
-3672.500393841718
 20
2247.500342034005
 30
0.0
 11
-3672.500393841718
 21
1422.500342034005
 31
0.0
  0
LINE
  5
1B6
330
1F
100
AcDbEntity
  8
0-0
  6
JWW_HOJO
 62
   120
370
     5
100
AcDbLine
 10
-3027.500393841717
 20
2097.500342034005
 30
0.0
 11
-4167.500393841719
 21
2097.500342034005
 31
0.0
  0
LINE
  5
1B7
330
1F
100
AcDbEntity
  8
0-0
  6
JWW_HOJO
 62
   120
370
     5
100
AcDbLine
 10
-4167.500393841719
 20
1422.500342034005
 30
0.0
 11
-3027.500393841717
 21
1422.500342034005
 31
0.0
  0
LINE
  5
1B8
330
1F
100
AcDbEntity
  8
0-0
  6
JWW_HOJO
 62
   120
370
     5
100
AcDbLine
 10
-3027.500393841717
 20
2247.500342034005
 30
0.0
 11
-4167.500393841719
 21
2247.500342034005
 31
0.0
  0
LINE
  5
1B9
330
1F
100
AcDbEntity
  8
0-0
  6
JWW_HOJO
 62
   120
370
     5
100
AcDbLine
 10
-3027.500393841717
 20
1422.500342034005
 30
0.0
 11
-3027.500393841717
 21
2247.500342034005
 31
0.0
  0
LINE
  5
1BA
330
1F
100
AcDbEntity
  8
0-0
  6
JWW_HOJO
 62
   120
370
     5
100
AcDbLine
 10
-3177.500393841717
 20
2247.500342034005
 30
0.0
 11
-3177.500393841717
 21
1422.500342034005
 31
0.0
  0
LINE
  5
1BB
330
1F
100
AcDbEntity
  8
0-0
  6
JWW_HOJO
 62
   120
370
     5
100
AcDbLine
 10
-4167.500393841719
 20
2247.500342034005
 30
0.0
 11
-4167.500393841719
 21
1422.500342034005
 31
0.0
  0
LINE
  5
1BC
330
1F
100
AcDbEntity
  8
0-7
  6
Continuous
 62
     7
370
     0
100
AcDbLine
 10
-3672.499703841734
 20
1715.000342034003
 30
0.0
 11
-3679.999703841734
 21
1722.500342034005
 31
0.0
  0
LINE
  5
1BD
330
1F
100
AcDbEntity
  8
0-7
  6
Continuous
 62
     7
370
     0
100
AcDbLine
 10
-3672.499703841734
 20
1715.000342034003
 30
0.0
 11
-3664.999703841733
 21
1722.500342034005
 31
0.0
  0
LINE
  5
1BE
330
1F
100
AcDbEntity
  8
0-7
  6
Continuous
 62
     7
370
     0
100
AcDbLine
 10
-3591.499793841735
 20
1722.500342034005
 30
0.0
 11
-3664.999703841733
 21
1722.500342034005
 31
0.0
  0
LINE
  5
1BF
330
1F
100
AcDbEntity
  8
0-7
  6
Continuous
 62
     7
370
     0
100
AcDbLine
 10
-3679.999703841734
 20
1722.500342034005
 30
0.0
 11
-3753.499778841735
 21
1722.500342034005
 31
0.0
  0
LINE
  5
1C0
330
1F
100
AcDbEntity
  8
0-7
  6
Continuous
 62
     7
370
     0
100
AcDbLine
 10
-3591.499793841735
 20
1823.000297034004
 30
0.0
 11
-3591.499793841735
 21
1722.500342034005
 31
0.0
  0
ARC
  5
1C1
330
1F
100
AcDbEntity
  8
0-7
  6
Continuous
 62
     7
370
     0
100
AcDbCircle
 10
-3505.999613841735
 20
1781.750297034004
 30
0.0
 40
4.5
100
AcDbArc
 50
149.05365
 51
210.94632
  0
LINE
  5
1C2
330
1F
100
AcDbEntity
  8
0-7
  6
Continuous
 62
     7
370
     0
100
AcDbLine
 10
-3506.749613841734
 20
1789.250297034004
 30
0.0
 11
-3509.859038841734
 21
1784.064362034004
 31
0.0
  0
LINE
  5
1C3
330
1F
100
AcDbEntity
  8
0-7
  6
Continuous
 62
     7
370
     0
100
AcDbLine
 10
-3506.749613841734
 20
1774.250297034002
 30
0.0
 11
-3509.859038841734
 21
1779.436232034002
 31
0.0
  0
LINE
  5
1C4
330
1F
100
AcDbEntity
  8
0-7
  6
Continuous
 62
     7
370
     0
100
AcDbLine
 10
-3506.749613841734
 20
1789.250297034004
 30
0.0
 11
-3506.749613841734
 21
1808.000297034004
 31
0.0
  0
LINE
  5
1C5
330
1F
100
AcDbEntity
  8
0-7
  6
Continuous
 62
     7
370
     0
100
AcDbLine
 10
-3506.749613841734
 20
1703.000297034004
 30
0.0
 11
-3506.749613841734
 21
1774.250297034002
 31
0.0
  0
LINE
  5
1C6
330
1F
100
AcDbEntity
  8
0-7
  6
Continuous
 62
     7
370
     0
100
AcDbLine
 10
-3541.249613841735
 20
1688.000297034004
 30
0.0
 11
-3521.749613841735
 21
1688.000297034004
 31
0.0
  0
ARC
  5
1C7
330
1F
100
AcDbEntity
  8
0-7
  6
Continuous
 62
     7
370
     0
100
AcDbCircle
 10
-3521.749613841735
 20
1703.000297034004
 30
0.0
 40
15.0
100
AcDbArc
 50
270.0
 51
0.0
  0
ARC
  5
1C8
330
1F
100
AcDbEntity
  8
0-7
  6
Continuous
 62
     7
370
     0
100
AcDbCircle
 10
-3491.749613841734
 20
1808.000297034004
 30
0.0
 40
15.0
100
AcDbArc
 50
90.0
 51
180.0
  0
LINE
  5
1C9
330
1F
100
AcDbEntity
  8
0-7
  6
Continuous
 62
     7
370
     0
100
AcDbLine
 10
-3571.249583841734
 20
1823.000297034004
 30
0.0
 11
-3591.499763841734
 21
1823.000297034004
 31
0.0
  0
ARC
  5
1CA
330
1F
100
AcDbEntity
  8
0-7
  6
Continuous
 62
     7
370
     0
100
AcDbCircle
 10
-3571.249583841734
 20
1808.000297034004
 30
0.0
 40
15.0
100
AcDbArc
 50
0.0000000000000127
 51
90.00000000000001
  0
LINE
  5
1CB
330
1F
100
AcDbEntity
  8
0-7
  6
Continuous
 62
     7
370
     0
100
AcDbLine
 10
-3556.249583841734
 20
1789.250297034004
 30
0.0
 11
-3556.249583841734
 21
1808.000297034004
 31
0.0
  0
LINE
  5
1CC
330
1F
100
AcDbEntity
  8
0-7
  6
Continuous
 62
     7
370
     0
100
AcDbLine
 10
-3556.249583841734
 20
1789.250297034004
 30
0.0
 11
-3553.140158841734
 21
1784.064362034004
 31
0.0
  0
LINE
  5
1CD
330
1F
100
AcDbEntity
  8
0-7
  6
Continuous
 62
     7
370
     0
100
AcDbLine
 10
-3556.249583841734
 20
1774.250297034002
 30
0.0
 11
-3553.140158841734
 21
1779.436232034002
 31
0.0
  0
ARC
  5
1CE
330
1F
100
AcDbEntity
  8
0-7
  6
Continuous
 62
     7
370
     0
100
AcDbCircle
 10
-3556.999583841734
 20
1781.750297034004
 30
0.0
 40
4.5
100
AcDbArc
 50
329.05368
 51
30.94635000000001
  0
LINE
  5
1CF
330
1F
100
AcDbEntity
  8
0-7
  6
Continuous
 62
     7
370
     0
100
AcDbLine
 10
-3556.249583841734
 20
1703.000297034004
 30
0.0
 11
-3556.249583841734
 21
1774.250297034002
 31
0.0
  0
ARC
  5
1D0
330
1F
100
AcDbEntity
  8
0-7
  6
Continuous
 62
     7
370
     0
100
AcDbCircle
 10
-3541.249583841734
 20
1703.000297034004
 30
0.0
 40
15.0
100
AcDbArc
 50
180.0
 51
270.0
  0
LINE
  5
1D1
330
1F
100
AcDbEntity
  8
0-7
  6
Continuous
 62
     7
370
     0
100
AcDbLine
 10
-3753.499613841734
 20
1823.000297034004
 30
0.0
 11
-3753.499613841734
 21
1722.500342034005
 31
0.0
  0
ARC
  5
1D2
330
1F
100
AcDbEntity
  8
0-7
  6
Continuous
 62
     7
370
     0
100
AcDbCircle
 10
-3838.999913841733
 20
1781.750297034004
 30
0.0
 40
4.5
100
AcDbArc
 50
329.05368
 51
30.94635000000001
  0
LINE
  5
1D3
330
1F
100
AcDbEntity
  8
0-7
  6
Continuous
 62
     7
370
     0
100
AcDbLine
 10
-3838.249913841733
 20
1789.250297034004
 30
0.0
 11
-3835.140488841734
 21
1784.064362034004
 31
0.0
  0
LINE
  5
1D4
330
1F
100
AcDbEntity
  8
0-7
  6
Continuous
 62
     7
370
     0
100
AcDbLine
 10
-3838.249913841733
 20
1774.250297034002
 30
0.0
 11
-3835.140488841734
 21
1779.436232034002
 31
0.0
  0
LINE
  5
1D5
330
1F
100
AcDbEntity
  8
0-7
  6
Continuous
 62
     7
370
     0
100
AcDbLine
 10
-3838.249913841733
 20
1789.250297034004
 30
0.0
 11
-3838.249913841733
 21
1808.000297034004
 31
0.0
  0
LINE
  5
1D6
330
1F
100
AcDbEntity
  8
0-7
  6
Continuous
 62
     7
370
     0
100
AcDbLine
 10
-3838.249913841733
 20
1703.000297034004
 30
0.0
 11
-3838.249913841733
 21
1774.250297034002
 31
0.0
  0
LINE
  5
1D7
330
1F
100
AcDbEntity
  8
0-7
  6
Continuous
 62
     7
370
     0
100
AcDbLine
 10
-3803.749913841734
 20
1688.000297034004
 30
0.0
 11
-3823.249913841736
 21
1688.000297034004
 31
0.0
  0
ARC
  5
1D8
330
1F
100
AcDbEntity
  8
0-7
  6
Continuous
 62
     7
370
     0
100
AcDbCircle
 10
-3823.249913841736
 20
1703.000297034004
 30
0.0
 40
15.0
100
AcDbArc
 50
180.0
 51
270.0
  0
ARC
  5
1D9
330
1F
100
AcDbEntity
  8
0-7
  6
Continuous
 62
     7
370
     0
100
AcDbCircle
 10
-3853.249913841735
 20
1808.000297034004
 30
0.0
 40
15.0
100
AcDbArc
 50
0.0000000000000127
 51
90.00000000000001
  0
LINE
  5
1DA
330
1F
100
AcDbEntity
  8
0-7
  6
Continuous
 62
     7
370
     0
100
AcDbLine
 10
-3773.749823841735
 20
1823.000297034004
 30
0.0
 11
-3753.499628841735
 21
1823.000297034004
 31
0.0
  0
ARC
  5
1DB
330
1F
100
AcDbEntity
  8
0-7
  6
Continuous
 62
     7
370
     0
100
AcDbCircle
 10
-3773.749823841735
 20
1808.000297034004
 30
0.0
 40
15.0
100
AcDbArc
 50
90.0
 51
180.0
  0
LINE
  5
1DC
330
1F
100
AcDbEntity
  8
0-7
  6
Continuous
 62
     7
370
     0
100
AcDbLine
 10
-3788.749823841733
 20
1789.250297034004
 30
0.0
 11
-3788.749823841733
 21
1808.000297034004
 31
0.0
  0
LINE
  5
1DD
330
1F
100
AcDbEntity
  8
0-7
  6
Continuous
 62
     7
370
     0
100
AcDbLine
 10
-3788.749823841733
 20
1789.250297034004
 30
0.0
 11
-3791.859233841735
 21
1784.064362034004
 31
0.0
  0
LINE
  5
1DE
330
1F
100
AcDbEntity
  8
0-7
  6
Continuous
 62
     7
370
     0
100
AcDbLine
 10
-3788.749823841733
 20
1774.250297034002
 30
0.0
 11
-3791.859233841735
 21
1779.436232034002
 31
0.0
  0
ARC
  5
1DF
330
1F
100
AcDbEntity
  8
0-7
  6
Continuous
 62
     7
370
     0
100
AcDbCircle
 10
-3787.999823841733
 20
1781.750297034004
 30
0.0
 40
4.5
100
AcDbArc
 50
149.05365
 51
210.94632
  0
LINE
  5
1E0
330
1F
100
AcDbEntity
  8
0-7
  6
Continuous
 62
     7
370
     0
100
AcDbLine
 10
-3788.749823841733
 20
1703.000297034004
 30
0.0
 11
-3788.749823841733
 21
1774.250297034002
 31
0.0
  0
ARC
  5
1E1
330
1F
100
AcDbEntity
  8
0-7
  6
Continuous
 62
     7
370
     0
100
AcDbCircle
 10
-3803.749823841734
 20
1703.000297034004
 30
0.0
 40
15.0
100
AcDbArc
 50
270.0
 51
0.0
  0
LINE
  5
1E2
330
1F
100
AcDbEntity
  8
0-7
  6
Continuous
 62
     7
370
     0
100
AcDbLine
 10
-3852.500003841735
 20
1872.500342034005
 30
0.0
 11
-3492.500003841735
 21
1872.500342034005
 31
0.0
  0
LINE
  5
1E3
330
1F
100
AcDbEntity
  8
0-7
  6
Continuous
 62
     7
370
     0
100
AcDbLine
 10
-3447.500003841733
 20
1827.500342034004
 30
0.0
 11
-3447.500003841733
 21
1652.000342034004
 31
0.0
  0
LINE
  5
1E4
330
1F
100
AcDbEntity
  8
0-7
  6
Continuous
 62
     7
370
     0
100
AcDbLine
 10
-3942.500003841734
 20
1827.500342034004
 30
0.0
 11
-3832.250003841734
 21
1827.500342034004
 31
0.0
  0
LINE
  5
1E5
330
1F
100
AcDbEntity
  8
0-7
  6
Continuous
 62
     7
370
     0
100
AcDbLine
 10
-3794.750003841734
 20
1827.500342034004
 30
0.0
 11
-3550.250003841734
 21
1827.500342034004
 31
0.0
  0
LINE
  5
1E6
330
1F
100
AcDbEntity
  8
0-7
  6
Continuous
 62
     7
370
     0
100
AcDbLine
 10
-3512.750003841734
 20
1827.500342034004
 30
0.0
 11
-3447.500003841733
 21
1827.500342034004
 31
0.0
  0
LINE
  5
1E7
330
1F
100
AcDbEntity
  8
0-7
  6
Continuous
 62
     7
370
     0
100
AcDbLine
 10
-3942.500003841734
 20
1834.750062034004
 30
0.0
 11
-3942.500003841734
 21
1827.500342034004
 31
0.0
  0
ARC
  5
1E8
330
1F
100
AcDbEntity
  8
0-7
  6
Continuous
 62
     7
370
     0
100
AcDbCircle
 10
-3492.500003841735
 20
1722.500342034005
 30
0.0
 40
150.0
100
AcDbArc
 50
56.25101100000001
 51
90.00000000000001
  0
ARC
  5
1E9
330
1F
100
AcDbEntity
  8
0-7
  6
Continuous
 62
     7
370
     0
100
AcDbCircle
 10
-3852.500003841735
 20
1722.500342034005
 30
0.0
 40
150.0
100
AcDbArc
 50
90.00000000000001
 51
123.748989
  0
ARC
  5
1EA
330
1F
100
AcDbEntity
  8
0-7
  6
Continuous
 62
     7
370
     0
100
AcDbCircle
 10
-3417.500003841735
 20
1834.750062034004
 30
0.0
 40
15.0
100
AcDbArc
 50
0.0000000000000127
 51
56.25101100000001
  0
ARC
  5
1EB
330
1F
100
AcDbEntity
  8
0-7
  6
Continuous
 62
     7
370
     0
100
AcDbCircle
 10
-3927.500003841732
 20
1834.750062034004
 30
0.0
 40
15.0
100
AcDbArc
 50
123.748989
 51
180.0
  0
ARC
  5
1EC
330
1F
100
AcDbEntity
  8
0-7
  6
Continuous
 62
     7
370
     0
100
AcDbCircle
 10
-3831.500003841734
 20
1775.000342034003
 30
0.0
 40
4.5
100
AcDbArc
 50
149.05366
 51
210.94634
  0
ARC
  5
1ED
330
1F
100
AcDbEntity
  8
0-7
  6
Continuous
 62
     7
370
     0
100
AcDbCircle
 10
-3831.500003841734
 20
1752.500342034004
 30
0.0
 40
4.5
100
AcDbArc
 50
149.05366
 51
210.94634
  0
ARC
  5
1EE
330
1F
100
AcDbEntity
  8
0-7
  6
Continuous
 62
     7
370
     0
100
AcDbCircle
 10
-3831.500003841734
 20
1730.000342034005
 30
0.0
 40
4.5
100
AcDbArc
 50
149.05366
 51
222.838263
  0
ARC
  5
1EF
330
1F
100
AcDbEntity
  8
0-7
  6
Continuous
 62
     7
370
     0
100
AcDbCircle
 10
-3813.500003841734
 20
1715.000342034004
 30
0.0
 40
7.5
100
AcDbArc
 50
222.838263
 51
317.161737
  0
ARC
  5
1F0
330
1F
100
AcDbEntity
  8
0-7
  6
Continuous
 62
     7
370
     0
100
AcDbCircle
 10
-3795.500003841733
 20
1730.000342034005
 30
0.0
 40
4.5
100
AcDbArc
 50
317.161737
 51
30.94634
  0
ARC
  5
1F1
330
1F
100
AcDbEntity
  8
0-7
  6
Continuous
 62
     7
370
     0
100
AcDbCircle
 10
-3795.500003841733
 20
1752.500342034004
 30
0.0
 40
4.5
100
AcDbArc
 50
329.0536600000001
 51
30.94634000000006
  0
ARC
  5
1F2
330
1F
100
AcDbEntity
  8
0-7
  6
Continuous
 62
     7
370
     0
100
AcDbCircle
 10
-3795.500003841733
 20
1775.000342034003
 30
0.0
 40
4.5
100
AcDbArc
 50
329.0536600000001
 51
30.94634000000006
  0
LINE
  5
1F3
330
1F
100
AcDbEntity
  8
0-7
  6
Continuous
 62
     7
370
     0
100
AcDbLine
 10
-3791.640583841736
 20
1777.314397034005
 30
0.0
 11
-3794.750003841734
 21
1782.500342034003
 31
0.0
  0
LINE
  5
1F4
330
1F
100
AcDbEntity
  8
0-7
  6
Continuous
 62
     7
370
     0
100
AcDbLine
 10
-3791.640583841736
 20
1772.686282034005
 30
0.0
 11
-3794.750003841734
 21
1767.500342034005
 31
0.0
  0
LINE
  5
1F5
330
1F
100
AcDbEntity
  8
0-7
  6
Continuous
 62
     7
370
     0
100
AcDbLine
 10
-3791.640583841736
 20
1754.814397034003
 30
0.0
 11
-3794.750003841734
 21
1760.000342034005
 31
0.0
  0
LINE
  5
1F6
330
1F
100
AcDbEntity
  8
0-7
  6
Continuous
 62
     7
370
     0
100
AcDbLine
 10
-3791.640583841736
 20
1750.186282034003
 30
0.0
 11
-3794.750003841734
 21
1745.000342034003
 31
0.0
  0
LINE
  5
1F7
330
1F
100
AcDbEntity
  8
0-7
  6
Continuous
 62
     7
370
     0
100
AcDbLine
 10
-3791.640583841736
 20
1732.314397034004
 30
0.0
 11
-3794.750003841734
 21
1737.500342034003
 31
0.0
  0
LINE
  5
1F8
330
1F
100
AcDbEntity
  8
0-7
  6
Continuous
 62
     7
370
     0
100
AcDbLine
 10
-3792.200263841736
 20
1726.940652034004
 30
0.0
 11
-3808.000433841735
 21
1709.900857034005
 31
0.0
  0
LINE
  5
1F9
330
1F
100
AcDbEntity
  8
0-7
  6
Continuous
 62
     7
370
     0
100
AcDbLine
 10
-3818.999573841734
 20
1709.900857034005
 30
0.0
 11
-3834.799748841735
 21
1726.940652034004
 31
0.0
  0
LINE
  5
1FA
330
1F
100
AcDbEntity
  8
0-7
  6
Continuous
 62
     7
370
     0
100
AcDbLine
 10
-3835.359428841735
 20
1732.314397034004
 30
0.0
 11
-3832.250003841734
 21
1737.500342034003
 31
0.0
  0
LINE
  5
1FB
330
1F
100
AcDbEntity
  8
0-7
  6
Continuous
 62
     7
370
     0
100
AcDbLine
 10
-3835.359428841735
 20
1750.186282034003
 30
0.0
 11
-3832.250003841734
 21
1745.000342034003
 31
0.0
  0
LINE
  5
1FC
330
1F
100
AcDbEntity
  8
0-7
  6
Continuous
 62
     7
370
     0
100
AcDbLine
 10
-3835.359428841735
 20
1754.814397034003
 30
0.0
 11
-3832.250003841734
 21
1760.000342034005
 31
0.0
  0
LINE
  5
1FD
330
1F
100
AcDbEntity
  8
0-7
  6
Continuous
 62
     7
370
     0
100
AcDbLine
 10
-3835.359428841735
 20
1772.686282034005
 30
0.0
 11
-3832.250003841734
 21
1767.500342034005
 31
0.0
  0
LINE
  5
1FE
330
1F
100
AcDbEntity
  8
0-7
  6
Continuous
 62
     7
370
     0
100
AcDbLine
 10
-3835.359428841735
 20
1777.314397034005
 30
0.0
 11
-3832.250003841734
 21
1782.500342034003
 31
0.0
  0
LINE
  5
1FF
330
1F
100
AcDbEntity
  8
0-7
  6
Continuous
 62
     7
370
     0
100
AcDbLine
 10
-3794.750003841734
 20
1827.500342034004
 30
0.0
 11
-3794.750003841734
 21
1782.500342034003
 31
0.0
  0
LINE
  5
200
330
1F
100
AcDbEntity
  8
0-7
  6
Continuous
 62
     7
370
     0
100
AcDbLine
 10
-3832.250003841734
 20
1827.500342034004
 30
0.0
 11
-3832.250003841734
 21
1782.500342034003
 31
0.0
  0
LINE
  5
201
330
1F
100
AcDbEntity
  8
0-7
  6
Continuous
 62
     7
370
     0
100
AcDbLine
 10
-3832.250003841734
 20
1767.500342034005
 30
0.0
 11
-3832.250003841734
 21
1760.000342034005
 31
0.0
  0
LINE
  5
202
330
1F
100
AcDbEntity
  8
0-7
  6
Continuous
 62
     7
370
     0
100
AcDbLine
 10
-3832.250003841734
 20
1745.000342034003
 30
0.0
 11
-3832.250003841734
 21
1737.500342034003
 31
0.0
  0
LINE
  5
203
330
1F
100
AcDbEntity
  8
0-7
  6
Continuous
 62
     7
370
     0
100
AcDbLine
 10
-3794.750003841734
 20
1767.500342034005
 30
0.0
 11
-3794.750003841734
 21
1760.000342034005
 31
0.0
  0
LINE
  5
204
330
1F
100
AcDbEntity
  8
0-7
  6
Continuous
 62
     7
370
     0
100
AcDbLine
 10
-3794.750003841734
 20
1745.000342034003
 30
0.0
 11
-3794.750003841734
 21
1737.500342034003
 31
0.0
  0
ARC
  5
205
330
1F
100
AcDbEntity
  8
0-7
  6
Continuous
 62
     7
370
     0
100
AcDbCircle
 10
-3513.500003841734
 20
1730.000342034005
 30
0.0
 40
4.5
100
AcDbArc
 50
317.161737
 51
30.94634
  0
ARC
  5
206
330
1F
100
AcDbEntity
  8
0-7
  6
Continuous
 62
     7
370
     0
100
AcDbCircle
 10
-3513.500003841734
 20
1752.500342034004
 30
0.0
 40
4.5
100
AcDbArc
 50
329.0536600000001
 51
30.94634000000006
  0
ARC
  5
207
330
1F
100
AcDbEntity
  8
0-7
  6
Continuous
 62
     7
370
     0
100
AcDbCircle
 10
-3513.500003841734
 20
1775.000342034003
 30
0.0
 40
4.5
100
AcDbArc
 50
329.0536600000001
 51
30.94634000000006
  0
LINE
  5
208
330
1F
100
AcDbEntity
  8
0-7
  6
Continuous
 62
     7
370
     0
100
AcDbLine
 10
-3509.640583841736
 20
1777.314397034005
 30
0.0
 11
-3512.750003841734
 21
1782.500342034003
 31
0.0
  0
LINE
  5
209
330
1F
100
AcDbEntity
  8
0-7
  6
Continuous
 62
     7
370
     0
100
AcDbLine
 10
-3509.640583841736
 20
1772.686282034005
 30
0.0
 11
-3512.750003841734
 21
1767.500342034005
 31
0.0
  0
LINE
  5
20A
330
1F
100
AcDbEntity
  8
0-7
  6
Continuous
 62
     7
370
     0
100
AcDbLine
 10
-3509.640583841736
 20
1754.814397034003
 30
0.0
 11
-3512.750003841734
 21
1760.000342034005
 31
0.0
  0
LINE
  5
20B
330
1F
100
AcDbEntity
  8
0-7
  6
Continuous
 62
     7
370
     0
100
AcDbLine
 10
-3509.640583841736
 20
1750.186282034003
 30
0.0
 11
-3512.750003841734
 21
1745.000342034003
 31
0.0
  0
LINE
  5
20C
330
1F
100
AcDbEntity
  8
0-7
  6
Continuous
 62
     7
370
     0
100
AcDbLine
 10
-3509.640583841736
 20
1732.314397034004
 30
0.0
 11
-3512.750003841734
 21
1737.500342034003
 31
0.0
  0
LINE
  5
20D
330
1F
100
AcDbEntity
  8
0-7
  6
Continuous
 62
     7
370
     0
100
AcDbLine
 10
-3510.200263841734
 20
1726.940652034004
 30
0.0
 11
-3526.000433841734
 21
1709.900857034005
 31
0.0
  0
LINE
  5
20E
330
1F
100
AcDbEntity
  8
0-7
  6
Continuous
 62
     7
370
     0
100
AcDbLine
 10
-3512.750003841734
 20
1827.500342034004
 30
0.0
 11
-3512.750003841734
 21
1782.500342034003
 31
0.0
  0
LINE
  5
20F
330
1F
100
AcDbEntity
  8
0-7
  6
Continuous
 62
     7
370
     0
100
AcDbLine
 10
-3512.750003841734
 20
1767.500342034005
 30
0.0
 11
-3512.750003841734
 21
1760.000342034005
 31
0.0
  0
LINE
  5
210
330
1F
100
AcDbEntity
  8
0-7
  6
Continuous
 62
     7
370
     0
100
AcDbLine
 10
-3512.750003841734
 20
1745.000342034003
 30
0.0
 11
-3512.750003841734
 21
1737.500342034003
 31
0.0
  0
ARC
  5
211
330
1F
100
AcDbEntity
  8
0-7
  6
Continuous
 62
     7
370
     0
100
AcDbCircle
 10
-3549.500003841735
 20
1775.000342034003
 30
0.0
 40
4.5
100
AcDbArc
 50
149.05366
 51
210.94634
  0
ARC
  5
212
330
1F
100
AcDbEntity
  8
0-7
  6
Continuous
 62
     7
370
     0
100
AcDbCircle
 10
-3549.500003841735
 20
1752.500342034004
 30
0.0
 40
4.5
100
AcDbArc
 50
149.05366
 51
210.94634
  0
ARC
  5
213
330
1F
100
AcDbEntity
  8
0-7
  6
Continuous
 62
     7
370
     0
100
AcDbCircle
 10
-3549.500003841735
 20
1730.000342034005
 30
0.0
 40
4.5
100
AcDbArc
 50
149.05366
 51
222.838263
  0
LINE
  5
214
330
1F
100
AcDbEntity
  8
0-7
  6
Continuous
 62
     7
370
     0
100
AcDbLine
 10
-3536.999573841735
 20
1709.900857034005
 30
0.0
 11
-3552.799748841734
 21
1726.940652034004
 31
0.0
  0
LINE
  5
215
330
1F
100
AcDbEntity
  8
0-7
  6
Continuous
 62
     7
370
     0
100
AcDbLine
 10
-3553.359428841734
 20
1732.314397034004
 30
0.0
 11
-3550.250003841734
 21
1737.500342034003
 31
0.0
  0
LINE
  5
216
330
1F
100
AcDbEntity
  8
0-7
  6
Continuous
 62
     7
370
     0
100
AcDbLine
 10
-3553.359428841734
 20
1750.186282034003
 30
0.0
 11
-3550.250003841734
 21
1745.000342034003
 31
0.0
  0
LINE
  5
217
330
1F
100
AcDbEntity
  8
0-7
  6
Continuous
 62
     7
370
     0
100
AcDbLine
 10
-3553.359428841734
 20
1754.814397034003
 30
0.0
 11
-3550.250003841734
 21
1760.000342034005
 31
0.0
  0
LINE
  5
218
330
1F
100
AcDbEntity
  8
0-7
  6
Continuous
 62
     7
370
     0
100
AcDbLine
 10
-3553.359428841734
 20
1772.686282034005
 30
0.0
 11
-3550.250003841734
 21
1767.500342034005
 31
0.0
  0
LINE
  5
219
330
1F
100
AcDbEntity
  8
0-7
  6
Continuous
 62
     7
370
     0
100
AcDbLine
 10
-3553.359428841734
 20
1777.314397034005
 30
0.0
 11
-3550.250003841734
 21
1782.500342034003
 31
0.0
  0
LINE
  5
21A
330
1F
100
AcDbEntity
  8
0-7
  6
Continuous
 62
     7
370
     0
100
AcDbLine
 10
-3550.250003841734
 20
1827.500342034004
 30
0.0
 11
-3550.250003841734
 21
1782.500342034003
 31
0.0
  0
LINE
  5
21B
330
1F
100
AcDbEntity
  8
0-7
  6
Continuous
 62
     7
370
     0
100
AcDbLine
 10
-3550.250003841734
 20
1767.500342034005
 30
0.0
 11
-3550.250003841734
 21
1760.000342034005
 31
0.0
  0
LINE
  5
21C
330
1F
100
AcDbEntity
  8
0-7
  6
Continuous
 62
     7
370
     0
100
AcDbLine
 10
-3550.250003841734
 20
1745.000342034003
 30
0.0
 11
-3550.250003841734
 21
1737.500342034003
 31
0.0
  0
ARC
  5
21D
330
1F
100
AcDbEntity
  8
0-7
  6
Continuous
 62
     7
370
     0
100
AcDbCircle
 10
-3531.500003841734
 20
1715.000342034004
 30
0.0
 40
7.5
100
AcDbArc
 50
222.838263
 51
317.161737
  0
LINE
  5
21E
330
1F
100
AcDbEntity
  8
0-7
  6
Continuous
 62
     7
370
     0
100
AcDbLine
 10
-3447.500003841733
 20
1652.000342034004
 30
0.0
 11
-3402.500003841735
 21
1652.000342034004
 31
0.0
  0
LINE
  5
21F
330
1F
100
AcDbEntity
  8
0-7
  6
Continuous
 62
     7
370
     0
100
AcDbLine
 10
-3402.500003841735
 20
1834.750062034004
 30
0.0
 11
-3402.500003841735
 21
1652.000342034004
 31
0.0
  0
LINE
  5
220
330
1F
100
AcDbEntity
  8
0-7
  6
Continuous
 62
     7
370
     9
100
AcDbLine
 10
-3875.000183841718
 20
1647.500342034005
 30
0.0
 11
-3875.000183841718
 21
1823.000297034004
 31
0.0
  0
LINE
  5
221
330
1F
100
AcDbEntity
  8
0-7
  6
Continuous
 62
     7
370
     0
100
AcDbLine
 10
-3853.249913841735
 20
1823.000297034004
 30
0.0
 11
-3875.000183841718
 21
1823.000297034004
 31
0.0
  0
LINE
  5
222
330
1F
100
AcDbEntity
  8
0-7
  6
Continuous
 62
     7
370
     0
100
AcDbLine
 10
-3469.999703841735
 20
1647.500342034005
 30
0.0
 11
-3875.000183841718
 21
1647.500342034005
 31
0.0
  0
LINE
  5
223
330
1F
100
AcDbEntity
  8
0-7
  6
Continuous
 62
     7
370
     0
100
AcDbLine
 10
-3469.999703841735
 20
1823.000297034004
 30
0.0
 11
-3469.999703841735
 21
1647.500342034005
 31
0.0
  0
LINE
  5
224
330
1F
100
AcDbEntity
  8
0-7
  6
Continuous
 62
     7
370
     0
100
AcDbLine
 10
-3491.749613841734
 20
1823.000297034004
 30
0.0
 11
-3469.999703841735
 21
1823.000297034004
 31
0.0
  0
LINE
  5
225
330
1F
100
AcDbEntity
  8
0-7
  6
Continuous
 62
     7
370
     0
100
AcDbLine
 10
-3471.499703841735
 20
1823.000297034004
 30
0.0
 11
-3471.499703841735
 21
1647.500342034005
 31
0.0
  0
LINE
  5
226
330
1F
100
AcDbEntity
  8
0-7
  6
Continuous
 62
     7
370
     0
100
AcDbLine
 10
-3873.500183841718
 20
1647.500342034005
 30
0.0
 11
-3873.500183841718
 21
1823.000297034004
 31
0.0
  0
LINE
  5
227
330
1F
100
AcDbEntity
  8
0-7
  6
Continuous
 62
     4
370
     0
100
AcDbLine
 10
-3813.499313841734
 20
1842.500342034004
 30
0.0
 11
-3813.499313841734
 21
1678.382237034004
 31
0.0
  0
LINE
  5
228
330
1F
100
AcDbEntity
  8
0-B
  6
Continuous
 62
   120
370
     5
100
AcDbLine
 10
-3942.500003841734
 20
2097.500342034005
 30
0.0
 11
-3447.500003841733
 21
2097.500342034005
 31
0.0
  0
LWPOLYLINE
  5
229
330
1F
100
AcDbEntity
  8
0-B
  6
Continuous
 62
     7
370
     9
100
AcDbPolyline
 90
        4
 70
     1
 43
3.0
 10
-3941.000003841734
 20
2097.500342034005
 42
0.4142135623731
 10
-3942.500003841734
 20
2099.000342034005
 42
0.4142135623731
 10
-3944.000003841735
 20
2097.500342034005
 42
0.4142135623731
 10
-3942.500003841734
 20
2096.000342034005
 42
0.4142135623731
  0
LWPOLYLINE
  5
22A
330
1F
100
AcDbEntity
  8
0-B
  6
Continuous
 62
     7
370
     9
100
AcDbPolyline
 90
        4
 70
     1
 43
3.0
 10
-3446.000003841733
 20
2097.500342034005
 42
0.4142135623731
 10
-3447.500003841733
 20
2099.000342034005
 42
0.4142135623731
 10
-3449.000003841733
 20
2097.500342034005
 42
0.4142135623731
 10
-3447.500003841733
 20
2096.000342034005
 42
0.4142135623731
  0
LINE
  5
22B
330
1F
100
AcDbEntity
  8
0-B
  6
Continuous
 62
   120
370
     5
100
AcDbLine
 10
-3942.500003841734
 20
2247.500342034005
 30
0.0
 11
-3942.500003841734
 21
1947.500342034005
 31
0.0
  0
LINE
  5
22C
330
1F
100
AcDbEntity
  8
0-B
  6
Continuous
 62
   120
370
     5
100
AcDbLine
 10
-3447.500003841733
 20
2097.500342034005
 30
0.0
 11
-3447.500003841733
 21
1947.500342034005
 31
0.0
  0
LINE
  5
22D
330
1F
100
AcDbEntity
  8
0-B
  6
Continuous
 62
   120
370
     5
100
AcDbLine
 10
-3447.500003841733
 20
2097.500342034005
 30
0.0
 11
-3402.500003841735
 21
2097.500342034005
 31
0.0
  0
LWPOLYLINE
  5
22E
330
1F
100
AcDbEntity
  8
0-B
  6
Continuous
 62
     7
370
     9
100
AcDbPolyline
 90
        4
 70
     1
 43
3.0
 10
-3401.000003841735
 20
2097.500342034005
 42
0.4142135623731
 10
-3402.500003841735
 20
2099.000342034005
 42
0.4142135623731
 10
-3404.000003841735
 20
2097.500342034005
 42
0.4142135623731
 10
-3402.500003841735
 20
2096.000342034005
 42
0.4142135623731
  0
LINE
  5
22F
330
1F
100
AcDbEntity
  8
0-B
  6
Continuous
 62
   120
370
     5
100
AcDbLine
 10
-3402.500003841735
 20
2247.500342034005
 30
0.0
 11
-3402.500003841735
 21
1947.500342034005
 31
0.0
  0
LINE
  5
230
330
1F
100
AcDbEntity
  8
0-B
  6
Continuous
 62
   120
370
     5
100
AcDbLine
 10
-3402.500003841735
 20
2247.500342034005
 30
0.0
 11
-3942.500003841734
 21
2247.500342034005
 31
0.0
  0
LWPOLYLINE
  5
231
330
1F
100
AcDbEntity
  8
0-B
  6
Continuous
 62
     7
370
     9
100
AcDbPolyline
 90
        4
 70
     1
 43
3.0
 10
-3401.000003841735
 20
2247.500342034005
 42
0.4142135623731
 10
-3402.500003841735
 20
2249.000342034005
 42
0.4142135623731
 10
-3404.000003841735
 20
2247.500342034005
 42
0.4142135623731
 10
-3402.500003841735
 20
2246.000342034005
 42
0.4142135623731
  0
LWPOLYLINE
  5
232
330
1F
100
AcDbEntity
  8
0-B
  6
Continuous
 62
     7
370
     9
100
AcDbPolyline
 90
        4
 70
     1
 43
3.0
 10
-3941.000003841734
 20
2247.500342034005
 42
0.4142135623731
 10
-3942.500003841734
 20
2249.000342034005
 42
0.4142135623731
 10
-3944.000003841735
 20
2247.500342034005
 42
0.4142135623731
 10
-3942.500003841734
 20
2246.000342034005
 42
0.4142135623731
  0
LINE
  5
233
330
1F
100
AcDbEntity
  8
0-0
  6
JWW_HOJO
 62
   120
370
     5
100
AcDbLine
 10
-3813.501293841702
 20
1657.076988446762
 30
0.0
 11
-3813.501293841702
 21
1899.472361580996
 31
0.0
  0
LINE
  5
234
330
1F
100
AcDbEntity
  8
0-0
  6
JWW_HOJO
 62
   120
370
     5
100
AcDbLine
 10
-3531.501473841702
 20
1657.076988446762
 30
0.0
 11
-3531.501473841702
 21
1899.472361580996
 31
0.0
  0
MTEXT
  5
235
330
1F
100
AcDbEntity
  8
0-A
  6
Continuous
 62
     7
370
     9
100
AcDbMText
 10
-417.4998309161202
 20
2326.165376991324
 30
0.0
 40
68.58
 41
45.0
 46
0.0
 71
     7
 72
     1
  1
{\fＭＳ ゴシック|b0|i0|c128|p49;1}
 73
     1
 44
1.0
  0
MTEXT
  5
236
330
1F
100
AcDbEntity
  8
0-A
  6
Continuous
 62
     7
370
     9
100
AcDbMText
 10
-4890.379562868473
 20
2277.063616817017
 30
0.0
 40
91.43999999999998
 41
540.0
 46
0.0
 71
     7
 72
     1
  1
{\fＭＳ ゴシック|b0|i0|c128|p49;片ﾂﾊﾞﾀｲﾌﾟ}
 73
     1
 44
1.0
  0
MTEXT
  5
237
330
1F
100
AcDbEntity
  8
0-A
  6
Continuous
 62
     7
370
     9
100
AcDbMText
 10
-417.4998309161202
 20
2169.915367003518
 30
0.0
 40
68.58
 41
45.0
 46
0.0
 71
     7
 72
     1
  1
{\fＭＳ ゴシック|b0|i0|c128|p49;1}
 73
     1
 44
1.0
  0
MTEXT
  5
238
330
1F
100
AcDbEntity
  8
0-A
  6
Continuous
 62
     7
370
     9
100
AcDbMText
 10
-417.4998309161202
 20
2013.665357015713
 30
0.0
 40
68.58
 41
45.0
 46
0.0
 71
     7
 72
     1
  1
{\fＭＳ ゴシック|b0|i0|c128|p49;1}
 73
     1
 44
1.0
  0
MTEXT
  5
239
330
1F
100
AcDbEntity
  8
0-B
  6
Continuous
 62
     7
370
   211
100
AcDbMText
 10
-3736.250003841734
 20
2251.077842034005
 30
0.0
 40
97.15499999999999
 41
127.5
 46
0.0
 71
     7
 72
     1
  1
{\fＭＳ ゴシック|b0|i0|c128|p49;36}
 73
     1
 44
1.0
  0
MTEXT
  5
23A
330
1F
100
AcDbEntity
  8
0-B
  6
Continuous
 62
     7
370
   211
100
AcDbMText
 10
-3758.750003841734
 20
2101.077842034005
 30
0.0
 40
97.15499999999999
 41
127.5
 46
0.0
 71
     7
 72
     1
  1
{\fＭＳ ゴシック|b0|i0|c128|p49;33}
 73
     1
 44
1.0
  0
MTEXT
  5
23B
330
1F
100
AcDbEntity
  8
0-B
  6
Continuous
 62
     7
370
   211
100
AcDbMText
 10
-3455.000003841734
 20
2098.220342034005
 30
0.0
 40
91.44
 41
60.0
 46
0.0
 71
     7
 72
     1
  1
{\fＭＳ ゴシック|b0|i0|c128|p49;3}
 73
     1
 44
1.0
  0
MTEXT
  5
23C
330
1F
100
AcDbEntity
  8
0-B
  6
Continuous
 62
     7
370
   211
100
AcDbMText
 10
-3192.500393841717
 20
1880.015884081575
 30
0.0
 40
91.44
 41
60.0
 46
0.0
 71
     7
 72
     1
  1
{\fＭＳ ゴシック|b0|i0|c128|p49;3}
 11
6.123031769111886E-17
 21
1.0
 31
0.0
 73
     1
 44
1.0
  0
MTEXT
  5
23D
330
1F
100
AcDbEntity
  8
0-B
  6
Continuous
 62
     7
370
   211
100
AcDbMText
 10
-3042.500393841717
 20
1684.827842034005
 30
0.0
 40
97.15499999999999
 41
127.5
 46
0.0
 71
     7
 72
     1
  1
{\fＭＳ ゴシック|b0|i0|c128|p49;15}
 11
6.123031769111886E-17
 21
1.0
 31
0.0
 73
     1
 44
1.0
  0
MTEXT
  5
23E
330
1F
100
AcDbEntity
  8
0-B
  6
Continuous
 62
     7
370
   211
100
AcDbMText
 10
-3192.500393841717
 20
1662.327842034003
 30
0.0
 40
97.15499999999999
 41
127.5
 46
0.0
 71
     7
 72
     1
  1
{\fＭＳ ゴシック|b0|i0|c128|p49;12}
 11
6.123031769111886E-17
 21
1.0
 31
0.0
 73
     1
 44
1.0
  0
MTEXT
  5
23F
330
1F
100
AcDbEntity
  8
0-B
  6
Continuous
 62
     7
370
   211
100
AcDbMText
 10
-4152.394928212037
 20
1427.030342034005
 30
0.0
 40
99.06
 41
195.0
 46
0.0
 71
     7
 72
     1
  1
{\fＭＳ ゴシック|b0|i0|c128|p49;4.5}
 73
     1
 44
1.0
  0
MTEXT
  5
240
330
1F
100
AcDbEntity
  8
0-B
  6
Continuous
 62
     7
370
   211
100
AcDbMText
 10
-3736.250138841719
 20
1426.077842034005
 30
0.0
 40
97.15499999999999
 41
127.5
 46
0.0
 71
     7
 72
     1
  1
{\fＭＳ ゴシック|b0|i0|c128|p49;27}
 73
     1
 44
1.0
  0
MTEXT
  5
241
330
1F
100
AcDbEntity
  8
0-B
  6
Continuous
 62
     7
370
   211
100
AcDbMText
 10
-3373.571502176275
 20
1427.030342034005
 30
0.0
 40
99.06
 41
195.0
 46
0.0
 71
     7
 72
     1
  1
{\fＭＳ ゴシック|b0|i0|c128|p49;4.5}
 73
     1
 44
1.0
  0
MTEXT
  5
242
330
1F
100
AcDbEntity
  8
0-A
  6
Continuous
 62
     7
370
     9
100
AcDbMText
 10
-5727.500009536743
 20
2390.006631985226
 30
0.0
 40
100.0125
 41
525.0
 46
0.0
 71
     7
 72
     1
  1
{\fＭＳ ゴシック|b0|i0|c128|p49;樹脂下枠}
 73
     1
 44
1.0
  0
LINE
  5
243
330
1F
100
AcDbEntity
  8
F-1
  6
Continuous
 62
     7
370
     9
100
AcDbLine
 10
-145.0009732633023
 20
1210.000302082783
 30
0.0
 11
-5989.999990205507
 21
1210.000302082783
 31
0.0
  0
MTEXT
  5
244
330
1F
100
AcDbEntity
  8
F-A
  6
Continuous
 62
     7
370
     9
100
AcDbMText
 10
4936.249033580831
 20
-4147.857012699985
 30
0.0
 40
74.295
 41
97.5
 46
0.0
 71
     7
 72
     1
  1
{\fＭＳ ゴシック|b0|i0|c128|p49;01}
 73
     1
 44
1.0
  0
MTEXT
  5
245
330
1F
100
AcDbEntity
  8
0-A
  6
Continuous
 62
     7
370
     9
100
AcDbMText
 10
-2157.500758815456
 20
3576.165456893766
 30
0.0
 40
68.58
 41
495.0
 46
0.0
 71
     7
 72
     1
  1
{\fＭＳ ゴシック|b0|i0|c128|p49;900×36×15}
 73
     1
 44
1.0
  0
MTEXT
  5
246
330
1F
100
AcDbEntity
  8
0-A
  6
Continuous
 62
     7
370
     9
100
AcDbMText
 10
-2247.500758815456
 20
3419.915446905961
 30
0.0
 40
68.58
 41
585.0
 46
0.0
 71
     7
 72
     1
  1
{\fＭＳ ゴシック|b0|i0|c128|p49;1,800×36×15}
 73
     1
 44
1.0
  0
MTEXT
  5
247
330
1F
100
AcDbEntity
  8
0-A
  6
Continuous
 62
     7
370
     9
100
AcDbMText
 10
-2247.500758815456
 20
3263.665436918156
 30
0.0
 40
68.58
 41
585.0
 46
0.0
 71
     7
 72
     1
  1
{\fＭＳ ゴシック|b0|i0|c128|p49;3,600×36×15}
 73
     1
 44
1.0
  0
MTEXT
  5
248
330
1F
100
AcDbEntity
  8
0-A
  6
Continuous
 62
     7
370
     9
100
AcDbMText
 10
-2157.499830916121
 20
2326.165376991323
 30
0.0
 40
68.58
 41
495.0
 46
0.0
 71
     7
 72
     1
  1
{\fＭＳ ゴシック|b0|i0|c128|p49;900×36×15}
 73
     1
 44
1.0
  0
MTEXT
  5
249
330
1F
100
AcDbEntity
  8
0-A
  6
Continuous
 62
     7
370
     9
100
AcDbMText
 10
-2247.499830916121
 20
2169.915367003518
 30
0.0
 40
68.58
 41
585.0
 46
0.0
 71
     7
 72
     1
  1
{\fＭＳ ゴシック|b0|i0|c128|p49;1,800×36×15}
 73
     1
 44
1.0
  0
MTEXT
  5
24A
330
1F
100
AcDbEntity
  8
0-A
  6
Continuous
 62
     7
370
     9
100
AcDbMText
 10
-2247.499830916121
 20
2013.665357015713
 30
0.0
 40
68.58
 41
585.0
 46
0.0
 71
     7
 72
     1
  1
{\fＭＳ ゴシック|b0|i0|c128|p49;3,600×36×15}
 73
     1
 44
1.0
  0
MTEXT
  5
24B
330
1F
100
AcDbEntity
  8
F-A
  6
Continuous
 62
     7
370
     0
100
AcDbMText
 10
-5239.999990205507
 20
-4045.375936078391
 30
0.0
 40
79.248
 41
1560.0
 46
0.0
 71
     7
 72
     1
  1
{\fＭＳ ゴシック|b0|i0|c128|p49;ドレタス　洋風造作材　樹脂下枠}
 73
     1
 44
1.0
  0
MTEXT
  5
24C
330
1F
100
AcDbEntity
  8
F-A
  6
Continuous
 62
     7
370
     0
100
AcDbMText
 10
4778.749126529666
 20
-3938.071010139966
 30
0.0
 40
78.86699999999999
 41
517.5
 46
0.0
 71
     7
 72
     1
  1
{\fＭＳ ゴシック|b0|i0|c128|p49;2021.04.01}
 73
     1
 44
1.0
  0
MTEXT
  5
24D
330
1F
100
AcDbEntity
  8
0-A
  6
Continuous
 62
     7
370
     9
100
AcDbMText
 10
-1474.15289925494
 20
3576.165456893767
 30
0.0
 40
68.58
 41
810.0
 46
0.0
 71
     7
 72
     1
  1
{\fＭＳ ゴシック|b0|i0|c128|p49;ＤＣＴＦ09Ｂ-Ｒ-□}
 73
     1
 44
1.0
  0
MTEXT
  5
24E
330
1F
100
AcDbEntity
  8
0-A
  6
Continuous
 62
     7
370
     9
100
AcDbMText
 10
-1474.15289925494
 20
3419.915446905961
 30
0.0
 40
68.58
 41
810.0
 46
0.0
 71
     7
 72
     1
  1
{\fＭＳ ゴシック|b0|i0|c128|p49;ＤＣＴＦ18Ｂ-Ｒ-□}
 73
     1
 44
1.0
  0
MTEXT
  5
24F
330
1F
100
AcDbEntity
  8
0-A
  6
Continuous
 62
     7
370
     9
100
AcDbMText
 10
-1474.15289925494
 20
3263.665436918156
 30
0.0
 40
68.58
 41
810.0
 46
0.0
 71
     7
 72
     1
  1
{\fＭＳ ゴシック|b0|i0|c128|p49;ＤＣＴＦ36Ｂ-Ｒ-□}
 73
     1
 44
1.0
  0
MTEXT
  5
250
330
1F
100
AcDbEntity
  8
0-A
  6
Continuous
 62
     7
370
     9
100
AcDbMText
 10
-1465.884353741496
 20
2326.165376991323
 30
0.0
 40
68.58
 41
810.0
 46
0.0
 71
     7
 72
     1
  1
{\fＭＳ ゴシック|b0|i0|c128|p49;ＤＣＴＦ09Ｂ-Ｋ-□}
 73
     1
 44
1.0
  0
MTEXT
  5
251
330
1F
100
AcDbEntity
  8
0-A
  6
Continuous
 62
     7
370
     9
100
AcDbMText
 10
-1465.884353741496
 20
2169.915367003518
 30
0.0
 40
68.58
 41
810.0
 46
0.0
 71
     7
 72
     1
  1
{\fＭＳ ゴシック|b0|i0|c128|p49;ＤＣＴＦ18Ｂ-Ｋ-□}
 73
     1
 44
1.0
  0
MTEXT
  5
252
330
1F
100
AcDbEntity
  8
0-A
  6
Continuous
 62
     7
370
     9
100
AcDbMText
 10
-1465.884353741496
 20
2013.665357015713
 30
0.0
 40
68.58
 41
810.0
 46
0.0
 71
     7
 72
     1
  1
{\fＭＳ ゴシック|b0|i0|c128|p49;ＤＣＴＦ36Ｂ-Ｋ-□}
 73
     1
 44
1.0
  0
ENDSEC
  0
SECTION
  2
OBJECTS
  0
DICTIONARY
  5
C
330
0
100
AcDbDictionary
281
     1
  3
ACAD_GROUP
350
D
  3
ACAD_LAYOUT
350
1A
  3
ACAD_MATERIAL
350
3B
  3
ACAD_MLEADERSTYLE
350
254
  3
ACAD_MLINESTYLE
350
17
  3
ACAD_PLOTSETTINGS
350
19
  3
ACAD_PLOTSTYLENAME
350
E
  3
ACAD_TABLESTYLE
350
253
  3
ACAD_VISUALSTYLE
350
2A
  0
DICTIONARY
  5
D
102
{ACAD_REACTORS
330
C
102
}
330
C
100
AcDbDictionary
281
     1
  0
DICTIONARY
  5
1A
102
{ACAD_REACTORS
330
C
102
}
330
C
100
AcDbDictionary
281
     1
  3
Layout1
350
1E
  3
Layout2
350
26
  3
Model
350
22
  0
DICTIONARY
  5
3B
102
{ACAD_REACTORS
330
C
102
}
330
C
100
AcDbDictionary
281
     1
  3
ByBlock
350
3D
  3
ByLayer
350
3C
  3
Global
350
3E
  0
DICTIONARY
  5
254
102
{ACAD_REACTORS
330
C
102
}
330
C
100
AcDbDictionary
281
     1
  0
DICTIONARY
  5
17
102
{ACAD_REACTORS
330
C
102
}
330
C
100
AcDbDictionary
281
     1
  3
Standard
350
18
  0
DICTIONARY
  5
19
102
{ACAD_REACTORS
330
C
102
}
330
C
100
AcDbDictionary
281
     1
  0
ACDBDICTIONARYWDFLT
  5
E
102
{ACAD_REACTORS
330
C
102
}
330
C
100
AcDbDictionary
281
     1
  3
Normal
350
F
100
AcDbDictionaryWithDefault
340
F
  0
DICTIONARY
  5
253
102
{ACAD_REACTORS
330
C
102
}
330
C
100
AcDbDictionary
281
     1
  0
DICTIONARY
  5
2A
102
{ACAD_REACTORS
330
C
102
}
330
C
100
AcDbDictionary
281
     1
  3
2dWireframe
350
2F
  3
3D Hidden
350
31
  3
3dWireframe
350
30
  3
Basic
350
32
  3
Brighten
350
36
  3
ColorChange
350
3A
  3
Conceptual
350
34
  3
Dim
350
35
  3
Facepattern
350
39
  3
Flat
350
2B
  3
FlatWithEdges
350
2C
  3
Gouraud
350
2D
  3
GouraudWithEdges
350
2E
  3
Linepattern
350
38
  3
Realistic
350
33
  3
Thicken
350
37
  0
LAYOUT
  5
1E
102
{ACAD_REACTORS
330
1A
102
}
330
1A
100
AcDbPlotSettings
  1

  2
none_device
  4

  6

 40
0.0
 41
0.0
 42
0.0
 43
0.0
 44
0.0
 45
0.0
 46
0.0
 47
0.0
 48
0.0
 49
0.0
140
0.0
141
0.0
142
1.0
143
1.0
 70
   688
 72
     0
 73
     0
 74
     5
  7

 75
    16
 76
     0
 77
     5
 78
   300
147
1.0
148
0.0
149
0.0
100
AcDbLayout
  1
Layout1
 70
     1
 71
     1
 10
0.0
 20
0.0
 11
420.0
 21
297.0
 12
0.0
 22
0.0
 32
0.0
 14
1.000000000000000E+20
 24
1.000000000000000E+20
 34
1.000000000000000E+20
 15
-1.000000000000000E+20
 25
-1.000000000000000E+20
 35
-1.000000000000000E+20
146
0.0
 13
0.0
 23
0.0
 33
0.0
 16
1.0
 26
0.0
 36
0.0
 17
0.0
 27
1.0
 37
0.0
 76
     0
330
1B
  0
LAYOUT
  5
26
102
{ACAD_REACTORS
330
1A
102
}
330
1A
100
AcDbPlotSettings
  1

  2
none_device
  4

  6

 40
0.0
 41
0.0
 42
0.0
 43
0.0
 44
0.0
 45
0.0
 46
0.0
 47
0.0
 48
0.0
 49
0.0
140
0.0
141
0.0
142
1.0
143
1.0
 70
   688
 72
     0
 73
     0
 74
     5
  7

 75
    16
 76
     0
 77
     5
 78
   300
147
1.0
148
0.0
149
0.0
100
AcDbLayout
  1
Layout2
 70
     1
 71
     2
 10
0.0
 20
0.0
 11
0.0
 21
0.0
 12
0.0
 22
0.0
 32
0.0
 14
0.0
 24
0.0
 34
0.0
 15
0.0
 25
0.0
 35
0.0
146
0.0
 13
0.0
 23
0.0
 33
0.0
 16
1.0
 26
0.0
 36
0.0
 17
0.0
 27
1.0
 37
0.0
 76
     0
330
23
  0
LAYOUT
  5
22
102
{ACAD_REACTORS
330
1A
102
}
330
1A
100
AcDbPlotSettings
  1

  2
none_device
  4

  6

 40
0.0
 41
0.0
 42
0.0
 43
0.0
 44
0.0
 45
0.0
 46
0.0
 47
0.0
 48
0.0
 49
0.0
140
0.0
141
0.0
142
1.0
143
1.0
 70
  1712
 72
     0
 73
     0
 74
     0
  7

 75
     0
 76
     0
 77
     5
 78
   300
147
1.0
148
0.0
149
0.0
100
AcDbLayout
  1
Model
 70
     1
 71
     0
 10
-6300.0
 20
-4455.0
 11
6300.0
 21
4455.0
 12
0.0
 22
0.0
 32
0.0
 14
-6300.0
 24
-4455.0
 34
0.0
 15
6300.0
 25
4455.0
 35
0.0
146
0.0
 13
0.0
 23
0.0
 33
0.0
 16
1.0
 26
0.0
 36
0.0
 17
0.0
 27
1.0
 37
0.0
 76
     0
330
1F
331
29
  0
MATERIAL
  5
3D
102
{ACAD_REACTORS
330
3B
102
}
330
3B
100
AcDbMaterial
  1
ByBlock
 72
     1
 94
      127
  0
MATERIAL
  5
3C
102
{ACAD_REACTORS
330
3B
102
}
330
3B
100
AcDbMaterial
  1
ByLayer
 72
     1
 94
      127
  0
MATERIAL
  5
3E
102
{ACAD_REACTORS
330
3B
102
}
330
3B
100
AcDbMaterial
  1
Global
 72
     1
 94
      127
  0
MLINESTYLE
  5
18
102
{ACAD_REACTORS
330
17
102
}
330
17
100
AcDbMlineStyle
  2
Standard
 70
     0
  3

 62
   256
 51
90.0
 52
90.0
 71
     2
 49
0.5
 62
   256
  6
BYLAYER
 49
-0.5
 62
   256
  6
BYLAYER
  0
ACDBPLACEHOLDER
  5
F
102
{ACAD_REACTORS
330
E
102
}
330
E
  0
VISUALSTYLE
  5
2F
102
{ACAD_REACTORS
330
2A
102
}
330
2A
100
AcDbVisualStyle
  2
2dWireframe
 70
     4
177
     2
291
     0
 71
     0
176
     1
 72
     2
176
     1
 73
     0
176
     1
 90
        0
176
     1
 40
-0.6
176
     1
 41
-30.0
176
     1
 62
     5
 63
     7
421
 16777215
176
     1
 74
     1
176
     1
 91
        4
176
     1
 64
     7
176
     1
 65
   257
176
     1
 75
     1
176
     1
175
     1
176
     1
 42
1.0
176
     1
 92
        0
176
     1
 66
   257
176
     1
 43
1.0
176
     1
 76
     1
176
     1
 77
     6
176
     1
 78
     2
176
     1
 67
     7
176
     1
 79
     5
176
     1
170
     0
176
     1
171
     0
176
     1
290
     0
176
     1
 93
        1
176
     1
 44
0.0
176
     1
173
     0
176
     1
  0
VISUALSTYLE
  5
31
102
{ACAD_REACTORS
330
2A
102
}
330
2A
100
AcDbVisualStyle
  2
3D Hidden
 70
     6
177
     2
291
     0
 71
     1
176
     1
 72
     2
176
     1
 73
     2
176
     1
 90
        0
176
     1
 40
-0.6
176
     1
 41
-30.0
176
     1
 62
     5
 63
     7
421
 16777215
176
     1
 74
     2
176
     1
 91
        2
176
     1
 64
     7
176
     1
 65
   257
176
     1
 75
     2
176
     1
175
     1
176
     1
 42
40.0
176
     1
 92
        0
176
     1
 66
   257
176
     1
 43
1.0
176
     1
 76
     1
176
     1
 77
     6
176
     1
 78
     2
176
     1
 67
     7
176
     1
 79
     3
176
     1
170
     0
176
     1
171
     0
176
     1
290
     0
176
     1
 93
        1
176
     1
 44
0.0
176
     1
173
     0
176
     1
  0
VISUALSTYLE
  5
30
102
{ACAD_REACTORS
330
2A
102
}
330
2A
100
AcDbVisualStyle
  2
3dWireframe
 70
     5
177
     2
291
     0
 71
     0
176
     1
 72
     2
176
     1
 73
     0
176
     1
 90
        0
176
     1
 40
-0.6
176
     1
 41
-30.0
176
     1
 62
     5
 63
     7
421
 16777215
176
     1
 74
     1
176
     1
 91
        4
176
     1
 64
     7
176
     1
 65
   257
176
     1
 75
     1
176
     1
175
     1
176
     1
 42
1.0
176
     1
 92
        0
176
     1
 66
   257
176
     1
 43
1.0
176
     1
 76
     1
176
     1
 77
     6
176
     1
 78
     2
176
     1
 67
     7
176
     1
 79
     5
176
     1
170
     0
176
     1
171
     0
176
     1
290
     0
176
     1
 93
        1
176
     1
 44
0.0
176
     1
173
     0
176
     1
  0
VISUALSTYLE
  5
32
102
{ACAD_REACTORS
330
2A
102
}
330
2A
100
AcDbVisualStyle
  2
Basic
 70
     7
177
     2
291
     1
 71
     1
176
     1
 72
     0
176
     1
 73
     1
176
     1
 90
        0
176
     1
 40
-0.6
176
     1
 41
-30.0
176
     1
 62
     5
 63
     7
421
 16777215
176
     1
 74
     0
176
     1
 91
        4
176
     1
 64
     7
176
     1
 65
   257
176
     1
 75
     1
176
     1
175
     1
176
     1
 42
1.0
176
     1
 92
        8
176
     1
 66
     7
176
     1
 43
1.0
176
     1
 76
     1
176
     1
 77
     6
176
     1
 78
     2
176
     1
 67
     7
176
     1
 79
     5
176
     1
170
     0
176
     1
171
     0
176
     1
290
     0
176
     1
 93
        1
176
     1
 44
0.0
176
     1
173
     0
176
     1
  0
VISUALSTYLE
  5
36
102
{ACAD_REACTORS
330
2A
102
}
330
2A
100
AcDbVisualStyle
  2
Brighten
 70
    12
177
     2
291
     1
 71
     2
176
     1
 72
     2
176
     1
 73
     0
176
     1
 90
        0
176
     1
 40
-0.6
176
     1
 41
-30.0
176
     1
 62
     5
 63
     7
421
 16777215
176
     1
 74
     1
176
     1
 91
        4
176
     1
 64
     7
176
     1
 65
   257
176
     1
 75
     1
176
     1
175
     1
176
     1
 42
1.0
176
     1
 92
        8
176
     1
 66
     7
176
     1
 43
1.0
176
     1
 76
     1
176
     1
 77
     6
176
     1
 78
     2
176
     1
 67
     7
176
     1
 79
     5
176
     1
170
     0
176
     1
171
     0
176
     1
290
     0
176
     1
 93
        1
176
     1
 44
50.0
176
     1
173
     0
176
     1
  0
VISUALSTYLE
  5
3A
102
{ACAD_REACTORS
330
2A
102
}
330
2A
100
AcDbVisualStyle
  2
ColorChange
 70
    16
177
     2
291
     1
 71
     2
176
     1
 72
     2
176
     1
 73
     3
176
     1
 90
        0
176
     1
 40
-0.6
176
     1
 41
-30.0
176
     1
 62
     5
 63
     8
421
  8421504
176
     1
 74
     1
176
     1
 91
        4
176
     1
 64
     7
176
     1
 65
   257
176
     1
 75
     1
176
     1
175
     1
176
     1
 42
1.0
176
     1
 92
        8
176
     1
 66
     8
424
  8421504
176
     1
 43
1.0
176
     1
 76
     1
176
     1
 77
     6
176
     1
 78
     2
176
     1
 67
     7
176
     1
 79
     5
176
     1
170
     0
176
     1
171
     0
176
     1
290
     0
176
     1
 93
        1
176
     1
 44
0.0
176
     1
173
     0
176
     1
  0
VISUALSTYLE
  5
34
102
{ACAD_REACTORS
330
2A
102
}
330
2A
100
AcDbVisualStyle
  2
Conceptual
 70
     9
177
     2
291
     0
 71
     3
176
     1
 72
     2
176
     1
 73
     0
176
     1
 90
        0
176
     1
 40
-0.6
176
     1
 41
-30.0
176
     1
 62
     5
 63
     7
421
 16777215
176
     1
 74
     2
176
     1
 91
        2
176
     1
 64
     7
176
     1
 65
   257
176
     1
 75
     1
176
     1
175
     1
176
     1
 42
40.0
176
     1
 92
        8
176
     1
 66
     7
176
     1
 43
1.0
176
     1
 76
     1
176
     1
 77
     6
176
     1
 78
     2
176
     1
 67
     7
176
     1
 79
     3
176
     1
170
     0
176
     1
171
     0
176
     1
290
     0
176
     1
 93
        1
176
     1
 44
0.0
176
     1
173
     0
176
     1
  0
VISUALSTYLE
  5
35
102
{ACAD_REACTORS
330
2A
102
}
330
2A
100
AcDbVisualStyle
  2
Dim
 70
    11
177
     2
291
     1
 71
     2
176
     1
 72
     2
176
     1
 73
     0
176
     1
 90
        0
176
     1
 40
-0.6
176
     1
 41
-30.0
176
     1
 62
     5
 63
     7
421
 16777215
176
     1
 74
     1
176
     1
 91
        4
176
     1
 64
     7
176
     1
 65
   257
176
     1
 75
     1
176
     1
175
     1
176
     1
 42
1.0
176
     1
 92
        8
176
     1
 66
     7
176
     1
 43
1.0
176
     1
 76
     1
176
     1
 77
     6
176
     1
 78
     2
176
     1
 67
     7
176
     1
 79
     5
176
     1
170
     0
176
     1
171
     0
176
     1
290
     0
176
     1
 93
        1
176
     1
 44
-50.0
176
     1
173
     0
176
     1
  0
VISUALSTYLE
  5
39
102
{ACAD_REACTORS
330
2A
102
}
330
2A
100
AcDbVisualStyle
  2
Facepattern
 70
    15
177
     2
291
     1
 71
     2
176
     1
 72
     2
176
     1
 73
     0
176
     1
 90
        0
176
     1
 40
-0.6
176
     1
 41
-30.0
176
     1
 62
     5
 63
     7
421
 16777215
176
     1
 74
     1
176
     1
 91
        4
176
     1
 64
     7
176
     1
 65
   257
176
     1
 75
     1
176
     1
175
     1
176
     1
 42
1.0
176
     1
 92
        8
176
     1
 66
     7
176
     1
 43
1.0
176
     1
 76
     1
176
     1
 77
     6
176
     1
 78
     2
176
     1
 67
     7
176
     1
 79
     5
176
     1
170
     0
176
     1
171
     0
176
     1
290
     0
176
     1
 93
        1
176
     1
 44
0.0
176
     1
173
     0
176
     1
  0
VISUALSTYLE
  5
2B
102
{ACAD_REACTORS
330
2A
102
}
330
2A
100
AcDbVisualStyle
  2
Flat
 70
     0
177
     2
291
     1
 71
     2
176
     1
 72
     1
176
     1
 73
     1
176
     1
 90
        2
176
     1
 40
-0.6
176
     1
 41
30.0
176
     1
 62
     5
 63
     7
421
 16777215
176
     1
 74
     0
176
     1
 91
        4
176
     1
 64
     7
176
     1
 65
   257
176
     1
 75
     1
176
     1
175
     1
176
     1
 42
1.0
176
     1
 92
        8
176
     1
 66
     7
176
     1
 43
1.0
176
     1
 76
     1
176
     1
 77
     6
176
     1
 78
     2
176
     1
 67
     7
176
     1
 79
     5
176
     1
170
     0
176
     1
171
     0
176
     1
290
     0
176
     1
 93
       13
176
     1
 44
0.0
176
     1
173
     0
176
     1
  0
VISUALSTYLE
  5
2C
102
{ACAD_REACTORS
330
2A
102
}
330
2A
100
AcDbVisualStyle
  2
FlatWithEdges
 70
     1
177
     2
291
     1
 71
     2
176
     1
 72
     1
176
     1
 73
     1
176
     1
 90
        2
176
     1
 40
-0.6
176
     1
 41
30.0
176
     1
 62
     5
 63
     7
421
 16777215
176
     1
 74
     1
176
     1
 91
        4
176
     1
 64
     7
176
     1
 65
   257
176
     1
 75
     1
176
     1
175
     1
176
     1
 42
1.0
176
     1
 92
        0
176
     1
 66
   257
176
     1
 43
1.0
176
     1
 76
     1
176
     1
 77
     6
176
     1
 78
     2
176
     1
 67
     7
176
     1
 79
     5
176
     1
170
     0
176
     1
171
     0
176
     1
290
     0
176
     1
 93
       13
176
     1
 44
0.0
176
     1
173
     0
176
     1
  0
VISUALSTYLE
  5
2D
102
{ACAD_REACTORS
330
2A
102
}
330
2A
100
AcDbVisualStyle
  2
Gouraud
 70
     2
177
     2
291
     1
 71
     2
176
     1
 72
     2
176
     1
 73
     1
176
     1
 90
        2
176
     1
 40
-0.6
176
     1
 41
30.0
176
     1
 62
     5
 63
     7
421
 16777215
176
     1
 74
     0
176
     1
 91
        4
176
     1
 64
     7
176
     1
 65
   257
176
     1
 75
     1
176
     1
175
     1
176
     1
 42
1.0
176
     1
 92
        0
176
     1
 66
     7
176
     1
 43
1.0
176
     1
 76
     1
176
     1
 77
     6
176
     1
 78
     2
176
     1
 67
     7
176
     1
 79
     5
176
     1
170
     0
176
     1
171
     0
176
     1
290
     0
176
     1
 93
       13
176
     1
 44
0.0
176
     1
173
     0
176
     1
  0
VISUALSTYLE
  5
2E
102
{ACAD_REACTORS
330
2A
102
}
330
2A
100
AcDbVisualStyle
  2
GouraudWithEdges
 70
     3
177
     2
291
     1
 71
     2
176
     1
 72
     2
176
     1
 73
     1
176
     1
 90
        2
176
     1
 40
-0.6
176
     1
 41
30.0
176
     1
 62
     5
 63
     7
421
 16777215
176
     1
 74
     1
176
     1
 91
        4
176
     1
 64
     7
176
     1
 65
   257
176
     1
 75
     1
176
     1
175
     1
176
     1
 42
1.0
176
     1
 92
        0
176
     1
 66
   257
176
     1
 43
1.0
176
     1
 76
     1
176
     1
 77
     6
176
     1
 78
     2
176
     1
 67
     7
176
     1
 79
     5
176
     1
170
     0
176
     1
171
     0
176
     1
290
     0
176
     1
 93
       13
176
     1
 44
0.0
176
     1
173
     0
176
     1
  0
VISUALSTYLE
  5
38
102
{ACAD_REACTORS
330
2A
102
}
330
2A
100
AcDbVisualStyle
  2
Linepattern
 70
    14
177
     2
291
     1
 71
     2
176
     1
 72
     2
176
     1
 73
     0
176
     1
 90
        0
176
     1
 40
-0.6
176
     1
 41
-30.0
176
     1
 62
     5
 63
     7
421
 16777215
176
     1
 74
     1
176
     1
 91
        4
176
     1
 64
     7
176
     1
 65
   257
176
     1
 75
     7
176
     1
175
     7
176
     1
 42
1.0
176
     1
 92
        8
176
     1
 66
     7
176
     1
 43
1.0
176
     1
 76
     1
176
     1
 77
     6
176
     1
 78
     2
176
     1
 67
     7
176
     1
 79
     5
176
     1
170
     0
176
     1
171
     0
176
     1
290
     0
176
     1
 93
        1
176
     1
 44
0.0
176
     1
173
     0
176
     1
  0
VISUALSTYLE
  5
33
102
{ACAD_REACTORS
330
2A
102
}
330
2A
100
AcDbVisualStyle
  2
Realistic
 70
     8
177
     2
291
     0
 71
     2
176
     1
 72
     2
176
     1
 73
     0
176
     1
 90
        0
176
     1
 40
-0.6
176
     1
 41
-30.0
176
     1
 62
     5
 63
     7
421
 16777215
176
     1
 74
     1
176
     1
 91
        0
176
     1
 64
     7
176
     1
 65
   257
176
     1
 75
     1
176
     1
175
     1
176
     1
 42
1.0
176
     1
 92
        8
176
     1
 66
     8
424
  7895160
176
     1
 43
1.0
176
     1
 76
     1
176
     1
 77
     6
176
     1
 78
     2
176
     1
 67
     7
176
     1
 79
     5
176
     1
170
     0
176
     1
171
     0
176
     1
290
     0
176
     1
 93
       13
176
     1
 44
0.0
176
     1
173
     0
176
     1
  0
VISUALSTYLE
  5
37
102
{ACAD_REACTORS
330
2A
102
}
330
2A
100
AcDbVisualStyle
  2
Thicken
 70
    13
177
     2
291
     1
 71
     2
176
     1
 72
     2
176
     1
 73
     0
176
     1
 90
        0
176
     1
 40
-0.6
176
     1
 41
-30.0
176
     1
 62
     5
 63
     7
421
 16777215
176
     1
 74
     1
176
     1
 91
        4
176
     1
 64
     7
176
     1
 65
   257
176
     1
 75
     1
176
     1
175
     1
176
     1
 42
1.0
176
     1
 92
       12
176
     1
 66
     7
176
     1
 43
1.0
176
     1
 76
     1
176
     1
 77
     6
176
     1
 78
     2
176
     1
 67
     7
176
     1
 79
     5
176
     1
170
     0
176
     1
171
     0
176
     1
290
     0
176
     1
 93
        1
176
     1
 44
0.0
176
     1
173
     0
176
     1
  0
ENDSEC
  0
EOF
