  0
SECTION
  2
HEADER
  9
$ACADVER
  1
AC1024
  9
$ACADMAINTVER
 70
     6
  9
$DWGCODEPAGE
  3
ANSI_932
  9
$INSBASE
 10
0.0
 20
0.0
 30
0.0
  9
$EXTMIN
 10
-6300.0
 20
-4455.0
 30
0.0
  9
$EXTMAX
 10
6300.0
 20
4455.0
 30
0.0
  9
$LIMMIN
 10
-6300.0
 20
-4455.0
  9
$LIMMAX
 10
6300.0
 20
4455.0
  9
$ORTHOMODE
 70
     0
  9
$REGENMODE
 70
     1
  9
$FILLMODE
 70
     1
  9
$QTEXTMODE
 70
     0
  9
$MIRRTEXT
 70
     1
  9
$LTSCALE
 40
30.0
  9
$ATTMODE
 70
     1
  9
$TEXTSIZE
 40
2.5
  9
$TRACEWID
 40
1.0
  9
$TEXTSTYLE
  7
Standard
  9
$CLAYER
  8
0
  9
$CELTYPE
  6
ByLayer
  9
$CECOLOR
 62
   256
  9
$CELTSCALE
 40
1.0
  9
$DISPSILH
 70
     0
  9
$DIMSCALE
 40
1.0
  9
$DIMASZ
 40
2.5
  9
$DIMEXO
 40
0.625
  9
$DIMDLI
 40
3.75
  9
$DIMRND
 40
0.0
  9
$DIMDLE
 40
0.0
  9
$DIMEXE
 40
1.25
  9
$DIMTP
 40
0.0
  9
$DIMTM
 40
0.0
  9
$DIMTXT
 40
2.5
  9
$DIMCEN
 40
2.5
  9
$DIMTSZ
 40
0.0
  9
$DIMTOL
 70
     0
  9
$DIMLIM
 70
     0
  9
$DIMTIH
 70
     0
  9
$DIMTOH
 70
     0
  9
$DIMSE1
 70
     0
  9
$DIMSE2
 70
     0
  9
$DIMTAD
 70
     1
  9
$DIMZIN
 70
     8
  9
$DIMBLK
  1

  9
$DIMASO
 70
     1
  9
$DIMSHO
 70
     1
  9
$DIMPOST
  1

  9
$DIMAPOST
  1

  9
$DIMALT
 70
     0
  9
$DIMALTD
 70
     3
  9
$DIMALTF
 40
0.03937007874016
  9
$DIMLFAC
 40
1.0
  9
$DIMTOFL
 70
     1
  9
$DIMTVP
 40
0.0
  9
$DIMTIX
 70
     0
  9
$DIMSOXD
 70
     0
  9
$DIMSAH
 70
     0
  9
$DIMBLK1
  1

  9
$DIMBLK2
  1

  9
$DIMSTYLE
  2
ISO-25
  9
$DIMCLRD
 70
     0
  9
$DIMCLRE
 70
     0
  9
$DIMCLRT
 70
     0
  9
$DIMTFAC
 40
1.0
  9
$DIMGAP
 40
0.625
  9
$DIMJUST
 70
     0
  9
$DIMSD1
 70
     0
  9
$DIMSD2
 70
     0
  9
$DIMTOLJ
 70
     0
  9
$DIMTZIN
 70
     8
  9
$DIMALTZ
 70
     0
  9
$DIMALTTZ
 70
     0
  9
$DIMUPT
 70
     0
  9
$DIMDEC
 70
     2
  9
$DIMTDEC
 70
     2
  9
$DIMALTU
 70
     2
  9
$DIMALTTD
 70
     3
  9
$DIMTXSTY
  7
Standard
  9
$DIMAUNIT
 70
     0
  9
$DIMADEC
 70
     0
  9
$DIMALTRND
 40
0.0
  9
$DIMAZIN
 70
     0
  9
$DIMDSEP
 70
    44
  9
$DIMATFIT
 70
     3
  9
$DIMFRAC
 70
     0
  9
$DIMLDRBLK
  1

  9
$DIMLUNIT
 70
     2
  9
$DIMLWD
 70
    -2
  9
$DIMLWE
 70
    -2
  9
$DIMTMOVE
 70
     0
  9
$DIMFXL
 40
1.0
  9
$DIMFXLON
 70
     0
  9
$DIMJOGANG
 40
0.7853981633974483
  9
$DIMTFILL
 70
     0
  9
$DIMTFILLCLR
 70
     0
  9
$DIMARCSYM
 70
     0
  9
$DIMLTYPE
  6

  9
$DIMLTEX1
  6

  9
$DIMLTEX2
  6

  9
$DIMTXTDIRECTION
 70
     0
  9
$LUNITS
 70
     2
  9
$LUPREC
 70
     4
  9
$SKETCHINC
 40
1.0
  9
$FILLETRAD
 40
10.0
  9
$AUNITS
 70
     0
  9
$AUPREC
 70
     0
  9
$MENU
  1
.
  9
$ELEVATION
 40
0.0
  9
$PELEVATION
 40
0.0
  9
$THICKNESS
 40
0.0
  9
$LIMCHECK
 70
     0
  9
$CHAMFERA
 40
10.0
  9
$CHAMFERB
 40
10.0
  9
$CHAMFERC
 40
20.0
  9
$CHAMFERD
 40
0.0
  9
$SKPOLY
 70
     0
  9
$TDCREATE
 40
2459396.579932928
  9
$TDUCREATE
 40
2459396.204932928
  9
$TDUPDATE
 40
2459396.57993294
  9
$TDUUPDATE
 40
2459396.20493294
  9
$TDINDWG
 40
0.0000000116
  9
$TDUSRTIMER
 40
0.0000000116
  9
$USRTIMER
 70
     1
  9
$ANGBASE
 50
0.0
  9
$ANGDIR
 70
     0
  9
$PDMODE
 70
     0
  9
$PDSIZE
 40
0.0
  9
$PLINEWID
 40
0.0
  9
$SPLFRAME
 70
     0
  9
$SPLINETYPE
 70
     6
  9
$SPLINESEGS
 70
     8
  9
$HANDSEED
  5
133
  9
$SURFTAB1
 70
     6
  9
$SURFTAB2
 70
     6
  9
$SURFTYPE
 70
     6
  9
$SURFU
 70
     6
  9
$SURFV
 70
     6
  9
$UCSBASE
  2

  9
$UCSNAME
  2

  9
$UCSORG
 10
0.0
 20
0.0
 30
0.0
  9
$UCSXDIR
 10
1.0
 20
0.0
 30
0.0
  9
$UCSYDIR
 10
0.0
 20
1.0
 30
0.0
  9
$UCSORTHOREF
  2

  9
$UCSORTHOVIEW
 70
     0
  9
$UCSORGTOP
 10
0.0
 20
0.0
 30
0.0
  9
$UCSORGBOTTOM
 10
0.0
 20
0.0
 30
0.0
  9
$UCSORGLEFT
 10
0.0
 20
0.0
 30
0.0
  9
$UCSORGRIGHT
 10
0.0
 20
0.0
 30
0.0
  9
$UCSORGFRONT
 10
0.0
 20
0.0
 30
0.0
  9
$UCSORGBACK
 10
0.0
 20
0.0
 30
0.0
  9
$PUCSBASE
  2

  9
$PUCSNAME
  2

  9
$PUCSORG
 10
0.0
 20
0.0
 30
0.0
  9
$PUCSXDIR
 10
1.0
 20
0.0
 30
0.0
  9
$PUCSYDIR
 10
0.0
 20
1.0
 30
0.0
  9
$PUCSORTHOREF
  2

  9
$PUCSORTHOVIEW
 70
     0
  9
$PUCSORGTOP
 10
0.0
 20
0.0
 30
0.0
  9
$PUCSORGBOTTOM
 10
0.0
 20
0.0
 30
0.0
  9
$PUCSORGLEFT
 10
0.0
 20
0.0
 30
0.0
  9
$PUCSORGRIGHT
 10
0.0
 20
0.0
 30
0.0
  9
$PUCSORGFRONT
 10
0.0
 20
0.0
 30
0.0
  9
$PUCSORGBACK
 10
0.0
 20
0.0
 30
0.0
  9
$USERI1
 70
     0
  9
$USERI2
 70
     0
  9
$USERI3
 70
     0
  9
$USERI4
 70
     0
  9
$USERI5
 70
     0
  9
$USERR1
 40
0.0
  9
$USERR2
 40
0.0
  9
$USERR3
 40
0.0
  9
$USERR4
 40
0.0
  9
$USERR5
 40
0.0
  9
$WORLDVIEW
 70
     1
  9
$SHADEDGE
 70
     3
  9
$SHADEDIF
 70
    70
  9
$TILEMODE
 70
     1
  9
$MAXACTVP
 70
    64
  9
$PINSBASE
 10
0.0
 20
0.0
 30
0.0
  9
$PLIMCHECK
 70
     0
  9
$PEXTMIN
 10
1.000000000000000E+20
 20
1.000000000000000E+20
 30
1.000000000000000E+20
  9
$PEXTMAX
 10
-1.000000000000000E+20
 20
-1.000000000000000E+20
 30
-1.000000000000000E+20
  9
$PLIMMIN
 10
0.0
 20
0.0
  9
$PLIMMAX
 10
420.0
 20
297.0
  9
$UNITMODE
 70
     0
  9
$VISRETAIN
 70
     1
  9
$PLINEGEN
 70
     0
  9
$PSLTSCALE
 70
     1
  9
$TREEDEPTH
 70
  3020
  9
$CMLSTYLE
  2
Standard
  9
$CMLJUST
 70
     0
  9
$CMLSCALE
 40
20.0
  9
$PROXYGRAPHICS
 70
     1
  9
$MEASUREMENT
 70
     1
  9
$CELWEIGHT
370
    -1
  9
$ENDCAPS
280
     0
  9
$JOINSTYLE
280
     0
  9
$LWDISPLAY
290
     0
  9
$INSUNITS
 70
     4
  9
$HYPERLINKBASE
  1

  9
$STYLESHEET
  1

  9
$XEDIT
290
     1
  9
$CEPSNTYPE
380
     0
  9
$PSTYLEMODE
290
     1
  9
$FINGERPRINTGUID
  2
{87EFA600-68BB-4C1A-B889-A771352F957C}
  9
$VERSIONGUID
  2
{FAEB1C32-E019-11D5-929B-00C0DF256EC4}
  9
$EXTNAMES
290
     1
  9
$PSVPSCALE
 40
0.0
  9
$OLESTARTUP
290
     0
  9
$SORTENTS
280
   127
  9
$INDEXCTL
280
     0
  9
$HIDETEXT
280
     1
  9
$XCLIPFRAME
280
     2
  9
$HALOGAP
280
     0
  9
$OBSCOLOR
 70
   257
  9
$OBSLTYPE
280
     0
  9
$INTERSECTIONDISPLAY
280
     0
  9
$INTERSECTIONCOLOR
 70
   257
  9
$DIMASSOC
280
     2
  9
$PROJECTNAME
  1

  9
$CAMERADISPLAY
290
     0
  9
$LENSLENGTH
 40
50.0
  9
$CAMERAHEIGHT
 40
0.0
  9
$STEPSPERSEC
 40
2.0
  9
$STEPSIZE
 40
6.0
  9
$3DDWFPREC
 40
2.0
  9
$PSOLWIDTH
 40
5.0
  9
$PSOLHEIGHT
 40
80.0
  9
$LOFTANG1
 40
1.570796326794897
  9
$LOFTANG2
 40
1.570796326794897
  9
$LOFTMAG1
 40
0.0
  9
$LOFTMAG2
 40
0.0
  9
$LOFTPARAM
 70
     7
  9
$LOFTNORMALS
280
     1
  9
$LATITUDE
 40
37.795
  9
$LONGITUDE
 40
-122.394
  9
$NORTHDIRECTION
 40
0.0
  9
$TIMEZONE
 70
 -8000
  9
$LIGHTGLYPHDISPLAY
280
     1
  9
$TILEMODELIGHTSYNCH
280
     1
  9
$SOLIDHIST
280
     1
  9
$SHOWHIST
280
     1
  9
$DWFFRAME
280
     2
  9
$DGNFRAME
280
     2
  9
$REALWORLDSCALE
290
     1
  9
$INTERFERECOLOR
 62
   256
  9
$CSHADOW
280
     0
  9
$SHADOWPLANELOCATION
 40
0.0
  0
ENDSEC
  0
SECTION
  2
CLASSES
  0
CLASS
  1
ACDBDICTIONARYWDFLT
  2
AcDbDictionaryWithDefault
  3
ObjectDBX Classes
 90
        0
 91
        4
280
     0
281
     0
  0
CLASS
  1
VISUALSTYLE
  2
AcDbVisualStyle
  3
ObjectDBX Classes
 90
     4095
 91
        4
280
     0
281
     0
  0
CLASS
  1
MATERIAL
  2
AcDbMaterial
  3
ObjectDBX Classes
 90
     1153
 91
        4
280
     0
281
     0
  0
ENDSEC
  0
SECTION
  2
TABLES
  0
TABLE
  2
VPORT
  5
8
330
0
100
AcDbSymbolTable
 70
     1
  0
VPORT
  5
29
330
8
100
AcDbSymbolTableRecord
100
AcDbViewportTableRecord
  2
*Active
 70
     0
 10
0.0
 20
0.0
 11
1.0
 21
1.0
 12
0.0
 22
0.0
 13
0.0
 23
0.0
 14
10.0
 24
10.0
 15
10.0
 25
10.0
 16
0.0
 26
0.0
 36
1.0
 17
0.0
 27
0.0
 37
0.0
 40
9801.0
 41
1.414141414141414
 42
50.0
 43
0.0
 44
0.0
 50
0.0
 51
0.0
 71
     0
 72
 10000
 73
     1
 74
     3
 75
     0
 76
     0
 77
     0
 78
     0
281
     0
 65
     1
110
0.0
120
0.0
130
0.0
111
1.0
121
0.0
131
0.0
112
0.0
122
1.0
132
0.0
 79
     0
146
0.0
 60
     3
 61
     5
292
     1
282
     1
141
0.0
142
0.0
 63
   250
  0
ENDTAB
  0
TABLE
  2
LTYPE
  5
5
330
0
100
AcDbSymbolTable
 70
     4
  0
LTYPE
  5
14
330
5
100
AcDbSymbolTableRecord
100
AcDbLinetypeTableRecord
  2
ByBlock
 70
     0
  3

 72
    65
 73
     0
 40
0.0
  0
LTYPE
  5
15
330
5
100
AcDbSymbolTableRecord
100
AcDbLinetypeTableRecord
  2
ByLayer
 70
     0
  3

 72
    65
 73
     0
 40
0.0
  0
LTYPE
  5
16
330
5
100
AcDbSymbolTableRecord
100
AcDbLinetypeTableRecord
  2
Continuous
 70
     0
  3
Solid line
 72
    65
 73
     0
 40
0.0
  0
LTYPE
  5
3F
330
5
100
AcDbSymbolTableRecord
100
AcDbLinetypeTableRecord
  2
JWW_HOJO
 70
     0
  3
  -   -   -   -   -   -   -   - 
 72
    65
 73
     2
 40
1.693333333333333
 49
-1.27
 74
     0
 49
0.4233333333333333
 74
     0
  0
LTYPE
  5
40
330
5
100
AcDbSymbolTableRecord
100
AcDbLinetypeTableRecord
  2
JWW_DASHED1
 70
     0
  3
-  --  --  --  --  --  --  --  -
 72
    65
 73
     2
 40
0.3386666666666667
 49
0.1693333333333333
 74
     0
 49
-0.1693333333333333
 74
     0
  0
LTYPE
  5
41
330
5
100
AcDbSymbolTableRecord
100
AcDbLinetypeTableRecord
  2
JWW_CENTER1
 70
     0
  3
-----  --  ----------  --  -----
 72
    65
 73
     4
 40
3.386666666666667
 49
2.116666666666667
 74
     0
 49
-0.4233333333333333
 74
     0
 49
0.4233333333333333
 74
     0
 49
-0.4233333333333333
 74
     0
  0
ENDTAB
  0
TABLE
  2
LAYER
  5
2
330
0
100
AcDbSymbolTable
 70
    11
  0
LAYER
  5
10
330
2
100
AcDbSymbolTableRecord
100
AcDbLayerTableRecord
  2
0
 70
     0
 62
     7
  6
Continuous
370
    -3
390
F
347
3E
  0
LAYER
  5
42
330
2
100
AcDbSymbolTableRecord
100
AcDbLayerTableRecord
  2
0-0_補助線
 70
     0
 62
     7
  6
Continuous
370
    -3
390
F
347
3E
  0
LAYER
  5
43
330
2
100
AcDbSymbolTableRecord
100
AcDbLayerTableRecord
  2
F-1_枠
 70
     0
 62
     7
  6
Continuous
370
    -3
390
F
347
3E
  0
LAYER
  5
44
330
2
100
AcDbSymbolTableRecord
100
AcDbLayerTableRecord
  2
F-0_補助線
 70
     0
 62
     7
  6
Continuous
370
    -3
390
F
347
3E
  0
LAYER
  5
45
330
2
100
AcDbSymbolTableRecord
100
AcDbLayerTableRecord
  2
F-A_文字
 70
     0
 62
     7
  6
Continuous
370
    -3
390
F
347
3E
  0
LAYER
  5
46
330
2
100
AcDbSymbolTableRecord
100
AcDbLayerTableRecord
  2
0-B_寸法
 70
     0
 62
     7
  6
Continuous
370
    -3
390
F
347
3E
  0
LAYER
  5
47
330
2
100
AcDbSymbolTableRecord
100
AcDbLayerTableRecord
  2
0-2_扉
 70
     0
 62
     7
  6
Continuous
370
    -3
390
F
347
3E
  0
LAYER
  5
48
330
2
100
AcDbSymbolTableRecord
100
AcDbLayerTableRecord
  2
0-4_枠
 70
     0
 62
     7
  6
Continuous
370
    -3
390
F
347
3E
  0
LAYER
  5
49
330
2
100
AcDbSymbolTableRecord
100
AcDbLayerTableRecord
  2
0-A_文字
 70
     0
 62
     7
  6
Continuous
370
    -3
390
F
347
3E
  0
LAYER
  5
4A
330
2
100
AcDbSymbolTableRecord
100
AcDbLayerTableRecord
  2
引手
 70
     0
 62
     7
  6
Continuous
370
    -3
390
F
347
3E
  0
LAYER
  5
4B
330
2
100
AcDbSymbolTableRecord
100
AcDbLayerTableRecord
  2
0-C_ハッチ
 70
     0
 62
     7
  6
Continuous
370
    -3
390
F
347
3E
  0
ENDTAB
  0
TABLE
  2
STYLE
  5
3
330
0
100
AcDbSymbolTable
 70
     1
  0
STYLE
  5
11
330
3
100
AcDbSymbolTableRecord
100
AcDbTextStyleTableRecord
  2
Standard
 70
     0
 40
0.0
 41
1.0
 50
0.0
 71
     0
 42
2.5
  3
txt
  4

  0
ENDTAB
  0
TABLE
  2
VIEW
  5
6
330
0
100
AcDbSymbolTable
 70
     0
  0
ENDTAB
  0
TABLE
  2
UCS
  5
7
330
0
100
AcDbSymbolTable
 70
     0
  0
ENDTAB
  0
TABLE
  2
APPID
  5
9
330
0
100
AcDbSymbolTable
 70
     1
  0
APPID
  5
12
330
9
100
AcDbSymbolTableRecord
100
AcDbRegAppTableRecord
  2
ACAD
 70
     0
  0
ENDTAB
  0
TABLE
  2
DIMSTYLE
  5
A
330
0
100
AcDbSymbolTable
 70
     1
100
AcDbDimStyleTable
  0
DIMSTYLE
105
27
330
A
100
AcDbSymbolTableRecord
100
AcDbDimStyleTableRecord
  2
ISO-25
 70
     0
 41
2.5
 42
0.625
 43
3.75
 44
1.25
 73
     0
 74
     0
 77
     1
 78
     8
140
2.5
141
2.5
143
0.03937007874016
147
0.625
171
     3
172
     1
178
     0
271
     2
272
     2
274
     3
278
    44
283
     0
284
     8
340
11
  0
ENDTAB
  0
TABLE
  2
BLOCK_RECORD
  5
1
330
0
100
AcDbSymbolTable
 70
     1
  0
BLOCK_RECORD
  5
1F
330
1
100
AcDbSymbolTableRecord
100
AcDbBlockTableRecord
  2
*Model_Space
340
22
 70
     0
280
     1
281
     0
  0
BLOCK_RECORD
  5
1B
330
1
100
AcDbSymbolTableRecord
100
AcDbBlockTableRecord
  2
*Paper_Space
340
1E
 70
     0
280
     1
281
     0
  0
BLOCK_RECORD
  5
23
330
1
100
AcDbSymbolTableRecord
100
AcDbBlockTableRecord
  2
*Paper_Space0
340
26
 70
     0
280
     1
281
     0
  0
ENDTAB
  0
ENDSEC
  0
SECTION
  2
BLOCKS
  0
BLOCK
  5
20
330
1F
100
AcDbEntity
  8
0
100
AcDbBlockBegin
  2
*Model_Space
 70
     0
 10
0.0
 20
0.0
 30
0.0
  3
*Model_Space
  1

  0
ENDBLK
  5
21
330
1F
100
AcDbEntity
  8
0
100
AcDbBlockEnd
  0
BLOCK
  5
1C
330
1B
100
AcDbEntity
 67
     1
  8
0
100
AcDbBlockBegin
  2
*Paper_Space
 70
     0
 10
0.0
 20
0.0
 30
0.0
  3
*Paper_Space
  1

  0
ENDBLK
  5
1D
330
1B
100
AcDbEntity
 67
     1
  8
0
100
AcDbBlockEnd
  0
BLOCK
  5
24
330
23
100
AcDbEntity
  8
0
100
AcDbBlockBegin
  2
*Paper_Space0
 70
     0
 10
0.0
 20
0.0
 30
0.0
  3
*Paper_Space0
  1

  0
ENDBLK
  5
25
330
23
100
AcDbEntity
  8
0
100
AcDbBlockEnd
  0
ENDSEC
  0
SECTION
  2
ENTITIES
  0
LINE
  5
4C
330
1F
100
AcDbEntity
  8
0-0_補助線
  6
JWW_HOJO
 62
     7
370
     9
100
AcDbLine
 10
-4790.000018557985
 20
3964.999818544131
 30
0.0
 11
-4790.000018557985
 21
-3790.000179909372
 31
0.0
  0
LINE
  5
4D
330
1F
100
AcDbEntity
  8
F-1_枠
  6
Continuous
 62
   200
370
    20
100
AcDbLine
 10
-5999.999752560178
 20
4174.999769056166
 30
0.0
 11
5699.998762800888
 21
4174.999769056166
 31
0.0
  0
LINE
  5
4E
330
1F
100
AcDbEntity
  8
F-0_補助線
  6
JWW_HOJO
 62
   120
370
     5
100
AcDbLine
 10
-6300.0
 20
-4455.0
 30
0.0
 11
-6300.0
 21
4424.999604096284
 31
0.0
  0
LINE
  5
4F
330
1F
100
AcDbEntity
  8
F-0_補助線
  6
JWW_HOJO
 62
   120
370
     5
100
AcDbLine
 10
5999.999010240709
 20
4424.999604096284
 30
0.0
 11
5999.999010240709
 21
-4455.0
 31
0.0
  0
LINE
  5
50
330
1F
100
AcDbEntity
  8
F-0_補助線
  6
JWW_HOJO
 62
   120
370
     5
100
AcDbLine
 10
5999.999010240709
 20
-4455.0
 30
0.0
 11
-6300.0
 21
-4455.0
 31
0.0
  0
LINE
  5
51
330
1F
100
AcDbEntity
  8
F-1_枠
  6
Continuous
 62
   200
370
    20
100
AcDbLine
 10
-5999.999752560178
 20
4164.999983504013
 30
0.0
 11
5699.998762800888
 21
4164.999983504013
 31
0.0
  0
LINE
  5
52
330
1F
100
AcDbEntity
  8
F-1_枠
  6
Continuous
 62
   200
370
    20
100
AcDbLine
 10
-5999.999752560178
 20
4169.999505120355
 30
0.0
 11
5699.998762800888
 21
4169.999505120355
 31
0.0
  0
LINE
  5
53
330
1F
100
AcDbEntity
  8
F-1_枠
  6
Continuous
 62
   200
370
    20
100
AcDbLine
 10
5689.998977248734
 20
4174.999769056166
 30
0.0
 11
5689.998977248734
 21
-4205.000164959882
 31
0.0
  0
LINE
  5
54
330
1F
100
AcDbEntity
  8
F-1_枠
  6
Continuous
 62
   200
370
    20
100
AcDbLine
 10
5694.998498865077
 20
4174.999769056166
 30
0.0
 11
5694.998498865077
 21
-4205.000164959882
 31
0.0
  0
LINE
  5
55
330
1F
100
AcDbEntity
  8
F-1_枠
  6
Continuous
 62
   200
370
    20
100
AcDbLine
 10
5699.998762800888
 20
4174.999769056166
 30
0.0
 11
5699.998762800888
 21
-4205.000164959882
 31
0.0
  0
LINE
  5
56
330
1F
100
AcDbEntity
  8
F-1_枠
  6
Continuous
 62
   200
370
    20
100
AcDbLine
 10
-5989.999990205507
 20
4174.999769056166
 30
0.0
 11
-5989.999990205507
 21
-4205.000164959882
 31
0.0
  0
LINE
  5
57
330
1F
100
AcDbEntity
  8
F-1_枠
  6
Continuous
 62
   200
370
    20
100
AcDbLine
 10
-5994.999975771518
 20
4174.999769056166
 30
0.0
 11
-5994.999975771518
 21
-4205.000164959882
 31
0.0
  0
LINE
  5
58
330
1F
100
AcDbEntity
  8
F-1_枠
  6
Continuous
 62
   200
370
    20
100
AcDbLine
 10
-5999.99998453501
 20
4174.999769056166
 30
0.0
 11
-5999.99998453501
 21
-4205.000164959882
 31
0.0
  0
LINE
  5
59
330
1F
100
AcDbEntity
  8
F-1_枠
  6
Continuous
 62
   200
370
    20
100
AcDbLine
 10
-5490.000018557986
 20
4174.999769056166
 30
0.0
 11
-5490.000018557986
 21
-3790.000179909372
 31
0.0
  0
LINE
  5
5A
330
1F
100
AcDbEntity
  8
F-0_補助線
  6
JWW_HOJO
 62
   120
370
     5
100
AcDbLine
 10
-6300.0
 20
4424.999604096284
 30
0.0
 11
5999.999010240709
 21
4424.999604096284
 31
0.0
  0
LINE
  5
5B
330
1F
100
AcDbEntity
  8
F-0_補助線
  6
JWW_HOJO
 62
     7
370
     9
100
AcDbLine
 10
849.9995876002961
 20
-3795.000003092998
 30
0.0
 11
849.9995876002961
 21
-4195.000008247994
 31
0.0
  0
LINE
  5
5C
330
1F
100
AcDbEntity
  8
F-0_補助線
  6
JWW_HOJO
 62
     7
370
     9
100
AcDbLine
 10
349.9999175200594
 20
-3795.000003092998
 30
0.0
 11
349.9999175200594
 21
-4195.000008247994
 31
0.0
  0
LINE
  5
5D
330
1F
100
AcDbEntity
  8
F-1_枠
  6
Continuous
 62
   200
370
    20
100
AcDbLine
 10
5699.998762800888
 20
-4205.000002577498
 30
0.0
 11
-5999.999752560178
 21
-4205.000002577498
 31
0.0
  0
LINE
  5
5E
330
1F
100
AcDbEntity
  8
F-1_枠
  6
Continuous
 62
   200
370
    20
100
AcDbLine
 10
5699.998762800888
 20
-4199.999993814004
 30
0.0
 11
-5999.999752560178
 21
-4199.999993814004
 31
0.0
  0
LINE
  5
5F
330
1F
100
AcDbEntity
  8
F-1_枠
  6
Continuous
 62
   200
370
    20
100
AcDbLine
 10
5699.998762800888
 20
-4195.000008247994
 30
0.0
 11
-5999.999752560178
 21
-4195.000008247994
 31
0.0
  0
LINE
  5
60
330
1F
100
AcDbEntity
  8
F-1_枠
  6
Continuous
 62
   200
370
    20
100
AcDbLine
 10
4189.999224688556
 20
-3795.000003092998
 30
0.0
 11
4189.999224688556
 21
-4195.000008247994
 31
0.0
  0
LINE
  5
61
330
1F
100
AcDbEntity
  8
F-1_枠
  6
Continuous
 62
   200
370
    20
100
AcDbLine
 10
2689.998729808911
 20
-3795.000003092998
 30
0.0
 11
2689.998729808911
 21
-4195.000008247994
 31
0.0
  0
LINE
  5
62
330
1F
100
AcDbEntity
  8
F-1_枠
  6
Continuous
 62
   200
370
    20
100
AcDbLine
 10
-150.0001237199109
 20
-3795.000003092998
 30
0.0
 11
-150.0001237199109
 21
-4195.000008247994
 31
0.0
  0
LINE
  5
63
330
1F
100
AcDbEntity
  8
F-1_枠
  6
Continuous
 62
   200
370
    20
100
AcDbLine
 10
-150.0001237199109
 20
-3994.999936078046
 30
0.0
 11
5689.998977248734
 21
-3995.005364289155
 31
0.0
  0
LINE
  5
64
330
1F
100
AcDbEntity
  8
F-0_補助線
  6
JWW_HOJO
 62
     7
370
     9
100
AcDbLine
 10
-5989.999990205507
 20
-3994.99993607839
 30
0.0
 11
-150.0001237199109
 21
-3994.99993607839
 31
0.0
  0
LINE
  5
65
330
1F
100
AcDbEntity
  8
F-0_補助線
  6
JWW_HOJO
 62
     7
370
     9
100
AcDbLine
 10
-5989.999990205507
 20
-3904.99993607839
 30
0.0
 11
-150.0001237199109
 21
-3904.99993607839
 31
0.0
  0
LINE
  5
66
330
1F
100
AcDbEntity
  8
F-0_補助線
  6
JWW_HOJO
 62
     7
370
     9
100
AcDbLine
 10
-5989.999990205507
 20
-4084.99993607839
 30
0.0
 11
-150.0001237199109
 21
-4084.99993607839
 31
0.0
  0
LINE
  5
67
330
1F
100
AcDbEntity
  8
F-0_補助線
  6
JWW_HOJO
 62
     7
370
     9
100
AcDbLine
 10
-150.0002584955388
 20
-4139.999739777983
 30
0.0
 11
5689.998842473105
 21
-4140.005167989091
 31
0.0
  0
LINE
  5
68
330
1F
100
AcDbEntity
  8
F-0_補助線
  6
JWW_HOJO
 62
     7
370
     9
100
AcDbLine
 10
-150.0001748415872
 20
-4049.999739778022
 30
0.0
 11
5689.998926127057
 21
-4050.005167989131
 31
0.0
  0
LINE
  5
69
330
1F
100
AcDbEntity
  8
F-0_補助線
  6
JWW_HOJO
 62
     7
370
     9
100
AcDbLine
 10
-150.0000725978671
 20
-3939.99973721807
 30
0.0
 11
5689.999028370777
 21
-3940.005165429179
 31
0.0
  0
LINE
  5
6A
330
1F
100
AcDbEntity
  8
F-0_補助線
  6
JWW_HOJO
 62
     7
370
     9
100
AcDbLine
 10
-149.9999889439155
 20
-3849.999737218109
 30
0.0
 11
5689.999112024728
 21
-3850.005165429218
 31
0.0
  0
LINE
  5
6B
330
1F
100
AcDbEntity
  8
F-0_補助線
  6
JWW_HOJO
 62
     7
370
     9
100
AcDbLine
 10
2779.998729808911
 20
-3795.000003092998
 30
0.0
 11
2779.998729808911
 21
-4195.000008247994
 31
0.0
  0
LINE
  5
6C
330
1F
100
AcDbEntity
  8
F-0_補助線
  6
JWW_HOJO
 62
     7
370
     9
100
AcDbLine
 10
-60.0001237199109
 20
-3795.000003092998
 30
0.0
 11
-60.0001237199109
 21
-4195.000008247994
 31
0.0
  0
LINE
  5
6D
330
1F
100
AcDbEntity
  8
F-0_補助線
  6
JWW_HOJO
 62
     7
370
     9
100
AcDbLine
 10
4279.999224688556
 20
-3795.000003092998
 30
0.0
 11
4279.999224688556
 21
-4195.000008247994
 31
0.0
  0
LINE
  5
6E
330
1F
100
AcDbEntity
  8
F-0_補助線
  6
JWW_HOJO
 62
     7
370
     9
100
AcDbLine
 10
-5247.547376752838
 20
-3795.000003092999
 30
0.0
 11
-5247.547376752838
 21
-4205.000164959882
 31
0.0
  0
LINE
  5
6F
330
1F
100
AcDbEntity
  8
F-0_補助線
  6
JWW_HOJO
 62
     7
370
     9
100
AcDbLine
 10
-210.0001237199109
 20
-3795.000003092998
 30
0.0
 11
-210.0001237199109
 21
-4195.000008247994
 31
0.0
  0
LINE
  5
70
330
1F
100
AcDbEntity
  8
0-0_補助線
  6
JWW_HOJO
 62
     7
370
     9
100
AcDbLine
 10
-5490.000018557986
 20
1418.000148463893
 30
0.0
 11
5689.998977248734
 21
1418.000148463893
 31
0.0
  0
LINE
  5
71
330
1F
100
AcDbEntity
  8
0-0_補助線
  6
JWW_HOJO
 62
     7
370
     9
100
AcDbLine
 10
-5490.000018557986
 20
-2701.250083820241
 30
0.0
 11
5699.998762800888
 21
-2701.250083820241
 31
0.0
  0
LINE
  5
72
330
1F
100
AcDbEntity
  8
0-0_補助線
  6
JWW_HOJO
 62
   120
370
     5
100
AcDbLine
 10
-5490.000018557986
 20
-2751.250083820241
 30
0.0
 11
5699.998762800888
 21
-2751.250083820241
 31
0.0
  0
LINE
  5
73
330
1F
100
AcDbEntity
  8
0-0_補助線
  6
JWW_HOJO
 62
     7
370
     9
100
AcDbLine
 10
-5490.000018557986
 20
1168.000148463894
 30
0.0
 11
5689.998977248734
 21
1168.000148463894
 31
0.0
  0
LINE
  5
74
330
1F
100
AcDbEntity
  8
0-0_補助線
  6
JWW_HOJO
 62
     7
370
     9
100
AcDbLine
 10
-5490.000018557986
 20
-2951.250083820241
 30
0.0
 11
5699.998762800888
 21
-2951.250083820241
 31
0.0
  0
LINE
  5
75
330
1F
100
AcDbEntity
  8
F-1_枠
  6
Continuous
 62
   200
370
    20
100
AcDbLine
 10
5699.998762800888
 20
-3795.000003092998
 30
0.0
 11
-5999.99998453501
 21
-3795.000003092998
 31
0.0
  0
LINE
  5
76
330
1F
100
AcDbEntity
  8
F-1_枠
  6
Continuous
 62
   200
370
    20
100
AcDbLine
 10
-5999.99998453501
 20
3964.999818544131
 30
0.0
 11
5699.998762800888
 21
3964.999818544131
 31
0.0
  0
LINE
  5
77
330
1F
100
AcDbEntity
  8
F-1_枠
  6
Continuous
 62
   200
370
    20
100
AcDbLine
 10
5699.998762800888
 20
-3790.000017526987
 30
0.0
 11
-5999.99998453501
 21
-3790.000017526987
 31
0.0
  0
LINE
  5
78
330
1F
100
AcDbEntity
  8
F-1_枠
  6
Continuous
 62
   200
370
    20
100
AcDbLine
 10
-5999.99998453501
 20
190.5001831054688
 30
0.0
 11
5699.998762800888
 21
190.5001831054688
 31
0.0
  0
LINE
  5
79
330
1F
100
AcDbEntity
  8
F-1_枠
  6
Continuous
 62
   200
370
    20
100
AcDbLine
 10
-5999.99998453501
 20
-15.50015011349217
 30
0.0
 11
5699.998762800888
 21
-15.50015011349217
 31
0.0
  0
LINE
  5
7A
330
1F
100
AcDbEntity
  8
F-1_枠
  6
Continuous
 62
   200
370
    20
100
AcDbLine
 10
-5999.99998453501
 20
184.5000148463899
 30
0.0
 11
5699.998762800888
 21
184.5000148463899
 31
0.0
  0
LINE
  5
7B
330
1F
100
AcDbEntity
  8
F-1_枠
  6
Continuous
 62
   200
370
    20
100
AcDbLine
 10
-5999.99998453501
 20
187.5000989759289
 30
0.0
 11
5699.998762800888
 21
187.5000989759289
 31
0.0
  0
LINE
  5
7C
330
1F
100
AcDbEntity
  8
F-1_枠
  6
Continuous
 62
   200
370
    20
100
AcDbLine
 10
99.99947934537431
 20
-3790.000179909372
 30
0.0
 11
99.99947934537431
 21
4174.999769056166
 31
0.0
  0
LINE
  5
7D
330
1F
100
AcDbEntity
  8
F-1_枠
  6
Continuous
 62
   200
370
    20
100
AcDbLine
 10
-2695.000269606307
 20
-3790.000179909372
 30
0.0
 11
-2695.000269606307
 21
4174.999769056166
 31
0.0
  0
LINE
  5
7E
330
1F
100
AcDbEntity
  8
F-A_文字
  6
Continuous
 62
     7
370
     9
100
AcDbLine
 10
2894.999228297052
 20
184.5000148463899
 30
0.0
 11
99.99987274480532
 21
-3790.000179909372
 31
0.0
  0
LINE
  5
7F
330
1F
100
AcDbEntity
  8
F-A_文字
  6
Continuous
 62
     7
370
     9
100
AcDbLine
 10
2894.999321086989
 20
-3790.000017526987
 30
0.0
 11
5689.998977248734
 21
184.5000148463899
 31
0.0
  0
LINE
  5
80
330
1F
100
AcDbEntity
  8
F-A_文字
  6
Continuous
 62
     7
370
     9
100
AcDbLine
 10
2894.999321086989
 20
190.499951130636
 30
0.0
 11
5689.998977248734
 21
4164.999983504013
 31
0.0
  0
LINE
  5
81
330
1F
100
AcDbEntity
  8
F-1_枠
  6
Continuous
 62
   200
370
    20
100
AcDbLine
 10
2894.999228297052
 20
-3790.000179909372
 30
0.0
 11
2894.999228297052
 21
4174.999769056166
 31
0.0
  0
LINE
  5
82
330
1F
100
AcDbEntity
  8
0-0_補助線
  6
JWW_HOJO
 62
   120
370
     5
100
AcDbLine
 10
-4840.000018557987
 20
3964.999818544131
 30
0.0
 11
-4840.000018557987
 21
-3790.000179909372
 31
0.0
  0
LINE
  5
83
330
1F
100
AcDbEntity
  8
0-0_補助線
  6
JWW_HOJO
 62
     7
370
     9
100
AcDbLine
 10
-1995.000269606306
 20
3964.999818544131
 30
0.0
 11
-1995.000269606306
 21
-3790.000179909372
 31
0.0
  0
LINE
  5
84
330
1F
100
AcDbEntity
  8
0-0_補助線
  6
JWW_HOJO
 62
   120
370
     5
100
AcDbLine
 10
-2045.000269606307
 20
3964.999818544131
 30
0.0
 11
-2045.000269606307
 21
-3790.000179909372
 31
0.0
  0
LINE
  5
85
330
1F
100
AcDbEntity
  8
0-B_寸法
  6
Continuous
 62
   120
370
     5
100
AcDbLine
 10
-378.000269606307
 20
1168.000148463894
 30
0.0
 11
-378.000269606307
 21
1368.000148463894
 31
0.0
  0
LINE
  5
86
330
1F
100
AcDbEntity
  8
0-B_寸法
  6
Continuous
 62
   120
370
     5
100
AcDbLine
 10
-1188.000269606307
 20
1168.000148463894
 30
0.0
 11
-1188.000269606307
 21
1368.000148463894
 31
0.0
  0
LINE
  5
87
330
1F
100
AcDbEntity
  8
0-B_寸法
  6
Continuous
 62
   120
370
     5
100
AcDbLine
 10
-1188.000269606307
 20
1168.000148463894
 30
0.0
 11
-378.000269606307
 21
1168.000148463894
 31
0.0
  0
LWPOLYLINE
  5
88
330
1F
100
AcDbEntity
  8
0-B_寸法
  6
Continuous
 62
     7
370
     9
100
AcDbPolyline
 90
        4
 70
     1
 43
3.0
 10
-376.500269606307
 20
1168.000148463894
 42
0.4142135623731
 10
-378.000269606307
 20
1169.500148463894
 42
0.4142135623731
 10
-379.500269606307
 20
1168.000148463894
 42
0.4142135623731
 10
-378.000269606307
 20
1166.500148463894
 42
0.4142135623731
  0
LWPOLYLINE
  5
89
330
1F
100
AcDbEntity
  8
0-B_寸法
  6
Continuous
 62
     7
370
     9
100
AcDbPolyline
 90
        4
 70
     1
 43
3.0
 10
-1186.500269606307
 20
1168.000148463894
 42
0.4142135623731
 10
-1188.000269606307
 20
1169.500148463894
 42
0.4142135623731
 10
-1189.500269606307
 20
1168.000148463894
 42
0.4142135623731
 10
-1188.000269606307
 20
1166.500148463894
 42
0.4142135623731
  0
LINE
  5
8A
330
1F
100
AcDbEntity
  8
0-B_寸法
  6
Continuous
 62
   120
370
     5
100
AcDbLine
 10
-2295.000269606307
 20
1426.500148463893
 30
0.0
 11
-2045.000269606307
 21
1426.500148463893
 31
0.0
  0
LWPOLYLINE
  5
8B
330
1F
100
AcDbEntity
  8
0-B_寸法
  6
Continuous
 62
     7
370
     9
100
AcDbPolyline
 90
        4
 70
     1
 43
3.0
 10
-2293.500269606307
 20
1426.500148463893
 42
0.4142135623731
 10
-2295.000269606307
 20
1428.000148463893
 42
0.4142135623731
 10
-2296.500269606306
 20
1426.500148463893
 42
0.4142135623731
 10
-2295.000269606307
 20
1425.000148463893
 42
0.4142135623731
  0
LINE
  5
8C
330
1F
100
AcDbEntity
  8
0-2_扉
  6
JWW_DASHED1
 62
   120
370
     5
100
AcDbLine
 10
-1968.000269606307
 20
3409.500148463893
 30
0.0
 11
-1968.000269606307
 21
1426.500148463893
 31
0.0
  0
LINE
  5
8D
330
1F
100
AcDbEntity
  8
0-2_扉
  6
JWW_DASHED1
 62
   120
370
     5
100
AcDbLine
 10
-1965.000269606306
 20
3409.500148463893
 30
0.0
 11
-1968.000269606307
 21
3409.500148463893
 31
0.0
  0
LINE
  5
8E
330
1F
100
AcDbEntity
  8
0-2_扉
  6
JWW_DASHED1
 62
   120
370
     5
100
AcDbLine
 10
-1968.000269606307
 20
1426.500148463893
 30
0.0
 11
-1965.000269606306
 21
1426.500148463893
 31
0.0
  0
LINE
  5
8F
330
1F
100
AcDbEntity
  8
0-4_枠
  6
Continuous
 62
    92
370
    13
100
AcDbLine
 10
-381.0002696063077
 20
1426.70492745673
 30
0.0
 11
-381.0002696063077
 21
1427.037913266388
 31
0.0
  0
LINE
  5
90
330
1F
100
AcDbEntity
  8
0-2_扉
  6
JWW_DASHED1
 62
   120
370
     5
100
AcDbLine
 10
-378.000269606307
 20
3409.500148463893
 30
0.0
 11
-378.000269606307
 21
1426.500148463893
 31
0.0
  0
LINE
  5
91
330
1F
100
AcDbEntity
  8
0-2_扉
  6
JWW_DASHED1
 62
   120
370
     5
100
AcDbLine
 10
-378.000269606307
 20
1426.500148463893
 30
0.0
 11
-381.0002696063077
 21
1426.500148463893
 31
0.0
  0
LINE
  5
92
330
1F
100
AcDbEntity
  8
0-2_扉
  6
JWW_DASHED1
 62
   120
370
     5
100
AcDbLine
 10
-381.0002696063077
 20
3409.500148463893
 30
0.0
 11
-378.000269606307
 21
3409.500148463893
 31
0.0
  0
LINE
  5
93
330
1F
100
AcDbEntity
  8
0-2_扉
  6
JWW_DASHED1
 62
   120
370
     5
100
AcDbLine
 10
-1158.000269606305
 20
1426.500148463893
 30
0.0
 11
-1158.000269606305
 21
3409.500148463893
 31
0.0
  0
LINE
  5
94
330
1F
100
AcDbEntity
  8
0-B_寸法
  6
Continuous
 62
   120
370
     5
100
AcDbLine
 10
-2295.000269606307
 20
3409.500148463893
 30
0.0
 11
-2045.000269606307
 21
3409.500148463893
 31
0.0
  0
LINE
  5
95
330
1F
100
AcDbEntity
  8
0-B_寸法
  6
Continuous
 62
   120
370
     5
100
AcDbLine
 10
-2295.000269606307
 20
3409.500148463893
 30
0.0
 11
-2295.000269606307
 21
1426.500148463893
 31
0.0
  0
LWPOLYLINE
  5
96
330
1F
100
AcDbEntity
  8
0-B_寸法
  6
Continuous
 62
     7
370
     9
100
AcDbPolyline
 90
        4
 70
     1
 43
3.0
 10
-2293.500269606307
 20
3409.500148463893
 42
0.4142135623731
 10
-2295.000269606307
 20
3411.000148463893
 42
0.4142135623731
 10
-2296.500269606306
 20
3409.500148463893
 42
0.4142135623731
 10
-2295.000269606307
 20
3408.000148463893
 42
0.4142135623731
  0
LINE
  5
97
330
1F
100
AcDbEntity
  8
0-4_枠
  6
Continuous
 62
    92
370
    13
100
AcDbLine
 10
-1965.000269606306
 20
1418.000148463893
 30
0.0
 11
-1995.000269606306
 21
1418.000148463893
 31
0.0
  0
LINE
  5
98
330
1F
100
AcDbEntity
  8
0-4_枠
  6
Continuous
 62
    92
370
    13
100
AcDbLine
 10
-351.0002696063077
 20
1418.000148463893
 30
0.0
 11
-381.0002696063077
 21
1418.000148463893
 31
0.0
  0
LINE
  5
99
330
1F
100
AcDbEntity
  8
0-4_枠
  6
Continuous
 62
    92
370
    13
100
AcDbLine
 10
-381.0002696063077
 20
1418.000148463893
 30
0.0
 11
-381.0002696063077
 21
1426.70492745673
 31
0.0
  0
MTEXT
  5
9A
330
1F
100
AcDbEntity
  8
0-B_寸法
  6
Continuous
 62
     7
370
    70
100
AcDbMText
 10
-2310.000269606307
 20
2199.825148463894
 30
0.0
 40
57.14999999999999
 41
412.5
 46
0.0
 71
     7
 72
     1
  1
{\fＭＳ ゴシック|b0|i0|c128|p49;ＤＨ＝1,983}
 11
6.123031769111886E-17
 21
1.0
 31
0.0
 73
     1
 44
1.0
  0
MTEXT
  5
9B
330
1F
100
AcDbEntity
  8
0-B_寸法
  6
Continuous
 62
     7
370
   211
100
AcDbMText
 10
-951.750269606307
 20
1174.075148463894
 30
0.0
 40
57.15
 41
337.5
 46
0.0
 71
     7
 72
     1
  1
{\fＭＳ ゴシック|b0|i0|c128|p49;ＤＷ＝810}
 73
     1
 44
1.0
  0
MTEXT
  5
9C
330
1F
100
AcDbEntity
  8
F-A_文字
  6
Continuous
 62
     7
370
     9
100
AcDbMText
 10
-5890.000004381747
 20
4018.575148463894
 30
0.0
 40
57.15
 41
300.0
 46
0.0
 71
     7
 72
     1
  1
{\fＭＳ ゴシック|b0|i0|c128|p49;デザイン}
 73
     1
 44
1.0
  0
MTEXT
  5
9D
330
1F
100
AcDbEntity
  8
F-A_文字
  6
Continuous
 62
     7
370
     9
100
AcDbMText
 10
-5852.500004381747
 20
2031.325062684755
 30
0.0
 40
57.15
 41
225.0
 46
0.0
 71
     7
 72
     1
  1
{\fＭＳ ゴシック|b0|i0|c128|p49;姿　図}
 73
     1
 44
1.0
  0
MTEXT
  5
9E
330
1F
100
AcDbEntity
  8
F-A_文字
  6
Continuous
 62
     7
370
     9
100
AcDbMText
 10
-5890.000004381747
 20
38.07493236644844
 30
0.0
 40
57.15
 41
300.0
 46
0.0
 71
     7
 72
     1
  1
{\fＭＳ ゴシック|b0|i0|c128|p49;デザイン}
 73
     1
 44
1.0
  0
MTEXT
  5
9F
330
1F
100
AcDbEntity
  8
F-A_文字
  6
Continuous
 62
     7
370
     9
100
AcDbMText
 10
-5852.500004381747
 20
-1949.175091552734
 30
0.0
 40
57.15
 41
225.0
 46
0.0
 71
     7
 72
     1
  1
{\fＭＳ ゴシック|b0|i0|c128|p49;姿　図}
 73
     1
 44
1.0
  0
MTEXT
  5
A0
330
1F
100
AcDbEntity
  8
F-A_文字
  6
Continuous
 62
     7
370
     0
100
AcDbMText
 10
-60.0001237199109
 20
-3887.139820871936
 30
0.0
 40
45.72
 41
180.0
 46
0.0
 71
     7
 72
     1
  1
{\fＭＳ ゴシック|b0|i0|c128|p49;図面名}
 73
     1
 44
1.0
  0
MTEXT
  5
A1
330
1F
100
AcDbEntity
  8
F-A_文字
  6
Continuous
 62
     7
370
     0
100
AcDbMText
 10
2779.998729808911
 20
-3887.142460617774
 30
0.0
 40
45.72
 41
300.0
 46
0.0
 71
     7
 72
     1
  1
{\fＭＳ ゴシック|b0|i0|c128|p49;ＳＣＡＬＥ}
 73
     1
 44
1.0
  0
MTEXT
  5
A2
330
1F
100
AcDbEntity
  8
F-A_文字
  6
Continuous
 62
     7
370
     0
100
AcDbMText
 10
4279.999224688556
 20
-3887.143854850754
 30
0.0
 40
45.72
 41
240.0
 46
0.0
 71
     7
 72
     1
  1
{\fＭＳ ゴシック|b0|i0|c128|p49;ＤＡＴＥ}
 73
     1
 44
1.0
  0
MTEXT
  5
A3
330
1F
100
AcDbEntity
  8
F-A_文字
  6
Continuous
 62
     7
370
     0
100
AcDbMText
 10
1180.417701903719
 20
-3946.423911599839
 30
0.0
 40
77.15249999999999
 41
405.0
 46
0.0
 71
     7
 72
     1
  1
{\fＭＳ ゴシック|b0|i0|c128|p49;建具姿図}
 73
     1
 44
1.0
  0
MTEXT
  5
A4
330
1F
100
AcDbEntity
  8
F-A_文字
  6
Continuous
 62
     7
370
     0
100
AcDbMText
 10
3383.748977248734
 20
-3946.426865907308
 30
0.0
 40
77.15249999999999
 41
202.5
 46
0.0
 71
     7
 72
     1
  1
{\fＭＳ ゴシック|b0|i0|c128|p49;1/30}
 73
     1
 44
1.0
  0
MTEXT
  5
A5
330
1F
100
AcDbEntity
  8
F-A_文字
  6
Continuous
 62
     7
370
     0
100
AcDbMText
 10
349.9999175200594
 20
-3946.496666872502
 30
0.0
 40
78.58125
 41
412.5
 46
0.0
 71
     7
 72
     1
  1
{\fＭＳ ゴシック|b0|i0|c128|p49;DOORETUS}
 73
     1
 44
1.0
  0
MTEXT
  5
A6
330
1F
100
AcDbEntity
  8
F-A_文字
  6
Continuous
 62
     7
370
     0
100
AcDbMText
 10
2779.998729808911
 20
-4087.14246317786
 30
0.0
 40
45.72
 41
240.0
 46
0.0
 71
     7
 72
     1
  1
{\fＭＳ ゴシック|b0|i0|c128|p49;ＦＩＬＥ}
 73
     1
 44
1.0
  0
MTEXT
  5
A7
330
1F
100
AcDbEntity
  8
F-A_文字
  6
Continuous
 62
     7
370
     0
100
AcDbMText
 10
4279.999224688556
 20
-4087.143857410839
 30
0.0
 40
45.72
 41
180.0
 46
0.0
 71
     7
 72
     1
  1
{\fＭＳ ゴシック|b0|i0|c128|p49;ＮＯ．}
 73
     1
 44
1.0
  0
MTEXT
  5
A8
330
1F
100
AcDbEntity
  8
F-A_文字
  6
Continuous
 62
     7
370
     0
100
AcDbMText
 10
1234.998729808911
 20
-4096.140669266149
 30
0.0
 40
45.72
 41
120.0
 46
0.0
 71
     7
 72
     1
  1
{\fＭＳ ゴシック|b0|i0|c128|p49;株式}
 73
     1
 44
1.0
  0
MTEXT
  5
A9
330
1F
100
AcDbEntity
  8
F-A_文字
  6
Continuous
 62
     7
370
     9
100
AcDbMText
 10
4936.249033580831
 20
-4147.857012699985
 30
0.0
 40
74.295
 41
97.5
 46
0.0
 71
     7
 72
     1
  1
{\fＭＳ ゴシック|b0|i0|c128|p49;01}
 73
     1
 44
1.0
  0
MTEXT
  5
AA
330
1F
100
AcDbEntity
  8
F-A_文字
  6
Continuous
 62
     7
370
     0
100
AcDbMText
 10
1444.998729808911
 20
-4164.281754523929
 30
0.0
 40
101.44125
 41
1065.0
 46
0.0
 71
     7
 72
     1
  1
{\fＭＳ ゴシック|b0|i0|c128|p49;ウッドワン・・・}
 73
     1
 44
1.0
  0
MTEXT
  5
AB
330
1F
100
AcDbEntity
  8
F-A_文字
  6
Continuous
 62
     7
370
     0
100
AcDbMText
 10
1234.998729808911
 20
-4168.140669266187
 30
0.0
 40
45.72
 41
120.0
 46
0.0
 71
     7
 72
     1
  1
{\fＭＳ ゴシック|b0|i0|c128|p49;会社}
 73
     1
 44
1.0
  0
MTEXT
  5
AC
330
1F
100
AcDbEntity
  8
F-A_文字
  6
Continuous
 62
     7
370
     0
100
AcDbMText
 10
5608.403311109712
 20
-4314.841419020919
 30
0.0
 40
68.58
 41
90.0
 46
0.0
 71
     7
 72
     1
  1
{\fＭＳ ゴシック|b0|i0|c128|p49;）}
 73
     1
 44
1.0
  0
MTEXT
  5
AD
330
1F
100
AcDbEntity
  8
F-A_文字
  6
Continuous
 62
     7
370
     0
100
AcDbMText
 10
5190.195950842071
 20
-4316.235443869856
 30
0.0
 40
68.58
 41
45.0
 46
0.0
 71
     7
 72
     1
  1
{\fＭＳ ゴシック|b0|i0|c128|p49;,}
 73
     1
 44
1.0
  0
MTEXT
  5
AE
330
1F
100
AcDbEntity
  8
F-A_文字
  6
Continuous
 62
     7
370
     0
100
AcDbMText
 10
4923.937261915373
 20
-4314.771967288282
 30
0.0
 40
74.295
 41
97.5
 46
0.0
 71
     7
 72
     1
  1
{\fＭＳ ゴシック|b0|i0|c128|p49;$y}
 73
     1
 44
1.0
  0
MTEXT
  5
AF
330
1F
100
AcDbEntity
  8
F-A_文字
  6
Continuous
 62
     7
370
     0
100
AcDbMText
 10
5078.673982954195
 20
-4314.771967288282
 30
0.0
 40
74.295
 41
97.5
 46
0.0
 71
     7
 72
     1
  1
{\fＭＳ ゴシック|b0|i0|c128|p49;$m}
 73
     1
 44
1.0
  0
MTEXT
  5
B0
330
1F
100
AcDbEntity
  8
F-A_文字
  6
Continuous
 62
     7
370
     0
100
AcDbMText
 10
5233.410715437103
 20
-4314.771967288282
 30
0.0
 40
74.295
 41
97.5
 46
0.0
 71
     7
 72
     1
  1
{\fＭＳ ゴシック|b0|i0|c128|p49;$d}
 73
     1
 44
1.0
  0
MTEXT
  5
B1
330
1F
100
AcDbEntity
  8
F-A_文字
  6
Continuous
 62
     7
370
     0
100
AcDbMText
 10
5388.147447920011
 20
-4314.771967288282
 30
0.0
 40
74.295
 41
195.0
 46
0.0
 71
     7
 72
     1
  1
{\fＭＳ ゴシック|b0|i0|c128|p49;印刷}
 73
     1
 44
1.0
  0
MTEXT
  5
B2
330
1F
100
AcDbEntity
  8
F-A_文字
  6
Continuous
 62
     7
370
     0
100
AcDbMText
 10
4784.033374252999
 20
-4319.023493567732
 30
0.0
 40
68.58
 41
90.0
 46
0.0
 71
     7
 72
     1
  1
{\fＭＳ ゴシック|b0|i0|c128|p49;（}
 73
     1
 44
1.0
  0
MTEXT
  5
B3
330
1F
100
AcDbEntity
  8
F-A_文字
  6
Continuous
 62
     7
370
     0
100
AcDbMText
 10
5031.277143812345
 20
-4319.023493567732
 30
0.0
 40
68.58
 41
45.0
 46
0.0
 71
     7
 72
     1
  1
{\fＭＳ ゴシック|b0|i0|c128|p49;,}
 73
     1
 44
1.0
  0
LINE
  5
B4
330
1F
100
AcDbEntity
  8
0-0_補助線
  6
JWW_HOJO
 62
   120
370
     5
100
AcDbLine
 10
-5999.99998453501
 20
670.5001831054692
 30
0.0
 11
5699.998762800888
 21
670.5001831054692
 31
0.0
  0
LINE
  5
B5
330
1F
100
AcDbEntity
  8
0-0_補助線
  6
JWW_HOJO
 62
   120
370
     5
100
AcDbLine
 10
-5999.99998453501
 20
550.5001831054688
 30
0.0
 11
5699.998762800888
 21
550.5001831054688
 31
0.0
  0
LINE
  5
B6
330
1F
100
AcDbEntity
  8
0-0_補助線
  6
JWW_HOJO
 62
   120
370
     5
100
AcDbLine
 10
-5999.99998453501
 20
430.5001831054688
 30
0.0
 11
5699.998762800888
 21
430.5001831054688
 31
0.0
  0
LINE
  5
B7
330
1F
100
AcDbEntity
  8
0-0_補助線
  6
JWW_HOJO
 62
   120
370
     5
100
AcDbLine
 10
-5999.99998453501
 20
310.5001831054688
 30
0.0
 11
5699.998762800888
 21
310.5001831054688
 31
0.0
  0
LINE
  5
B8
330
1F
100
AcDbEntity
  8
0-0_補助線
  6
JWW_HOJO
 62
   120
370
     5
100
AcDbLine
 10
3014.999228297052
 20
4174.999769056166
 30
0.0
 11
3014.999228297052
 21
-3790.000179909371
 31
0.0
  0
LINE
  5
B9
330
1F
100
AcDbEntity
  8
0-0_補助線
  6
JWW_HOJO
 62
   120
370
     5
100
AcDbLine
 10
219.9994793453743
 20
4174.999769056166
 30
0.0
 11
219.9994793453743
 21
-3790.000179909371
 31
0.0
  0
LINE
  5
BA
330
1F
100
AcDbEntity
  8
0-0_補助線
  6
JWW_HOJO
 62
   120
370
     5
100
AcDbLine
 10
-2575.000269606307
 20
4174.999769056166
 30
0.0
 11
-2575.000269606307
 21
-3790.000179909371
 31
0.0
  0
LINE
  5
BB
330
1F
100
AcDbEntity
  8
0-0_補助線
  6
JWW_HOJO
 62
   120
370
     5
100
AcDbLine
 10
-5370.000018557986
 20
4174.999769056166
 30
0.0
 11
-5370.000018557986
 21
-3790.000179909371
 31
0.0
  0
LINE
  5
BC
330
1F
100
AcDbEntity
  8
0-0_補助線
  6
JWW_HOJO
 62
   120
370
     5
100
AcDbLine
 10
5699.998762800888
 20
-3430.000017526988
 30
0.0
 11
-5999.99998453501
 21
-3430.000017526988
 31
0.0
  0
LINE
  5
BD
330
1F
100
AcDbEntity
  8
0-0_補助線
  6
JWW_HOJO
 62
   120
370
     5
100
AcDbLine
 10
5699.998762800888
 20
-3550.000017526988
 30
0.0
 11
-5999.99998453501
 21
-3550.000017526988
 31
0.0
  0
LINE
  5
BE
330
1F
100
AcDbEntity
  8
0-0_補助線
  6
JWW_HOJO
 62
   120
370
     5
100
AcDbLine
 10
5699.998762800888
 20
-3670.000017526988
 30
0.0
 11
-5999.99998453501
 21
-3670.000017526988
 31
0.0
  0
LINE
  5
BF
330
1F
100
AcDbEntity
  8
F-A_文字
  6
Continuous
 62
     7
370
     9
100
AcDbLine
 10
2894.999228297052
 20
4164.999983504013
 30
0.0
 11
-2699.218607102022
 21
-3790.000017526987
 31
0.0
  0
LINE
  5
C0
330
1F
100
AcDbEntity
  8
F-A_文字
  6
Continuous
 62
     7
370
     9
100
AcDbLine
 10
-2695.000269606307
 20
184.5000148463899
 30
0.0
 11
-5490.000018557986
 21
-3790.000017526987
 31
0.0
  0
LINE
  5
C1
330
1F
100
AcDbEntity
  8
F-A_文字
  6
Continuous
 62
     7
370
     9
100
AcDbLine
 10
-2695.000269606307
 20
4169.999505120355
 30
0.0
 11
-5490.000018557986
 21
190.5001831054688
 31
0.0
  0
MTEXT
  5
C2
330
1F
100
AcDbEntity
  8
0-A_文字
  6
Continuous
 62
     7
370
     9
100
AcDbMText
 10
-2575.000269606307
 20
421.5754150803023
 30
0.0
 40
57.15000000000001
 41
1050.0
 46
0.0
 71
     7
 72
     1
  1
{\fＭＳ ゴシック|b0|i0|c128|p49;ハイドアの対応はありません。}
 73
     1
 44
1.0
  0
MTEXT
  5
C3
330
1F
100
AcDbEntity
  8
F-A_文字
  6
Continuous
 62
     7
370
     0
100
AcDbMText
 10
4778.749126529666
 20
-3938.071010139966
 30
0.0
 40
78.86699999999999
 41
517.5
 46
0.0
 71
     7
 72
     1
  1
{\fＭＳ ゴシック|b0|i0|c128|p49;2021.04.01}
 73
     1
 44
1.0
  0
LINE
  5
C4
330
1F
100
AcDbEntity
  8
F-0_補助線
  6
JWW_HOJO
 62
   200
370
    20
100
AcDbLine
 10
-5999.99998453501
 20
4064.999901024072
 30
0.0
 11
5689.998977248734
 21
4064.999901024072
 31
0.0
  0
LINE
  5
C5
330
1F
100
AcDbEntity
  8
F-0_補助線
  6
JWW_HOJO
 62
   200
370
    20
100
AcDbLine
 10
-5999.99998453501
 20
84.49993236644843
 30
0.0
 11
5689.998977248734
 21
84.49993236644843
 31
0.0
  0
LINE
  5
C6
330
1F
100
AcDbEntity
  8
0-4_枠
  6
Continuous
 62
    92
370
    13
100
AcDbLine
 10
-1965.000269606306
 20
3423.000148463894
 30
0.0
 11
-381.0002696063077
 21
3423.000148463894
 31
0.0
  0
LINE
  5
C7
330
1F
100
AcDbEntity
  8
0-4_枠
  6
Continuous
 62
    92
370
    13
100
AcDbLine
 10
-1995.000269606306
 20
1418.000148463893
 30
0.0
 11
-1995.000269606306
 21
3453.000148463894
 31
0.0
  0
LINE
  5
C8
330
1F
100
AcDbEntity
  8
0-4_枠
  6
Continuous
 62
    92
370
    13
100
AcDbLine
 10
-351.0002696063077
 20
1418.000148463893
 30
0.0
 11
-351.0002696063077
 21
3453.000148463894
 31
0.0
  0
LINE
  5
C9
330
1F
100
AcDbEntity
  8
0-4_枠
  6
Continuous
 62
    92
370
    13
100
AcDbLine
 10
-381.0002696063077
 20
1427.037913266388
 30
0.0
 11
-381.0002696063077
 21
3453.000148463894
 31
0.0
  0
LINE
  5
CA
330
1F
100
AcDbEntity
  8
0-4_枠
  6
Continuous
 62
    92
370
    13
100
AcDbLine
 10
-1995.000269606306
 20
3453.000148463894
 30
0.0
 11
-351.0002696063077
 21
3453.000148463894
 31
0.0
  0
LINE
  5
CB
330
1F
100
AcDbEntity
  8
0-4_枠
  6
Continuous
 62
    92
370
    13
100
AcDbLine
 10
-1965.000269606306
 20
1418.000148463893
 30
0.0
 11
-1965.000269606306
 21
3453.000148463894
 31
0.0
  0
LINE
  5
CC
330
1F
100
AcDbEntity
  8
0-0_補助線
  6
JWW_HOJO
 62
     7
370
     9
100
AcDbLine
 10
-5490.000018557986
 20
3453.000148463894
 30
0.0
 11
5689.998977248734
 21
3453.000148463894
 31
0.0
  0
LINE
  5
CD
330
1F
100
AcDbEntity
  8
0-0_補助線
  6
JWW_HOJO
 62
   120
370
     5
100
AcDbLine
 10
-5999.99998453501
 20
790.5001831054697
 30
0.0
 11
5699.998762800888
 21
790.5001831054697
 31
0.0
  0
LINE
  5
CE
330
1F
100
AcDbEntity
  8
0-0_補助線
  6
JWW_HOJO
 62
     7
370
     9
100
AcDbLine
 10
-5490.000018557986
 20
-466.2500838202392
 30
0.0
 11
5699.998762800888
 21
-466.2500838202392
 31
0.0
  0
LINE
  5
CF
330
1F
100
AcDbEntity
  8
0-0_補助線
  6
JWW_HOJO
 62
   120
370
     5
100
AcDbLine
 10
5699.998762800888
 20
-3190.000017526988
 30
0.0
 11
-5999.99998453501
 21
-3190.000017526988
 31
0.0
  0
LINE
  5
D0
330
1F
100
AcDbEntity
  8
0-0_補助線
  6
JWW_HOJO
 62
   120
370
     5
100
AcDbLine
 10
5699.998762800888
 20
-3310.000017526988
 30
0.0
 11
-5999.99998453501
 21
-3310.000017526988
 31
0.0
  0
MTEXT
  5
D1
330
1F
100
AcDbEntity
  8
0-B_寸法
  6
Continuous
 62
     7
370
     9
100
AcDbMText
 10
-2575.000269606308
 20
661.5754150803022
 30
0.0
 40
57.14999999999998
 41
975.0000000000002
 46
0.0
 71
     7
 72
     1
  1
{\fＭＳ ゴシック|b0|i0|c128|p49;枠外幅 1,644mm（DW=810mm）}
 73
     1
 44
1.0
  0
LINE
  5
D2
330
1F
100
AcDbEntity
  8
引手
  6
JWW_CENTER1
 62
     7
370
     9
100
AcDbLine
 10
-390.9261038049841
 20
2384.000148463892
 30
0.0
 11
-463.435800414145
 21
2384.000148463892
 31
0.0
  0
LINE
  5
D3
330
1F
100
AcDbEntity
  8
引手
  6
JWW_CENTER1
 62
     7
370
     9
100
AcDbLine
 10
-429.0002696063084
 20
2298.769479928369
 30
0.0
 11
-429.0002696063084
 21
2469.619751352504
 31
0.0
  0
LINE
  5
D4
330
1F
100
AcDbEntity
  8
引手
  6
JWW_DASHED1
 62
     7
370
     9
100
AcDbLine
 10
-445.0002696063075
 20
2333.000148463893
 30
0.0
 11
-445.0002696063075
 21
2435.000148463893
 31
0.0
  0
LINE
  5
D5
330
1F
100
AcDbEntity
  8
引手
  6
JWW_DASHED1
 62
     7
370
     9
100
AcDbLine
 10
-413.0002696063093
 20
2333.000148463893
 30
0.0
 11
-445.0002696063075
 21
2333.000148463893
 31
0.0
  0
LINE
  5
D6
330
1F
100
AcDbEntity
  8
引手
  6
JWW_DASHED1
 62
     7
370
     9
100
AcDbLine
 10
-413.0002696063093
 20
2333.000148463893
 30
0.0
 11
-413.0002696063093
 21
2435.000148463893
 31
0.0
  0
LINE
  5
D7
330
1F
100
AcDbEntity
  8
引手
  6
JWW_DASHED1
 62
     7
370
     9
100
AcDbLine
 10
-413.0002696063093
 20
2435.000148463893
 30
0.0
 11
-445.0002696063075
 21
2435.000148463893
 31
0.0
  0
LINE
  5
D8
330
1F
100
AcDbEntity
  8
引手
  6
Continuous
 62
     7
370
     9
100
AcDbLine
 10
-410.0002696063075
 20
2329.000148463893
 30
0.0
 11
-448.0002696063092
 21
2329.000148463893
 31
0.0
  0
LINE
  5
D9
330
1F
100
AcDbEntity
  8
引手
  6
Continuous
 62
     7
370
     9
100
AcDbLine
 10
-416.5002696063084
 20
2345.000148463893
 30
0.0
 11
-441.5002696063083
 21
2345.000148463893
 31
0.0
  0
LINE
  5
DA
330
1F
100
AcDbEntity
  8
引手
  6
Continuous
 62
     7
370
     9
100
AcDbLine
 10
-416.5002696063084
 20
2423.000148463893
 30
0.0
 11
-441.5002696063083
 21
2423.000148463893
 31
0.0
  0
LINE
  5
DB
330
1F
100
AcDbEntity
  8
引手
  6
Continuous
 62
     7
370
     9
100
AcDbLine
 10
-410.0002696063075
 20
2439.000148463893
 30
0.0
 11
-448.0002696063092
 21
2439.000148463893
 31
0.0
  0
LINE
  5
DC
330
1F
100
AcDbEntity
  8
引手
  6
Continuous
 62
     7
370
     9
100
AcDbLine
 10
-410.0002696063075
 20
2329.000148463893
 30
0.0
 11
-410.0002696063075
 21
2439.000148463893
 31
0.0
  0
LINE
  5
DD
330
1F
100
AcDbEntity
  8
引手
  6
Continuous
 62
     7
370
     9
100
AcDbLine
 10
-416.5002696063084
 20
2345.000148463893
 30
0.0
 11
-416.5002696063084
 21
2423.000148463893
 31
0.0
  0
LINE
  5
DE
330
1F
100
AcDbEntity
  8
引手
  6
Continuous
 62
     7
370
     9
100
AcDbLine
 10
-441.5002696063083
 20
2345.000148463893
 30
0.0
 11
-441.5002696063083
 21
2423.000148463893
 31
0.0
  0
LINE
  5
DF
330
1F
100
AcDbEntity
  8
引手
  6
Continuous
 62
     7
370
     9
100
AcDbLine
 10
-448.0002696063092
 20
2329.000148463893
 30
0.0
 11
-448.0002696063092
 21
2439.000148463893
 31
0.0
  0
LINE
  5
E0
330
1F
100
AcDbEntity
  8
引手
  6
JWW_CENTER1
 62
     7
370
     9
100
AcDbLine
 10
-1955.07443540763
 20
2384.000148463892
 30
0.0
 11
-1882.564738798469
 21
2384.000148463892
 31
0.0
  0
LINE
  5
E1
330
1F
100
AcDbEntity
  8
引手
  6
JWW_CENTER1
 62
     7
370
     9
100
AcDbLine
 10
-1917.000269606306
 20
2298.769479928369
 30
0.0
 11
-1917.000269606306
 21
2469.619751352504
 31
0.0
  0
LINE
  5
E2
330
1F
100
AcDbEntity
  8
引手
  6
JWW_DASHED1
 62
     7
370
     9
100
AcDbLine
 10
-1901.000269606307
 20
2333.000148463893
 30
0.0
 11
-1901.000269606307
 21
2435.000148463893
 31
0.0
  0
LINE
  5
E3
330
1F
100
AcDbEntity
  8
引手
  6
JWW_DASHED1
 62
     7
370
     9
100
AcDbLine
 10
-1933.000269606305
 20
2333.000148463893
 30
0.0
 11
-1901.000269606307
 21
2333.000148463893
 31
0.0
  0
LINE
  5
E4
330
1F
100
AcDbEntity
  8
引手
  6
JWW_DASHED1
 62
     7
370
     9
100
AcDbLine
 10
-1933.000269606305
 20
2333.000148463893
 30
0.0
 11
-1933.000269606305
 21
2435.000148463893
 31
0.0
  0
LINE
  5
E5
330
1F
100
AcDbEntity
  8
引手
  6
JWW_DASHED1
 62
     7
370
     9
100
AcDbLine
 10
-1933.000269606305
 20
2435.000148463893
 30
0.0
 11
-1901.000269606307
 21
2435.000148463893
 31
0.0
  0
LINE
  5
E6
330
1F
100
AcDbEntity
  8
引手
  6
Continuous
 62
     7
370
     9
100
AcDbLine
 10
-1936.000269606306
 20
2329.000148463893
 30
0.0
 11
-1898.000269606305
 21
2329.000148463893
 31
0.0
  0
LINE
  5
E7
330
1F
100
AcDbEntity
  8
引手
  6
Continuous
 62
     7
370
     9
100
AcDbLine
 10
-1929.500269606305
 20
2345.000148463893
 30
0.0
 11
-1904.500269606306
 21
2345.000148463893
 31
0.0
  0
LINE
  5
E8
330
1F
100
AcDbEntity
  8
引手
  6
Continuous
 62
     7
370
     9
100
AcDbLine
 10
-1929.500269606305
 20
2423.000148463893
 30
0.0
 11
-1904.500269606306
 21
2423.000148463893
 31
0.0
  0
LINE
  5
E9
330
1F
100
AcDbEntity
  8
引手
  6
Continuous
 62
     7
370
     9
100
AcDbLine
 10
-1936.000269606306
 20
2439.000148463893
 30
0.0
 11
-1898.000269606305
 21
2439.000148463893
 31
0.0
  0
LINE
  5
EA
330
1F
100
AcDbEntity
  8
引手
  6
Continuous
 62
     7
370
     9
100
AcDbLine
 10
-1936.000269606306
 20
2329.000148463893
 30
0.0
 11
-1936.000269606306
 21
2439.000148463893
 31
0.0
  0
LINE
  5
EB
330
1F
100
AcDbEntity
  8
引手
  6
Continuous
 62
     7
370
     9
100
AcDbLine
 10
-1929.500269606305
 20
2345.000148463893
 30
0.0
 11
-1929.500269606305
 21
2423.000148463893
 31
0.0
  0
LINE
  5
EC
330
1F
100
AcDbEntity
  8
引手
  6
Continuous
 62
     7
370
     9
100
AcDbLine
 10
-1904.500269606306
 20
2345.000148463893
 30
0.0
 11
-1904.500269606306
 21
2423.000148463893
 31
0.0
  0
LINE
  5
ED
330
1F
100
AcDbEntity
  8
引手
  6
Continuous
 62
     7
370
     9
100
AcDbLine
 10
-1898.000269606305
 20
2329.000148463893
 30
0.0
 11
-1898.000269606305
 21
2439.000148463893
 31
0.0
  0
LINE
  5
EE
330
1F
100
AcDbEntity
  8
0-2_扉
  6
JWW_DASHED1
 62
   120
370
     5
100
AcDbLine
 10
-1188.000269606307
 20
3409.500148463893
 30
0.0
 11
-1188.000269606307
 21
3405.500148463893
 31
0.0
  0
LINE
  5
EF
330
1F
100
AcDbEntity
  8
0-2_扉
  6
JWW_DASHED1
 62
   120
370
     5
100
AcDbLine
 10
-1158.000269606306
 20
3409.500148463893
 30
0.0
 11
-1158.000269606306
 21
3405.500148463893
 31
0.0
  0
MTEXT
  5
F0
330
1F
100
AcDbEntity
  8
0-A_文字
  6
Continuous
 62
     7
370
     9
100
AcDbMText
 10
-2575.000269606307
 20
541.5751831054688
 30
0.0
 40
57.15
 41
600.0
 46
0.0
 71
     7
 72
     1
  1
{\fＭＳ ゴシック|b0|i0|c128|p49;乳半合わせガラス}
 73
     1
 44
1.0
  0
LINE
  5
F1
330
1F
100
AcDbEntity
  8
0-2_扉
  6
JWW_DASHED1
 62
   120
370
     5
100
AcDbLine
 10
-1188.000269606307
 20
3409.500148463893
 30
0.0
 11
-1188.000269606307
 21
3405.500148463893
 31
0.0
  0
LINE
  5
F2
330
1F
100
AcDbEntity
  8
0-2_扉
  6
JWW_DASHED1
 62
   120
370
     5
100
AcDbLine
 10
-380.000269606307
 20
1426.500148463893
 30
0.0
 11
-380.000269606307
 21
3409.500148463893
 31
0.0
  0
LINE
  5
F3
330
1F
100
AcDbEntity
  8
0-2_扉
  6
JWW_DASHED1
 62
   120
370
     5
100
AcDbLine
 10
-1158.000269606306
 20
3409.500148463893
 30
0.0
 11
-1158.000269606306
 21
3405.500148463893
 31
0.0
  0
LINE
  5
F4
330
1F
100
AcDbEntity
  8
0-2_扉
  6
JWW_DASHED1
 62
   120
370
     5
100
AcDbLine
 10
-1966.000269606306
 20
1426.500148463893
 30
0.0
 11
-1966.000269606306
 21
3409.500148463893
 31
0.0
  0
MTEXT
  5
F5
330
1F
100
AcDbEntity
  8
F-A_文字
  6
Continuous
 62
     7
370
     0
100
AcDbMText
 10
-5247.547376752839
 20
-4045.254708805664
 30
0.0
 40
79.49045454545455
 41
2295.0
 46
0.0
 71
     7
 72
     1
  1
{\fＭＳ ゴシック|b0|i0|c128|p49;ドレタス　引き違い戸　上吊りタイプ　Ｂ－ＴＰ}
 73
     1
 44
1.0
  0
MTEXT
  5
F6
330
1F
100
AcDbEntity
  8
0-A_文字
  6
Continuous
 62
     7
370
     9
100
AcDbMText
 10
-1500.000395130466
 20
4013.576151024072
 30
0.0
 40
77.15249999999999
 41
405.0
 46
0.0
 71
     7
 72
     1
  1
{\fＭＳ ゴシック|b0|i0|c128|p49;Ｂ－ＴＰ}
 73
     1
 44
1.0
  0
LINE
  5
F7
330
1F
100
AcDbEntity
  8
0-2_扉
  6
JWW_DASHED1
 62
   120
370
     5
100
AcDbLine
 10
-1188.000269606307
 20
3409.500148463893
 30
0.0
 11
-1188.000269606307
 21
3405.500148463893
 31
0.0
  0
LINE
  5
F8
330
1F
100
AcDbEntity
  8
0-2_扉
  6
Continuous
 62
     7
370
     9
100
AcDbLine
 10
-1188.000269606307
 20
1426.500148463893
 30
0.0
 11
-1188.000269606307
 21
3409.500148463893
 31
0.0
  0
LINE
  5
F9
330
1F
100
AcDbEntity
  8
0-2_扉
  6
Continuous
 62
     7
370
     9
100
AcDbLine
 10
-1158.000269606307
 20
1426.500148463893
 30
0.0
 11
-1158.000269606307
 21
3409.500148463893
 31
0.0
  0
LINE
  5
FA
330
1F
100
AcDbEntity
  8
0-2_扉
  6
Continuous
 62
     7
370
     9
100
AcDbLine
 10
-488.0002696063081
 20
1426.500148463893
 30
0.0
 11
-488.0002696063081
 21
3409.500148463893
 31
0.0
  0
LINE
  5
FB
330
1F
100
AcDbEntity
  8
0-2_扉
  6
Continuous
 62
     7
370
     9
100
AcDbLine
 10
-488.0002696063081
 20
2416.500148463893
 30
0.0
 11
-1158.000269606307
 21
2416.500148463893
 31
0.0
  0
LINE
  5
FC
330
1F
100
AcDbEntity
  8
0-2_扉
  6
Continuous
 62
     7
370
     9
100
AcDbLine
 10
-488.0002696063081
 20
2361.500148463893
 30
0.0
 11
-1158.000269606307
 21
2361.500148463893
 31
0.0
  0
LINE
  5
FD
330
1F
100
AcDbEntity
  8
0-C_ハッチ
  6
Continuous
 62
   120
370
     5
100
AcDbLine
 10
-1149.346189577029
 20
2416.500148463893
 30
0.0
 11
-1158.000269606307
 21
2408.962723922264
 31
0.0
  0
LINE
  5
FE
330
1F
100
AcDbEntity
  8
0-C_ハッチ
  6
Continuous
 62
   120
370
     5
100
AcDbLine
 10
-1111.281736260187
 20
2416.500148463893
 30
0.0
 11
-1158.000269606307
 21
2375.809812968886
 31
0.0
  0
LINE
  5
FF
330
1F
100
AcDbEntity
  8
0-C_ハッチ
  6
Continuous
 62
   120
370
     5
100
AcDbLine
 10
-1073.217282943346
 20
2416.500148463893
 30
0.0
 11
-1136.365431091494
 21
2361.500148463893
 31
0.0
  0
LINE
  5
100
330
1F
100
AcDbEntity
  8
0-C_ハッチ
  6
Continuous
 62
   120
370
     5
100
AcDbLine
 10
-488.0002696063081
 20
2395.758713858233
 30
0.0
 11
-527.334178022031
 21
2361.500148463893
 31
0.0
  0
LINE
  5
101
330
1F
100
AcDbEntity
  8
0-C_ハッチ
  6
Continuous
 62
   120
370
     5
100
AcDbLine
 10
-502.2504831907252
 20
2416.500148463893
 30
0.0
 11
-565.3986313388723
 21
2361.500148463893
 31
0.0
  0
LINE
  5
102
330
1F
100
AcDbEntity
  8
0-C_ハッチ
  6
Continuous
 62
   120
370
     5
100
AcDbLine
 10
-997.0883763096626
 20
2416.500148463893
 30
0.0
 11
-1060.23652445781
 21
2361.500148463893
 31
0.0
  0
LINE
  5
103
330
1F
100
AcDbEntity
  8
0-C_ハッチ
  6
Continuous
 62
   120
370
     5
100
AcDbLine
 10
-959.0239229928211
 20
2416.500148463893
 30
0.0
 11
-1022.17207114097
 21
2361.500148463893
 31
0.0
  0
LINE
  5
104
330
1F
100
AcDbEntity
  8
0-C_ハッチ
  6
Continuous
 62
   120
370
     5
100
AcDbLine
 10
-920.9594696759798
 20
2416.500148463893
 30
0.0
 11
-984.1076178241283
 21
2361.500148463893
 31
0.0
  0
LINE
  5
105
330
1F
100
AcDbEntity
  8
0-C_ハッチ
  6
Continuous
 62
   120
370
     5
100
AcDbLine
 10
-882.8950163591379
 20
2416.500148463893
 30
0.0
 11
-946.0431645072854
 21
2361.500148463893
 31
0.0
  0
LINE
  5
106
330
1F
100
AcDbEntity
  8
0-C_ハッチ
  6
Continuous
 62
   120
370
     5
100
AcDbLine
 10
-844.8305630422972
 20
2416.500148463893
 30
0.0
 11
-907.9787111904442
 21
2361.500148463893
 31
0.0
  0
LINE
  5
107
330
1F
100
AcDbEntity
  8
0-C_ハッチ
  6
Continuous
 62
   120
370
     5
100
AcDbLine
 10
-806.7661097254551
 20
2416.500148463893
 30
0.0
 11
-869.9142578736021
 21
2361.500148463893
 31
0.0
  0
LINE
  5
108
330
1F
100
AcDbEntity
  8
0-C_ハッチ
  6
Continuous
 62
   120
370
     5
100
AcDbLine
 10
-768.7016564086146
 20
2416.500148463893
 30
0.0
 11
-831.8498045567616
 21
2361.500148463893
 31
0.0
  0
LINE
  5
109
330
1F
100
AcDbEntity
  8
0-C_ハッチ
  6
Continuous
 62
   120
370
     5
100
AcDbLine
 10
-730.6372030917732
 20
2416.500148463893
 30
0.0
 11
-793.7853512399203
 21
2361.500148463893
 31
0.0
  0
LINE
  5
10A
330
1F
100
AcDbEntity
  8
0-C_ハッチ
  6
Continuous
 62
   120
370
     5
100
AcDbLine
 10
-692.5727497749315
 20
2416.500148463893
 30
0.0
 11
-755.7208979230786
 21
2361.500148463893
 31
0.0
  0
LINE
  5
10B
330
1F
100
AcDbEntity
  8
0-C_ハッチ
  6
Continuous
 62
   120
370
     5
100
AcDbLine
 10
-654.5082964580909
 20
2416.500148463893
 30
0.0
 11
-717.6564446062381
 21
2361.500148463893
 31
0.0
  0
LINE
  5
10C
330
1F
100
AcDbEntity
  8
0-C_ハッチ
  6
Continuous
 62
   120
370
     5
100
AcDbLine
 10
-616.4438431412489
 20
2416.500148463893
 30
0.0
 11
-679.591991289396
 21
2361.500148463893
 31
0.0
  0
LINE
  5
10D
330
1F
100
AcDbEntity
  8
0-C_ハッチ
  6
Continuous
 62
   120
370
     5
100
AcDbLine
 10
-1035.152829626505
 20
2416.500148463893
 30
0.0
 11
-1098.300977774652
 21
2361.500148463893
 31
0.0
  0
LINE
  5
10E
330
1F
100
AcDbEntity
  8
0-C_ハッチ
  6
Continuous
 62
   120
370
     5
100
AcDbLine
 10
-578.3793898244081
 20
2416.500148463893
 30
0.0
 11
-641.5275379725553
 21
2361.500148463893
 31
0.0
  0
LINE
  5
10F
330
1F
100
AcDbEntity
  8
0-C_ハッチ
  6
Continuous
 62
   120
370
     5
100
AcDbLine
 10
-540.3149365075662
 20
2416.500148463893
 30
0.0
 11
-603.4630846557136
 21
2361.500148463893
 31
0.0
  0
LINE
  5
110
330
1F
100
AcDbEntity
  8
0-2_扉
  6
Continuous
 62
     7
370
     9
100
AcDbLine
 10
-381.0002696063069
 20
3409.500148463893
 30
0.0
 11
-1188.000269606307
 21
3409.500148463893
 31
0.0
  0
LINE
  5
111
330
1F
100
AcDbEntity
  8
0-2_扉
  6
JWW_DASHED1
 62
     7
370
     9
100
AcDbLine
 10
-381.0002696063069
 20
1444.500148463893
 30
0.0
 11
-1188.000269606307
 21
1444.500148463893
 31
0.0
  0
LINE
  5
112
330
1F
100
AcDbEntity
  8
0-2_扉
  6
Continuous
 62
     7
370
     9
100
AcDbLine
 10
-381.0002696063069
 20
1426.500148463893
 30
0.0
 11
-1188.000269606307
 21
1426.500148463893
 31
0.0
  0
LINE
  5
113
330
1F
100
AcDbEntity
  8
0-2_扉
  6
JWW_DASHED1
 62
   120
370
     5
100
AcDbLine
 10
-380.000269606307
 20
1426.500148463893
 30
0.0
 11
-380.000269606307
 21
3409.500148463893
 31
0.0
  0
LINE
  5
114
330
1F
100
AcDbEntity
  8
0-2_扉
  6
JWW_DASHED1
 62
   120
370
     5
100
AcDbLine
 10
-1158.000269606306
 20
3409.500148463893
 30
0.0
 11
-1158.000269606306
 21
3405.500148463893
 31
0.0
  0
LINE
  5
115
330
1F
100
AcDbEntity
  8
0-2_扉
  6
Continuous
 62
     7
370
     9
100
AcDbLine
 10
-1158.000269606306
 20
1426.500148463893
 30
0.0
 11
-1158.000269606306
 21
3409.500148463893
 31
0.0
  0
LINE
  5
116
330
1F
100
AcDbEntity
  8
0-2_扉
  6
Continuous
 62
     7
370
     9
100
AcDbLine
 10
-1188.000269606306
 20
1426.500148463893
 30
0.0
 11
-1188.000269606306
 21
3409.500148463893
 31
0.0
  0
LINE
  5
117
330
1F
100
AcDbEntity
  8
0-2_扉
  6
Continuous
 62
     7
370
     9
100
AcDbLine
 10
-1858.000269606305
 20
1426.500148463893
 30
0.0
 11
-1858.000269606305
 21
3409.500148463893
 31
0.0
  0
LINE
  5
118
330
1F
100
AcDbEntity
  8
0-2_扉
  6
Continuous
 62
     7
370
     9
100
AcDbLine
 10
-1965.000269606306
 20
3409.500148463893
 30
0.0
 11
-1158.000269606306
 21
3409.500148463893
 31
0.0
  0
LINE
  5
119
330
1F
100
AcDbEntity
  8
0-2_扉
  6
JWW_DASHED1
 62
     7
370
     9
100
AcDbLine
 10
-1965.000269606306
 20
1444.500148463893
 30
0.0
 11
-1158.000269606306
 21
1444.500148463893
 31
0.0
  0
LINE
  5
11A
330
1F
100
AcDbEntity
  8
0-2_扉
  6
Continuous
 62
     7
370
     9
100
AcDbLine
 10
-1965.000269606306
 20
1426.500148463893
 30
0.0
 11
-1158.000269606306
 21
1426.500148463893
 31
0.0
  0
LINE
  5
11B
330
1F
100
AcDbEntity
  8
0-2_扉
  6
JWW_DASHED1
 62
   120
370
     5
100
AcDbLine
 10
-1966.000269606306
 20
1426.500148463893
 30
0.0
 11
-1966.000269606306
 21
3409.500148463893
 31
0.0
  0
LINE
  5
11C
330
1F
100
AcDbEntity
  8
0-2_扉
  6
Continuous
 62
     7
370
     9
100
AcDbLine
 10
-1188.000269606306
 20
2416.500148463893
 30
0.0
 11
-1858.000269606305
 21
2416.500148463893
 31
0.0
  0
LINE
  5
11D
330
1F
100
AcDbEntity
  8
0-2_扉
  6
Continuous
 62
     7
370
     9
100
AcDbLine
 10
-1188.000269606306
 20
2361.500148463893
 30
0.0
 11
-1858.000269606305
 21
2361.500148463893
 31
0.0
  0
LINE
  5
11E
330
1F
100
AcDbEntity
  8
0-C_ハッチ
  6
Continuous
 62
   120
370
     5
100
AcDbLine
 10
-1849.346189577027
 20
2416.500148463893
 30
0.0
 11
-1858.000269606305
 21
2408.962723922264
 31
0.0
  0
LINE
  5
11F
330
1F
100
AcDbEntity
  8
0-C_ハッチ
  6
Continuous
 62
   120
370
     5
100
AcDbLine
 10
-1811.281736260185
 20
2416.500148463893
 30
0.0
 11
-1858.000269606305
 21
2375.809812968886
 31
0.0
  0
LINE
  5
120
330
1F
100
AcDbEntity
  8
0-C_ハッチ
  6
Continuous
 62
   120
370
     5
100
AcDbLine
 10
-1773.217282943345
 20
2416.500148463893
 30
0.0
 11
-1836.365431091492
 21
2361.500148463893
 31
0.0
  0
LINE
  5
121
330
1F
100
AcDbEntity
  8
0-C_ハッチ
  6
Continuous
 62
   120
370
     5
100
AcDbLine
 10
-1188.000269606306
 20
2395.758713858233
 30
0.0
 11
-1227.334178022029
 21
2361.500148463893
 31
0.0
  0
LINE
  5
122
330
1F
100
AcDbEntity
  8
0-C_ハッチ
  6
Continuous
 62
   120
370
     5
100
AcDbLine
 10
-1202.250483190723
 20
2416.500148463893
 30
0.0
 11
-1265.39863133887
 21
2361.500148463893
 31
0.0
  0
LINE
  5
123
330
1F
100
AcDbEntity
  8
0-C_ハッチ
  6
Continuous
 62
   120
370
     5
100
AcDbLine
 10
-1697.088376309661
 20
2416.500148463893
 30
0.0
 11
-1760.236524457808
 21
2361.500148463893
 31
0.0
  0
LINE
  5
124
330
1F
100
AcDbEntity
  8
0-C_ハッチ
  6
Continuous
 62
   120
370
     5
100
AcDbLine
 10
-1659.023922992819
 20
2416.500148463893
 30
0.0
 11
-1722.172071140968
 21
2361.500148463893
 31
0.0
  0
LINE
  5
125
330
1F
100
AcDbEntity
  8
0-C_ハッチ
  6
Continuous
 62
   120
370
     5
100
AcDbLine
 10
-1620.959469675978
 20
2416.500148463893
 30
0.0
 11
-1684.107617824126
 21
2361.500148463893
 31
0.0
  0
LINE
  5
126
330
1F
100
AcDbEntity
  8
0-C_ハッチ
  6
Continuous
 62
   120
370
     5
100
AcDbLine
 10
-1582.895016359136
 20
2416.500148463893
 30
0.0
 11
-1646.043164507284
 21
2361.500148463893
 31
0.0
  0
LINE
  5
127
330
1F
100
AcDbEntity
  8
0-C_ハッチ
  6
Continuous
 62
   120
370
     5
100
AcDbLine
 10
-1544.830563042295
 20
2416.500148463893
 30
0.0
 11
-1607.978711190442
 21
2361.500148463893
 31
0.0
  0
LINE
  5
128
330
1F
100
AcDbEntity
  8
0-C_ハッチ
  6
Continuous
 62
   120
370
     5
100
AcDbLine
 10
-1506.766109725453
 20
2416.500148463893
 30
0.0
 11
-1569.9142578736
 21
2361.500148463893
 31
0.0
  0
LINE
  5
129
330
1F
100
AcDbEntity
  8
0-C_ハッチ
  6
Continuous
 62
   120
370
     5
100
AcDbLine
 10
-1468.701656408613
 20
2416.500148463893
 30
0.0
 11
-1531.84980455676
 21
2361.500148463893
 31
0.0
  0
LINE
  5
12A
330
1F
100
AcDbEntity
  8
0-C_ハッチ
  6
Continuous
 62
   120
370
     5
100
AcDbLine
 10
-1430.637203091771
 20
2416.500148463893
 30
0.0
 11
-1493.785351239918
 21
2361.500148463893
 31
0.0
  0
LINE
  5
12B
330
1F
100
AcDbEntity
  8
0-C_ハッチ
  6
Continuous
 62
   120
370
     5
100
AcDbLine
 10
-1392.57274977493
 20
2416.500148463893
 30
0.0
 11
-1455.720897923077
 21
2361.500148463893
 31
0.0
  0
LINE
  5
12C
330
1F
100
AcDbEntity
  8
0-C_ハッチ
  6
Continuous
 62
   120
370
     5
100
AcDbLine
 10
-1354.508296458089
 20
2416.500148463893
 30
0.0
 11
-1417.656444606236
 21
2361.500148463893
 31
0.0
  0
LINE
  5
12D
330
1F
100
AcDbEntity
  8
0-C_ハッチ
  6
Continuous
 62
   120
370
     5
100
AcDbLine
 10
-1316.443843141247
 20
2416.500148463893
 30
0.0
 11
-1379.591991289394
 21
2361.500148463893
 31
0.0
  0
LINE
  5
12E
330
1F
100
AcDbEntity
  8
0-C_ハッチ
  6
Continuous
 62
   120
370
     5
100
AcDbLine
 10
-1735.152829626503
 20
2416.500148463893
 30
0.0
 11
-1798.30097777465
 21
2361.500148463893
 31
0.0
  0
LINE
  5
12F
330
1F
100
AcDbEntity
  8
0-C_ハッチ
  6
Continuous
 62
   120
370
     5
100
AcDbLine
 10
-1278.379389824406
 20
2416.500148463893
 30
0.0
 11
-1341.527537972554
 21
2361.500148463893
 31
0.0
  0
LINE
  5
130
330
1F
100
AcDbEntity
  8
0-C_ハッチ
  6
Continuous
 62
   120
370
     5
100
AcDbLine
 10
-1240.314936507564
 20
2416.500148463893
 30
0.0
 11
-1303.463084655712
 21
2361.500148463893
 31
0.0
  0
ENDSEC
  0
SECTION
  2
OBJECTS
  0
DICTIONARY
  5
C
330
0
100
AcDbDictionary
281
     1
  3
ACAD_GROUP
350
D
  3
ACAD_LAYOUT
350
1A
  3
ACAD_MATERIAL
350
3B
  3
ACAD_MLEADERSTYLE
350
132
  3
ACAD_MLINESTYLE
350
17
  3
ACAD_PLOTSETTINGS
350
19
  3
ACAD_PLOTSTYLENAME
350
E
  3
ACAD_TABLESTYLE
350
131
  3
ACAD_VISUALSTYLE
350
2A
  0
DICTIONARY
  5
D
102
{ACAD_REACTORS
330
C
102
}
330
C
100
AcDbDictionary
281
     1
  0
DICTIONARY
  5
1A
102
{ACAD_REACTORS
330
C
102
}
330
C
100
AcDbDictionary
281
     1
  3
Layout1
350
1E
  3
Layout2
350
26
  3
Model
350
22
  0
DICTIONARY
  5
3B
102
{ACAD_REACTORS
330
C
102
}
330
C
100
AcDbDictionary
281
     1
  3
ByBlock
350
3D
  3
ByLayer
350
3C
  3
Global
350
3E
  0
DICTIONARY
  5
132
102
{ACAD_REACTORS
330
C
102
}
330
C
100
AcDbDictionary
281
     1
  0
DICTIONARY
  5
17
102
{ACAD_REACTORS
330
C
102
}
330
C
100
AcDbDictionary
281
     1
  3
Standard
350
18
  0
DICTIONARY
  5
19
102
{ACAD_REACTORS
330
C
102
}
330
C
100
AcDbDictionary
281
     1
  0
ACDBDICTIONARYWDFLT
  5
E
102
{ACAD_REACTORS
330
C
102
}
330
C
100
AcDbDictionary
281
     1
  3
Normal
350
F
100
AcDbDictionaryWithDefault
340
F
  0
DICTIONARY
  5
131
102
{ACAD_REACTORS
330
C
102
}
330
C
100
AcDbDictionary
281
     1
  0
DICTIONARY
  5
2A
102
{ACAD_REACTORS
330
C
102
}
330
C
100
AcDbDictionary
281
     1
  3
2dWireframe
350
2F
  3
3D Hidden
350
31
  3
3dWireframe
350
30
  3
Basic
350
32
  3
Brighten
350
36
  3
ColorChange
350
3A
  3
Conceptual
350
34
  3
Dim
350
35
  3
Facepattern
350
39
  3
Flat
350
2B
  3
FlatWithEdges
350
2C
  3
Gouraud
350
2D
  3
GouraudWithEdges
350
2E
  3
Linepattern
350
38
  3
Realistic
350
33
  3
Thicken
350
37
  0
LAYOUT
  5
1E
102
{ACAD_REACTORS
330
1A
102
}
330
1A
100
AcDbPlotSettings
  1

  2
none_device
  4

  6

 40
0.0
 41
0.0
 42
0.0
 43
0.0
 44
0.0
 45
0.0
 46
0.0
 47
0.0
 48
0.0
 49
0.0
140
0.0
141
0.0
142
1.0
143
1.0
 70
   688
 72
     0
 73
     0
 74
     5
  7

 75
    16
 76
     0
 77
     5
 78
   300
147
1.0
148
0.0
149
0.0
100
AcDbLayout
  1
Layout1
 70
     1
 71
     1
 10
0.0
 20
0.0
 11
420.0
 21
297.0
 12
0.0
 22
0.0
 32
0.0
 14
1.000000000000000E+20
 24
1.000000000000000E+20
 34
1.000000000000000E+20
 15
-1.000000000000000E+20
 25
-1.000000000000000E+20
 35
-1.000000000000000E+20
146
0.0
 13
0.0
 23
0.0
 33
0.0
 16
1.0
 26
0.0
 36
0.0
 17
0.0
 27
1.0
 37
0.0
 76
     0
330
1B
  0
LAYOUT
  5
26
102
{ACAD_REACTORS
330
1A
102
}
330
1A
100
AcDbPlotSettings
  1

  2
none_device
  4

  6

 40
0.0
 41
0.0
 42
0.0
 43
0.0
 44
0.0
 45
0.0
 46
0.0
 47
0.0
 48
0.0
 49
0.0
140
0.0
141
0.0
142
1.0
143
1.0
 70
   688
 72
     0
 73
     0
 74
     5
  7

 75
    16
 76
     0
 77
     5
 78
   300
147
1.0
148
0.0
149
0.0
100
AcDbLayout
  1
Layout2
 70
     1
 71
     2
 10
0.0
 20
0.0
 11
0.0
 21
0.0
 12
0.0
 22
0.0
 32
0.0
 14
0.0
 24
0.0
 34
0.0
 15
0.0
 25
0.0
 35
0.0
146
0.0
 13
0.0
 23
0.0
 33
0.0
 16
1.0
 26
0.0
 36
0.0
 17
0.0
 27
1.0
 37
0.0
 76
     0
330
23
  0
LAYOUT
  5
22
102
{ACAD_REACTORS
330
1A
102
}
330
1A
100
AcDbPlotSettings
  1

  2
none_device
  4

  6

 40
0.0
 41
0.0
 42
0.0
 43
0.0
 44
0.0
 45
0.0
 46
0.0
 47
0.0
 48
0.0
 49
0.0
140
0.0
141
0.0
142
1.0
143
1.0
 70
  1712
 72
     0
 73
     0
 74
     0
  7

 75
     0
 76
     0
 77
     5
 78
   300
147
1.0
148
0.0
149
0.0
100
AcDbLayout
  1
Model
 70
     1
 71
     0
 10
-6300.0
 20
-4455.0
 11
6300.0
 21
4455.0
 12
0.0
 22
0.0
 32
0.0
 14
-6300.0
 24
-4455.0
 34
0.0
 15
6300.0
 25
4455.0
 35
0.0
146
0.0
 13
0.0
 23
0.0
 33
0.0
 16
1.0
 26
0.0
 36
0.0
 17
0.0
 27
1.0
 37
0.0
 76
     0
330
1F
331
29
  0
MATERIAL
  5
3D
102
{ACAD_REACTORS
330
3B
102
}
330
3B
100
AcDbMaterial
  1
ByBlock
 72
     1
 94
      127
  0
MATERIAL
  5
3C
102
{ACAD_REACTORS
330
3B
102
}
330
3B
100
AcDbMaterial
  1
ByLayer
 72
     1
 94
      127
  0
MATERIAL
  5
3E
102
{ACAD_REACTORS
330
3B
102
}
330
3B
100
AcDbMaterial
  1
Global
 72
     1
 94
      127
  0
MLINESTYLE
  5
18
102
{ACAD_REACTORS
330
17
102
}
330
17
100
AcDbMlineStyle
  2
Standard
 70
     0
  3

 62
   256
 51
90.0
 52
90.0
 71
     2
 49
0.5
 62
   256
  6
BYLAYER
 49
-0.5
 62
   256
  6
BYLAYER
  0
ACDBPLACEHOLDER
  5
F
102
{ACAD_REACTORS
330
E
102
}
330
E
  0
VISUALSTYLE
  5
2F
102
{ACAD_REACTORS
330
2A
102
}
330
2A
100
AcDbVisualStyle
  2
2dWireframe
 70
     4
177
     2
291
     0
 71
     0
176
     1
 72
     2
176
     1
 73
     0
176
     1
 90
        0
176
     1
 40
-0.6
176
     1
 41
-30.0
176
     1
 62
     5
 63
     7
421
 16777215
176
     1
 74
     1
176
     1
 91
        4
176
     1
 64
     7
176
     1
 65
   257
176
     1
 75
     1
176
     1
175
     1
176
     1
 42
1.0
176
     1
 92
        0
176
     1
 66
   257
176
     1
 43
1.0
176
     1
 76
     1
176
     1
 77
     6
176
     1
 78
     2
176
     1
 67
     7
176
     1
 79
     5
176
     1
170
     0
176
     1
171
     0
176
     1
290
     0
176
     1
 93
        1
176
     1
 44
0.0
176
     1
173
     0
176
     1
  0
VISUALSTYLE
  5
31
102
{ACAD_REACTORS
330
2A
102
}
330
2A
100
AcDbVisualStyle
  2
3D Hidden
 70
     6
177
     2
291
     0
 71
     1
176
     1
 72
     2
176
     1
 73
     2
176
     1
 90
        0
176
     1
 40
-0.6
176
     1
 41
-30.0
176
     1
 62
     5
 63
     7
421
 16777215
176
     1
 74
     2
176
     1
 91
        2
176
     1
 64
     7
176
     1
 65
   257
176
     1
 75
     2
176
     1
175
     1
176
     1
 42
40.0
176
     1
 92
        0
176
     1
 66
   257
176
     1
 43
1.0
176
     1
 76
     1
176
     1
 77
     6
176
     1
 78
     2
176
     1
 67
     7
176
     1
 79
     3
176
     1
170
     0
176
     1
171
     0
176
     1
290
     0
176
     1
 93
        1
176
     1
 44
0.0
176
     1
173
     0
176
     1
  0
VISUALSTYLE
  5
30
102
{ACAD_REACTORS
330
2A
102
}
330
2A
100
AcDbVisualStyle
  2
3dWireframe
 70
     5
177
     2
291
     0
 71
     0
176
     1
 72
     2
176
     1
 73
     0
176
     1
 90
        0
176
     1
 40
-0.6
176
     1
 41
-30.0
176
     1
 62
     5
 63
     7
421
 16777215
176
     1
 74
     1
176
     1
 91
        4
176
     1
 64
     7
176
     1
 65
   257
176
     1
 75
     1
176
     1
175
     1
176
     1
 42
1.0
176
     1
 92
        0
176
     1
 66
   257
176
     1
 43
1.0
176
     1
 76
     1
176
     1
 77
     6
176
     1
 78
     2
176
     1
 67
     7
176
     1
 79
     5
176
     1
170
     0
176
     1
171
     0
176
     1
290
     0
176
     1
 93
        1
176
     1
 44
0.0
176
     1
173
     0
176
     1
  0
VISUALSTYLE
  5
32
102
{ACAD_REACTORS
330
2A
102
}
330
2A
100
AcDbVisualStyle
  2
Basic
 70
     7
177
     2
291
     1
 71
     1
176
     1
 72
     0
176
     1
 73
     1
176
     1
 90
        0
176
     1
 40
-0.6
176
     1
 41
-30.0
176
     1
 62
     5
 63
     7
421
 16777215
176
     1
 74
     0
176
     1
 91
        4
176
     1
 64
     7
176
     1
 65
   257
176
     1
 75
     1
176
     1
175
     1
176
     1
 42
1.0
176
     1
 92
        8
176
     1
 66
     7
176
     1
 43
1.0
176
     1
 76
     1
176
     1
 77
     6
176
     1
 78
     2
176
     1
 67
     7
176
     1
 79
     5
176
     1
170
     0
176
     1
171
     0
176
     1
290
     0
176
     1
 93
        1
176
     1
 44
0.0
176
     1
173
     0
176
     1
  0
VISUALSTYLE
  5
36
102
{ACAD_REACTORS
330
2A
102
}
330
2A
100
AcDbVisualStyle
  2
Brighten
 70
    12
177
     2
291
     1
 71
     2
176
     1
 72
     2
176
     1
 73
     0
176
     1
 90
        0
176
     1
 40
-0.6
176
     1
 41
-30.0
176
     1
 62
     5
 63
     7
421
 16777215
176
     1
 74
     1
176
     1
 91
        4
176
     1
 64
     7
176
     1
 65
   257
176
     1
 75
     1
176
     1
175
     1
176
     1
 42
1.0
176
     1
 92
        8
176
     1
 66
     7
176
     1
 43
1.0
176
     1
 76
     1
176
     1
 77
     6
176
     1
 78
     2
176
     1
 67
     7
176
     1
 79
     5
176
     1
170
     0
176
     1
171
     0
176
     1
290
     0
176
     1
 93
        1
176
     1
 44
50.0
176
     1
173
     0
176
     1
  0
VISUALSTYLE
  5
3A
102
{ACAD_REACTORS
330
2A
102
}
330
2A
100
AcDbVisualStyle
  2
ColorChange
 70
    16
177
     2
291
     1
 71
     2
176
     1
 72
     2
176
     1
 73
     3
176
     1
 90
        0
176
     1
 40
-0.6
176
     1
 41
-30.0
176
     1
 62
     5
 63
     8
421
  8421504
176
     1
 74
     1
176
     1
 91
        4
176
     1
 64
     7
176
     1
 65
   257
176
     1
 75
     1
176
     1
175
     1
176
     1
 42
1.0
176
     1
 92
        8
176
     1
 66
     8
424
  8421504
176
     1
 43
1.0
176
     1
 76
     1
176
     1
 77
     6
176
     1
 78
     2
176
     1
 67
     7
176
     1
 79
     5
176
     1
170
     0
176
     1
171
     0
176
     1
290
     0
176
     1
 93
        1
176
     1
 44
0.0
176
     1
173
     0
176
     1
  0
VISUALSTYLE
  5
34
102
{ACAD_REACTORS
330
2A
102
}
330
2A
100
AcDbVisualStyle
  2
Conceptual
 70
     9
177
     2
291
     0
 71
     3
176
     1
 72
     2
176
     1
 73
     0
176
     1
 90
        0
176
     1
 40
-0.6
176
     1
 41
-30.0
176
     1
 62
     5
 63
     7
421
 16777215
176
     1
 74
     2
176
     1
 91
        2
176
     1
 64
     7
176
     1
 65
   257
176
     1
 75
     1
176
     1
175
     1
176
     1
 42
40.0
176
     1
 92
        8
176
     1
 66
     7
176
     1
 43
1.0
176
     1
 76
     1
176
     1
 77
     6
176
     1
 78
     2
176
     1
 67
     7
176
     1
 79
     3
176
     1
170
     0
176
     1
171
     0
176
     1
290
     0
176
     1
 93
        1
176
     1
 44
0.0
176
     1
173
     0
176
     1
  0
VISUALSTYLE
  5
35
102
{ACAD_REACTORS
330
2A
102
}
330
2A
100
AcDbVisualStyle
  2
Dim
 70
    11
177
     2
291
     1
 71
     2
176
     1
 72
     2
176
     1
 73
     0
176
     1
 90
        0
176
     1
 40
-0.6
176
     1
 41
-30.0
176
     1
 62
     5
 63
     7
421
 16777215
176
     1
 74
     1
176
     1
 91
        4
176
     1
 64
     7
176
     1
 65
   257
176
     1
 75
     1
176
     1
175
     1
176
     1
 42
1.0
176
     1
 92
        8
176
     1
 66
     7
176
     1
 43
1.0
176
     1
 76
     1
176
     1
 77
     6
176
     1
 78
     2
176
     1
 67
     7
176
     1
 79
     5
176
     1
170
     0
176
     1
171
     0
176
     1
290
     0
176
     1
 93
        1
176
     1
 44
-50.0
176
     1
173
     0
176
     1
  0
VISUALSTYLE
  5
39
102
{ACAD_REACTORS
330
2A
102
}
330
2A
100
AcDbVisualStyle
  2
Facepattern
 70
    15
177
     2
291
     1
 71
     2
176
     1
 72
     2
176
     1
 73
     0
176
     1
 90
        0
176
     1
 40
-0.6
176
     1
 41
-30.0
176
     1
 62
     5
 63
     7
421
 16777215
176
     1
 74
     1
176
     1
 91
        4
176
     1
 64
     7
176
     1
 65
   257
176
     1
 75
     1
176
     1
175
     1
176
     1
 42
1.0
176
     1
 92
        8
176
     1
 66
     7
176
     1
 43
1.0
176
     1
 76
     1
176
     1
 77
     6
176
     1
 78
     2
176
     1
 67
     7
176
     1
 79
     5
176
     1
170
     0
176
     1
171
     0
176
     1
290
     0
176
     1
 93
        1
176
     1
 44
0.0
176
     1
173
     0
176
     1
  0
VISUALSTYLE
  5
2B
102
{ACAD_REACTORS
330
2A
102
}
330
2A
100
AcDbVisualStyle
  2
Flat
 70
     0
177
     2
291
     1
 71
     2
176
     1
 72
     1
176
     1
 73
     1
176
     1
 90
        2
176
     1
 40
-0.6
176
     1
 41
30.0
176
     1
 62
     5
 63
     7
421
 16777215
176
     1
 74
     0
176
     1
 91
        4
176
     1
 64
     7
176
     1
 65
   257
176
     1
 75
     1
176
     1
175
     1
176
     1
 42
1.0
176
     1
 92
        8
176
     1
 66
     7
176
     1
 43
1.0
176
     1
 76
     1
176
     1
 77
     6
176
     1
 78
     2
176
     1
 67
     7
176
     1
 79
     5
176
     1
170
     0
176
     1
171
     0
176
     1
290
     0
176
     1
 93
       13
176
     1
 44
0.0
176
     1
173
     0
176
     1
  0
VISUALSTYLE
  5
2C
102
{ACAD_REACTORS
330
2A
102
}
330
2A
100
AcDbVisualStyle
  2
FlatWithEdges
 70
     1
177
     2
291
     1
 71
     2
176
     1
 72
     1
176
     1
 73
     1
176
     1
 90
        2
176
     1
 40
-0.6
176
     1
 41
30.0
176
     1
 62
     5
 63
     7
421
 16777215
176
     1
 74
     1
176
     1
 91
        4
176
     1
 64
     7
176
     1
 65
   257
176
     1
 75
     1
176
     1
175
     1
176
     1
 42
1.0
176
     1
 92
        0
176
     1
 66
   257
176
     1
 43
1.0
176
     1
 76
     1
176
     1
 77
     6
176
     1
 78
     2
176
     1
 67
     7
176
     1
 79
     5
176
     1
170
     0
176
     1
171
     0
176
     1
290
     0
176
     1
 93
       13
176
     1
 44
0.0
176
     1
173
     0
176
     1
  0
VISUALSTYLE
  5
2D
102
{ACAD_REACTORS
330
2A
102
}
330
2A
100
AcDbVisualStyle
  2
Gouraud
 70
     2
177
     2
291
     1
 71
     2
176
     1
 72
     2
176
     1
 73
     1
176
     1
 90
        2
176
     1
 40
-0.6
176
     1
 41
30.0
176
     1
 62
     5
 63
     7
421
 16777215
176
     1
 74
     0
176
     1
 91
        4
176
     1
 64
     7
176
     1
 65
   257
176
     1
 75
     1
176
     1
175
     1
176
     1
 42
1.0
176
     1
 92
        0
176
     1
 66
     7
176
     1
 43
1.0
176
     1
 76
     1
176
     1
 77
     6
176
     1
 78
     2
176
     1
 67
     7
176
     1
 79
     5
176
     1
170
     0
176
     1
171
     0
176
     1
290
     0
176
     1
 93
       13
176
     1
 44
0.0
176
     1
173
     0
176
     1
  0
VISUALSTYLE
  5
2E
102
{ACAD_REACTORS
330
2A
102
}
330
2A
100
AcDbVisualStyle
  2
GouraudWithEdges
 70
     3
177
     2
291
     1
 71
     2
176
     1
 72
     2
176
     1
 73
     1
176
     1
 90
        2
176
     1
 40
-0.6
176
     1
 41
30.0
176
     1
 62
     5
 63
     7
421
 16777215
176
     1
 74
     1
176
     1
 91
        4
176
     1
 64
     7
176
     1
 65
   257
176
     1
 75
     1
176
     1
175
     1
176
     1
 42
1.0
176
     1
 92
        0
176
     1
 66
   257
176
     1
 43
1.0
176
     1
 76
     1
176
     1
 77
     6
176
     1
 78
     2
176
     1
 67
     7
176
     1
 79
     5
176
     1
170
     0
176
     1
171
     0
176
     1
290
     0
176
     1
 93
       13
176
     1
 44
0.0
176
     1
173
     0
176
     1
  0
VISUALSTYLE
  5
38
102
{ACAD_REACTORS
330
2A
102
}
330
2A
100
AcDbVisualStyle
  2
Linepattern
 70
    14
177
     2
291
     1
 71
     2
176
     1
 72
     2
176
     1
 73
     0
176
     1
 90
        0
176
     1
 40
-0.6
176
     1
 41
-30.0
176
     1
 62
     5
 63
     7
421
 16777215
176
     1
 74
     1
176
     1
 91
        4
176
     1
 64
     7
176
     1
 65
   257
176
     1
 75
     7
176
     1
175
     7
176
     1
 42
1.0
176
     1
 92
        8
176
     1
 66
     7
176
     1
 43
1.0
176
     1
 76
     1
176
     1
 77
     6
176
     1
 78
     2
176
     1
 67
     7
176
     1
 79
     5
176
     1
170
     0
176
     1
171
     0
176
     1
290
     0
176
     1
 93
        1
176
     1
 44
0.0
176
     1
173
     0
176
     1
  0
VISUALSTYLE
  5
33
102
{ACAD_REACTORS
330
2A
102
}
330
2A
100
AcDbVisualStyle
  2
Realistic
 70
     8
177
     2
291
     0
 71
     2
176
     1
 72
     2
176
     1
 73
     0
176
     1
 90
        0
176
     1
 40
-0.6
176
     1
 41
-30.0
176
     1
 62
     5
 63
     7
421
 16777215
176
     1
 74
     1
176
     1
 91
        0
176
     1
 64
     7
176
     1
 65
   257
176
     1
 75
     1
176
     1
175
     1
176
     1
 42
1.0
176
     1
 92
        8
176
     1
 66
     8
424
  7895160
176
     1
 43
1.0
176
     1
 76
     1
176
     1
 77
     6
176
     1
 78
     2
176
     1
 67
     7
176
     1
 79
     5
176
     1
170
     0
176
     1
171
     0
176
     1
290
     0
176
     1
 93
       13
176
     1
 44
0.0
176
     1
173
     0
176
     1
  0
VISUALSTYLE
  5
37
102
{ACAD_REACTORS
330
2A
102
}
330
2A
100
AcDbVisualStyle
  2
Thicken
 70
    13
177
     2
291
     1
 71
     2
176
     1
 72
     2
176
     1
 73
     0
176
     1
 90
        0
176
     1
 40
-0.6
176
     1
 41
-30.0
176
     1
 62
     5
 63
     7
421
 16777215
176
     1
 74
     1
176
     1
 91
        4
176
     1
 64
     7
176
     1
 65
   257
176
     1
 75
     1
176
     1
175
     1
176
     1
 42
1.0
176
     1
 92
       12
176
     1
 66
     7
176
     1
 43
1.0
176
     1
 76
     1
176
     1
 77
     6
176
     1
 78
     2
176
     1
 67
     7
176
     1
 79
     5
176
     1
170
     0
176
     1
171
     0
176
     1
290
     0
176
     1
 93
        1
176
     1
 44
0.0
176
     1
173
     0
176
     1
  0
ENDSEC
  0
EOF
