  0
SECTION
  2
HEADER
  9
$ACADVER
  1
AC1024
  9
$ACADMAINTVER
 70
     6
  9
$DWGCODEPAGE
  3
ANSI_932
  9
$INSBASE
 10
0.0
 20
0.0
 30
0.0
  9
$EXTMIN
 10
-6300.0
 20
-4455.0
 30
0.0
  9
$EXTMAX
 10
6300.0
 20
4455.0
 30
0.0
  9
$LIMMIN
 10
-6300.0
 20
-4455.0
  9
$LIMMAX
 10
6300.0
 20
4455.0
  9
$ORTHOMODE
 70
     0
  9
$REGENMODE
 70
     1
  9
$FILLMODE
 70
     1
  9
$QTEXTMODE
 70
     0
  9
$MIRRTEXT
 70
     1
  9
$LTSCALE
 40
30.0
  9
$ATTMODE
 70
     1
  9
$TEXTSIZE
 40
2.5
  9
$TRACEWID
 40
1.0
  9
$TEXTSTYLE
  7
Standard
  9
$CLAYER
  8
0
  9
$CELTYPE
  6
ByLayer
  9
$CECOLOR
 62
   256
  9
$CELTSCALE
 40
1.0
  9
$DISPSILH
 70
     0
  9
$DIMSCALE
 40
1.0
  9
$DIMASZ
 40
2.5
  9
$DIMEXO
 40
0.625
  9
$DIMDLI
 40
3.75
  9
$DIMRND
 40
0.0
  9
$DIMDLE
 40
0.0
  9
$DIMEXE
 40
1.25
  9
$DIMTP
 40
0.0
  9
$DIMTM
 40
0.0
  9
$DIMTXT
 40
2.5
  9
$DIMCEN
 40
2.5
  9
$DIMTSZ
 40
0.0
  9
$DIMTOL
 70
     0
  9
$DIMLIM
 70
     0
  9
$DIMTIH
 70
     0
  9
$DIMTOH
 70
     0
  9
$DIMSE1
 70
     0
  9
$DIMSE2
 70
     0
  9
$DIMTAD
 70
     1
  9
$DIMZIN
 70
     8
  9
$DIMBLK
  1

  9
$DIMASO
 70
     1
  9
$DIMSHO
 70
     1
  9
$DIMPOST
  1

  9
$DIMAPOST
  1

  9
$DIMALT
 70
     0
  9
$DIMALTD
 70
     3
  9
$DIMALTF
 40
0.03937007874016
  9
$DIMLFAC
 40
1.0
  9
$DIMTOFL
 70
     1
  9
$DIMTVP
 40
0.0
  9
$DIMTIX
 70
     0
  9
$DIMSOXD
 70
     0
  9
$DIMSAH
 70
     0
  9
$DIMBLK1
  1

  9
$DIMBLK2
  1

  9
$DIMSTYLE
  2
ISO-25
  9
$DIMCLRD
 70
     0
  9
$DIMCLRE
 70
     0
  9
$DIMCLRT
 70
     0
  9
$DIMTFAC
 40
1.0
  9
$DIMGAP
 40
0.625
  9
$DIMJUST
 70
     0
  9
$DIMSD1
 70
     0
  9
$DIMSD2
 70
     0
  9
$DIMTOLJ
 70
     0
  9
$DIMTZIN
 70
     8
  9
$DIMALTZ
 70
     0
  9
$DIMALTTZ
 70
     0
  9
$DIMUPT
 70
     0
  9
$DIMDEC
 70
     2
  9
$DIMTDEC
 70
     2
  9
$DIMALTU
 70
     2
  9
$DIMALTTD
 70
     3
  9
$DIMTXSTY
  7
Standard
  9
$DIMAUNIT
 70
     0
  9
$DIMADEC
 70
     0
  9
$DIMALTRND
 40
0.0
  9
$DIMAZIN
 70
     0
  9
$DIMDSEP
 70
    44
  9
$DIMATFIT
 70
     3
  9
$DIMFRAC
 70
     0
  9
$DIMLDRBLK
  1

  9
$DIMLUNIT
 70
     2
  9
$DIMLWD
 70
    -2
  9
$DIMLWE
 70
    -2
  9
$DIMTMOVE
 70
     0
  9
$DIMFXL
 40
1.0
  9
$DIMFXLON
 70
     0
  9
$DIMJOGANG
 40
0.7853981633974483
  9
$DIMTFILL
 70
     0
  9
$DIMTFILLCLR
 70
     0
  9
$DIMARCSYM
 70
     0
  9
$DIMLTYPE
  6

  9
$DIMLTEX1
  6

  9
$DIMLTEX2
  6

  9
$DIMTXTDIRECTION
 70
     0
  9
$LUNITS
 70
     2
  9
$LUPREC
 70
     4
  9
$SKETCHINC
 40
1.0
  9
$FILLETRAD
 40
10.0
  9
$AUNITS
 70
     0
  9
$AUPREC
 70
     0
  9
$MENU
  1
.
  9
$ELEVATION
 40
0.0
  9
$PELEVATION
 40
0.0
  9
$THICKNESS
 40
0.0
  9
$LIMCHECK
 70
     0
  9
$CHAMFERA
 40
10.0
  9
$CHAMFERB
 40
10.0
  9
$CHAMFERC
 40
20.0
  9
$CHAMFERD
 40
0.0
  9
$SKPOLY
 70
     0
  9
$TDCREATE
 40
2459411.581997257
  9
$TDUCREATE
 40
2459411.206997257
  9
$TDUPDATE
 40
2459411.581997268
  9
$TDUUPDATE
 40
2459411.206997268
  9
$TDINDWG
 40
0.0000000116
  9
$TDUSRTIMER
 40
0.0000000116
  9
$USRTIMER
 70
     1
  9
$ANGBASE
 50
0.0
  9
$ANGDIR
 70
     0
  9
$PDMODE
 70
     0
  9
$PDSIZE
 40
0.0
  9
$PLINEWID
 40
0.0
  9
$SPLFRAME
 70
     0
  9
$SPLINETYPE
 70
     6
  9
$SPLINESEGS
 70
     8
  9
$HANDSEED
  5
3DC
  9
$SURFTAB1
 70
     6
  9
$SURFTAB2
 70
     6
  9
$SURFTYPE
 70
     6
  9
$SURFU
 70
     6
  9
$SURFV
 70
     6
  9
$UCSBASE
  2

  9
$UCSNAME
  2

  9
$UCSORG
 10
0.0
 20
0.0
 30
0.0
  9
$UCSXDIR
 10
1.0
 20
0.0
 30
0.0
  9
$UCSYDIR
 10
0.0
 20
1.0
 30
0.0
  9
$UCSORTHOREF
  2

  9
$UCSORTHOVIEW
 70
     0
  9
$UCSORGTOP
 10
0.0
 20
0.0
 30
0.0
  9
$UCSORGBOTTOM
 10
0.0
 20
0.0
 30
0.0
  9
$UCSORGLEFT
 10
0.0
 20
0.0
 30
0.0
  9
$UCSORGRIGHT
 10
0.0
 20
0.0
 30
0.0
  9
$UCSORGFRONT
 10
0.0
 20
0.0
 30
0.0
  9
$UCSORGBACK
 10
0.0
 20
0.0
 30
0.0
  9
$PUCSBASE
  2

  9
$PUCSNAME
  2

  9
$PUCSORG
 10
0.0
 20
0.0
 30
0.0
  9
$PUCSXDIR
 10
1.0
 20
0.0
 30
0.0
  9
$PUCSYDIR
 10
0.0
 20
1.0
 30
0.0
  9
$PUCSORTHOREF
  2

  9
$PUCSORTHOVIEW
 70
     0
  9
$PUCSORGTOP
 10
0.0
 20
0.0
 30
0.0
  9
$PUCSORGBOTTOM
 10
0.0
 20
0.0
 30
0.0
  9
$PUCSORGLEFT
 10
0.0
 20
0.0
 30
0.0
  9
$PUCSORGRIGHT
 10
0.0
 20
0.0
 30
0.0
  9
$PUCSORGFRONT
 10
0.0
 20
0.0
 30
0.0
  9
$PUCSORGBACK
 10
0.0
 20
0.0
 30
0.0
  9
$USERI1
 70
     0
  9
$USERI2
 70
     0
  9
$USERI3
 70
     0
  9
$USERI4
 70
     0
  9
$USERI5
 70
     0
  9
$USERR1
 40
0.0
  9
$USERR2
 40
0.0
  9
$USERR3
 40
0.0
  9
$USERR4
 40
0.0
  9
$USERR5
 40
0.0
  9
$WORLDVIEW
 70
     1
  9
$SHADEDGE
 70
     3
  9
$SHADEDIF
 70
    70
  9
$TILEMODE
 70
     1
  9
$MAXACTVP
 70
    64
  9
$PINSBASE
 10
0.0
 20
0.0
 30
0.0
  9
$PLIMCHECK
 70
     0
  9
$PEXTMIN
 10
1.000000000000000E+20
 20
1.000000000000000E+20
 30
1.000000000000000E+20
  9
$PEXTMAX
 10
-1.000000000000000E+20
 20
-1.000000000000000E+20
 30
-1.000000000000000E+20
  9
$PLIMMIN
 10
0.0
 20
0.0
  9
$PLIMMAX
 10
420.0
 20
297.0
  9
$UNITMODE
 70
     0
  9
$VISRETAIN
 70
     1
  9
$PLINEGEN
 70
     0
  9
$PSLTSCALE
 70
     1
  9
$TREEDEPTH
 70
  3020
  9
$CMLSTYLE
  2
Standard
  9
$CMLJUST
 70
     0
  9
$CMLSCALE
 40
20.0
  9
$PROXYGRAPHICS
 70
     1
  9
$MEASUREMENT
 70
     1
  9
$CELWEIGHT
370
    -1
  9
$ENDCAPS
280
     0
  9
$JOINSTYLE
280
     0
  9
$LWDISPLAY
290
     0
  9
$INSUNITS
 70
     4
  9
$HYPERLINKBASE
  1

  9
$STYLESHEET
  1

  9
$XEDIT
290
     1
  9
$CEPSNTYPE
380
     0
  9
$PSTYLEMODE
290
     1
  9
$FINGERPRINTGUID
  2
{A24BACE0-3943-4860-8C9B-1D339E88823B}
  9
$VERSIONGUID
  2
{FAEB1C32-E019-11D5-929B-00C0DF256EC4}
  9
$EXTNAMES
290
     1
  9
$PSVPSCALE
 40
0.0
  9
$OLESTARTUP
290
     0
  9
$SORTENTS
280
   127
  9
$INDEXCTL
280
     0
  9
$HIDETEXT
280
     1
  9
$XCLIPFRAME
280
     2
  9
$HALOGAP
280
     0
  9
$OBSCOLOR
 70
   257
  9
$OBSLTYPE
280
     0
  9
$INTERSECTIONDISPLAY
280
     0
  9
$INTERSECTIONCOLOR
 70
   257
  9
$DIMASSOC
280
     2
  9
$PROJECTNAME
  1

  9
$CAMERADISPLAY
290
     0
  9
$LENSLENGTH
 40
50.0
  9
$CAMERAHEIGHT
 40
0.0
  9
$STEPSPERSEC
 40
2.0
  9
$STEPSIZE
 40
6.0
  9
$3DDWFPREC
 40
2.0
  9
$PSOLWIDTH
 40
5.0
  9
$PSOLHEIGHT
 40
80.0
  9
$LOFTANG1
 40
1.570796326794897
  9
$LOFTANG2
 40
1.570796326794897
  9
$LOFTMAG1
 40
0.0
  9
$LOFTMAG2
 40
0.0
  9
$LOFTPARAM
 70
     7
  9
$LOFTNORMALS
280
     1
  9
$LATITUDE
 40
37.795
  9
$LONGITUDE
 40
-122.394
  9
$NORTHDIRECTION
 40
0.0
  9
$TIMEZONE
 70
 -8000
  9
$LIGHTGLYPHDISPLAY
280
     1
  9
$TILEMODELIGHTSYNCH
280
     1
  9
$SOLIDHIST
280
     1
  9
$SHOWHIST
280
     1
  9
$DWFFRAME
280
     2
  9
$DGNFRAME
280
     2
  9
$REALWORLDSCALE
290
     1
  9
$INTERFERECOLOR
 62
   256
  9
$CSHADOW
280
     0
  9
$SHADOWPLANELOCATION
 40
0.0
  0
ENDSEC
  0
SECTION
  2
CLASSES
  0
CLASS
  1
ACDBDICTIONARYWDFLT
  2
AcDbDictionaryWithDefault
  3
ObjectDBX Classes
 90
        0
 91
        4
280
     0
281
     0
  0
CLASS
  1
VISUALSTYLE
  2
AcDbVisualStyle
  3
ObjectDBX Classes
 90
     4095
 91
        4
280
     0
281
     0
  0
CLASS
  1
MATERIAL
  2
AcDbMaterial
  3
ObjectDBX Classes
 90
     1153
 91
        4
280
     0
281
     0
  0
ENDSEC
  0
SECTION
  2
TABLES
  0
TABLE
  2
VPORT
  5
8
330
0
100
AcDbSymbolTable
 70
     1
  0
VPORT
  5
29
330
8
100
AcDbSymbolTableRecord
100
AcDbViewportTableRecord
  2
*Active
 70
     0
 10
0.0
 20
0.0
 11
1.0
 21
1.0
 12
0.0
 22
0.0
 13
0.0
 23
0.0
 14
10.0
 24
10.0
 15
10.0
 25
10.0
 16
0.0
 26
0.0
 36
1.0
 17
0.0
 27
0.0
 37
0.0
 40
9801.0
 41
1.414141414141414
 42
50.0
 43
0.0
 44
0.0
 50
0.0
 51
0.0
 71
     0
 72
 10000
 73
     1
 74
     3
 75
     0
 76
     0
 77
     0
 78
     0
281
     0
 65
     1
110
0.0
120
0.0
130
0.0
111
1.0
121
0.0
131
0.0
112
0.0
122
1.0
132
0.0
 79
     0
146
0.0
 60
     3
 61
     5
292
     1
282
     1
141
0.0
142
0.0
 63
   250
  0
ENDTAB
  0
TABLE
  2
LTYPE
  5
5
330
0
100
AcDbSymbolTable
 70
     4
  0
LTYPE
  5
14
330
5
100
AcDbSymbolTableRecord
100
AcDbLinetypeTableRecord
  2
ByBlock
 70
     0
  3

 72
    65
 73
     0
 40
0.0
  0
LTYPE
  5
15
330
5
100
AcDbSymbolTableRecord
100
AcDbLinetypeTableRecord
  2
ByLayer
 70
     0
  3

 72
    65
 73
     0
 40
0.0
  0
LTYPE
  5
16
330
5
100
AcDbSymbolTableRecord
100
AcDbLinetypeTableRecord
  2
Continuous
 70
     0
  3
Solid line
 72
    65
 73
     0
 40
0.0
  0
LTYPE
  5
3F
330
5
100
AcDbSymbolTableRecord
100
AcDbLinetypeTableRecord
  2
JWW_HOJO
 70
     0
  3
  -   -   -   -   -   -   -   - 
 72
    65
 73
     2
 40
1.693333333333333
 49
-1.27
 74
     0
 49
0.4233333333333333
 74
     0
  0
LTYPE
  5
40
330
5
100
AcDbSymbolTableRecord
100
AcDbLinetypeTableRecord
  2
JWW_DASHED1
 70
     0
  3
-  --  --  --  --  --  --  --  -
 72
    65
 73
     2
 40
0.3386666666666667
 49
0.1693333333333333
 74
     0
 49
-0.1693333333333333
 74
     0
  0
LTYPE
  5
41
330
5
100
AcDbSymbolTableRecord
100
AcDbLinetypeTableRecord
  2
JWW_CENTER1
 70
     0
  3
-----  --  ----------  --  -----
 72
    65
 73
     4
 40
3.386666666666667
 49
2.116666666666667
 74
     0
 49
-0.4233333333333333
 74
     0
 49
0.4233333333333333
 74
     0
 49
-0.4233333333333333
 74
     0
  0
ENDTAB
  0
TABLE
  2
LAYER
  5
2
330
0
100
AcDbSymbolTable
 70
    11
  0
LAYER
  5
10
330
2
100
AcDbSymbolTableRecord
100
AcDbLayerTableRecord
  2
0
 70
     0
 62
     7
  6
Continuous
370
    -3
390
F
347
3E
  0
LAYER
  5
42
330
2
100
AcDbSymbolTableRecord
100
AcDbLayerTableRecord
  2
0-0_補助線
 70
     0
 62
     7
  6
Continuous
370
    -3
390
F
347
3E
  0
LAYER
  5
43
330
2
100
AcDbSymbolTableRecord
100
AcDbLayerTableRecord
  2
F-1_枠
 70
     0
 62
     7
  6
Continuous
370
    -3
390
F
347
3E
  0
LAYER
  5
44
330
2
100
AcDbSymbolTableRecord
100
AcDbLayerTableRecord
  2
F-0_補助線
 70
     0
 62
     7
  6
Continuous
370
    -3
390
F
347
3E
  0
LAYER
  5
45
330
2
100
AcDbSymbolTableRecord
100
AcDbLayerTableRecord
  2
F-A_文字
 70
     0
 62
     7
  6
Continuous
370
    -3
390
F
347
3E
  0
LAYER
  5
46
330
2
100
AcDbSymbolTableRecord
100
AcDbLayerTableRecord
  2
0-B_寸法
 70
     0
 62
     7
  6
Continuous
370
    -3
390
F
347
3E
  0
LAYER
  5
47
330
2
100
AcDbSymbolTableRecord
100
AcDbLayerTableRecord
  2
0-4_枠
 70
     0
 62
     7
  6
Continuous
370
    -3
390
F
347
3E
  0
LAYER
  5
48
330
2
100
AcDbSymbolTableRecord
100
AcDbLayerTableRecord
  2
0-A_文字
 70
     0
 62
     7
  6
Continuous
370
    -3
390
F
347
3E
  0
LAYER
  5
49
330
2
100
AcDbSymbolTableRecord
100
AcDbLayerTableRecord
  2
0-2_扉
 70
     0
 62
     7
  6
Continuous
370
    -3
390
F
347
3E
  0
LAYER
  5
4A
330
2
100
AcDbSymbolTableRecord
100
AcDbLayerTableRecord
  2
引手
 70
     0
 62
     7
  6
Continuous
370
    -3
390
F
347
3E
  0
LAYER
  5
4B
330
2
100
AcDbSymbolTableRecord
100
AcDbLayerTableRecord
  2
0-C_ハッチ
 70
     0
 62
     7
  6
Continuous
370
    -3
390
F
347
3E
  0
ENDTAB
  0
TABLE
  2
STYLE
  5
3
330
0
100
AcDbSymbolTable
 70
     1
  0
STYLE
  5
11
330
3
100
AcDbSymbolTableRecord
100
AcDbTextStyleTableRecord
  2
Standard
 70
     0
 40
0.0
 41
1.0
 50
0.0
 71
     0
 42
2.5
  3
txt
  4

  0
ENDTAB
  0
TABLE
  2
VIEW
  5
6
330
0
100
AcDbSymbolTable
 70
     0
  0
ENDTAB
  0
TABLE
  2
UCS
  5
7
330
0
100
AcDbSymbolTable
 70
     0
  0
ENDTAB
  0
TABLE
  2
APPID
  5
9
330
0
100
AcDbSymbolTable
 70
     1
  0
APPID
  5
12
330
9
100
AcDbSymbolTableRecord
100
AcDbRegAppTableRecord
  2
ACAD
 70
     0
  0
ENDTAB
  0
TABLE
  2
DIMSTYLE
  5
A
330
0
100
AcDbSymbolTable
 70
     1
100
AcDbDimStyleTable
  0
DIMSTYLE
105
27
330
A
100
AcDbSymbolTableRecord
100
AcDbDimStyleTableRecord
  2
ISO-25
 70
     0
 41
2.5
 42
0.625
 43
3.75
 44
1.25
 73
     0
 74
     0
 77
     1
 78
     8
140
2.5
141
2.5
143
0.03937007874016
147
0.625
171
     3
172
     1
178
     0
271
     2
272
     2
274
     3
278
    44
283
     0
284
     8
340
11
  0
ENDTAB
  0
TABLE
  2
BLOCK_RECORD
  5
1
330
0
100
AcDbSymbolTable
 70
     1
  0
BLOCK_RECORD
  5
1F
330
1
100
AcDbSymbolTableRecord
100
AcDbBlockTableRecord
  2
*Model_Space
340
22
 70
     0
280
     1
281
     0
  0
BLOCK_RECORD
  5
1B
330
1
100
AcDbSymbolTableRecord
100
AcDbBlockTableRecord
  2
*Paper_Space
340
1E
 70
     0
280
     1
281
     0
  0
BLOCK_RECORD
  5
23
330
1
100
AcDbSymbolTableRecord
100
AcDbBlockTableRecord
  2
*Paper_Space0
340
26
 70
     0
280
     1
281
     0
  0
ENDTAB
  0
ENDSEC
  0
SECTION
  2
BLOCKS
  0
BLOCK
  5
20
330
1F
100
AcDbEntity
  8
0
100
AcDbBlockBegin
  2
*Model_Space
 70
     0
 10
0.0
 20
0.0
 30
0.0
  3
*Model_Space
  1

  0
ENDBLK
  5
21
330
1F
100
AcDbEntity
  8
0
100
AcDbBlockEnd
  0
BLOCK
  5
1C
330
1B
100
AcDbEntity
 67
     1
  8
0
100
AcDbBlockBegin
  2
*Paper_Space
 70
     0
 10
0.0
 20
0.0
 30
0.0
  3
*Paper_Space
  1

  0
ENDBLK
  5
1D
330
1B
100
AcDbEntity
 67
     1
  8
0
100
AcDbBlockEnd
  0
BLOCK
  5
24
330
23
100
AcDbEntity
  8
0
100
AcDbBlockBegin
  2
*Paper_Space0
 70
     0
 10
0.0
 20
0.0
 30
0.0
  3
*Paper_Space0
  1

  0
ENDBLK
  5
25
330
23
100
AcDbEntity
  8
0
100
AcDbBlockEnd
  0
ENDSEC
  0
SECTION
  2
ENTITIES
  0
LINE
  5
4C
330
1F
100
AcDbEntity
  8
0-0_補助線
  6
JWW_HOJO
 62
     7
370
     9
100
AcDbLine
 10
-4790.000018557985
 20
3964.999818544131
 30
0.0
 11
-4790.000018557985
 21
-3790.000179909372
 31
0.0
  0
LINE
  5
4D
330
1F
100
AcDbEntity
  8
F-1_枠
  6
Continuous
 62
   200
370
    20
100
AcDbLine
 10
-5999.999752560178
 20
4174.999769056166
 30
0.0
 11
5699.998762800888
 21
4174.999769056166
 31
0.0
  0
LINE
  5
4E
330
1F
100
AcDbEntity
  8
F-0_補助線
  6
JWW_HOJO
 62
   120
370
     5
100
AcDbLine
 10
-6300.0
 20
-4455.0
 30
0.0
 11
-6300.0
 21
4424.999604096284
 31
0.0
  0
LINE
  5
4F
330
1F
100
AcDbEntity
  8
F-0_補助線
  6
JWW_HOJO
 62
   120
370
     5
100
AcDbLine
 10
5999.999010240709
 20
4424.999604096284
 30
0.0
 11
5999.999010240709
 21
-4455.0
 31
0.0
  0
LINE
  5
50
330
1F
100
AcDbEntity
  8
F-0_補助線
  6
JWW_HOJO
 62
   120
370
     5
100
AcDbLine
 10
5999.999010240709
 20
-4455.0
 30
0.0
 11
-6300.0
 21
-4455.0
 31
0.0
  0
LINE
  5
51
330
1F
100
AcDbEntity
  8
F-1_枠
  6
Continuous
 62
   200
370
    20
100
AcDbLine
 10
-5999.999752560178
 20
4164.999983504013
 30
0.0
 11
5699.998762800888
 21
4164.999983504013
 31
0.0
  0
LINE
  5
52
330
1F
100
AcDbEntity
  8
F-1_枠
  6
Continuous
 62
   200
370
    20
100
AcDbLine
 10
-5999.999752560178
 20
4169.999505120355
 30
0.0
 11
5699.998762800888
 21
4169.999505120355
 31
0.0
  0
LINE
  5
53
330
1F
100
AcDbEntity
  8
F-1_枠
  6
Continuous
 62
   200
370
    20
100
AcDbLine
 10
5689.998977248734
 20
4174.999769056166
 30
0.0
 11
5689.998977248734
 21
-4205.000164959882
 31
0.0
  0
LINE
  5
54
330
1F
100
AcDbEntity
  8
F-1_枠
  6
Continuous
 62
   200
370
    20
100
AcDbLine
 10
5694.998498865077
 20
4174.999769056166
 30
0.0
 11
5694.998498865077
 21
-4205.000164959882
 31
0.0
  0
LINE
  5
55
330
1F
100
AcDbEntity
  8
F-1_枠
  6
Continuous
 62
   200
370
    20
100
AcDbLine
 10
5699.998762800888
 20
4174.999769056166
 30
0.0
 11
5699.998762800888
 21
-4205.000164959882
 31
0.0
  0
LINE
  5
56
330
1F
100
AcDbEntity
  8
F-1_枠
  6
Continuous
 62
   200
370
    20
100
AcDbLine
 10
-5989.999990205507
 20
4174.999769056166
 30
0.0
 11
-5989.999990205507
 21
-4205.000164959882
 31
0.0
  0
LINE
  5
57
330
1F
100
AcDbEntity
  8
F-1_枠
  6
Continuous
 62
   200
370
    20
100
AcDbLine
 10
-5994.999975771518
 20
4174.999769056166
 30
0.0
 11
-5994.999975771518
 21
-4205.000164959882
 31
0.0
  0
LINE
  5
58
330
1F
100
AcDbEntity
  8
F-1_枠
  6
Continuous
 62
   200
370
    20
100
AcDbLine
 10
-5999.99998453501
 20
4174.999769056166
 30
0.0
 11
-5999.99998453501
 21
-4205.000164959882
 31
0.0
  0
LINE
  5
59
330
1F
100
AcDbEntity
  8
F-1_枠
  6
Continuous
 62
   200
370
    20
100
AcDbLine
 10
-5490.000018557986
 20
4174.999769056166
 30
0.0
 11
-5490.000018557986
 21
-3790.000179909372
 31
0.0
  0
LINE
  5
5A
330
1F
100
AcDbEntity
  8
F-0_補助線
  6
JWW_HOJO
 62
   120
370
     5
100
AcDbLine
 10
-6300.0
 20
4424.999604096284
 30
0.0
 11
5999.999010240709
 21
4424.999604096284
 31
0.0
  0
LINE
  5
5B
330
1F
100
AcDbEntity
  8
F-0_補助線
  6
JWW_HOJO
 62
     7
370
     9
100
AcDbLine
 10
849.9995876002961
 20
-3795.000003092998
 30
0.0
 11
849.9995876002961
 21
-4195.000008247994
 31
0.0
  0
LINE
  5
5C
330
1F
100
AcDbEntity
  8
F-0_補助線
  6
JWW_HOJO
 62
     7
370
     9
100
AcDbLine
 10
349.9999175200594
 20
-3795.000003092998
 30
0.0
 11
349.9999175200594
 21
-4195.000008247994
 31
0.0
  0
LINE
  5
5D
330
1F
100
AcDbEntity
  8
F-1_枠
  6
Continuous
 62
   200
370
    20
100
AcDbLine
 10
5699.998762800888
 20
-4205.000002577498
 30
0.0
 11
-5999.999752560178
 21
-4205.000002577498
 31
0.0
  0
LINE
  5
5E
330
1F
100
AcDbEntity
  8
F-1_枠
  6
Continuous
 62
   200
370
    20
100
AcDbLine
 10
5699.998762800888
 20
-4199.999993814004
 30
0.0
 11
-5999.999752560178
 21
-4199.999993814004
 31
0.0
  0
LINE
  5
5F
330
1F
100
AcDbEntity
  8
F-1_枠
  6
Continuous
 62
   200
370
    20
100
AcDbLine
 10
5699.998762800888
 20
-4195.000008247994
 30
0.0
 11
-5999.999752560178
 21
-4195.000008247994
 31
0.0
  0
LINE
  5
60
330
1F
100
AcDbEntity
  8
F-1_枠
  6
Continuous
 62
   200
370
    20
100
AcDbLine
 10
4189.999224688556
 20
-3795.000003092998
 30
0.0
 11
4189.999224688556
 21
-4195.000008247994
 31
0.0
  0
LINE
  5
61
330
1F
100
AcDbEntity
  8
F-1_枠
  6
Continuous
 62
   200
370
    20
100
AcDbLine
 10
2689.998729808911
 20
-3795.000003092998
 30
0.0
 11
2689.998729808911
 21
-4195.000008247994
 31
0.0
  0
LINE
  5
62
330
1F
100
AcDbEntity
  8
F-1_枠
  6
Continuous
 62
   200
370
    20
100
AcDbLine
 10
-150.0001237199109
 20
-3795.000003092998
 30
0.0
 11
-150.0001237199109
 21
-4195.000008247994
 31
0.0
  0
LINE
  5
63
330
1F
100
AcDbEntity
  8
F-1_枠
  6
Continuous
 62
   200
370
    20
100
AcDbLine
 10
-150.0001237199109
 20
-3994.999936078046
 30
0.0
 11
5689.998977248734
 21
-3995.005364289155
 31
0.0
  0
LINE
  5
64
330
1F
100
AcDbEntity
  8
F-0_補助線
  6
JWW_HOJO
 62
     7
370
     9
100
AcDbLine
 10
-5989.999990205507
 20
-3994.99993607839
 30
0.0
 11
-150.0001237199109
 21
-3994.99993607839
 31
0.0
  0
LINE
  5
65
330
1F
100
AcDbEntity
  8
F-0_補助線
  6
JWW_HOJO
 62
     7
370
     9
100
AcDbLine
 10
-5989.999990205507
 20
-3904.99993607839
 30
0.0
 11
-150.0001237199109
 21
-3904.99993607839
 31
0.0
  0
LINE
  5
66
330
1F
100
AcDbEntity
  8
F-0_補助線
  6
JWW_HOJO
 62
     7
370
     9
100
AcDbLine
 10
-5989.999990205507
 20
-4084.99993607839
 30
0.0
 11
-150.0001237199109
 21
-4084.99993607839
 31
0.0
  0
LINE
  5
67
330
1F
100
AcDbEntity
  8
F-0_補助線
  6
JWW_HOJO
 62
     7
370
     9
100
AcDbLine
 10
-150.0002584955388
 20
-4139.999739777983
 30
0.0
 11
5689.998842473105
 21
-4140.005167989091
 31
0.0
  0
LINE
  5
68
330
1F
100
AcDbEntity
  8
F-0_補助線
  6
JWW_HOJO
 62
     7
370
     9
100
AcDbLine
 10
-150.0001748415872
 20
-4049.999739778022
 30
0.0
 11
5689.998926127057
 21
-4050.005167989131
 31
0.0
  0
LINE
  5
69
330
1F
100
AcDbEntity
  8
F-0_補助線
  6
JWW_HOJO
 62
     7
370
     9
100
AcDbLine
 10
-150.0000725978671
 20
-3939.99973721807
 30
0.0
 11
5689.999028370777
 21
-3940.005165429179
 31
0.0
  0
LINE
  5
6A
330
1F
100
AcDbEntity
  8
F-0_補助線
  6
JWW_HOJO
 62
     7
370
     9
100
AcDbLine
 10
-149.9999889439155
 20
-3849.999737218109
 30
0.0
 11
5689.999112024728
 21
-3850.005165429218
 31
0.0
  0
LINE
  5
6B
330
1F
100
AcDbEntity
  8
F-0_補助線
  6
JWW_HOJO
 62
     7
370
     9
100
AcDbLine
 10
2779.998729808911
 20
-3795.000003092998
 30
0.0
 11
2779.998729808911
 21
-4195.000008247994
 31
0.0
  0
LINE
  5
6C
330
1F
100
AcDbEntity
  8
F-0_補助線
  6
JWW_HOJO
 62
     7
370
     9
100
AcDbLine
 10
-60.0001237199109
 20
-3795.000003092998
 30
0.0
 11
-60.0001237199109
 21
-4195.000008247994
 31
0.0
  0
LINE
  5
6D
330
1F
100
AcDbEntity
  8
F-0_補助線
  6
JWW_HOJO
 62
     7
370
     9
100
AcDbLine
 10
4279.999224688556
 20
-3795.000003092998
 30
0.0
 11
4279.999224688556
 21
-4195.000008247994
 31
0.0
  0
LINE
  5
6E
330
1F
100
AcDbEntity
  8
F-0_補助線
  6
JWW_HOJO
 62
     7
370
     9
100
AcDbLine
 10
-5247.547376752838
 20
-3795.000003092999
 30
0.0
 11
-5247.547376752838
 21
-4205.000164959882
 31
0.0
  0
LINE
  5
6F
330
1F
100
AcDbEntity
  8
F-0_補助線
  6
JWW_HOJO
 62
     7
370
     9
100
AcDbLine
 10
-210.0001237199109
 20
-3795.000003092998
 30
0.0
 11
-210.0001237199109
 21
-4195.000008247994
 31
0.0
  0
LINE
  5
70
330
1F
100
AcDbEntity
  8
0-0_補助線
  6
JWW_HOJO
 62
     7
370
     9
100
AcDbLine
 10
-5490.000018557986
 20
1418.000148463893
 30
0.0
 11
5689.998977248734
 21
1418.000148463893
 31
0.0
  0
LINE
  5
71
330
1F
100
AcDbEntity
  8
0-0_補助線
  6
JWW_HOJO
 62
     7
370
     9
100
AcDbLine
 10
-5490.000018557986
 20
-2701.250083820241
 30
0.0
 11
5699.998762800888
 21
-2701.250083820241
 31
0.0
  0
LINE
  5
72
330
1F
100
AcDbEntity
  8
0-0_補助線
  6
JWW_HOJO
 62
   120
370
     5
100
AcDbLine
 10
-5490.000018557986
 20
-2751.250083820241
 30
0.0
 11
5699.998762800888
 21
-2751.250083820241
 31
0.0
  0
LINE
  5
73
330
1F
100
AcDbEntity
  8
0-0_補助線
  6
JWW_HOJO
 62
     7
370
     9
100
AcDbLine
 10
-5490.000018557986
 20
1168.000148463894
 30
0.0
 11
5689.998977248734
 21
1168.000148463894
 31
0.0
  0
LINE
  5
74
330
1F
100
AcDbEntity
  8
0-0_補助線
  6
JWW_HOJO
 62
     7
370
     9
100
AcDbLine
 10
-5490.000018557986
 20
-2951.250083820241
 30
0.0
 11
5699.998762800888
 21
-2951.250083820241
 31
0.0
  0
LINE
  5
75
330
1F
100
AcDbEntity
  8
F-1_枠
  6
Continuous
 62
   200
370
    20
100
AcDbLine
 10
5699.998762800888
 20
-3795.000003092998
 30
0.0
 11
-5999.99998453501
 21
-3795.000003092998
 31
0.0
  0
LINE
  5
76
330
1F
100
AcDbEntity
  8
F-1_枠
  6
Continuous
 62
   200
370
    20
100
AcDbLine
 10
-5999.99998453501
 20
3964.999818544131
 30
0.0
 11
5699.998762800888
 21
3964.999818544131
 31
0.0
  0
LINE
  5
77
330
1F
100
AcDbEntity
  8
F-1_枠
  6
Continuous
 62
   200
370
    20
100
AcDbLine
 10
5699.998762800888
 20
-3790.000017526987
 30
0.0
 11
-5999.99998453501
 21
-3790.000017526987
 31
0.0
  0
LINE
  5
78
330
1F
100
AcDbEntity
  8
F-1_枠
  6
Continuous
 62
   200
370
    20
100
AcDbLine
 10
-5999.99998453501
 20
190.5001831054688
 30
0.0
 11
5699.998762800888
 21
190.5001831054688
 31
0.0
  0
LINE
  5
79
330
1F
100
AcDbEntity
  8
F-1_枠
  6
Continuous
 62
   200
370
    20
100
AcDbLine
 10
-5999.99998453501
 20
-15.50015011349217
 30
0.0
 11
5699.998762800888
 21
-15.50015011349217
 31
0.0
  0
LINE
  5
7A
330
1F
100
AcDbEntity
  8
F-1_枠
  6
Continuous
 62
   200
370
    20
100
AcDbLine
 10
-5999.99998453501
 20
184.5000148463899
 30
0.0
 11
5699.998762800888
 21
184.5000148463899
 31
0.0
  0
LINE
  5
7B
330
1F
100
AcDbEntity
  8
F-1_枠
  6
Continuous
 62
   200
370
    20
100
AcDbLine
 10
-5999.99998453501
 20
187.5000989759289
 30
0.0
 11
5699.998762800888
 21
187.5000989759289
 31
0.0
  0
LINE
  5
7C
330
1F
100
AcDbEntity
  8
F-1_枠
  6
Continuous
 62
   200
370
    20
100
AcDbLine
 10
99.99947934537431
 20
-3790.000179909372
 30
0.0
 11
99.99947934537431
 21
4174.999769056166
 31
0.0
  0
LINE
  5
7D
330
1F
100
AcDbEntity
  8
F-1_枠
  6
Continuous
 62
   200
370
    20
100
AcDbLine
 10
-2695.000269606307
 20
-3790.000179909372
 30
0.0
 11
-2695.000269606307
 21
4174.999769056166
 31
0.0
  0
LINE
  5
7E
330
1F
100
AcDbEntity
  8
F-A_文字
  6
Continuous
 62
     7
370
     9
100
AcDbLine
 10
2894.999228297052
 20
184.5000148463899
 30
0.0
 11
99.99987274480532
 21
-3790.000179909372
 31
0.0
  0
LINE
  5
7F
330
1F
100
AcDbEntity
  8
F-A_文字
  6
Continuous
 62
     7
370
     9
100
AcDbLine
 10
2894.999321086989
 20
-3790.000017526987
 30
0.0
 11
5689.998977248734
 21
184.5000148463899
 31
0.0
  0
LINE
  5
80
330
1F
100
AcDbEntity
  8
F-A_文字
  6
Continuous
 62
     7
370
     9
100
AcDbLine
 10
2894.999321086989
 20
190.499951130636
 30
0.0
 11
5689.998977248734
 21
4164.999983504013
 31
0.0
  0
LINE
  5
81
330
1F
100
AcDbEntity
  8
F-1_枠
  6
Continuous
 62
   200
370
    20
100
AcDbLine
 10
2894.999228297052
 20
-3790.000179909372
 30
0.0
 11
2894.999228297052
 21
4174.999769056166
 31
0.0
  0
LINE
  5
82
330
1F
100
AcDbEntity
  8
0-0_補助線
  6
JWW_HOJO
 62
   120
370
     5
100
AcDbLine
 10
-4840.000018557987
 20
3964.999818544131
 30
0.0
 11
-4840.000018557987
 21
-3790.000179909372
 31
0.0
  0
LINE
  5
83
330
1F
100
AcDbEntity
  8
0-0_補助線
  6
JWW_HOJO
 62
     7
370
     9
100
AcDbLine
 10
-1995.000269606306
 20
3964.999818544131
 30
0.0
 11
-1995.000269606306
 21
-3790.000179909372
 31
0.0
  0
LINE
  5
84
330
1F
100
AcDbEntity
  8
0-0_補助線
  6
JWW_HOJO
 62
   120
370
     5
100
AcDbLine
 10
-2045.000269606307
 20
3964.999818544131
 30
0.0
 11
-2045.000269606307
 21
-3790.000179909372
 31
0.0
  0
LINE
  5
85
330
1F
100
AcDbEntity
  8
0-B_寸法
  6
Continuous
 62
   120
370
     5
100
AcDbLine
 10
-3893.000018557989
 20
1168.000148463894
 30
0.0
 11
-2993.000018557989
 21
1168.000148463894
 31
0.0
  0
LINE
  5
86
330
1F
100
AcDbEntity
  8
0-B_寸法
  6
Continuous
 62
   120
370
     5
100
AcDbLine
 10
-3893.000018557989
 20
1168.000148463894
 30
0.0
 11
-3893.000018557989
 21
1368.000148463894
 31
0.0
  0
LINE
  5
87
330
1F
100
AcDbEntity
  8
0-B_寸法
  6
Continuous
 62
   120
370
     5
100
AcDbLine
 10
-2993.000018557989
 20
1168.000148463894
 30
0.0
 11
-2993.000018557989
 21
1368.000148463894
 31
0.0
  0
LWPOLYLINE
  5
88
330
1F
100
AcDbEntity
  8
0-B_寸法
  6
Continuous
 62
     7
370
     9
100
AcDbPolyline
 90
        4
 70
     1
 43
3.0
 10
-3891.500018557988
 20
1168.000148463894
 42
0.4142135623731
 10
-3893.000018557989
 20
1169.500148463894
 42
0.4142135623731
 10
-3894.500018557989
 20
1168.000148463894
 42
0.4142135623731
 10
-3893.000018557989
 20
1166.500148463894
 42
0.4142135623731
  0
LWPOLYLINE
  5
89
330
1F
100
AcDbEntity
  8
0-B_寸法
  6
Continuous
 62
     7
370
     9
100
AcDbPolyline
 90
        4
 70
     1
 43
3.0
 10
-2991.500018557989
 20
1168.000148463894
 42
0.4142135623731
 10
-2993.000018557989
 20
1169.500148463894
 42
0.4142135623731
 10
-2994.500018557989
 20
1168.000148463894
 42
0.4142135623731
 10
-2993.000018557989
 20
1166.500148463894
 42
0.4142135623731
  0
LINE
  5
8A
330
1F
100
AcDbEntity
  8
0-B_寸法
  6
Continuous
 62
   120
370
     5
100
AcDbLine
 10
-378.000269606307
 20
1168.000148463894
 30
0.0
 11
-378.000269606307
 21
1368.000148463894
 31
0.0
  0
LINE
  5
8B
330
1F
100
AcDbEntity
  8
0-B_寸法
  6
Continuous
 62
   120
370
     5
100
AcDbLine
 10
-1188.000269606307
 20
1168.000148463894
 30
0.0
 11
-1188.000269606307
 21
1368.000148463894
 31
0.0
  0
LINE
  5
8C
330
1F
100
AcDbEntity
  8
0-B_寸法
  6
Continuous
 62
   120
370
     5
100
AcDbLine
 10
-1188.000269606307
 20
1168.000148463894
 30
0.0
 11
-378.000269606307
 21
1168.000148463894
 31
0.0
  0
LWPOLYLINE
  5
8D
330
1F
100
AcDbEntity
  8
0-B_寸法
  6
Continuous
 62
     7
370
     9
100
AcDbPolyline
 90
        4
 70
     1
 43
3.0
 10
-376.500269606307
 20
1168.000148463894
 42
0.4142135623731
 10
-378.000269606307
 20
1169.500148463894
 42
0.4142135623731
 10
-379.500269606307
 20
1168.000148463894
 42
0.4142135623731
 10
-378.000269606307
 20
1166.500148463894
 42
0.4142135623731
  0
LWPOLYLINE
  5
8E
330
1F
100
AcDbEntity
  8
0-B_寸法
  6
Continuous
 62
     7
370
     9
100
AcDbPolyline
 90
        4
 70
     1
 43
3.0
 10
-1186.500269606307
 20
1168.000148463894
 42
0.4142135623731
 10
-1188.000269606307
 20
1169.500148463894
 42
0.4142135623731
 10
-1189.500269606307
 20
1168.000148463894
 42
0.4142135623731
 10
-1188.000269606307
 20
1166.500148463894
 42
0.4142135623731
  0
LINE
  5
8F
330
1F
100
AcDbEntity
  8
0-4_枠
  6
Continuous
 62
    92
370
    13
100
AcDbLine
 10
-4760.000018557985
 20
1418.000148463893
 30
0.0
 11
-4790.000018557985
 21
1418.000148463893
 31
0.0
  0
LINE
  5
90
330
1F
100
AcDbEntity
  8
0-4_枠
  6
Continuous
 62
    92
370
    13
100
AcDbLine
 10
-2966.000018557986
 20
1418.000148463893
 30
0.0
 11
-2996.000018557986
 21
1418.000148463893
 31
0.0
  0
LINE
  5
91
330
1F
100
AcDbEntity
  8
0-4_枠
  6
Continuous
 62
    92
370
    13
100
AcDbLine
 10
-1965.000269606306
 20
1418.000148463893
 30
0.0
 11
-1995.000269606306
 21
1418.000148463893
 31
0.0
  0
LINE
  5
92
330
1F
100
AcDbEntity
  8
0-4_枠
  6
Continuous
 62
    92
370
    13
100
AcDbLine
 10
-351.0002696063077
 20
1418.000148463893
 30
0.0
 11
-381.0002696063077
 21
1418.000148463893
 31
0.0
  0
MTEXT
  5
93
330
1F
100
AcDbEntity
  8
0-B_寸法
  6
Continuous
 62
     7
370
   211
100
AcDbMText
 10
-3611.750018557989
 20
1174.075148463894
 30
0.0
 40
57.15
 41
337.5
 46
0.0
 71
     7
 72
     1
  1
{\fＭＳ ゴシック|b0|i0|c128|p49;ＤＷ＝900}
 73
     1
 44
1.0
  0
MTEXT
  5
94
330
1F
100
AcDbEntity
  8
0-B_寸法
  6
Continuous
 62
     7
370
   211
100
AcDbMText
 10
-951.750269606307
 20
1174.075148463894
 30
0.0
 40
57.15
 41
337.5
 46
0.0
 71
     7
 72
     1
  1
{\fＭＳ ゴシック|b0|i0|c128|p49;ＤＷ＝810}
 73
     1
 44
1.0
  0
MTEXT
  5
95
330
1F
100
AcDbEntity
  8
F-A_文字
  6
Continuous
 62
     7
370
     9
100
AcDbMText
 10
-5890.000004381747
 20
4018.575148463894
 30
0.0
 40
57.15
 41
300.0
 46
0.0
 71
     7
 72
     1
  1
{\fＭＳ ゴシック|b0|i0|c128|p49;デザイン}
 73
     1
 44
1.0
  0
MTEXT
  5
96
330
1F
100
AcDbEntity
  8
F-A_文字
  6
Continuous
 62
     7
370
     9
100
AcDbMText
 10
-5852.500004381747
 20
2031.325062684755
 30
0.0
 40
57.15
 41
225.0
 46
0.0
 71
     7
 72
     1
  1
{\fＭＳ ゴシック|b0|i0|c128|p49;姿　図}
 73
     1
 44
1.0
  0
MTEXT
  5
97
330
1F
100
AcDbEntity
  8
F-A_文字
  6
Continuous
 62
     7
370
     9
100
AcDbMText
 10
-5890.000004381747
 20
38.07493236644844
 30
0.0
 40
57.15
 41
300.0
 46
0.0
 71
     7
 72
     1
  1
{\fＭＳ ゴシック|b0|i0|c128|p49;デザイン}
 73
     1
 44
1.0
  0
MTEXT
  5
98
330
1F
100
AcDbEntity
  8
F-A_文字
  6
Continuous
 62
     7
370
     9
100
AcDbMText
 10
-5852.500004381747
 20
-1949.175091552734
 30
0.0
 40
57.15
 41
225.0
 46
0.0
 71
     7
 72
     1
  1
{\fＭＳ ゴシック|b0|i0|c128|p49;姿　図}
 73
     1
 44
1.0
  0
MTEXT
  5
99
330
1F
100
AcDbEntity
  8
F-A_文字
  6
Continuous
 62
     7
370
     0
100
AcDbMText
 10
-60.0001237199109
 20
-3887.139820871936
 30
0.0
 40
45.72
 41
180.0
 46
0.0
 71
     7
 72
     1
  1
{\fＭＳ ゴシック|b0|i0|c128|p49;図面名}
 73
     1
 44
1.0
  0
MTEXT
  5
9A
330
1F
100
AcDbEntity
  8
F-A_文字
  6
Continuous
 62
     7
370
     0
100
AcDbMText
 10
2779.998729808911
 20
-3887.142460617774
 30
0.0
 40
45.72
 41
300.0
 46
0.0
 71
     7
 72
     1
  1
{\fＭＳ ゴシック|b0|i0|c128|p49;ＳＣＡＬＥ}
 73
     1
 44
1.0
  0
MTEXT
  5
9B
330
1F
100
AcDbEntity
  8
F-A_文字
  6
Continuous
 62
     7
370
     0
100
AcDbMText
 10
4279.999224688556
 20
-3887.143854850754
 30
0.0
 40
45.72
 41
240.0
 46
0.0
 71
     7
 72
     1
  1
{\fＭＳ ゴシック|b0|i0|c128|p49;ＤＡＴＥ}
 73
     1
 44
1.0
  0
MTEXT
  5
9C
330
1F
100
AcDbEntity
  8
F-A_文字
  6
Continuous
 62
     7
370
     0
100
AcDbMText
 10
1180.417701903719
 20
-3946.423911599839
 30
0.0
 40
77.15249999999999
 41
405.0
 46
0.0
 71
     7
 72
     1
  1
{\fＭＳ ゴシック|b0|i0|c128|p49;建具姿図}
 73
     1
 44
1.0
  0
MTEXT
  5
9D
330
1F
100
AcDbEntity
  8
F-A_文字
  6
Continuous
 62
     7
370
     0
100
AcDbMText
 10
3383.748977248734
 20
-3946.426865907308
 30
0.0
 40
77.15249999999999
 41
202.5
 46
0.0
 71
     7
 72
     1
  1
{\fＭＳ ゴシック|b0|i0|c128|p49;1/30}
 73
     1
 44
1.0
  0
MTEXT
  5
9E
330
1F
100
AcDbEntity
  8
F-A_文字
  6
Continuous
 62
     7
370
     0
100
AcDbMText
 10
349.9999175200594
 20
-3946.496666872502
 30
0.0
 40
78.58125
 41
412.5
 46
0.0
 71
     7
 72
     1
  1
{\fＭＳ ゴシック|b0|i0|c128|p49;DOORETUS}
 73
     1
 44
1.0
  0
MTEXT
  5
9F
330
1F
100
AcDbEntity
  8
F-A_文字
  6
Continuous
 62
     7
370
     0
100
AcDbMText
 10
2779.998729808911
 20
-4087.14246317786
 30
0.0
 40
45.72
 41
240.0
 46
0.0
 71
     7
 72
     1
  1
{\fＭＳ ゴシック|b0|i0|c128|p49;ＦＩＬＥ}
 73
     1
 44
1.0
  0
MTEXT
  5
A0
330
1F
100
AcDbEntity
  8
F-A_文字
  6
Continuous
 62
     7
370
     0
100
AcDbMText
 10
4279.999224688556
 20
-4087.143857410839
 30
0.0
 40
45.72
 41
180.0
 46
0.0
 71
     7
 72
     1
  1
{\fＭＳ ゴシック|b0|i0|c128|p49;ＮＯ．}
 73
     1
 44
1.0
  0
MTEXT
  5
A1
330
1F
100
AcDbEntity
  8
F-A_文字
  6
Continuous
 62
     7
370
     0
100
AcDbMText
 10
1234.998729808911
 20
-4096.140669266149
 30
0.0
 40
45.72
 41
120.0
 46
0.0
 71
     7
 72
     1
  1
{\fＭＳ ゴシック|b0|i0|c128|p49;株式}
 73
     1
 44
1.0
  0
MTEXT
  5
A2
330
1F
100
AcDbEntity
  8
F-A_文字
  6
Continuous
 62
     7
370
     9
100
AcDbMText
 10
4936.249033580831
 20
-4147.857012699985
 30
0.0
 40
74.295
 41
97.5
 46
0.0
 71
     7
 72
     1
  1
{\fＭＳ ゴシック|b0|i0|c128|p49;01}
 73
     1
 44
1.0
  0
MTEXT
  5
A3
330
1F
100
AcDbEntity
  8
F-A_文字
  6
Continuous
 62
     7
370
     0
100
AcDbMText
 10
1444.998729808911
 20
-4164.281754523929
 30
0.0
 40
101.44125
 41
1065.0
 46
0.0
 71
     7
 72
     1
  1
{\fＭＳ ゴシック|b0|i0|c128|p49;ウッドワン・・・}
 73
     1
 44
1.0
  0
MTEXT
  5
A4
330
1F
100
AcDbEntity
  8
F-A_文字
  6
Continuous
 62
     7
370
     0
100
AcDbMText
 10
1234.998729808911
 20
-4168.140669266187
 30
0.0
 40
45.72
 41
120.0
 46
0.0
 71
     7
 72
     1
  1
{\fＭＳ ゴシック|b0|i0|c128|p49;会社}
 73
     1
 44
1.0
  0
MTEXT
  5
A5
330
1F
100
AcDbEntity
  8
F-A_文字
  6
Continuous
 62
     7
370
     0
100
AcDbMText
 10
5608.403311109712
 20
-4314.841419020919
 30
0.0
 40
68.58
 41
90.0
 46
0.0
 71
     7
 72
     1
  1
{\fＭＳ ゴシック|b0|i0|c128|p49;）}
 73
     1
 44
1.0
  0
MTEXT
  5
A6
330
1F
100
AcDbEntity
  8
F-A_文字
  6
Continuous
 62
     7
370
     0
100
AcDbMText
 10
5190.195950842071
 20
-4316.235443869856
 30
0.0
 40
68.58
 41
45.0
 46
0.0
 71
     7
 72
     1
  1
{\fＭＳ ゴシック|b0|i0|c128|p49;,}
 73
     1
 44
1.0
  0
MTEXT
  5
A7
330
1F
100
AcDbEntity
  8
F-A_文字
  6
Continuous
 62
     7
370
     0
100
AcDbMText
 10
4923.937261915373
 20
-4314.771967288282
 30
0.0
 40
74.295
 41
97.5
 46
0.0
 71
     7
 72
     1
  1
{\fＭＳ ゴシック|b0|i0|c128|p49;$y}
 73
     1
 44
1.0
  0
MTEXT
  5
A8
330
1F
100
AcDbEntity
  8
F-A_文字
  6
Continuous
 62
     7
370
     0
100
AcDbMText
 10
5078.673982954195
 20
-4314.771967288282
 30
0.0
 40
74.295
 41
97.5
 46
0.0
 71
     7
 72
     1
  1
{\fＭＳ ゴシック|b0|i0|c128|p49;$m}
 73
     1
 44
1.0
  0
MTEXT
  5
A9
330
1F
100
AcDbEntity
  8
F-A_文字
  6
Continuous
 62
     7
370
     0
100
AcDbMText
 10
5233.410715437103
 20
-4314.771967288282
 30
0.0
 40
74.295
 41
97.5
 46
0.0
 71
     7
 72
     1
  1
{\fＭＳ ゴシック|b0|i0|c128|p49;$d}
 73
     1
 44
1.0
  0
MTEXT
  5
AA
330
1F
100
AcDbEntity
  8
F-A_文字
  6
Continuous
 62
     7
370
     0
100
AcDbMText
 10
5388.147447920011
 20
-4314.771967288282
 30
0.0
 40
74.295
 41
195.0
 46
0.0
 71
     7
 72
     1
  1
{\fＭＳ ゴシック|b0|i0|c128|p49;印刷}
 73
     1
 44
1.0
  0
MTEXT
  5
AB
330
1F
100
AcDbEntity
  8
F-A_文字
  6
Continuous
 62
     7
370
     0
100
AcDbMText
 10
4784.033374252999
 20
-4319.023493567732
 30
0.0
 40
68.58
 41
90.0
 46
0.0
 71
     7
 72
     1
  1
{\fＭＳ ゴシック|b0|i0|c128|p49;（}
 73
     1
 44
1.0
  0
MTEXT
  5
AC
330
1F
100
AcDbEntity
  8
F-A_文字
  6
Continuous
 62
     7
370
     0
100
AcDbMText
 10
5031.277143812345
 20
-4319.023493567732
 30
0.0
 40
68.58
 41
45.0
 46
0.0
 71
     7
 72
     1
  1
{\fＭＳ ゴシック|b0|i0|c128|p49;,}
 73
     1
 44
1.0
  0
LINE
  5
AD
330
1F
100
AcDbEntity
  8
0-0_補助線
  6
JWW_HOJO
 62
   120
370
     5
100
AcDbLine
 10
-5370.000018557986
 20
4174.999769056166
 30
0.0
 11
-5370.000018557986
 21
-3790.000179909371
 31
0.0
  0
LINE
  5
AE
330
1F
100
AcDbEntity
  8
0-0_補助線
  6
JWW_HOJO
 62
   120
370
     5
100
AcDbLine
 10
-5999.99998453501
 20
670.5001831054692
 30
0.0
 11
5699.998762800888
 21
670.5001831054692
 31
0.0
  0
LINE
  5
AF
330
1F
100
AcDbEntity
  8
0-0_補助線
  6
JWW_HOJO
 62
   120
370
     5
100
AcDbLine
 10
-5999.99998453501
 20
550.5001831054688
 30
0.0
 11
5699.998762800888
 21
550.5001831054688
 31
0.0
  0
LINE
  5
B0
330
1F
100
AcDbEntity
  8
0-0_補助線
  6
JWW_HOJO
 62
   120
370
     5
100
AcDbLine
 10
-5999.99998453501
 20
430.5001831054688
 30
0.0
 11
5699.998762800888
 21
430.5001831054688
 31
0.0
  0
LINE
  5
B1
330
1F
100
AcDbEntity
  8
0-0_補助線
  6
JWW_HOJO
 62
   120
370
     5
100
AcDbLine
 10
-5999.99998453501
 20
310.5001831054688
 30
0.0
 11
5699.998762800888
 21
310.5001831054688
 31
0.0
  0
LINE
  5
B2
330
1F
100
AcDbEntity
  8
0-0_補助線
  6
JWW_HOJO
 62
   120
370
     5
100
AcDbLine
 10
5699.998762800888
 20
-3430.000017526988
 30
0.0
 11
-5999.99998453501
 21
-3430.000017526988
 31
0.0
  0
LINE
  5
B3
330
1F
100
AcDbEntity
  8
0-0_補助線
  6
JWW_HOJO
 62
   120
370
     5
100
AcDbLine
 10
5699.998762800888
 20
-3550.000017526988
 30
0.0
 11
-5999.99998453501
 21
-3550.000017526988
 31
0.0
  0
LINE
  5
B4
330
1F
100
AcDbEntity
  8
0-0_補助線
  6
JWW_HOJO
 62
   120
370
     5
100
AcDbLine
 10
5699.998762800888
 20
-3670.000017526988
 30
0.0
 11
-5999.99998453501
 21
-3670.000017526988
 31
0.0
  0
LINE
  5
B5
330
1F
100
AcDbEntity
  8
0-0_補助線
  6
JWW_HOJO
 62
   120
370
     5
100
AcDbLine
 10
-2575.000269606307
 20
4174.999769056166
 30
0.0
 11
-2575.000269606307
 21
-3790.000179909371
 31
0.0
  0
LINE
  5
B6
330
1F
100
AcDbEntity
  8
0-0_補助線
  6
JWW_HOJO
 62
   120
370
     5
100
AcDbLine
 10
219.9994793453743
 20
4174.999769056166
 30
0.0
 11
219.9994793453743
 21
-3790.000179909371
 31
0.0
  0
LINE
  5
B7
330
1F
100
AcDbEntity
  8
0-0_補助線
  6
JWW_HOJO
 62
   120
370
     5
100
AcDbLine
 10
3014.999228297052
 20
4174.999769056166
 30
0.0
 11
3014.999228297052
 21
-3790.000179909371
 31
0.0
  0
LINE
  5
B8
330
1F
100
AcDbEntity
  8
F-A_文字
  6
Continuous
 62
     7
370
     9
100
AcDbLine
 10
2894.999228297052
 20
4164.999983504013
 30
0.0
 11
100.0001500697809
 21
190.5001831054688
 31
0.0
  0
LINE
  5
B9
330
1F
100
AcDbEntity
  8
0-A_文字
  6
Continuous
 62
     7
370
     9
100
AcDbLine
 10
-5450.000018557986
 20
-55.50015011349217
 30
0.0
 11
-4915.67460317461
 21
-55.50015011349217
 31
0.0
  0
LINE
  5
BA
330
1F
100
AcDbEntity
  8
0-A_文字
  6
Continuous
 62
     7
370
     9
100
AcDbLine
 10
-4915.67460317461
 20
-55.50015011349217
 30
0.0
 11
-4915.67460317461
 21
-205.5001501134922
 31
0.0
  0
LINE
  5
BB
330
1F
100
AcDbEntity
  8
0-A_文字
  6
Continuous
 62
     7
370
     9
100
AcDbLine
 10
-5450.000018557986
 20
-205.5001501134922
 30
0.0
 11
-4915.67460317461
 21
-205.5001501134922
 31
0.0
  0
LINE
  5
BC
330
1F
100
AcDbEntity
  8
0-A_文字
  6
Continuous
 62
     7
370
     9
100
AcDbLine
 10
-5450.000018557986
 20
-55.50015011349217
 30
0.0
 11
-5450.000018557986
 21
-205.5001501134922
 31
0.0
  0
LINE
  5
BD
330
1F
100
AcDbEntity
  8
0-A_文字
  6
Continuous
 62
     7
370
     9
100
AcDbLine
 10
-5440.000018557986
 20
-65.50015011349215
 30
0.0
 11
-5440.000018557986
 21
-195.5001501134922
 31
0.0
  0
LINE
  5
BE
330
1F
100
AcDbEntity
  8
0-A_文字
  6
Continuous
 62
     7
370
     9
100
AcDbLine
 10
-5440.000018557986
 20
-195.5001501134922
 30
0.0
 11
-4925.67460317461
 21
-195.5001501134922
 31
0.0
  0
LINE
  5
BF
330
1F
100
AcDbEntity
  8
0-A_文字
  6
Continuous
 62
     7
370
     9
100
AcDbLine
 10
-4925.67460317461
 20
-65.50015011349215
 30
0.0
 11
-4925.67460317461
 21
-195.5001501134922
 31
0.0
  0
LINE
  5
C0
330
1F
100
AcDbEntity
  8
0-A_文字
  6
Continuous
 62
     7
370
     9
100
AcDbLine
 10
-5440.000018557986
 20
-65.50015011349215
 30
0.0
 11
-4925.67460317461
 21
-65.50015011349215
 31
0.0
  0
MTEXT
  5
C1
330
1F
100
AcDbEntity
  8
0-A_文字
  6
Continuous
 62
     7
370
     9
100
AcDbMText
 10
-5385.337310866298
 20
-181.9239001134922
 30
0.0
 40
77.15249999999999
 41
405.0
 46
0.0
 71
     7
 72
     1
  1
{\fＭＳ ゴシック|b0|i0|c128|p49;ハイドア}
 73
     1
 44
1.0
  0
LINE
  5
C2
330
1F
100
AcDbEntity
  8
0-A_文字
  6
Continuous
 62
     7
370
     9
100
AcDbLine
 10
-2655.000269606307
 20
-55.50015011349217
 30
0.0
 11
-2120.674854222932
 21
-55.50015011349217
 31
0.0
  0
LINE
  5
C3
330
1F
100
AcDbEntity
  8
0-A_文字
  6
Continuous
 62
     7
370
     9
100
AcDbLine
 10
-2120.674854222932
 20
-55.50015011349217
 30
0.0
 11
-2120.674854222932
 21
-205.5001501134922
 31
0.0
  0
LINE
  5
C4
330
1F
100
AcDbEntity
  8
0-A_文字
  6
Continuous
 62
     7
370
     9
100
AcDbLine
 10
-2655.000269606307
 20
-205.5001501134922
 30
0.0
 11
-2120.674854222932
 21
-205.5001501134922
 31
0.0
  0
LINE
  5
C5
330
1F
100
AcDbEntity
  8
0-A_文字
  6
Continuous
 62
     7
370
     9
100
AcDbLine
 10
-2655.000269606307
 20
-55.50015011349217
 30
0.0
 11
-2655.000269606307
 21
-205.5001501134922
 31
0.0
  0
LINE
  5
C6
330
1F
100
AcDbEntity
  8
0-A_文字
  6
Continuous
 62
     7
370
     9
100
AcDbLine
 10
-2645.000269606307
 20
-65.50015011349215
 30
0.0
 11
-2645.000269606307
 21
-195.5001501134922
 31
0.0
  0
LINE
  5
C7
330
1F
100
AcDbEntity
  8
0-A_文字
  6
Continuous
 62
     7
370
     9
100
AcDbLine
 10
-2645.000269606307
 20
-195.5001501134922
 30
0.0
 11
-2130.674854222932
 21
-195.5001501134922
 31
0.0
  0
LINE
  5
C8
330
1F
100
AcDbEntity
  8
0-A_文字
  6
Continuous
 62
     7
370
     9
100
AcDbLine
 10
-2130.674854222932
 20
-65.50015011349215
 30
0.0
 11
-2130.674854222932
 21
-195.5001501134922
 31
0.0
  0
LINE
  5
C9
330
1F
100
AcDbEntity
  8
0-A_文字
  6
Continuous
 62
     7
370
     9
100
AcDbLine
 10
-2645.000269606307
 20
-65.50015011349215
 30
0.0
 11
-2130.674854222932
 21
-65.50015011349215
 31
0.0
  0
MTEXT
  5
CA
330
1F
100
AcDbEntity
  8
0-A_文字
  6
Continuous
 62
     7
370
     9
100
AcDbMText
 10
-2590.33756191462
 20
-181.9239001134922
 30
0.0
 40
77.15249999999999
 41
405.0
 46
0.0
 71
     7
 72
     1
  1
{\fＭＳ ゴシック|b0|i0|c128|p49;ハイドア}
 73
     1
 44
1.0
  0
MTEXT
  5
CB
330
1F
100
AcDbEntity
  8
F-A_文字
  6
Continuous
 62
     7
370
     0
100
AcDbMText
 10
4726.249126529666
 20
-3938.071010139966
 30
0.0
 40
78.86699999999999
 41
517.5
 46
0.0
 71
     7
 72
     1
  1
{\fＭＳ ゴシック|b0|i0|c128|p49;2021.04.01}
 73
     1
 44
1.0
  0
LINE
  5
CC
330
1F
100
AcDbEntity
  8
F-0_補助線
  6
JWW_HOJO
 62
   200
370
    20
100
AcDbLine
 10
-5999.99998453501
 20
4064.999901024072
 30
0.0
 11
5699.998762800888
 21
4064.999901024072
 31
0.0
  0
LINE
  5
CD
330
1F
100
AcDbEntity
  8
F-0_補助線
  6
JWW_HOJO
 62
   200
370
    20
100
AcDbLine
 10
-5999.99998453501
 20
84.49993236644843
 30
0.0
 11
5689.998977248734
 21
84.49993236644843
 31
0.0
  0
LINE
  5
CE
330
1F
100
AcDbEntity
  8
0-4_枠
  6
Continuous
 62
    92
370
    13
100
AcDbLine
 10
-1965.000269606306
 20
3423.000148463894
 30
0.0
 11
-381.0002696063077
 21
3423.000148463894
 31
0.0
  0
LINE
  5
CF
330
1F
100
AcDbEntity
  8
0-4_枠
  6
Continuous
 62
    92
370
    13
100
AcDbLine
 10
-4760.000018557985
 20
3423.000148463894
 30
0.0
 11
-2996.000018557986
 21
3423.000148463894
 31
0.0
  0
LINE
  5
D0
330
1F
100
AcDbEntity
  8
0-4_枠
  6
Continuous
 62
    92
370
    13
100
AcDbLine
 10
-4790.000018557985
 20
1418.000148463893
 30
0.0
 11
-4790.000018557985
 21
3453.000148463894
 31
0.0
  0
LINE
  5
D1
330
1F
100
AcDbEntity
  8
0-4_枠
  6
Continuous
 62
    92
370
    13
100
AcDbLine
 10
-2966.000018557986
 20
1418.000148463893
 30
0.0
 11
-2966.000018557986
 21
3453.000148463894
 31
0.0
  0
LINE
  5
D2
330
1F
100
AcDbEntity
  8
0-4_枠
  6
Continuous
 62
    92
370
    13
100
AcDbLine
 10
-4790.000018557985
 20
3453.000148463894
 30
0.0
 11
-2966.000018557986
 21
3453.000148463894
 31
0.0
  0
LINE
  5
D3
330
1F
100
AcDbEntity
  8
0-4_枠
  6
Continuous
 62
    92
370
    13
100
AcDbLine
 10
-1995.000269606306
 20
1418.000148463893
 30
0.0
 11
-1995.000269606306
 21
3453.000148463894
 31
0.0
  0
LINE
  5
D4
330
1F
100
AcDbEntity
  8
0-4_枠
  6
Continuous
 62
    92
370
    13
100
AcDbLine
 10
-351.0002696063077
 20
1418.000148463893
 30
0.0
 11
-351.0002696063077
 21
3453.000148463894
 31
0.0
  0
LINE
  5
D5
330
1F
100
AcDbEntity
  8
0-4_枠
  6
Continuous
 62
    92
370
    13
100
AcDbLine
 10
-1995.000269606306
 20
3453.000148463894
 30
0.0
 11
-351.0002696063077
 21
3453.000148463894
 31
0.0
  0
LINE
  5
D6
330
1F
100
AcDbEntity
  8
0-4_枠
  6
Continuous
 62
    92
370
    13
100
AcDbLine
 10
-4760.000018557985
 20
1418.000148463893
 30
0.0
 11
-4760.000018557985
 21
3453.000148463894
 31
0.0
  0
LINE
  5
D7
330
1F
100
AcDbEntity
  8
0-4_枠
  6
Continuous
 62
    92
370
    13
100
AcDbLine
 10
-1965.000269606306
 20
1418.000148463893
 30
0.0
 11
-1965.000269606306
 21
3453.000148463894
 31
0.0
  0
LINE
  5
D8
330
1F
100
AcDbEntity
  8
0-0_補助線
  6
JWW_HOJO
 62
     7
370
     9
100
AcDbLine
 10
-5490.000018557986
 20
3453.000148463894
 30
0.0
 11
5689.998977248734
 21
3453.000148463894
 31
0.0
  0
LINE
  5
D9
330
1F
100
AcDbEntity
  8
0-0_補助線
  6
JWW_HOJO
 62
     7
370
     9
100
AcDbLine
 10
-5490.000018557986
 20
-466.2500838202392
 30
0.0
 11
5699.998762800888
 21
-466.2500838202392
 31
0.0
  0
LINE
  5
DA
330
1F
100
AcDbEntity
  8
0-B_寸法
  6
Continuous
 62
   120
370
     5
100
AcDbLine
 10
-378.000269606307
 20
-2951.250083820241
 30
0.0
 11
-378.000269606307
 21
-2751.250083820241
 31
0.0
  0
LINE
  5
DB
330
1F
100
AcDbEntity
  8
0-B_寸法
  6
Continuous
 62
   120
370
     5
100
AcDbLine
 10
-1188.000269606307
 20
-2951.250083820241
 30
0.0
 11
-1188.000269606307
 21
-2751.250083820241
 31
0.0
  0
LINE
  5
DC
330
1F
100
AcDbEntity
  8
0-B_寸法
  6
Continuous
 62
   120
370
     5
100
AcDbLine
 10
-1188.000269606307
 20
-2951.250083820241
 30
0.0
 11
-378.000269606307
 21
-2951.250083820241
 31
0.0
  0
LWPOLYLINE
  5
DD
330
1F
100
AcDbEntity
  8
0-B_寸法
  6
Continuous
 62
     7
370
     9
100
AcDbPolyline
 90
        4
 70
     1
 43
3.0
 10
-376.500269606307
 20
-2951.250083820241
 42
0.4142135623731
 10
-378.000269606307
 20
-2949.750083820241
 42
0.4142135623731
 10
-379.500269606307
 20
-2951.250083820241
 42
0.4142135623731
 10
-378.000269606307
 20
-2952.750083820241
 42
0.4142135623731
  0
LWPOLYLINE
  5
DE
330
1F
100
AcDbEntity
  8
0-B_寸法
  6
Continuous
 62
     7
370
     9
100
AcDbPolyline
 90
        4
 70
     1
 43
3.0
 10
-1186.500269606307
 20
-2951.250083820241
 42
0.4142135623731
 10
-1188.000269606307
 20
-2949.750083820241
 42
0.4142135623731
 10
-1189.500269606307
 20
-2951.250083820241
 42
0.4142135623731
 10
-1188.000269606307
 20
-2952.750083820241
 42
0.4142135623731
  0
MTEXT
  5
DF
330
1F
100
AcDbEntity
  8
0-B_寸法
  6
Continuous
 62
     7
370
   211
100
AcDbMText
 10
-951.750269606307
 20
-2945.175083820242
 30
0.0
 40
57.15
 41
337.5
 46
0.0
 71
     7
 72
     1
  1
{\fＭＳ ゴシック|b0|i0|c128|p49;ＤＷ＝810}
 73
     1
 44
1.0
  0
LINE
  5
E0
330
1F
100
AcDbEntity
  8
0-B_寸法
  6
Continuous
 62
   120
370
     5
100
AcDbLine
 10
-3893.000018557989
 20
-2951.250083820241
 30
0.0
 11
-2993.000018557989
 21
-2951.250083820241
 31
0.0
  0
LINE
  5
E1
330
1F
100
AcDbEntity
  8
0-B_寸法
  6
Continuous
 62
   120
370
     5
100
AcDbLine
 10
-2993.000018557989
 20
-2951.250083820241
 30
0.0
 11
-2993.000018557989
 21
-2751.250083820241
 31
0.0
  0
LWPOLYLINE
  5
E2
330
1F
100
AcDbEntity
  8
0-B_寸法
  6
Continuous
 62
     7
370
     9
100
AcDbPolyline
 90
        4
 70
     1
 43
3.0
 10
-3891.500018557988
 20
-2951.250083820241
 42
0.4142135623731
 10
-3893.000018557989
 20
-2949.750083820241
 42
0.4142135623731
 10
-3894.500018557989
 20
-2951.250083820241
 42
0.4142135623731
 10
-3893.000018557989
 20
-2952.750083820241
 42
0.4142135623731
  0
LWPOLYLINE
  5
E3
330
1F
100
AcDbEntity
  8
0-B_寸法
  6
Continuous
 62
     7
370
     9
100
AcDbPolyline
 90
        4
 70
     1
 43
3.0
 10
-2991.500018557989
 20
-2951.250083820241
 42
0.4142135623731
 10
-2993.000018557989
 20
-2949.750083820241
 42
0.4142135623731
 10
-2994.500018557989
 20
-2951.250083820241
 42
0.4142135623731
 10
-2993.000018557989
 20
-2952.750083820241
 42
0.4142135623731
  0
MTEXT
  5
E4
330
1F
100
AcDbEntity
  8
0-B_寸法
  6
Continuous
 62
     7
370
   211
100
AcDbMText
 10
-3611.750018557989
 20
-2945.175083820241
 30
0.0
 40
57.15
 41
337.5
 46
0.0
 71
     7
 72
     1
  1
{\fＭＳ ゴシック|b0|i0|c128|p49;ＤＷ＝900}
 73
     1
 44
1.0
  0
LINE
  5
E5
330
1F
100
AcDbEntity
  8
0-B_寸法
  6
Continuous
 62
   120
370
     5
100
AcDbLine
 10
-3893.000018557989
 20
-2951.250083820241
 30
0.0
 11
-3893.000018557989
 21
-2751.250083820241
 31
0.0
  0
LINE
  5
E6
330
1F
100
AcDbEntity
  8
0-0_補助線
  6
JWW_HOJO
 62
   120
370
     5
100
AcDbLine
 10
-5999.99998453501
 20
790.5001831054697
 30
0.0
 11
5699.998762800888
 21
790.5001831054697
 31
0.0
  0
LINE
  5
E7
330
1F
100
AcDbEntity
  8
0-0_補助線
  6
JWW_HOJO
 62
   120
370
     5
100
AcDbLine
 10
5699.998762800888
 20
-3190.000017526988
 30
0.0
 11
-5999.99998453501
 21
-3190.000017526988
 31
0.0
  0
LINE
  5
E8
330
1F
100
AcDbEntity
  8
0-0_補助線
  6
JWW_HOJO
 62
   120
370
     5
100
AcDbLine
 10
5699.998762800888
 20
-3310.000017526988
 30
0.0
 11
-5999.99998453501
 21
-3310.000017526988
 31
0.0
  0
MTEXT
  5
E9
330
1F
100
AcDbEntity
  8
0-A_文字
  6
Continuous
 62
     7
370
     9
100
AcDbMText
 10
-5370.000018557986
 20
661.5754150803022
 30
0.0
 40
57.15000000000007
 41
975.0000000000017
 46
0.0
 71
     7
 72
     1
  1
{\fＭＳ ゴシック|b0|i0|c128|p49;枠外幅 1,824mm（DW=900mm）}
 73
     1
 44
1.0
  0
MTEXT
  5
EA
330
1F
100
AcDbEntity
  8
0-A_文字
  6
Continuous
 62
     7
370
     9
100
AcDbMText
 10
-5370.000018557986
 20
-3318.924785552163
 30
0.0
 40
57.15000000000008
 41
975.0000000000017
 46
0.0
 71
     7
 72
     1
  1
{\fＭＳ ゴシック|b0|i0|c128|p49;枠外幅 1,824mm（DW=900mm）}
 73
     1
 44
1.0
  0
MTEXT
  5
EB
330
1F
100
AcDbEntity
  8
0-A_文字
  6
Continuous
 62
     7
370
     9
100
AcDbMText
 10
-2575.000269606318
 20
661.5754150803027
 30
0.0
 40
57.15000000000117
 41
975.0000000000205
 46
0.0
 71
     7
 72
     1
  1
{\fＭＳ ゴシック|b0|i0|c128|p49;枠外幅 1,644mm（DW=810mm）}
 73
     1
 44
1.0
  0
MTEXT
  5
EC
330
1F
100
AcDbEntity
  8
0-A_文字
  6
Continuous
 62
     7
370
     9
100
AcDbMText
 10
-2575.000269606318
 20
-3318.924785552164
 30
0.0
 40
57.15000000000119
 41
975.0000000000205
 46
0.0
 71
     7
 72
     1
  1
{\fＭＳ ゴシック|b0|i0|c128|p49;枠外幅 1,644mm（DW=810mm）}
 73
     1
 44
1.0
  0
LINE
  5
ED
330
1F
100
AcDbEntity
  8
0-4_枠
  6
Continuous
 62
    92
370
    13
100
AcDbLine
 10
-1965.000269606306
 20
-2701.250083820241
 30
0.0
 11
-1995.000269606306
 21
-2701.250083820241
 31
0.0
  0
LINE
  5
EE
330
1F
100
AcDbEntity
  8
0-4_枠
  6
Continuous
 62
    92
370
    13
100
AcDbLine
 10
-351.0002696063077
 20
-2701.250083820241
 30
0.0
 11
-381.0002696063077
 21
-2701.250083820241
 31
0.0
  0
LINE
  5
EF
330
1F
100
AcDbEntity
  8
0-4_枠
  6
Continuous
 62
    92
370
    13
100
AcDbLine
 10
-4760.000018557985
 20
-2701.250083820241
 30
0.0
 11
-4790.000018557985
 21
-2701.250083820241
 31
0.0
  0
LINE
  5
F0
330
1F
100
AcDbEntity
  8
0-4_枠
  6
Continuous
 62
    92
370
    13
100
AcDbLine
 10
-2966.000018557986
 20
-2701.250083820241
 30
0.0
 11
-2996.000018557986
 21
-2701.250083820241
 31
0.0
  0
LINE
  5
F1
330
1F
100
AcDbEntity
  8
0-4_枠
  6
Continuous
 62
    92
370
    13
100
AcDbLine
 10
-1965.000269606306
 20
-496.2500838202405
 30
0.0
 11
-381.0002696063077
 21
-496.2500838202405
 31
0.0
  0
LINE
  5
F2
330
1F
100
AcDbEntity
  8
0-4_枠
  6
Continuous
 62
    92
370
    13
100
AcDbLine
 10
-1995.000269606306
 20
-2701.250083820241
 30
0.0
 11
-1995.000269606306
 21
-466.2500838202405
 31
0.0
  0
LINE
  5
F3
330
1F
100
AcDbEntity
  8
0-4_枠
  6
Continuous
 62
    92
370
    13
100
AcDbLine
 10
-351.0002696063077
 20
-2701.250083820241
 30
0.0
 11
-351.0002696063077
 21
-466.2500838202405
 31
0.0
  0
LINE
  5
F4
330
1F
100
AcDbEntity
  8
0-4_枠
  6
Continuous
 62
    92
370
    13
100
AcDbLine
 10
-1995.000269606306
 20
-466.2500838202405
 30
0.0
 11
-351.0002696063077
 21
-466.2500838202405
 31
0.0
  0
LINE
  5
F5
330
1F
100
AcDbEntity
  8
0-4_枠
  6
Continuous
 62
    92
370
    13
100
AcDbLine
 10
-1965.000269606306
 20
-2701.250083820241
 30
0.0
 11
-1965.000269606306
 21
-466.2500838202405
 31
0.0
  0
LINE
  5
F6
330
1F
100
AcDbEntity
  8
0-4_枠
  6
Continuous
 62
    92
370
    13
100
AcDbLine
 10
-4760.000018557985
 20
-496.2500838202401
 30
0.0
 11
-2996.000018557986
 21
-496.2500838202401
 31
0.0
  0
LINE
  5
F7
330
1F
100
AcDbEntity
  8
0-4_枠
  6
Continuous
 62
    92
370
    13
100
AcDbLine
 10
-4790.000018557985
 20
-2701.250083820241
 30
0.0
 11
-4790.000018557985
 21
-466.2500838202401
 31
0.0
  0
LINE
  5
F8
330
1F
100
AcDbEntity
  8
0-4_枠
  6
Continuous
 62
    92
370
    13
100
AcDbLine
 10
-2966.000018557986
 20
-2701.250083820241
 30
0.0
 11
-2966.000018557986
 21
-466.2500838202401
 31
0.0
  0
LINE
  5
F9
330
1F
100
AcDbEntity
  8
0-4_枠
  6
Continuous
 62
    92
370
    13
100
AcDbLine
 10
-4790.000018557985
 20
-466.2500838202401
 30
0.0
 11
-2966.000018557986
 21
-466.2500838202401
 31
0.0
  0
LINE
  5
FA
330
1F
100
AcDbEntity
  8
0-4_枠
  6
Continuous
 62
    92
370
    13
100
AcDbLine
 10
-4760.000018557985
 20
-2701.250083820241
 30
0.0
 11
-4760.000018557985
 21
-466.2500838202401
 31
0.0
  0
MTEXT
  5
FB
330
1F
100
AcDbEntity
  8
0-A_文字
  6
Continuous
 62
     7
370
     9
100
AcDbMText
 10
-4295.000144082149
 20
4013.576151024072
 30
0.0
 40
77.15249999999999
 41
405.0
 46
0.0
 71
     7
 72
     1
  1
{\fＭＳ ゴシック|b0|i0|c128|p49;Ｂ－ＲＨ}
 73
     1
 44
1.0
  0
MTEXT
  5
FC
330
1F
100
AcDbEntity
  8
0-A_文字
  6
Continuous
 62
     7
370
     9
100
AcDbMText
 10
-1500.000395130466
 20
4013.576151024072
 30
0.0
 40
77.15249999999999
 41
405.0
 46
0.0
 71
     7
 72
     1
  1
{\fＭＳ ゴシック|b0|i0|c128|p49;Ｂ－ＲＨ}
 73
     1
 44
1.0
  0
MTEXT
  5
FD
330
1F
100
AcDbEntity
  8
0-A_文字
  6
Continuous
 62
     7
370
     9
100
AcDbMText
 10
-4295.000144082149
 20
33.07618236644843
 30
0.0
 40
77.15249999999999
 41
405.0
 46
0.0
 71
     7
 72
     1
  1
{\fＭＳ ゴシック|b0|i0|c128|p49;Ｂ－ＲＨ}
 73
     1
 44
1.0
  0
MTEXT
  5
FE
330
1F
100
AcDbEntity
  8
0-A_文字
  6
Continuous
 62
     7
370
     9
100
AcDbMText
 10
-1500.000395130466
 20
33.07618236644843
 30
0.0
 40
77.15249999999999
 41
405.0
 46
0.0
 71
     7
 72
     1
  1
{\fＭＳ ゴシック|b0|i0|c128|p49;Ｂ－ＲＨ}
 73
     1
 44
1.0
  0
MTEXT
  5
FF
330
1F
100
AcDbEntity
  8
0-A_文字
  6
Continuous
 62
     7
370
     9
100
AcDbMText
 10
-5370.000018557987
 20
541.5751831054688
 30
0.0
 40
57.15000000000012
 41
825.0000000000017
 46
0.0
 71
     7
 72
     1
  1
{\fＭＳ ゴシック|b0|i0|c128|p49;熱処理ストライプガラス}
 73
     1
 44
1.0
  0
MTEXT
  5
100
330
1F
100
AcDbEntity
  8
0-A_文字
  6
Continuous
 62
     7
370
     9
100
AcDbMText
 10
-2575.000269606308
 20
541.5751831054688
 30
0.0
 40
57.15000000000006
 41
825.0000000000009
 46
0.0
 71
     7
 72
     1
  1
{\fＭＳ ゴシック|b0|i0|c128|p49;熱処理ストライプガラス}
 73
     1
 44
1.0
  0
MTEXT
  5
101
330
1F
100
AcDbEntity
  8
0-A_文字
  6
Continuous
 62
     7
370
     9
100
AcDbMText
 10
-2575.000269606308
 20
-3438.925017526988
 30
0.0
 40
57.15000000000006
 41
825.0000000000009
 46
0.0
 71
     7
 72
     1
  1
{\fＭＳ ゴシック|b0|i0|c128|p49;熱処理ストライプガラス}
 73
     1
 44
1.0
  0
MTEXT
  5
102
330
1F
100
AcDbEntity
  8
0-A_文字
  6
Continuous
 62
     7
370
     9
100
AcDbMText
 10
-5370.000018557987
 20
-3438.925017526988
 30
0.0
 40
57.15000000000012
 41
825.0000000000017
 46
0.0
 71
     7
 72
     1
  1
{\fＭＳ ゴシック|b0|i0|c128|p49;熱処理ストライプガラス}
 73
     1
 44
1.0
  0
MTEXT
  5
103
330
1F
100
AcDbEntity
  8
F-A_文字
  6
Continuous
 62
     7
370
     0
100
AcDbMText
 10
-5247.547376752838
 20
-4045.254708805664
 30
0.0
 40
79.49045454545455
 41
2295.0
 46
0.0
 71
     7
 72
     1
  1
{\fＭＳ ゴシック|b0|i0|c128|p49;ドレタス　引き違い戸　レールタイプ　Ｂ－ＲＨ}
 73
     1
 44
1.0
  0
LINE
  5
104
330
1F
100
AcDbEntity
  8
0-B_寸法
  6
Continuous
 62
   120
370
     5
100
AcDbLine
 10
-5090.000018557985
 20
1426.000148463893
 30
0.0
 11
-4840.000018557987
 21
1426.000148463893
 31
0.0
  0
LWPOLYLINE
  5
105
330
1F
100
AcDbEntity
  8
0-B_寸法
  6
Continuous
 62
     7
370
     9
100
AcDbPolyline
 90
        4
 70
     1
 43
3.0
 10
-5088.500018557985
 20
1426.000148463893
 42
0.4142135623731
 10
-5090.000018557985
 20
1427.500148463893
 42
0.4142135623731
 10
-5091.500018557985
 20
1426.000148463893
 42
0.4142135623731
 10
-5090.000018557985
 20
1424.500148463893
 42
0.4142135623731
  0
LINE
  5
106
330
1F
100
AcDbEntity
  8
0-B_寸法
  6
Continuous
 62
   120
370
     5
100
AcDbLine
 10
-5090.000018557985
 20
3409.000148463893
 30
0.0
 11
-4840.000018557987
 21
3409.000148463893
 31
0.0
  0
LWPOLYLINE
  5
107
330
1F
100
AcDbEntity
  8
0-B_寸法
  6
Continuous
 62
     7
370
     9
100
AcDbPolyline
 90
        4
 70
     1
 43
3.0
 10
-5088.500018557985
 20
3409.000148463893
 42
0.4142135623731
 10
-5090.000018557985
 20
3410.500148463893
 42
0.4142135623731
 10
-5091.500018557985
 20
3409.000148463893
 42
0.4142135623731
 10
-5090.000018557985
 20
3407.500148463893
 42
0.4142135623731
  0
LINE
  5
108
330
1F
100
AcDbEntity
  8
0-B_寸法
  6
Continuous
 62
   120
370
     5
100
AcDbLine
 10
-5090.000018557985
 20
3409.000148463893
 30
0.0
 11
-5090.000018557985
 21
1426.000148463893
 31
0.0
  0
LINE
  5
109
330
1F
100
AcDbEntity
  8
0-B_寸法
  6
Continuous
 62
   120
370
     5
100
AcDbLine
 10
-2295.000269606307
 20
1426.000148463893
 30
0.0
 11
-2045.000269606307
 21
1426.000148463893
 31
0.0
  0
LWPOLYLINE
  5
10A
330
1F
100
AcDbEntity
  8
0-B_寸法
  6
Continuous
 62
     7
370
     9
100
AcDbPolyline
 90
        4
 70
     1
 43
3.0
 10
-2293.500269606307
 20
1426.000148463893
 42
0.4142135623731
 10
-2295.000269606307
 20
1427.500148463893
 42
0.4142135623731
 10
-2296.500269606306
 20
1426.000148463893
 42
0.4142135623731
 10
-2295.000269606307
 20
1424.500148463893
 42
0.4142135623731
  0
LINE
  5
10B
330
1F
100
AcDbEntity
  8
0-4_枠
  6
Continuous
 62
    92
370
    13
100
AcDbLine
 10
-2996.000018557986
 20
1426.20492745673
 30
0.0
 11
-2996.000018557986
 21
1426.537913266388
 31
0.0
  0
LINE
  5
10C
330
1F
100
AcDbEntity
  8
0-2_扉
  6
JWW_DASHED1
 62
   120
370
     5
100
AcDbLine
 10
-3863.000018557986
 20
1426.000148463893
 30
0.0
 11
-3863.000018557986
 21
3409.000148463893
 31
0.0
  0
LINE
  5
10D
330
1F
100
AcDbEntity
  8
0-2_扉
  6
JWW_DASHED1
 62
   120
370
     5
100
AcDbLine
 10
-4763.000018557986
 20
3409.000148463893
 30
0.0
 11
-4763.000018557986
 21
1426.000148463893
 31
0.0
  0
LINE
  5
10E
330
1F
100
AcDbEntity
  8
0-2_扉
  6
JWW_DASHED1
 62
   120
370
     5
100
AcDbLine
 10
-2993.000018557989
 20
3409.000148463893
 30
0.0
 11
-2993.000018557989
 21
1426.000148463893
 31
0.0
  0
LINE
  5
10F
330
1F
100
AcDbEntity
  8
0-2_扉
  6
JWW_DASHED1
 62
   120
370
     5
100
AcDbLine
 10
-4760.000018557985
 20
3409.000148463893
 30
0.0
 11
-4763.000018557986
 21
3409.000148463893
 31
0.0
  0
LINE
  5
110
330
1F
100
AcDbEntity
  8
0-2_扉
  6
JWW_DASHED1
 62
   120
370
     5
100
AcDbLine
 10
-4763.000018557986
 20
1426.000148463893
 30
0.0
 11
-4760.000018557985
 21
1426.000148463893
 31
0.0
  0
LINE
  5
111
330
1F
100
AcDbEntity
  8
0-2_扉
  6
JWW_DASHED1
 62
   120
370
     5
100
AcDbLine
 10
-2993.000018557989
 20
1426.000148463893
 30
0.0
 11
-2996.000018557986
 21
1426.000148463893
 31
0.0
  0
LINE
  5
112
330
1F
100
AcDbEntity
  8
0-2_扉
  6
JWW_DASHED1
 62
   120
370
     5
100
AcDbLine
 10
-2996.000018557986
 20
3409.000148463893
 30
0.0
 11
-2993.000018557989
 21
3409.000148463893
 31
0.0
  0
LINE
  5
113
330
1F
100
AcDbEntity
  8
0-2_扉
  6
JWW_DASHED1
 62
   120
370
     5
100
AcDbLine
 10
-1968.000269606307
 20
3409.000148463893
 30
0.0
 11
-1968.000269606307
 21
1426.000148463893
 31
0.0
  0
LINE
  5
114
330
1F
100
AcDbEntity
  8
0-2_扉
  6
JWW_DASHED1
 62
   120
370
     5
100
AcDbLine
 10
-1965.000269606306
 20
3409.000148463893
 30
0.0
 11
-1968.000269606307
 21
3409.000148463893
 31
0.0
  0
LINE
  5
115
330
1F
100
AcDbEntity
  8
0-2_扉
  6
JWW_DASHED1
 62
   120
370
     5
100
AcDbLine
 10
-1968.000269606307
 20
1426.000148463893
 30
0.0
 11
-1965.000269606306
 21
1426.000148463893
 31
0.0
  0
LINE
  5
116
330
1F
100
AcDbEntity
  8
0-4_枠
  6
Continuous
 62
    92
370
    13
100
AcDbLine
 10
-381.0002696063077
 20
1426.20492745673
 30
0.0
 11
-381.0002696063077
 21
1426.537913266388
 31
0.0
  0
LINE
  5
117
330
1F
100
AcDbEntity
  8
0-2_扉
  6
JWW_DASHED1
 62
   120
370
     5
100
AcDbLine
 10
-378.000269606307
 20
3409.000148463893
 30
0.0
 11
-378.000269606307
 21
1426.000148463893
 31
0.0
  0
LINE
  5
118
330
1F
100
AcDbEntity
  8
0-2_扉
  6
JWW_DASHED1
 62
   120
370
     5
100
AcDbLine
 10
-378.000269606307
 20
1426.000148463893
 30
0.0
 11
-381.0002696063077
 21
1426.000148463893
 31
0.0
  0
LINE
  5
119
330
1F
100
AcDbEntity
  8
0-2_扉
  6
JWW_DASHED1
 62
   120
370
     5
100
AcDbLine
 10
-381.0002696063077
 20
3409.000148463893
 30
0.0
 11
-378.000269606307
 21
3409.000148463893
 31
0.0
  0
LINE
  5
11A
330
1F
100
AcDbEntity
  8
0-2_扉
  6
JWW_DASHED1
 62
   120
370
     5
100
AcDbLine
 10
-1158.000269606305
 20
1426.000148463893
 30
0.0
 11
-1158.000269606305
 21
3409.000148463893
 31
0.0
  0
LINE
  5
11B
330
1F
100
AcDbEntity
  8
0-B_寸法
  6
Continuous
 62
   120
370
     5
100
AcDbLine
 10
-2295.000269606307
 20
3409.000148463893
 30
0.0
 11
-2045.000269606307
 21
3409.000148463893
 31
0.0
  0
LINE
  5
11C
330
1F
100
AcDbEntity
  8
0-B_寸法
  6
Continuous
 62
   120
370
     5
100
AcDbLine
 10
-2295.000269606307
 20
3409.000148463893
 30
0.0
 11
-2295.000269606307
 21
1426.000148463893
 31
0.0
  0
LWPOLYLINE
  5
11D
330
1F
100
AcDbEntity
  8
0-B_寸法
  6
Continuous
 62
     7
370
     9
100
AcDbPolyline
 90
        4
 70
     1
 43
3.0
 10
-2293.500269606307
 20
3409.000148463893
 42
0.4142135623731
 10
-2295.000269606307
 20
3410.500148463893
 42
0.4142135623731
 10
-2296.500269606306
 20
3409.000148463893
 42
0.4142135623731
 10
-2295.000269606307
 20
3407.500148463893
 42
0.4142135623731
  0
LINE
  5
11E
330
1F
100
AcDbEntity
  8
0-4_枠
  6
Continuous
 62
    92
370
    13
100
AcDbLine
 10
-2996.000018557986
 20
1418.000148463893
 30
0.0
 11
-2996.000018557986
 21
1426.20492745673
 31
0.0
  0
LINE
  5
11F
330
1F
100
AcDbEntity
  8
0-4_枠
  6
Continuous
 62
    92
370
    13
100
AcDbLine
 10
-381.0002696063077
 20
1418.000148463893
 30
0.0
 11
-381.0002696063077
 21
1426.20492745673
 31
0.0
  0
MTEXT
  5
120
330
1F
100
AcDbEntity
  8
0-B_寸法
  6
Continuous
 62
     7
370
    70
100
AcDbMText
 10
-5105.000018557985
 20
2199.325148463894
 30
0.0
 40
57.14999999999999
 41
412.5
 46
0.0
 71
     7
 72
     1
  1
{\fＭＳ ゴシック|b0|i0|c128|p49;ＤＨ＝1,983}
 11
6.123031769111886E-17
 21
1.0
 31
0.0
 73
     1
 44
1.0
  0
MTEXT
  5
121
330
1F
100
AcDbEntity
  8
0-B_寸法
  6
Continuous
 62
     7
370
    70
100
AcDbMText
 10
-2310.000269606307
 20
2199.325148463894
 30
0.0
 40
57.14999999999999
 41
412.5
 46
0.0
 71
     7
 72
     1
  1
{\fＭＳ ゴシック|b0|i0|c128|p49;ＤＨ＝1,983}
 11
6.123031769111886E-17
 21
1.0
 31
0.0
 73
     1
 44
1.0
  0
LINE
  5
122
330
1F
100
AcDbEntity
  8
0-4_枠
  6
Continuous
 62
    92
370
    13
100
AcDbLine
 10
-2996.000018557986
 20
1426.537913266388
 30
0.0
 11
-2996.000018557986
 21
3453.000148463894
 31
0.0
  0
LINE
  5
123
330
1F
100
AcDbEntity
  8
0-4_枠
  6
Continuous
 62
    92
370
    13
100
AcDbLine
 10
-381.0002696063077
 20
1426.537913266388
 30
0.0
 11
-381.0002696063077
 21
3453.000148463894
 31
0.0
  0
LINE
  5
124
330
1F
100
AcDbEntity
  8
引手
  6
JWW_CENTER1
 62
     7
370
     9
100
AcDbLine
 10
-3005.925852756666
 20
2383.500148463892
 30
0.0
 11
-3078.435549365827
 21
2383.500148463892
 31
0.0
  0
LINE
  5
125
330
1F
100
AcDbEntity
  8
引手
  6
JWW_CENTER1
 62
     7
370
     9
100
AcDbLine
 10
-3044.00001855799
 20
2298.269479928369
 30
0.0
 11
-3044.00001855799
 21
2469.119751352504
 31
0.0
  0
LINE
  5
126
330
1F
100
AcDbEntity
  8
引手
  6
JWW_DASHED1
 62
     7
370
     9
100
AcDbLine
 10
-3060.000018557989
 20
2332.500148463893
 30
0.0
 11
-3060.000018557989
 21
2434.500148463893
 31
0.0
  0
LINE
  5
127
330
1F
100
AcDbEntity
  8
引手
  6
JWW_DASHED1
 62
     7
370
     9
100
AcDbLine
 10
-3028.000018557991
 20
2332.500148463893
 30
0.0
 11
-3060.000018557989
 21
2332.500148463893
 31
0.0
  0
LINE
  5
128
330
1F
100
AcDbEntity
  8
引手
  6
JWW_DASHED1
 62
     7
370
     9
100
AcDbLine
 10
-3028.000018557991
 20
2332.500148463893
 30
0.0
 11
-3028.000018557991
 21
2434.500148463893
 31
0.0
  0
LINE
  5
129
330
1F
100
AcDbEntity
  8
引手
  6
JWW_DASHED1
 62
     7
370
     9
100
AcDbLine
 10
-3028.000018557991
 20
2434.500148463893
 30
0.0
 11
-3060.000018557989
 21
2434.500148463893
 31
0.0
  0
LINE
  5
12A
330
1F
100
AcDbEntity
  8
引手
  6
Continuous
 62
     7
370
     9
100
AcDbLine
 10
-3025.00001855799
 20
2328.500148463893
 30
0.0
 11
-3063.000018557991
 21
2328.500148463893
 31
0.0
  0
LINE
  5
12B
330
1F
100
AcDbEntity
  8
引手
  6
Continuous
 62
     7
370
     9
100
AcDbLine
 10
-3031.500018557991
 20
2344.500148463893
 30
0.0
 11
-3056.50001855799
 21
2344.500148463893
 31
0.0
  0
LINE
  5
12C
330
1F
100
AcDbEntity
  8
引手
  6
Continuous
 62
     7
370
     9
100
AcDbLine
 10
-3031.500018557991
 20
2422.500148463893
 30
0.0
 11
-3056.50001855799
 21
2422.500148463893
 31
0.0
  0
LINE
  5
12D
330
1F
100
AcDbEntity
  8
引手
  6
Continuous
 62
     7
370
     9
100
AcDbLine
 10
-3025.00001855799
 20
2438.500148463893
 30
0.0
 11
-3063.000018557991
 21
2438.500148463893
 31
0.0
  0
LINE
  5
12E
330
1F
100
AcDbEntity
  8
引手
  6
Continuous
 62
     7
370
     9
100
AcDbLine
 10
-3025.00001855799
 20
2328.500148463893
 30
0.0
 11
-3025.00001855799
 21
2438.500148463893
 31
0.0
  0
LINE
  5
12F
330
1F
100
AcDbEntity
  8
引手
  6
Continuous
 62
     7
370
     9
100
AcDbLine
 10
-3031.500018557991
 20
2344.500148463893
 30
0.0
 11
-3031.500018557991
 21
2422.500148463893
 31
0.0
  0
LINE
  5
130
330
1F
100
AcDbEntity
  8
引手
  6
Continuous
 62
     7
370
     9
100
AcDbLine
 10
-3056.50001855799
 20
2344.500148463893
 30
0.0
 11
-3056.50001855799
 21
2422.500148463893
 31
0.0
  0
LINE
  5
131
330
1F
100
AcDbEntity
  8
引手
  6
Continuous
 62
     7
370
     9
100
AcDbLine
 10
-3063.000018557991
 20
2328.500148463893
 30
0.0
 11
-3063.000018557991
 21
2438.500148463893
 31
0.0
  0
LINE
  5
132
330
1F
100
AcDbEntity
  8
引手
  6
JWW_CENTER1
 62
     7
370
     9
100
AcDbLine
 10
-390.9261038049843
 20
2383.500148463892
 30
0.0
 11
-463.4358004141453
 21
2383.500148463892
 31
0.0
  0
LINE
  5
133
330
1F
100
AcDbEntity
  8
引手
  6
JWW_CENTER1
 62
     7
370
     9
100
AcDbLine
 10
-429.0002696063084
 20
2298.269479928369
 30
0.0
 11
-429.0002696063084
 21
2469.119751352504
 31
0.0
  0
LINE
  5
134
330
1F
100
AcDbEntity
  8
引手
  6
JWW_DASHED1
 62
     7
370
     9
100
AcDbLine
 10
-445.0002696063075
 20
2332.500148463893
 30
0.0
 11
-445.0002696063075
 21
2434.500148463893
 31
0.0
  0
LINE
  5
135
330
1F
100
AcDbEntity
  8
引手
  6
JWW_DASHED1
 62
     7
370
     9
100
AcDbLine
 10
-413.0002696063093
 20
2332.500148463893
 30
0.0
 11
-445.0002696063075
 21
2332.500148463893
 31
0.0
  0
LINE
  5
136
330
1F
100
AcDbEntity
  8
引手
  6
JWW_DASHED1
 62
     7
370
     9
100
AcDbLine
 10
-413.0002696063093
 20
2332.500148463893
 30
0.0
 11
-413.0002696063093
 21
2434.500148463893
 31
0.0
  0
LINE
  5
137
330
1F
100
AcDbEntity
  8
引手
  6
JWW_DASHED1
 62
     7
370
     9
100
AcDbLine
 10
-413.0002696063093
 20
2434.500148463893
 30
0.0
 11
-445.0002696063075
 21
2434.500148463893
 31
0.0
  0
LINE
  5
138
330
1F
100
AcDbEntity
  8
引手
  6
Continuous
 62
     7
370
     9
100
AcDbLine
 10
-410.0002696063078
 20
2328.500148463893
 30
0.0
 11
-448.000269606309
 21
2328.500148463893
 31
0.0
  0
LINE
  5
139
330
1F
100
AcDbEntity
  8
引手
  6
Continuous
 62
     7
370
     9
100
AcDbLine
 10
-416.5002696063087
 20
2344.500148463893
 30
0.0
 11
-441.5002696063081
 21
2344.500148463893
 31
0.0
  0
LINE
  5
13A
330
1F
100
AcDbEntity
  8
引手
  6
Continuous
 62
     7
370
     9
100
AcDbLine
 10
-416.5002696063087
 20
2422.500148463893
 30
0.0
 11
-441.5002696063081
 21
2422.500148463893
 31
0.0
  0
LINE
  5
13B
330
1F
100
AcDbEntity
  8
引手
  6
Continuous
 62
     7
370
     9
100
AcDbLine
 10
-410.0002696063078
 20
2438.500148463893
 30
0.0
 11
-448.000269606309
 21
2438.500148463893
 31
0.0
  0
LINE
  5
13C
330
1F
100
AcDbEntity
  8
引手
  6
Continuous
 62
     7
370
     9
100
AcDbLine
 10
-410.0002696063078
 20
2328.500148463893
 30
0.0
 11
-410.0002696063078
 21
2438.500148463893
 31
0.0
  0
LINE
  5
13D
330
1F
100
AcDbEntity
  8
引手
  6
Continuous
 62
     7
370
     9
100
AcDbLine
 10
-416.5002696063087
 20
2344.500148463893
 30
0.0
 11
-416.5002696063087
 21
2422.500148463893
 31
0.0
  0
LINE
  5
13E
330
1F
100
AcDbEntity
  8
引手
  6
Continuous
 62
     7
370
     9
100
AcDbLine
 10
-441.5002696063081
 20
2344.500148463893
 30
0.0
 11
-441.5002696063081
 21
2422.500148463893
 31
0.0
  0
LINE
  5
13F
330
1F
100
AcDbEntity
  8
引手
  6
Continuous
 62
     7
370
     9
100
AcDbLine
 10
-448.000269606309
 20
2328.500148463893
 30
0.0
 11
-448.000269606309
 21
2438.500148463893
 31
0.0
  0
LINE
  5
140
330
1F
100
AcDbEntity
  8
引手
  6
JWW_CENTER1
 62
     7
370
     9
100
AcDbLine
 10
-4750.074184359308
 20
2383.500148463892
 30
0.0
 11
-4677.564487750147
 21
2383.500148463892
 31
0.0
  0
LINE
  5
141
330
1F
100
AcDbEntity
  8
引手
  6
JWW_CENTER1
 62
     7
370
     9
100
AcDbLine
 10
-4712.000018557984
 20
2298.269479928369
 30
0.0
 11
-4712.000018557984
 21
2469.119751352504
 31
0.0
  0
LINE
  5
142
330
1F
100
AcDbEntity
  8
引手
  6
JWW_DASHED1
 62
     7
370
     9
100
AcDbLine
 10
-4696.000018557985
 20
2332.500148463893
 30
0.0
 11
-4696.000018557985
 21
2434.500148463893
 31
0.0
  0
LINE
  5
143
330
1F
100
AcDbEntity
  8
引手
  6
JWW_DASHED1
 62
     7
370
     9
100
AcDbLine
 10
-4728.000018557983
 20
2332.500148463893
 30
0.0
 11
-4696.000018557985
 21
2332.500148463893
 31
0.0
  0
LINE
  5
144
330
1F
100
AcDbEntity
  8
引手
  6
JWW_DASHED1
 62
     7
370
     9
100
AcDbLine
 10
-4728.000018557983
 20
2332.500148463893
 30
0.0
 11
-4728.000018557983
 21
2434.500148463893
 31
0.0
  0
LINE
  5
145
330
1F
100
AcDbEntity
  8
引手
  6
JWW_DASHED1
 62
     7
370
     9
100
AcDbLine
 10
-4728.000018557983
 20
2434.500148463893
 30
0.0
 11
-4696.000018557985
 21
2434.500148463893
 31
0.0
  0
LINE
  5
146
330
1F
100
AcDbEntity
  8
引手
  6
Continuous
 62
     7
370
     9
100
AcDbLine
 10
-4731.000018557985
 20
2328.500148463893
 30
0.0
 11
-4693.000018557984
 21
2328.500148463893
 31
0.0
  0
LINE
  5
147
330
1F
100
AcDbEntity
  8
引手
  6
Continuous
 62
     7
370
     9
100
AcDbLine
 10
-4724.500018557984
 20
2344.500148463893
 30
0.0
 11
-4699.500018557985
 21
2344.500148463893
 31
0.0
  0
LINE
  5
148
330
1F
100
AcDbEntity
  8
引手
  6
Continuous
 62
     7
370
     9
100
AcDbLine
 10
-4724.500018557984
 20
2422.500148463893
 30
0.0
 11
-4699.500018557985
 21
2422.500148463893
 31
0.0
  0
LINE
  5
149
330
1F
100
AcDbEntity
  8
引手
  6
Continuous
 62
     7
370
     9
100
AcDbLine
 10
-4731.000018557985
 20
2438.500148463893
 30
0.0
 11
-4693.000018557984
 21
2438.500148463893
 31
0.0
  0
LINE
  5
14A
330
1F
100
AcDbEntity
  8
引手
  6
Continuous
 62
     7
370
     9
100
AcDbLine
 10
-4731.000018557985
 20
2328.500148463893
 30
0.0
 11
-4731.000018557985
 21
2438.500148463893
 31
0.0
  0
LINE
  5
14B
330
1F
100
AcDbEntity
  8
引手
  6
Continuous
 62
     7
370
     9
100
AcDbLine
 10
-4724.500018557984
 20
2344.500148463893
 30
0.0
 11
-4724.500018557984
 21
2422.500148463893
 31
0.0
  0
LINE
  5
14C
330
1F
100
AcDbEntity
  8
引手
  6
Continuous
 62
     7
370
     9
100
AcDbLine
 10
-4699.500018557985
 20
2344.500148463893
 30
0.0
 11
-4699.500018557985
 21
2422.500148463893
 31
0.0
  0
LINE
  5
14D
330
1F
100
AcDbEntity
  8
引手
  6
Continuous
 62
     7
370
     9
100
AcDbLine
 10
-4693.000018557984
 20
2328.500148463893
 30
0.0
 11
-4693.000018557984
 21
2438.500148463893
 31
0.0
  0
LINE
  5
14E
330
1F
100
AcDbEntity
  8
引手
  6
JWW_CENTER1
 62
     7
370
     9
100
AcDbLine
 10
-1955.07443540763
 20
2383.500148463892
 30
0.0
 11
-1882.564738798469
 21
2383.500148463892
 31
0.0
  0
LINE
  5
14F
330
1F
100
AcDbEntity
  8
引手
  6
JWW_CENTER1
 62
     7
370
     9
100
AcDbLine
 10
-1917.000269606306
 20
2298.269479928369
 30
0.0
 11
-1917.000269606306
 21
2469.119751352504
 31
0.0
  0
LINE
  5
150
330
1F
100
AcDbEntity
  8
引手
  6
JWW_DASHED1
 62
     7
370
     9
100
AcDbLine
 10
-1901.000269606307
 20
2332.500148463893
 30
0.0
 11
-1901.000269606307
 21
2434.500148463893
 31
0.0
  0
LINE
  5
151
330
1F
100
AcDbEntity
  8
引手
  6
JWW_DASHED1
 62
     7
370
     9
100
AcDbLine
 10
-1933.000269606305
 20
2332.500148463893
 30
0.0
 11
-1901.000269606307
 21
2332.500148463893
 31
0.0
  0
LINE
  5
152
330
1F
100
AcDbEntity
  8
引手
  6
JWW_DASHED1
 62
     7
370
     9
100
AcDbLine
 10
-1933.000269606305
 20
2332.500148463893
 30
0.0
 11
-1933.000269606305
 21
2434.500148463893
 31
0.0
  0
LINE
  5
153
330
1F
100
AcDbEntity
  8
引手
  6
JWW_DASHED1
 62
     7
370
     9
100
AcDbLine
 10
-1933.000269606305
 20
2434.500148463893
 30
0.0
 11
-1901.000269606307
 21
2434.500148463893
 31
0.0
  0
LINE
  5
154
330
1F
100
AcDbEntity
  8
引手
  6
Continuous
 62
     7
370
     9
100
AcDbLine
 10
-1936.000269606306
 20
2328.500148463893
 30
0.0
 11
-1898.000269606305
 21
2328.500148463893
 31
0.0
  0
LINE
  5
155
330
1F
100
AcDbEntity
  8
引手
  6
Continuous
 62
     7
370
     9
100
AcDbLine
 10
-1929.500269606305
 20
2344.500148463893
 30
0.0
 11
-1904.500269606306
 21
2344.500148463893
 31
0.0
  0
LINE
  5
156
330
1F
100
AcDbEntity
  8
引手
  6
Continuous
 62
     7
370
     9
100
AcDbLine
 10
-1929.500269606305
 20
2422.500148463893
 30
0.0
 11
-1904.500269606306
 21
2422.500148463893
 31
0.0
  0
LINE
  5
157
330
1F
100
AcDbEntity
  8
引手
  6
Continuous
 62
     7
370
     9
100
AcDbLine
 10
-1936.000269606306
 20
2438.500148463893
 30
0.0
 11
-1898.000269606305
 21
2438.500148463893
 31
0.0
  0
LINE
  5
158
330
1F
100
AcDbEntity
  8
引手
  6
Continuous
 62
     7
370
     9
100
AcDbLine
 10
-1936.000269606306
 20
2328.500148463893
 30
0.0
 11
-1936.000269606306
 21
2438.500148463893
 31
0.0
  0
LINE
  5
159
330
1F
100
AcDbEntity
  8
引手
  6
Continuous
 62
     7
370
     9
100
AcDbLine
 10
-1929.500269606305
 20
2344.500148463893
 30
0.0
 11
-1929.500269606305
 21
2422.500148463893
 31
0.0
  0
LINE
  5
15A
330
1F
100
AcDbEntity
  8
引手
  6
Continuous
 62
     7
370
     9
100
AcDbLine
 10
-1904.500269606306
 20
2344.500148463893
 30
0.0
 11
-1904.500269606306
 21
2422.500148463893
 31
0.0
  0
LINE
  5
15B
330
1F
100
AcDbEntity
  8
引手
  6
Continuous
 62
     7
370
     9
100
AcDbLine
 10
-1898.000269606305
 20
2328.500148463893
 30
0.0
 11
-1898.000269606305
 21
2438.500148463893
 31
0.0
  0
LINE
  5
15C
330
1F
100
AcDbEntity
  8
0-2_扉
  6
JWW_DASHED1
 62
   120
370
     5
100
AcDbLine
 10
-3893.000018557989
 20
3409.000148463893
 30
0.0
 11
-3893.000018557989
 21
3405.000148463893
 31
0.0
  0
LINE
  5
15D
330
1F
100
AcDbEntity
  8
0-2_扉
  6
JWW_DASHED1
 62
   120
370
     5
100
AcDbLine
 10
-3863.000018557984
 20
3409.000148463893
 30
0.0
 11
-3863.000018557984
 21
3405.000148463893
 31
0.0
  0
LINE
  5
15E
330
1F
100
AcDbEntity
  8
0-2_扉
  6
JWW_DASHED1
 62
   120
370
     5
100
AcDbLine
 10
-1188.000269606307
 20
3409.000148463893
 30
0.0
 11
-1188.000269606307
 21
3405.000148463893
 31
0.0
  0
LINE
  5
15F
330
1F
100
AcDbEntity
  8
0-2_扉
  6
JWW_DASHED1
 62
   120
370
     5
100
AcDbLine
 10
-1158.000269606306
 20
3409.000148463893
 30
0.0
 11
-1158.000269606306
 21
3405.000148463893
 31
0.0
  0
LINE
  5
160
330
1F
100
AcDbEntity
  8
0-2_扉
  6
Continuous
 62
     7
370
     9
100
AcDbLine
 10
-1188.000220118343
 20
3409.00019547746
 30
0.0
 11
-1188.000220118343
 21
1426.000148463893
 31
0.0
  0
LINE
  5
161
330
1F
100
AcDbEntity
  8
0-2_扉
  6
Continuous
 62
     7
370
     9
100
AcDbLine
 10
-1084.500269606307
 20
1426.000148463893
 30
0.0
 11
-1084.500269606307
 21
3409.000257337415
 31
0.0
  0
LINE
  5
162
330
1F
100
AcDbEntity
  8
0-2_扉
  6
Continuous
 62
     7
370
     9
100
AcDbLine
 10
-481.5002201183422
 20
1426.000148463893
 30
0.0
 11
-481.5002201183422
 21
3409.000257337415
 31
0.0
  0
LINE
  5
163
330
1F
100
AcDbEntity
  8
0-2_扉
  6
Continuous
 62
     7
370
     9
100
AcDbLine
 10
-1069.500220118342
 20
1576.000148463893
 30
0.0
 11
-1084.500022166484
 21
1561.000098975929
 31
0.0
  0
LINE
  5
164
330
1F
100
AcDbEntity
  8
0-2_扉
  6
Continuous
 62
     7
370
     9
100
AcDbLine
 10
-1029.500088150437
 20
1616.000094851932
 30
0.0
 11
-1029.500088150437
 21
1617.431163066142
 31
0.0
  0
LINE
  5
165
330
1F
100
AcDbEntity
  8
0-2_扉
  6
Continuous
 62
     7
370
     9
100
AcDbLine
 10
-1029.500088150437
 20
1616.000094851932
 30
0.0
 11
-1047.177683959136
 21
1598.322437183277
 31
0.0
  0
LINE
  5
166
330
1F
100
AcDbEntity
  8
0-2_扉
  6
Continuous
 62
     7
370
     9
100
AcDbLine
 10
-1084.500022166484
 20
2214.00022269584
 30
0.0
 11
-1069.500220118342
 21
2229.000148463893
 31
0.0
  0
LINE
  5
167
330
1F
100
AcDbEntity
  8
0-2_扉
  6
Continuous
 62
     7
370
     9
100
AcDbLine
 10
-1084.500022166484
 20
2139.002697094066
 30
0.0
 11
-1069.500220118342
 21
2124.002647606102
 31
0.0
  0
LINE
  5
168
330
1F
100
AcDbEntity
  8
0-2_扉
  6
Continuous
 62
     7
370
     9
100
AcDbLine
 10
-1069.500220118342
 20
2229.000148463893
 30
0.0
 11
-880.5002399135276
 21
2229.000148463893
 31
0.0
  0
LINE
  5
169
330
1F
100
AcDbEntity
  8
0-2_扉
  6
Continuous
 62
     7
370
     9
100
AcDbLine
 10
-1029.463961936332
 20
2084.002647606103
 30
0.0
 11
-1047.141805184855
 21
2101.680367134712
 31
0.0
  0
LINE
  5
16A
330
1F
100
AcDbEntity
  8
0-2_扉
  6
Continuous
 62
     7
370
     9
100
AcDbLine
 10
-1069.500220118342
 20
2229.000148463893
 30
0.0
 11
-1069.500220118342
 21
2371.049104432802
 31
0.0
  0
LINE
  5
16B
330
1F
100
AcDbEntity
  8
0-2_扉
  6
Continuous
 62
     7
370
     9
100
AcDbLine
 10
-1069.500220118342
 20
1576.000148463893
 30
0.0
 11
-1069.500220118342
 21
2124.002647606102
 31
0.0
  0
LINE
  5
16C
330
1F
100
AcDbEntity
  8
0-2_扉
  6
Continuous
 62
     7
370
     9
100
AcDbLine
 10
-1029.500088150437
 20
1616.000094851932
 30
0.0
 11
-1029.500088150437
 21
2084.002647606103
 31
0.0
  0
LINE
  5
16D
330
1F
100
AcDbEntity
  8
0-2_扉
  6
Continuous
 62
     7
370
     9
100
AcDbLine
 10
-1069.312413292962
 20
3090.999967008024
 30
0.0
 11
-1069.500220118342
 21
3090.999967008024
 31
0.0
  0
LINE
  5
16E
330
1F
100
AcDbEntity
  8
0-2_扉
  6
Continuous
 62
     7
370
     9
100
AcDbLine
 10
-1069.500220118342
 20
2360.236170254166
 30
0.0
 11
-1069.500220118342
 21
3214.002698743666
 31
0.0
  0
LINE
  5
16F
330
1F
100
AcDbEntity
  8
0-2_扉
  6
Continuous
 62
     7
370
     9
100
AcDbLine
 10
-496.500269606307
 20
1576.000148463893
 30
0.0
 11
-481.5002201183424
 21
1561.000098975929
 31
0.0
  0
LINE
  5
170
330
1F
100
AcDbEntity
  8
0-2_扉
  6
Continuous
 62
     7
370
     9
100
AcDbLine
 10
-496.500269606307
 20
2124.002647606102
 30
0.0
 11
-481.5002201183424
 21
2139.002697094066
 31
0.0
  0
LINE
  5
171
330
1F
100
AcDbEntity
  8
0-2_扉
  6
Continuous
 62
     7
370
     9
100
AcDbLine
 10
-496.500269606307
 20
2229.000148463893
 30
0.0
 11
-481.5002201183424
 21
2214.00022269584
 31
0.0
  0
LINE
  5
172
330
1F
100
AcDbEntity
  8
0-2_扉
  6
Continuous
 62
     7
370
     9
100
AcDbLine
 10
-496.500269606307
 20
1576.000148463893
 30
0.0
 11
-496.500269606307
 21
2124.002647606102
 31
0.0
  0
LINE
  5
173
330
1F
100
AcDbEntity
  8
0-2_扉
  6
Continuous
 62
     7
370
     9
100
AcDbLine
 10
-536.5001541343893
 20
2084.002647606103
 30
0.0
 11
-536.5001541343893
 21
1616.000094851932
 31
0.0
  0
LINE
  5
174
330
1F
100
AcDbEntity
  8
0-2_扉
  6
Continuous
 62
     7
370
     9
100
AcDbLine
 10
-536.5001541343893
 20
2084.002647606103
 30
0.0
 11
-518.8225583256904
 21
2101.680367134712
 31
0.0
  0
LINE
  5
175
330
1F
100
AcDbEntity
  8
0-2_扉
  6
Continuous
 62
     7
370
     9
100
AcDbLine
 10
-536.5001541343893
 20
1616.000094851932
 30
0.0
 11
-518.8225583256904
 21
1598.322437183277
 31
0.0
  0
LINE
  5
176
330
1F
100
AcDbEntity
  8
0-2_扉
  6
Continuous
 62
     7
370
     9
100
AcDbLine
 10
-496.500269606307
 20
2229.000148463893
 30
0.0
 11
-496.500269606307
 21
3214.002698743666
 31
0.0
  0
LINE
  5
177
330
1F
100
AcDbEntity
  8
0-2_扉
  6
Continuous
 62
     7
370
     9
100
AcDbLine
 10
-1069.50026960631
 20
3214.002636883709
 30
0.0
 11
-1084.500665515253
 21
3229.003032792651
 31
0.0
  0
LINE
  5
178
330
1F
100
AcDbEntity
  8
0-2_扉
  6
Continuous
 62
     7
370
     9
100
AcDbLine
 10
-496.5002696063062
 20
3214.002636883709
 30
0.0
 11
-481.5002696063062
 21
3229.002636883709
 31
0.0
  0
LINE
  5
179
330
1F
100
AcDbEntity
  8
0-2_扉
  6
Continuous
 62
     7
370
     9
100
AcDbLine
 10
-1069.50026960631
 20
3214.002636883709
 30
0.0
 11
-1020.487607034895
 21
3214.002636883709
 31
0.0
  0
ARC
  5
17A
330
1F
100
AcDbEntity
  8
0-2_扉
  6
Continuous
 62
     7
370
     9
100
AcDbCircle
 10
-1020.487607034895
 20
3364.002636883709
 30
0.0
 40
150.0
100
AcDbArc
 50
270.0
 51
298.3577011236671
  0
ARC
  5
17B
330
1F
100
AcDbEntity
  8
0-2_扉
  6
Continuous
 62
     7
370
     9
100
AcDbCircle
 10
-545.5129321777191
 20
3364.002636883709
 30
0.0
 40
150.0
100
AcDbArc
 50
241.6422988763328
 51
270.0
  0
LINE
  5
17C
330
1F
100
AcDbEntity
  8
0-2_扉
  6
Continuous
 62
     7
370
     9
100
AcDbLine
 10
-496.5002696063062
 20
3214.002636883709
 30
0.0
 11
-545.5129321777191
 21
3214.002636883709
 31
0.0
  0
ARC
  5
17D
330
1F
100
AcDbEntity
  8
0-2_扉
  6
Continuous
 62
     7
370
     9
100
AcDbCircle
 10
-783.0002696063068
 20
2924.002904428019
 30
0.0
 40
350.0
100
AcDbArc
 50
61.64229887633292
 51
118.3577011236671
  0
ARC
  5
17E
330
1F
100
AcDbEntity
  8
0-2_扉
  6
Continuous
 62
     7
370
     9
100
AcDbCircle
 10
-1020.487607034895
 20
3364.002636883709
 30
0.0
 40
135.0
100
AcDbArc
 50
270.0
 51
298.3577011236671
  0
ARC
  5
17F
330
1F
100
AcDbEntity
  8
0-2_扉
  6
Continuous
 62
     7
370
     9
100
AcDbCircle
 10
-545.5129321777191
 20
3364.002636883709
 30
0.0
 40
135.0
100
AcDbArc
 50
241.6422988763328
 51
270.0
  0
ARC
  5
180
330
1F
100
AcDbEntity
  8
0-2_扉
  6
Continuous
 62
     7
370
     9
100
AcDbCircle
 10
-783.0002696063068
 20
2924.002904428019
 30
0.0
 40
365.0
100
AcDbArc
 50
61.64229887633292
 51
118.3577011236671
  0
LINE
  5
181
330
1F
100
AcDbEntity
  8
0-2_扉
  6
Continuous
 62
     7
370
     9
100
AcDbLine
 10
-1084.500319094276
 20
3229.002686371674
 30
0.0
 11
-1020.487607034895
 21
3229.002686371674
 31
0.0
  0
LINE
  5
182
330
1F
100
AcDbEntity
  8
0-2_扉
  6
Continuous
 62
     7
370
     9
100
AcDbLine
 10
-481.5002201183417
 20
3229.002686371674
 30
0.0
 11
-545.5129321777191
 21
3229.002686371674
 31
0.0
  0
LINE
  5
183
330
1F
100
AcDbEntity
  8
0-2_扉
  6
Continuous
 62
     7
370
     9
100
AcDbLine
 10
-536.5001541343893
 20
1616.000094851932
 30
0.0
 11
-1029.500088150437
 21
1616.000094851932
 31
0.0
  0
LINE
  5
184
330
1F
100
AcDbEntity
  8
0-2_扉
  6
Continuous
 62
     7
370
     9
100
AcDbLine
 10
-536.5001541343893
 20
2084.002647606103
 30
0.0
 11
-1029.500088150437
 21
2084.002647606103
 31
0.0
  0
LINE
  5
185
330
1F
100
AcDbEntity
  8
0-2_扉
  6
Continuous
 62
     7
370
     9
100
AcDbLine
 10
-1069.500220118342
 20
2124.002647606102
 30
0.0
 11
-496.500269606307
 21
2124.002647606102
 31
0.0
  0
LINE
  5
186
330
1F
100
AcDbEntity
  8
0-2_扉
  6
Continuous
 62
     7
370
     9
100
AcDbLine
 10
-1069.500220118342
 20
1576.000148463893
 30
0.0
 11
-496.500269606307
 21
1576.000148463893
 31
0.0
  0
LINE
  5
187
330
1F
100
AcDbEntity
  8
0-2_扉
  6
Continuous
 62
     7
370
     9
100
AcDbLine
 10
-1084.500022166484
 20
1561.000098975929
 30
0.0
 11
-481.5002201183422
 21
1561.000098975929
 31
0.0
  0
LINE
  5
188
330
1F
100
AcDbEntity
  8
0-2_扉
  6
Continuous
 62
     7
370
     9
100
AcDbLine
 10
-1084.500022166484
 20
2139.002697094066
 30
0.0
 11
-481.5002201183422
 21
2139.002697094066
 31
0.0
  0
LINE
  5
189
330
1F
100
AcDbEntity
  8
0-2_扉
  6
Continuous
 62
     7
370
     9
100
AcDbLine
 10
-481.5002201183422
 20
2214.00022269584
 30
0.0
 11
-1084.500022166484
 21
2214.00022269584
 31
0.0
  0
LINE
  5
18A
330
1F
100
AcDbEntity
  8
0-2_扉
  6
Continuous
 62
     7
370
     9
100
AcDbLine
 10
-496.500269606307
 20
2229.000148463893
 30
0.0
 11
-1024.500150835193
 21
2229.000148463893
 31
0.0
  0
LINE
  5
18B
330
1F
100
AcDbEntity
  8
0-C_ハッチ
  6
Continuous
 62
   120
370
     5
100
AcDbLine
 10
-1044.500207746351
 20
2229.002517287795
 30
0.0
 11
-1044.500207746351
 21
3214.002698743666
 31
0.0
  0
LINE
  5
18C
330
1F
100
AcDbEntity
  8
0-C_ハッチ
  6
Continuous
 62
   120
370
     5
100
AcDbLine
 10
-1019.500207746351
 20
2229.002517287795
 30
0.0
 11
-1019.500207746351
 21
3215.253533506703
 31
0.0
  0
LINE
  5
18D
330
1F
100
AcDbEntity
  8
0-C_ハッチ
  6
Continuous
 62
   120
370
     5
100
AcDbLine
 10
-544.5002077463511
 20
2229.002517287795
 30
0.0
 11
-544.5002077463511
 21
3214.002698743666
 31
0.0
  0
LINE
  5
18E
330
1F
100
AcDbEntity
  8
0-C_ハッチ
  6
Continuous
 62
   120
370
     5
100
AcDbLine
 10
-994.5002077463511
 20
2229.002517287795
 30
0.0
 11
-994.5002077463511
 21
3216.270937244743
 31
0.0
  0
LINE
  5
18F
330
1F
100
AcDbEntity
  8
0-C_ハッチ
  6
Continuous
 62
   120
370
     5
100
AcDbLine
 10
-969.500207746351
 20
2229.002517287795
 30
0.0
 11
-969.500207746351
 21
3222.934266531633
 31
0.0
  0
LINE
  5
190
330
1F
100
AcDbEntity
  8
0-C_ハッチ
  6
Continuous
 62
   120
370
     5
100
AcDbLine
 10
-944.500207746351
 20
2229.002517287795
 30
0.0
 11
-944.500207746351
 21
3234.515013661719
 31
0.0
  0
LINE
  5
191
330
1F
100
AcDbEntity
  8
0-C_ハッチ
  6
Continuous
 62
   120
370
     5
100
AcDbLine
 10
-919.5002077463511
 20
2229.002517287795
 30
0.0
 11
-919.5002077463511
 21
3246.288130412339
 31
0.0
  0
LINE
  5
192
330
1F
100
AcDbEntity
  8
0-C_ハッチ
  6
Continuous
 62
   120
370
     5
100
AcDbLine
 10
-894.500207746351
 20
2229.002517287795
 30
0.0
 11
-894.500207746351
 21
3255.767525499594
 31
0.0
  0
LINE
  5
193
330
1F
100
AcDbEntity
  8
0-C_ハッチ
  6
Continuous
 62
   120
370
     5
100
AcDbLine
 10
-869.500207746351
 20
2229.002517287795
 30
0.0
 11
-869.500207746351
 21
3263.145589299399
 31
0.0
  0
LINE
  5
194
330
1F
100
AcDbEntity
  8
0-C_ハッチ
  6
Continuous
 62
   120
370
     5
100
AcDbLine
 10
-844.5002077463511
 20
2229.002517287795
 30
0.0
 11
-844.5002077463511
 21
3268.557337876161
 31
0.0
  0
LINE
  5
195
330
1F
100
AcDbEntity
  8
0-C_ハッチ
  6
Continuous
 62
   120
370
     5
100
AcDbLine
 10
-819.500207746351
 20
2229.002517287795
 30
0.0
 11
-819.500207746351
 21
3272.094493691207
 31
0.0
  0
LINE
  5
196
330
1F
100
AcDbEntity
  8
0-C_ハッチ
  6
Continuous
 62
   120
370
     5
100
AcDbLine
 10
-794.500207746351
 20
2229.002517287795
 30
0.0
 11
-794.500207746351
 21
3273.813926871244
 31
0.0
  0
LINE
  5
197
330
1F
100
AcDbEntity
  8
0-C_ハッチ
  6
Continuous
 62
   120
370
     5
100
AcDbLine
 10
-769.5002077463511
 20
2229.002517287795
 30
0.0
 11
-769.5002077463511
 21
3273.742447988333
 31
0.0
  0
LINE
  5
198
330
1F
100
AcDbEntity
  8
0-C_ハッチ
  6
Continuous
 62
   120
370
     5
100
AcDbLine
 10
-744.500207746351
 20
2229.002517287795
 30
0.0
 11
-744.500207746351
 21
3271.878953095902
 31
0.0
  0
LINE
  5
199
330
1F
100
AcDbEntity
  8
0-C_ハッチ
  6
Continuous
 62
   120
370
     5
100
AcDbLine
 10
-719.500207746351
 20
2229.002517287795
 30
0.0
 11
-719.500207746351
 21
3268.194336837051
 31
0.0
  0
LINE
  5
19A
330
1F
100
AcDbEntity
  8
0-C_ハッチ
  6
Continuous
 62
   120
370
     5
100
AcDbLine
 10
-694.5002077463511
 20
2229.002517287795
 30
0.0
 11
-694.5002077463511
 21
3262.629157176951
 31
0.0
  0
LINE
  5
19B
330
1F
100
AcDbEntity
  8
0-C_ハッチ
  6
Continuous
 62
   120
370
     5
100
AcDbLine
 10
-669.500207746351
 20
2229.002517287795
 30
0.0
 11
-669.500207746351
 21
3255.08859719922
 31
0.0
  0
LINE
  5
19C
330
1F
100
AcDbEntity
  8
0-C_ハッチ
  6
Continuous
 62
   120
370
     5
100
AcDbLine
 10
-644.500207746351
 20
2229.002517287795
 30
0.0
 11
-644.500207746351
 21
3245.433663480086
 31
0.0
  0
LINE
  5
19D
330
1F
100
AcDbEntity
  8
0-C_ハッチ
  6
Continuous
 62
   120
370
     5
100
AcDbLine
 10
-619.5002077463511
 20
2229.002517287795
 30
0.0
 11
-619.5002077463511
 21
3233.466520660671
 31
0.0
  0
LINE
  5
19E
330
1F
100
AcDbEntity
  8
0-C_ハッチ
  6
Continuous
 62
   120
370
     5
100
AcDbLine
 10
-594.500207746351
 20
2229.002517287795
 30
0.0
 11
-594.500207746351
 21
3222.227297588178
 31
0.0
  0
LINE
  5
19F
330
1F
100
AcDbEntity
  8
0-C_ハッチ
  6
Continuous
 62
   120
370
     5
100
AcDbLine
 10
-569.5002077463511
 20
2229.002517287795
 30
0.0
 11
-569.5002077463511
 21
3215.933022813859
 31
0.0
  0
LINE
  5
1A0
330
1F
100
AcDbEntity
  8
0-C_ハッチ
  6
Continuous
 62
   120
370
     5
100
AcDbLine
 10
-519.5002077463511
 20
2229.002517287795
 30
0.0
 11
-519.5002077463511
 21
3214.250381173507
 31
0.0
  0
LINE
  5
1A1
330
1F
100
AcDbEntity
  8
0-2_扉
  6
Continuous
 62
     7
370
     9
100
AcDbLine
 10
-1188.000220118343
 20
3409.00019547746
 30
0.0
 11
-381.0002696063069
 21
3409.00019547746
 31
0.0
  0
LINE
  5
1A2
330
1F
100
AcDbEntity
  8
0-2_扉
  6
Continuous
 62
     7
370
     9
100
AcDbLine
 10
-1188.000220118343
 20
1426.000148463893
 30
0.0
 11
-381.0002696063069
 21
1426.000148463893
 31
0.0
  0
LINE
  5
1A3
330
1F
100
AcDbEntity
  8
0-2_扉
  6
Continuous
 62
     7
370
     9
100
AcDbLine
 10
-1261.500269606306
 20
1426.000148463893
 30
0.0
 11
-1261.500269606306
 21
3409.000257337415
 31
0.0
  0
LINE
  5
1A4
330
1F
100
AcDbEntity
  8
0-2_扉
  6
Continuous
 62
     7
370
     9
100
AcDbLine
 10
-1864.500319094271
 20
1426.000148463893
 30
0.0
 11
-1864.500319094271
 21
3409.000257337415
 31
0.0
  0
LINE
  5
1A5
330
1F
100
AcDbEntity
  8
0-2_扉
  6
Continuous
 62
     7
370
     9
100
AcDbLine
 10
-1276.500319094271
 20
1576.000148463893
 30
0.0
 11
-1261.500517046129
 21
1561.000098975929
 31
0.0
  0
LINE
  5
1A6
330
1F
100
AcDbEntity
  8
0-2_扉
  6
Continuous
 62
     7
370
     9
100
AcDbLine
 10
-1316.500451062176
 20
1616.000094851932
 30
0.0
 11
-1316.500451062176
 21
1617.431163066142
 31
0.0
  0
LINE
  5
1A7
330
1F
100
AcDbEntity
  8
0-2_扉
  6
Continuous
 62
     7
370
     9
100
AcDbLine
 10
-1316.500451062176
 20
1616.000094851932
 30
0.0
 11
-1298.822855253477
 21
1598.322437183277
 31
0.0
  0
LINE
  5
1A8
330
1F
100
AcDbEntity
  8
0-2_扉
  6
Continuous
 62
     7
370
     9
100
AcDbLine
 10
-1261.500517046129
 20
2214.00022269584
 30
0.0
 11
-1276.500319094271
 21
2229.000148463893
 31
0.0
  0
LINE
  5
1A9
330
1F
100
AcDbEntity
  8
0-2_扉
  6
Continuous
 62
     7
370
     9
100
AcDbLine
 10
-1261.500517046129
 20
2139.002697094066
 30
0.0
 11
-1276.500319094271
 21
2124.002647606102
 31
0.0
  0
LINE
  5
1AA
330
1F
100
AcDbEntity
  8
0-2_扉
  6
Continuous
 62
     7
370
     9
100
AcDbLine
 10
-1276.500319094271
 20
2229.000148463893
 30
0.0
 11
-1465.500299299086
 21
2229.000148463893
 31
0.0
  0
LINE
  5
1AB
330
1F
100
AcDbEntity
  8
0-2_扉
  6
Continuous
 62
     7
370
     9
100
AcDbLine
 10
-1316.536577276281
 20
2084.002647606103
 30
0.0
 11
-1298.858734027758
 21
2101.680367134712
 31
0.0
  0
LINE
  5
1AC
330
1F
100
AcDbEntity
  8
0-2_扉
  6
Continuous
 62
     7
370
     9
100
AcDbLine
 10
-1276.500319094271
 20
2229.000148463893
 30
0.0
 11
-1276.500319094271
 21
2371.049104432802
 31
0.0
  0
LINE
  5
1AD
330
1F
100
AcDbEntity
  8
0-2_扉
  6
Continuous
 62
     7
370
     9
100
AcDbLine
 10
-1276.500319094271
 20
1576.000148463893
 30
0.0
 11
-1276.500319094271
 21
2124.002647606102
 31
0.0
  0
LINE
  5
1AE
330
1F
100
AcDbEntity
  8
0-2_扉
  6
Continuous
 62
     7
370
     9
100
AcDbLine
 10
-1316.500451062176
 20
1616.000094851932
 30
0.0
 11
-1316.500451062176
 21
2084.002647606103
 31
0.0
  0
LINE
  5
1AF
330
1F
100
AcDbEntity
  8
0-2_扉
  6
Continuous
 62
     7
370
     9
100
AcDbLine
 10
-1276.688125919652
 20
3090.999967008024
 30
0.0
 11
-1276.500319094272
 21
3090.999967008024
 31
0.0
  0
LINE
  5
1B0
330
1F
100
AcDbEntity
  8
0-2_扉
  6
Continuous
 62
     7
370
     9
100
AcDbLine
 10
-1276.500319094271
 20
2360.236170254166
 30
0.0
 11
-1276.500319094271
 21
3214.002698743666
 31
0.0
  0
LINE
  5
1B1
330
1F
100
AcDbEntity
  8
0-2_扉
  6
Continuous
 62
     7
370
     9
100
AcDbLine
 10
-1849.500269606306
 20
1576.000148463893
 30
0.0
 11
-1864.50031909427
 21
1561.000098975929
 31
0.0
  0
LINE
  5
1B2
330
1F
100
AcDbEntity
  8
0-2_扉
  6
Continuous
 62
     7
370
     9
100
AcDbLine
 10
-1849.500269606306
 20
2124.002647606102
 30
0.0
 11
-1864.50031909427
 21
2139.002697094066
 31
0.0
  0
LINE
  5
1B3
330
1F
100
AcDbEntity
  8
0-2_扉
  6
Continuous
 62
     7
370
     9
100
AcDbLine
 10
-1849.500269606306
 20
2229.000148463893
 30
0.0
 11
-1864.50031909427
 21
2214.00022269584
 31
0.0
  0
LINE
  5
1B4
330
1F
100
AcDbEntity
  8
0-2_扉
  6
Continuous
 62
     7
370
     9
100
AcDbLine
 10
-1849.500269606306
 20
1576.000148463893
 30
0.0
 11
-1849.500269606306
 21
2124.002647606102
 31
0.0
  0
LINE
  5
1B5
330
1F
100
AcDbEntity
  8
0-2_扉
  6
Continuous
 62
     7
370
     9
100
AcDbLine
 10
-1809.500385078224
 20
2084.002647606103
 30
0.0
 11
-1809.500385078224
 21
1616.000094851932
 31
0.0
  0
LINE
  5
1B6
330
1F
100
AcDbEntity
  8
0-2_扉
  6
Continuous
 62
     7
370
     9
100
AcDbLine
 10
-1809.500385078224
 20
2084.002647606103
 30
0.0
 11
-1827.177980886923
 21
2101.680367134712
 31
0.0
  0
LINE
  5
1B7
330
1F
100
AcDbEntity
  8
0-2_扉
  6
Continuous
 62
     7
370
     9
100
AcDbLine
 10
-1809.500385078224
 20
1616.000094851932
 30
0.0
 11
-1827.177980886923
 21
1598.322437183277
 31
0.0
  0
LINE
  5
1B8
330
1F
100
AcDbEntity
  8
0-2_扉
  6
Continuous
 62
     7
370
     9
100
AcDbLine
 10
-1849.500269606306
 20
2229.000148463893
 30
0.0
 11
-1849.500269606306
 21
3214.002698743666
 31
0.0
  0
LINE
  5
1B9
330
1F
100
AcDbEntity
  8
0-2_扉
  6
Continuous
 62
     7
370
     9
100
AcDbLine
 10
-1276.500269606303
 20
3214.002636883709
 30
0.0
 11
-1261.49987369736
 21
3229.003032792651
 31
0.0
  0
LINE
  5
1BA
330
1F
100
AcDbEntity
  8
0-2_扉
  6
Continuous
 62
     7
370
     9
100
AcDbLine
 10
-1849.500269606307
 20
3214.002636883709
 30
0.0
 11
-1864.500269606307
 21
3229.002636883709
 31
0.0
  0
LINE
  5
1BB
330
1F
100
AcDbEntity
  8
0-2_扉
  6
Continuous
 62
     7
370
     9
100
AcDbLine
 10
-1276.500269606303
 20
3214.002636883709
 30
0.0
 11
-1325.512932177719
 21
3214.002636883709
 31
0.0
  0
ARC
  5
1BC
330
1F
100
AcDbEntity
  8
0-2_扉
  6
Continuous
 62
     7
370
     9
100
AcDbCircle
 10
-1325.512932177719
 20
3364.002636883709
 30
0.0
 40
150.0
100
AcDbArc
 50
241.6422988763329
 51
270.0
  0
ARC
  5
1BD
330
1F
100
AcDbEntity
  8
0-2_扉
  6
Continuous
 62
     7
370
     9
100
AcDbCircle
 10
-1800.487607034894
 20
3364.002636883709
 30
0.0
 40
150.0
100
AcDbArc
 50
270.0
 51
298.3577011236671
  0
LINE
  5
1BE
330
1F
100
AcDbEntity
  8
0-2_扉
  6
Continuous
 62
     7
370
     9
100
AcDbLine
 10
-1849.500269606307
 20
3214.002636883709
 30
0.0
 11
-1800.487607034894
 21
3214.002636883709
 31
0.0
  0
ARC
  5
1BF
330
1F
100
AcDbEntity
  8
0-2_扉
  6
Continuous
 62
     7
370
     9
100
AcDbCircle
 10
-1563.000269606306
 20
2924.002904428019
 30
0.0
 40
350.0
100
AcDbArc
 50
61.64229887633292
 51
118.3577011236671
  0
ARC
  5
1C0
330
1F
100
AcDbEntity
  8
0-2_扉
  6
Continuous
 62
     7
370
     9
100
AcDbCircle
 10
-1325.512932177719
 20
3364.002636883709
 30
0.0
 40
135.0
100
AcDbArc
 50
241.6422988763329
 51
270.0
  0
ARC
  5
1C1
330
1F
100
AcDbEntity
  8
0-2_扉
  6
Continuous
 62
     7
370
     9
100
AcDbCircle
 10
-1800.487607034894
 20
3364.002636883709
 30
0.0
 40
135.0
100
AcDbArc
 50
270.0
 51
298.3577011236671
  0
ARC
  5
1C2
330
1F
100
AcDbEntity
  8
0-2_扉
  6
Continuous
 62
     7
370
     9
100
AcDbCircle
 10
-1563.000269606306
 20
2924.002904428019
 30
0.0
 40
365.0
100
AcDbArc
 50
61.64229887633292
 51
118.3577011236671
  0
LINE
  5
1C3
330
1F
100
AcDbEntity
  8
0-2_扉
  6
Continuous
 62
     7
370
     9
100
AcDbLine
 10
-1261.500220118337
 20
3229.002686371674
 30
0.0
 11
-1325.512932177719
 21
3229.002686371674
 31
0.0
  0
LINE
  5
1C4
330
1F
100
AcDbEntity
  8
0-2_扉
  6
Continuous
 62
     7
370
     9
100
AcDbLine
 10
-1864.500319094271
 20
3229.002686371674
 30
0.0
 11
-1800.487607034894
 21
3229.002686371674
 31
0.0
  0
LINE
  5
1C5
330
1F
100
AcDbEntity
  8
0-2_扉
  6
Continuous
 62
     7
370
     9
100
AcDbLine
 10
-1809.500385078224
 20
1616.000094851932
 30
0.0
 11
-1316.500451062176
 21
1616.000094851932
 31
0.0
  0
LINE
  5
1C6
330
1F
100
AcDbEntity
  8
0-2_扉
  6
Continuous
 62
     7
370
     9
100
AcDbLine
 10
-1809.500385078224
 20
2084.002647606103
 30
0.0
 11
-1316.500451062176
 21
2084.002647606103
 31
0.0
  0
LINE
  5
1C7
330
1F
100
AcDbEntity
  8
0-2_扉
  6
Continuous
 62
     7
370
     9
100
AcDbLine
 10
-1276.500319094271
 20
2124.002647606102
 30
0.0
 11
-1849.500269606306
 21
2124.002647606102
 31
0.0
  0
LINE
  5
1C8
330
1F
100
AcDbEntity
  8
0-2_扉
  6
Continuous
 62
     7
370
     9
100
AcDbLine
 10
-1276.500319094271
 20
1576.000148463893
 30
0.0
 11
-1849.500269606306
 21
1576.000148463893
 31
0.0
  0
LINE
  5
1C9
330
1F
100
AcDbEntity
  8
0-2_扉
  6
Continuous
 62
     7
370
     9
100
AcDbLine
 10
-1261.500517046129
 20
1561.000098975929
 30
0.0
 11
-1864.500319094271
 21
1561.000098975929
 31
0.0
  0
LINE
  5
1CA
330
1F
100
AcDbEntity
  8
0-2_扉
  6
Continuous
 62
     7
370
     9
100
AcDbLine
 10
-1261.500517046129
 20
2139.002697094066
 30
0.0
 11
-1864.500319094271
 21
2139.002697094066
 31
0.0
  0
LINE
  5
1CB
330
1F
100
AcDbEntity
  8
0-2_扉
  6
Continuous
 62
     7
370
     9
100
AcDbLine
 10
-1864.500319094271
 20
2214.00022269584
 30
0.0
 11
-1261.500517046129
 21
2214.00022269584
 31
0.0
  0
LINE
  5
1CC
330
1F
100
AcDbEntity
  8
0-2_扉
  6
Continuous
 62
     7
370
     9
100
AcDbLine
 10
-1849.500269606306
 20
2229.000148463893
 30
0.0
 11
-1321.500388377421
 21
2229.000148463893
 31
0.0
  0
LINE
  5
1CD
330
1F
100
AcDbEntity
  8
0-C_ハッチ
  6
Continuous
 62
   120
370
     5
100
AcDbLine
 10
-1301.500331466262
 20
2229.002517287795
 30
0.0
 11
-1301.500331466262
 21
3214.002698743666
 31
0.0
  0
LINE
  5
1CE
330
1F
100
AcDbEntity
  8
0-C_ハッチ
  6
Continuous
 62
   120
370
     5
100
AcDbLine
 10
-1326.500331466262
 20
2229.002517287795
 30
0.0
 11
-1326.500331466262
 21
3215.253533506703
 31
0.0
  0
LINE
  5
1CF
330
1F
100
AcDbEntity
  8
0-C_ハッチ
  6
Continuous
 62
   120
370
     5
100
AcDbLine
 10
-1801.500331466262
 20
2229.002517287795
 30
0.0
 11
-1801.500331466262
 21
3214.002698743666
 31
0.0
  0
LINE
  5
1D0
330
1F
100
AcDbEntity
  8
0-C_ハッチ
  6
Continuous
 62
   120
370
     5
100
AcDbLine
 10
-1351.500331466262
 20
2229.002517287795
 30
0.0
 11
-1351.500331466262
 21
3216.270937244743
 31
0.0
  0
LINE
  5
1D1
330
1F
100
AcDbEntity
  8
0-C_ハッチ
  6
Continuous
 62
   120
370
     5
100
AcDbLine
 10
-1376.500331466262
 20
2229.002517287795
 30
0.0
 11
-1376.500331466262
 21
3222.934266531633
 31
0.0
  0
LINE
  5
1D2
330
1F
100
AcDbEntity
  8
0-C_ハッチ
  6
Continuous
 62
   120
370
     5
100
AcDbLine
 10
-1401.500331466262
 20
2229.002517287795
 30
0.0
 11
-1401.500331466262
 21
3234.515013661719
 31
0.0
  0
LINE
  5
1D3
330
1F
100
AcDbEntity
  8
0-C_ハッチ
  6
Continuous
 62
   120
370
     5
100
AcDbLine
 10
-1426.500331466262
 20
2229.002517287795
 30
0.0
 11
-1426.500331466262
 21
3246.288130412339
 31
0.0
  0
LINE
  5
1D4
330
1F
100
AcDbEntity
  8
0-C_ハッチ
  6
Continuous
 62
   120
370
     5
100
AcDbLine
 10
-1451.500331466262
 20
2229.002517287795
 30
0.0
 11
-1451.500331466262
 21
3255.767525499594
 31
0.0
  0
LINE
  5
1D5
330
1F
100
AcDbEntity
  8
0-C_ハッチ
  6
Continuous
 62
   120
370
     5
100
AcDbLine
 10
-1476.500331466262
 20
2229.002517287795
 30
0.0
 11
-1476.500331466262
 21
3263.145589299399
 31
0.0
  0
LINE
  5
1D6
330
1F
100
AcDbEntity
  8
0-C_ハッチ
  6
Continuous
 62
   120
370
     5
100
AcDbLine
 10
-1501.500331466262
 20
2229.002517287795
 30
0.0
 11
-1501.500331466262
 21
3268.557337876161
 31
0.0
  0
LINE
  5
1D7
330
1F
100
AcDbEntity
  8
0-C_ハッチ
  6
Continuous
 62
   120
370
     5
100
AcDbLine
 10
-1526.500331466262
 20
2229.002517287795
 30
0.0
 11
-1526.500331466262
 21
3272.094493691207
 31
0.0
  0
LINE
  5
1D8
330
1F
100
AcDbEntity
  8
0-C_ハッチ
  6
Continuous
 62
   120
370
     5
100
AcDbLine
 10
-1551.500331466262
 20
2229.002517287795
 30
0.0
 11
-1551.500331466262
 21
3273.813926871244
 31
0.0
  0
LINE
  5
1D9
330
1F
100
AcDbEntity
  8
0-C_ハッチ
  6
Continuous
 62
   120
370
     5
100
AcDbLine
 10
-1576.500331466262
 20
2229.002517287795
 30
0.0
 11
-1576.500331466262
 21
3273.742447988333
 31
0.0
  0
LINE
  5
1DA
330
1F
100
AcDbEntity
  8
0-C_ハッチ
  6
Continuous
 62
   120
370
     5
100
AcDbLine
 10
-1601.500331466262
 20
2229.002517287795
 30
0.0
 11
-1601.500331466262
 21
3271.878953095902
 31
0.0
  0
LINE
  5
1DB
330
1F
100
AcDbEntity
  8
0-C_ハッチ
  6
Continuous
 62
   120
370
     5
100
AcDbLine
 10
-1626.500331466262
 20
2229.002517287795
 30
0.0
 11
-1626.500331466262
 21
3268.194336837051
 31
0.0
  0
LINE
  5
1DC
330
1F
100
AcDbEntity
  8
0-C_ハッチ
  6
Continuous
 62
   120
370
     5
100
AcDbLine
 10
-1651.500331466262
 20
2229.002517287795
 30
0.0
 11
-1651.500331466262
 21
3262.629157176951
 31
0.0
  0
LINE
  5
1DD
330
1F
100
AcDbEntity
  8
0-C_ハッチ
  6
Continuous
 62
   120
370
     5
100
AcDbLine
 10
-1676.500331466262
 20
2229.002517287795
 30
0.0
 11
-1676.500331466262
 21
3255.08859719922
 31
0.0
  0
LINE
  5
1DE
330
1F
100
AcDbEntity
  8
0-C_ハッチ
  6
Continuous
 62
   120
370
     5
100
AcDbLine
 10
-1701.500331466262
 20
2229.002517287795
 30
0.0
 11
-1701.500331466262
 21
3245.433663480086
 31
0.0
  0
LINE
  5
1DF
330
1F
100
AcDbEntity
  8
0-C_ハッチ
  6
Continuous
 62
   120
370
     5
100
AcDbLine
 10
-1726.500331466262
 20
2229.002517287795
 30
0.0
 11
-1726.500331466262
 21
3233.466520660671
 31
0.0
  0
LINE
  5
1E0
330
1F
100
AcDbEntity
  8
0-C_ハッチ
  6
Continuous
 62
   120
370
     5
100
AcDbLine
 10
-1751.500331466262
 20
2229.002517287795
 30
0.0
 11
-1751.500331466262
 21
3222.227297588178
 31
0.0
  0
LINE
  5
1E1
330
1F
100
AcDbEntity
  8
0-C_ハッチ
  6
Continuous
 62
   120
370
     5
100
AcDbLine
 10
-1776.500331466262
 20
2229.002517287795
 30
0.0
 11
-1776.500331466262
 21
3215.933022813859
 31
0.0
  0
LINE
  5
1E2
330
1F
100
AcDbEntity
  8
0-C_ハッチ
  6
Continuous
 62
   120
370
     5
100
AcDbLine
 10
-1826.500331466262
 20
2229.002517287795
 30
0.0
 11
-1826.500331466262
 21
3214.250381173507
 31
0.0
  0
LINE
  5
1E3
330
1F
100
AcDbEntity
  8
0-2_扉
  6
Continuous
 62
     7
370
     9
100
AcDbLine
 10
-1158.000319094271
 20
3409.00019547746
 30
0.0
 11
-1965.000269606306
 21
3409.00019547746
 31
0.0
  0
LINE
  5
1E4
330
1F
100
AcDbEntity
  8
0-2_扉
  6
Continuous
 62
     7
370
     9
100
AcDbLine
 10
-1158.000319094271
 20
1426.000148463893
 30
0.0
 11
-1965.000269606306
 21
1426.000148463893
 31
0.0
  0
LINE
  5
1E5
330
1F
100
AcDbEntity
  8
0-2_扉
  6
Continuous
 62
     7
370
     9
100
AcDbLine
 10
-3893.00001855799
 20
3409.000257337415
 30
0.0
 11
-3893.00001855799
 21
1426.000148463893
 31
0.0
  0
LINE
  5
1E6
330
1F
100
AcDbEntity
  8
0-2_扉
  6
Continuous
 62
     7
370
     9
100
AcDbLine
 10
-3789.500068045954
 20
1426.621531718486
 30
0.0
 11
-3789.500068045954
 21
3409.000257337415
 31
0.0
  0
LINE
  5
1E7
330
1F
100
AcDbEntity
  8
0-2_扉
  6
Continuous
 62
     7
370
     9
100
AcDbLine
 10
-3096.499969070024
 20
1426.621531718486
 30
0.0
 11
-3096.499969070024
 21
3409.000257337415
 31
0.0
  0
LINE
  5
1E8
330
1F
100
AcDbEntity
  8
0-2_扉
  6
Continuous
 62
     7
370
     9
100
AcDbLine
 10
-3151.500026805983
 20
2084.002647606103
 30
0.0
 11
-3734.536012804189
 21
2084.002647606103
 31
0.0
  0
LINE
  5
1E9
330
1F
100
AcDbEntity
  8
0-2_扉
  6
Continuous
 62
     7
370
     9
100
AcDbLine
 10
-3774.500018557989
 20
1576.000148463894
 30
0.0
 11
-3789.499820606131
 21
1561.000160835885
 31
0.0
  0
LINE
  5
1EA
330
1F
100
AcDbEntity
  8
0-2_扉
  6
Continuous
 62
     7
370
     9
100
AcDbLine
 10
-3734.536012804189
 20
1616.000156711888
 30
0.0
 11
-3734.536012804189
 21
1617.431224926098
 31
0.0
  0
LINE
  5
1EB
330
1F
100
AcDbEntity
  8
0-2_扉
  6
Continuous
 62
     7
370
     9
100
AcDbLine
 10
-3734.536012804189
 20
1616.000156711888
 30
0.0
 11
-3752.213608612888
 21
1598.322499043233
 31
0.0
  0
LINE
  5
1EC
330
1F
100
AcDbEntity
  8
0-2_扉
  6
Continuous
 62
     7
370
     9
100
AcDbLine
 10
-3789.499820606131
 20
2214.00022269584
 30
0.0
 11
-3774.500018557989
 21
2229.000148463893
 31
0.0
  0
LINE
  5
1ED
330
1F
100
AcDbEntity
  8
0-2_扉
  6
Continuous
 62
     7
370
     9
100
AcDbLine
 10
-3789.499820606131
 20
2139.002697094067
 30
0.0
 11
-3774.500018557989
 21
2124.002647606102
 31
0.0
  0
LINE
  5
1EE
330
1F
100
AcDbEntity
  8
0-2_扉
  6
Continuous
 62
     7
370
     9
100
AcDbLine
 10
-3774.500018557989
 20
2229.000148463893
 30
0.0
 11
-3540.499889889281
 21
2229.000148463893
 31
0.0
  0
LINE
  5
1EF
330
1F
100
AcDbEntity
  8
0-2_扉
  6
Continuous
 62
     7
370
     9
100
AcDbLine
 10
-3734.499886590084
 20
2084.002647606103
 30
0.0
 11
-3752.177729838606
 21
2101.680367134712
 31
0.0
  0
LINE
  5
1F0
330
1F
100
AcDbEntity
  8
0-2_扉
  6
Continuous
 62
     7
370
     9
100
AcDbLine
 10
-3774.500018557989
 20
2229.000148463893
 30
0.0
 11
-3774.500018557989
 21
2371.049166292758
 31
0.0
  0
LINE
  5
1F1
330
1F
100
AcDbEntity
  8
0-2_扉
  6
Continuous
 62
     7
370
     9
100
AcDbLine
 10
-3774.500018557989
 20
1576.000148463894
 30
0.0
 11
-3774.500018557989
 21
2124.002647606102
 31
0.0
  0
LINE
  5
1F2
330
1F
100
AcDbEntity
  8
0-2_扉
  6
Continuous
 62
     7
370
     9
100
AcDbLine
 10
-3734.536012804189
 20
1616.000156711888
 30
0.0
 11
-3734.536012804189
 21
2084.038773567375
 31
0.0
  0
LINE
  5
1F3
330
1F
100
AcDbEntity
  8
0-2_扉
  6
Continuous
 62
     7
370
     9
100
AcDbLine
 10
-3774.500018557989
 20
2371.049166292758
 30
0.0
 11
-3774.500018557989
 21
3214.002698743666
 31
0.0
  0
LINE
  5
1F4
330
1F
100
AcDbEntity
  8
0-2_扉
  6
Continuous
 62
     7
370
     9
100
AcDbLine
 10
-3111.500018557989
 20
1576.000148463894
 30
0.0
 11
-3096.499969070024
 21
1561.000160835885
 31
0.0
  0
LINE
  5
1F5
330
1F
100
AcDbEntity
  8
0-2_扉
  6
Continuous
 62
     7
370
     9
100
AcDbLine
 10
-3111.500018557989
 20
2124.002647606102
 30
0.0
 11
-3096.499969070024
 21
2139.002697094067
 31
0.0
  0
LINE
  5
1F6
330
1F
100
AcDbEntity
  8
0-2_扉
  6
Continuous
 62
     7
370
     9
100
AcDbLine
 10
-3111.500018557989
 20
2229.000148463893
 30
0.0
 11
-3096.499969070024
 21
2214.00022269584
 31
0.0
  0
LINE
  5
1F7
330
1F
100
AcDbEntity
  8
0-2_扉
  6
Continuous
 62
     7
370
     9
100
AcDbLine
 10
-3111.500018557989
 20
1576.000148463894
 30
0.0
 11
-3111.500018557989
 21
2124.002647606102
 31
0.0
  0
LINE
  5
1F8
330
1F
100
AcDbEntity
  8
0-2_扉
  6
Continuous
 62
     7
370
     9
100
AcDbLine
 10
-3111.500018557989
 20
2229.000148463893
 30
0.0
 11
-3111.500018557989
 21
3214.002698743666
 31
0.0
  0
LINE
  5
1F9
330
1F
100
AcDbEntity
  8
0-2_扉
  6
Continuous
 62
     7
370
     9
100
AcDbLine
 10
-3151.500026805983
 20
2084.002647606103
 30
0.0
 11
-3133.822307277372
 21
2101.680367134712
 31
0.0
  0
LINE
  5
1FA
330
1F
100
AcDbEntity
  8
0-2_扉
  6
Continuous
 62
     7
370
     9
100
AcDbLine
 10
-3151.500026805983
 20
2084.002647606103
 30
0.0
 11
-3151.500026805983
 21
1616.000156711888
 31
0.0
  0
LINE
  5
1FB
330
1F
100
AcDbEntity
  8
0-2_扉
  6
Continuous
 62
     7
370
     9
100
AcDbLine
 10
-3151.500026805983
 20
1616.000156711888
 30
0.0
 11
-3133.822307277372
 21
1598.322499043233
 31
0.0
  0
LINE
  5
1FC
330
1F
100
AcDbEntity
  8
0-2_扉
  6
Continuous
 62
     7
370
     9
100
AcDbLine
 10
-3774.499622649047
 20
3214.002698743666
 30
0.0
 11
-3789.50001855799
 21
3229.003094652608
 31
0.0
  0
LINE
  5
1FD
330
1F
100
AcDbEntity
  8
0-2_扉
  6
Continuous
 62
     7
370
     9
100
AcDbLine
 10
-3111.500018557989
 20
3214.002698743666
 30
0.0
 11
-3096.500018557989
 21
3229.002698743666
 31
0.0
  0
ARC
  5
1FE
330
1F
100
AcDbEntity
  8
0-2_扉
  6
Continuous
 62
     7
370
     9
100
AcDbCircle
 10
-3726.549560008233
 20
3414.002698743666
 30
0.0
 40
200.0
100
AcDbArc
 50
270.0
 51
293.8955622478819
  0
LINE
  5
1FF
330
1F
100
AcDbEntity
  8
0-2_扉
  6
Continuous
 62
     7
370
     9
100
AcDbLine
 10
-3774.499622649047
 20
3214.002698743666
 30
0.0
 11
-3726.549560008233
 21
3214.002698743666
 31
0.0
  0
ARC
  5
200
330
1F
100
AcDbEntity
  8
0-2_扉
  6
Continuous
 62
     7
370
     9
100
AcDbCircle
 10
-3159.450477107746
 20
3414.002698743666
 30
0.0
 40
200.0
100
AcDbArc
 50
246.1044377521181
 51
270.0
  0
LINE
  5
201
330
1F
100
AcDbEntity
  8
0-2_扉
  6
Continuous
 62
     7
370
     9
100
AcDbLine
 10
-3111.500414466931
 20
3214.002698743666
 30
0.0
 11
-3159.450477107746
 21
3214.002698743666
 31
0.0
  0
ARC
  5
202
330
1F
100
AcDbEntity
  8
0-2_扉
  6
Continuous
 62
     7
370
     9
100
AcDbCircle
 10
-3443.000018557989
 20
2774.002966287975
 30
0.0
 40
500.0000000000001
100
AcDbArc
 50
66.1044377521181
 51
113.8955622478819
  0
ARC
  5
203
330
1F
100
AcDbEntity
  8
0-2_扉
  6
Continuous
 62
     7
370
     9
100
AcDbCircle
 10
-3726.549560008233
 20
3414.002698743666
 30
0.0
 40
185.0
100
AcDbArc
 50
270.0
 51
293.8955622478819
  0
ARC
  5
204
330
1F
100
AcDbEntity
  8
0-2_扉
  6
Continuous
 62
     7
370
     9
100
AcDbCircle
 10
-3159.450477107746
 20
3414.002698743666
 30
0.0
 40
185.0
100
AcDbArc
 50
246.1044377521181
 51
270.0
  0
ARC
  5
205
330
1F
100
AcDbEntity
  8
0-2_扉
  6
Continuous
 62
     7
370
     9
100
AcDbCircle
 10
-3443.000018557989
 20
2774.002966287975
 30
0.0
 40
515.0
100
AcDbArc
 50
66.1044377521181
 51
113.8955622478819
  0
LINE
  5
206
330
1F
100
AcDbEntity
  8
0-2_扉
  6
Continuous
 62
     7
370
     9
100
AcDbLine
 10
-3789.499672137013
 20
3229.00274823163
 30
0.0
 11
-3726.549560008233
 21
3229.00274823163
 31
0.0
  0
LINE
  5
207
330
1F
100
AcDbEntity
  8
0-2_扉
  6
Continuous
 62
     7
370
     9
100
AcDbLine
 10
-3096.500364978966
 20
3229.00274823163
 30
0.0
 11
-3159.450477107746
 21
3229.00274823163
 31
0.0
  0
LINE
  5
208
330
1F
100
AcDbEntity
  8
0-2_扉
  6
Continuous
 62
     7
370
     9
100
AcDbLine
 10
-3151.500026805983
 20
1616.000156711888
 30
0.0
 11
-3734.536012804189
 21
1616.000156711888
 31
0.0
  0
LINE
  5
209
330
1F
100
AcDbEntity
  8
0-2_扉
  6
Continuous
 62
     7
370
     9
100
AcDbLine
 10
-3774.500018557989
 20
2124.002647606102
 30
0.0
 11
-3111.500018557989
 21
2124.002647606102
 31
0.0
  0
LINE
  5
20A
330
1F
100
AcDbEntity
  8
0-2_扉
  6
Continuous
 62
     7
370
     9
100
AcDbLine
 10
-3774.500018557989
 20
1576.000148463894
 30
0.0
 11
-3111.500018557989
 21
1576.000148463894
 31
0.0
  0
LINE
  5
20B
330
1F
100
AcDbEntity
  8
0-2_扉
  6
Continuous
 62
     7
370
     9
100
AcDbLine
 10
-3789.499820606131
 20
1561.000160835885
 30
0.0
 11
-3096.499969070024
 21
1561.000160835885
 31
0.0
  0
LINE
  5
20C
330
1F
100
AcDbEntity
  8
0-2_扉
  6
Continuous
 62
     7
370
     9
100
AcDbLine
 10
-3096.499969070024
 20
2214.00022269584
 30
0.0
 11
-3789.499820606131
 21
2214.00022269584
 31
0.0
  0
LINE
  5
20D
330
1F
100
AcDbEntity
  8
0-2_扉
  6
Continuous
 62
     7
370
     9
100
AcDbLine
 10
-3789.499820606131
 20
2139.002697094067
 30
0.0
 11
-3096.499969070024
 21
2139.002697094067
 31
0.0
  0
LINE
  5
20E
330
1F
100
AcDbEntity
  8
0-C_ハッチ
  6
Continuous
 62
   120
370
     5
100
AcDbLine
 10
-3749.50001855799
 20
2229.002517287795
 30
0.0
 11
-3749.50001855799
 21
3214.002698743666
 31
0.0
  0
LINE
  5
20F
330
1F
100
AcDbEntity
  8
0-C_ハッチ
  6
Continuous
 62
   120
370
     5
100
AcDbLine
 10
-3724.500018557989
 20
2229.002517287795
 30
0.0
 11
-3724.500018557989
 21
3214.013200569777
 31
0.0
  0
LINE
  5
210
330
1F
100
AcDbEntity
  8
0-C_ハッチ
  6
Continuous
 62
   120
370
     5
100
AcDbLine
 10
-3699.50001855799
 20
2229.002517287795
 30
0.0
 11
-3699.50001855799
 21
3215.840335245115
 31
0.0
  0
LINE
  5
211
330
1F
100
AcDbEntity
  8
0-C_ハッチ
  6
Continuous
 62
   120
370
     5
100
AcDbLine
 10
-3674.50001855799
 20
2229.002517287795
 30
0.0
 11
-3674.50001855799
 21
3220.894321828474
 31
0.0
  0
LINE
  5
212
330
1F
100
AcDbEntity
  8
0-C_ハッチ
  6
Continuous
 62
   120
370
     5
100
AcDbLine
 10
-3649.500018557989
 20
2229.002517287795
 30
0.0
 11
-3649.500018557989
 21
3229.440058530899
 31
0.0
  0
LINE
  5
213
330
1F
100
AcDbEntity
  8
0-C_ハッチ
  6
Continuous
 62
   120
370
     5
100
AcDbLine
 10
-3624.50001855799
 20
2229.002517287795
 30
0.0
 11
-3624.50001855799
 21
3239.897535906466
 31
0.0
  0
LINE
  5
214
330
1F
100
AcDbEntity
  8
0-C_ハッチ
  6
Continuous
 62
   120
370
     5
100
AcDbLine
 10
-3599.50001855799
 20
2229.002517287795
 30
0.0
 11
-3599.50001855799
 21
3248.879529196696
 31
0.0
  0
LINE
  5
215
330
1F
100
AcDbEntity
  8
0-C_ハッチ
  6
Continuous
 62
   120
370
     5
100
AcDbLine
 10
-3574.500018557989
 20
2229.002517287795
 30
0.0
 11
-3574.500018557989
 21
3256.400882950143
 31
0.0
  0
LINE
  5
216
330
1F
100
AcDbEntity
  8
0-C_ハッチ
  6
Continuous
 62
   120
370
     5
100
AcDbLine
 10
-3524.50001855799
 20
2229.002517287795
 30
0.0
 11
-3524.50001855799
 21
3267.316000780273
 31
0.0
  0
LINE
  5
217
330
1F
100
AcDbEntity
  8
0-C_ハッチ
  6
Continuous
 62
   120
370
     5
100
AcDbLine
 10
-3499.500018557989
 20
2229.002517287795
 30
0.0
 11
-3499.500018557989
 21
3270.800460243007
 31
0.0
  0
LINE
  5
218
330
1F
100
AcDbEntity
  8
0-C_ハッチ
  6
Continuous
 62
   120
370
     5
100
AcDbLine
 10
-3549.50001855799
 20
2229.002517287795
 30
0.0
 11
-3549.50001855799
 21
3262.529065897812
 31
0.0
  0
LINE
  5
219
330
1F
100
AcDbEntity
  8
0-C_ハッチ
  6
Continuous
 62
   120
370
     5
100
AcDbLine
 10
-3474.50001855799
 20
2229.002517287795
 30
0.0
 11
-3474.50001855799
 21
3273.009729769192
 31
0.0
  0
LINE
  5
21A
330
1F
100
AcDbEntity
  8
0-C_ハッチ
  6
Continuous
 62
   120
370
     5
100
AcDbLine
 10
-3449.500018557989
 20
2229.002517287795
 30
0.0
 11
-3449.500018557989
 21
3273.960714502761
 31
0.0
  0
LINE
  5
21B
330
1F
100
AcDbEntity
  8
0-C_ハッチ
  6
Continuous
 62
   120
370
     5
100
AcDbLine
 10
-3424.500018557989
 20
2229.002517287795
 30
0.0
 11
-3424.500018557989
 21
3273.660599072664
 31
0.0
  0
LINE
  5
21C
330
1F
100
AcDbEntity
  8
0-C_ハッチ
  6
Continuous
 62
   120
370
     5
100
AcDbLine
 10
-3399.50001855799
 20
2229.002517287795
 30
0.0
 11
-3399.50001855799
 21
3272.107122062648
 31
0.0
  0
LINE
  5
21D
330
1F
100
AcDbEntity
  8
0-C_ハッチ
  6
Continuous
 62
   120
370
     5
100
AcDbLine
 10
-3374.500018557989
 20
2229.002517287795
 30
0.0
 11
-3374.500018557989
 21
3269.288490001317
 31
0.0
  0
LINE
  5
21E
330
1F
100
AcDbEntity
  8
0-C_ハッチ
  6
Continuous
 62
   120
370
     5
100
AcDbLine
 10
-3349.500018557989
 20
2229.002517287795
 30
0.0
 11
-3349.500018557989
 21
3265.182923126607
 31
0.0
  0
LINE
  5
21F
330
1F
100
AcDbEntity
  8
0-C_ハッチ
  6
Continuous
 62
   120
370
     5
100
AcDbLine
 10
-3324.50001855799
 20
2229.002517287795
 30
0.0
 11
-3324.50001855799
 21
3259.757791276878
 31
0.0
  0
LINE
  5
220
330
1F
100
AcDbEntity
  8
0-C_ハッチ
  6
Continuous
 62
   120
370
     5
100
AcDbLine
 10
-3299.500018557989
 20
2229.002517287795
 30
0.0
 11
-3299.500018557989
 21
3252.968257306019
 31
0.0
  0
LINE
  5
221
330
1F
100
AcDbEntity
  8
0-C_ハッチ
  6
Continuous
 62
   120
370
     5
100
AcDbLine
 10
-3274.500018557989
 20
2229.002517287795
 30
0.0
 11
-3274.500018557989
 21
3244.755289702315
 31
0.0
  0
LINE
  5
222
330
1F
100
AcDbEntity
  8
0-C_ハッチ
  6
Continuous
 62
   120
370
     5
100
AcDbLine
 10
-3249.50001855799
 20
2229.002517287795
 30
0.0
 11
-3249.50001855799
 21
3235.042823567147
 31
0.0
  0
LINE
  5
223
330
1F
100
AcDbEntity
  8
0-C_ハッチ
  6
Continuous
 62
   120
370
     5
100
AcDbLine
 10
-3224.500018557989
 20
2229.002517287795
 30
0.0
 11
-3224.500018557989
 21
3224.876928006007
 31
0.0
  0
LINE
  5
224
330
1F
100
AcDbEntity
  8
0-C_ハッチ
  6
Continuous
 62
   120
370
     5
100
AcDbLine
 10
-3199.500018557989
 20
2229.002517287795
 30
0.0
 11
-3199.500018557989
 21
3218.053638450881
 31
0.0
  0
LINE
  5
225
330
1F
100
AcDbEntity
  8
0-C_ハッチ
  6
Continuous
 62
   120
370
     5
100
AcDbLine
 10
-3174.50001855799
 20
2229.002517287795
 30
0.0
 11
-3174.50001855799
 21
3214.569724283228
 31
0.0
  0
LINE
  5
226
330
1F
100
AcDbEntity
  8
0-C_ハッチ
  6
Continuous
 62
   120
370
     5
100
AcDbLine
 10
-3149.500018557989
 20
2229.002517287795
 30
0.0
 11
-3149.500018557989
 21
3214.250381173507
 31
0.0
  0
LINE
  5
227
330
1F
100
AcDbEntity
  8
0-C_ハッチ
  6
Continuous
 62
   120
370
     5
100
AcDbLine
 10
-3124.500018557989
 20
2229.002517287795
 30
0.0
 11
-3124.500018557989
 21
3214.250381173507
 31
0.0
  0
LINE
  5
228
330
1F
100
AcDbEntity
  8
0-2_扉
  6
Continuous
 62
     7
370
     9
100
AcDbLine
 10
-3893.00001855799
 20
3409.000257337415
 30
0.0
 11
-2996.000018557988
 21
3409.000257337415
 31
0.0
  0
LINE
  5
229
330
1F
100
AcDbEntity
  8
0-2_扉
  6
Continuous
 62
     7
370
     9
100
AcDbLine
 10
-3893.00001855799
 20
1426.000148463893
 30
0.0
 11
-2996.000018557988
 21
1426.000148463893
 31
0.0
  0
LINE
  5
22A
330
1F
100
AcDbEntity
  8
0-2_扉
  6
Continuous
 62
     7
370
     9
100
AcDbLine
 10
-3966.499969070018
 20
1426.621531718486
 30
0.0
 11
-3966.499969070018
 21
3409.000257337415
 31
0.0
  0
LINE
  5
22B
330
1F
100
AcDbEntity
  8
0-2_扉
  6
Continuous
 62
     7
370
     9
100
AcDbLine
 10
-4659.500068045948
 20
1426.621531718486
 30
0.0
 11
-4659.500068045948
 21
3409.000257337415
 31
0.0
  0
LINE
  5
22C
330
1F
100
AcDbEntity
  8
0-2_扉
  6
Continuous
 62
     7
370
     9
100
AcDbLine
 10
-4604.500010309989
 20
2084.002647606103
 30
0.0
 11
-4021.464024311783
 21
2084.002647606103
 31
0.0
  0
LINE
  5
22D
330
1F
100
AcDbEntity
  8
0-2_扉
  6
Continuous
 62
     7
370
     9
100
AcDbLine
 10
-3981.500018557983
 20
1576.000148463894
 30
0.0
 11
-3966.500216509841
 21
1561.000160835885
 31
0.0
  0
LINE
  5
22E
330
1F
100
AcDbEntity
  8
0-2_扉
  6
Continuous
 62
     7
370
     9
100
AcDbLine
 10
-4021.464024311783
 20
1616.000156711888
 30
0.0
 11
-4021.464024311783
 21
1617.431224926098
 31
0.0
  0
LINE
  5
22F
330
1F
100
AcDbEntity
  8
0-2_扉
  6
Continuous
 62
     7
370
     9
100
AcDbLine
 10
-4021.464024311783
 20
1616.000156711888
 30
0.0
 11
-4003.786428503085
 21
1598.322499043233
 31
0.0
  0
LINE
  5
230
330
1F
100
AcDbEntity
  8
0-2_扉
  6
Continuous
 62
     7
370
     9
100
AcDbLine
 10
-3966.500216509841
 20
2214.00022269584
 30
0.0
 11
-3981.500018557983
 21
2229.000148463893
 31
0.0
  0
LINE
  5
231
330
1F
100
AcDbEntity
  8
0-2_扉
  6
Continuous
 62
     7
370
     9
100
AcDbLine
 10
-3966.500216509841
 20
2139.002697094067
 30
0.0
 11
-3981.500018557983
 21
2124.002647606102
 31
0.0
  0
LINE
  5
232
330
1F
100
AcDbEntity
  8
0-2_扉
  6
Continuous
 62
     7
370
     9
100
AcDbLine
 10
-3981.500018557983
 20
2229.000148463893
 30
0.0
 11
-4215.500147226691
 21
2229.000148463893
 31
0.0
  0
LINE
  5
233
330
1F
100
AcDbEntity
  8
0-2_扉
  6
Continuous
 62
     7
370
     9
100
AcDbLine
 10
-4021.500150525888
 20
2084.002647606103
 30
0.0
 11
-4003.822307277366
 21
2101.680367134712
 31
0.0
  0
LINE
  5
234
330
1F
100
AcDbEntity
  8
0-2_扉
  6
Continuous
 62
     7
370
     9
100
AcDbLine
 10
-3981.500018557983
 20
2229.000148463893
 30
0.0
 11
-3981.500018557983
 21
2371.049166292758
 31
0.0
  0
LINE
  5
235
330
1F
100
AcDbEntity
  8
0-2_扉
  6
Continuous
 62
     7
370
     9
100
AcDbLine
 10
-3981.500018557983
 20
1576.000148463894
 30
0.0
 11
-3981.500018557983
 21
2124.002647606102
 31
0.0
  0
LINE
  5
236
330
1F
100
AcDbEntity
  8
0-2_扉
  6
Continuous
 62
     7
370
     9
100
AcDbLine
 10
-4021.464024311783
 20
1616.000156711888
 30
0.0
 11
-4021.464024311783
 21
2084.038773567375
 31
0.0
  0
LINE
  5
237
330
1F
100
AcDbEntity
  8
0-2_扉
  6
Continuous
 62
     7
370
     9
100
AcDbLine
 10
-3981.500018557983
 20
2371.049166292758
 30
0.0
 11
-3981.500018557983
 21
3214.002698743666
 31
0.0
  0
LINE
  5
238
330
1F
100
AcDbEntity
  8
0-2_扉
  6
Continuous
 62
     7
370
     9
100
AcDbLine
 10
-4644.500018557984
 20
1576.000148463894
 30
0.0
 11
-4659.500068045948
 21
1561.000160835885
 31
0.0
  0
LINE
  5
239
330
1F
100
AcDbEntity
  8
0-2_扉
  6
Continuous
 62
     7
370
     9
100
AcDbLine
 10
-4644.500018557984
 20
2124.002647606102
 30
0.0
 11
-4659.500068045948
 21
2139.002697094067
 31
0.0
  0
LINE
  5
23A
330
1F
100
AcDbEntity
  8
0-2_扉
  6
Continuous
 62
     7
370
     9
100
AcDbLine
 10
-4644.500018557984
 20
2229.000148463893
 30
0.0
 11
-4659.500068045948
 21
2214.00022269584
 31
0.0
  0
LINE
  5
23B
330
1F
100
AcDbEntity
  8
0-2_扉
  6
Continuous
 62
     7
370
     9
100
AcDbLine
 10
-4644.500018557984
 20
1576.000148463894
 30
0.0
 11
-4644.500018557984
 21
2124.002647606102
 31
0.0
  0
LINE
  5
23C
330
1F
100
AcDbEntity
  8
0-2_扉
  6
Continuous
 62
     7
370
     9
100
AcDbLine
 10
-4644.500018557984
 20
2229.000148463893
 30
0.0
 11
-4644.500018557984
 21
3214.002698743666
 31
0.0
  0
LINE
  5
23D
330
1F
100
AcDbEntity
  8
0-2_扉
  6
Continuous
 62
     7
370
     9
100
AcDbLine
 10
-4604.500010309989
 20
2084.002647606103
 30
0.0
 11
-4622.1777298386
 21
2101.680367134712
 31
0.0
  0
LINE
  5
23E
330
1F
100
AcDbEntity
  8
0-2_扉
  6
Continuous
 62
     7
370
     9
100
AcDbLine
 10
-4604.500010309989
 20
2084.002647606103
 30
0.0
 11
-4604.500010309989
 21
1616.000156711888
 31
0.0
  0
LINE
  5
23F
330
1F
100
AcDbEntity
  8
0-2_扉
  6
Continuous
 62
     7
370
     9
100
AcDbLine
 10
-4604.500010309989
 20
1616.000156711888
 30
0.0
 11
-4622.1777298386
 21
1598.322499043233
 31
0.0
  0
LINE
  5
240
330
1F
100
AcDbEntity
  8
0-2_扉
  6
Continuous
 62
     7
370
     9
100
AcDbLine
 10
-3981.500414466926
 20
3214.002698743666
 30
0.0
 11
-3966.500018557982
 21
3229.003094652608
 31
0.0
  0
LINE
  5
241
330
1F
100
AcDbEntity
  8
0-2_扉
  6
Continuous
 62
     7
370
     9
100
AcDbLine
 10
-4644.500018557983
 20
3214.002698743666
 30
0.0
 11
-4659.500018557983
 21
3229.002698743666
 31
0.0
  0
ARC
  5
242
330
1F
100
AcDbEntity
  8
0-2_扉
  6
Continuous
 62
     7
370
     9
100
AcDbCircle
 10
-4029.450477107739
 20
3414.002698743666
 30
0.0
 40
200.0
100
AcDbArc
 50
246.1044377521181
 51
270.0
  0
LINE
  5
243
330
1F
100
AcDbEntity
  8
0-2_扉
  6
Continuous
 62
     7
370
     9
100
AcDbLine
 10
-3981.500414466926
 20
3214.002698743666
 30
0.0
 11
-4029.450477107739
 21
3214.002698743666
 31
0.0
  0
ARC
  5
244
330
1F
100
AcDbEntity
  8
0-2_扉
  6
Continuous
 62
     7
370
     9
100
AcDbCircle
 10
-4596.549560008227
 20
3414.002698743666
 30
0.0
 40
200.0
100
AcDbArc
 50
270.0
 51
293.8955622478819
  0
LINE
  5
245
330
1F
100
AcDbEntity
  8
0-2_扉
  6
Continuous
 62
     7
370
     9
100
AcDbLine
 10
-4644.499622649041
 20
3214.002698743666
 30
0.0
 11
-4596.549560008227
 21
3214.002698743666
 31
0.0
  0
ARC
  5
246
330
1F
100
AcDbEntity
  8
0-2_扉
  6
Continuous
 62
     7
370
     9
100
AcDbCircle
 10
-4313.000018557984
 20
2774.002966287975
 30
0.0
 40
500.0000000000001
100
AcDbArc
 50
66.1044377521181
 51
113.8955622478819
  0
ARC
  5
247
330
1F
100
AcDbEntity
  8
0-2_扉
  6
Continuous
 62
     7
370
     9
100
AcDbCircle
 10
-4029.450477107739
 20
3414.002698743666
 30
0.0
 40
185.0
100
AcDbArc
 50
246.1044377521181
 51
270.0
  0
ARC
  5
248
330
1F
100
AcDbEntity
  8
0-2_扉
  6
Continuous
 62
     7
370
     9
100
AcDbCircle
 10
-4596.549560008227
 20
3414.002698743666
 30
0.0
 40
185.0
100
AcDbArc
 50
270.0
 51
293.8955622478819
  0
ARC
  5
249
330
1F
100
AcDbEntity
  8
0-2_扉
  6
Continuous
 62
     7
370
     9
100
AcDbCircle
 10
-4313.000018557984
 20
2774.002966287975
 30
0.0
 40
515.0
100
AcDbArc
 50
66.1044377521181
 51
113.8955622478819
  0
LINE
  5
24A
330
1F
100
AcDbEntity
  8
0-2_扉
  6
Continuous
 62
     7
370
     9
100
AcDbLine
 10
-3966.500364978959
 20
3229.00274823163
 30
0.0
 11
-4029.450477107739
 21
3229.00274823163
 31
0.0
  0
LINE
  5
24B
330
1F
100
AcDbEntity
  8
0-2_扉
  6
Continuous
 62
     7
370
     9
100
AcDbLine
 10
-4659.499672137007
 20
3229.00274823163
 30
0.0
 11
-4596.549560008227
 21
3229.00274823163
 31
0.0
  0
LINE
  5
24C
330
1F
100
AcDbEntity
  8
0-2_扉
  6
Continuous
 62
     7
370
     9
100
AcDbLine
 10
-4604.500010309989
 20
1616.000156711888
 30
0.0
 11
-4021.464024311783
 21
1616.000156711888
 31
0.0
  0
LINE
  5
24D
330
1F
100
AcDbEntity
  8
0-2_扉
  6
Continuous
 62
     7
370
     9
100
AcDbLine
 10
-3981.500018557983
 20
2124.002647606102
 30
0.0
 11
-4644.500018557984
 21
2124.002647606102
 31
0.0
  0
LINE
  5
24E
330
1F
100
AcDbEntity
  8
0-2_扉
  6
Continuous
 62
     7
370
     9
100
AcDbLine
 10
-3981.500018557983
 20
1576.000148463894
 30
0.0
 11
-4644.500018557984
 21
1576.000148463894
 31
0.0
  0
LINE
  5
24F
330
1F
100
AcDbEntity
  8
0-2_扉
  6
Continuous
 62
     7
370
     9
100
AcDbLine
 10
-3966.500216509841
 20
1561.000160835885
 30
0.0
 11
-4659.500068045948
 21
1561.000160835885
 31
0.0
  0
LINE
  5
250
330
1F
100
AcDbEntity
  8
0-2_扉
  6
Continuous
 62
     7
370
     9
100
AcDbLine
 10
-4659.500068045948
 20
2214.00022269584
 30
0.0
 11
-3966.500216509841
 21
2214.00022269584
 31
0.0
  0
LINE
  5
251
330
1F
100
AcDbEntity
  8
0-2_扉
  6
Continuous
 62
     7
370
     9
100
AcDbLine
 10
-3966.500216509841
 20
2139.002697094067
 30
0.0
 11
-4659.500068045948
 21
2139.002697094067
 31
0.0
  0
LINE
  5
252
330
1F
100
AcDbEntity
  8
0-C_ハッチ
  6
Continuous
 62
   120
370
     5
100
AcDbLine
 10
-4006.500018557983
 20
2229.002517287795
 30
0.0
 11
-4006.500018557983
 21
3214.002698743666
 31
0.0
  0
LINE
  5
253
330
1F
100
AcDbEntity
  8
0-C_ハッチ
  6
Continuous
 62
   120
370
     5
100
AcDbLine
 10
-4031.500018557983
 20
2229.002517287795
 30
0.0
 11
-4031.500018557983
 21
3214.013200569777
 31
0.0
  0
LINE
  5
254
330
1F
100
AcDbEntity
  8
0-C_ハッチ
  6
Continuous
 62
   120
370
     5
100
AcDbLine
 10
-4056.500018557983
 20
2229.002517287795
 30
0.0
 11
-4056.500018557983
 21
3215.840335245115
 31
0.0
  0
LINE
  5
255
330
1F
100
AcDbEntity
  8
0-C_ハッチ
  6
Continuous
 62
   120
370
     5
100
AcDbLine
 10
-4081.500018557983
 20
2229.002517287795
 30
0.0
 11
-4081.500018557983
 21
3220.894321828474
 31
0.0
  0
LINE
  5
256
330
1F
100
AcDbEntity
  8
0-C_ハッチ
  6
Continuous
 62
   120
370
     5
100
AcDbLine
 10
-4106.500018557983
 20
2229.002517287795
 30
0.0
 11
-4106.500018557983
 21
3229.440058530899
 31
0.0
  0
LINE
  5
257
330
1F
100
AcDbEntity
  8
0-C_ハッチ
  6
Continuous
 62
   120
370
     5
100
AcDbLine
 10
-4131.500018557983
 20
2229.002517287795
 30
0.0
 11
-4131.500018557983
 21
3239.897535906466
 31
0.0
  0
LINE
  5
258
330
1F
100
AcDbEntity
  8
0-C_ハッチ
  6
Continuous
 62
   120
370
     5
100
AcDbLine
 10
-4156.500018557983
 20
2229.002517287795
 30
0.0
 11
-4156.500018557983
 21
3248.879529196696
 31
0.0
  0
LINE
  5
259
330
1F
100
AcDbEntity
  8
0-C_ハッチ
  6
Continuous
 62
   120
370
     5
100
AcDbLine
 10
-4181.500018557983
 20
2229.002517287795
 30
0.0
 11
-4181.500018557983
 21
3256.400882950143
 31
0.0
  0
LINE
  5
25A
330
1F
100
AcDbEntity
  8
0-C_ハッチ
  6
Continuous
 62
   120
370
     5
100
AcDbLine
 10
-4231.500018557983
 20
2229.002517287795
 30
0.0
 11
-4231.500018557983
 21
3267.316000780273
 31
0.0
  0
LINE
  5
25B
330
1F
100
AcDbEntity
  8
0-C_ハッチ
  6
Continuous
 62
   120
370
     5
100
AcDbLine
 10
-4256.500018557983
 20
2229.002517287795
 30
0.0
 11
-4256.500018557983
 21
3270.800460243007
 31
0.0
  0
LINE
  5
25C
330
1F
100
AcDbEntity
  8
0-C_ハッチ
  6
Continuous
 62
   120
370
     5
100
AcDbLine
 10
-4206.500018557983
 20
2229.002517287795
 30
0.0
 11
-4206.500018557983
 21
3262.529065897812
 31
0.0
  0
LINE
  5
25D
330
1F
100
AcDbEntity
  8
0-C_ハッチ
  6
Continuous
 62
   120
370
     5
100
AcDbLine
 10
-4281.500018557983
 20
2229.002517287795
 30
0.0
 11
-4281.500018557983
 21
3273.009729769192
 31
0.0
  0
LINE
  5
25E
330
1F
100
AcDbEntity
  8
0-C_ハッチ
  6
Continuous
 62
   120
370
     5
100
AcDbLine
 10
-4306.500018557983
 20
2229.002517287795
 30
0.0
 11
-4306.500018557983
 21
3273.960714502761
 31
0.0
  0
LINE
  5
25F
330
1F
100
AcDbEntity
  8
0-C_ハッチ
  6
Continuous
 62
   120
370
     5
100
AcDbLine
 10
-4331.500018557983
 20
2229.002517287795
 30
0.0
 11
-4331.500018557983
 21
3273.660599072664
 31
0.0
  0
LINE
  5
260
330
1F
100
AcDbEntity
  8
0-C_ハッチ
  6
Continuous
 62
   120
370
     5
100
AcDbLine
 10
-4356.500018557983
 20
2229.002517287795
 30
0.0
 11
-4356.500018557983
 21
3272.107122062648
 31
0.0
  0
LINE
  5
261
330
1F
100
AcDbEntity
  8
0-C_ハッチ
  6
Continuous
 62
   120
370
     5
100
AcDbLine
 10
-4381.500018557983
 20
2229.002517287795
 30
0.0
 11
-4381.500018557983
 21
3269.288490001317
 31
0.0
  0
LINE
  5
262
330
1F
100
AcDbEntity
  8
0-C_ハッチ
  6
Continuous
 62
   120
370
     5
100
AcDbLine
 10
-4406.500018557983
 20
2229.002517287795
 30
0.0
 11
-4406.500018557983
 21
3265.182923126607
 31
0.0
  0
LINE
  5
263
330
1F
100
AcDbEntity
  8
0-C_ハッチ
  6
Continuous
 62
   120
370
     5
100
AcDbLine
 10
-4431.500018557983
 20
2229.002517287795
 30
0.0
 11
-4431.500018557983
 21
3259.757791276878
 31
0.0
  0
LINE
  5
264
330
1F
100
AcDbEntity
  8
0-C_ハッチ
  6
Continuous
 62
   120
370
     5
100
AcDbLine
 10
-4456.500018557983
 20
2229.002517287795
 30
0.0
 11
-4456.500018557983
 21
3252.968257306019
 31
0.0
  0
LINE
  5
265
330
1F
100
AcDbEntity
  8
0-C_ハッチ
  6
Continuous
 62
   120
370
     5
100
AcDbLine
 10
-4481.500018557983
 20
2229.002517287795
 30
0.0
 11
-4481.500018557983
 21
3244.755289702315
 31
0.0
  0
LINE
  5
266
330
1F
100
AcDbEntity
  8
0-C_ハッチ
  6
Continuous
 62
   120
370
     5
100
AcDbLine
 10
-4506.500018557983
 20
2229.002517287795
 30
0.0
 11
-4506.500018557983
 21
3235.042823567147
 31
0.0
  0
LINE
  5
267
330
1F
100
AcDbEntity
  8
0-C_ハッチ
  6
Continuous
 62
   120
370
     5
100
AcDbLine
 10
-4531.500018557983
 20
2229.002517287795
 30
0.0
 11
-4531.500018557983
 21
3224.876928006007
 31
0.0
  0
LINE
  5
268
330
1F
100
AcDbEntity
  8
0-C_ハッチ
  6
Continuous
 62
   120
370
     5
100
AcDbLine
 10
-4556.500018557983
 20
2229.002517287795
 30
0.0
 11
-4556.500018557983
 21
3218.053638450881
 31
0.0
  0
LINE
  5
269
330
1F
100
AcDbEntity
  8
0-C_ハッチ
  6
Continuous
 62
   120
370
     5
100
AcDbLine
 10
-4581.500018557983
 20
2229.002517287795
 30
0.0
 11
-4581.500018557983
 21
3214.569724283228
 31
0.0
  0
LINE
  5
26A
330
1F
100
AcDbEntity
  8
0-C_ハッチ
  6
Continuous
 62
   120
370
     5
100
AcDbLine
 10
-4606.500018557983
 20
2229.002517287795
 30
0.0
 11
-4606.500018557983
 21
3214.250381173507
 31
0.0
  0
LINE
  5
26B
330
1F
100
AcDbEntity
  8
0-C_ハッチ
  6
Continuous
 62
   120
370
     5
100
AcDbLine
 10
-4631.500018557983
 20
2229.002517287795
 30
0.0
 11
-4631.500018557983
 21
3214.250381173507
 31
0.0
  0
LINE
  5
26C
330
1F
100
AcDbEntity
  8
0-2_扉
  6
Continuous
 62
     7
370
     9
100
AcDbLine
 10
-3863.000018557983
 20
3409.000257337415
 30
0.0
 11
-4760.000018557985
 21
3409.000257337415
 31
0.0
  0
LINE
  5
26D
330
1F
100
AcDbEntity
  8
0-2_扉
  6
Continuous
 62
     7
370
     9
100
AcDbLine
 10
-3863.000018557983
 20
1426.000148463893
 30
0.0
 11
-4760.000018557985
 21
1426.000148463893
 31
0.0
  0
LINE
  5
26E
330
1F
100
AcDbEntity
  8
0-2_扉
  6
Continuous
 62
     7
370
     9
100
AcDbLine
 10
-3111.500018557989
 20
2229.000148463893
 30
0.0
 11
-3684.499924530856
 21
2229.000148463893
 31
0.0
  0
LINE
  5
26F
330
1F
100
AcDbEntity
  8
0-2_扉
  6
Continuous
 62
     7
370
     9
100
AcDbLine
 10
-4644.500018557984
 20
2229.000148463893
 30
0.0
 11
-4071.500112585117
 21
2229.000148463893
 31
0.0
  0
LINE
  5
270
330
1F
100
AcDbEntity
  8
0-4_枠
  6
Continuous
 62
    92
370
    13
100
AcDbLine
 10
-381.0002696063077
 20
1418.000148463893
 30
0.0
 11
-1965.000269606306
 21
1418.000148463893
 31
0.0
  0
LINE
  5
271
330
1F
100
AcDbEntity
  8
0-4_枠
  6
Continuous
 62
    92
370
    13
100
AcDbLine
 10
-381.0002696063077
 20
1421.000148463893
 30
0.0
 11
-1965.000269606306
 21
1421.000148463893
 31
0.0
  0
LINE
  5
272
330
1F
100
AcDbEntity
  8
0-4_枠
  6
Continuous
 62
    92
370
    13
100
AcDbLine
 10
-2996.000018557986
 20
1418.000148463893
 30
0.0
 11
-4760.000018557985
 21
1418.000148463893
 31
0.0
  0
LINE
  5
273
330
1F
100
AcDbEntity
  8
0-4_枠
  6
Continuous
 62
    92
370
    13
100
AcDbLine
 10
-2996.000018557986
 20
1421.000148463893
 30
0.0
 11
-4760.000018557985
 21
1421.000148463893
 31
0.0
  0
LINE
  5
274
330
1F
100
AcDbEntity
  8
0-B_寸法
  6
Continuous
 62
   120
370
     5
100
AcDbLine
 10
-2295.000269606307
 20
-2693.250083820241
 30
0.0
 11
-2045.000269606307
 21
-2693.250083820241
 31
0.0
  0
LWPOLYLINE
  5
275
330
1F
100
AcDbEntity
  8
0-B_寸法
  6
Continuous
 62
     7
370
     9
100
AcDbPolyline
 90
        4
 70
     1
 43
3.0
 10
-2293.500269606307
 20
-2693.250083820241
 42
0.4142135623731
 10
-2295.000269606307
 20
-2691.750083820241
 42
0.4142135623731
 10
-2296.500269606306
 20
-2693.250083820241
 42
0.4142135623731
 10
-2295.000269606307
 20
-2694.750083820241
 42
0.4142135623731
  0
LINE
  5
276
330
1F
100
AcDbEntity
  8
0-B_寸法
  6
Continuous
 62
   120
370
     5
100
AcDbLine
 10
-2295.000269606307
 20
-510.2500838202414
 30
0.0
 11
-2045.000269606307
 21
-510.2500838202414
 31
0.0
  0
LINE
  5
277
330
1F
100
AcDbEntity
  8
0-B_寸法
  6
Continuous
 62
   120
370
     5
100
AcDbLine
 10
-2295.000269606307
 20
-510.2500838202414
 30
0.0
 11
-2295.000269606307
 21
-2693.250083820241
 31
0.0
  0
LWPOLYLINE
  5
278
330
1F
100
AcDbEntity
  8
0-B_寸法
  6
Continuous
 62
     7
370
     9
100
AcDbPolyline
 90
        4
 70
     1
 43
3.0
 10
-2293.500269606307
 20
-510.2500838202414
 42
0.4142135623731
 10
-2295.000269606307
 20
-508.7500838202414
 42
0.4142135623731
 10
-2296.500269606306
 20
-510.2500838202414
 42
0.4142135623731
 10
-2295.000269606307
 20
-511.7500838202414
 42
0.4142135623731
  0
MTEXT
  5
279
330
1F
100
AcDbEntity
  8
0-B_寸法
  6
Continuous
 62
     7
370
    70
100
AcDbMText
 10
-2310.000269606307
 20
-1819.925083820241
 30
0.0
 40
57.14999999999999
 41
412.5
 46
0.0
 71
     7
 72
     1
  1
{\fＭＳ ゴシック|b0|i0|c128|p49;ＤＨ＝2,183}
 11
6.123031769111886E-17
 21
1.0
 31
0.0
 73
     1
 44
1.0
  0
LINE
  5
27A
330
1F
100
AcDbEntity
  8
0-B_寸法
  6
Continuous
 62
   120
370
     5
100
AcDbLine
 10
-5090.000018557985
 20
-2693.250083820241
 30
0.0
 11
-4840.000018557987
 21
-2693.250083820241
 31
0.0
  0
LWPOLYLINE
  5
27B
330
1F
100
AcDbEntity
  8
0-B_寸法
  6
Continuous
 62
     7
370
     9
100
AcDbPolyline
 90
        4
 70
     1
 43
3.0
 10
-5088.500018557985
 20
-2693.250083820241
 42
0.4142135623731
 10
-5090.000018557985
 20
-2691.750083820241
 42
0.4142135623731
 10
-5091.500018557985
 20
-2693.250083820241
 42
0.4142135623731
 10
-5090.000018557985
 20
-2694.750083820241
 42
0.4142135623731
  0
LINE
  5
27C
330
1F
100
AcDbEntity
  8
0-B_寸法
  6
Continuous
 62
   120
370
     5
100
AcDbLine
 10
-5090.000018557985
 20
-510.250083820241
 30
0.0
 11
-4840.000018557987
 21
-510.250083820241
 31
0.0
  0
LWPOLYLINE
  5
27D
330
1F
100
AcDbEntity
  8
0-B_寸法
  6
Continuous
 62
     7
370
     9
100
AcDbPolyline
 90
        4
 70
     1
 43
3.0
 10
-5088.500018557985
 20
-510.250083820241
 42
0.4142135623731
 10
-5090.000018557985
 20
-508.7500838202409
 42
0.4142135623731
 10
-5091.500018557985
 20
-510.250083820241
 42
0.4142135623731
 10
-5090.000018557985
 20
-511.750083820241
 42
0.4142135623731
  0
LINE
  5
27E
330
1F
100
AcDbEntity
  8
0-B_寸法
  6
Continuous
 62
   120
370
     5
100
AcDbLine
 10
-5090.000018557985
 20
-510.250083820241
 30
0.0
 11
-5090.000018557985
 21
-2693.250083820241
 31
0.0
  0
MTEXT
  5
27F
330
1F
100
AcDbEntity
  8
0-B_寸法
  6
Continuous
 62
     7
370
    70
100
AcDbMText
 10
-5105.000018557987
 20
-1819.925083820241
 30
0.0
 40
57.14999999999999
 41
412.5
 46
0.0
 71
     7
 72
     1
  1
{\fＭＳ ゴシック|b0|i0|c128|p49;ＤＨ＝2,183}
 11
6.123031769111886E-17
 21
1.0
 31
0.0
 73
     1
 44
1.0
  0
LINE
  5
280
330
1F
100
AcDbEntity
  8
引手
  6
JWW_CENTER1
 62
     7
370
     9
100
AcDbLine
 10
-390.9261038049843
 20
-1735.750083820242
 30
0.0
 11
-463.4358004141453
 21
-1735.750083820242
 31
0.0
  0
LINE
  5
281
330
1F
100
AcDbEntity
  8
引手
  6
JWW_CENTER1
 62
     7
370
     9
100
AcDbLine
 10
-429.0002696063084
 20
-1820.980752355766
 30
0.0
 11
-429.0002696063084
 21
-1650.13048093163
 31
0.0
  0
LINE
  5
282
330
1F
100
AcDbEntity
  8
引手
  6
JWW_DASHED1
 62
     7
370
     9
100
AcDbLine
 10
-445.0002696063075
 20
-1786.750083820242
 30
0.0
 11
-445.0002696063075
 21
-1684.750083820241
 31
0.0
  0
LINE
  5
283
330
1F
100
AcDbEntity
  8
引手
  6
JWW_DASHED1
 62
     7
370
     9
100
AcDbLine
 10
-413.0002696063093
 20
-1786.750083820242
 30
0.0
 11
-445.0002696063075
 21
-1786.750083820242
 31
0.0
  0
LINE
  5
284
330
1F
100
AcDbEntity
  8
引手
  6
JWW_DASHED1
 62
     7
370
     9
100
AcDbLine
 10
-413.0002696063093
 20
-1786.750083820242
 30
0.0
 11
-413.0002696063093
 21
-1684.750083820241
 31
0.0
  0
LINE
  5
285
330
1F
100
AcDbEntity
  8
引手
  6
JWW_DASHED1
 62
     7
370
     9
100
AcDbLine
 10
-413.0002696063093
 20
-1684.750083820241
 30
0.0
 11
-445.0002696063075
 21
-1684.750083820241
 31
0.0
  0
LINE
  5
286
330
1F
100
AcDbEntity
  8
引手
  6
Continuous
 62
     7
370
     9
100
AcDbLine
 10
-410.0002696063078
 20
-1790.750083820242
 30
0.0
 11
-448.000269606309
 21
-1790.750083820242
 31
0.0
  0
LINE
  5
287
330
1F
100
AcDbEntity
  8
引手
  6
Continuous
 62
     7
370
     9
100
AcDbLine
 10
-416.5002696063087
 20
-1774.750083820241
 30
0.0
 11
-441.5002696063081
 21
-1774.750083820241
 31
0.0
  0
LINE
  5
288
330
1F
100
AcDbEntity
  8
引手
  6
Continuous
 62
     7
370
     9
100
AcDbLine
 10
-416.5002696063087
 20
-1696.750083820242
 30
0.0
 11
-441.5002696063081
 21
-1696.750083820242
 31
0.0
  0
LINE
  5
289
330
1F
100
AcDbEntity
  8
引手
  6
Continuous
 62
     7
370
     9
100
AcDbLine
 10
-410.0002696063078
 20
-1680.750083820241
 30
0.0
 11
-448.000269606309
 21
-1680.750083820241
 31
0.0
  0
LINE
  5
28A
330
1F
100
AcDbEntity
  8
引手
  6
Continuous
 62
     7
370
     9
100
AcDbLine
 10
-410.0002696063078
 20
-1790.750083820242
 30
0.0
 11
-410.0002696063078
 21
-1680.750083820241
 31
0.0
  0
LINE
  5
28B
330
1F
100
AcDbEntity
  8
引手
  6
Continuous
 62
     7
370
     9
100
AcDbLine
 10
-416.5002696063087
 20
-1774.750083820241
 30
0.0
 11
-416.5002696063087
 21
-1696.750083820242
 31
0.0
  0
LINE
  5
28C
330
1F
100
AcDbEntity
  8
引手
  6
Continuous
 62
     7
370
     9
100
AcDbLine
 10
-441.5002696063081
 20
-1774.750083820241
 30
0.0
 11
-441.5002696063081
 21
-1696.750083820242
 31
0.0
  0
LINE
  5
28D
330
1F
100
AcDbEntity
  8
引手
  6
Continuous
 62
     7
370
     9
100
AcDbLine
 10
-448.000269606309
 20
-1790.750083820242
 30
0.0
 11
-448.000269606309
 21
-1680.750083820241
 31
0.0
  0
LINE
  5
28E
330
1F
100
AcDbEntity
  8
引手
  6
JWW_CENTER1
 62
     7
370
     9
100
AcDbLine
 10
-3005.925852756666
 20
-1735.750083820242
 30
0.0
 11
-3078.435549365827
 21
-1735.750083820242
 31
0.0
  0
LINE
  5
28F
330
1F
100
AcDbEntity
  8
引手
  6
JWW_CENTER1
 62
     7
370
     9
100
AcDbLine
 10
-3044.00001855799
 20
-1820.980752355766
 30
0.0
 11
-3044.00001855799
 21
-1650.13048093163
 31
0.0
  0
LINE
  5
290
330
1F
100
AcDbEntity
  8
引手
  6
JWW_DASHED1
 62
     7
370
     9
100
AcDbLine
 10
-3060.000018557989
 20
-1786.750083820242
 30
0.0
 11
-3060.000018557989
 21
-1684.750083820241
 31
0.0
  0
LINE
  5
291
330
1F
100
AcDbEntity
  8
引手
  6
JWW_DASHED1
 62
     7
370
     9
100
AcDbLine
 10
-3028.000018557991
 20
-1786.750083820242
 30
0.0
 11
-3060.000018557989
 21
-1786.750083820242
 31
0.0
  0
LINE
  5
292
330
1F
100
AcDbEntity
  8
引手
  6
JWW_DASHED1
 62
     7
370
     9
100
AcDbLine
 10
-3028.000018557991
 20
-1786.750083820242
 30
0.0
 11
-3028.000018557991
 21
-1684.750083820241
 31
0.0
  0
LINE
  5
293
330
1F
100
AcDbEntity
  8
引手
  6
JWW_DASHED1
 62
     7
370
     9
100
AcDbLine
 10
-3028.000018557991
 20
-1684.750083820241
 30
0.0
 11
-3060.000018557989
 21
-1684.750083820241
 31
0.0
  0
LINE
  5
294
330
1F
100
AcDbEntity
  8
引手
  6
Continuous
 62
     7
370
     9
100
AcDbLine
 10
-3025.00001855799
 20
-1790.750083820242
 30
0.0
 11
-3063.000018557991
 21
-1790.750083820242
 31
0.0
  0
LINE
  5
295
330
1F
100
AcDbEntity
  8
引手
  6
Continuous
 62
     7
370
     9
100
AcDbLine
 10
-3031.500018557991
 20
-1774.750083820241
 30
0.0
 11
-3056.50001855799
 21
-1774.750083820241
 31
0.0
  0
LINE
  5
296
330
1F
100
AcDbEntity
  8
引手
  6
Continuous
 62
     7
370
     9
100
AcDbLine
 10
-3031.500018557991
 20
-1696.750083820242
 30
0.0
 11
-3056.50001855799
 21
-1696.750083820242
 31
0.0
  0
LINE
  5
297
330
1F
100
AcDbEntity
  8
引手
  6
Continuous
 62
     7
370
     9
100
AcDbLine
 10
-3025.00001855799
 20
-1680.750083820241
 30
0.0
 11
-3063.000018557991
 21
-1680.750083820241
 31
0.0
  0
LINE
  5
298
330
1F
100
AcDbEntity
  8
引手
  6
Continuous
 62
     7
370
     9
100
AcDbLine
 10
-3025.00001855799
 20
-1790.750083820242
 30
0.0
 11
-3025.00001855799
 21
-1680.750083820241
 31
0.0
  0
LINE
  5
299
330
1F
100
AcDbEntity
  8
引手
  6
Continuous
 62
     7
370
     9
100
AcDbLine
 10
-3031.500018557991
 20
-1774.750083820241
 30
0.0
 11
-3031.500018557991
 21
-1696.750083820242
 31
0.0
  0
LINE
  5
29A
330
1F
100
AcDbEntity
  8
引手
  6
Continuous
 62
     7
370
     9
100
AcDbLine
 10
-3056.50001855799
 20
-1774.750083820241
 30
0.0
 11
-3056.50001855799
 21
-1696.750083820242
 31
0.0
  0
LINE
  5
29B
330
1F
100
AcDbEntity
  8
引手
  6
Continuous
 62
     7
370
     9
100
AcDbLine
 10
-3063.000018557991
 20
-1790.750083820242
 30
0.0
 11
-3063.000018557991
 21
-1680.750083820241
 31
0.0
  0
LINE
  5
29C
330
1F
100
AcDbEntity
  8
引手
  6
JWW_CENTER1
 62
     7
370
     9
100
AcDbLine
 10
-4750.074184359308
 20
-1735.750083820242
 30
0.0
 11
-4677.564487750147
 21
-1735.750083820242
 31
0.0
  0
LINE
  5
29D
330
1F
100
AcDbEntity
  8
引手
  6
JWW_CENTER1
 62
     7
370
     9
100
AcDbLine
 10
-4712.000018557984
 20
-1820.980752355766
 30
0.0
 11
-4712.000018557984
 21
-1650.13048093163
 31
0.0
  0
LINE
  5
29E
330
1F
100
AcDbEntity
  8
引手
  6
JWW_DASHED1
 62
     7
370
     9
100
AcDbLine
 10
-4696.000018557985
 20
-1786.750083820242
 30
0.0
 11
-4696.000018557985
 21
-1684.750083820241
 31
0.0
  0
LINE
  5
29F
330
1F
100
AcDbEntity
  8
引手
  6
JWW_DASHED1
 62
     7
370
     9
100
AcDbLine
 10
-4728.000018557983
 20
-1786.750083820242
 30
0.0
 11
-4696.000018557985
 21
-1786.750083820242
 31
0.0
  0
LINE
  5
2A0
330
1F
100
AcDbEntity
  8
引手
  6
JWW_DASHED1
 62
     7
370
     9
100
AcDbLine
 10
-4728.000018557983
 20
-1786.750083820242
 30
0.0
 11
-4728.000018557983
 21
-1684.750083820241
 31
0.0
  0
LINE
  5
2A1
330
1F
100
AcDbEntity
  8
引手
  6
JWW_DASHED1
 62
     7
370
     9
100
AcDbLine
 10
-4728.000018557983
 20
-1684.750083820241
 30
0.0
 11
-4696.000018557985
 21
-1684.750083820241
 31
0.0
  0
LINE
  5
2A2
330
1F
100
AcDbEntity
  8
引手
  6
Continuous
 62
     7
370
     9
100
AcDbLine
 10
-4731.000018557985
 20
-1790.750083820242
 30
0.0
 11
-4693.000018557984
 21
-1790.750083820242
 31
0.0
  0
LINE
  5
2A3
330
1F
100
AcDbEntity
  8
引手
  6
Continuous
 62
     7
370
     9
100
AcDbLine
 10
-4724.500018557984
 20
-1774.750083820241
 30
0.0
 11
-4699.500018557985
 21
-1774.750083820241
 31
0.0
  0
LINE
  5
2A4
330
1F
100
AcDbEntity
  8
引手
  6
Continuous
 62
     7
370
     9
100
AcDbLine
 10
-4724.500018557984
 20
-1696.750083820242
 30
0.0
 11
-4699.500018557985
 21
-1696.750083820242
 31
0.0
  0
LINE
  5
2A5
330
1F
100
AcDbEntity
  8
引手
  6
Continuous
 62
     7
370
     9
100
AcDbLine
 10
-4731.000018557985
 20
-1680.750083820241
 30
0.0
 11
-4693.000018557984
 21
-1680.750083820241
 31
0.0
  0
LINE
  5
2A6
330
1F
100
AcDbEntity
  8
引手
  6
Continuous
 62
     7
370
     9
100
AcDbLine
 10
-4731.000018557985
 20
-1790.750083820242
 30
0.0
 11
-4731.000018557985
 21
-1680.750083820241
 31
0.0
  0
LINE
  5
2A7
330
1F
100
AcDbEntity
  8
引手
  6
Continuous
 62
     7
370
     9
100
AcDbLine
 10
-4724.500018557984
 20
-1774.750083820241
 30
0.0
 11
-4724.500018557984
 21
-1696.750083820242
 31
0.0
  0
LINE
  5
2A8
330
1F
100
AcDbEntity
  8
引手
  6
Continuous
 62
     7
370
     9
100
AcDbLine
 10
-4699.500018557985
 20
-1774.750083820241
 30
0.0
 11
-4699.500018557985
 21
-1696.750083820242
 31
0.0
  0
LINE
  5
2A9
330
1F
100
AcDbEntity
  8
引手
  6
Continuous
 62
     7
370
     9
100
AcDbLine
 10
-4693.000018557984
 20
-1790.750083820242
 30
0.0
 11
-4693.000018557984
 21
-1680.750083820241
 31
0.0
  0
LINE
  5
2AA
330
1F
100
AcDbEntity
  8
引手
  6
JWW_CENTER1
 62
     7
370
     9
100
AcDbLine
 10
-1955.07443540763
 20
-1735.750083820242
 30
0.0
 11
-1882.564738798469
 21
-1735.750083820242
 31
0.0
  0
LINE
  5
2AB
330
1F
100
AcDbEntity
  8
引手
  6
JWW_CENTER1
 62
     7
370
     9
100
AcDbLine
 10
-1917.000269606306
 20
-1820.980752355766
 30
0.0
 11
-1917.000269606306
 21
-1650.13048093163
 31
0.0
  0
LINE
  5
2AC
330
1F
100
AcDbEntity
  8
引手
  6
JWW_DASHED1
 62
     7
370
     9
100
AcDbLine
 10
-1901.000269606307
 20
-1786.750083820242
 30
0.0
 11
-1901.000269606307
 21
-1684.750083820241
 31
0.0
  0
LINE
  5
2AD
330
1F
100
AcDbEntity
  8
引手
  6
JWW_DASHED1
 62
     7
370
     9
100
AcDbLine
 10
-1933.000269606305
 20
-1786.750083820242
 30
0.0
 11
-1901.000269606307
 21
-1786.750083820242
 31
0.0
  0
LINE
  5
2AE
330
1F
100
AcDbEntity
  8
引手
  6
JWW_DASHED1
 62
     7
370
     9
100
AcDbLine
 10
-1933.000269606305
 20
-1786.750083820242
 30
0.0
 11
-1933.000269606305
 21
-1684.750083820241
 31
0.0
  0
LINE
  5
2AF
330
1F
100
AcDbEntity
  8
引手
  6
JWW_DASHED1
 62
     7
370
     9
100
AcDbLine
 10
-1933.000269606305
 20
-1684.750083820241
 30
0.0
 11
-1901.000269606307
 21
-1684.750083820241
 31
0.0
  0
LINE
  5
2B0
330
1F
100
AcDbEntity
  8
引手
  6
Continuous
 62
     7
370
     9
100
AcDbLine
 10
-1936.000269606306
 20
-1790.750083820242
 30
0.0
 11
-1898.000269606305
 21
-1790.750083820242
 31
0.0
  0
LINE
  5
2B1
330
1F
100
AcDbEntity
  8
引手
  6
Continuous
 62
     7
370
     9
100
AcDbLine
 10
-1929.500269606305
 20
-1774.750083820241
 30
0.0
 11
-1904.500269606306
 21
-1774.750083820241
 31
0.0
  0
LINE
  5
2B2
330
1F
100
AcDbEntity
  8
引手
  6
Continuous
 62
     7
370
     9
100
AcDbLine
 10
-1929.500269606305
 20
-1696.750083820242
 30
0.0
 11
-1904.500269606306
 21
-1696.750083820242
 31
0.0
  0
LINE
  5
2B3
330
1F
100
AcDbEntity
  8
引手
  6
Continuous
 62
     7
370
     9
100
AcDbLine
 10
-1936.000269606306
 20
-1680.750083820241
 30
0.0
 11
-1898.000269606305
 21
-1680.750083820241
 31
0.0
  0
LINE
  5
2B4
330
1F
100
AcDbEntity
  8
引手
  6
Continuous
 62
     7
370
     9
100
AcDbLine
 10
-1936.000269606306
 20
-1790.750083820242
 30
0.0
 11
-1936.000269606306
 21
-1680.750083820241
 31
0.0
  0
LINE
  5
2B5
330
1F
100
AcDbEntity
  8
引手
  6
Continuous
 62
     7
370
     9
100
AcDbLine
 10
-1929.500269606305
 20
-1774.750083820241
 30
0.0
 11
-1929.500269606305
 21
-1696.750083820242
 31
0.0
  0
LINE
  5
2B6
330
1F
100
AcDbEntity
  8
引手
  6
Continuous
 62
     7
370
     9
100
AcDbLine
 10
-1904.500269606306
 20
-1774.750083820241
 30
0.0
 11
-1904.500269606306
 21
-1696.750083820242
 31
0.0
  0
LINE
  5
2B7
330
1F
100
AcDbEntity
  8
引手
  6
Continuous
 62
     7
370
     9
100
AcDbLine
 10
-1898.000269606305
 20
-1790.750083820242
 30
0.0
 11
-1898.000269606305
 21
-1680.750083820241
 31
0.0
  0
LINE
  5
2B8
330
1F
100
AcDbEntity
  8
0-4_枠
  6
Continuous
 62
    92
370
    13
100
AcDbLine
 10
-381.0002696063077
 20
-2701.250083820241
 30
0.0
 11
-381.0002696063077
 21
-2693.045304827405
 31
0.0
  0
LINE
  5
2B9
330
1F
100
AcDbEntity
  8
0-4_枠
  6
Continuous
 62
    92
370
    13
100
AcDbLine
 10
-2996.000018557986
 20
-2701.250083820241
 30
0.0
 11
-2996.000018557986
 21
-2693.045304827404
 31
0.0
  0
LINE
  5
2BA
330
1F
100
AcDbEntity
  8
0-4_枠
  6
Continuous
 62
    92
370
    13
100
AcDbLine
 10
-381.0002696063077
 20
-2692.712319017746
 30
0.0
 11
-381.0002696063077
 21
-466.2500838202405
 31
0.0
  0
LINE
  5
2BB
330
1F
100
AcDbEntity
  8
0-4_枠
  6
Continuous
 62
    92
370
    13
100
AcDbLine
 10
-2996.000018557986
 20
-2692.712319017746
 30
0.0
 11
-2996.000018557986
 21
-466.2500838202401
 31
0.0
  0
LINE
  5
2BC
330
1F
100
AcDbEntity
  8
0-2_扉
  6
JWW_DASHED1
 62
   120
370
     5
100
AcDbLine
 10
-1968.000269606307
 20
-2693.250083820241
 30
0.0
 11
-1965.000269606306
 21
-2693.250083820241
 31
0.0
  0
LINE
  5
2BD
330
1F
100
AcDbEntity
  8
0-2_扉
  6
JWW_DASHED1
 62
   120
370
     5
100
AcDbLine
 10
-378.000269606307
 20
-2693.250083820241
 30
0.0
 11
-381.0002696063077
 21
-2693.250083820241
 31
0.0
  0
LINE
  5
2BE
330
1F
100
AcDbEntity
  8
0-2_扉
  6
JWW_DASHED1
 62
   120
370
     5
100
AcDbLine
 10
-1968.000269606307
 20
-510.2500838202414
 30
0.0
 11
-1968.000269606307
 21
-2693.250083820241
 31
0.0
  0
LINE
  5
2BF
330
1F
100
AcDbEntity
  8
0-2_扉
  6
JWW_DASHED1
 62
   120
370
     5
100
AcDbLine
 10
-1965.000269606306
 20
-510.2500838202414
 30
0.0
 11
-1968.000269606307
 21
-510.2500838202414
 31
0.0
  0
LINE
  5
2C0
330
1F
100
AcDbEntity
  8
0-2_扉
  6
JWW_DASHED1
 62
   120
370
     5
100
AcDbLine
 10
-378.000269606307
 20
-510.2500838202414
 30
0.0
 11
-378.000269606307
 21
-2693.250083820241
 31
0.0
  0
LINE
  5
2C1
330
1F
100
AcDbEntity
  8
0-2_扉
  6
JWW_DASHED1
 62
   120
370
     5
100
AcDbLine
 10
-381.0002696063077
 20
-510.2500838202414
 30
0.0
 11
-378.000269606307
 21
-510.2500838202414
 31
0.0
  0
LINE
  5
2C2
330
1F
100
AcDbEntity
  8
0-2_扉
  6
JWW_DASHED1
 62
   120
370
     5
100
AcDbLine
 10
-1158.000269606305
 20
-2693.250083820241
 30
0.0
 11
-1158.000269606305
 21
-510.2500838202414
 31
0.0
  0
LINE
  5
2C3
330
1F
100
AcDbEntity
  8
0-2_扉
  6
JWW_DASHED1
 62
   120
370
     5
100
AcDbLine
 10
-4763.000018557986
 20
-2693.250083820241
 30
0.0
 11
-4760.000018557985
 21
-2693.250083820241
 31
0.0
  0
LINE
  5
2C4
330
1F
100
AcDbEntity
  8
0-2_扉
  6
JWW_DASHED1
 62
   120
370
     5
100
AcDbLine
 10
-2993.000018557989
 20
-2693.250083820241
 30
0.0
 11
-2996.000018557986
 21
-2693.250083820241
 31
0.0
  0
LINE
  5
2C5
330
1F
100
AcDbEntity
  8
0-2_扉
  6
JWW_DASHED1
 62
   120
370
     5
100
AcDbLine
 10
-3863.000018557986
 20
-2693.250083820241
 30
0.0
 11
-3863.000018557986
 21
-510.250083820241
 31
0.0
  0
LINE
  5
2C6
330
1F
100
AcDbEntity
  8
0-2_扉
  6
JWW_DASHED1
 62
   120
370
     5
100
AcDbLine
 10
-4763.000018557986
 20
-510.250083820241
 30
0.0
 11
-4763.000018557986
 21
-2693.250083820241
 31
0.0
  0
LINE
  5
2C7
330
1F
100
AcDbEntity
  8
0-2_扉
  6
JWW_DASHED1
 62
   120
370
     5
100
AcDbLine
 10
-2993.000018557989
 20
-510.250083820241
 30
0.0
 11
-2993.000018557989
 21
-2693.250083820241
 31
0.0
  0
LINE
  5
2C8
330
1F
100
AcDbEntity
  8
0-2_扉
  6
JWW_DASHED1
 62
   120
370
     5
100
AcDbLine
 10
-4760.000018557985
 20
-510.250083820241
 30
0.0
 11
-4763.000018557986
 21
-510.250083820241
 31
0.0
  0
LINE
  5
2C9
330
1F
100
AcDbEntity
  8
0-2_扉
  6
JWW_DASHED1
 62
   120
370
     5
100
AcDbLine
 10
-2996.000018557986
 20
-510.250083820241
 30
0.0
 11
-2993.000018557989
 21
-510.250083820241
 31
0.0
  0
LINE
  5
2CA
330
1F
100
AcDbEntity
  8
0-2_扉
  6
JWW_DASHED1
 62
   120
370
     5
100
AcDbLine
 10
-3893.000018557989
 20
-510.2500838202418
 30
0.0
 11
-3893.000018557989
 21
-514.2500838202416
 31
0.0
  0
LINE
  5
2CB
330
1F
100
AcDbEntity
  8
0-2_扉
  6
JWW_DASHED1
 62
   120
370
     5
100
AcDbLine
 10
-3863.000018557984
 20
-510.2500838202418
 30
0.0
 11
-3863.000018557984
 21
-514.2500838202416
 31
0.0
  0
LINE
  5
2CC
330
1F
100
AcDbEntity
  8
0-2_扉
  6
JWW_DASHED1
 62
   120
370
     5
100
AcDbLine
 10
-1188.000269606307
 20
-510.2500838202418
 30
0.0
 11
-1188.000269606307
 21
-514.2500838202416
 31
0.0
  0
LINE
  5
2CD
330
1F
100
AcDbEntity
  8
0-2_扉
  6
JWW_DASHED1
 62
   120
370
     5
100
AcDbLine
 10
-1158.000269606306
 20
-510.2500838202418
 30
0.0
 11
-1158.000269606306
 21
-514.2500838202416
 31
0.0
  0
LINE
  5
2CE
330
1F
100
AcDbEntity
  8
0-C_ハッチ
  6
Continuous
 62
   120
370
     5
100
AcDbLine
 10
-3749.50001855799
 20
-1890.250083820241
 30
0.0
 11
-3749.50001855799
 21
-705.2475335404687
 31
0.0
  0
LINE
  5
2CF
330
1F
100
AcDbEntity
  8
0-C_ハッチ
  6
Continuous
 62
   120
370
     5
100
AcDbLine
 10
-3724.500018557989
 20
-1890.250083820241
 30
0.0
 11
-3724.500018557989
 21
-705.2370317143574
 31
0.0
  0
LINE
  5
2D0
330
1F
100
AcDbEntity
  8
0-C_ハッチ
  6
Continuous
 62
   120
370
     5
100
AcDbLine
 10
-3699.50001855799
 20
-1890.250083820241
 30
0.0
 11
-3699.50001855799
 21
-703.4098970390196
 31
0.0
  0
LINE
  5
2D1
330
1F
100
AcDbEntity
  8
0-C_ハッチ
  6
Continuous
 62
   120
370
     5
100
AcDbLine
 10
-3674.50001855799
 20
-1890.250083820241
 30
0.0
 11
-3674.50001855799
 21
-698.3559104556599
 31
0.0
  0
LINE
  5
2D2
330
1F
100
AcDbEntity
  8
0-C_ハッチ
  6
Continuous
 62
   120
370
     5
100
AcDbLine
 10
-3649.500018557989
 20
-1890.250083820241
 30
0.0
 11
-3649.500018557989
 21
-689.8101737532359
 31
0.0
  0
LINE
  5
2D3
330
1F
100
AcDbEntity
  8
0-C_ハッチ
  6
Continuous
 62
   120
370
     5
100
AcDbLine
 10
-3624.50001855799
 20
-1890.250083820241
 30
0.0
 11
-3624.50001855799
 21
-679.3526963776683
 31
0.0
  0
LINE
  5
2D4
330
1F
100
AcDbEntity
  8
0-C_ハッチ
  6
Continuous
 62
   120
370
     5
100
AcDbLine
 10
-3599.50001855799
 20
-1890.250083820241
 30
0.0
 11
-3599.50001855799
 21
-670.3707030874393
 31
0.0
  0
LINE
  5
2D5
330
1F
100
AcDbEntity
  8
0-C_ハッチ
  6
Continuous
 62
   120
370
     5
100
AcDbLine
 10
-3574.500018557989
 20
-1890.250083820241
 30
0.0
 11
-3574.500018557989
 21
-662.8493493339919
 31
0.0
  0
LINE
  5
2D6
330
1F
100
AcDbEntity
  8
0-C_ハッチ
  6
Continuous
 62
   120
370
     5
100
AcDbLine
 10
-3524.50001855799
 20
-1890.250083820241
 30
0.0
 11
-3524.50001855799
 21
-651.9342315038614
 31
0.0
  0
LINE
  5
2D7
330
1F
100
AcDbEntity
  8
0-C_ハッチ
  6
Continuous
 62
   120
370
     5
100
AcDbLine
 10
-3499.500018557989
 20
-1890.250083820241
 30
0.0
 11
-3499.500018557989
 21
-648.4497720411282
 31
0.0
  0
LINE
  5
2D8
330
1F
100
AcDbEntity
  8
0-C_ハッチ
  6
Continuous
 62
   120
370
     5
100
AcDbLine
 10
-3549.50001855799
 20
-1890.250083820241
 30
0.0
 11
-3549.50001855799
 21
-656.7211663863235
 31
0.0
  0
LINE
  5
2D9
330
1F
100
AcDbEntity
  8
0-C_ハッチ
  6
Continuous
 62
   120
370
     5
100
AcDbLine
 10
-3474.50001855799
 20
-1890.250083820241
 30
0.0
 11
-3474.50001855799
 21
-646.2405025149426
 31
0.0
  0
LINE
  5
2DA
330
1F
100
AcDbEntity
  8
0-C_ハッチ
  6
Continuous
 62
   120
370
     5
100
AcDbLine
 10
-3449.500018557989
 20
-1890.250083820241
 30
0.0
 11
-3449.500018557989
 21
-645.2895177813734
 31
0.0
  0
LINE
  5
2DB
330
1F
100
AcDbEntity
  8
0-C_ハッチ
  6
Continuous
 62
   120
370
     5
100
AcDbLine
 10
-3424.500018557989
 20
-1890.250083820241
 30
0.0
 11
-3424.500018557989
 21
-645.5896332114702
 31
0.0
  0
LINE
  5
2DC
330
1F
100
AcDbEntity
  8
0-C_ハッチ
  6
Continuous
 62
   120
370
     5
100
AcDbLine
 10
-3399.50001855799
 20
-1890.250083820241
 30
0.0
 11
-3399.50001855799
 21
-647.1431102214865
 31
0.0
  0
LINE
  5
2DD
330
1F
100
AcDbEntity
  8
0-C_ハッチ
  6
Continuous
 62
   120
370
     5
100
AcDbLine
 10
-3374.500018557989
 20
-1890.250083820241
 30
0.0
 11
-3374.500018557989
 21
-649.9617422828178
 31
0.0
  0
LINE
  5
2DE
330
1F
100
AcDbEntity
  8
0-C_ハッチ
  6
Continuous
 62
   120
370
     5
100
AcDbLine
 10
-3349.500018557989
 20
-1890.250083820241
 30
0.0
 11
-3349.500018557989
 21
-654.0673091575281
 31
0.0
  0
LINE
  5
2DF
330
1F
100
AcDbEntity
  8
0-C_ハッチ
  6
Continuous
 62
   120
370
     5
100
AcDbLine
 10
-3324.50001855799
 20
-1890.250083820241
 30
0.0
 11
-3324.50001855799
 21
-659.492441007257
 31
0.0
  0
LINE
  5
2E0
330
1F
100
AcDbEntity
  8
0-C_ハッチ
  6
Continuous
 62
   120
370
     5
100
AcDbLine
 10
-3299.500018557989
 20
-1890.250083820241
 30
0.0
 11
-3299.500018557989
 21
-666.2819749781156
 31
0.0
  0
LINE
  5
2E1
330
1F
100
AcDbEntity
  8
0-C_ハッチ
  6
Continuous
 62
   120
370
     5
100
AcDbLine
 10
-3274.500018557989
 20
-1890.250083820241
 30
0.0
 11
-3274.500018557989
 21
-674.4949425818191
 31
0.0
  0
LINE
  5
2E2
330
1F
100
AcDbEntity
  8
0-C_ハッチ
  6
Continuous
 62
   120
370
     5
100
AcDbLine
 10
-3249.50001855799
 20
-1890.250083820241
 30
0.0
 11
-3249.50001855799
 21
-684.2074087169868
 31
0.0
  0
LINE
  5
2E3
330
1F
100
AcDbEntity
  8
0-C_ハッチ
  6
Continuous
 62
   120
370
     5
100
AcDbLine
 10
-3224.500018557989
 20
-1890.250083820241
 30
0.0
 11
-3224.500018557989
 21
-694.373304278127
 31
0.0
  0
LINE
  5
2E4
330
1F
100
AcDbEntity
  8
0-C_ハッチ
  6
Continuous
 62
   120
370
     5
100
AcDbLine
 10
-3199.500018557989
 20
-1890.250083820241
 30
0.0
 11
-3199.500018557989
 21
-701.1965938332535
 31
0.0
  0
LINE
  5
2E5
330
1F
100
AcDbEntity
  8
0-C_ハッチ
  6
Continuous
 62
   120
370
     5
100
AcDbLine
 10
-3174.50001855799
 20
-1890.250083820241
 30
0.0
 11
-3174.50001855799
 21
-704.6805080009062
 31
0.0
  0
LINE
  5
2E6
330
1F
100
AcDbEntity
  8
0-C_ハッチ
  6
Continuous
 62
   120
370
     5
100
AcDbLine
 10
-3149.500018557989
 20
-1890.250083820241
 30
0.0
 11
-3149.500018557989
 21
-704.9998511106277
 31
0.0
  0
LINE
  5
2E7
330
1F
100
AcDbEntity
  8
0-C_ハッチ
  6
Continuous
 62
   120
370
     5
100
AcDbLine
 10
-3124.500018557989
 20
-1890.250083820241
 30
0.0
 11
-3124.500018557989
 21
-704.9998511106277
 31
0.0
  0
LINE
  5
2E8
330
1F
100
AcDbEntity
  8
0-2_扉
  6
Continuous
 62
     7
370
     9
100
AcDbLine
 10
-3774.499622649047
 20
-705.2475335404687
 30
0.0
 11
-3789.50001855799
 21
-690.2471376315272
 31
0.0
  0
LINE
  5
2E9
330
1F
100
AcDbEntity
  8
0-2_扉
  6
Continuous
 62
     7
370
     9
100
AcDbLine
 10
-3111.500018557989
 20
-705.2475335404687
 30
0.0
 11
-3096.500018557989
 21
-690.2475335404687
 31
0.0
  0
ARC
  5
2EA
330
1F
100
AcDbEntity
  8
0-2_扉
  6
Continuous
 62
     7
370
     9
100
AcDbCircle
 10
-3726.549560008233
 20
-505.2475335404689
 30
0.0
 40
200.0
100
AcDbArc
 50
270.0
 51
293.8955622478819
  0
LINE
  5
2EB
330
1F
100
AcDbEntity
  8
0-2_扉
  6
Continuous
 62
     7
370
     9
100
AcDbLine
 10
-3774.499622649047
 20
-705.2475335404687
 30
0.0
 11
-3726.549560008233
 21
-705.2475335404687
 31
0.0
  0
ARC
  5
2EC
330
1F
100
AcDbEntity
  8
0-2_扉
  6
Continuous
 62
     7
370
     9
100
AcDbCircle
 10
-3159.450477107746
 20
-505.2475335404689
 30
0.0
 40
200.0
100
AcDbArc
 50
246.1044377521181
 51
270.0
  0
LINE
  5
2ED
330
1F
100
AcDbEntity
  8
0-2_扉
  6
Continuous
 62
     7
370
     9
100
AcDbLine
 10
-3111.500414466931
 20
-705.2475335404687
 30
0.0
 11
-3159.450477107746
 21
-705.2475335404687
 31
0.0
  0
ARC
  5
2EE
330
1F
100
AcDbEntity
  8
0-2_扉
  6
Continuous
 62
     7
370
     9
100
AcDbCircle
 10
-3443.000018557989
 20
-1145.24726599616
 30
0.0
 40
500.0000000000001
100
AcDbArc
 50
66.1044377521181
 51
113.8955622478819
  0
ARC
  5
2EF
330
1F
100
AcDbEntity
  8
0-2_扉
  6
Continuous
 62
     7
370
     9
100
AcDbCircle
 10
-3726.549560008233
 20
-505.2475335404689
 30
0.0
 40
185.0
100
AcDbArc
 50
270.0
 51
293.8955622478819
  0
ARC
  5
2F0
330
1F
100
AcDbEntity
  8
0-2_扉
  6
Continuous
 62
     7
370
     9
100
AcDbCircle
 10
-3159.450477107746
 20
-505.2475335404689
 30
0.0
 40
185.0
100
AcDbArc
 50
246.1044377521181
 51
270.0
  0
ARC
  5
2F1
330
1F
100
AcDbEntity
  8
0-2_扉
  6
Continuous
 62
     7
370
     9
100
AcDbCircle
 10
-3443.000018557989
 20
-1145.24726599616
 30
0.0
 40
515.0
100
AcDbArc
 50
66.1044377521181
 51
113.8955622478819
  0
LINE
  5
2F2
330
1F
100
AcDbEntity
  8
0-2_扉
  6
Continuous
 62
     7
370
     9
100
AcDbLine
 10
-3789.499672137013
 20
-690.2474840525042
 30
0.0
 11
-3726.549560008233
 21
-690.2474840525042
 31
0.0
  0
LINE
  5
2F3
330
1F
100
AcDbEntity
  8
0-2_扉
  6
Continuous
 62
     7
370
     9
100
AcDbLine
 10
-3096.500364978966
 20
-690.2474840525042
 30
0.0
 11
-3159.450477107746
 21
-690.2474840525042
 31
0.0
  0
LINE
  5
2F4
330
1F
100
AcDbEntity
  8
0-2_扉
  6
Continuous
 62
     7
370
     9
100
AcDbLine
 10
-3151.500026805983
 20
-2035.247584678032
 30
0.0
 11
-3734.536012804189
 21
-2035.247584678032
 31
0.0
  0
LINE
  5
2F5
330
1F
100
AcDbEntity
  8
0-2_扉
  6
Continuous
 62
     7
370
     9
100
AcDbLine
 10
-3774.500018557989
 20
-2543.250083820241
 30
0.0
 11
-3789.499820606131
 21
-2558.25007144825
 31
0.0
  0
LINE
  5
2F6
330
1F
100
AcDbEntity
  8
0-2_扉
  6
Continuous
 62
     7
370
     9
100
AcDbLine
 10
-3734.536012804189
 20
-2503.250075572247
 30
0.0
 11
-3734.536012804189
 21
-2501.819007358037
 31
0.0
  0
LINE
  5
2F7
330
1F
100
AcDbEntity
  8
0-2_扉
  6
Continuous
 62
     7
370
     9
100
AcDbLine
 10
-3734.536012804189
 20
-2503.250075572247
 30
0.0
 11
-3752.213608612888
 21
-2520.927733240902
 31
0.0
  0
LINE
  5
2F8
330
1F
100
AcDbEntity
  8
0-2_扉
  6
Continuous
 62
     7
370
     9
100
AcDbLine
 10
-3789.499820606131
 20
-1905.250009588294
 30
0.0
 11
-3774.500018557989
 21
-1890.250083820241
 31
0.0
  0
LINE
  5
2F9
330
1F
100
AcDbEntity
  8
0-2_扉
  6
Continuous
 62
     7
370
     9
100
AcDbLine
 10
-3789.499820606131
 20
-1980.247535190068
 30
0.0
 11
-3774.500018557989
 21
-1995.247584678032
 31
0.0
  0
LINE
  5
2FA
330
1F
100
AcDbEntity
  8
0-2_扉
  6
Continuous
 62
     7
370
     9
100
AcDbLine
 10
-3734.499886590084
 20
-2035.247584678032
 30
0.0
 11
-3752.177729838606
 21
-2017.569865149422
 31
0.0
  0
LINE
  5
2FB
330
1F
100
AcDbEntity
  8
0-2_扉
  6
Continuous
 62
     7
370
     9
100
AcDbLine
 10
-3774.500018557989
 20
-2543.250083820241
 30
0.0
 11
-3774.500018557989
 21
-1995.247584678032
 31
0.0
  0
LINE
  5
2FC
330
1F
100
AcDbEntity
  8
0-2_扉
  6
Continuous
 62
     7
370
     9
100
AcDbLine
 10
-3734.536012804189
 20
-2503.250075572247
 30
0.0
 11
-3734.536012804189
 21
-2035.21145871676
 31
0.0
  0
LINE
  5
2FD
330
1F
100
AcDbEntity
  8
0-2_扉
  6
Continuous
 62
     7
370
     9
100
AcDbLine
 10
-3111.500018557989
 20
-2543.250083820241
 30
0.0
 11
-3096.499969070024
 21
-2558.25007144825
 31
0.0
  0
LINE
  5
2FE
330
1F
100
AcDbEntity
  8
0-2_扉
  6
Continuous
 62
     7
370
     9
100
AcDbLine
 10
-3111.500018557989
 20
-1995.247584678032
 30
0.0
 11
-3096.499969070024
 21
-1980.247535190068
 31
0.0
  0
LINE
  5
2FF
330
1F
100
AcDbEntity
  8
0-2_扉
  6
Continuous
 62
     7
370
     9
100
AcDbLine
 10
-3111.500018557989
 20
-2543.250083820241
 30
0.0
 11
-3111.500018557989
 21
-1995.247584678032
 31
0.0
  0
LINE
  5
300
330
1F
100
AcDbEntity
  8
0-2_扉
  6
Continuous
 62
     7
370
     9
100
AcDbLine
 10
-3151.500026805983
 20
-2035.247584678032
 30
0.0
 11
-3133.822307277372
 21
-2017.569865149422
 31
0.0
  0
LINE
  5
301
330
1F
100
AcDbEntity
  8
0-2_扉
  6
Continuous
 62
     7
370
     9
100
AcDbLine
 10
-3151.500026805983
 20
-2035.247584678032
 30
0.0
 11
-3151.500026805983
 21
-2503.250075572247
 31
0.0
  0
LINE
  5
302
330
1F
100
AcDbEntity
  8
0-2_扉
  6
Continuous
 62
     7
370
     9
100
AcDbLine
 10
-3151.500026805983
 20
-2503.250075572247
 30
0.0
 11
-3133.822307277372
 21
-2520.927733240902
 31
0.0
  0
LINE
  5
303
330
1F
100
AcDbEntity
  8
0-2_扉
  6
Continuous
 62
     7
370
     9
100
AcDbLine
 10
-3151.500026805983
 20
-2503.250075572247
 30
0.0
 11
-3734.536012804189
 21
-2503.250075572247
 31
0.0
  0
LINE
  5
304
330
1F
100
AcDbEntity
  8
0-2_扉
  6
Continuous
 62
     7
370
     9
100
AcDbLine
 10
-3774.500018557989
 20
-1995.247584678032
 30
0.0
 11
-3111.500018557989
 21
-1995.247584678032
 31
0.0
  0
LINE
  5
305
330
1F
100
AcDbEntity
  8
0-2_扉
  6
Continuous
 62
     7
370
     9
100
AcDbLine
 10
-3774.500018557989
 20
-2543.250083820241
 30
0.0
 11
-3111.500018557989
 21
-2543.250083820241
 31
0.0
  0
LINE
  5
306
330
1F
100
AcDbEntity
  8
0-2_扉
  6
Continuous
 62
     7
370
     9
100
AcDbLine
 10
-3789.499820606131
 20
-2558.25007144825
 30
0.0
 11
-3096.499969070024
 21
-2558.25007144825
 31
0.0
  0
LINE
  5
307
330
1F
100
AcDbEntity
  8
0-2_扉
  6
Continuous
 62
     7
370
     9
100
AcDbLine
 10
-3096.499969070024
 20
-1905.250009588294
 30
0.0
 11
-3789.499820606131
 21
-1905.250009588294
 31
0.0
  0
LINE
  5
308
330
1F
100
AcDbEntity
  8
0-2_扉
  6
Continuous
 62
     7
370
     9
100
AcDbLine
 10
-3789.499820606131
 20
-1980.247535190068
 30
0.0
 11
-3096.499969070024
 21
-1980.247535190068
 31
0.0
  0
LINE
  5
309
330
1F
100
AcDbEntity
  8
0-2_扉
  6
Continuous
 62
     7
370
     9
100
AcDbLine
 10
-3111.500018557989
 20
-1890.250083820241
 30
0.0
 11
-3096.499969070024
 21
-1905.250009588294
 31
0.0
  0
LINE
  5
30A
330
1F
100
AcDbEntity
  8
0-2_扉
  6
Continuous
 62
     7
370
     9
100
AcDbLine
 10
-3111.500018557989
 20
-1890.250083820241
 30
0.0
 11
-3111.500018557989
 21
-705.2475335404687
 31
0.0
  0
LINE
  5
30B
330
1F
100
AcDbEntity
  8
0-2_扉
  6
Continuous
 62
     7
370
     9
100
AcDbLine
 10
-3774.500018557989
 20
-1890.250083820241
 30
0.0
 11
-3774.500018557989
 21
-705.2475335404687
 31
0.0
  0
LINE
  5
30C
330
1F
100
AcDbEntity
  8
0-2_扉
  6
Continuous
 62
     7
370
     9
100
AcDbLine
 10
-3111.500018557989
 20
-1890.250083820241
 30
0.0
 11
-3774.500018557989
 21
-1890.250083820241
 31
0.0
  0
LINE
  5
30D
330
1F
100
AcDbEntity
  8
0-2_扉
  6
Continuous
 62
     7
370
     9
100
AcDbLine
 10
-3893.00001855799
 20
-510.2499749467198
 30
0.0
 11
-3893.00001855799
 21
-2693.250083820241
 31
0.0
  0
LINE
  5
30E
330
1F
100
AcDbEntity
  8
0-2_扉
  6
Continuous
 62
     7
370
     9
100
AcDbLine
 10
-3789.500068045954
 20
-2693.250083820241
 30
0.0
 11
-3789.500068045954
 21
-510.2499749467198
 31
0.0
  0
LINE
  5
30F
330
1F
100
AcDbEntity
  8
0-2_扉
  6
Continuous
 62
     7
370
     9
100
AcDbLine
 10
-3096.499969070024
 20
-2693.250083820241
 30
0.0
 11
-3096.499969070024
 21
-510.2499749467198
 31
0.0
  0
LINE
  5
310
330
1F
100
AcDbEntity
  8
0-2_扉
  6
Continuous
 62
     7
370
     9
100
AcDbLine
 10
-3893.00001855799
 20
-510.2499749467198
 30
0.0
 11
-2996.000018557988
 21
-510.2499749467198
 31
0.0
  0
LINE
  5
311
330
1F
100
AcDbEntity
  8
0-2_扉
  6
Continuous
 62
     7
370
     9
100
AcDbLine
 10
-3893.00001855799
 20
-2693.250083820241
 30
0.0
 11
-2996.000018557988
 21
-2693.250083820241
 31
0.0
  0
LINE
  5
312
330
1F
100
AcDbEntity
  8
0-C_ハッチ
  6
Continuous
 62
   120
370
     5
100
AcDbLine
 10
-4006.500018557983
 20
-1890.250083820241
 30
0.0
 11
-4006.500018557983
 21
-705.2475335404687
 31
0.0
  0
LINE
  5
313
330
1F
100
AcDbEntity
  8
0-C_ハッチ
  6
Continuous
 62
   120
370
     5
100
AcDbLine
 10
-4031.500018557983
 20
-1890.250083820241
 30
0.0
 11
-4031.500018557983
 21
-705.2370317143574
 31
0.0
  0
LINE
  5
314
330
1F
100
AcDbEntity
  8
0-C_ハッチ
  6
Continuous
 62
   120
370
     5
100
AcDbLine
 10
-4056.500018557983
 20
-1890.250083820241
 30
0.0
 11
-4056.500018557983
 21
-703.4098970390196
 31
0.0
  0
LINE
  5
315
330
1F
100
AcDbEntity
  8
0-C_ハッチ
  6
Continuous
 62
   120
370
     5
100
AcDbLine
 10
-4081.500018557983
 20
-1890.250083820241
 30
0.0
 11
-4081.500018557983
 21
-698.3559104556599
 31
0.0
  0
LINE
  5
316
330
1F
100
AcDbEntity
  8
0-C_ハッチ
  6
Continuous
 62
   120
370
     5
100
AcDbLine
 10
-4106.500018557983
 20
-1890.250083820241
 30
0.0
 11
-4106.500018557983
 21
-689.8101737532359
 31
0.0
  0
LINE
  5
317
330
1F
100
AcDbEntity
  8
0-C_ハッチ
  6
Continuous
 62
   120
370
     5
100
AcDbLine
 10
-4131.500018557983
 20
-1890.250083820241
 30
0.0
 11
-4131.500018557983
 21
-679.3526963776683
 31
0.0
  0
LINE
  5
318
330
1F
100
AcDbEntity
  8
0-C_ハッチ
  6
Continuous
 62
   120
370
     5
100
AcDbLine
 10
-4156.500018557983
 20
-1890.250083820241
 30
0.0
 11
-4156.500018557983
 21
-670.3707030874393
 31
0.0
  0
LINE
  5
319
330
1F
100
AcDbEntity
  8
0-C_ハッチ
  6
Continuous
 62
   120
370
     5
100
AcDbLine
 10
-4181.500018557983
 20
-1890.250083820241
 30
0.0
 11
-4181.500018557983
 21
-662.8493493339919
 31
0.0
  0
LINE
  5
31A
330
1F
100
AcDbEntity
  8
0-C_ハッチ
  6
Continuous
 62
   120
370
     5
100
AcDbLine
 10
-4231.500018557983
 20
-1890.250083820241
 30
0.0
 11
-4231.500018557983
 21
-651.9342315038614
 31
0.0
  0
LINE
  5
31B
330
1F
100
AcDbEntity
  8
0-C_ハッチ
  6
Continuous
 62
   120
370
     5
100
AcDbLine
 10
-4256.500018557983
 20
-1890.250083820241
 30
0.0
 11
-4256.500018557983
 21
-648.4497720411282
 31
0.0
  0
LINE
  5
31C
330
1F
100
AcDbEntity
  8
0-C_ハッチ
  6
Continuous
 62
   120
370
     5
100
AcDbLine
 10
-4206.500018557983
 20
-1890.250083820241
 30
0.0
 11
-4206.500018557983
 21
-656.7211663863235
 31
0.0
  0
LINE
  5
31D
330
1F
100
AcDbEntity
  8
0-C_ハッチ
  6
Continuous
 62
   120
370
     5
100
AcDbLine
 10
-4281.500018557983
 20
-1890.250083820241
 30
0.0
 11
-4281.500018557983
 21
-646.2405025149426
 31
0.0
  0
LINE
  5
31E
330
1F
100
AcDbEntity
  8
0-C_ハッチ
  6
Continuous
 62
   120
370
     5
100
AcDbLine
 10
-4306.500018557983
 20
-1890.250083820241
 30
0.0
 11
-4306.500018557983
 21
-645.2895177813734
 31
0.0
  0
LINE
  5
31F
330
1F
100
AcDbEntity
  8
0-C_ハッチ
  6
Continuous
 62
   120
370
     5
100
AcDbLine
 10
-4331.500018557983
 20
-1890.250083820241
 30
0.0
 11
-4331.500018557983
 21
-645.5896332114702
 31
0.0
  0
LINE
  5
320
330
1F
100
AcDbEntity
  8
0-C_ハッチ
  6
Continuous
 62
   120
370
     5
100
AcDbLine
 10
-4356.500018557983
 20
-1890.250083820241
 30
0.0
 11
-4356.500018557983
 21
-647.1431102214865
 31
0.0
  0
LINE
  5
321
330
1F
100
AcDbEntity
  8
0-C_ハッチ
  6
Continuous
 62
   120
370
     5
100
AcDbLine
 10
-4381.500018557983
 20
-1890.250083820241
 30
0.0
 11
-4381.500018557983
 21
-649.9617422828178
 31
0.0
  0
LINE
  5
322
330
1F
100
AcDbEntity
  8
0-C_ハッチ
  6
Continuous
 62
   120
370
     5
100
AcDbLine
 10
-4406.500018557983
 20
-1890.250083820241
 30
0.0
 11
-4406.500018557983
 21
-654.0673091575281
 31
0.0
  0
LINE
  5
323
330
1F
100
AcDbEntity
  8
0-C_ハッチ
  6
Continuous
 62
   120
370
     5
100
AcDbLine
 10
-4431.500018557983
 20
-1890.250083820241
 30
0.0
 11
-4431.500018557983
 21
-659.492441007257
 31
0.0
  0
LINE
  5
324
330
1F
100
AcDbEntity
  8
0-C_ハッチ
  6
Continuous
 62
   120
370
     5
100
AcDbLine
 10
-4456.500018557983
 20
-1890.250083820241
 30
0.0
 11
-4456.500018557983
 21
-666.2819749781156
 31
0.0
  0
LINE
  5
325
330
1F
100
AcDbEntity
  8
0-C_ハッチ
  6
Continuous
 62
   120
370
     5
100
AcDbLine
 10
-4481.500018557983
 20
-1890.250083820241
 30
0.0
 11
-4481.500018557983
 21
-674.4949425818191
 31
0.0
  0
LINE
  5
326
330
1F
100
AcDbEntity
  8
0-C_ハッチ
  6
Continuous
 62
   120
370
     5
100
AcDbLine
 10
-4506.500018557983
 20
-1890.250083820241
 30
0.0
 11
-4506.500018557983
 21
-684.2074087169868
 31
0.0
  0
LINE
  5
327
330
1F
100
AcDbEntity
  8
0-C_ハッチ
  6
Continuous
 62
   120
370
     5
100
AcDbLine
 10
-4531.500018557983
 20
-1890.250083820241
 30
0.0
 11
-4531.500018557983
 21
-694.373304278127
 31
0.0
  0
LINE
  5
328
330
1F
100
AcDbEntity
  8
0-C_ハッチ
  6
Continuous
 62
   120
370
     5
100
AcDbLine
 10
-4556.500018557983
 20
-1890.250083820241
 30
0.0
 11
-4556.500018557983
 21
-701.1965938332535
 31
0.0
  0
LINE
  5
329
330
1F
100
AcDbEntity
  8
0-C_ハッチ
  6
Continuous
 62
   120
370
     5
100
AcDbLine
 10
-4581.500018557983
 20
-1890.250083820241
 30
0.0
 11
-4581.500018557983
 21
-704.6805080009062
 31
0.0
  0
LINE
  5
32A
330
1F
100
AcDbEntity
  8
0-C_ハッチ
  6
Continuous
 62
   120
370
     5
100
AcDbLine
 10
-4606.500018557983
 20
-1890.250083820241
 30
0.0
 11
-4606.500018557983
 21
-704.9998511106277
 31
0.0
  0
LINE
  5
32B
330
1F
100
AcDbEntity
  8
0-C_ハッチ
  6
Continuous
 62
   120
370
     5
100
AcDbLine
 10
-4631.500018557983
 20
-1890.250083820241
 30
0.0
 11
-4631.500018557983
 21
-704.9998511106277
 31
0.0
  0
LINE
  5
32C
330
1F
100
AcDbEntity
  8
0-2_扉
  6
Continuous
 62
     7
370
     9
100
AcDbLine
 10
-3981.500414466926
 20
-705.2475335404687
 30
0.0
 11
-3966.500018557982
 21
-690.2471376315272
 31
0.0
  0
LINE
  5
32D
330
1F
100
AcDbEntity
  8
0-2_扉
  6
Continuous
 62
     7
370
     9
100
AcDbLine
 10
-4644.500018557983
 20
-705.2475335404687
 30
0.0
 11
-4659.500018557983
 21
-690.2475335404687
 31
0.0
  0
ARC
  5
32E
330
1F
100
AcDbEntity
  8
0-2_扉
  6
Continuous
 62
     7
370
     9
100
AcDbCircle
 10
-4029.450477107739
 20
-505.2475335404689
 30
0.0
 40
200.0
100
AcDbArc
 50
246.1044377521181
 51
270.0
  0
LINE
  5
32F
330
1F
100
AcDbEntity
  8
0-2_扉
  6
Continuous
 62
     7
370
     9
100
AcDbLine
 10
-3981.500414466926
 20
-705.2475335404687
 30
0.0
 11
-4029.450477107739
 21
-705.2475335404687
 31
0.0
  0
ARC
  5
330
330
1F
100
AcDbEntity
  8
0-2_扉
  6
Continuous
 62
     7
370
     9
100
AcDbCircle
 10
-4596.549560008227
 20
-505.2475335404689
 30
0.0
 40
200.0
100
AcDbArc
 50
270.0
 51
293.8955622478819
  0
LINE
  5
331
330
1F
100
AcDbEntity
  8
0-2_扉
  6
Continuous
 62
     7
370
     9
100
AcDbLine
 10
-4644.499622649041
 20
-705.2475335404687
 30
0.0
 11
-4596.549560008227
 21
-705.2475335404687
 31
0.0
  0
ARC
  5
332
330
1F
100
AcDbEntity
  8
0-2_扉
  6
Continuous
 62
     7
370
     9
100
AcDbCircle
 10
-4313.000018557984
 20
-1145.24726599616
 30
0.0
 40
500.0000000000001
100
AcDbArc
 50
66.1044377521181
 51
113.8955622478819
  0
ARC
  5
333
330
1F
100
AcDbEntity
  8
0-2_扉
  6
Continuous
 62
     7
370
     9
100
AcDbCircle
 10
-4029.450477107739
 20
-505.2475335404689
 30
0.0
 40
185.0
100
AcDbArc
 50
246.1044377521181
 51
270.0
  0
ARC
  5
334
330
1F
100
AcDbEntity
  8
0-2_扉
  6
Continuous
 62
     7
370
     9
100
AcDbCircle
 10
-4596.549560008227
 20
-505.2475335404689
 30
0.0
 40
185.0
100
AcDbArc
 50
270.0
 51
293.8955622478819
  0
ARC
  5
335
330
1F
100
AcDbEntity
  8
0-2_扉
  6
Continuous
 62
     7
370
     9
100
AcDbCircle
 10
-4313.000018557984
 20
-1145.24726599616
 30
0.0
 40
515.0
100
AcDbArc
 50
66.1044377521181
 51
113.8955622478819
  0
LINE
  5
336
330
1F
100
AcDbEntity
  8
0-2_扉
  6
Continuous
 62
     7
370
     9
100
AcDbLine
 10
-3966.500364978959
 20
-690.2474840525042
 30
0.0
 11
-4029.450477107739
 21
-690.2474840525042
 31
0.0
  0
LINE
  5
337
330
1F
100
AcDbEntity
  8
0-2_扉
  6
Continuous
 62
     7
370
     9
100
AcDbLine
 10
-4659.499672137007
 20
-690.2474840525042
 30
0.0
 11
-4596.549560008227
 21
-690.2474840525042
 31
0.0
  0
LINE
  5
338
330
1F
100
AcDbEntity
  8
0-2_扉
  6
Continuous
 62
     7
370
     9
100
AcDbLine
 10
-4604.500010309989
 20
-2035.247584678032
 30
0.0
 11
-4021.464024311783
 21
-2035.247584678032
 31
0.0
  0
LINE
  5
339
330
1F
100
AcDbEntity
  8
0-2_扉
  6
Continuous
 62
     7
370
     9
100
AcDbLine
 10
-3981.500018557983
 20
-2543.250083820241
 30
0.0
 11
-3966.500216509841
 21
-2558.25007144825
 31
0.0
  0
LINE
  5
33A
330
1F
100
AcDbEntity
  8
0-2_扉
  6
Continuous
 62
     7
370
     9
100
AcDbLine
 10
-4021.464024311783
 20
-2503.250075572247
 30
0.0
 11
-4021.464024311783
 21
-2501.819007358037
 31
0.0
  0
LINE
  5
33B
330
1F
100
AcDbEntity
  8
0-2_扉
  6
Continuous
 62
     7
370
     9
100
AcDbLine
 10
-4021.464024311783
 20
-2503.250075572247
 30
0.0
 11
-4003.786428503085
 21
-2520.927733240902
 31
0.0
  0
LINE
  5
33C
330
1F
100
AcDbEntity
  8
0-2_扉
  6
Continuous
 62
     7
370
     9
100
AcDbLine
 10
-3966.500216509841
 20
-1905.250009588294
 30
0.0
 11
-3981.500018557983
 21
-1890.250083820241
 31
0.0
  0
LINE
  5
33D
330
1F
100
AcDbEntity
  8
0-2_扉
  6
Continuous
 62
     7
370
     9
100
AcDbLine
 10
-3966.500216509841
 20
-1980.247535190068
 30
0.0
 11
-3981.500018557983
 21
-1995.247584678032
 31
0.0
  0
LINE
  5
33E
330
1F
100
AcDbEntity
  8
0-2_扉
  6
Continuous
 62
     7
370
     9
100
AcDbLine
 10
-4021.500150525888
 20
-2035.247584678032
 30
0.0
 11
-4003.822307277366
 21
-2017.569865149422
 31
0.0
  0
LINE
  5
33F
330
1F
100
AcDbEntity
  8
0-2_扉
  6
Continuous
 62
     7
370
     9
100
AcDbLine
 10
-3981.500018557983
 20
-2543.250083820241
 30
0.0
 11
-3981.500018557983
 21
-1995.247584678032
 31
0.0
  0
LINE
  5
340
330
1F
100
AcDbEntity
  8
0-2_扉
  6
Continuous
 62
     7
370
     9
100
AcDbLine
 10
-4021.464024311783
 20
-2503.250075572247
 30
0.0
 11
-4021.464024311783
 21
-2035.21145871676
 31
0.0
  0
LINE
  5
341
330
1F
100
AcDbEntity
  8
0-2_扉
  6
Continuous
 62
     7
370
     9
100
AcDbLine
 10
-4644.500018557984
 20
-2543.250083820241
 30
0.0
 11
-4659.500068045948
 21
-2558.25007144825
 31
0.0
  0
LINE
  5
342
330
1F
100
AcDbEntity
  8
0-2_扉
  6
Continuous
 62
     7
370
     9
100
AcDbLine
 10
-4644.500018557984
 20
-1995.247584678032
 30
0.0
 11
-4659.500068045948
 21
-1980.247535190068
 31
0.0
  0
LINE
  5
343
330
1F
100
AcDbEntity
  8
0-2_扉
  6
Continuous
 62
     7
370
     9
100
AcDbLine
 10
-4644.500018557984
 20
-2543.250083820241
 30
0.0
 11
-4644.500018557984
 21
-1995.247584678032
 31
0.0
  0
LINE
  5
344
330
1F
100
AcDbEntity
  8
0-2_扉
  6
Continuous
 62
     7
370
     9
100
AcDbLine
 10
-4604.500010309989
 20
-2035.247584678032
 30
0.0
 11
-4622.1777298386
 21
-2017.569865149422
 31
0.0
  0
LINE
  5
345
330
1F
100
AcDbEntity
  8
0-2_扉
  6
Continuous
 62
     7
370
     9
100
AcDbLine
 10
-4604.500010309989
 20
-2035.247584678032
 30
0.0
 11
-4604.500010309989
 21
-2503.250075572247
 31
0.0
  0
LINE
  5
346
330
1F
100
AcDbEntity
  8
0-2_扉
  6
Continuous
 62
     7
370
     9
100
AcDbLine
 10
-4604.500010309989
 20
-2503.250075572247
 30
0.0
 11
-4622.1777298386
 21
-2520.927733240902
 31
0.0
  0
LINE
  5
347
330
1F
100
AcDbEntity
  8
0-2_扉
  6
Continuous
 62
     7
370
     9
100
AcDbLine
 10
-4604.500010309989
 20
-2503.250075572247
 30
0.0
 11
-4021.464024311783
 21
-2503.250075572247
 31
0.0
  0
LINE
  5
348
330
1F
100
AcDbEntity
  8
0-2_扉
  6
Continuous
 62
     7
370
     9
100
AcDbLine
 10
-3981.500018557983
 20
-1995.247584678032
 30
0.0
 11
-4644.500018557984
 21
-1995.247584678032
 31
0.0
  0
LINE
  5
349
330
1F
100
AcDbEntity
  8
0-2_扉
  6
Continuous
 62
     7
370
     9
100
AcDbLine
 10
-3981.500018557983
 20
-2543.250083820241
 30
0.0
 11
-4644.500018557984
 21
-2543.250083820241
 31
0.0
  0
LINE
  5
34A
330
1F
100
AcDbEntity
  8
0-2_扉
  6
Continuous
 62
     7
370
     9
100
AcDbLine
 10
-3966.500216509841
 20
-2558.25007144825
 30
0.0
 11
-4659.500068045948
 21
-2558.25007144825
 31
0.0
  0
LINE
  5
34B
330
1F
100
AcDbEntity
  8
0-2_扉
  6
Continuous
 62
     7
370
     9
100
AcDbLine
 10
-4659.500068045948
 20
-1905.250009588294
 30
0.0
 11
-3966.500216509841
 21
-1905.250009588294
 31
0.0
  0
LINE
  5
34C
330
1F
100
AcDbEntity
  8
0-2_扉
  6
Continuous
 62
     7
370
     9
100
AcDbLine
 10
-3966.500216509841
 20
-1980.247535190068
 30
0.0
 11
-4659.500068045948
 21
-1980.247535190068
 31
0.0
  0
LINE
  5
34D
330
1F
100
AcDbEntity
  8
0-2_扉
  6
Continuous
 62
     7
370
     9
100
AcDbLine
 10
-4644.500018557984
 20
-1890.250083820241
 30
0.0
 11
-4659.500068045948
 21
-1905.250009588294
 31
0.0
  0
LINE
  5
34E
330
1F
100
AcDbEntity
  8
0-2_扉
  6
Continuous
 62
     7
370
     9
100
AcDbLine
 10
-4644.500018557984
 20
-1890.250083820241
 30
0.0
 11
-4644.500018557984
 21
-705.2475335404687
 31
0.0
  0
LINE
  5
34F
330
1F
100
AcDbEntity
  8
0-2_扉
  6
Continuous
 62
     7
370
     9
100
AcDbLine
 10
-3981.500018557983
 20
-1890.250083820241
 30
0.0
 11
-3981.500018557983
 21
-705.2475335404687
 31
0.0
  0
LINE
  5
350
330
1F
100
AcDbEntity
  8
0-2_扉
  6
Continuous
 62
     7
370
     9
100
AcDbLine
 10
-4644.500018557984
 20
-1890.250083820241
 30
0.0
 11
-3981.500018557983
 21
-1890.250083820241
 31
0.0
  0
LINE
  5
351
330
1F
100
AcDbEntity
  8
0-2_扉
  6
Continuous
 62
     7
370
     9
100
AcDbLine
 10
-3966.499969070018
 20
-2693.250083820241
 30
0.0
 11
-3966.499969070018
 21
-510.2499749467198
 31
0.0
  0
LINE
  5
352
330
1F
100
AcDbEntity
  8
0-2_扉
  6
Continuous
 62
     7
370
     9
100
AcDbLine
 10
-4659.500068045948
 20
-2693.250083820241
 30
0.0
 11
-4659.500068045948
 21
-510.2499749467198
 31
0.0
  0
LINE
  5
353
330
1F
100
AcDbEntity
  8
0-2_扉
  6
Continuous
 62
     7
370
     9
100
AcDbLine
 10
-3863.000018557983
 20
-510.2499749467198
 30
0.0
 11
-4760.000018557985
 21
-510.2499749467198
 31
0.0
  0
LINE
  5
354
330
1F
100
AcDbEntity
  8
0-2_扉
  6
Continuous
 62
     7
370
     9
100
AcDbLine
 10
-3863.000018557983
 20
-2693.250083820241
 30
0.0
 11
-4760.000018557985
 21
-2693.250083820241
 31
0.0
  0
LINE
  5
355
330
1F
100
AcDbEntity
  8
0-C_ハッチ
  6
Continuous
 62
   120
370
     5
100
AcDbLine
 10
-1044.500207746351
 20
-1890.250083820241
 30
0.0
 11
-1044.500207746351
 21
-705.2475335404687
 31
0.0
  0
LINE
  5
356
330
1F
100
AcDbEntity
  8
0-C_ハッチ
  6
Continuous
 62
   120
370
     5
100
AcDbLine
 10
-1019.500207746351
 20
-1890.250083820241
 30
0.0
 11
-1019.500207746351
 21
-703.9966987774313
 31
0.0
  0
LINE
  5
357
330
1F
100
AcDbEntity
  8
0-C_ハッチ
  6
Continuous
 62
   120
370
     5
100
AcDbLine
 10
-544.5002077463511
 20
-1890.250083820241
 30
0.0
 11
-544.5002077463511
 21
-705.2475335404687
 31
0.0
  0
LINE
  5
358
330
1F
100
AcDbEntity
  8
0-C_ハッチ
  6
Continuous
 62
   120
370
     5
100
AcDbLine
 10
-994.5002077463508
 20
-1890.250083820241
 30
0.0
 11
-994.5002077463508
 21
-702.979295039392
 31
0.0
  0
LINE
  5
359
330
1F
100
AcDbEntity
  8
0-C_ハッチ
  6
Continuous
 62
   120
370
     5
100
AcDbLine
 10
-969.500207746351
 20
-1890.250083820241
 30
0.0
 11
-969.500207746351
 21
-696.3159657525018
 31
0.0
  0
LINE
  5
35A
330
1F
100
AcDbEntity
  8
0-C_ハッチ
  6
Continuous
 62
   120
370
     5
100
AcDbLine
 10
-944.500207746351
 20
-1890.250083820241
 30
0.0
 11
-944.500207746351
 21
-684.7352186224151
 31
0.0
  0
LINE
  5
35B
330
1F
100
AcDbEntity
  8
0-C_ハッチ
  6
Continuous
 62
   120
370
     5
100
AcDbLine
 10
-919.5002077463508
 20
-1890.250083820241
 30
0.0
 11
-919.5002077463508
 21
-672.9621018717962
 31
0.0
  0
LINE
  5
35C
330
1F
100
AcDbEntity
  8
0-C_ハッチ
  6
Continuous
 62
   120
370
     5
100
AcDbLine
 10
-894.500207746351
 20
-1890.250083820241
 30
0.0
 11
-894.500207746351
 21
-663.4827067845403
 31
0.0
  0
LINE
  5
35D
330
1F
100
AcDbEntity
  8
0-C_ハッチ
  6
Continuous
 62
   120
370
     5
100
AcDbLine
 10
-869.5002077463512
 20
-1890.250083820241
 30
0.0
 11
-869.5002077463512
 21
-656.1046429847361
 31
0.0
  0
LINE
  5
35E
330
1F
100
AcDbEntity
  8
0-C_ハッチ
  6
Continuous
 62
   120
370
     5
100
AcDbLine
 10
-844.5002077463511
 20
-1890.250083820241
 30
0.0
 11
-844.5002077463511
 21
-650.6928944079731
 31
0.0
  0
LINE
  5
35F
330
1F
100
AcDbEntity
  8
0-C_ハッチ
  6
Continuous
 62
   120
370
     5
100
AcDbLine
 10
-819.500207746351
 20
-1890.250083820241
 30
0.0
 11
-819.500207746351
 21
-647.1557385929273
 31
0.0
  0
LINE
  5
360
330
1F
100
AcDbEntity
  8
0-C_ハッチ
  6
Continuous
 62
   120
370
     5
100
AcDbLine
 10
-794.500207746351
 20
-1890.250083820241
 30
0.0
 11
-794.500207746351
 21
-645.4363054128905
 31
0.0
  0
LINE
  5
361
330
1F
100
AcDbEntity
  8
0-C_ハッチ
  6
Continuous
 62
   120
370
     5
100
AcDbLine
 10
-769.5002077463511
 20
-1890.250083820241
 30
0.0
 11
-769.5002077463511
 21
-645.5077842958017
 31
0.0
  0
LINE
  5
362
330
1F
100
AcDbEntity
  8
0-C_ハッチ
  6
Continuous
 62
   120
370
     5
100
AcDbLine
 10
-744.500207746351
 20
-1890.250083820241
 30
0.0
 11
-744.500207746351
 21
-647.3712791882325
 31
0.0
  0
LINE
  5
363
330
1F
100
AcDbEntity
  8
0-C_ハッチ
  6
Continuous
 62
   120
370
     5
100
AcDbLine
 10
-719.5002077463512
 20
-1890.250083820241
 30
0.0
 11
-719.5002077463512
 21
-651.0558954470835
 31
0.0
  0
LINE
  5
364
330
1F
100
AcDbEntity
  8
0-C_ハッチ
  6
Continuous
 62
   120
370
     5
100
AcDbLine
 10
-694.5002077463511
 20
-1890.250083820241
 30
0.0
 11
-694.5002077463511
 21
-656.621075107184
 31
0.0
  0
LINE
  5
365
330
1F
100
AcDbEntity
  8
0-C_ハッチ
  6
Continuous
 62
   120
370
     5
100
AcDbLine
 10
-669.500207746351
 20
-1890.250083820241
 30
0.0
 11
-669.500207746351
 21
-664.1616350849148
 31
0.0
  0
LINE
  5
366
330
1F
100
AcDbEntity
  8
0-C_ハッチ
  6
Continuous
 62
   120
370
     5
100
AcDbLine
 10
-644.5002077463512
 20
-1890.250083820241
 30
0.0
 11
-644.5002077463512
 21
-673.8165688040485
 31
0.0
  0
LINE
  5
367
330
1F
100
AcDbEntity
  8
0-C_ハッチ
  6
Continuous
 62
   120
370
     5
100
AcDbLine
 10
-619.5002077463511
 20
-1890.250083820241
 30
0.0
 11
-619.5002077463511
 21
-685.7837116234635
 31
0.0
  0
LINE
  5
368
330
1F
100
AcDbEntity
  8
0-C_ハッチ
  6
Continuous
 62
   120
370
     5
100
AcDbLine
 10
-594.500207746351
 20
-1890.250083820241
 30
0.0
 11
-594.500207746351
 21
-697.0229346959566
 31
0.0
  0
LINE
  5
369
330
1F
100
AcDbEntity
  8
0-C_ハッチ
  6
Continuous
 62
   120
370
     5
100
AcDbLine
 10
-569.5002077463511
 20
-1890.250083820241
 30
0.0
 11
-569.5002077463511
 21
-703.3172094702758
 31
0.0
  0
LINE
  5
36A
330
1F
100
AcDbEntity
  8
0-C_ハッチ
  6
Continuous
 62
   120
370
     5
100
AcDbLine
 10
-519.5002077463511
 20
-1890.250083820241
 30
0.0
 11
-519.5002077463511
 21
-704.9998511106277
 31
0.0
  0
LINE
  5
36B
330
1F
100
AcDbEntity
  8
0-2_扉
  6
Continuous
 62
     7
370
     9
100
AcDbLine
 10
-1069.312413292961
 20
-828.2502652761104
 30
0.0
 11
-1069.500220118342
 21
-828.2502652761104
 31
0.0
  0
LINE
  5
36C
330
1F
100
AcDbEntity
  8
0-2_扉
  6
Continuous
 62
     7
370
     9
100
AcDbLine
 10
-1069.50026960631
 20
-705.2475954004253
 30
0.0
 11
-1084.500665515253
 21
-690.2471994914835
 31
0.0
  0
LINE
  5
36D
330
1F
100
AcDbEntity
  8
0-2_扉
  6
Continuous
 62
     7
370
     9
100
AcDbLine
 10
-496.5002696063062
 20
-705.2475954004253
 30
0.0
 11
-481.5002696063062
 21
-690.2475954004253
 31
0.0
  0
LINE
  5
36E
330
1F
100
AcDbEntity
  8
0-2_扉
  6
Continuous
 62
     7
370
     9
100
AcDbLine
 10
-1069.50026960631
 20
-705.2475954004253
 30
0.0
 11
-1020.487607034895
 21
-705.2475954004253
 31
0.0
  0
ARC
  5
36F
330
1F
100
AcDbEntity
  8
0-2_扉
  6
Continuous
 62
     7
370
     9
100
AcDbCircle
 10
-1020.487607034895
 20
-555.2475954004253
 30
0.0
 40
150.0
100
AcDbArc
 50
270.0
 51
298.3577011236671
  0
ARC
  5
370
330
1F
100
AcDbEntity
  8
0-2_扉
  6
Continuous
 62
     7
370
     9
100
AcDbCircle
 10
-545.5129321777191
 20
-555.2475954004253
 30
0.0
 40
150.0
100
AcDbArc
 50
241.6422988763328
 51
270.0
  0
LINE
  5
371
330
1F
100
AcDbEntity
  8
0-2_扉
  6
Continuous
 62
     7
370
     9
100
AcDbLine
 10
-496.5002696063062
 20
-705.2475954004253
 30
0.0
 11
-545.5129321777191
 21
-705.2475954004253
 31
0.0
  0
ARC
  5
372
330
1F
100
AcDbEntity
  8
0-2_扉
  6
Continuous
 62
     7
370
     9
100
AcDbCircle
 10
-783.0002696063068
 20
-995.247327856116
 30
0.0
 40
350.0
100
AcDbArc
 50
61.64229887633292
 51
118.3577011236671
  0
ARC
  5
373
330
1F
100
AcDbEntity
  8
0-2_扉
  6
Continuous
 62
     7
370
     9
100
AcDbCircle
 10
-1020.487607034895
 20
-555.2475954004253
 30
0.0
 40
135.0
100
AcDbArc
 50
270.0
 51
298.3577011236671
  0
ARC
  5
374
330
1F
100
AcDbEntity
  8
0-2_扉
  6
Continuous
 62
     7
370
     9
100
AcDbCircle
 10
-545.5129321777191
 20
-555.2475954004253
 30
0.0
 40
135.0
100
AcDbArc
 50
241.6422988763328
 51
270.0
  0
ARC
  5
375
330
1F
100
AcDbEntity
  8
0-2_扉
  6
Continuous
 62
     7
370
     9
100
AcDbCircle
 10
-783.0002696063068
 20
-995.247327856116
 30
0.0
 40
365.0
100
AcDbArc
 50
61.64229887633292
 51
118.3577011236671
  0
LINE
  5
376
330
1F
100
AcDbEntity
  8
0-2_扉
  6
Continuous
 62
     7
370
     9
100
AcDbLine
 10
-1084.500319094276
 20
-690.247545912461
 30
0.0
 11
-1020.487607034895
 21
-690.247545912461
 31
0.0
  0
LINE
  5
377
330
1F
100
AcDbEntity
  8
0-2_扉
  6
Continuous
 62
     7
370
     9
100
AcDbLine
 10
-481.5002201183417
 20
-690.247545912461
 30
0.0
 11
-545.5129321777191
 21
-690.247545912461
 31
0.0
  0
LINE
  5
378
330
1F
100
AcDbEntity
  8
0-2_扉
  6
Continuous
 62
     7
370
     9
100
AcDbLine
 10
-1069.500220118342
 20
-2543.250083820241
 30
0.0
 11
-1084.500022166484
 21
-2558.250133308205
 31
0.0
  0
LINE
  5
379
330
1F
100
AcDbEntity
  8
0-2_扉
  6
Continuous
 62
     7
370
     9
100
AcDbLine
 10
-1029.500088150437
 20
-2503.250137432203
 30
0.0
 11
-1029.500088150437
 21
-2501.819069217992
 31
0.0
  0
LINE
  5
37A
330
1F
100
AcDbEntity
  8
0-2_扉
  6
Continuous
 62
     7
370
     9
100
AcDbLine
 10
-1029.500088150437
 20
-2503.250137432203
 30
0.0
 11
-1047.177683959136
 21
-2520.927795100857
 31
0.0
  0
LINE
  5
37B
330
1F
100
AcDbEntity
  8
0-2_扉
  6
Continuous
 62
     7
370
     9
100
AcDbLine
 10
-1084.500022166484
 20
-1905.250009588294
 30
0.0
 11
-1069.500220118342
 21
-1890.250083820241
 31
0.0
  0
LINE
  5
37C
330
1F
100
AcDbEntity
  8
0-2_扉
  6
Continuous
 62
     7
370
     9
100
AcDbLine
 10
-1084.500022166484
 20
-1980.247535190068
 30
0.0
 11
-1069.500220118342
 21
-1995.247584678032
 31
0.0
  0
LINE
  5
37D
330
1F
100
AcDbEntity
  8
0-2_扉
  6
Continuous
 62
     7
370
     9
100
AcDbLine
 10
-1029.463961936332
 20
-2035.247584678032
 30
0.0
 11
-1047.141805184855
 21
-2017.569865149422
 31
0.0
  0
LINE
  5
37E
330
1F
100
AcDbEntity
  8
0-2_扉
  6
Continuous
 62
     7
370
     9
100
AcDbLine
 10
-1069.500220118342
 20
-2543.250083820241
 30
0.0
 11
-1069.500220118342
 21
-1995.247584678032
 31
0.0
  0
LINE
  5
37F
330
1F
100
AcDbEntity
  8
0-2_扉
  6
Continuous
 62
     7
370
     9
100
AcDbLine
 10
-1029.500088150437
 20
-2503.250137432203
 30
0.0
 11
-1029.500088150437
 21
-2035.247584678032
 31
0.0
  0
LINE
  5
380
330
1F
100
AcDbEntity
  8
0-2_扉
  6
Continuous
 62
     7
370
     9
100
AcDbLine
 10
-496.500269606307
 20
-2543.250083820241
 30
0.0
 11
-481.5002201183424
 21
-2558.250133308205
 31
0.0
  0
LINE
  5
381
330
1F
100
AcDbEntity
  8
0-2_扉
  6
Continuous
 62
     7
370
     9
100
AcDbLine
 10
-496.500269606307
 20
-1995.247584678032
 30
0.0
 11
-481.5002201183424
 21
-1980.247535190068
 31
0.0
  0
LINE
  5
382
330
1F
100
AcDbEntity
  8
0-2_扉
  6
Continuous
 62
     7
370
     9
100
AcDbLine
 10
-496.500269606307
 20
-1890.250083820241
 30
0.0
 11
-481.5002201183424
 21
-1905.250009588294
 31
0.0
  0
LINE
  5
383
330
1F
100
AcDbEntity
  8
0-2_扉
  6
Continuous
 62
     7
370
     9
100
AcDbLine
 10
-496.500269606307
 20
-2543.250083820241
 30
0.0
 11
-496.500269606307
 21
-1995.247584678032
 31
0.0
  0
LINE
  5
384
330
1F
100
AcDbEntity
  8
0-2_扉
  6
Continuous
 62
     7
370
     9
100
AcDbLine
 10
-536.5001541343893
 20
-2035.247584678032
 30
0.0
 11
-536.5001541343893
 21
-2503.250137432203
 31
0.0
  0
LINE
  5
385
330
1F
100
AcDbEntity
  8
0-2_扉
  6
Continuous
 62
     7
370
     9
100
AcDbLine
 10
-536.5001541343893
 20
-2035.247584678032
 30
0.0
 11
-518.8225583256904
 21
-2017.569865149422
 31
0.0
  0
LINE
  5
386
330
1F
100
AcDbEntity
  8
0-2_扉
  6
Continuous
 62
     7
370
     9
100
AcDbLine
 10
-536.5001541343893
 20
-2503.250137432203
 30
0.0
 11
-518.8225583256904
 21
-2520.927795100857
 31
0.0
  0
LINE
  5
387
330
1F
100
AcDbEntity
  8
0-2_扉
  6
Continuous
 62
     7
370
     9
100
AcDbLine
 10
-536.5001541343893
 20
-2503.250137432203
 30
0.0
 11
-1029.500088150437
 21
-2503.250137432203
 31
0.0
  0
LINE
  5
388
330
1F
100
AcDbEntity
  8
0-2_扉
  6
Continuous
 62
     7
370
     9
100
AcDbLine
 10
-536.5001541343893
 20
-2035.247584678032
 30
0.0
 11
-1029.500088150437
 21
-2035.247584678032
 31
0.0
  0
LINE
  5
389
330
1F
100
AcDbEntity
  8
0-2_扉
  6
Continuous
 62
     7
370
     9
100
AcDbLine
 10
-1069.500220118342
 20
-1995.247584678032
 30
0.0
 11
-496.500269606307
 21
-1995.247584678032
 31
0.0
  0
LINE
  5
38A
330
1F
100
AcDbEntity
  8
0-2_扉
  6
Continuous
 62
     7
370
     9
100
AcDbLine
 10
-1069.500220118342
 20
-2543.250083820241
 30
0.0
 11
-496.500269606307
 21
-2543.250083820241
 31
0.0
  0
LINE
  5
38B
330
1F
100
AcDbEntity
  8
0-2_扉
  6
Continuous
 62
     7
370
     9
100
AcDbLine
 10
-1084.500022166484
 20
-2558.250133308205
 30
0.0
 11
-481.5002201183422
 21
-2558.250133308205
 31
0.0
  0
LINE
  5
38C
330
1F
100
AcDbEntity
  8
0-2_扉
  6
Continuous
 62
     7
370
     9
100
AcDbLine
 10
-1084.500022166484
 20
-1980.247535190068
 30
0.0
 11
-481.5002201183422
 21
-1980.247535190068
 31
0.0
  0
LINE
  5
38D
330
1F
100
AcDbEntity
  8
0-2_扉
  6
Continuous
 62
     7
370
     9
100
AcDbLine
 10
-481.5002201183422
 20
-1905.250009588294
 30
0.0
 11
-1084.500022166484
 21
-1905.250009588294
 31
0.0
  0
LINE
  5
38E
330
1F
100
AcDbEntity
  8
0-2_扉
  6
Continuous
 62
     7
370
     9
100
AcDbLine
 10
-496.500269606307
 20
-1890.250083820241
 30
0.0
 11
-496.500269606307
 21
-705.2475335404687
 31
0.0
  0
LINE
  5
38F
330
1F
100
AcDbEntity
  8
0-2_扉
  6
Continuous
 62
     7
370
     9
100
AcDbLine
 10
-1069.500220118342
 20
-1890.250083820241
 30
0.0
 11
-1069.500220118342
 21
-705.2475335404687
 31
0.0
  0
LINE
  5
390
330
1F
100
AcDbEntity
  8
0-2_扉
  6
Continuous
 62
     7
370
     9
100
AcDbLine
 10
-496.500269606307
 20
-1890.250083820241
 30
0.0
 11
-1069.500220118342
 21
-1890.250083820241
 31
0.0
  0
LINE
  5
391
330
1F
100
AcDbEntity
  8
0-2_扉
  6
Continuous
 62
     7
370
     9
100
AcDbLine
 10
-1188.000220118342
 20
-510.2500368066748
 30
0.0
 11
-1188.000220118342
 21
-2693.250083820241
 31
0.0
  0
LINE
  5
392
330
1F
100
AcDbEntity
  8
0-2_扉
  6
Continuous
 62
     7
370
     9
100
AcDbLine
 10
-1084.500269606307
 20
-2693.250083820241
 30
0.0
 11
-1084.500269606307
 21
-510.2499749467198
 31
0.0
  0
LINE
  5
393
330
1F
100
AcDbEntity
  8
0-2_扉
  6
Continuous
 62
     7
370
     9
100
AcDbLine
 10
-481.5002201183422
 20
-2693.250083820241
 30
0.0
 11
-481.5002201183422
 21
-510.2499749467198
 31
0.0
  0
LINE
  5
394
330
1F
100
AcDbEntity
  8
0-2_扉
  6
Continuous
 62
     7
370
     9
100
AcDbLine
 10
-1188.000220118342
 20
-510.2500368066748
 30
0.0
 11
-381.0002696063066
 21
-510.2500368066748
 31
0.0
  0
LINE
  5
395
330
1F
100
AcDbEntity
  8
0-2_扉
  6
Continuous
 62
     7
370
     9
100
AcDbLine
 10
-1188.000220118342
 20
-2693.250083820241
 30
0.0
 11
-381.0002696063066
 21
-2693.250083820241
 31
0.0
  0
LINE
  5
396
330
1F
100
AcDbEntity
  8
0-C_ハッチ
  6
Continuous
 62
   120
370
     5
100
AcDbLine
 10
-1301.500331466262
 20
-1890.250083820241
 30
0.0
 11
-1301.500331466262
 21
-705.2475335404687
 31
0.0
  0
LINE
  5
397
330
1F
100
AcDbEntity
  8
0-C_ハッチ
  6
Continuous
 62
   120
370
     5
100
AcDbLine
 10
-1326.500331466262
 20
-1890.250083820241
 30
0.0
 11
-1326.500331466262
 21
-703.9966987774313
 31
0.0
  0
LINE
  5
398
330
1F
100
AcDbEntity
  8
0-C_ハッチ
  6
Continuous
 62
   120
370
     5
100
AcDbLine
 10
-1801.500331466262
 20
-1890.250083820241
 30
0.0
 11
-1801.500331466262
 21
-705.2475335404687
 31
0.0
  0
LINE
  5
399
330
1F
100
AcDbEntity
  8
0-C_ハッチ
  6
Continuous
 62
   120
370
     5
100
AcDbLine
 10
-1351.500331466262
 20
-1890.250083820241
 30
0.0
 11
-1351.500331466262
 21
-702.979295039392
 31
0.0
  0
LINE
  5
39A
330
1F
100
AcDbEntity
  8
0-C_ハッチ
  6
Continuous
 62
   120
370
     5
100
AcDbLine
 10
-1376.500331466262
 20
-1890.250083820241
 30
0.0
 11
-1376.500331466262
 21
-696.3159657525018
 31
0.0
  0
LINE
  5
39B
330
1F
100
AcDbEntity
  8
0-C_ハッチ
  6
Continuous
 62
   120
370
     5
100
AcDbLine
 10
-1401.500331466262
 20
-1890.250083820241
 30
0.0
 11
-1401.500331466262
 21
-684.7352186224151
 31
0.0
  0
LINE
  5
39C
330
1F
100
AcDbEntity
  8
0-C_ハッチ
  6
Continuous
 62
   120
370
     5
100
AcDbLine
 10
-1426.500331466262
 20
-1890.250083820241
 30
0.0
 11
-1426.500331466262
 21
-672.9621018717962
 31
0.0
  0
LINE
  5
39D
330
1F
100
AcDbEntity
  8
0-C_ハッチ
  6
Continuous
 62
   120
370
     5
100
AcDbLine
 10
-1451.500331466262
 20
-1890.250083820241
 30
0.0
 11
-1451.500331466262
 21
-663.4827067845403
 31
0.0
  0
LINE
  5
39E
330
1F
100
AcDbEntity
  8
0-C_ハッチ
  6
Continuous
 62
   120
370
     5
100
AcDbLine
 10
-1476.500331466262
 20
-1890.250083820241
 30
0.0
 11
-1476.500331466262
 21
-656.1046429847361
 31
0.0
  0
LINE
  5
39F
330
1F
100
AcDbEntity
  8
0-C_ハッチ
  6
Continuous
 62
   120
370
     5
100
AcDbLine
 10
-1501.500331466262
 20
-1890.250083820241
 30
0.0
 11
-1501.500331466262
 21
-650.6928944079731
 31
0.0
  0
LINE
  5
3A0
330
1F
100
AcDbEntity
  8
0-C_ハッチ
  6
Continuous
 62
   120
370
     5
100
AcDbLine
 10
-1526.500331466262
 20
-1890.250083820241
 30
0.0
 11
-1526.500331466262
 21
-647.1557385929273
 31
0.0
  0
LINE
  5
3A1
330
1F
100
AcDbEntity
  8
0-C_ハッチ
  6
Continuous
 62
   120
370
     5
100
AcDbLine
 10
-1551.500331466262
 20
-1890.250083820241
 30
0.0
 11
-1551.500331466262
 21
-645.4363054128905
 31
0.0
  0
LINE
  5
3A2
330
1F
100
AcDbEntity
  8
0-C_ハッチ
  6
Continuous
 62
   120
370
     5
100
AcDbLine
 10
-1576.500331466262
 20
-1890.250083820241
 30
0.0
 11
-1576.500331466262
 21
-645.5077842958017
 31
0.0
  0
LINE
  5
3A3
330
1F
100
AcDbEntity
  8
0-C_ハッチ
  6
Continuous
 62
   120
370
     5
100
AcDbLine
 10
-1601.500331466262
 20
-1890.250083820241
 30
0.0
 11
-1601.500331466262
 21
-647.3712791882325
 31
0.0
  0
LINE
  5
3A4
330
1F
100
AcDbEntity
  8
0-C_ハッチ
  6
Continuous
 62
   120
370
     5
100
AcDbLine
 10
-1626.500331466262
 20
-1890.250083820241
 30
0.0
 11
-1626.500331466262
 21
-651.0558954470835
 31
0.0
  0
LINE
  5
3A5
330
1F
100
AcDbEntity
  8
0-C_ハッチ
  6
Continuous
 62
   120
370
     5
100
AcDbLine
 10
-1651.500331466262
 20
-1890.250083820241
 30
0.0
 11
-1651.500331466262
 21
-656.621075107184
 31
0.0
  0
LINE
  5
3A6
330
1F
100
AcDbEntity
  8
0-C_ハッチ
  6
Continuous
 62
   120
370
     5
100
AcDbLine
 10
-1676.500331466262
 20
-1890.250083820241
 30
0.0
 11
-1676.500331466262
 21
-664.1616350849148
 31
0.0
  0
LINE
  5
3A7
330
1F
100
AcDbEntity
  8
0-C_ハッチ
  6
Continuous
 62
   120
370
     5
100
AcDbLine
 10
-1701.500331466262
 20
-1890.250083820241
 30
0.0
 11
-1701.500331466262
 21
-673.8165688040485
 31
0.0
  0
LINE
  5
3A8
330
1F
100
AcDbEntity
  8
0-C_ハッチ
  6
Continuous
 62
   120
370
     5
100
AcDbLine
 10
-1726.500331466262
 20
-1890.250083820241
 30
0.0
 11
-1726.500331466262
 21
-685.7837116234635
 31
0.0
  0
LINE
  5
3A9
330
1F
100
AcDbEntity
  8
0-C_ハッチ
  6
Continuous
 62
   120
370
     5
100
AcDbLine
 10
-1751.500331466262
 20
-1890.250083820241
 30
0.0
 11
-1751.500331466262
 21
-697.0229346959566
 31
0.0
  0
LINE
  5
3AA
330
1F
100
AcDbEntity
  8
0-C_ハッチ
  6
Continuous
 62
   120
370
     5
100
AcDbLine
 10
-1776.500331466262
 20
-1890.250083820241
 30
0.0
 11
-1776.500331466262
 21
-703.3172094702758
 31
0.0
  0
LINE
  5
3AB
330
1F
100
AcDbEntity
  8
0-C_ハッチ
  6
Continuous
 62
   120
370
     5
100
AcDbLine
 10
-1826.500331466262
 20
-1890.250083820241
 30
0.0
 11
-1826.500331466262
 21
-704.9998511106277
 31
0.0
  0
LINE
  5
3AC
330
1F
100
AcDbEntity
  8
0-2_扉
  6
Continuous
 62
     7
370
     9
100
AcDbLine
 10
-1276.688125919652
 20
-828.2502652761104
 30
0.0
 11
-1276.500319094272
 21
-828.2502652761104
 31
0.0
  0
LINE
  5
3AD
330
1F
100
AcDbEntity
  8
0-2_扉
  6
Continuous
 62
     7
370
     9
100
AcDbLine
 10
-1276.500269606303
 20
-705.2475954004253
 30
0.0
 11
-1261.49987369736
 21
-690.2471994914835
 31
0.0
  0
LINE
  5
3AE
330
1F
100
AcDbEntity
  8
0-2_扉
  6
Continuous
 62
     7
370
     9
100
AcDbLine
 10
-1849.500269606307
 20
-705.2475954004253
 30
0.0
 11
-1864.500269606307
 21
-690.2475954004253
 31
0.0
  0
LINE
  5
3AF
330
1F
100
AcDbEntity
  8
0-2_扉
  6
Continuous
 62
     7
370
     9
100
AcDbLine
 10
-1276.500269606303
 20
-705.2475954004253
 30
0.0
 11
-1325.512932177719
 21
-705.2475954004253
 31
0.0
  0
ARC
  5
3B0
330
1F
100
AcDbEntity
  8
0-2_扉
  6
Continuous
 62
     7
370
     9
100
AcDbCircle
 10
-1325.512932177719
 20
-555.2475954004253
 30
0.0
 40
150.0
100
AcDbArc
 50
241.6422988763329
 51
270.0
  0
ARC
  5
3B1
330
1F
100
AcDbEntity
  8
0-2_扉
  6
Continuous
 62
     7
370
     9
100
AcDbCircle
 10
-1800.487607034894
 20
-555.2475954004253
 30
0.0
 40
150.0
100
AcDbArc
 50
270.0
 51
298.3577011236671
  0
LINE
  5
3B2
330
1F
100
AcDbEntity
  8
0-2_扉
  6
Continuous
 62
     7
370
     9
100
AcDbLine
 10
-1849.500269606307
 20
-705.2475954004253
 30
0.0
 11
-1800.487607034894
 21
-705.2475954004253
 31
0.0
  0
ARC
  5
3B3
330
1F
100
AcDbEntity
  8
0-2_扉
  6
Continuous
 62
     7
370
     9
100
AcDbCircle
 10
-1563.000269606306
 20
-995.247327856116
 30
0.0
 40
350.0
100
AcDbArc
 50
61.64229887633292
 51
118.3577011236671
  0
ARC
  5
3B4
330
1F
100
AcDbEntity
  8
0-2_扉
  6
Continuous
 62
     7
370
     9
100
AcDbCircle
 10
-1325.512932177719
 20
-555.2475954004253
 30
0.0
 40
135.0
100
AcDbArc
 50
241.6422988763329
 51
270.0
  0
ARC
  5
3B5
330
1F
100
AcDbEntity
  8
0-2_扉
  6
Continuous
 62
     7
370
     9
100
AcDbCircle
 10
-1800.487607034894
 20
-555.2475954004253
 30
0.0
 40
135.0
100
AcDbArc
 50
270.0
 51
298.3577011236671
  0
ARC
  5
3B6
330
1F
100
AcDbEntity
  8
0-2_扉
  6
Continuous
 62
     7
370
     9
100
AcDbCircle
 10
-1563.000269606306
 20
-995.247327856116
 30
0.0
 40
365.0
100
AcDbArc
 50
61.64229887633292
 51
118.3577011236671
  0
LINE
  5
3B7
330
1F
100
AcDbEntity
  8
0-2_扉
  6
Continuous
 62
     7
370
     9
100
AcDbLine
 10
-1261.500220118337
 20
-690.247545912461
 30
0.0
 11
-1325.512932177719
 21
-690.247545912461
 31
0.0
  0
LINE
  5
3B8
330
1F
100
AcDbEntity
  8
0-2_扉
  6
Continuous
 62
     7
370
     9
100
AcDbLine
 10
-1864.500319094271
 20
-690.247545912461
 30
0.0
 11
-1800.487607034894
 21
-690.247545912461
 31
0.0
  0
LINE
  5
3B9
330
1F
100
AcDbEntity
  8
0-2_扉
  6
Continuous
 62
     7
370
     9
100
AcDbLine
 10
-1276.500319094271
 20
-2543.250083820241
 30
0.0
 11
-1261.500517046129
 21
-2558.250133308205
 31
0.0
  0
LINE
  5
3BA
330
1F
100
AcDbEntity
  8
0-2_扉
  6
Continuous
 62
     7
370
     9
100
AcDbLine
 10
-1316.500451062176
 20
-2503.250137432203
 30
0.0
 11
-1316.500451062176
 21
-2501.819069217992
 31
0.0
  0
LINE
  5
3BB
330
1F
100
AcDbEntity
  8
0-2_扉
  6
Continuous
 62
     7
370
     9
100
AcDbLine
 10
-1316.500451062176
 20
-2503.250137432203
 30
0.0
 11
-1298.822855253477
 21
-2520.927795100857
 31
0.0
  0
LINE
  5
3BC
330
1F
100
AcDbEntity
  8
0-2_扉
  6
Continuous
 62
     7
370
     9
100
AcDbLine
 10
-1261.500517046129
 20
-1905.250009588294
 30
0.0
 11
-1276.500319094271
 21
-1890.250083820241
 31
0.0
  0
LINE
  5
3BD
330
1F
100
AcDbEntity
  8
0-2_扉
  6
Continuous
 62
     7
370
     9
100
AcDbLine
 10
-1261.500517046129
 20
-1980.247535190068
 30
0.0
 11
-1276.500319094271
 21
-1995.247584678032
 31
0.0
  0
LINE
  5
3BE
330
1F
100
AcDbEntity
  8
0-2_扉
  6
Continuous
 62
     7
370
     9
100
AcDbLine
 10
-1316.536577276281
 20
-2035.247584678032
 30
0.0
 11
-1298.858734027758
 21
-2017.569865149422
 31
0.0
  0
LINE
  5
3BF
330
1F
100
AcDbEntity
  8
0-2_扉
  6
Continuous
 62
     7
370
     9
100
AcDbLine
 10
-1276.500319094271
 20
-2543.250083820241
 30
0.0
 11
-1276.500319094271
 21
-1995.247584678032
 31
0.0
  0
LINE
  5
3C0
330
1F
100
AcDbEntity
  8
0-2_扉
  6
Continuous
 62
     7
370
     9
100
AcDbLine
 10
-1316.500451062176
 20
-2503.250137432203
 30
0.0
 11
-1316.500451062176
 21
-2035.247584678032
 31
0.0
  0
LINE
  5
3C1
330
1F
100
AcDbEntity
  8
0-2_扉
  6
Continuous
 62
     7
370
     9
100
AcDbLine
 10
-1849.500269606306
 20
-2543.250083820241
 30
0.0
 11
-1864.50031909427
 21
-2558.250133308205
 31
0.0
  0
LINE
  5
3C2
330
1F
100
AcDbEntity
  8
0-2_扉
  6
Continuous
 62
     7
370
     9
100
AcDbLine
 10
-1849.500269606306
 20
-1995.247584678032
 30
0.0
 11
-1864.50031909427
 21
-1980.247535190068
 31
0.0
  0
LINE
  5
3C3
330
1F
100
AcDbEntity
  8
0-2_扉
  6
Continuous
 62
     7
370
     9
100
AcDbLine
 10
-1849.500269606306
 20
-1890.250083820241
 30
0.0
 11
-1864.50031909427
 21
-1905.250009588294
 31
0.0
  0
LINE
  5
3C4
330
1F
100
AcDbEntity
  8
0-2_扉
  6
Continuous
 62
     7
370
     9
100
AcDbLine
 10
-1849.500269606306
 20
-2543.250083820241
 30
0.0
 11
-1849.500269606306
 21
-1995.247584678032
 31
0.0
  0
LINE
  5
3C5
330
1F
100
AcDbEntity
  8
0-2_扉
  6
Continuous
 62
     7
370
     9
100
AcDbLine
 10
-1809.500385078224
 20
-2035.247584678032
 30
0.0
 11
-1809.500385078224
 21
-2503.250137432203
 31
0.0
  0
LINE
  5
3C6
330
1F
100
AcDbEntity
  8
0-2_扉
  6
Continuous
 62
     7
370
     9
100
AcDbLine
 10
-1809.500385078224
 20
-2035.247584678032
 30
0.0
 11
-1827.177980886923
 21
-2017.569865149422
 31
0.0
  0
LINE
  5
3C7
330
1F
100
AcDbEntity
  8
0-2_扉
  6
Continuous
 62
     7
370
     9
100
AcDbLine
 10
-1809.500385078224
 20
-2503.250137432203
 30
0.0
 11
-1827.177980886923
 21
-2520.927795100857
 31
0.0
  0
LINE
  5
3C8
330
1F
100
AcDbEntity
  8
0-2_扉
  6
Continuous
 62
     7
370
     9
100
AcDbLine
 10
-1809.500385078224
 20
-2503.250137432203
 30
0.0
 11
-1316.500451062176
 21
-2503.250137432203
 31
0.0
  0
LINE
  5
3C9
330
1F
100
AcDbEntity
  8
0-2_扉
  6
Continuous
 62
     7
370
     9
100
AcDbLine
 10
-1809.500385078224
 20
-2035.247584678032
 30
0.0
 11
-1316.500451062176
 21
-2035.247584678032
 31
0.0
  0
LINE
  5
3CA
330
1F
100
AcDbEntity
  8
0-2_扉
  6
Continuous
 62
     7
370
     9
100
AcDbLine
 10
-1276.500319094271
 20
-1995.247584678032
 30
0.0
 11
-1849.500269606306
 21
-1995.247584678032
 31
0.0
  0
LINE
  5
3CB
330
1F
100
AcDbEntity
  8
0-2_扉
  6
Continuous
 62
     7
370
     9
100
AcDbLine
 10
-1276.500319094271
 20
-2543.250083820241
 30
0.0
 11
-1849.500269606306
 21
-2543.250083820241
 31
0.0
  0
LINE
  5
3CC
330
1F
100
AcDbEntity
  8
0-2_扉
  6
Continuous
 62
     7
370
     9
100
AcDbLine
 10
-1261.500517046129
 20
-2558.250133308205
 30
0.0
 11
-1864.500319094271
 21
-2558.250133308205
 31
0.0
  0
LINE
  5
3CD
330
1F
100
AcDbEntity
  8
0-2_扉
  6
Continuous
 62
     7
370
     9
100
AcDbLine
 10
-1261.500517046129
 20
-1980.247535190068
 30
0.0
 11
-1864.500319094271
 21
-1980.247535190068
 31
0.0
  0
LINE
  5
3CE
330
1F
100
AcDbEntity
  8
0-2_扉
  6
Continuous
 62
     7
370
     9
100
AcDbLine
 10
-1864.500319094271
 20
-1905.250009588294
 30
0.0
 11
-1261.500517046129
 21
-1905.250009588294
 31
0.0
  0
LINE
  5
3CF
330
1F
100
AcDbEntity
  8
0-2_扉
  6
Continuous
 62
     7
370
     9
100
AcDbLine
 10
-1849.500269606306
 20
-1890.250083820241
 30
0.0
 11
-1849.500269606306
 21
-705.2475335404687
 31
0.0
  0
LINE
  5
3D0
330
1F
100
AcDbEntity
  8
0-2_扉
  6
Continuous
 62
     7
370
     9
100
AcDbLine
 10
-1276.500319094271
 20
-1890.250083820241
 30
0.0
 11
-1276.500319094271
 21
-705.2475335404687
 31
0.0
  0
LINE
  5
3D1
330
1F
100
AcDbEntity
  8
0-2_扉
  6
Continuous
 62
     7
370
     9
100
AcDbLine
 10
-1849.500269606306
 20
-1890.250083820241
 30
0.0
 11
-1276.500319094271
 21
-1890.250083820241
 31
0.0
  0
LINE
  5
3D2
330
1F
100
AcDbEntity
  8
0-2_扉
  6
Continuous
 62
     7
370
     9
100
AcDbLine
 10
-1261.500269606307
 20
-2693.250083820241
 30
0.0
 11
-1261.500269606307
 21
-510.2499749467198
 31
0.0
  0
LINE
  5
3D3
330
1F
100
AcDbEntity
  8
0-2_扉
  6
Continuous
 62
     7
370
     9
100
AcDbLine
 10
-1864.500319094271
 20
-2693.250083820241
 30
0.0
 11
-1864.500319094271
 21
-510.2499749467198
 31
0.0
  0
LINE
  5
3D4
330
1F
100
AcDbEntity
  8
0-2_扉
  6
Continuous
 62
     7
370
     9
100
AcDbLine
 10
-1158.000319094271
 20
-510.2500368066748
 30
0.0
 11
-1965.000269606306
 21
-510.2500368066748
 31
0.0
  0
LINE
  5
3D5
330
1F
100
AcDbEntity
  8
0-2_扉
  6
Continuous
 62
     7
370
     9
100
AcDbLine
 10
-1158.000319094271
 20
-2693.250083820241
 30
0.0
 11
-1965.000269606306
 21
-2693.250083820241
 31
0.0
  0
LINE
  5
3D6
330
1F
100
AcDbEntity
  8
0-4_枠
  6
Continuous
 62
    92
370
    13
100
AcDbLine
 10
-381.0002696063077
 20
-2701.250083820241
 30
0.0
 11
-1965.000269606306
 21
-2701.250083820241
 31
0.0
  0
LINE
  5
3D7
330
1F
100
AcDbEntity
  8
0-4_枠
  6
Continuous
 62
    92
370
    13
100
AcDbLine
 10
-381.0002696063077
 20
-2698.250083820241
 30
0.0
 11
-1965.000269606306
 21
-2698.250083820241
 31
0.0
  0
LINE
  5
3D8
330
1F
100
AcDbEntity
  8
0-4_枠
  6
Continuous
 62
    92
370
    13
100
AcDbLine
 10
-2996.000018557986
 20
-2701.250083820241
 30
0.0
 11
-4760.000018557985
 21
-2701.250083820241
 31
0.0
  0
LINE
  5
3D9
330
1F
100
AcDbEntity
  8
0-4_枠
  6
Continuous
 62
    92
370
    13
100
AcDbLine
 10
-2996.000018557986
 20
-2698.250083820241
 30
0.0
 11
-4760.000018557985
 21
-2698.250083820241
 31
0.0
  0
ENDSEC
  0
SECTION
  2
OBJECTS
  0
DICTIONARY
  5
C
330
0
100
AcDbDictionary
281
     1
  3
ACAD_GROUP
350
D
  3
ACAD_LAYOUT
350
1A
  3
ACAD_MATERIAL
350
3B
  3
ACAD_MLEADERSTYLE
350
3DB
  3
ACAD_MLINESTYLE
350
17
  3
ACAD_PLOTSETTINGS
350
19
  3
ACAD_PLOTSTYLENAME
350
E
  3
ACAD_TABLESTYLE
350
3DA
  3
ACAD_VISUALSTYLE
350
2A
  0
DICTIONARY
  5
D
102
{ACAD_REACTORS
330
C
102
}
330
C
100
AcDbDictionary
281
     1
  0
DICTIONARY
  5
1A
102
{ACAD_REACTORS
330
C
102
}
330
C
100
AcDbDictionary
281
     1
  3
Layout1
350
1E
  3
Layout2
350
26
  3
Model
350
22
  0
DICTIONARY
  5
3B
102
{ACAD_REACTORS
330
C
102
}
330
C
100
AcDbDictionary
281
     1
  3
ByBlock
350
3D
  3
ByLayer
350
3C
  3
Global
350
3E
  0
DICTIONARY
  5
3DB
102
{ACAD_REACTORS
330
C
102
}
330
C
100
AcDbDictionary
281
     1
  0
DICTIONARY
  5
17
102
{ACAD_REACTORS
330
C
102
}
330
C
100
AcDbDictionary
281
     1
  3
Standard
350
18
  0
DICTIONARY
  5
19
102
{ACAD_REACTORS
330
C
102
}
330
C
100
AcDbDictionary
281
     1
  0
ACDBDICTIONARYWDFLT
  5
E
102
{ACAD_REACTORS
330
C
102
}
330
C
100
AcDbDictionary
281
     1
  3
Normal
350
F
100
AcDbDictionaryWithDefault
340
F
  0
DICTIONARY
  5
3DA
102
{ACAD_REACTORS
330
C
102
}
330
C
100
AcDbDictionary
281
     1
  0
DICTIONARY
  5
2A
102
{ACAD_REACTORS
330
C
102
}
330
C
100
AcDbDictionary
281
     1
  3
2dWireframe
350
2F
  3
3D Hidden
350
31
  3
3dWireframe
350
30
  3
Basic
350
32
  3
Brighten
350
36
  3
ColorChange
350
3A
  3
Conceptual
350
34
  3
Dim
350
35
  3
Facepattern
350
39
  3
Flat
350
2B
  3
FlatWithEdges
350
2C
  3
Gouraud
350
2D
  3
GouraudWithEdges
350
2E
  3
Linepattern
350
38
  3
Realistic
350
33
  3
Thicken
350
37
  0
LAYOUT
  5
1E
102
{ACAD_REACTORS
330
1A
102
}
330
1A
100
AcDbPlotSettings
  1

  2
none_device
  4

  6

 40
0.0
 41
0.0
 42
0.0
 43
0.0
 44
0.0
 45
0.0
 46
0.0
 47
0.0
 48
0.0
 49
0.0
140
0.0
141
0.0
142
1.0
143
1.0
 70
   688
 72
     0
 73
     0
 74
     5
  7

 75
    16
 76
     0
 77
     5
 78
   300
147
1.0
148
0.0
149
0.0
100
AcDbLayout
  1
Layout1
 70
     1
 71
     1
 10
0.0
 20
0.0
 11
420.0
 21
297.0
 12
0.0
 22
0.0
 32
0.0
 14
1.000000000000000E+20
 24
1.000000000000000E+20
 34
1.000000000000000E+20
 15
-1.000000000000000E+20
 25
-1.000000000000000E+20
 35
-1.000000000000000E+20
146
0.0
 13
0.0
 23
0.0
 33
0.0
 16
1.0
 26
0.0
 36
0.0
 17
0.0
 27
1.0
 37
0.0
 76
     0
330
1B
  0
LAYOUT
  5
26
102
{ACAD_REACTORS
330
1A
102
}
330
1A
100
AcDbPlotSettings
  1

  2
none_device
  4

  6

 40
0.0
 41
0.0
 42
0.0
 43
0.0
 44
0.0
 45
0.0
 46
0.0
 47
0.0
 48
0.0
 49
0.0
140
0.0
141
0.0
142
1.0
143
1.0
 70
   688
 72
     0
 73
     0
 74
     5
  7

 75
    16
 76
     0
 77
     5
 78
   300
147
1.0
148
0.0
149
0.0
100
AcDbLayout
  1
Layout2
 70
     1
 71
     2
 10
0.0
 20
0.0
 11
0.0
 21
0.0
 12
0.0
 22
0.0
 32
0.0
 14
0.0
 24
0.0
 34
0.0
 15
0.0
 25
0.0
 35
0.0
146
0.0
 13
0.0
 23
0.0
 33
0.0
 16
1.0
 26
0.0
 36
0.0
 17
0.0
 27
1.0
 37
0.0
 76
     0
330
23
  0
LAYOUT
  5
22
102
{ACAD_REACTORS
330
1A
102
}
330
1A
100
AcDbPlotSettings
  1

  2
none_device
  4

  6

 40
0.0
 41
0.0
 42
0.0
 43
0.0
 44
0.0
 45
0.0
 46
0.0
 47
0.0
 48
0.0
 49
0.0
140
0.0
141
0.0
142
1.0
143
1.0
 70
  1712
 72
     0
 73
     0
 74
     0
  7

 75
     0
 76
     0
 77
     5
 78
   300
147
1.0
148
0.0
149
0.0
100
AcDbLayout
  1
Model
 70
     1
 71
     0
 10
-6300.0
 20
-4455.0
 11
6300.0
 21
4455.0
 12
0.0
 22
0.0
 32
0.0
 14
-6300.0
 24
-4455.0
 34
0.0
 15
6300.0
 25
4455.0
 35
0.0
146
0.0
 13
0.0
 23
0.0
 33
0.0
 16
1.0
 26
0.0
 36
0.0
 17
0.0
 27
1.0
 37
0.0
 76
     0
330
1F
331
29
  0
MATERIAL
  5
3D
102
{ACAD_REACTORS
330
3B
102
}
330
3B
100
AcDbMaterial
  1
ByBlock
 72
     1
 94
      127
  0
MATERIAL
  5
3C
102
{ACAD_REACTORS
330
3B
102
}
330
3B
100
AcDbMaterial
  1
ByLayer
 72
     1
 94
      127
  0
MATERIAL
  5
3E
102
{ACAD_REACTORS
330
3B
102
}
330
3B
100
AcDbMaterial
  1
Global
 72
     1
 94
      127
  0
MLINESTYLE
  5
18
102
{ACAD_REACTORS
330
17
102
}
330
17
100
AcDbMlineStyle
  2
Standard
 70
     0
  3

 62
   256
 51
90.0
 52
90.0
 71
     2
 49
0.5
 62
   256
  6
BYLAYER
 49
-0.5
 62
   256
  6
BYLAYER
  0
ACDBPLACEHOLDER
  5
F
102
{ACAD_REACTORS
330
E
102
}
330
E
  0
VISUALSTYLE
  5
2F
102
{ACAD_REACTORS
330
2A
102
}
330
2A
100
AcDbVisualStyle
  2
2dWireframe
 70
     4
177
     2
291
     0
 71
     0
176
     1
 72
     2
176
     1
 73
     0
176
     1
 90
        0
176
     1
 40
-0.6
176
     1
 41
-30.0
176
     1
 62
     5
 63
     7
421
 16777215
176
     1
 74
     1
176
     1
 91
        4
176
     1
 64
     7
176
     1
 65
   257
176
     1
 75
     1
176
     1
175
     1
176
     1
 42
1.0
176
     1
 92
        0
176
     1
 66
   257
176
     1
 43
1.0
176
     1
 76
     1
176
     1
 77
     6
176
     1
 78
     2
176
     1
 67
     7
176
     1
 79
     5
176
     1
170
     0
176
     1
171
     0
176
     1
290
     0
176
     1
 93
        1
176
     1
 44
0.0
176
     1
173
     0
176
     1
  0
VISUALSTYLE
  5
31
102
{ACAD_REACTORS
330
2A
102
}
330
2A
100
AcDbVisualStyle
  2
3D Hidden
 70
     6
177
     2
291
     0
 71
     1
176
     1
 72
     2
176
     1
 73
     2
176
     1
 90
        0
176
     1
 40
-0.6
176
     1
 41
-30.0
176
     1
 62
     5
 63
     7
421
 16777215
176
     1
 74
     2
176
     1
 91
        2
176
     1
 64
     7
176
     1
 65
   257
176
     1
 75
     2
176
     1
175
     1
176
     1
 42
40.0
176
     1
 92
        0
176
     1
 66
   257
176
     1
 43
1.0
176
     1
 76
     1
176
     1
 77
     6
176
     1
 78
     2
176
     1
 67
     7
176
     1
 79
     3
176
     1
170
     0
176
     1
171
     0
176
     1
290
     0
176
     1
 93
        1
176
     1
 44
0.0
176
     1
173
     0
176
     1
  0
VISUALSTYLE
  5
30
102
{ACAD_REACTORS
330
2A
102
}
330
2A
100
AcDbVisualStyle
  2
3dWireframe
 70
     5
177
     2
291
     0
 71
     0
176
     1
 72
     2
176
     1
 73
     0
176
     1
 90
        0
176
     1
 40
-0.6
176
     1
 41
-30.0
176
     1
 62
     5
 63
     7
421
 16777215
176
     1
 74
     1
176
     1
 91
        4
176
     1
 64
     7
176
     1
 65
   257
176
     1
 75
     1
176
     1
175
     1
176
     1
 42
1.0
176
     1
 92
        0
176
     1
 66
   257
176
     1
 43
1.0
176
     1
 76
     1
176
     1
 77
     6
176
     1
 78
     2
176
     1
 67
     7
176
     1
 79
     5
176
     1
170
     0
176
     1
171
     0
176
     1
290
     0
176
     1
 93
        1
176
     1
 44
0.0
176
     1
173
     0
176
     1
  0
VISUALSTYLE
  5
32
102
{ACAD_REACTORS
330
2A
102
}
330
2A
100
AcDbVisualStyle
  2
Basic
 70
     7
177
     2
291
     1
 71
     1
176
     1
 72
     0
176
     1
 73
     1
176
     1
 90
        0
176
     1
 40
-0.6
176
     1
 41
-30.0
176
     1
 62
     5
 63
     7
421
 16777215
176
     1
 74
     0
176
     1
 91
        4
176
     1
 64
     7
176
     1
 65
   257
176
     1
 75
     1
176
     1
175
     1
176
     1
 42
1.0
176
     1
 92
        8
176
     1
 66
     7
176
     1
 43
1.0
176
     1
 76
     1
176
     1
 77
     6
176
     1
 78
     2
176
     1
 67
     7
176
     1
 79
     5
176
     1
170
     0
176
     1
171
     0
176
     1
290
     0
176
     1
 93
        1
176
     1
 44
0.0
176
     1
173
     0
176
     1
  0
VISUALSTYLE
  5
36
102
{ACAD_REACTORS
330
2A
102
}
330
2A
100
AcDbVisualStyle
  2
Brighten
 70
    12
177
     2
291
     1
 71
     2
176
     1
 72
     2
176
     1
 73
     0
176
     1
 90
        0
176
     1
 40
-0.6
176
     1
 41
-30.0
176
     1
 62
     5
 63
     7
421
 16777215
176
     1
 74
     1
176
     1
 91
        4
176
     1
 64
     7
176
     1
 65
   257
176
     1
 75
     1
176
     1
175
     1
176
     1
 42
1.0
176
     1
 92
        8
176
     1
 66
     7
176
     1
 43
1.0
176
     1
 76
     1
176
     1
 77
     6
176
     1
 78
     2
176
     1
 67
     7
176
     1
 79
     5
176
     1
170
     0
176
     1
171
     0
176
     1
290
     0
176
     1
 93
        1
176
     1
 44
50.0
176
     1
173
     0
176
     1
  0
VISUALSTYLE
  5
3A
102
{ACAD_REACTORS
330
2A
102
}
330
2A
100
AcDbVisualStyle
  2
ColorChange
 70
    16
177
     2
291
     1
 71
     2
176
     1
 72
     2
176
     1
 73
     3
176
     1
 90
        0
176
     1
 40
-0.6
176
     1
 41
-30.0
176
     1
 62
     5
 63
     8
421
  8421504
176
     1
 74
     1
176
     1
 91
        4
176
     1
 64
     7
176
     1
 65
   257
176
     1
 75
     1
176
     1
175
     1
176
     1
 42
1.0
176
     1
 92
        8
176
     1
 66
     8
424
  8421504
176
     1
 43
1.0
176
     1
 76
     1
176
     1
 77
     6
176
     1
 78
     2
176
     1
 67
     7
176
     1
 79
     5
176
     1
170
     0
176
     1
171
     0
176
     1
290
     0
176
     1
 93
        1
176
     1
 44
0.0
176
     1
173
     0
176
     1
  0
VISUALSTYLE
  5
34
102
{ACAD_REACTORS
330
2A
102
}
330
2A
100
AcDbVisualStyle
  2
Conceptual
 70
     9
177
     2
291
     0
 71
     3
176
     1
 72
     2
176
     1
 73
     0
176
     1
 90
        0
176
     1
 40
-0.6
176
     1
 41
-30.0
176
     1
 62
     5
 63
     7
421
 16777215
176
     1
 74
     2
176
     1
 91
        2
176
     1
 64
     7
176
     1
 65
   257
176
     1
 75
     1
176
     1
175
     1
176
     1
 42
40.0
176
     1
 92
        8
176
     1
 66
     7
176
     1
 43
1.0
176
     1
 76
     1
176
     1
 77
     6
176
     1
 78
     2
176
     1
 67
     7
176
     1
 79
     3
176
     1
170
     0
176
     1
171
     0
176
     1
290
     0
176
     1
 93
        1
176
     1
 44
0.0
176
     1
173
     0
176
     1
  0
VISUALSTYLE
  5
35
102
{ACAD_REACTORS
330
2A
102
}
330
2A
100
AcDbVisualStyle
  2
Dim
 70
    11
177
     2
291
     1
 71
     2
176
     1
 72
     2
176
     1
 73
     0
176
     1
 90
        0
176
     1
 40
-0.6
176
     1
 41
-30.0
176
     1
 62
     5
 63
     7
421
 16777215
176
     1
 74
     1
176
     1
 91
        4
176
     1
 64
     7
176
     1
 65
   257
176
     1
 75
     1
176
     1
175
     1
176
     1
 42
1.0
176
     1
 92
        8
176
     1
 66
     7
176
     1
 43
1.0
176
     1
 76
     1
176
     1
 77
     6
176
     1
 78
     2
176
     1
 67
     7
176
     1
 79
     5
176
     1
170
     0
176
     1
171
     0
176
     1
290
     0
176
     1
 93
        1
176
     1
 44
-50.0
176
     1
173
     0
176
     1
  0
VISUALSTYLE
  5
39
102
{ACAD_REACTORS
330
2A
102
}
330
2A
100
AcDbVisualStyle
  2
Facepattern
 70
    15
177
     2
291
     1
 71
     2
176
     1
 72
     2
176
     1
 73
     0
176
     1
 90
        0
176
     1
 40
-0.6
176
     1
 41
-30.0
176
     1
 62
     5
 63
     7
421
 16777215
176
     1
 74
     1
176
     1
 91
        4
176
     1
 64
     7
176
     1
 65
   257
176
     1
 75
     1
176
     1
175
     1
176
     1
 42
1.0
176
     1
 92
        8
176
     1
 66
     7
176
     1
 43
1.0
176
     1
 76
     1
176
     1
 77
     6
176
     1
 78
     2
176
     1
 67
     7
176
     1
 79
     5
176
     1
170
     0
176
     1
171
     0
176
     1
290
     0
176
     1
 93
        1
176
     1
 44
0.0
176
     1
173
     0
176
     1
  0
VISUALSTYLE
  5
2B
102
{ACAD_REACTORS
330
2A
102
}
330
2A
100
AcDbVisualStyle
  2
Flat
 70
     0
177
     2
291
     1
 71
     2
176
     1
 72
     1
176
     1
 73
     1
176
     1
 90
        2
176
     1
 40
-0.6
176
     1
 41
30.0
176
     1
 62
     5
 63
     7
421
 16777215
176
     1
 74
     0
176
     1
 91
        4
176
     1
 64
     7
176
     1
 65
   257
176
     1
 75
     1
176
     1
175
     1
176
     1
 42
1.0
176
     1
 92
        8
176
     1
 66
     7
176
     1
 43
1.0
176
     1
 76
     1
176
     1
 77
     6
176
     1
 78
     2
176
     1
 67
     7
176
     1
 79
     5
176
     1
170
     0
176
     1
171
     0
176
     1
290
     0
176
     1
 93
       13
176
     1
 44
0.0
176
     1
173
     0
176
     1
  0
VISUALSTYLE
  5
2C
102
{ACAD_REACTORS
330
2A
102
}
330
2A
100
AcDbVisualStyle
  2
FlatWithEdges
 70
     1
177
     2
291
     1
 71
     2
176
     1
 72
     1
176
     1
 73
     1
176
     1
 90
        2
176
     1
 40
-0.6
176
     1
 41
30.0
176
     1
 62
     5
 63
     7
421
 16777215
176
     1
 74
     1
176
     1
 91
        4
176
     1
 64
     7
176
     1
 65
   257
176
     1
 75
     1
176
     1
175
     1
176
     1
 42
1.0
176
     1
 92
        0
176
     1
 66
   257
176
     1
 43
1.0
176
     1
 76
     1
176
     1
 77
     6
176
     1
 78
     2
176
     1
 67
     7
176
     1
 79
     5
176
     1
170
     0
176
     1
171
     0
176
     1
290
     0
176
     1
 93
       13
176
     1
 44
0.0
176
     1
173
     0
176
     1
  0
VISUALSTYLE
  5
2D
102
{ACAD_REACTORS
330
2A
102
}
330
2A
100
AcDbVisualStyle
  2
Gouraud
 70
     2
177
     2
291
     1
 71
     2
176
     1
 72
     2
176
     1
 73
     1
176
     1
 90
        2
176
     1
 40
-0.6
176
     1
 41
30.0
176
     1
 62
     5
 63
     7
421
 16777215
176
     1
 74
     0
176
     1
 91
        4
176
     1
 64
     7
176
     1
 65
   257
176
     1
 75
     1
176
     1
175
     1
176
     1
 42
1.0
176
     1
 92
        0
176
     1
 66
     7
176
     1
 43
1.0
176
     1
 76
     1
176
     1
 77
     6
176
     1
 78
     2
176
     1
 67
     7
176
     1
 79
     5
176
     1
170
     0
176
     1
171
     0
176
     1
290
     0
176
     1
 93
       13
176
     1
 44
0.0
176
     1
173
     0
176
     1
  0
VISUALSTYLE
  5
2E
102
{ACAD_REACTORS
330
2A
102
}
330
2A
100
AcDbVisualStyle
  2
GouraudWithEdges
 70
     3
177
     2
291
     1
 71
     2
176
     1
 72
     2
176
     1
 73
     1
176
     1
 90
        2
176
     1
 40
-0.6
176
     1
 41
30.0
176
     1
 62
     5
 63
     7
421
 16777215
176
     1
 74
     1
176
     1
 91
        4
176
     1
 64
     7
176
     1
 65
   257
176
     1
 75
     1
176
     1
175
     1
176
     1
 42
1.0
176
     1
 92
        0
176
     1
 66
   257
176
     1
 43
1.0
176
     1
 76
     1
176
     1
 77
     6
176
     1
 78
     2
176
     1
 67
     7
176
     1
 79
     5
176
     1
170
     0
176
     1
171
     0
176
     1
290
     0
176
     1
 93
       13
176
     1
 44
0.0
176
     1
173
     0
176
     1
  0
VISUALSTYLE
  5
38
102
{ACAD_REACTORS
330
2A
102
}
330
2A
100
AcDbVisualStyle
  2
Linepattern
 70
    14
177
     2
291
     1
 71
     2
176
     1
 72
     2
176
     1
 73
     0
176
     1
 90
        0
176
     1
 40
-0.6
176
     1
 41
-30.0
176
     1
 62
     5
 63
     7
421
 16777215
176
     1
 74
     1
176
     1
 91
        4
176
     1
 64
     7
176
     1
 65
   257
176
     1
 75
     7
176
     1
175
     7
176
     1
 42
1.0
176
     1
 92
        8
176
     1
 66
     7
176
     1
 43
1.0
176
     1
 76
     1
176
     1
 77
     6
176
     1
 78
     2
176
     1
 67
     7
176
     1
 79
     5
176
     1
170
     0
176
     1
171
     0
176
     1
290
     0
176
     1
 93
        1
176
     1
 44
0.0
176
     1
173
     0
176
     1
  0
VISUALSTYLE
  5
33
102
{ACAD_REACTORS
330
2A
102
}
330
2A
100
AcDbVisualStyle
  2
Realistic
 70
     8
177
     2
291
     0
 71
     2
176
     1
 72
     2
176
     1
 73
     0
176
     1
 90
        0
176
     1
 40
-0.6
176
     1
 41
-30.0
176
     1
 62
     5
 63
     7
421
 16777215
176
     1
 74
     1
176
     1
 91
        0
176
     1
 64
     7
176
     1
 65
   257
176
     1
 75
     1
176
     1
175
     1
176
     1
 42
1.0
176
     1
 92
        8
176
     1
 66
     8
424
  7895160
176
     1
 43
1.0
176
     1
 76
     1
176
     1
 77
     6
176
     1
 78
     2
176
     1
 67
     7
176
     1
 79
     5
176
     1
170
     0
176
     1
171
     0
176
     1
290
     0
176
     1
 93
       13
176
     1
 44
0.0
176
     1
173
     0
176
     1
  0
VISUALSTYLE
  5
37
102
{ACAD_REACTORS
330
2A
102
}
330
2A
100
AcDbVisualStyle
  2
Thicken
 70
    13
177
     2
291
     1
 71
     2
176
     1
 72
     2
176
     1
 73
     0
176
     1
 90
        0
176
     1
 40
-0.6
176
     1
 41
-30.0
176
     1
 62
     5
 63
     7
421
 16777215
176
     1
 74
     1
176
     1
 91
        4
176
     1
 64
     7
176
     1
 65
   257
176
     1
 75
     1
176
     1
175
     1
176
     1
 42
1.0
176
     1
 92
       12
176
     1
 66
     7
176
     1
 43
1.0
176
     1
 76
     1
176
     1
 77
     6
176
     1
 78
     2
176
     1
 67
     7
176
     1
 79
     5
176
     1
170
     0
176
     1
171
     0
176
     1
290
     0
176
     1
 93
        1
176
     1
 44
0.0
176
     1
173
     0
176
     1
  0
ENDSEC
  0
EOF
