  0
SECTION
  2
HEADER
  9
$ACADVER
  1
AC1024
  9
$ACADMAINTVER
 70
     6
  9
$DWGCODEPAGE
  3
ANSI_932
  9
$INSBASE
 10
0.0
 20
0.0
 30
0.0
  9
$EXTMIN
 10
-6300.0
 20
-4455.0
 30
0.0
  9
$EXTMAX
 10
6300.0
 20
4455.0
 30
0.0
  9
$LIMMIN
 10
-6300.0
 20
-4455.0
  9
$LIMMAX
 10
6300.0
 20
4455.0
  9
$ORTHOMODE
 70
     0
  9
$REGENMODE
 70
     1
  9
$FILLMODE
 70
     1
  9
$QTEXTMODE
 70
     0
  9
$MIRRTEXT
 70
     1
  9
$LTSCALE
 40
30.0
  9
$ATTMODE
 70
     1
  9
$TEXTSIZE
 40
2.5
  9
$TRACEWID
 40
1.0
  9
$TEXTSTYLE
  7
Standard
  9
$CLAYER
  8
0
  9
$CELTYPE
  6
ByLayer
  9
$CECOLOR
 62
   256
  9
$CELTSCALE
 40
1.0
  9
$DISPSILH
 70
     0
  9
$DIMSCALE
 40
1.0
  9
$DIMASZ
 40
2.5
  9
$DIMEXO
 40
0.625
  9
$DIMDLI
 40
3.75
  9
$DIMRND
 40
0.0
  9
$DIMDLE
 40
0.0
  9
$DIMEXE
 40
1.25
  9
$DIMTP
 40
0.0
  9
$DIMTM
 40
0.0
  9
$DIMTXT
 40
2.5
  9
$DIMCEN
 40
2.5
  9
$DIMTSZ
 40
0.0
  9
$DIMTOL
 70
     0
  9
$DIMLIM
 70
     0
  9
$DIMTIH
 70
     0
  9
$DIMTOH
 70
     0
  9
$DIMSE1
 70
     0
  9
$DIMSE2
 70
     0
  9
$DIMTAD
 70
     1
  9
$DIMZIN
 70
     8
  9
$DIMBLK
  1

  9
$DIMASO
 70
     1
  9
$DIMSHO
 70
     1
  9
$DIMPOST
  1

  9
$DIMAPOST
  1

  9
$DIMALT
 70
     0
  9
$DIMALTD
 70
     3
  9
$DIMALTF
 40
0.03937007874016
  9
$DIMLFAC
 40
1.0
  9
$DIMTOFL
 70
     1
  9
$DIMTVP
 40
0.0
  9
$DIMTIX
 70
     0
  9
$DIMSOXD
 70
     0
  9
$DIMSAH
 70
     0
  9
$DIMBLK1
  1

  9
$DIMBLK2
  1

  9
$DIMSTYLE
  2
ISO-25
  9
$DIMCLRD
 70
     0
  9
$DIMCLRE
 70
     0
  9
$DIMCLRT
 70
     0
  9
$DIMTFAC
 40
1.0
  9
$DIMGAP
 40
0.625
  9
$DIMJUST
 70
     0
  9
$DIMSD1
 70
     0
  9
$DIMSD2
 70
     0
  9
$DIMTOLJ
 70
     0
  9
$DIMTZIN
 70
     8
  9
$DIMALTZ
 70
     0
  9
$DIMALTTZ
 70
     0
  9
$DIMUPT
 70
     0
  9
$DIMDEC
 70
     2
  9
$DIMTDEC
 70
     2
  9
$DIMALTU
 70
     2
  9
$DIMALTTD
 70
     3
  9
$DIMTXSTY
  7
Standard
  9
$DIMAUNIT
 70
     0
  9
$DIMADEC
 70
     0
  9
$DIMALTRND
 40
0.0
  9
$DIMAZIN
 70
     0
  9
$DIMDSEP
 70
    44
  9
$DIMATFIT
 70
     3
  9
$DIMFRAC
 70
     0
  9
$DIMLDRBLK
  1

  9
$DIMLUNIT
 70
     2
  9
$DIMLWD
 70
    -2
  9
$DIMLWE
 70
    -2
  9
$DIMTMOVE
 70
     0
  9
$DIMFXL
 40
1.0
  9
$DIMFXLON
 70
     0
  9
$DIMJOGANG
 40
0.7853981633974483
  9
$DIMTFILL
 70
     0
  9
$DIMTFILLCLR
 70
     0
  9
$DIMARCSYM
 70
     0
  9
$DIMLTYPE
  6

  9
$DIMLTEX1
  6

  9
$DIMLTEX2
  6

  9
$DIMTXTDIRECTION
 70
     0
  9
$LUNITS
 70
     2
  9
$LUPREC
 70
     4
  9
$SKETCHINC
 40
1.0
  9
$FILLETRAD
 40
10.0
  9
$AUNITS
 70
     0
  9
$AUPREC
 70
     0
  9
$MENU
  1
.
  9
$ELEVATION
 40
0.0
  9
$PELEVATION
 40
0.0
  9
$THICKNESS
 40
0.0
  9
$LIMCHECK
 70
     0
  9
$CHAMFERA
 40
10.0
  9
$CHAMFERB
 40
10.0
  9
$CHAMFERC
 40
20.0
  9
$CHAMFERD
 40
0.0
  9
$SKPOLY
 70
     0
  9
$TDCREATE
 40
2459411.581919502
  9
$TDUCREATE
 40
2459411.206919502
  9
$TDUPDATE
 40
2459411.581919514
  9
$TDUUPDATE
 40
2459411.206919514
  9
$TDINDWG
 40
0.0000000116
  9
$TDUSRTIMER
 40
0.0000000116
  9
$USRTIMER
 70
     1
  9
$ANGBASE
 50
0.0
  9
$ANGDIR
 70
     0
  9
$PDMODE
 70
     0
  9
$PDSIZE
 40
0.0
  9
$PLINEWID
 40
0.0
  9
$SPLFRAME
 70
     0
  9
$SPLINETYPE
 70
     6
  9
$SPLINESEGS
 70
     8
  9
$HANDSEED
  5
39E
  9
$SURFTAB1
 70
     6
  9
$SURFTAB2
 70
     6
  9
$SURFTYPE
 70
     6
  9
$SURFU
 70
     6
  9
$SURFV
 70
     6
  9
$UCSBASE
  2

  9
$UCSNAME
  2

  9
$UCSORG
 10
0.0
 20
0.0
 30
0.0
  9
$UCSXDIR
 10
1.0
 20
0.0
 30
0.0
  9
$UCSYDIR
 10
0.0
 20
1.0
 30
0.0
  9
$UCSORTHOREF
  2

  9
$UCSORTHOVIEW
 70
     0
  9
$UCSORGTOP
 10
0.0
 20
0.0
 30
0.0
  9
$UCSORGBOTTOM
 10
0.0
 20
0.0
 30
0.0
  9
$UCSORGLEFT
 10
0.0
 20
0.0
 30
0.0
  9
$UCSORGRIGHT
 10
0.0
 20
0.0
 30
0.0
  9
$UCSORGFRONT
 10
0.0
 20
0.0
 30
0.0
  9
$UCSORGBACK
 10
0.0
 20
0.0
 30
0.0
  9
$PUCSBASE
  2

  9
$PUCSNAME
  2

  9
$PUCSORG
 10
0.0
 20
0.0
 30
0.0
  9
$PUCSXDIR
 10
1.0
 20
0.0
 30
0.0
  9
$PUCSYDIR
 10
0.0
 20
1.0
 30
0.0
  9
$PUCSORTHOREF
  2

  9
$PUCSORTHOVIEW
 70
     0
  9
$PUCSORGTOP
 10
0.0
 20
0.0
 30
0.0
  9
$PUCSORGBOTTOM
 10
0.0
 20
0.0
 30
0.0
  9
$PUCSORGLEFT
 10
0.0
 20
0.0
 30
0.0
  9
$PUCSORGRIGHT
 10
0.0
 20
0.0
 30
0.0
  9
$PUCSORGFRONT
 10
0.0
 20
0.0
 30
0.0
  9
$PUCSORGBACK
 10
0.0
 20
0.0
 30
0.0
  9
$USERI1
 70
     0
  9
$USERI2
 70
     0
  9
$USERI3
 70
     0
  9
$USERI4
 70
     0
  9
$USERI5
 70
     0
  9
$USERR1
 40
0.0
  9
$USERR2
 40
0.0
  9
$USERR3
 40
0.0
  9
$USERR4
 40
0.0
  9
$USERR5
 40
0.0
  9
$WORLDVIEW
 70
     1
  9
$SHADEDGE
 70
     3
  9
$SHADEDIF
 70
    70
  9
$TILEMODE
 70
     1
  9
$MAXACTVP
 70
    64
  9
$PINSBASE
 10
0.0
 20
0.0
 30
0.0
  9
$PLIMCHECK
 70
     0
  9
$PEXTMIN
 10
1.000000000000000E+20
 20
1.000000000000000E+20
 30
1.000000000000000E+20
  9
$PEXTMAX
 10
-1.000000000000000E+20
 20
-1.000000000000000E+20
 30
-1.000000000000000E+20
  9
$PLIMMIN
 10
0.0
 20
0.0
  9
$PLIMMAX
 10
420.0
 20
297.0
  9
$UNITMODE
 70
     0
  9
$VISRETAIN
 70
     1
  9
$PLINEGEN
 70
     0
  9
$PSLTSCALE
 70
     1
  9
$TREEDEPTH
 70
  3020
  9
$CMLSTYLE
  2
Standard
  9
$CMLJUST
 70
     0
  9
$CMLSCALE
 40
20.0
  9
$PROXYGRAPHICS
 70
     1
  9
$MEASUREMENT
 70
     1
  9
$CELWEIGHT
370
    -1
  9
$ENDCAPS
280
     0
  9
$JOINSTYLE
280
     0
  9
$LWDISPLAY
290
     0
  9
$INSUNITS
 70
     4
  9
$HYPERLINKBASE
  1

  9
$STYLESHEET
  1

  9
$XEDIT
290
     1
  9
$CEPSNTYPE
380
     0
  9
$PSTYLEMODE
290
     1
  9
$FINGERPRINTGUID
  2
{6B4A2577-AF00-486E-947C-486CB563481A}
  9
$VERSIONGUID
  2
{FAEB1C32-E019-11D5-929B-00C0DF256EC4}
  9
$EXTNAMES
290
     1
  9
$PSVPSCALE
 40
0.0
  9
$OLESTARTUP
290
     0
  9
$SORTENTS
280
   127
  9
$INDEXCTL
280
     0
  9
$HIDETEXT
280
     1
  9
$XCLIPFRAME
280
     2
  9
$HALOGAP
280
     0
  9
$OBSCOLOR
 70
   257
  9
$OBSLTYPE
280
     0
  9
$INTERSECTIONDISPLAY
280
     0
  9
$INTERSECTIONCOLOR
 70
   257
  9
$DIMASSOC
280
     2
  9
$PROJECTNAME
  1

  9
$CAMERADISPLAY
290
     0
  9
$LENSLENGTH
 40
50.0
  9
$CAMERAHEIGHT
 40
0.0
  9
$STEPSPERSEC
 40
2.0
  9
$STEPSIZE
 40
6.0
  9
$3DDWFPREC
 40
2.0
  9
$PSOLWIDTH
 40
5.0
  9
$PSOLHEIGHT
 40
80.0
  9
$LOFTANG1
 40
1.570796326794897
  9
$LOFTANG2
 40
1.570796326794897
  9
$LOFTMAG1
 40
0.0
  9
$LOFTMAG2
 40
0.0
  9
$LOFTPARAM
 70
     7
  9
$LOFTNORMALS
280
     1
  9
$LATITUDE
 40
37.795
  9
$LONGITUDE
 40
-122.394
  9
$NORTHDIRECTION
 40
0.0
  9
$TIMEZONE
 70
 -8000
  9
$LIGHTGLYPHDISPLAY
280
     1
  9
$TILEMODELIGHTSYNCH
280
     1
  9
$SOLIDHIST
280
     1
  9
$SHOWHIST
280
     1
  9
$DWFFRAME
280
     2
  9
$DGNFRAME
280
     2
  9
$REALWORLDSCALE
290
     1
  9
$INTERFERECOLOR
 62
   256
  9
$CSHADOW
280
     0
  9
$SHADOWPLANELOCATION
 40
0.0
  0
ENDSEC
  0
SECTION
  2
CLASSES
  0
CLASS
  1
ACDBDICTIONARYWDFLT
  2
AcDbDictionaryWithDefault
  3
ObjectDBX Classes
 90
        0
 91
        4
280
     0
281
     0
  0
CLASS
  1
VISUALSTYLE
  2
AcDbVisualStyle
  3
ObjectDBX Classes
 90
     4095
 91
        4
280
     0
281
     0
  0
CLASS
  1
MATERIAL
  2
AcDbMaterial
  3
ObjectDBX Classes
 90
     1153
 91
        4
280
     0
281
     0
  0
ENDSEC
  0
SECTION
  2
TABLES
  0
TABLE
  2
VPORT
  5
8
330
0
100
AcDbSymbolTable
 70
     1
  0
VPORT
  5
29
330
8
100
AcDbSymbolTableRecord
100
AcDbViewportTableRecord
  2
*Active
 70
     0
 10
0.0
 20
0.0
 11
1.0
 21
1.0
 12
0.0
 22
0.0
 13
0.0
 23
0.0
 14
10.0
 24
10.0
 15
10.0
 25
10.0
 16
0.0
 26
0.0
 36
1.0
 17
0.0
 27
0.0
 37
0.0
 40
9801.0
 41
1.414141414141414
 42
50.0
 43
0.0
 44
0.0
 50
0.0
 51
0.0
 71
     0
 72
 10000
 73
     1
 74
     3
 75
     0
 76
     0
 77
     0
 78
     0
281
     0
 65
     1
110
0.0
120
0.0
130
0.0
111
1.0
121
0.0
131
0.0
112
0.0
122
1.0
132
0.0
 79
     0
146
0.0
 60
     3
 61
     5
292
     1
282
     1
141
0.0
142
0.0
 63
   250
  0
ENDTAB
  0
TABLE
  2
LTYPE
  5
5
330
0
100
AcDbSymbolTable
 70
     4
  0
LTYPE
  5
14
330
5
100
AcDbSymbolTableRecord
100
AcDbLinetypeTableRecord
  2
ByBlock
 70
     0
  3

 72
    65
 73
     0
 40
0.0
  0
LTYPE
  5
15
330
5
100
AcDbSymbolTableRecord
100
AcDbLinetypeTableRecord
  2
ByLayer
 70
     0
  3

 72
    65
 73
     0
 40
0.0
  0
LTYPE
  5
16
330
5
100
AcDbSymbolTableRecord
100
AcDbLinetypeTableRecord
  2
Continuous
 70
     0
  3
Solid line
 72
    65
 73
     0
 40
0.0
  0
LTYPE
  5
3F
330
5
100
AcDbSymbolTableRecord
100
AcDbLinetypeTableRecord
  2
JWW_HOJO
 70
     0
  3
  -   -   -   -   -   -   -   - 
 72
    65
 73
     2
 40
1.693333333333333
 49
-1.27
 74
     0
 49
0.4233333333333333
 74
     0
  0
LTYPE
  5
40
330
5
100
AcDbSymbolTableRecord
100
AcDbLinetypeTableRecord
  2
JWW_DASHED1
 70
     0
  3
-  --  --  --  --  --  --  --  -
 72
    65
 73
     2
 40
0.3386666666666667
 49
0.1693333333333333
 74
     0
 49
-0.1693333333333333
 74
     0
  0
LTYPE
  5
41
330
5
100
AcDbSymbolTableRecord
100
AcDbLinetypeTableRecord
  2
JWW_CENTER1
 70
     0
  3
-----  --  ----------  --  -----
 72
    65
 73
     4
 40
3.386666666666667
 49
2.116666666666667
 74
     0
 49
-0.4233333333333333
 74
     0
 49
0.4233333333333333
 74
     0
 49
-0.4233333333333333
 74
     0
  0
ENDTAB
  0
TABLE
  2
LAYER
  5
2
330
0
100
AcDbSymbolTable
 70
    11
  0
LAYER
  5
10
330
2
100
AcDbSymbolTableRecord
100
AcDbLayerTableRecord
  2
0
 70
     0
 62
     7
  6
Continuous
370
    -3
390
F
347
3E
  0
LAYER
  5
42
330
2
100
AcDbSymbolTableRecord
100
AcDbLayerTableRecord
  2
0-0_補助線
 70
     0
 62
     7
  6
Continuous
370
    -3
390
F
347
3E
  0
LAYER
  5
43
330
2
100
AcDbSymbolTableRecord
100
AcDbLayerTableRecord
  2
F-1_枠
 70
     0
 62
     7
  6
Continuous
370
    -3
390
F
347
3E
  0
LAYER
  5
44
330
2
100
AcDbSymbolTableRecord
100
AcDbLayerTableRecord
  2
F-0_補助線
 70
     0
 62
     7
  6
Continuous
370
    -3
390
F
347
3E
  0
LAYER
  5
45
330
2
100
AcDbSymbolTableRecord
100
AcDbLayerTableRecord
  2
F-A_文字
 70
     0
 62
     7
  6
Continuous
370
    -3
390
F
347
3E
  0
LAYER
  5
46
330
2
100
AcDbSymbolTableRecord
100
AcDbLayerTableRecord
  2
0-B_寸法
 70
     0
 62
     7
  6
Continuous
370
    -3
390
F
347
3E
  0
LAYER
  5
47
330
2
100
AcDbSymbolTableRecord
100
AcDbLayerTableRecord
  2
0-4_枠
 70
     0
 62
     7
  6
Continuous
370
    -3
390
F
347
3E
  0
LAYER
  5
48
330
2
100
AcDbSymbolTableRecord
100
AcDbLayerTableRecord
  2
0-A_文字
 70
     0
 62
     7
  6
Continuous
370
    -3
390
F
347
3E
  0
LAYER
  5
49
330
2
100
AcDbSymbolTableRecord
100
AcDbLayerTableRecord
  2
0-2_扉
 70
     0
 62
     7
  6
Continuous
370
    -3
390
F
347
3E
  0
LAYER
  5
4A
330
2
100
AcDbSymbolTableRecord
100
AcDbLayerTableRecord
  2
引手
 70
     0
 62
     7
  6
Continuous
370
    -3
390
F
347
3E
  0
LAYER
  5
4B
330
2
100
AcDbSymbolTableRecord
100
AcDbLayerTableRecord
  2
0-C_ハッチ
 70
     0
 62
     7
  6
Continuous
370
    -3
390
F
347
3E
  0
ENDTAB
  0
TABLE
  2
STYLE
  5
3
330
0
100
AcDbSymbolTable
 70
     1
  0
STYLE
  5
11
330
3
100
AcDbSymbolTableRecord
100
AcDbTextStyleTableRecord
  2
Standard
 70
     0
 40
0.0
 41
1.0
 50
0.0
 71
     0
 42
2.5
  3
txt
  4

  0
ENDTAB
  0
TABLE
  2
VIEW
  5
6
330
0
100
AcDbSymbolTable
 70
     0
  0
ENDTAB
  0
TABLE
  2
UCS
  5
7
330
0
100
AcDbSymbolTable
 70
     0
  0
ENDTAB
  0
TABLE
  2
APPID
  5
9
330
0
100
AcDbSymbolTable
 70
     1
  0
APPID
  5
12
330
9
100
AcDbSymbolTableRecord
100
AcDbRegAppTableRecord
  2
ACAD
 70
     0
  0
ENDTAB
  0
TABLE
  2
DIMSTYLE
  5
A
330
0
100
AcDbSymbolTable
 70
     1
100
AcDbDimStyleTable
  0
DIMSTYLE
105
27
330
A
100
AcDbSymbolTableRecord
100
AcDbDimStyleTableRecord
  2
ISO-25
 70
     0
 41
2.5
 42
0.625
 43
3.75
 44
1.25
 73
     0
 74
     0
 77
     1
 78
     8
140
2.5
141
2.5
143
0.03937007874016
147
0.625
171
     3
172
     1
178
     0
271
     2
272
     2
274
     3
278
    44
283
     0
284
     8
340
11
  0
ENDTAB
  0
TABLE
  2
BLOCK_RECORD
  5
1
330
0
100
AcDbSymbolTable
 70
     1
  0
BLOCK_RECORD
  5
1F
330
1
100
AcDbSymbolTableRecord
100
AcDbBlockTableRecord
  2
*Model_Space
340
22
 70
     0
280
     1
281
     0
  0
BLOCK_RECORD
  5
1B
330
1
100
AcDbSymbolTableRecord
100
AcDbBlockTableRecord
  2
*Paper_Space
340
1E
 70
     0
280
     1
281
     0
  0
BLOCK_RECORD
  5
23
330
1
100
AcDbSymbolTableRecord
100
AcDbBlockTableRecord
  2
*Paper_Space0
340
26
 70
     0
280
     1
281
     0
  0
ENDTAB
  0
ENDSEC
  0
SECTION
  2
BLOCKS
  0
BLOCK
  5
20
330
1F
100
AcDbEntity
  8
0
100
AcDbBlockBegin
  2
*Model_Space
 70
     0
 10
0.0
 20
0.0
 30
0.0
  3
*Model_Space
  1

  0
ENDBLK
  5
21
330
1F
100
AcDbEntity
  8
0
100
AcDbBlockEnd
  0
BLOCK
  5
1C
330
1B
100
AcDbEntity
 67
     1
  8
0
100
AcDbBlockBegin
  2
*Paper_Space
 70
     0
 10
0.0
 20
0.0
 30
0.0
  3
*Paper_Space
  1

  0
ENDBLK
  5
1D
330
1B
100
AcDbEntity
 67
     1
  8
0
100
AcDbBlockEnd
  0
BLOCK
  5
24
330
23
100
AcDbEntity
  8
0
100
AcDbBlockBegin
  2
*Paper_Space0
 70
     0
 10
0.0
 20
0.0
 30
0.0
  3
*Paper_Space0
  1

  0
ENDBLK
  5
25
330
23
100
AcDbEntity
  8
0
100
AcDbBlockEnd
  0
ENDSEC
  0
SECTION
  2
ENTITIES
  0
LINE
  5
4C
330
1F
100
AcDbEntity
  8
0-0_補助線
  6
JWW_HOJO
 62
     7
370
     9
100
AcDbLine
 10
-4790.000018557985
 20
3964.999818544131
 30
0.0
 11
-4790.000018557985
 21
-3790.000179909372
 31
0.0
  0
LINE
  5
4D
330
1F
100
AcDbEntity
  8
F-1_枠
  6
Continuous
 62
   200
370
    20
100
AcDbLine
 10
-5999.999752560178
 20
4174.999769056166
 30
0.0
 11
5699.998762800888
 21
4174.999769056166
 31
0.0
  0
LINE
  5
4E
330
1F
100
AcDbEntity
  8
F-0_補助線
  6
JWW_HOJO
 62
   120
370
     5
100
AcDbLine
 10
-6300.0
 20
-4455.0
 30
0.0
 11
-6300.0
 21
4424.999604096284
 31
0.0
  0
LINE
  5
4F
330
1F
100
AcDbEntity
  8
F-0_補助線
  6
JWW_HOJO
 62
   120
370
     5
100
AcDbLine
 10
5999.999010240709
 20
4424.999604096284
 30
0.0
 11
5999.999010240709
 21
-4455.0
 31
0.0
  0
LINE
  5
50
330
1F
100
AcDbEntity
  8
F-0_補助線
  6
JWW_HOJO
 62
   120
370
     5
100
AcDbLine
 10
5999.999010240709
 20
-4455.0
 30
0.0
 11
-6300.0
 21
-4455.0
 31
0.0
  0
LINE
  5
51
330
1F
100
AcDbEntity
  8
F-1_枠
  6
Continuous
 62
   200
370
    20
100
AcDbLine
 10
-5999.999752560178
 20
4164.999983504013
 30
0.0
 11
5699.998762800888
 21
4164.999983504013
 31
0.0
  0
LINE
  5
52
330
1F
100
AcDbEntity
  8
F-1_枠
  6
Continuous
 62
   200
370
    20
100
AcDbLine
 10
-5999.999752560178
 20
4169.999505120355
 30
0.0
 11
5699.998762800888
 21
4169.999505120355
 31
0.0
  0
LINE
  5
53
330
1F
100
AcDbEntity
  8
F-1_枠
  6
Continuous
 62
   200
370
    20
100
AcDbLine
 10
5689.998977248734
 20
4174.999769056166
 30
0.0
 11
5689.998977248734
 21
-4205.000164959882
 31
0.0
  0
LINE
  5
54
330
1F
100
AcDbEntity
  8
F-1_枠
  6
Continuous
 62
   200
370
    20
100
AcDbLine
 10
5694.998498865077
 20
4174.999769056166
 30
0.0
 11
5694.998498865077
 21
-4205.000164959882
 31
0.0
  0
LINE
  5
55
330
1F
100
AcDbEntity
  8
F-1_枠
  6
Continuous
 62
   200
370
    20
100
AcDbLine
 10
5699.998762800888
 20
4174.999769056166
 30
0.0
 11
5699.998762800888
 21
-4205.000164959882
 31
0.0
  0
LINE
  5
56
330
1F
100
AcDbEntity
  8
F-1_枠
  6
Continuous
 62
   200
370
    20
100
AcDbLine
 10
-5989.999990205507
 20
4174.999769056166
 30
0.0
 11
-5989.999990205507
 21
-4205.000164959882
 31
0.0
  0
LINE
  5
57
330
1F
100
AcDbEntity
  8
F-1_枠
  6
Continuous
 62
   200
370
    20
100
AcDbLine
 10
-5994.999975771518
 20
4174.999769056166
 30
0.0
 11
-5994.999975771518
 21
-4205.000164959882
 31
0.0
  0
LINE
  5
58
330
1F
100
AcDbEntity
  8
F-1_枠
  6
Continuous
 62
   200
370
    20
100
AcDbLine
 10
-5999.99998453501
 20
4174.999769056166
 30
0.0
 11
-5999.99998453501
 21
-4205.000164959882
 31
0.0
  0
LINE
  5
59
330
1F
100
AcDbEntity
  8
F-1_枠
  6
Continuous
 62
   200
370
    20
100
AcDbLine
 10
-5490.000018557986
 20
4174.999769056166
 30
0.0
 11
-5490.000018557986
 21
-3790.000179909372
 31
0.0
  0
LINE
  5
5A
330
1F
100
AcDbEntity
  8
F-0_補助線
  6
JWW_HOJO
 62
   120
370
     5
100
AcDbLine
 10
-6300.0
 20
4424.999604096284
 30
0.0
 11
5999.999010240709
 21
4424.999604096284
 31
0.0
  0
LINE
  5
5B
330
1F
100
AcDbEntity
  8
F-0_補助線
  6
JWW_HOJO
 62
     7
370
     9
100
AcDbLine
 10
849.9995876002961
 20
-3795.000003092998
 30
0.0
 11
849.9995876002961
 21
-4195.000008247994
 31
0.0
  0
LINE
  5
5C
330
1F
100
AcDbEntity
  8
F-0_補助線
  6
JWW_HOJO
 62
     7
370
     9
100
AcDbLine
 10
349.9999175200594
 20
-3795.000003092998
 30
0.0
 11
349.9999175200594
 21
-4195.000008247994
 31
0.0
  0
LINE
  5
5D
330
1F
100
AcDbEntity
  8
F-1_枠
  6
Continuous
 62
   200
370
    20
100
AcDbLine
 10
5699.998762800888
 20
-4205.000002577498
 30
0.0
 11
-5999.999752560178
 21
-4205.000002577498
 31
0.0
  0
LINE
  5
5E
330
1F
100
AcDbEntity
  8
F-1_枠
  6
Continuous
 62
   200
370
    20
100
AcDbLine
 10
5699.998762800888
 20
-4199.999993814004
 30
0.0
 11
-5999.999752560178
 21
-4199.999993814004
 31
0.0
  0
LINE
  5
5F
330
1F
100
AcDbEntity
  8
F-1_枠
  6
Continuous
 62
   200
370
    20
100
AcDbLine
 10
5699.998762800888
 20
-4195.000008247994
 30
0.0
 11
-5999.999752560178
 21
-4195.000008247994
 31
0.0
  0
LINE
  5
60
330
1F
100
AcDbEntity
  8
F-1_枠
  6
Continuous
 62
   200
370
    20
100
AcDbLine
 10
4189.999224688556
 20
-3795.000003092998
 30
0.0
 11
4189.999224688556
 21
-4195.000008247994
 31
0.0
  0
LINE
  5
61
330
1F
100
AcDbEntity
  8
F-1_枠
  6
Continuous
 62
   200
370
    20
100
AcDbLine
 10
2689.998729808911
 20
-3795.000003092998
 30
0.0
 11
2689.998729808911
 21
-4195.000008247994
 31
0.0
  0
LINE
  5
62
330
1F
100
AcDbEntity
  8
F-1_枠
  6
Continuous
 62
   200
370
    20
100
AcDbLine
 10
-150.0001237199109
 20
-3795.000003092998
 30
0.0
 11
-150.0001237199109
 21
-4195.000008247994
 31
0.0
  0
LINE
  5
63
330
1F
100
AcDbEntity
  8
F-1_枠
  6
Continuous
 62
   200
370
    20
100
AcDbLine
 10
-150.0001237199109
 20
-3994.999936078046
 30
0.0
 11
5689.998977248734
 21
-3995.005364289155
 31
0.0
  0
LINE
  5
64
330
1F
100
AcDbEntity
  8
F-0_補助線
  6
JWW_HOJO
 62
     7
370
     9
100
AcDbLine
 10
-5989.999990205507
 20
-3994.99993607839
 30
0.0
 11
-150.0001237199109
 21
-3994.99993607839
 31
0.0
  0
LINE
  5
65
330
1F
100
AcDbEntity
  8
F-0_補助線
  6
JWW_HOJO
 62
     7
370
     9
100
AcDbLine
 10
-5989.999990205507
 20
-3904.99993607839
 30
0.0
 11
-150.0001237199109
 21
-3904.99993607839
 31
0.0
  0
LINE
  5
66
330
1F
100
AcDbEntity
  8
F-0_補助線
  6
JWW_HOJO
 62
     7
370
     9
100
AcDbLine
 10
-5989.999990205507
 20
-4084.99993607839
 30
0.0
 11
-150.0001237199109
 21
-4084.99993607839
 31
0.0
  0
LINE
  5
67
330
1F
100
AcDbEntity
  8
F-0_補助線
  6
JWW_HOJO
 62
     7
370
     9
100
AcDbLine
 10
-150.0002584955388
 20
-4139.999739777983
 30
0.0
 11
5689.998842473105
 21
-4140.005167989091
 31
0.0
  0
LINE
  5
68
330
1F
100
AcDbEntity
  8
F-0_補助線
  6
JWW_HOJO
 62
     7
370
     9
100
AcDbLine
 10
-150.0001748415872
 20
-4049.999739778022
 30
0.0
 11
5689.998926127057
 21
-4050.005167989131
 31
0.0
  0
LINE
  5
69
330
1F
100
AcDbEntity
  8
F-0_補助線
  6
JWW_HOJO
 62
     7
370
     9
100
AcDbLine
 10
-150.0000725978671
 20
-3939.99973721807
 30
0.0
 11
5689.999028370777
 21
-3940.005165429179
 31
0.0
  0
LINE
  5
6A
330
1F
100
AcDbEntity
  8
F-0_補助線
  6
JWW_HOJO
 62
     7
370
     9
100
AcDbLine
 10
-149.9999889439155
 20
-3849.999737218109
 30
0.0
 11
5689.999112024728
 21
-3850.005165429218
 31
0.0
  0
LINE
  5
6B
330
1F
100
AcDbEntity
  8
F-0_補助線
  6
JWW_HOJO
 62
     7
370
     9
100
AcDbLine
 10
2779.998729808911
 20
-3795.000003092998
 30
0.0
 11
2779.998729808911
 21
-4195.000008247994
 31
0.0
  0
LINE
  5
6C
330
1F
100
AcDbEntity
  8
F-0_補助線
  6
JWW_HOJO
 62
     7
370
     9
100
AcDbLine
 10
-60.0001237199109
 20
-3795.000003092998
 30
0.0
 11
-60.0001237199109
 21
-4195.000008247994
 31
0.0
  0
LINE
  5
6D
330
1F
100
AcDbEntity
  8
F-0_補助線
  6
JWW_HOJO
 62
     7
370
     9
100
AcDbLine
 10
4279.999224688556
 20
-3795.000003092998
 30
0.0
 11
4279.999224688556
 21
-4195.000008247994
 31
0.0
  0
LINE
  5
6E
330
1F
100
AcDbEntity
  8
F-0_補助線
  6
JWW_HOJO
 62
     7
370
     9
100
AcDbLine
 10
-5247.547376752838
 20
-3795.000003092999
 30
0.0
 11
-5247.547376752838
 21
-4205.000164959882
 31
0.0
  0
LINE
  5
6F
330
1F
100
AcDbEntity
  8
F-0_補助線
  6
JWW_HOJO
 62
     7
370
     9
100
AcDbLine
 10
-210.0001237199109
 20
-3795.000003092998
 30
0.0
 11
-210.0001237199109
 21
-4195.000008247994
 31
0.0
  0
LINE
  5
70
330
1F
100
AcDbEntity
  8
0-0_補助線
  6
JWW_HOJO
 62
     7
370
     9
100
AcDbLine
 10
-5490.000018557986
 20
1418.000148463893
 30
0.0
 11
5689.998977248734
 21
1418.000148463893
 31
0.0
  0
LINE
  5
71
330
1F
100
AcDbEntity
  8
0-0_補助線
  6
JWW_HOJO
 62
     7
370
     9
100
AcDbLine
 10
-5490.000018557986
 20
-2701.250083820241
 30
0.0
 11
5699.998762800888
 21
-2701.250083820241
 31
0.0
  0
LINE
  5
72
330
1F
100
AcDbEntity
  8
0-0_補助線
  6
JWW_HOJO
 62
   120
370
     5
100
AcDbLine
 10
-5490.000018557986
 20
-2751.250083820241
 30
0.0
 11
5699.998762800888
 21
-2751.250083820241
 31
0.0
  0
LINE
  5
73
330
1F
100
AcDbEntity
  8
0-0_補助線
  6
JWW_HOJO
 62
     7
370
     9
100
AcDbLine
 10
-5490.000018557986
 20
1168.000148463894
 30
0.0
 11
5689.998977248734
 21
1168.000148463894
 31
0.0
  0
LINE
  5
74
330
1F
100
AcDbEntity
  8
0-0_補助線
  6
JWW_HOJO
 62
     7
370
     9
100
AcDbLine
 10
-5490.000018557986
 20
-2951.250083820241
 30
0.0
 11
5699.998762800888
 21
-2951.250083820241
 31
0.0
  0
LINE
  5
75
330
1F
100
AcDbEntity
  8
F-1_枠
  6
Continuous
 62
   200
370
    20
100
AcDbLine
 10
5699.998762800888
 20
-3795.000003092998
 30
0.0
 11
-5999.99998453501
 21
-3795.000003092998
 31
0.0
  0
LINE
  5
76
330
1F
100
AcDbEntity
  8
F-1_枠
  6
Continuous
 62
   200
370
    20
100
AcDbLine
 10
-5999.99998453501
 20
3964.999818544131
 30
0.0
 11
5699.998762800888
 21
3964.999818544131
 31
0.0
  0
LINE
  5
77
330
1F
100
AcDbEntity
  8
F-1_枠
  6
Continuous
 62
   200
370
    20
100
AcDbLine
 10
5699.998762800888
 20
-3790.000017526987
 30
0.0
 11
-5999.99998453501
 21
-3790.000017526987
 31
0.0
  0
LINE
  5
78
330
1F
100
AcDbEntity
  8
F-1_枠
  6
Continuous
 62
   200
370
    20
100
AcDbLine
 10
-5999.99998453501
 20
190.5001831054688
 30
0.0
 11
5699.998762800888
 21
190.5001831054688
 31
0.0
  0
LINE
  5
79
330
1F
100
AcDbEntity
  8
F-1_枠
  6
Continuous
 62
   200
370
    20
100
AcDbLine
 10
-5999.99998453501
 20
-15.50015011349217
 30
0.0
 11
5699.998762800888
 21
-15.50015011349217
 31
0.0
  0
LINE
  5
7A
330
1F
100
AcDbEntity
  8
F-1_枠
  6
Continuous
 62
   200
370
    20
100
AcDbLine
 10
-5999.99998453501
 20
184.5000148463899
 30
0.0
 11
5699.998762800888
 21
184.5000148463899
 31
0.0
  0
LINE
  5
7B
330
1F
100
AcDbEntity
  8
F-1_枠
  6
Continuous
 62
   200
370
    20
100
AcDbLine
 10
-5999.99998453501
 20
187.5000989759289
 30
0.0
 11
5699.998762800888
 21
187.5000989759289
 31
0.0
  0
LINE
  5
7C
330
1F
100
AcDbEntity
  8
F-1_枠
  6
Continuous
 62
   200
370
    20
100
AcDbLine
 10
99.99947934537431
 20
-3790.000179909372
 30
0.0
 11
99.99947934537431
 21
4174.999769056166
 31
0.0
  0
LINE
  5
7D
330
1F
100
AcDbEntity
  8
F-1_枠
  6
Continuous
 62
   200
370
    20
100
AcDbLine
 10
-2695.000269606307
 20
-3790.000179909372
 30
0.0
 11
-2695.000269606307
 21
4174.999769056166
 31
0.0
  0
LINE
  5
7E
330
1F
100
AcDbEntity
  8
F-A_文字
  6
Continuous
 62
     7
370
     9
100
AcDbLine
 10
2894.999228297052
 20
184.5000148463899
 30
0.0
 11
99.99987274480532
 21
-3790.000179909372
 31
0.0
  0
LINE
  5
7F
330
1F
100
AcDbEntity
  8
F-A_文字
  6
Continuous
 62
     7
370
     9
100
AcDbLine
 10
2894.999321086989
 20
-3790.000017526987
 30
0.0
 11
5689.998977248734
 21
184.5000148463899
 31
0.0
  0
LINE
  5
80
330
1F
100
AcDbEntity
  8
F-A_文字
  6
Continuous
 62
     7
370
     9
100
AcDbLine
 10
2894.999321086989
 20
190.499951130636
 30
0.0
 11
5689.998977248734
 21
4164.999983504013
 31
0.0
  0
LINE
  5
81
330
1F
100
AcDbEntity
  8
F-1_枠
  6
Continuous
 62
   200
370
    20
100
AcDbLine
 10
2894.999228297052
 20
-3790.000179909372
 30
0.0
 11
2894.999228297052
 21
4174.999769056166
 31
0.0
  0
LINE
  5
82
330
1F
100
AcDbEntity
  8
0-0_補助線
  6
JWW_HOJO
 62
   120
370
     5
100
AcDbLine
 10
-4840.000018557987
 20
3964.999818544131
 30
0.0
 11
-4840.000018557987
 21
-3790.000179909372
 31
0.0
  0
LINE
  5
83
330
1F
100
AcDbEntity
  8
0-0_補助線
  6
JWW_HOJO
 62
     7
370
     9
100
AcDbLine
 10
-1995.000269606306
 20
3964.999818544131
 30
0.0
 11
-1995.000269606306
 21
-3790.000179909372
 31
0.0
  0
LINE
  5
84
330
1F
100
AcDbEntity
  8
0-0_補助線
  6
JWW_HOJO
 62
   120
370
     5
100
AcDbLine
 10
-2045.000269606307
 20
3964.999818544131
 30
0.0
 11
-2045.000269606307
 21
-3790.000179909372
 31
0.0
  0
LINE
  5
85
330
1F
100
AcDbEntity
  8
0-B_寸法
  6
Continuous
 62
   120
370
     5
100
AcDbLine
 10
-3893.000018557989
 20
1168.000148463894
 30
0.0
 11
-2993.000018557989
 21
1168.000148463894
 31
0.0
  0
LINE
  5
86
330
1F
100
AcDbEntity
  8
0-B_寸法
  6
Continuous
 62
   120
370
     5
100
AcDbLine
 10
-3893.000018557989
 20
1168.000148463894
 30
0.0
 11
-3893.000018557989
 21
1368.000148463894
 31
0.0
  0
LINE
  5
87
330
1F
100
AcDbEntity
  8
0-B_寸法
  6
Continuous
 62
   120
370
     5
100
AcDbLine
 10
-2993.000018557989
 20
1168.000148463894
 30
0.0
 11
-2993.000018557989
 21
1368.000148463894
 31
0.0
  0
LWPOLYLINE
  5
88
330
1F
100
AcDbEntity
  8
0-B_寸法
  6
Continuous
 62
     7
370
     9
100
AcDbPolyline
 90
        4
 70
     1
 43
3.0
 10
-3891.500018557988
 20
1168.000148463894
 42
0.4142135623731
 10
-3893.000018557989
 20
1169.500148463894
 42
0.4142135623731
 10
-3894.500018557989
 20
1168.000148463894
 42
0.4142135623731
 10
-3893.000018557989
 20
1166.500148463894
 42
0.4142135623731
  0
LWPOLYLINE
  5
89
330
1F
100
AcDbEntity
  8
0-B_寸法
  6
Continuous
 62
     7
370
     9
100
AcDbPolyline
 90
        4
 70
     1
 43
3.0
 10
-2991.500018557989
 20
1168.000148463894
 42
0.4142135623731
 10
-2993.000018557989
 20
1169.500148463894
 42
0.4142135623731
 10
-2994.500018557989
 20
1168.000148463894
 42
0.4142135623731
 10
-2993.000018557989
 20
1166.500148463894
 42
0.4142135623731
  0
LINE
  5
8A
330
1F
100
AcDbEntity
  8
0-B_寸法
  6
Continuous
 62
   120
370
     5
100
AcDbLine
 10
-378.000269606307
 20
1168.000148463894
 30
0.0
 11
-378.000269606307
 21
1368.000148463894
 31
0.0
  0
LINE
  5
8B
330
1F
100
AcDbEntity
  8
0-B_寸法
  6
Continuous
 62
   120
370
     5
100
AcDbLine
 10
-1188.000269606307
 20
1168.000148463894
 30
0.0
 11
-1188.000269606307
 21
1368.000148463894
 31
0.0
  0
LINE
  5
8C
330
1F
100
AcDbEntity
  8
0-B_寸法
  6
Continuous
 62
   120
370
     5
100
AcDbLine
 10
-1188.000269606307
 20
1168.000148463894
 30
0.0
 11
-378.000269606307
 21
1168.000148463894
 31
0.0
  0
LWPOLYLINE
  5
8D
330
1F
100
AcDbEntity
  8
0-B_寸法
  6
Continuous
 62
     7
370
     9
100
AcDbPolyline
 90
        4
 70
     1
 43
3.0
 10
-376.500269606307
 20
1168.000148463894
 42
0.4142135623731
 10
-378.000269606307
 20
1169.500148463894
 42
0.4142135623731
 10
-379.500269606307
 20
1168.000148463894
 42
0.4142135623731
 10
-378.000269606307
 20
1166.500148463894
 42
0.4142135623731
  0
LWPOLYLINE
  5
8E
330
1F
100
AcDbEntity
  8
0-B_寸法
  6
Continuous
 62
     7
370
     9
100
AcDbPolyline
 90
        4
 70
     1
 43
3.0
 10
-1186.500269606307
 20
1168.000148463894
 42
0.4142135623731
 10
-1188.000269606307
 20
1169.500148463894
 42
0.4142135623731
 10
-1189.500269606307
 20
1168.000148463894
 42
0.4142135623731
 10
-1188.000269606307
 20
1166.500148463894
 42
0.4142135623731
  0
LINE
  5
8F
330
1F
100
AcDbEntity
  8
0-4_枠
  6
Continuous
 62
    92
370
    13
100
AcDbLine
 10
-4760.000018557985
 20
1418.000148463893
 30
0.0
 11
-4790.000018557985
 21
1418.000148463893
 31
0.0
  0
LINE
  5
90
330
1F
100
AcDbEntity
  8
0-4_枠
  6
Continuous
 62
    92
370
    13
100
AcDbLine
 10
-2966.000018557986
 20
1418.000148463893
 30
0.0
 11
-2996.000018557986
 21
1418.000148463893
 31
0.0
  0
LINE
  5
91
330
1F
100
AcDbEntity
  8
0-4_枠
  6
Continuous
 62
    92
370
    13
100
AcDbLine
 10
-1965.000269606306
 20
1418.000148463893
 30
0.0
 11
-1995.000269606306
 21
1418.000148463893
 31
0.0
  0
LINE
  5
92
330
1F
100
AcDbEntity
  8
0-4_枠
  6
Continuous
 62
    92
370
    13
100
AcDbLine
 10
-351.0002696063077
 20
1418.000148463893
 30
0.0
 11
-381.0002696063077
 21
1418.000148463893
 31
0.0
  0
MTEXT
  5
93
330
1F
100
AcDbEntity
  8
0-B_寸法
  6
Continuous
 62
     7
370
   211
100
AcDbMText
 10
-3611.750018557989
 20
1174.075148463894
 30
0.0
 40
57.15
 41
337.5
 46
0.0
 71
     7
 72
     1
  1
{\fＭＳ ゴシック|b0|i0|c128|p49;ＤＷ＝900}
 73
     1
 44
1.0
  0
MTEXT
  5
94
330
1F
100
AcDbEntity
  8
0-B_寸法
  6
Continuous
 62
     7
370
   211
100
AcDbMText
 10
-951.750269606307
 20
1174.075148463894
 30
0.0
 40
57.15
 41
337.5
 46
0.0
 71
     7
 72
     1
  1
{\fＭＳ ゴシック|b0|i0|c128|p49;ＤＷ＝810}
 73
     1
 44
1.0
  0
MTEXT
  5
95
330
1F
100
AcDbEntity
  8
F-A_文字
  6
Continuous
 62
     7
370
     9
100
AcDbMText
 10
-5890.000004381747
 20
4018.575148463894
 30
0.0
 40
57.15
 41
300.0
 46
0.0
 71
     7
 72
     1
  1
{\fＭＳ ゴシック|b0|i0|c128|p49;デザイン}
 73
     1
 44
1.0
  0
MTEXT
  5
96
330
1F
100
AcDbEntity
  8
F-A_文字
  6
Continuous
 62
     7
370
     9
100
AcDbMText
 10
-5852.500004381747
 20
2031.325062684755
 30
0.0
 40
57.15
 41
225.0
 46
0.0
 71
     7
 72
     1
  1
{\fＭＳ ゴシック|b0|i0|c128|p49;姿　図}
 73
     1
 44
1.0
  0
MTEXT
  5
97
330
1F
100
AcDbEntity
  8
F-A_文字
  6
Continuous
 62
     7
370
     9
100
AcDbMText
 10
-5890.000004381747
 20
38.07493236644844
 30
0.0
 40
57.15
 41
300.0
 46
0.0
 71
     7
 72
     1
  1
{\fＭＳ ゴシック|b0|i0|c128|p49;デザイン}
 73
     1
 44
1.0
  0
MTEXT
  5
98
330
1F
100
AcDbEntity
  8
F-A_文字
  6
Continuous
 62
     7
370
     9
100
AcDbMText
 10
-5852.500004381747
 20
-1949.175091552734
 30
0.0
 40
57.15
 41
225.0
 46
0.0
 71
     7
 72
     1
  1
{\fＭＳ ゴシック|b0|i0|c128|p49;姿　図}
 73
     1
 44
1.0
  0
MTEXT
  5
99
330
1F
100
AcDbEntity
  8
F-A_文字
  6
Continuous
 62
     7
370
     0
100
AcDbMText
 10
-60.0001237199109
 20
-3887.139820871936
 30
0.0
 40
45.72
 41
180.0
 46
0.0
 71
     7
 72
     1
  1
{\fＭＳ ゴシック|b0|i0|c128|p49;図面名}
 73
     1
 44
1.0
  0
MTEXT
  5
9A
330
1F
100
AcDbEntity
  8
F-A_文字
  6
Continuous
 62
     7
370
     0
100
AcDbMText
 10
2779.998729808911
 20
-3887.142460617774
 30
0.0
 40
45.72
 41
300.0
 46
0.0
 71
     7
 72
     1
  1
{\fＭＳ ゴシック|b0|i0|c128|p49;ＳＣＡＬＥ}
 73
     1
 44
1.0
  0
MTEXT
  5
9B
330
1F
100
AcDbEntity
  8
F-A_文字
  6
Continuous
 62
     7
370
     0
100
AcDbMText
 10
4279.999224688556
 20
-3887.143854850754
 30
0.0
 40
45.72
 41
240.0
 46
0.0
 71
     7
 72
     1
  1
{\fＭＳ ゴシック|b0|i0|c128|p49;ＤＡＴＥ}
 73
     1
 44
1.0
  0
MTEXT
  5
9C
330
1F
100
AcDbEntity
  8
F-A_文字
  6
Continuous
 62
     7
370
     0
100
AcDbMText
 10
1180.417701903719
 20
-3946.423911599839
 30
0.0
 40
77.15249999999999
 41
405.0
 46
0.0
 71
     7
 72
     1
  1
{\fＭＳ ゴシック|b0|i0|c128|p49;建具姿図}
 73
     1
 44
1.0
  0
MTEXT
  5
9D
330
1F
100
AcDbEntity
  8
F-A_文字
  6
Continuous
 62
     7
370
     0
100
AcDbMText
 10
3383.748977248734
 20
-3946.426865907308
 30
0.0
 40
77.15249999999999
 41
202.5
 46
0.0
 71
     7
 72
     1
  1
{\fＭＳ ゴシック|b0|i0|c128|p49;1/30}
 73
     1
 44
1.0
  0
MTEXT
  5
9E
330
1F
100
AcDbEntity
  8
F-A_文字
  6
Continuous
 62
     7
370
     0
100
AcDbMText
 10
349.9999175200594
 20
-3946.496666872502
 30
0.0
 40
78.58125
 41
412.5
 46
0.0
 71
     7
 72
     1
  1
{\fＭＳ ゴシック|b0|i0|c128|p49;DOORETUS}
 73
     1
 44
1.0
  0
MTEXT
  5
9F
330
1F
100
AcDbEntity
  8
F-A_文字
  6
Continuous
 62
     7
370
     0
100
AcDbMText
 10
2779.998729808911
 20
-4087.14246317786
 30
0.0
 40
45.72
 41
240.0
 46
0.0
 71
     7
 72
     1
  1
{\fＭＳ ゴシック|b0|i0|c128|p49;ＦＩＬＥ}
 73
     1
 44
1.0
  0
MTEXT
  5
A0
330
1F
100
AcDbEntity
  8
F-A_文字
  6
Continuous
 62
     7
370
     0
100
AcDbMText
 10
4279.999224688556
 20
-4087.143857410839
 30
0.0
 40
45.72
 41
180.0
 46
0.0
 71
     7
 72
     1
  1
{\fＭＳ ゴシック|b0|i0|c128|p49;ＮＯ．}
 73
     1
 44
1.0
  0
MTEXT
  5
A1
330
1F
100
AcDbEntity
  8
F-A_文字
  6
Continuous
 62
     7
370
     0
100
AcDbMText
 10
1234.998729808911
 20
-4096.140669266149
 30
0.0
 40
45.72
 41
120.0
 46
0.0
 71
     7
 72
     1
  1
{\fＭＳ ゴシック|b0|i0|c128|p49;株式}
 73
     1
 44
1.0
  0
MTEXT
  5
A2
330
1F
100
AcDbEntity
  8
F-A_文字
  6
Continuous
 62
     7
370
     9
100
AcDbMText
 10
4936.249033580831
 20
-4147.857012699985
 30
0.0
 40
74.295
 41
97.5
 46
0.0
 71
     7
 72
     1
  1
{\fＭＳ ゴシック|b0|i0|c128|p49;01}
 73
     1
 44
1.0
  0
MTEXT
  5
A3
330
1F
100
AcDbEntity
  8
F-A_文字
  6
Continuous
 62
     7
370
     0
100
AcDbMText
 10
1444.998729808911
 20
-4164.281754523929
 30
0.0
 40
101.44125
 41
1065.0
 46
0.0
 71
     7
 72
     1
  1
{\fＭＳ ゴシック|b0|i0|c128|p49;ウッドワン・・・}
 73
     1
 44
1.0
  0
MTEXT
  5
A4
330
1F
100
AcDbEntity
  8
F-A_文字
  6
Continuous
 62
     7
370
     0
100
AcDbMText
 10
1234.998729808911
 20
-4168.140669266187
 30
0.0
 40
45.72
 41
120.0
 46
0.0
 71
     7
 72
     1
  1
{\fＭＳ ゴシック|b0|i0|c128|p49;会社}
 73
     1
 44
1.0
  0
MTEXT
  5
A5
330
1F
100
AcDbEntity
  8
F-A_文字
  6
Continuous
 62
     7
370
     0
100
AcDbMText
 10
5608.403311109712
 20
-4314.841419020919
 30
0.0
 40
68.58
 41
90.0
 46
0.0
 71
     7
 72
     1
  1
{\fＭＳ ゴシック|b0|i0|c128|p49;）}
 73
     1
 44
1.0
  0
MTEXT
  5
A6
330
1F
100
AcDbEntity
  8
F-A_文字
  6
Continuous
 62
     7
370
     0
100
AcDbMText
 10
5190.195950842071
 20
-4316.235443869856
 30
0.0
 40
68.58
 41
45.0
 46
0.0
 71
     7
 72
     1
  1
{\fＭＳ ゴシック|b0|i0|c128|p49;,}
 73
     1
 44
1.0
  0
MTEXT
  5
A7
330
1F
100
AcDbEntity
  8
F-A_文字
  6
Continuous
 62
     7
370
     0
100
AcDbMText
 10
4923.937261915373
 20
-4314.771967288282
 30
0.0
 40
74.295
 41
97.5
 46
0.0
 71
     7
 72
     1
  1
{\fＭＳ ゴシック|b0|i0|c128|p49;$y}
 73
     1
 44
1.0
  0
MTEXT
  5
A8
330
1F
100
AcDbEntity
  8
F-A_文字
  6
Continuous
 62
     7
370
     0
100
AcDbMText
 10
5078.673982954195
 20
-4314.771967288282
 30
0.0
 40
74.295
 41
97.5
 46
0.0
 71
     7
 72
     1
  1
{\fＭＳ ゴシック|b0|i0|c128|p49;$m}
 73
     1
 44
1.0
  0
MTEXT
  5
A9
330
1F
100
AcDbEntity
  8
F-A_文字
  6
Continuous
 62
     7
370
     0
100
AcDbMText
 10
5233.410715437103
 20
-4314.771967288282
 30
0.0
 40
74.295
 41
97.5
 46
0.0
 71
     7
 72
     1
  1
{\fＭＳ ゴシック|b0|i0|c128|p49;$d}
 73
     1
 44
1.0
  0
MTEXT
  5
AA
330
1F
100
AcDbEntity
  8
F-A_文字
  6
Continuous
 62
     7
370
     0
100
AcDbMText
 10
5388.147447920011
 20
-4314.771967288282
 30
0.0
 40
74.295
 41
195.0
 46
0.0
 71
     7
 72
     1
  1
{\fＭＳ ゴシック|b0|i0|c128|p49;印刷}
 73
     1
 44
1.0
  0
MTEXT
  5
AB
330
1F
100
AcDbEntity
  8
F-A_文字
  6
Continuous
 62
     7
370
     0
100
AcDbMText
 10
4784.033374252999
 20
-4319.023493567732
 30
0.0
 40
68.58
 41
90.0
 46
0.0
 71
     7
 72
     1
  1
{\fＭＳ ゴシック|b0|i0|c128|p49;（}
 73
     1
 44
1.0
  0
MTEXT
  5
AC
330
1F
100
AcDbEntity
  8
F-A_文字
  6
Continuous
 62
     7
370
     0
100
AcDbMText
 10
5031.277143812345
 20
-4319.023493567732
 30
0.0
 40
68.58
 41
45.0
 46
0.0
 71
     7
 72
     1
  1
{\fＭＳ ゴシック|b0|i0|c128|p49;,}
 73
     1
 44
1.0
  0
LINE
  5
AD
330
1F
100
AcDbEntity
  8
0-0_補助線
  6
JWW_HOJO
 62
   120
370
     5
100
AcDbLine
 10
-5370.000018557986
 20
4174.999769056166
 30
0.0
 11
-5370.000018557986
 21
-3790.000179909371
 31
0.0
  0
LINE
  5
AE
330
1F
100
AcDbEntity
  8
0-0_補助線
  6
JWW_HOJO
 62
   120
370
     5
100
AcDbLine
 10
-5999.99998453501
 20
670.5001831054692
 30
0.0
 11
5699.998762800888
 21
670.5001831054692
 31
0.0
  0
LINE
  5
AF
330
1F
100
AcDbEntity
  8
0-0_補助線
  6
JWW_HOJO
 62
   120
370
     5
100
AcDbLine
 10
-5999.99998453501
 20
550.5001831054688
 30
0.0
 11
5699.998762800888
 21
550.5001831054688
 31
0.0
  0
LINE
  5
B0
330
1F
100
AcDbEntity
  8
0-0_補助線
  6
JWW_HOJO
 62
   120
370
     5
100
AcDbLine
 10
-5999.99998453501
 20
430.5001831054688
 30
0.0
 11
5699.998762800888
 21
430.5001831054688
 31
0.0
  0
LINE
  5
B1
330
1F
100
AcDbEntity
  8
0-0_補助線
  6
JWW_HOJO
 62
   120
370
     5
100
AcDbLine
 10
-5999.99998453501
 20
310.5001831054688
 30
0.0
 11
5699.998762800888
 21
310.5001831054688
 31
0.0
  0
LINE
  5
B2
330
1F
100
AcDbEntity
  8
0-0_補助線
  6
JWW_HOJO
 62
   120
370
     5
100
AcDbLine
 10
5699.998762800888
 20
-3430.000017526988
 30
0.0
 11
-5999.99998453501
 21
-3430.000017526988
 31
0.0
  0
LINE
  5
B3
330
1F
100
AcDbEntity
  8
0-0_補助線
  6
JWW_HOJO
 62
   120
370
     5
100
AcDbLine
 10
5699.998762800888
 20
-3550.000017526988
 30
0.0
 11
-5999.99998453501
 21
-3550.000017526988
 31
0.0
  0
LINE
  5
B4
330
1F
100
AcDbEntity
  8
0-0_補助線
  6
JWW_HOJO
 62
   120
370
     5
100
AcDbLine
 10
5699.998762800888
 20
-3670.000017526988
 30
0.0
 11
-5999.99998453501
 21
-3670.000017526988
 31
0.0
  0
LINE
  5
B5
330
1F
100
AcDbEntity
  8
0-0_補助線
  6
JWW_HOJO
 62
   120
370
     5
100
AcDbLine
 10
-2575.000269606307
 20
4174.999769056166
 30
0.0
 11
-2575.000269606307
 21
-3790.000179909371
 31
0.0
  0
LINE
  5
B6
330
1F
100
AcDbEntity
  8
0-0_補助線
  6
JWW_HOJO
 62
   120
370
     5
100
AcDbLine
 10
219.9994793453743
 20
4174.999769056166
 30
0.0
 11
219.9994793453743
 21
-3790.000179909371
 31
0.0
  0
LINE
  5
B7
330
1F
100
AcDbEntity
  8
0-0_補助線
  6
JWW_HOJO
 62
   120
370
     5
100
AcDbLine
 10
3014.999228297052
 20
4174.999769056166
 30
0.0
 11
3014.999228297052
 21
-3790.000179909371
 31
0.0
  0
LINE
  5
B8
330
1F
100
AcDbEntity
  8
F-A_文字
  6
Continuous
 62
     7
370
     9
100
AcDbLine
 10
2894.999228297052
 20
4164.999983504013
 30
0.0
 11
100.0001500697809
 21
190.5001831054688
 31
0.0
  0
LINE
  5
B9
330
1F
100
AcDbEntity
  8
0-A_文字
  6
Continuous
 62
     7
370
     9
100
AcDbLine
 10
-5450.000018557986
 20
-55.50015011349217
 30
0.0
 11
-4915.67460317461
 21
-55.50015011349217
 31
0.0
  0
LINE
  5
BA
330
1F
100
AcDbEntity
  8
0-A_文字
  6
Continuous
 62
     7
370
     9
100
AcDbLine
 10
-4915.67460317461
 20
-55.50015011349217
 30
0.0
 11
-4915.67460317461
 21
-205.5001501134922
 31
0.0
  0
LINE
  5
BB
330
1F
100
AcDbEntity
  8
0-A_文字
  6
Continuous
 62
     7
370
     9
100
AcDbLine
 10
-5450.000018557986
 20
-205.5001501134922
 30
0.0
 11
-4915.67460317461
 21
-205.5001501134922
 31
0.0
  0
LINE
  5
BC
330
1F
100
AcDbEntity
  8
0-A_文字
  6
Continuous
 62
     7
370
     9
100
AcDbLine
 10
-5450.000018557986
 20
-55.50015011349217
 30
0.0
 11
-5450.000018557986
 21
-205.5001501134922
 31
0.0
  0
LINE
  5
BD
330
1F
100
AcDbEntity
  8
0-A_文字
  6
Continuous
 62
     7
370
     9
100
AcDbLine
 10
-5440.000018557986
 20
-65.50015011349215
 30
0.0
 11
-5440.000018557986
 21
-195.5001501134922
 31
0.0
  0
LINE
  5
BE
330
1F
100
AcDbEntity
  8
0-A_文字
  6
Continuous
 62
     7
370
     9
100
AcDbLine
 10
-5440.000018557986
 20
-195.5001501134922
 30
0.0
 11
-4925.67460317461
 21
-195.5001501134922
 31
0.0
  0
LINE
  5
BF
330
1F
100
AcDbEntity
  8
0-A_文字
  6
Continuous
 62
     7
370
     9
100
AcDbLine
 10
-4925.67460317461
 20
-65.50015011349215
 30
0.0
 11
-4925.67460317461
 21
-195.5001501134922
 31
0.0
  0
LINE
  5
C0
330
1F
100
AcDbEntity
  8
0-A_文字
  6
Continuous
 62
     7
370
     9
100
AcDbLine
 10
-5440.000018557986
 20
-65.50015011349215
 30
0.0
 11
-4925.67460317461
 21
-65.50015011349215
 31
0.0
  0
MTEXT
  5
C1
330
1F
100
AcDbEntity
  8
0-A_文字
  6
Continuous
 62
     7
370
     9
100
AcDbMText
 10
-5385.337310866298
 20
-181.9239001134922
 30
0.0
 40
77.15249999999999
 41
405.0
 46
0.0
 71
     7
 72
     1
  1
{\fＭＳ ゴシック|b0|i0|c128|p49;ハイドア}
 73
     1
 44
1.0
  0
LINE
  5
C2
330
1F
100
AcDbEntity
  8
0-A_文字
  6
Continuous
 62
     7
370
     9
100
AcDbLine
 10
-2655.000269606307
 20
-55.50015011349217
 30
0.0
 11
-2120.674854222932
 21
-55.50015011349217
 31
0.0
  0
LINE
  5
C3
330
1F
100
AcDbEntity
  8
0-A_文字
  6
Continuous
 62
     7
370
     9
100
AcDbLine
 10
-2120.674854222932
 20
-55.50015011349217
 30
0.0
 11
-2120.674854222932
 21
-205.5001501134922
 31
0.0
  0
LINE
  5
C4
330
1F
100
AcDbEntity
  8
0-A_文字
  6
Continuous
 62
     7
370
     9
100
AcDbLine
 10
-2655.000269606307
 20
-205.5001501134922
 30
0.0
 11
-2120.674854222932
 21
-205.5001501134922
 31
0.0
  0
LINE
  5
C5
330
1F
100
AcDbEntity
  8
0-A_文字
  6
Continuous
 62
     7
370
     9
100
AcDbLine
 10
-2655.000269606307
 20
-55.50015011349217
 30
0.0
 11
-2655.000269606307
 21
-205.5001501134922
 31
0.0
  0
LINE
  5
C6
330
1F
100
AcDbEntity
  8
0-A_文字
  6
Continuous
 62
     7
370
     9
100
AcDbLine
 10
-2645.000269606307
 20
-65.50015011349215
 30
0.0
 11
-2645.000269606307
 21
-195.5001501134922
 31
0.0
  0
LINE
  5
C7
330
1F
100
AcDbEntity
  8
0-A_文字
  6
Continuous
 62
     7
370
     9
100
AcDbLine
 10
-2645.000269606307
 20
-195.5001501134922
 30
0.0
 11
-2130.674854222932
 21
-195.5001501134922
 31
0.0
  0
LINE
  5
C8
330
1F
100
AcDbEntity
  8
0-A_文字
  6
Continuous
 62
     7
370
     9
100
AcDbLine
 10
-2130.674854222932
 20
-65.50015011349215
 30
0.0
 11
-2130.674854222932
 21
-195.5001501134922
 31
0.0
  0
LINE
  5
C9
330
1F
100
AcDbEntity
  8
0-A_文字
  6
Continuous
 62
     7
370
     9
100
AcDbLine
 10
-2645.000269606307
 20
-65.50015011349215
 30
0.0
 11
-2130.674854222932
 21
-65.50015011349215
 31
0.0
  0
MTEXT
  5
CA
330
1F
100
AcDbEntity
  8
0-A_文字
  6
Continuous
 62
     7
370
     9
100
AcDbMText
 10
-2590.33756191462
 20
-181.9239001134922
 30
0.0
 40
77.15249999999999
 41
405.0
 46
0.0
 71
     7
 72
     1
  1
{\fＭＳ ゴシック|b0|i0|c128|p49;ハイドア}
 73
     1
 44
1.0
  0
MTEXT
  5
CB
330
1F
100
AcDbEntity
  8
F-A_文字
  6
Continuous
 62
     7
370
     0
100
AcDbMText
 10
4726.249126529666
 20
-3938.071010139966
 30
0.0
 40
78.86699999999999
 41
517.5
 46
0.0
 71
     7
 72
     1
  1
{\fＭＳ ゴシック|b0|i0|c128|p49;2021.04.01}
 73
     1
 44
1.0
  0
LINE
  5
CC
330
1F
100
AcDbEntity
  8
F-0_補助線
  6
JWW_HOJO
 62
   200
370
    20
100
AcDbLine
 10
-5999.99998453501
 20
4064.999901024072
 30
0.0
 11
5699.998762800888
 21
4064.999901024072
 31
0.0
  0
LINE
  5
CD
330
1F
100
AcDbEntity
  8
F-0_補助線
  6
JWW_HOJO
 62
   200
370
    20
100
AcDbLine
 10
-5999.99998453501
 20
84.49993236644843
 30
0.0
 11
5689.998977248734
 21
84.49993236644843
 31
0.0
  0
LINE
  5
CE
330
1F
100
AcDbEntity
  8
0-4_枠
  6
Continuous
 62
    92
370
    13
100
AcDbLine
 10
-1965.000269606306
 20
3423.000148463894
 30
0.0
 11
-381.0002696063077
 21
3423.000148463894
 31
0.0
  0
LINE
  5
CF
330
1F
100
AcDbEntity
  8
0-4_枠
  6
Continuous
 62
    92
370
    13
100
AcDbLine
 10
-4760.000018557985
 20
3423.000148463894
 30
0.0
 11
-2996.000018557986
 21
3423.000148463894
 31
0.0
  0
LINE
  5
D0
330
1F
100
AcDbEntity
  8
0-4_枠
  6
Continuous
 62
    92
370
    13
100
AcDbLine
 10
-4790.000018557985
 20
1418.000148463893
 30
0.0
 11
-4790.000018557985
 21
3453.000148463894
 31
0.0
  0
LINE
  5
D1
330
1F
100
AcDbEntity
  8
0-4_枠
  6
Continuous
 62
    92
370
    13
100
AcDbLine
 10
-2966.000018557986
 20
1418.000148463893
 30
0.0
 11
-2966.000018557986
 21
3453.000148463894
 31
0.0
  0
LINE
  5
D2
330
1F
100
AcDbEntity
  8
0-4_枠
  6
Continuous
 62
    92
370
    13
100
AcDbLine
 10
-4790.000018557985
 20
3453.000148463894
 30
0.0
 11
-2966.000018557986
 21
3453.000148463894
 31
0.0
  0
LINE
  5
D3
330
1F
100
AcDbEntity
  8
0-4_枠
  6
Continuous
 62
    92
370
    13
100
AcDbLine
 10
-1995.000269606306
 20
1418.000148463893
 30
0.0
 11
-1995.000269606306
 21
3453.000148463894
 31
0.0
  0
LINE
  5
D4
330
1F
100
AcDbEntity
  8
0-4_枠
  6
Continuous
 62
    92
370
    13
100
AcDbLine
 10
-351.0002696063077
 20
1418.000148463893
 30
0.0
 11
-351.0002696063077
 21
3453.000148463894
 31
0.0
  0
LINE
  5
D5
330
1F
100
AcDbEntity
  8
0-4_枠
  6
Continuous
 62
    92
370
    13
100
AcDbLine
 10
-1995.000269606306
 20
3453.000148463894
 30
0.0
 11
-351.0002696063077
 21
3453.000148463894
 31
0.0
  0
LINE
  5
D6
330
1F
100
AcDbEntity
  8
0-4_枠
  6
Continuous
 62
    92
370
    13
100
AcDbLine
 10
-4760.000018557985
 20
1418.000148463893
 30
0.0
 11
-4760.000018557985
 21
3453.000148463894
 31
0.0
  0
LINE
  5
D7
330
1F
100
AcDbEntity
  8
0-4_枠
  6
Continuous
 62
    92
370
    13
100
AcDbLine
 10
-1965.000269606306
 20
1418.000148463893
 30
0.0
 11
-1965.000269606306
 21
3453.000148463894
 31
0.0
  0
LINE
  5
D8
330
1F
100
AcDbEntity
  8
0-0_補助線
  6
JWW_HOJO
 62
     7
370
     9
100
AcDbLine
 10
-5490.000018557986
 20
3453.000148463894
 30
0.0
 11
5689.998977248734
 21
3453.000148463894
 31
0.0
  0
LINE
  5
D9
330
1F
100
AcDbEntity
  8
0-0_補助線
  6
JWW_HOJO
 62
     7
370
     9
100
AcDbLine
 10
-5490.000018557986
 20
-466.2500838202392
 30
0.0
 11
5699.998762800888
 21
-466.2500838202392
 31
0.0
  0
LINE
  5
DA
330
1F
100
AcDbEntity
  8
0-B_寸法
  6
Continuous
 62
   120
370
     5
100
AcDbLine
 10
-378.000269606307
 20
-2951.250083820241
 30
0.0
 11
-378.000269606307
 21
-2751.250083820241
 31
0.0
  0
LINE
  5
DB
330
1F
100
AcDbEntity
  8
0-B_寸法
  6
Continuous
 62
   120
370
     5
100
AcDbLine
 10
-1188.000269606307
 20
-2951.250083820241
 30
0.0
 11
-1188.000269606307
 21
-2751.250083820241
 31
0.0
  0
LINE
  5
DC
330
1F
100
AcDbEntity
  8
0-B_寸法
  6
Continuous
 62
   120
370
     5
100
AcDbLine
 10
-1188.000269606307
 20
-2951.250083820241
 30
0.0
 11
-378.000269606307
 21
-2951.250083820241
 31
0.0
  0
LWPOLYLINE
  5
DD
330
1F
100
AcDbEntity
  8
0-B_寸法
  6
Continuous
 62
     7
370
     9
100
AcDbPolyline
 90
        4
 70
     1
 43
3.0
 10
-376.500269606307
 20
-2951.250083820241
 42
0.4142135623731
 10
-378.000269606307
 20
-2949.750083820241
 42
0.4142135623731
 10
-379.500269606307
 20
-2951.250083820241
 42
0.4142135623731
 10
-378.000269606307
 20
-2952.750083820241
 42
0.4142135623731
  0
LWPOLYLINE
  5
DE
330
1F
100
AcDbEntity
  8
0-B_寸法
  6
Continuous
 62
     7
370
     9
100
AcDbPolyline
 90
        4
 70
     1
 43
3.0
 10
-1186.500269606307
 20
-2951.250083820241
 42
0.4142135623731
 10
-1188.000269606307
 20
-2949.750083820241
 42
0.4142135623731
 10
-1189.500269606307
 20
-2951.250083820241
 42
0.4142135623731
 10
-1188.000269606307
 20
-2952.750083820241
 42
0.4142135623731
  0
MTEXT
  5
DF
330
1F
100
AcDbEntity
  8
0-B_寸法
  6
Continuous
 62
     7
370
   211
100
AcDbMText
 10
-951.750269606307
 20
-2945.175083820242
 30
0.0
 40
57.15
 41
337.5
 46
0.0
 71
     7
 72
     1
  1
{\fＭＳ ゴシック|b0|i0|c128|p49;ＤＷ＝810}
 73
     1
 44
1.0
  0
LINE
  5
E0
330
1F
100
AcDbEntity
  8
0-B_寸法
  6
Continuous
 62
   120
370
     5
100
AcDbLine
 10
-3893.000018557989
 20
-2951.250083820241
 30
0.0
 11
-2993.000018557989
 21
-2951.250083820241
 31
0.0
  0
LINE
  5
E1
330
1F
100
AcDbEntity
  8
0-B_寸法
  6
Continuous
 62
   120
370
     5
100
AcDbLine
 10
-2993.000018557989
 20
-2951.250083820241
 30
0.0
 11
-2993.000018557989
 21
-2751.250083820241
 31
0.0
  0
LWPOLYLINE
  5
E2
330
1F
100
AcDbEntity
  8
0-B_寸法
  6
Continuous
 62
     7
370
     9
100
AcDbPolyline
 90
        4
 70
     1
 43
3.0
 10
-3891.500018557988
 20
-2951.250083820241
 42
0.4142135623731
 10
-3893.000018557989
 20
-2949.750083820241
 42
0.4142135623731
 10
-3894.500018557989
 20
-2951.250083820241
 42
0.4142135623731
 10
-3893.000018557989
 20
-2952.750083820241
 42
0.4142135623731
  0
LWPOLYLINE
  5
E3
330
1F
100
AcDbEntity
  8
0-B_寸法
  6
Continuous
 62
     7
370
     9
100
AcDbPolyline
 90
        4
 70
     1
 43
3.0
 10
-2991.500018557989
 20
-2951.250083820241
 42
0.4142135623731
 10
-2993.000018557989
 20
-2949.750083820241
 42
0.4142135623731
 10
-2994.500018557989
 20
-2951.250083820241
 42
0.4142135623731
 10
-2993.000018557989
 20
-2952.750083820241
 42
0.4142135623731
  0
MTEXT
  5
E4
330
1F
100
AcDbEntity
  8
0-B_寸法
  6
Continuous
 62
     7
370
   211
100
AcDbMText
 10
-3611.750018557989
 20
-2945.175083820241
 30
0.0
 40
57.15
 41
337.5
 46
0.0
 71
     7
 72
     1
  1
{\fＭＳ ゴシック|b0|i0|c128|p49;ＤＷ＝900}
 73
     1
 44
1.0
  0
LINE
  5
E5
330
1F
100
AcDbEntity
  8
0-B_寸法
  6
Continuous
 62
   120
370
     5
100
AcDbLine
 10
-3893.000018557989
 20
-2951.250083820241
 30
0.0
 11
-3893.000018557989
 21
-2751.250083820241
 31
0.0
  0
LINE
  5
E6
330
1F
100
AcDbEntity
  8
0-0_補助線
  6
JWW_HOJO
 62
   120
370
     5
100
AcDbLine
 10
-5999.99998453501
 20
790.5001831054697
 30
0.0
 11
5699.998762800888
 21
790.5001831054697
 31
0.0
  0
LINE
  5
E7
330
1F
100
AcDbEntity
  8
0-0_補助線
  6
JWW_HOJO
 62
   120
370
     5
100
AcDbLine
 10
5699.998762800888
 20
-3190.000017526988
 30
0.0
 11
-5999.99998453501
 21
-3190.000017526988
 31
0.0
  0
LINE
  5
E8
330
1F
100
AcDbEntity
  8
0-0_補助線
  6
JWW_HOJO
 62
   120
370
     5
100
AcDbLine
 10
5699.998762800888
 20
-3310.000017526988
 30
0.0
 11
-5999.99998453501
 21
-3310.000017526988
 31
0.0
  0
MTEXT
  5
E9
330
1F
100
AcDbEntity
  8
0-A_文字
  6
Continuous
 62
     7
370
     9
100
AcDbMText
 10
-5370.000018557986
 20
661.5754150803022
 30
0.0
 40
57.15000000000007
 41
975.0000000000017
 46
0.0
 71
     7
 72
     1
  1
{\fＭＳ ゴシック|b0|i0|c128|p49;枠外幅 1,824mm（DW=900mm）}
 73
     1
 44
1.0
  0
MTEXT
  5
EA
330
1F
100
AcDbEntity
  8
0-A_文字
  6
Continuous
 62
     7
370
     9
100
AcDbMText
 10
-5370.000018557986
 20
-3318.924785552163
 30
0.0
 40
57.15000000000008
 41
975.0000000000017
 46
0.0
 71
     7
 72
     1
  1
{\fＭＳ ゴシック|b0|i0|c128|p49;枠外幅 1,824mm（DW=900mm）}
 73
     1
 44
1.0
  0
MTEXT
  5
EB
330
1F
100
AcDbEntity
  8
0-A_文字
  6
Continuous
 62
     7
370
     9
100
AcDbMText
 10
-2575.000269606318
 20
661.5754150803027
 30
0.0
 40
57.15000000000117
 41
975.0000000000205
 46
0.0
 71
     7
 72
     1
  1
{\fＭＳ ゴシック|b0|i0|c128|p49;枠外幅 1,644mm（DW=810mm）}
 73
     1
 44
1.0
  0
MTEXT
  5
EC
330
1F
100
AcDbEntity
  8
0-A_文字
  6
Continuous
 62
     7
370
     9
100
AcDbMText
 10
-2575.000269606318
 20
-3318.924785552164
 30
0.0
 40
57.15000000000119
 41
975.0000000000205
 46
0.0
 71
     7
 72
     1
  1
{\fＭＳ ゴシック|b0|i0|c128|p49;枠外幅 1,644mm（DW=810mm）}
 73
     1
 44
1.0
  0
LINE
  5
ED
330
1F
100
AcDbEntity
  8
0-4_枠
  6
Continuous
 62
    92
370
    13
100
AcDbLine
 10
-1965.000269606306
 20
-2701.250083820241
 30
0.0
 11
-1995.000269606306
 21
-2701.250083820241
 31
0.0
  0
LINE
  5
EE
330
1F
100
AcDbEntity
  8
0-4_枠
  6
Continuous
 62
    92
370
    13
100
AcDbLine
 10
-351.0002696063077
 20
-2701.250083820241
 30
0.0
 11
-381.0002696063077
 21
-2701.250083820241
 31
0.0
  0
LINE
  5
EF
330
1F
100
AcDbEntity
  8
0-4_枠
  6
Continuous
 62
    92
370
    13
100
AcDbLine
 10
-4760.000018557985
 20
-2701.250083820241
 30
0.0
 11
-4790.000018557985
 21
-2701.250083820241
 31
0.0
  0
LINE
  5
F0
330
1F
100
AcDbEntity
  8
0-4_枠
  6
Continuous
 62
    92
370
    13
100
AcDbLine
 10
-2966.000018557986
 20
-2701.250083820241
 30
0.0
 11
-2996.000018557986
 21
-2701.250083820241
 31
0.0
  0
LINE
  5
F1
330
1F
100
AcDbEntity
  8
0-4_枠
  6
Continuous
 62
    92
370
    13
100
AcDbLine
 10
-1965.000269606306
 20
-496.2500838202405
 30
0.0
 11
-381.0002696063077
 21
-496.2500838202405
 31
0.0
  0
LINE
  5
F2
330
1F
100
AcDbEntity
  8
0-4_枠
  6
Continuous
 62
    92
370
    13
100
AcDbLine
 10
-1995.000269606306
 20
-2701.250083820241
 30
0.0
 11
-1995.000269606306
 21
-466.2500838202405
 31
0.0
  0
LINE
  5
F3
330
1F
100
AcDbEntity
  8
0-4_枠
  6
Continuous
 62
    92
370
    13
100
AcDbLine
 10
-351.0002696063077
 20
-2701.250083820241
 30
0.0
 11
-351.0002696063077
 21
-466.2500838202405
 31
0.0
  0
LINE
  5
F4
330
1F
100
AcDbEntity
  8
0-4_枠
  6
Continuous
 62
    92
370
    13
100
AcDbLine
 10
-1995.000269606306
 20
-466.2500838202405
 30
0.0
 11
-351.0002696063077
 21
-466.2500838202405
 31
0.0
  0
LINE
  5
F5
330
1F
100
AcDbEntity
  8
0-4_枠
  6
Continuous
 62
    92
370
    13
100
AcDbLine
 10
-1965.000269606306
 20
-2701.250083820241
 30
0.0
 11
-1965.000269606306
 21
-466.2500838202405
 31
0.0
  0
LINE
  5
F6
330
1F
100
AcDbEntity
  8
0-4_枠
  6
Continuous
 62
    92
370
    13
100
AcDbLine
 10
-4760.000018557985
 20
-496.2500838202401
 30
0.0
 11
-2996.000018557986
 21
-496.2500838202401
 31
0.0
  0
LINE
  5
F7
330
1F
100
AcDbEntity
  8
0-4_枠
  6
Continuous
 62
    92
370
    13
100
AcDbLine
 10
-4790.000018557985
 20
-2701.250083820241
 30
0.0
 11
-4790.000018557985
 21
-466.2500838202401
 31
0.0
  0
LINE
  5
F8
330
1F
100
AcDbEntity
  8
0-4_枠
  6
Continuous
 62
    92
370
    13
100
AcDbLine
 10
-2966.000018557986
 20
-2701.250083820241
 30
0.0
 11
-2966.000018557986
 21
-466.2500838202401
 31
0.0
  0
LINE
  5
F9
330
1F
100
AcDbEntity
  8
0-4_枠
  6
Continuous
 62
    92
370
    13
100
AcDbLine
 10
-4790.000018557985
 20
-466.2500838202401
 30
0.0
 11
-2966.000018557986
 21
-466.2500838202401
 31
0.0
  0
LINE
  5
FA
330
1F
100
AcDbEntity
  8
0-4_枠
  6
Continuous
 62
    92
370
    13
100
AcDbLine
 10
-4760.000018557985
 20
-2701.250083820241
 30
0.0
 11
-4760.000018557985
 21
-466.2500838202401
 31
0.0
  0
MTEXT
  5
FB
330
1F
100
AcDbEntity
  8
0-A_文字
  6
Continuous
 62
     7
370
     9
100
AcDbMText
 10
-5370.000018557986
 20
541.5754150803024
 30
0.0
 40
57.15000000000001
 41
675.0
 46
0.0
 71
     7
 72
     1
  1
{\fＭＳ ゴシック|b0|i0|c128|p49;ミスト熱処理ガラス}
 73
     1
 44
1.0
  0
MTEXT
  5
FC
330
1F
100
AcDbEntity
  8
0-A_文字
  6
Continuous
 62
     7
370
     9
100
AcDbMText
 10
-2575.000269606307
 20
541.5754150803024
 30
0.0
 40
57.15000000000001
 41
675.0
 46
0.0
 71
     7
 72
     1
  1
{\fＭＳ ゴシック|b0|i0|c128|p49;ミスト熱処理ガラス}
 73
     1
 44
1.0
  0
MTEXT
  5
FD
330
1F
100
AcDbEntity
  8
0-A_文字
  6
Continuous
 62
     7
370
     9
100
AcDbMText
 10
-5370.000018557986
 20
-3438.924785552155
 30
0.0
 40
57.15000000000001
 41
675.0
 46
0.0
 71
     7
 72
     1
  1
{\fＭＳ ゴシック|b0|i0|c128|p49;ミスト熱処理ガラス}
 73
     1
 44
1.0
  0
MTEXT
  5
FE
330
1F
100
AcDbEntity
  8
0-A_文字
  6
Continuous
 62
     7
370
     9
100
AcDbMText
 10
-2575.000269606307
 20
-3438.924785552155
 30
0.0
 40
57.15000000000001
 41
675.0
 46
0.0
 71
     7
 72
     1
  1
{\fＭＳ ゴシック|b0|i0|c128|p49;ミスト熱処理ガラス}
 73
     1
 44
1.0
  0
MTEXT
  5
FF
330
1F
100
AcDbEntity
  8
0-A_文字
  6
Continuous
 62
     7
370
     9
100
AcDbMText
 10
-4295.000144082149
 20
4013.576151024072
 30
0.0
 40
77.15249999999999
 41
405.0
 46
0.0
 71
     7
 72
     1
  1
{\fＭＳ ゴシック|b0|i0|c128|p49;Ｂ－ＤＨ}
 73
     1
 44
1.0
  0
MTEXT
  5
100
330
1F
100
AcDbEntity
  8
0-A_文字
  6
Continuous
 62
     7
370
     9
100
AcDbMText
 10
-1500.000395130466
 20
4013.576151024072
 30
0.0
 40
77.15249999999999
 41
405.0
 46
0.0
 71
     7
 72
     1
  1
{\fＭＳ ゴシック|b0|i0|c128|p49;Ｂ－ＤＨ}
 73
     1
 44
1.0
  0
MTEXT
  5
101
330
1F
100
AcDbEntity
  8
0-A_文字
  6
Continuous
 62
     7
370
     9
100
AcDbMText
 10
-4295.000144082149
 20
33.07618236644843
 30
0.0
 40
77.15249999999999
 41
405.0
 46
0.0
 71
     7
 72
     1
  1
{\fＭＳ ゴシック|b0|i0|c128|p49;Ｂ－ＤＨ}
 73
     1
 44
1.0
  0
MTEXT
  5
102
330
1F
100
AcDbEntity
  8
0-A_文字
  6
Continuous
 62
     7
370
     9
100
AcDbMText
 10
-1500.000395130466
 20
33.07618236644843
 30
0.0
 40
77.15249999999999
 41
405.0
 46
0.0
 71
     7
 72
     1
  1
{\fＭＳ ゴシック|b0|i0|c128|p49;Ｂ－ＤＨ}
 73
     1
 44
1.0
  0
MTEXT
  5
103
330
1F
100
AcDbEntity
  8
F-A_文字
  6
Continuous
 62
     7
370
     0
100
AcDbMText
 10
-5247.547376752838
 20
-4045.254708805663
 30
0.0
 40
79.49045454545455
 41
2295.0
 46
0.0
 71
     7
 72
     1
  1
{\fＭＳ ゴシック|b0|i0|c128|p49;ドレタス　引き違い戸　レールタイプ　Ｂ－ＤＨ}
 73
     1
 44
1.0
  0
LINE
  5
104
330
1F
100
AcDbEntity
  8
0-B_寸法
  6
Continuous
 62
   120
370
     5
100
AcDbLine
 10
-2295.000269606307
 20
1426.000148463893
 30
0.0
 11
-2045.000269606307
 21
1426.000148463893
 31
0.0
  0
LWPOLYLINE
  5
105
330
1F
100
AcDbEntity
  8
0-B_寸法
  6
Continuous
 62
     7
370
     9
100
AcDbPolyline
 90
        4
 70
     1
 43
3.0
 10
-2293.500269606307
 20
1426.000148463893
 42
0.4142135623731
 10
-2295.000269606307
 20
1427.500148463893
 42
0.4142135623731
 10
-2296.500269606306
 20
1426.000148463893
 42
0.4142135623731
 10
-2295.000269606307
 20
1424.500148463893
 42
0.4142135623731
  0
LINE
  5
106
330
1F
100
AcDbEntity
  8
0-4_枠
  6
Continuous
 62
    92
370
    13
100
AcDbLine
 10
-2996.000018557986
 20
1426.20492745673
 30
0.0
 11
-2996.000018557986
 21
1426.537913266388
 31
0.0
  0
LINE
  5
107
330
1F
100
AcDbEntity
  8
0-2_扉
  6
JWW_DASHED1
 62
   120
370
     5
100
AcDbLine
 10
-3863.000018557986
 20
1426.000148463893
 30
0.0
 11
-3863.000018557986
 21
3409.000148463893
 31
0.0
  0
LINE
  5
108
330
1F
100
AcDbEntity
  8
0-2_扉
  6
JWW_DASHED1
 62
   120
370
     5
100
AcDbLine
 10
-4763.000018557986
 20
3409.000148463893
 30
0.0
 11
-4763.000018557986
 21
1426.000148463893
 31
0.0
  0
LINE
  5
109
330
1F
100
AcDbEntity
  8
0-2_扉
  6
JWW_DASHED1
 62
   120
370
     5
100
AcDbLine
 10
-2993.000018557989
 20
3409.000148463893
 30
0.0
 11
-2993.000018557989
 21
1426.000148463893
 31
0.0
  0
LINE
  5
10A
330
1F
100
AcDbEntity
  8
0-2_扉
  6
JWW_DASHED1
 62
   120
370
     5
100
AcDbLine
 10
-4760.000018557985
 20
3409.000148463893
 30
0.0
 11
-4763.000018557986
 21
3409.000148463893
 31
0.0
  0
LINE
  5
10B
330
1F
100
AcDbEntity
  8
0-2_扉
  6
JWW_DASHED1
 62
   120
370
     5
100
AcDbLine
 10
-4763.000018557986
 20
1426.000148463893
 30
0.0
 11
-4760.000018557985
 21
1426.000148463893
 31
0.0
  0
LINE
  5
10C
330
1F
100
AcDbEntity
  8
0-2_扉
  6
JWW_DASHED1
 62
   120
370
     5
100
AcDbLine
 10
-2993.000018557989
 20
1426.000148463893
 30
0.0
 11
-2996.000018557986
 21
1426.000148463893
 31
0.0
  0
LINE
  5
10D
330
1F
100
AcDbEntity
  8
0-2_扉
  6
JWW_DASHED1
 62
   120
370
     5
100
AcDbLine
 10
-2996.000018557986
 20
3409.000148463893
 30
0.0
 11
-2993.000018557989
 21
3409.000148463893
 31
0.0
  0
LINE
  5
10E
330
1F
100
AcDbEntity
  8
0-2_扉
  6
JWW_DASHED1
 62
   120
370
     5
100
AcDbLine
 10
-1968.000269606307
 20
3409.000148463893
 30
0.0
 11
-1968.000269606307
 21
1426.000148463893
 31
0.0
  0
LINE
  5
10F
330
1F
100
AcDbEntity
  8
0-2_扉
  6
JWW_DASHED1
 62
   120
370
     5
100
AcDbLine
 10
-1965.000269606306
 20
3409.000148463893
 30
0.0
 11
-1968.000269606307
 21
3409.000148463893
 31
0.0
  0
LINE
  5
110
330
1F
100
AcDbEntity
  8
0-2_扉
  6
JWW_DASHED1
 62
   120
370
     5
100
AcDbLine
 10
-1968.000269606307
 20
1426.000148463893
 30
0.0
 11
-1965.000269606306
 21
1426.000148463893
 31
0.0
  0
LINE
  5
111
330
1F
100
AcDbEntity
  8
0-4_枠
  6
Continuous
 62
    92
370
    13
100
AcDbLine
 10
-381.0002696063077
 20
1426.20492745673
 30
0.0
 11
-381.0002696063077
 21
1426.537913266388
 31
0.0
  0
LINE
  5
112
330
1F
100
AcDbEntity
  8
0-2_扉
  6
JWW_DASHED1
 62
   120
370
     5
100
AcDbLine
 10
-378.000269606307
 20
3409.000148463893
 30
0.0
 11
-378.000269606307
 21
1426.000148463893
 31
0.0
  0
LINE
  5
113
330
1F
100
AcDbEntity
  8
0-2_扉
  6
JWW_DASHED1
 62
   120
370
     5
100
AcDbLine
 10
-378.000269606307
 20
1426.000148463893
 30
0.0
 11
-381.0002696063077
 21
1426.000148463893
 31
0.0
  0
LINE
  5
114
330
1F
100
AcDbEntity
  8
0-2_扉
  6
JWW_DASHED1
 62
   120
370
     5
100
AcDbLine
 10
-381.0002696063077
 20
3409.000148463893
 30
0.0
 11
-378.000269606307
 21
3409.000148463893
 31
0.0
  0
LINE
  5
115
330
1F
100
AcDbEntity
  8
0-2_扉
  6
JWW_DASHED1
 62
   120
370
     5
100
AcDbLine
 10
-1158.000269606305
 20
1426.000148463893
 30
0.0
 11
-1158.000269606305
 21
3409.000148463893
 31
0.0
  0
LINE
  5
116
330
1F
100
AcDbEntity
  8
0-B_寸法
  6
Continuous
 62
   120
370
     5
100
AcDbLine
 10
-2295.000269606307
 20
3409.000148463893
 30
0.0
 11
-2045.000269606307
 21
3409.000148463893
 31
0.0
  0
LINE
  5
117
330
1F
100
AcDbEntity
  8
0-B_寸法
  6
Continuous
 62
   120
370
     5
100
AcDbLine
 10
-2295.000269606307
 20
3409.000148463893
 30
0.0
 11
-2295.000269606307
 21
1426.000148463893
 31
0.0
  0
LWPOLYLINE
  5
118
330
1F
100
AcDbEntity
  8
0-B_寸法
  6
Continuous
 62
     7
370
     9
100
AcDbPolyline
 90
        4
 70
     1
 43
3.0
 10
-2293.500269606307
 20
3409.000148463893
 42
0.4142135623731
 10
-2295.000269606307
 20
3410.500148463893
 42
0.4142135623731
 10
-2296.500269606306
 20
3409.000148463893
 42
0.4142135623731
 10
-2295.000269606307
 20
3407.500148463893
 42
0.4142135623731
  0
LINE
  5
119
330
1F
100
AcDbEntity
  8
0-4_枠
  6
Continuous
 62
    92
370
    13
100
AcDbLine
 10
-2996.000018557986
 20
1418.000148463893
 30
0.0
 11
-2996.000018557986
 21
1426.20492745673
 31
0.0
  0
LINE
  5
11A
330
1F
100
AcDbEntity
  8
0-4_枠
  6
Continuous
 62
    92
370
    13
100
AcDbLine
 10
-381.0002696063077
 20
1418.000148463893
 30
0.0
 11
-381.0002696063077
 21
1426.20492745673
 31
0.0
  0
MTEXT
  5
11B
330
1F
100
AcDbEntity
  8
0-B_寸法
  6
Continuous
 62
     7
370
    70
100
AcDbMText
 10
-2310.000269606307
 20
2199.325148463894
 30
0.0
 40
57.14999999999999
 41
412.5
 46
0.0
 71
     7
 72
     1
  1
{\fＭＳ ゴシック|b0|i0|c128|p49;ＤＨ＝1,983}
 11
6.123031769111886E-17
 21
1.0
 31
0.0
 73
     1
 44
1.0
  0
LINE
  5
11C
330
1F
100
AcDbEntity
  8
0-4_枠
  6
Continuous
 62
    92
370
    13
100
AcDbLine
 10
-2996.000018557986
 20
1426.537913266388
 30
0.0
 11
-2996.000018557986
 21
3453.000148463894
 31
0.0
  0
LINE
  5
11D
330
1F
100
AcDbEntity
  8
0-4_枠
  6
Continuous
 62
    92
370
    13
100
AcDbLine
 10
-381.0002696063077
 20
1426.537913266388
 30
0.0
 11
-381.0002696063077
 21
3453.000148463894
 31
0.0
  0
LINE
  5
11E
330
1F
100
AcDbEntity
  8
引手
  6
JWW_CENTER1
 62
     7
370
     9
100
AcDbLine
 10
-3005.925852756666
 20
2383.500148463892
 30
0.0
 11
-3078.435549365827
 21
2383.500148463892
 31
0.0
  0
LINE
  5
11F
330
1F
100
AcDbEntity
  8
引手
  6
JWW_CENTER1
 62
     7
370
     9
100
AcDbLine
 10
-3044.00001855799
 20
2298.269479928369
 30
0.0
 11
-3044.00001855799
 21
2469.119751352504
 31
0.0
  0
LINE
  5
120
330
1F
100
AcDbEntity
  8
引手
  6
JWW_DASHED1
 62
     7
370
     9
100
AcDbLine
 10
-3060.000018557989
 20
2332.500148463893
 30
0.0
 11
-3060.000018557989
 21
2434.500148463893
 31
0.0
  0
LINE
  5
121
330
1F
100
AcDbEntity
  8
引手
  6
JWW_DASHED1
 62
     7
370
     9
100
AcDbLine
 10
-3028.000018557991
 20
2332.500148463893
 30
0.0
 11
-3060.000018557989
 21
2332.500148463893
 31
0.0
  0
LINE
  5
122
330
1F
100
AcDbEntity
  8
引手
  6
JWW_DASHED1
 62
     7
370
     9
100
AcDbLine
 10
-3028.000018557991
 20
2332.500148463893
 30
0.0
 11
-3028.000018557991
 21
2434.500148463893
 31
0.0
  0
LINE
  5
123
330
1F
100
AcDbEntity
  8
引手
  6
JWW_DASHED1
 62
     7
370
     9
100
AcDbLine
 10
-3028.000018557991
 20
2434.500148463893
 30
0.0
 11
-3060.000018557989
 21
2434.500148463893
 31
0.0
  0
LINE
  5
124
330
1F
100
AcDbEntity
  8
引手
  6
Continuous
 62
     7
370
     9
100
AcDbLine
 10
-3025.00001855799
 20
2328.500148463893
 30
0.0
 11
-3063.000018557991
 21
2328.500148463893
 31
0.0
  0
LINE
  5
125
330
1F
100
AcDbEntity
  8
引手
  6
Continuous
 62
     7
370
     9
100
AcDbLine
 10
-3031.500018557991
 20
2344.500148463893
 30
0.0
 11
-3056.50001855799
 21
2344.500148463893
 31
0.0
  0
LINE
  5
126
330
1F
100
AcDbEntity
  8
引手
  6
Continuous
 62
     7
370
     9
100
AcDbLine
 10
-3031.500018557991
 20
2422.500148463893
 30
0.0
 11
-3056.50001855799
 21
2422.500148463893
 31
0.0
  0
LINE
  5
127
330
1F
100
AcDbEntity
  8
引手
  6
Continuous
 62
     7
370
     9
100
AcDbLine
 10
-3025.00001855799
 20
2438.500148463893
 30
0.0
 11
-3063.000018557991
 21
2438.500148463893
 31
0.0
  0
LINE
  5
128
330
1F
100
AcDbEntity
  8
引手
  6
Continuous
 62
     7
370
     9
100
AcDbLine
 10
-3025.00001855799
 20
2328.500148463893
 30
0.0
 11
-3025.00001855799
 21
2438.500148463893
 31
0.0
  0
LINE
  5
129
330
1F
100
AcDbEntity
  8
引手
  6
Continuous
 62
     7
370
     9
100
AcDbLine
 10
-3031.500018557991
 20
2344.500148463893
 30
0.0
 11
-3031.500018557991
 21
2422.500148463893
 31
0.0
  0
LINE
  5
12A
330
1F
100
AcDbEntity
  8
引手
  6
Continuous
 62
     7
370
     9
100
AcDbLine
 10
-3056.50001855799
 20
2344.500148463893
 30
0.0
 11
-3056.50001855799
 21
2422.500148463893
 31
0.0
  0
LINE
  5
12B
330
1F
100
AcDbEntity
  8
引手
  6
Continuous
 62
     7
370
     9
100
AcDbLine
 10
-3063.000018557991
 20
2328.500148463893
 30
0.0
 11
-3063.000018557991
 21
2438.500148463893
 31
0.0
  0
LINE
  5
12C
330
1F
100
AcDbEntity
  8
引手
  6
JWW_CENTER1
 62
     7
370
     9
100
AcDbLine
 10
-390.9261038049843
 20
2383.500148463892
 30
0.0
 11
-463.4358004141453
 21
2383.500148463892
 31
0.0
  0
LINE
  5
12D
330
1F
100
AcDbEntity
  8
引手
  6
JWW_CENTER1
 62
     7
370
     9
100
AcDbLine
 10
-429.0002696063084
 20
2298.269479928369
 30
0.0
 11
-429.0002696063084
 21
2469.119751352504
 31
0.0
  0
LINE
  5
12E
330
1F
100
AcDbEntity
  8
引手
  6
JWW_DASHED1
 62
     7
370
     9
100
AcDbLine
 10
-445.0002696063075
 20
2332.500148463893
 30
0.0
 11
-445.0002696063075
 21
2434.500148463893
 31
0.0
  0
LINE
  5
12F
330
1F
100
AcDbEntity
  8
引手
  6
JWW_DASHED1
 62
     7
370
     9
100
AcDbLine
 10
-413.0002696063093
 20
2332.500148463893
 30
0.0
 11
-445.0002696063075
 21
2332.500148463893
 31
0.0
  0
LINE
  5
130
330
1F
100
AcDbEntity
  8
引手
  6
JWW_DASHED1
 62
     7
370
     9
100
AcDbLine
 10
-413.0002696063093
 20
2332.500148463893
 30
0.0
 11
-413.0002696063093
 21
2434.500148463893
 31
0.0
  0
LINE
  5
131
330
1F
100
AcDbEntity
  8
引手
  6
JWW_DASHED1
 62
     7
370
     9
100
AcDbLine
 10
-413.0002696063093
 20
2434.500148463893
 30
0.0
 11
-445.0002696063075
 21
2434.500148463893
 31
0.0
  0
LINE
  5
132
330
1F
100
AcDbEntity
  8
引手
  6
Continuous
 62
     7
370
     9
100
AcDbLine
 10
-410.0002696063078
 20
2328.500148463893
 30
0.0
 11
-448.000269606309
 21
2328.500148463893
 31
0.0
  0
LINE
  5
133
330
1F
100
AcDbEntity
  8
引手
  6
Continuous
 62
     7
370
     9
100
AcDbLine
 10
-416.5002696063087
 20
2344.500148463893
 30
0.0
 11
-441.5002696063081
 21
2344.500148463893
 31
0.0
  0
LINE
  5
134
330
1F
100
AcDbEntity
  8
引手
  6
Continuous
 62
     7
370
     9
100
AcDbLine
 10
-416.5002696063087
 20
2422.500148463893
 30
0.0
 11
-441.5002696063081
 21
2422.500148463893
 31
0.0
  0
LINE
  5
135
330
1F
100
AcDbEntity
  8
引手
  6
Continuous
 62
     7
370
     9
100
AcDbLine
 10
-410.0002696063078
 20
2438.500148463893
 30
0.0
 11
-448.000269606309
 21
2438.500148463893
 31
0.0
  0
LINE
  5
136
330
1F
100
AcDbEntity
  8
引手
  6
Continuous
 62
     7
370
     9
100
AcDbLine
 10
-410.0002696063078
 20
2328.500148463893
 30
0.0
 11
-410.0002696063078
 21
2438.500148463893
 31
0.0
  0
LINE
  5
137
330
1F
100
AcDbEntity
  8
引手
  6
Continuous
 62
     7
370
     9
100
AcDbLine
 10
-416.5002696063087
 20
2344.500148463893
 30
0.0
 11
-416.5002696063087
 21
2422.500148463893
 31
0.0
  0
LINE
  5
138
330
1F
100
AcDbEntity
  8
引手
  6
Continuous
 62
     7
370
     9
100
AcDbLine
 10
-441.5002696063081
 20
2344.500148463893
 30
0.0
 11
-441.5002696063081
 21
2422.500148463893
 31
0.0
  0
LINE
  5
139
330
1F
100
AcDbEntity
  8
引手
  6
Continuous
 62
     7
370
     9
100
AcDbLine
 10
-448.000269606309
 20
2328.500148463893
 30
0.0
 11
-448.000269606309
 21
2438.500148463893
 31
0.0
  0
LINE
  5
13A
330
1F
100
AcDbEntity
  8
引手
  6
JWW_CENTER1
 62
     7
370
     9
100
AcDbLine
 10
-4750.074184359308
 20
2383.500148463892
 30
0.0
 11
-4677.564487750147
 21
2383.500148463892
 31
0.0
  0
LINE
  5
13B
330
1F
100
AcDbEntity
  8
引手
  6
JWW_CENTER1
 62
     7
370
     9
100
AcDbLine
 10
-4712.000018557984
 20
2298.269479928369
 30
0.0
 11
-4712.000018557984
 21
2469.119751352504
 31
0.0
  0
LINE
  5
13C
330
1F
100
AcDbEntity
  8
引手
  6
JWW_DASHED1
 62
     7
370
     9
100
AcDbLine
 10
-4696.000018557985
 20
2332.500148463893
 30
0.0
 11
-4696.000018557985
 21
2434.500148463893
 31
0.0
  0
LINE
  5
13D
330
1F
100
AcDbEntity
  8
引手
  6
JWW_DASHED1
 62
     7
370
     9
100
AcDbLine
 10
-4728.000018557983
 20
2332.500148463893
 30
0.0
 11
-4696.000018557985
 21
2332.500148463893
 31
0.0
  0
LINE
  5
13E
330
1F
100
AcDbEntity
  8
引手
  6
JWW_DASHED1
 62
     7
370
     9
100
AcDbLine
 10
-4728.000018557983
 20
2332.500148463893
 30
0.0
 11
-4728.000018557983
 21
2434.500148463893
 31
0.0
  0
LINE
  5
13F
330
1F
100
AcDbEntity
  8
引手
  6
JWW_DASHED1
 62
     7
370
     9
100
AcDbLine
 10
-4728.000018557983
 20
2434.500148463893
 30
0.0
 11
-4696.000018557985
 21
2434.500148463893
 31
0.0
  0
LINE
  5
140
330
1F
100
AcDbEntity
  8
引手
  6
Continuous
 62
     7
370
     9
100
AcDbLine
 10
-4731.000018557985
 20
2328.500148463893
 30
0.0
 11
-4693.000018557984
 21
2328.500148463893
 31
0.0
  0
LINE
  5
141
330
1F
100
AcDbEntity
  8
引手
  6
Continuous
 62
     7
370
     9
100
AcDbLine
 10
-4724.500018557984
 20
2344.500148463893
 30
0.0
 11
-4699.500018557985
 21
2344.500148463893
 31
0.0
  0
LINE
  5
142
330
1F
100
AcDbEntity
  8
引手
  6
Continuous
 62
     7
370
     9
100
AcDbLine
 10
-4724.500018557984
 20
2422.500148463893
 30
0.0
 11
-4699.500018557985
 21
2422.500148463893
 31
0.0
  0
LINE
  5
143
330
1F
100
AcDbEntity
  8
引手
  6
Continuous
 62
     7
370
     9
100
AcDbLine
 10
-4731.000018557985
 20
2438.500148463893
 30
0.0
 11
-4693.000018557984
 21
2438.500148463893
 31
0.0
  0
LINE
  5
144
330
1F
100
AcDbEntity
  8
引手
  6
Continuous
 62
     7
370
     9
100
AcDbLine
 10
-4731.000018557985
 20
2328.500148463893
 30
0.0
 11
-4731.000018557985
 21
2438.500148463893
 31
0.0
  0
LINE
  5
145
330
1F
100
AcDbEntity
  8
引手
  6
Continuous
 62
     7
370
     9
100
AcDbLine
 10
-4724.500018557984
 20
2344.500148463893
 30
0.0
 11
-4724.500018557984
 21
2422.500148463893
 31
0.0
  0
LINE
  5
146
330
1F
100
AcDbEntity
  8
引手
  6
Continuous
 62
     7
370
     9
100
AcDbLine
 10
-4699.500018557985
 20
2344.500148463893
 30
0.0
 11
-4699.500018557985
 21
2422.500148463893
 31
0.0
  0
LINE
  5
147
330
1F
100
AcDbEntity
  8
引手
  6
Continuous
 62
     7
370
     9
100
AcDbLine
 10
-4693.000018557984
 20
2328.500148463893
 30
0.0
 11
-4693.000018557984
 21
2438.500148463893
 31
0.0
  0
LINE
  5
148
330
1F
100
AcDbEntity
  8
引手
  6
JWW_CENTER1
 62
     7
370
     9
100
AcDbLine
 10
-1955.07443540763
 20
2383.500148463892
 30
0.0
 11
-1882.564738798469
 21
2383.500148463892
 31
0.0
  0
LINE
  5
149
330
1F
100
AcDbEntity
  8
引手
  6
JWW_CENTER1
 62
     7
370
     9
100
AcDbLine
 10
-1917.000269606306
 20
2298.269479928369
 30
0.0
 11
-1917.000269606306
 21
2469.119751352504
 31
0.0
  0
LINE
  5
14A
330
1F
100
AcDbEntity
  8
引手
  6
JWW_DASHED1
 62
     7
370
     9
100
AcDbLine
 10
-1901.000269606307
 20
2332.500148463893
 30
0.0
 11
-1901.000269606307
 21
2434.500148463893
 31
0.0
  0
LINE
  5
14B
330
1F
100
AcDbEntity
  8
引手
  6
JWW_DASHED1
 62
     7
370
     9
100
AcDbLine
 10
-1933.000269606305
 20
2332.500148463893
 30
0.0
 11
-1901.000269606307
 21
2332.500148463893
 31
0.0
  0
LINE
  5
14C
330
1F
100
AcDbEntity
  8
引手
  6
JWW_DASHED1
 62
     7
370
     9
100
AcDbLine
 10
-1933.000269606305
 20
2332.500148463893
 30
0.0
 11
-1933.000269606305
 21
2434.500148463893
 31
0.0
  0
LINE
  5
14D
330
1F
100
AcDbEntity
  8
引手
  6
JWW_DASHED1
 62
     7
370
     9
100
AcDbLine
 10
-1933.000269606305
 20
2434.500148463893
 30
0.0
 11
-1901.000269606307
 21
2434.500148463893
 31
0.0
  0
LINE
  5
14E
330
1F
100
AcDbEntity
  8
引手
  6
Continuous
 62
     7
370
     9
100
AcDbLine
 10
-1936.000269606306
 20
2328.500148463893
 30
0.0
 11
-1898.000269606305
 21
2328.500148463893
 31
0.0
  0
LINE
  5
14F
330
1F
100
AcDbEntity
  8
引手
  6
Continuous
 62
     7
370
     9
100
AcDbLine
 10
-1929.500269606305
 20
2344.500148463893
 30
0.0
 11
-1904.500269606306
 21
2344.500148463893
 31
0.0
  0
LINE
  5
150
330
1F
100
AcDbEntity
  8
引手
  6
Continuous
 62
     7
370
     9
100
AcDbLine
 10
-1929.500269606305
 20
2422.500148463893
 30
0.0
 11
-1904.500269606306
 21
2422.500148463893
 31
0.0
  0
LINE
  5
151
330
1F
100
AcDbEntity
  8
引手
  6
Continuous
 62
     7
370
     9
100
AcDbLine
 10
-1936.000269606306
 20
2438.500148463893
 30
0.0
 11
-1898.000269606305
 21
2438.500148463893
 31
0.0
  0
LINE
  5
152
330
1F
100
AcDbEntity
  8
引手
  6
Continuous
 62
     7
370
     9
100
AcDbLine
 10
-1936.000269606306
 20
2328.500148463893
 30
0.0
 11
-1936.000269606306
 21
2438.500148463893
 31
0.0
  0
LINE
  5
153
330
1F
100
AcDbEntity
  8
引手
  6
Continuous
 62
     7
370
     9
100
AcDbLine
 10
-1929.500269606305
 20
2344.500148463893
 30
0.0
 11
-1929.500269606305
 21
2422.500148463893
 31
0.0
  0
LINE
  5
154
330
1F
100
AcDbEntity
  8
引手
  6
Continuous
 62
     7
370
     9
100
AcDbLine
 10
-1904.500269606306
 20
2344.500148463893
 30
0.0
 11
-1904.500269606306
 21
2422.500148463893
 31
0.0
  0
LINE
  5
155
330
1F
100
AcDbEntity
  8
引手
  6
Continuous
 62
     7
370
     9
100
AcDbLine
 10
-1898.000269606305
 20
2328.500148463893
 30
0.0
 11
-1898.000269606305
 21
2438.500148463893
 31
0.0
  0
LINE
  5
156
330
1F
100
AcDbEntity
  8
0-2_扉
  6
Continuous
 62
     7
370
     9
100
AcDbLine
 10
-1188.000220118343
 20
3409.00019547746
 30
0.0
 11
-1188.000220118343
 21
1426.000148463893
 31
0.0
  0
LINE
  5
157
330
1F
100
AcDbEntity
  8
0-2_扉
  6
Continuous
 62
     7
370
     9
100
AcDbLine
 10
-1078.000220118342
 20
3409.00019547746
 30
0.0
 11
-1078.000220118342
 21
1426.000148463893
 31
0.0
  0
LINE
  5
158
330
1F
100
AcDbEntity
  8
0-2_扉
  6
Continuous
 62
     7
370
     9
100
AcDbLine
 10
-488.0002696063071
 20
3409.00019547746
 30
0.0
 11
-488.0002696063071
 21
1426.000148463893
 31
0.0
  0
LINE
  5
159
330
1F
100
AcDbEntity
  8
0-2_扉
  6
Continuous
 62
     7
370
     9
100
AcDbLine
 10
-1059.500266307109
 20
2229.000148463893
 30
0.0
 11
-870.5002861022945
 21
2229.000148463893
 31
0.0
  0
LINE
  5
15A
330
1F
100
AcDbEntity
  8
0-2_扉
  6
Continuous
 62
     7
370
     9
100
AcDbLine
 10
-1078.000220118342
 20
3274.00019547746
 30
0.0
 11
-488.0002696063071
 21
3274.00019547746
 31
0.0
  0
LINE
  5
15B
330
1F
100
AcDbEntity
  8
0-2_扉
  6
Continuous
 62
     7
370
     9
100
AcDbLine
 10
-488.0002696063071
 20
2229.000148463893
 30
0.0
 11
-1078.000220118342
 21
2229.000148463893
 31
0.0
  0
LINE
  5
15C
330
1F
100
AcDbEntity
  8
0-2_扉
  6
Continuous
 62
     7
370
     9
100
AcDbLine
 10
-1078.000220118342
 20
2124.002647606102
 30
0.0
 11
-488.0002696063071
 21
2124.002647606102
 31
0.0
  0
LINE
  5
15D
330
1F
100
AcDbEntity
  8
0-2_扉
  6
Continuous
 62
     7
370
     9
100
AcDbLine
 10
-1078.000220118342
 20
1576.000148463893
 30
0.0
 11
-488.0002696063071
 21
1576.000148463893
 31
0.0
  0
LINE
  5
15E
330
1F
100
AcDbEntity
  8
0-2_扉
  6
Continuous
 62
     7
370
     9
100
AcDbLine
 10
-1188.000220118343
 20
1426.000148463893
 30
0.0
 11
-381.0002696063069
 21
1426.000148463893
 31
0.0
  0
LINE
  5
15F
330
1F
100
AcDbEntity
  8
0-2_扉
  6
Continuous
 62
     7
370
     9
100
AcDbLine
 10
-1188.000220118343
 20
3409.00019547746
 30
0.0
 11
-381.0002696063069
 21
3409.00019547746
 31
0.0
  0
LINE
  5
160
330
1F
100
AcDbEntity
  8
0-C_ハッチ
  6
Continuous
 62
   120
370
     5
100
AcDbLine
 10
-1009.855767670473
 20
3274.000257337416
 30
0.0
 11
-1078.000228366337
 21
3210.903534470875
 31
0.0
  0
LINE
  5
161
330
1F
100
AcDbEntity
  8
0-C_ハッチ
  6
Continuous
 62
   120
370
     5
100
AcDbLine
 10
-973.0590286845256
 20
3274.000257337416
 30
0.0
 11
-1078.000228366337
 21
3176.832479854256
 31
0.0
  0
LINE
  5
162
330
1F
100
AcDbEntity
  8
0-C_ハッチ
  6
Continuous
 62
   120
370
     5
100
AcDbLine
 10
-936.2622896985774
 20
3274.000257337416
 30
0.0
 11
-1078.000228366337
 21
3142.761425237637
 31
0.0
  0
LINE
  5
163
330
1F
100
AcDbEntity
  8
0-C_ハッチ
  6
Continuous
 62
   120
370
     5
100
AcDbLine
 10
-899.4655507126294
 20
3274.000257337416
 30
0.0
 11
-1078.000228366337
 21
3108.690370621019
 31
0.0
  0
LINE
  5
164
330
1F
100
AcDbEntity
  8
0-C_ハッチ
  6
Continuous
 62
   120
370
     5
100
AcDbLine
 10
-1046.652506656421
 20
3274.000257337416
 30
0.0
 11
-1078.000228366337
 21
3244.974589087494
 31
0.0
  0
LINE
  5
165
330
1F
100
AcDbEntity
  8
0-C_ハッチ
  6
Continuous
 62
   120
370
     5
100
AcDbLine
 10
-862.6688117266813
 20
3274.000257337416
 30
0.0
 11
-1078.000228366337
 21
3074.619316004399
 31
0.0
  0
LINE
  5
166
330
1F
100
AcDbEntity
  8
0-C_ハッチ
  6
Continuous
 62
   120
370
     5
100
AcDbLine
 10
-825.872072740734
 20
3274.000257337416
 30
0.0
 11
-1078.000228366337
 21
3040.548261387781
 31
0.0
  0
LINE
  5
167
330
1F
100
AcDbEntity
  8
0-C_ハッチ
  6
Continuous
 62
   120
370
     5
100
AcDbLine
 10
-789.0753337547858
 20
3274.000257337416
 30
0.0
 11
-1078.000228366337
 21
3006.477206771162
 31
0.0
  0
LINE
  5
168
330
1F
100
AcDbEntity
  8
0-C_ハッチ
  6
Continuous
 62
   120
370
     5
100
AcDbLine
 10
-752.2785947688376
 20
3274.000257337416
 30
0.0
 11
-1078.000228366337
 21
2972.406152154544
 31
0.0
  0
LINE
  5
169
330
1F
100
AcDbEntity
  8
0-C_ハッチ
  6
Continuous
 62
   120
370
     5
100
AcDbLine
 10
-715.4818557828895
 20
3274.000257337416
 30
0.0
 11
-1078.000228366337
 21
2938.335097537925
 31
0.0
  0
LINE
  5
16A
330
1F
100
AcDbEntity
  8
0-C_ハッチ
  6
Continuous
 62
   120
370
     5
100
AcDbLine
 10
-678.6851167969422
 20
3274.000257337416
 30
0.0
 11
-1078.000228366337
 21
2904.264042921306
 31
0.0
  0
LINE
  5
16B
330
1F
100
AcDbEntity
  8
0-C_ハッチ
  6
Continuous
 62
   120
370
     5
100
AcDbLine
 10
-641.8883778109941
 20
3274.000257337416
 30
0.0
 11
-1078.000228366337
 21
2870.192988304687
 31
0.0
  0
LINE
  5
16C
330
1F
100
AcDbEntity
  8
0-C_ハッチ
  6
Continuous
 62
   120
370
     5
100
AcDbLine
 10
-605.091638825046
 20
3274.000257337416
 30
0.0
 11
-1078.000228366337
 21
2836.121933688068
 31
0.0
  0
LINE
  5
16D
330
1F
100
AcDbEntity
  8
0-C_ハッチ
  6
Continuous
 62
   120
370
     5
100
AcDbLine
 10
-568.294899839097
 20
3274.000257337416
 30
0.0
 11
-1078.000228366337
 21
2802.050879071449
 31
0.0
  0
LINE
  5
16E
330
1F
100
AcDbEntity
  8
0-C_ハッチ
  6
Continuous
 62
   120
370
     5
100
AcDbLine
 10
-531.4981608531489
 20
3274.000257337416
 30
0.0
 11
-1078.000228366337
 21
2767.97982445483
 31
0.0
  0
LINE
  5
16F
330
1F
100
AcDbEntity
  8
0-C_ハッチ
  6
Continuous
 62
   120
370
     5
100
AcDbLine
 10
-494.7014218672007
 20
3274.000257337416
 30
0.0
 11
-1078.000228366337
 21
2733.908769838211
 31
0.0
  0
LINE
  5
170
330
1F
100
AcDbEntity
  8
0-C_ハッチ
  6
Continuous
 62
   120
370
     5
100
AcDbLine
 10
-488.0002696063071
 20
3246.133973332736
 30
0.0
 11
-1078.000228366337
 21
2699.837715221592
 31
0.0
  0
LINE
  5
171
330
1F
100
AcDbEntity
  8
0-C_ハッチ
  6
Continuous
 62
   120
370
     5
100
AcDbLine
 10
-488.0002696063071
 20
2258.073389450787
 30
0.0
 11
-519.3995017080911
 21
2229.000026393581
 31
0.0
  0
LINE
  5
172
330
1F
100
AcDbEntity
  8
0-C_ハッチ
  6
Continuous
 62
   120
370
     5
100
AcDbLine
 10
-488.0002696063071
 20
2326.215498684023
 30
0.0
 11
-592.9927124449802
 21
2229.000273833404
 31
0.0
  0
LINE
  5
173
330
1F
100
AcDbEntity
  8
0-C_ハッチ
  6
Continuous
 62
   120
370
     5
100
AcDbLine
 10
-488.0002696063071
 20
3177.991864099498
 30
0.0
 11
-1078.000228366337
 21
2631.695605988356
 31
0.0
  0
LINE
  5
174
330
1F
100
AcDbEntity
  8
0-C_ハッチ
  6
Continuous
 62
   120
370
     5
100
AcDbLine
 10
-488.0002696063071
 20
3143.920809482879
 30
0.0
 11
-1078.000228366337
 21
2597.624551371736
 31
0.0
  0
LINE
  5
175
330
1F
100
AcDbEntity
  8
0-C_ハッチ
  6
Continuous
 62
   120
370
     5
100
AcDbLine
 10
-488.0002696063071
 20
3109.84975486626
 30
0.0
 11
-1078.000228366337
 21
2563.553496755117
 31
0.0
  0
LINE
  5
176
330
1F
100
AcDbEntity
  8
0-C_ハッチ
  6
Continuous
 62
   120
370
     5
100
AcDbLine
 10
-488.0002696063071
 20
3075.778700249642
 30
0.0
 11
-1078.000228366337
 21
2529.482442138498
 31
0.0
  0
LINE
  5
177
330
1F
100
AcDbEntity
  8
0-C_ハッチ
  6
Continuous
 62
   120
370
     5
100
AcDbLine
 10
-488.0002696063071
 20
3041.707645633022
 30
0.0
 11
-1078.000228366337
 21
2495.411387521879
 31
0.0
  0
LINE
  5
178
330
1F
100
AcDbEntity
  8
0-C_ハッチ
  6
Continuous
 62
   120
370
     5
100
AcDbLine
 10
-488.0002696063071
 20
3007.636591016404
 30
0.0
 11
-1078.000228366337
 21
2461.340332905261
 31
0.0
  0
LINE
  5
179
330
1F
100
AcDbEntity
  8
0-C_ハッチ
  6
Continuous
 62
   120
370
     5
100
AcDbLine
 10
-488.0002696063071
 20
2973.565536399785
 30
0.0
 11
-1078.000228366337
 21
2427.269278288641
 31
0.0
  0
LINE
  5
17A
330
1F
100
AcDbEntity
  8
0-C_ハッチ
  6
Continuous
 62
   120
370
     5
100
AcDbLine
 10
-488.0002696063071
 20
2939.494481783166
 30
0.0
 11
-1078.000228366337
 21
2393.198223672023
 31
0.0
  0
LINE
  5
17B
330
1F
100
AcDbEntity
  8
0-C_ハッチ
  6
Continuous
 62
   120
370
     5
100
AcDbLine
 10
-488.0002696063071
 20
2837.281317933309
 30
0.0
 11
-1078.000228366337
 21
2290.985059822166
 31
0.0
  0
LINE
  5
17C
330
1F
100
AcDbEntity
  8
0-C_ハッチ
  6
Continuous
 62
   120
370
     5
100
AcDbLine
 10
-488.0002696063071
 20
2803.210263316691
 30
0.0
 11
-1078.000228366337
 21
2256.914005205548
 31
0.0
  0
LINE
  5
17D
330
1F
100
AcDbEntity
  8
0-C_ハッチ
  6
Continuous
 62
   120
370
     5
100
AcDbLine
 10
-488.0002696063071
 20
2769.139208700072
 30
0.0
 11
-1071.350319262302
 21
2229.000273833404
 31
0.0
  0
LINE
  5
17E
330
1F
100
AcDbEntity
  8
0-C_ハッチ
  6
Continuous
 62
   120
370
     5
100
AcDbLine
 10
-488.0002696063071
 20
2735.068154083453
 30
0.0
 11
-1034.553580276355
 21
2229.000273833404
 31
0.0
  0
LINE
  5
17F
330
1F
100
AcDbEntity
  8
0-C_ハッチ
  6
Continuous
 62
   120
370
     5
100
AcDbLine
 10
-488.0002696063071
 20
2700.997099466835
 30
0.0
 11
-997.7568412904063
 21
2229.000273833404
 31
0.0
  0
LINE
  5
180
330
1F
100
AcDbEntity
  8
0-C_ハッチ
  6
Continuous
 62
   120
370
     5
100
AcDbLine
 10
-488.0002696063071
 20
2666.926044850216
 30
0.0
 11
-960.960102304459
 21
2229.000273833404
 31
0.0
  0
LINE
  5
181
330
1F
100
AcDbEntity
  8
0-C_ハッチ
  6
Continuous
 62
   120
370
     5
100
AcDbLine
 10
-488.0002696063071
 20
2632.854990233596
 30
0.0
 11
-924.1633633185108
 21
2229.000273833404
 31
0.0
  0
LINE
  5
182
330
1F
100
AcDbEntity
  8
0-C_ハッチ
  6
Continuous
 62
   120
370
     5
100
AcDbLine
 10
-488.0002696063071
 20
2598.783935616978
 30
0.0
 11
-887.3666243325636
 21
2229.000273833404
 31
0.0
  0
LINE
  5
183
330
1F
100
AcDbEntity
  8
0-C_ハッチ
  6
Continuous
 62
   120
370
     5
100
AcDbLine
 10
-488.0002696063071
 20
2564.71288100036
 30
0.0
 11
-850.5698853466163
 21
2229.000273833404
 31
0.0
  0
LINE
  5
184
330
1F
100
AcDbEntity
  8
0-C_ハッチ
  6
Continuous
 62
   120
370
     5
100
AcDbLine
 10
-488.0002696063071
 20
2530.641826383741
 30
0.0
 11
-813.7731463606681
 21
2229.000273833404
 31
0.0
  0
LINE
  5
185
330
1F
100
AcDbEntity
  8
0-C_ハッチ
  6
Continuous
 62
   120
370
     5
100
AcDbLine
 10
-488.0002696063071
 20
2496.570771767122
 30
0.0
 11
-776.97640737472
 21
2229.000273833404
 31
0.0
  0
LINE
  5
186
330
1F
100
AcDbEntity
  8
0-C_ハッチ
  6
Continuous
 62
   120
370
     5
100
AcDbLine
 10
-488.0002696063071
 20
2462.499717150503
 30
0.0
 11
-740.1796683887719
 21
2229.000273833404
 31
0.0
  0
LINE
  5
187
330
1F
100
AcDbEntity
  8
0-C_ハッチ
  6
Continuous
 62
   120
370
     5
100
AcDbLine
 10
-488.0002696063071
 20
2428.428662533884
 30
0.0
 11
-703.3829294028237
 21
2229.000273833404
 31
0.0
  0
LINE
  5
188
330
1F
100
AcDbEntity
  8
0-C_ハッチ
  6
Continuous
 62
   120
370
     5
100
AcDbLine
 10
-488.0002696063071
 20
2394.357607917265
 30
0.0
 11
-666.5861904168755
 21
2229.000273833404
 31
0.0
  0
LINE
  5
189
330
1F
100
AcDbEntity
  8
0-C_ハッチ
  6
Continuous
 62
   120
370
     5
100
AcDbLine
 10
-488.0002696063071
 20
2360.286553300645
 30
0.0
 11
-629.7894514309282
 21
2229.000273833404
 31
0.0
  0
LINE
  5
18A
330
1F
100
AcDbEntity
  8
0-C_ハッチ
  6
Continuous
 62
   120
370
     5
100
AcDbLine
 10
-488.0002696063071
 20
2292.144444067405
 30
0.0
 11
-556.1962406940402
 21
2229.000026393581
 31
0.0
  0
LINE
  5
18B
330
1F
100
AcDbEntity
  8
0-C_ハッチ
  6
Continuous
 62
   120
370
     5
100
AcDbLine
 10
-488.0002696063071
 20
2905.423427166547
 30
0.0
 11
-1078.000220118342
 21
2359.127176692435
 31
0.0
  0
LINE
  5
18C
330
1F
100
AcDbEntity
  8
0-C_ハッチ
  6
Continuous
 62
   120
370
     5
100
AcDbLine
 10
-488.0002696063071
 20
2871.352372549929
 30
0.0
 11
-1078.000220118342
 21
2325.056122075817
 31
0.0
  0
LINE
  5
18D
330
1F
100
AcDbEntity
  8
0-C_ハッチ
  6
Continuous
 62
   120
370
     5
100
AcDbLine
 10
-488.0002696063071
 20
3212.062918716117
 30
0.0
 11
-1078.000228366337
 21
2665.766660604974
 31
0.0
  0
LINE
  5
18E
330
1F
100
AcDbEntity
  8
0-2_扉
  6
Continuous
 62
     7
370
     9
100
AcDbLine
 10
-1268.000319094271
 20
3409.00019547746
 30
0.0
 11
-1268.000319094271
 21
1426.000148463893
 31
0.0
  0
LINE
  5
18F
330
1F
100
AcDbEntity
  8
0-2_扉
  6
Continuous
 62
     7
370
     9
100
AcDbLine
 10
-1858.000269606306
 20
3409.00019547746
 30
0.0
 11
-1858.000269606306
 21
1426.000148463893
 31
0.0
  0
LINE
  5
190
330
1F
100
AcDbEntity
  8
0-2_扉
  6
Continuous
 62
     7
370
     9
100
AcDbLine
 10
-1286.500272905504
 20
2229.000148463893
 30
0.0
 11
-1475.500253110319
 21
2229.000148463893
 31
0.0
  0
LINE
  5
191
330
1F
100
AcDbEntity
  8
0-2_扉
  6
Continuous
 62
     7
370
     9
100
AcDbLine
 10
-1268.000319094271
 20
3274.00019547746
 30
0.0
 11
-1858.000269606306
 21
3274.00019547746
 31
0.0
  0
LINE
  5
192
330
1F
100
AcDbEntity
  8
0-2_扉
  6
Continuous
 62
     7
370
     9
100
AcDbLine
 10
-1858.000269606306
 20
2229.000148463893
 30
0.0
 11
-1268.000319094271
 21
2229.000148463893
 31
0.0
  0
LINE
  5
193
330
1F
100
AcDbEntity
  8
0-2_扉
  6
Continuous
 62
     7
370
     9
100
AcDbLine
 10
-1268.000319094271
 20
2124.002647606102
 30
0.0
 11
-1858.000269606306
 21
2124.002647606102
 31
0.0
  0
LINE
  5
194
330
1F
100
AcDbEntity
  8
0-2_扉
  6
Continuous
 62
     7
370
     9
100
AcDbLine
 10
-1268.000319094271
 20
1576.000148463893
 30
0.0
 11
-1858.000269606306
 21
1576.000148463893
 31
0.0
  0
LINE
  5
195
330
1F
100
AcDbEntity
  8
0-2_扉
  6
Continuous
 62
     7
370
     9
100
AcDbLine
 10
-1158.000319094271
 20
1426.000148463893
 30
0.0
 11
-1965.000269606306
 21
1426.000148463893
 31
0.0
  0
LINE
  5
196
330
1F
100
AcDbEntity
  8
0-2_扉
  6
Continuous
 62
     7
370
     9
100
AcDbLine
 10
-1158.000319094271
 20
3409.00019547746
 30
0.0
 11
-1965.000269606306
 21
3409.00019547746
 31
0.0
  0
LINE
  5
197
330
1F
100
AcDbEntity
  8
0-2_扉
  6
Continuous
 62
     7
370
     9
100
AcDbLine
 10
-3893.00001855799
 20
3409.000257337415
 30
0.0
 11
-3893.00001855799
 21
1426.000148463893
 31
0.0
  0
LINE
  5
198
330
1F
100
AcDbEntity
  8
0-2_扉
  6
Continuous
 62
     7
370
     9
100
AcDbLine
 10
-3783.000018557989
 20
3409.000257337415
 30
0.0
 11
-3783.000018557989
 21
1426.000148463893
 31
0.0
  0
LINE
  5
199
330
1F
100
AcDbEntity
  8
0-2_扉
  6
Continuous
 62
     7
370
     9
100
AcDbLine
 10
-3103.000018557989
 20
3409.000257337415
 30
0.0
 11
-3103.000018557989
 21
1426.000148463893
 31
0.0
  0
LINE
  5
19A
330
1F
100
AcDbEntity
  8
0-2_扉
  6
Continuous
 62
     7
370
     9
100
AcDbLine
 10
-3103.000018557989
 20
2229.000148463893
 30
0.0
 11
-3702.99987834209
 21
2229.000148463893
 31
0.0
  0
LINE
  5
19B
330
1F
100
AcDbEntity
  8
0-2_扉
  6
Continuous
 62
     7
370
     9
100
AcDbLine
 10
-3783.000018557989
 20
1576.000148463894
 30
0.0
 11
-3103.000018557989
 21
1576.000148463894
 31
0.0
  0
LINE
  5
19C
330
1F
100
AcDbEntity
  8
0-2_扉
  6
Continuous
 62
     7
370
     9
100
AcDbLine
 10
-3783.000018557989
 20
2124.002647606102
 30
0.0
 11
-3103.000018557989
 21
2124.002647606102
 31
0.0
  0
LINE
  5
19D
330
1F
100
AcDbEntity
  8
0-2_扉
  6
Continuous
 62
     7
370
     9
100
AcDbLine
 10
-3783.000018557989
 20
2229.000148463893
 30
0.0
 11
-3530.499936078048
 21
2229.000148463893
 31
0.0
  0
LINE
  5
19E
330
1F
100
AcDbEntity
  8
0-2_扉
  6
Continuous
 62
     7
370
     9
100
AcDbLine
 10
-3783.000018557989
 20
3274.000257337416
 30
0.0
 11
-3103.000018557989
 21
3274.000257337416
 31
0.0
  0
LINE
  5
19F
330
1F
100
AcDbEntity
  8
0-2_扉
  6
Continuous
 62
     7
370
     9
100
AcDbLine
 10
-3893.00001855799
 20
1426.000148463893
 30
0.0
 11
-2996.000018557988
 21
1426.000148463893
 31
0.0
  0
LINE
  5
1A0
330
1F
100
AcDbEntity
  8
0-2_扉
  6
Continuous
 62
     7
370
     9
100
AcDbLine
 10
-3893.00001855799
 20
3409.000257337415
 30
0.0
 11
-2996.000018557988
 21
3409.000257337415
 31
0.0
  0
LINE
  5
1A1
330
1F
100
AcDbEntity
  8
0-C_ハッチ
  6
Continuous
 62
   120
370
     5
100
AcDbLine
 10
-3714.85556611012
 20
3274.000257337416
 30
0.0
 11
-3783.000026805983
 21
3210.903534470875
 31
0.0
  0
LINE
  5
1A2
330
1F
100
AcDbEntity
  8
0-C_ハッチ
  6
Continuous
 62
   120
370
     5
100
AcDbLine
 10
-3678.058827124172
 20
3274.000257337416
 30
0.0
 11
-3783.000026805983
 21
3176.832479854256
 31
0.0
  0
LINE
  5
1A3
330
1F
100
AcDbEntity
  8
0-C_ハッチ
  6
Continuous
 62
   120
370
     5
100
AcDbLine
 10
-3641.262088138224
 20
3274.000257337416
 30
0.0
 11
-3783.000026805983
 21
3142.761425237637
 31
0.0
  0
LINE
  5
1A4
330
1F
100
AcDbEntity
  8
0-C_ハッチ
  6
Continuous
 62
   120
370
     5
100
AcDbLine
 10
-3604.465349152276
 20
3274.000257337416
 30
0.0
 11
-3783.000026805983
 21
3108.690370621019
 31
0.0
  0
LINE
  5
1A5
330
1F
100
AcDbEntity
  8
0-C_ハッチ
  6
Continuous
 62
   120
370
     5
100
AcDbLine
 10
-3751.652305096068
 20
3274.000257337416
 30
0.0
 11
-3783.000026805983
 21
3244.974589087494
 31
0.0
  0
LINE
  5
1A6
330
1F
100
AcDbEntity
  8
0-C_ハッチ
  6
Continuous
 62
   120
370
     5
100
AcDbLine
 10
-3567.668610166328
 20
3274.000257337416
 30
0.0
 11
-3783.000026805983
 21
3074.619316004399
 31
0.0
  0
LINE
  5
1A7
330
1F
100
AcDbEntity
  8
0-C_ハッチ
  6
Continuous
 62
   120
370
     5
100
AcDbLine
 10
-3530.87187118038
 20
3274.000257337416
 30
0.0
 11
-3783.000026805983
 21
3040.548261387781
 31
0.0
  0
LINE
  5
1A8
330
1F
100
AcDbEntity
  8
0-C_ハッチ
  6
Continuous
 62
   120
370
     5
100
AcDbLine
 10
-3494.075132194433
 20
3274.000257337416
 30
0.0
 11
-3783.000026805983
 21
3006.477206771162
 31
0.0
  0
LINE
  5
1A9
330
1F
100
AcDbEntity
  8
0-C_ハッチ
  6
Continuous
 62
   120
370
     5
100
AcDbLine
 10
-3457.278393208484
 20
3274.000257337416
 30
0.0
 11
-3783.000026805983
 21
2972.406152154544
 31
0.0
  0
LINE
  5
1AA
330
1F
100
AcDbEntity
  8
0-C_ハッチ
  6
Continuous
 62
   120
370
     5
100
AcDbLine
 10
-3420.481654222536
 20
3274.000257337416
 30
0.0
 11
-3783.000026805983
 21
2938.335097537925
 31
0.0
  0
LINE
  5
1AB
330
1F
100
AcDbEntity
  8
0-C_ハッチ
  6
Continuous
 62
   120
370
     5
100
AcDbLine
 10
-3383.684915236589
 20
3274.000257337416
 30
0.0
 11
-3783.000026805983
 21
2904.264042921306
 31
0.0
  0
LINE
  5
1AC
330
1F
100
AcDbEntity
  8
0-C_ハッチ
  6
Continuous
 62
   120
370
     5
100
AcDbLine
 10
-3346.888176250641
 20
3274.000257337416
 30
0.0
 11
-3783.000026805983
 21
2870.192988304687
 31
0.0
  0
LINE
  5
1AD
330
1F
100
AcDbEntity
  8
0-C_ハッチ
  6
Continuous
 62
   120
370
     5
100
AcDbLine
 10
-3310.091437264693
 20
3274.000257337416
 30
0.0
 11
-3783.000026805983
 21
2836.121933688068
 31
0.0
  0
LINE
  5
1AE
330
1F
100
AcDbEntity
  8
0-C_ハッチ
  6
Continuous
 62
   120
370
     5
100
AcDbLine
 10
-3273.294698278743
 20
3274.000257337416
 30
0.0
 11
-3783.000026805983
 21
2802.050879071449
 31
0.0
  0
LINE
  5
1AF
330
1F
100
AcDbEntity
  8
0-C_ハッチ
  6
Continuous
 62
   120
370
     5
100
AcDbLine
 10
-3236.497959292796
 20
3274.000257337416
 30
0.0
 11
-3783.000026805983
 21
2767.97982445483
 31
0.0
  0
LINE
  5
1B0
330
1F
100
AcDbEntity
  8
0-C_ハッチ
  6
Continuous
 62
   120
370
     5
100
AcDbLine
 10
-3103.000018557989
 20
2341.406768606306
 30
0.0
 11
-3224.399300147738
 21
2229.000026393581
 31
0.0
  0
LINE
  5
1B1
330
1F
100
AcDbEntity
  8
0-C_ハッチ
  6
Continuous
 62
   120
370
     5
100
AcDbLine
 10
-3103.000018557989
 20
2409.548877839542
 30
0.0
 11
-3297.992510884627
 21
2229.000273833404
 31
0.0
  0
LINE
  5
1B2
330
1F
100
AcDbEntity
  8
0-C_ハッチ
  6
Continuous
 62
   120
370
     5
100
AcDbLine
 10
-3103.000018557989
 20
3261.325243255022
 30
0.0
 11
-3783.000026805983
 21
2631.695605988356
 31
0.0
  0
LINE
  5
1B3
330
1F
100
AcDbEntity
  8
0-C_ハッチ
  6
Continuous
 62
   120
370
     5
100
AcDbLine
 10
-3103.000018557989
 20
3227.254188638403
 30
0.0
 11
-3783.000026805983
 21
2597.624551371736
 31
0.0
  0
LINE
  5
1B4
330
1F
100
AcDbEntity
  8
0-C_ハッチ
  6
Continuous
 62
   120
370
     5
100
AcDbLine
 10
-3103.000018557989
 20
3193.183134021784
 30
0.0
 11
-3783.000026805983
 21
2563.553496755117
 31
0.0
  0
LINE
  5
1B5
330
1F
100
AcDbEntity
  8
0-C_ハッチ
  6
Continuous
 62
   120
370
     5
100
AcDbLine
 10
-3103.000018557989
 20
3159.112079405165
 30
0.0
 11
-3783.000026805983
 21
2529.482442138498
 31
0.0
  0
LINE
  5
1B6
330
1F
100
AcDbEntity
  8
0-C_ハッチ
  6
Continuous
 62
   120
370
     5
100
AcDbLine
 10
-3103.000018557989
 20
3125.041024788546
 30
0.0
 11
-3783.000026805983
 21
2495.411387521879
 31
0.0
  0
LINE
  5
1B7
330
1F
100
AcDbEntity
  8
0-C_ハッチ
  6
Continuous
 62
   120
370
     5
100
AcDbLine
 10
-3103.000018557989
 20
3090.969970171927
 30
0.0
 11
-3783.000026805983
 21
2461.340332905261
 31
0.0
  0
LINE
  5
1B8
330
1F
100
AcDbEntity
  8
0-C_ハッチ
  6
Continuous
 62
   120
370
     5
100
AcDbLine
 10
-3103.000018557989
 20
3056.898915555309
 30
0.0
 11
-3783.000026805983
 21
2427.269278288641
 31
0.0
  0
LINE
  5
1B9
330
1F
100
AcDbEntity
  8
0-C_ハッチ
  6
Continuous
 62
   120
370
     5
100
AcDbLine
 10
-3103.000018557989
 20
3022.82786093869
 30
0.0
 11
-3783.000026805983
 21
2393.198223672023
 31
0.0
  0
LINE
  5
1BA
330
1F
100
AcDbEntity
  8
0-C_ハッチ
  6
Continuous
 62
   120
370
     5
100
AcDbLine
 10
-3103.000018557989
 20
2920.614697088833
 30
0.0
 11
-3783.000026805983
 21
2290.985059822166
 31
0.0
  0
LINE
  5
1BB
330
1F
100
AcDbEntity
  8
0-C_ハッチ
  6
Continuous
 62
   120
370
     5
100
AcDbLine
 10
-3103.000018557989
 20
2886.543642472215
 30
0.0
 11
-3783.000026805983
 21
2256.914005205548
 31
0.0
  0
LINE
  5
1BC
330
1F
100
AcDbEntity
  8
0-C_ハッチ
  6
Continuous
 62
   120
370
     5
100
AcDbLine
 10
-3103.000018557989
 20
2852.472587855596
 30
0.0
 11
-3776.350117701949
 21
2229.000273833404
 31
0.0
  0
LINE
  5
1BD
330
1F
100
AcDbEntity
  8
0-C_ハッチ
  6
Continuous
 62
   120
370
     5
100
AcDbLine
 10
-3103.000018557989
 20
2818.401533238977
 30
0.0
 11
-3739.553378716002
 21
2229.000273833404
 31
0.0
  0
LINE
  5
1BE
330
1F
100
AcDbEntity
  8
0-C_ハッチ
  6
Continuous
 62
   120
370
     5
100
AcDbLine
 10
-3103.000018557989
 20
2784.330478622358
 30
0.0
 11
-3702.756639730053
 21
2229.000273833404
 31
0.0
  0
LINE
  5
1BF
330
1F
100
AcDbEntity
  8
0-C_ハッチ
  6
Continuous
 62
   120
370
     5
100
AcDbLine
 10
-3103.000018557989
 20
2750.25942400574
 30
0.0
 11
-3665.959900744106
 21
2229.000273833404
 31
0.0
  0
LINE
  5
1C0
330
1F
100
AcDbEntity
  8
0-C_ハッチ
  6
Continuous
 62
   120
370
     5
100
AcDbLine
 10
-3103.000018557989
 20
2716.18836938912
 30
0.0
 11
-3629.163161758157
 21
2229.000273833404
 31
0.0
  0
LINE
  5
1C1
330
1F
100
AcDbEntity
  8
0-C_ハッチ
  6
Continuous
 62
   120
370
     5
100
AcDbLine
 10
-3103.000018557989
 20
2682.117314772502
 30
0.0
 11
-3592.36642277221
 21
2229.000273833404
 31
0.0
  0
LINE
  5
1C2
330
1F
100
AcDbEntity
  8
0-C_ハッチ
  6
Continuous
 62
   120
370
     5
100
AcDbLine
 10
-3103.000018557989
 20
2648.046260155883
 30
0.0
 11
-3555.569683786263
 21
2229.000273833404
 31
0.0
  0
LINE
  5
1C3
330
1F
100
AcDbEntity
  8
0-C_ハッチ
  6
Continuous
 62
   120
370
     5
100
AcDbLine
 10
-3103.000018557989
 20
2613.975205539264
 30
0.0
 11
-3518.772944800315
 21
2229.000273833404
 31
0.0
  0
LINE
  5
1C4
330
1F
100
AcDbEntity
  8
0-C_ハッチ
  6
Continuous
 62
   120
370
     5
100
AcDbLine
 10
-3103.000018557989
 20
2579.904150922645
 30
0.0
 11
-3481.976205814366
 21
2229.000273833404
 31
0.0
  0
LINE
  5
1C5
330
1F
100
AcDbEntity
  8
0-C_ハッチ
  6
Continuous
 62
   120
370
     5
100
AcDbLine
 10
-3103.000018557989
 20
2545.833096306027
 30
0.0
 11
-3445.179466828418
 21
2229.000273833404
 31
0.0
  0
LINE
  5
1C6
330
1F
100
AcDbEntity
  8
0-C_ハッチ
  6
Continuous
 62
   120
370
     5
100
AcDbLine
 10
-3103.000018557989
 20
2511.762041689407
 30
0.0
 11
-3408.382727842471
 21
2229.000273833404
 31
0.0
  0
LINE
  5
1C7
330
1F
100
AcDbEntity
  8
0-C_ハッチ
  6
Continuous
 62
   120
370
     5
100
AcDbLine
 10
-3103.000018557989
 20
2477.690987072789
 30
0.0
 11
-3371.585988856522
 21
2229.000273833404
 31
0.0
  0
LINE
  5
1C8
330
1F
100
AcDbEntity
  8
0-C_ハッチ
  6
Continuous
 62
   120
370
     5
100
AcDbLine
 10
-3103.000018557989
 20
2443.619932456167
 30
0.0
 11
-3334.789249870575
 21
2229.000273833404
 31
0.0
  0
LINE
  5
1C9
330
1F
100
AcDbEntity
  8
0-C_ハッチ
  6
Continuous
 62
   120
370
     5
100
AcDbLine
 10
-3103.000018557989
 20
2375.477823222925
 30
0.0
 11
-3261.196039133687
 21
2229.000026393581
 31
0.0
  0
LINE
  5
1CA
330
1F
100
AcDbEntity
  8
0-C_ハッチ
  6
Continuous
 62
   120
370
     5
100
AcDbLine
 10
-3103.000018557989
 20
2988.756806322071
 30
0.0
 11
-3783.000018557989
 21
2359.127176692435
 31
0.0
  0
LINE
  5
1CB
330
1F
100
AcDbEntity
  8
0-C_ハッチ
  6
Continuous
 62
   120
370
     5
100
AcDbLine
 10
-3103.000018557989
 20
2954.685751705452
 30
0.0
 11
-3783.000018557989
 21
2325.056122075817
 31
0.0
  0
LINE
  5
1CC
330
1F
100
AcDbEntity
  8
0-C_ハッチ
  6
Continuous
 62
   120
370
     5
100
AcDbLine
 10
-3199.701220306848
 20
3274.000257337416
 30
0.0
 11
-3783.000026805983
 21
2733.908769838211
 31
0.0
  0
LINE
  5
1CD
330
1F
100
AcDbEntity
  8
0-C_ハッチ
  6
Continuous
 62
   120
370
     5
100
AcDbLine
 10
-3126.107742334952
 20
3274.000257337416
 30
0.0
 11
-3783.000026805983
 21
2665.766660604974
 31
0.0
  0
LINE
  5
1CE
330
1F
100
AcDbEntity
  8
0-C_ハッチ
  6
Continuous
 62
   120
370
     5
100
AcDbLine
 10
-3162.9044813209
 20
3274.000257337416
 30
0.0
 11
-3783.000026805983
 21
2699.837715221592
 31
0.0
  0
LINE
  5
1CF
330
1F
100
AcDbEntity
  8
0-C_ハッチ
  6
Continuous
 62
   120
370
     5
100
AcDbLine
 10
-3103.000018557989
 20
2307.335713989688
 30
0.0
 11
-3187.602429325852
 21
2229.000148463893
 31
0.0
  0
LINE
  5
1D0
330
1F
100
AcDbEntity
  8
0-C_ハッチ
  6
Continuous
 62
   120
370
     5
100
AcDbLine
 10
-3103.000018557989
 20
2273.26465937307
 30
0.0
 11
-3150.805690339902
 21
2229.000148463893
 31
0.0
  0
LINE
  5
1D1
330
1F
100
AcDbEntity
  8
0-C_ハッチ
  6
Continuous
 62
   120
370
     5
100
AcDbLine
 10
-3103.000018557989
 20
2239.193604756452
 30
0.0
 11
-3114.008951353952
 21
2229.000148463893
 31
0.0
  0
LINE
  5
1D2
330
1F
100
AcDbEntity
  8
0-2_扉
  6
Continuous
 62
     7
370
     9
100
AcDbLine
 10
-3973.000018557983
 20
3409.000257337415
 30
0.0
 11
-3973.000018557983
 21
1426.000148463893
 31
0.0
  0
LINE
  5
1D3
330
1F
100
AcDbEntity
  8
0-2_扉
  6
Continuous
 62
     7
370
     9
100
AcDbLine
 10
-4653.000018557983
 20
3409.000257337415
 30
0.0
 11
-4653.000018557983
 21
1426.000148463893
 31
0.0
  0
LINE
  5
1D4
330
1F
100
AcDbEntity
  8
0-2_扉
  6
Continuous
 62
     7
370
     9
100
AcDbLine
 10
-4653.000018557983
 20
2229.000148463893
 30
0.0
 11
-4053.000158773883
 21
2229.000148463893
 31
0.0
  0
LINE
  5
1D5
330
1F
100
AcDbEntity
  8
0-2_扉
  6
Continuous
 62
     7
370
     9
100
AcDbLine
 10
-3973.000018557983
 20
1576.000148463894
 30
0.0
 11
-4653.000018557983
 21
1576.000148463894
 31
0.0
  0
LINE
  5
1D6
330
1F
100
AcDbEntity
  8
0-2_扉
  6
Continuous
 62
     7
370
     9
100
AcDbLine
 10
-3973.000018557983
 20
2124.002647606102
 30
0.0
 11
-4653.000018557983
 21
2124.002647606102
 31
0.0
  0
LINE
  5
1D7
330
1F
100
AcDbEntity
  8
0-2_扉
  6
Continuous
 62
     7
370
     9
100
AcDbLine
 10
-3973.000018557983
 20
2229.000148463893
 30
0.0
 11
-4225.500101037925
 21
2229.000148463893
 31
0.0
  0
LINE
  5
1D8
330
1F
100
AcDbEntity
  8
0-2_扉
  6
Continuous
 62
     7
370
     9
100
AcDbLine
 10
-3973.000018557983
 20
3274.000257337416
 30
0.0
 11
-4653.000018557983
 21
3274.000257337416
 31
0.0
  0
LINE
  5
1D9
330
1F
100
AcDbEntity
  8
0-2_扉
  6
Continuous
 62
     7
370
     9
100
AcDbLine
 10
-3863.000018557983
 20
1426.000148463893
 30
0.0
 11
-4760.000018557985
 21
1426.000148463893
 31
0.0
  0
LINE
  5
1DA
330
1F
100
AcDbEntity
  8
0-2_扉
  6
Continuous
 62
     7
370
     9
100
AcDbLine
 10
-3863.000018557983
 20
3409.000257337415
 30
0.0
 11
-4760.000018557985
 21
3409.000257337415
 31
0.0
  0
LINE
  5
1DB
330
1F
100
AcDbEntity
  8
0-C_ハッチ
  6
Continuous
 62
   120
370
     5
100
AcDbLine
 10
-4584.855566110115
 20
3274.000257337416
 30
0.0
 11
-4653.000026805978
 21
3210.903534470875
 31
0.0
  0
LINE
  5
1DC
330
1F
100
AcDbEntity
  8
0-C_ハッチ
  6
Continuous
 62
   120
370
     5
100
AcDbLine
 10
-4548.058827124167
 20
3274.000257337416
 30
0.0
 11
-4653.000026805978
 21
3176.832479854256
 31
0.0
  0
LINE
  5
1DD
330
1F
100
AcDbEntity
  8
0-C_ハッチ
  6
Continuous
 62
   120
370
     5
100
AcDbLine
 10
-4511.262088138219
 20
3274.000257337416
 30
0.0
 11
-4653.000026805978
 21
3142.761425237637
 31
0.0
  0
LINE
  5
1DE
330
1F
100
AcDbEntity
  8
0-C_ハッチ
  6
Continuous
 62
   120
370
     5
100
AcDbLine
 10
-4474.465349152271
 20
3274.000257337416
 30
0.0
 11
-4653.000026805978
 21
3108.690370621019
 31
0.0
  0
LINE
  5
1DF
330
1F
100
AcDbEntity
  8
0-C_ハッチ
  6
Continuous
 62
   120
370
     5
100
AcDbLine
 10
-4621.652305096062
 20
3274.000257337416
 30
0.0
 11
-4653.000026805978
 21
3244.974589087494
 31
0.0
  0
LINE
  5
1E0
330
1F
100
AcDbEntity
  8
0-C_ハッチ
  6
Continuous
 62
   120
370
     5
100
AcDbLine
 10
-4437.668610166323
 20
3274.000257337416
 30
0.0
 11
-4653.000026805978
 21
3074.619316004399
 31
0.0
  0
LINE
  5
1E1
330
1F
100
AcDbEntity
  8
0-C_ハッチ
  6
Continuous
 62
   120
370
     5
100
AcDbLine
 10
-4400.871871180376
 20
3274.000257337416
 30
0.0
 11
-4653.000026805978
 21
3040.548261387781
 31
0.0
  0
LINE
  5
1E2
330
1F
100
AcDbEntity
  8
0-C_ハッチ
  6
Continuous
 62
   120
370
     5
100
AcDbLine
 10
-4364.075132194427
 20
3274.000257337416
 30
0.0
 11
-4653.000026805978
 21
3006.477206771162
 31
0.0
  0
LINE
  5
1E3
330
1F
100
AcDbEntity
  8
0-C_ハッチ
  6
Continuous
 62
   120
370
     5
100
AcDbLine
 10
-4327.278393208479
 20
3274.000257337416
 30
0.0
 11
-4653.000026805978
 21
2972.406152154544
 31
0.0
  0
LINE
  5
1E4
330
1F
100
AcDbEntity
  8
0-C_ハッチ
  6
Continuous
 62
   120
370
     5
100
AcDbLine
 10
-4290.481654222531
 20
3274.000257337416
 30
0.0
 11
-4653.000026805978
 21
2938.335097537925
 31
0.0
  0
LINE
  5
1E5
330
1F
100
AcDbEntity
  8
0-C_ハッチ
  6
Continuous
 62
   120
370
     5
100
AcDbLine
 10
-4253.684915236584
 20
3274.000257337416
 30
0.0
 11
-4653.000026805978
 21
2904.264042921306
 31
0.0
  0
LINE
  5
1E6
330
1F
100
AcDbEntity
  8
0-C_ハッチ
  6
Continuous
 62
   120
370
     5
100
AcDbLine
 10
-4216.888176250635
 20
3274.000257337416
 30
0.0
 11
-4653.000026805978
 21
2870.192988304687
 31
0.0
  0
LINE
  5
1E7
330
1F
100
AcDbEntity
  8
0-C_ハッチ
  6
Continuous
 62
   120
370
     5
100
AcDbLine
 10
-4180.091437264688
 20
3274.000257337416
 30
0.0
 11
-4653.000026805978
 21
2836.121933688068
 31
0.0
  0
LINE
  5
1E8
330
1F
100
AcDbEntity
  8
0-C_ハッチ
  6
Continuous
 62
   120
370
     5
100
AcDbLine
 10
-4143.294698278739
 20
3274.000257337416
 30
0.0
 11
-4653.000026805978
 21
2802.050879071449
 31
0.0
  0
LINE
  5
1E9
330
1F
100
AcDbEntity
  8
0-C_ハッチ
  6
Continuous
 62
   120
370
     5
100
AcDbLine
 10
-4106.49795929279
 20
3274.000257337416
 30
0.0
 11
-4653.000026805978
 21
2767.97982445483
 31
0.0
  0
LINE
  5
1EA
330
1F
100
AcDbEntity
  8
0-C_ハッチ
  6
Continuous
 62
   120
370
     5
100
AcDbLine
 10
-3973.000018557984
 20
2341.406768606306
 30
0.0
 11
-4094.399300147733
 21
2229.000026393581
 31
0.0
  0
LINE
  5
1EB
330
1F
100
AcDbEntity
  8
0-C_ハッチ
  6
Continuous
 62
   120
370
     5
100
AcDbLine
 10
-3973.000018557984
 20
2409.548877839542
 30
0.0
 11
-4167.992510884622
 21
2229.000273833404
 31
0.0
  0
LINE
  5
1EC
330
1F
100
AcDbEntity
  8
0-C_ハッチ
  6
Continuous
 62
   120
370
     5
100
AcDbLine
 10
-3973.000018557984
 20
3261.325243255022
 30
0.0
 11
-4653.000026805978
 21
2631.695605988356
 31
0.0
  0
LINE
  5
1ED
330
1F
100
AcDbEntity
  8
0-C_ハッチ
  6
Continuous
 62
   120
370
     5
100
AcDbLine
 10
-3973.000018557984
 20
3227.254188638403
 30
0.0
 11
-4653.000026805978
 21
2597.624551371736
 31
0.0
  0
LINE
  5
1EE
330
1F
100
AcDbEntity
  8
0-C_ハッチ
  6
Continuous
 62
   120
370
     5
100
AcDbLine
 10
-3973.000018557984
 20
3193.183134021784
 30
0.0
 11
-4653.000026805978
 21
2563.553496755117
 31
0.0
  0
LINE
  5
1EF
330
1F
100
AcDbEntity
  8
0-C_ハッチ
  6
Continuous
 62
   120
370
     5
100
AcDbLine
 10
-3973.000018557984
 20
3159.112079405165
 30
0.0
 11
-4653.000026805978
 21
2529.482442138498
 31
0.0
  0
LINE
  5
1F0
330
1F
100
AcDbEntity
  8
0-C_ハッチ
  6
Continuous
 62
   120
370
     5
100
AcDbLine
 10
-3973.000018557984
 20
3125.041024788546
 30
0.0
 11
-4653.000026805978
 21
2495.411387521879
 31
0.0
  0
LINE
  5
1F1
330
1F
100
AcDbEntity
  8
0-C_ハッチ
  6
Continuous
 62
   120
370
     5
100
AcDbLine
 10
-3973.000018557984
 20
3090.969970171927
 30
0.0
 11
-4653.000026805978
 21
2461.340332905261
 31
0.0
  0
LINE
  5
1F2
330
1F
100
AcDbEntity
  8
0-C_ハッチ
  6
Continuous
 62
   120
370
     5
100
AcDbLine
 10
-3973.000018557984
 20
3056.898915555309
 30
0.0
 11
-4653.000026805978
 21
2427.269278288641
 31
0.0
  0
LINE
  5
1F3
330
1F
100
AcDbEntity
  8
0-C_ハッチ
  6
Continuous
 62
   120
370
     5
100
AcDbLine
 10
-3973.000018557984
 20
3022.82786093869
 30
0.0
 11
-4653.000026805978
 21
2393.198223672023
 31
0.0
  0
LINE
  5
1F4
330
1F
100
AcDbEntity
  8
0-C_ハッチ
  6
Continuous
 62
   120
370
     5
100
AcDbLine
 10
-3973.000018557984
 20
2920.614697088833
 30
0.0
 11
-4653.000026805978
 21
2290.985059822166
 31
0.0
  0
LINE
  5
1F5
330
1F
100
AcDbEntity
  8
0-C_ハッチ
  6
Continuous
 62
   120
370
     5
100
AcDbLine
 10
-3973.000018557984
 20
2886.543642472215
 30
0.0
 11
-4653.000026805978
 21
2256.914005205548
 31
0.0
  0
LINE
  5
1F6
330
1F
100
AcDbEntity
  8
0-C_ハッチ
  6
Continuous
 62
   120
370
     5
100
AcDbLine
 10
-3973.000018557984
 20
2852.472587855596
 30
0.0
 11
-4646.350117701944
 21
2229.000273833404
 31
0.0
  0
LINE
  5
1F7
330
1F
100
AcDbEntity
  8
0-C_ハッチ
  6
Continuous
 62
   120
370
     5
100
AcDbLine
 10
-3973.000018557984
 20
2818.401533238977
 30
0.0
 11
-4609.553378715997
 21
2229.000273833404
 31
0.0
  0
LINE
  5
1F8
330
1F
100
AcDbEntity
  8
0-C_ハッチ
  6
Continuous
 62
   120
370
     5
100
AcDbLine
 10
-3973.000018557984
 20
2784.330478622358
 30
0.0
 11
-4572.756639730048
 21
2229.000273833404
 31
0.0
  0
LINE
  5
1F9
330
1F
100
AcDbEntity
  8
0-C_ハッチ
  6
Continuous
 62
   120
370
     5
100
AcDbLine
 10
-3973.000018557984
 20
2750.25942400574
 30
0.0
 11
-4535.9599007441
 21
2229.000273833404
 31
0.0
  0
LINE
  5
1FA
330
1F
100
AcDbEntity
  8
0-C_ハッチ
  6
Continuous
 62
   120
370
     5
100
AcDbLine
 10
-3973.000018557984
 20
2716.18836938912
 30
0.0
 11
-4499.163161758152
 21
2229.000273833404
 31
0.0
  0
LINE
  5
1FB
330
1F
100
AcDbEntity
  8
0-C_ハッチ
  6
Continuous
 62
   120
370
     5
100
AcDbLine
 10
-3973.000018557984
 20
2682.117314772502
 30
0.0
 11
-4462.366422772205
 21
2229.000273833404
 31
0.0
  0
LINE
  5
1FC
330
1F
100
AcDbEntity
  8
0-C_ハッチ
  6
Continuous
 62
   120
370
     5
100
AcDbLine
 10
-3973.000018557984
 20
2648.046260155883
 30
0.0
 11
-4425.569683786258
 21
2229.000273833404
 31
0.0
  0
LINE
  5
1FD
330
1F
100
AcDbEntity
  8
0-C_ハッチ
  6
Continuous
 62
   120
370
     5
100
AcDbLine
 10
-3973.000018557984
 20
2613.975205539264
 30
0.0
 11
-4388.77294480031
 21
2229.000273833404
 31
0.0
  0
LINE
  5
1FE
330
1F
100
AcDbEntity
  8
0-C_ハッチ
  6
Continuous
 62
   120
370
     5
100
AcDbLine
 10
-3973.000018557984
 20
2579.904150922645
 30
0.0
 11
-4351.976205814361
 21
2229.000273833404
 31
0.0
  0
LINE
  5
1FF
330
1F
100
AcDbEntity
  8
0-C_ハッチ
  6
Continuous
 62
   120
370
     5
100
AcDbLine
 10
-3973.000018557984
 20
2545.833096306027
 30
0.0
 11
-4315.179466828414
 21
2229.000273833404
 31
0.0
  0
LINE
  5
200
330
1F
100
AcDbEntity
  8
0-C_ハッチ
  6
Continuous
 62
   120
370
     5
100
AcDbLine
 10
-3973.000018557984
 20
2511.762041689407
 30
0.0
 11
-4278.382727842465
 21
2229.000273833404
 31
0.0
  0
LINE
  5
201
330
1F
100
AcDbEntity
  8
0-C_ハッチ
  6
Continuous
 62
   120
370
     5
100
AcDbLine
 10
-3973.000018557984
 20
2477.690987072789
 30
0.0
 11
-4241.585988856517
 21
2229.000273833404
 31
0.0
  0
LINE
  5
202
330
1F
100
AcDbEntity
  8
0-C_ハッチ
  6
Continuous
 62
   120
370
     5
100
AcDbLine
 10
-3973.000018557984
 20
2443.619932456167
 30
0.0
 11
-4204.78924987057
 21
2229.000273833404
 31
0.0
  0
LINE
  5
203
330
1F
100
AcDbEntity
  8
0-C_ハッチ
  6
Continuous
 62
   120
370
     5
100
AcDbLine
 10
-3973.000018557984
 20
2375.477823222925
 30
0.0
 11
-4131.196039133682
 21
2229.000026393581
 31
0.0
  0
LINE
  5
204
330
1F
100
AcDbEntity
  8
0-C_ハッチ
  6
Continuous
 62
   120
370
     5
100
AcDbLine
 10
-3973.000018557984
 20
2988.756806322071
 30
0.0
 11
-4653.000018557984
 21
2359.127176692435
 31
0.0
  0
LINE
  5
205
330
1F
100
AcDbEntity
  8
0-C_ハッチ
  6
Continuous
 62
   120
370
     5
100
AcDbLine
 10
-3973.000018557984
 20
2954.685751705452
 30
0.0
 11
-4653.000018557984
 21
2325.056122075817
 31
0.0
  0
LINE
  5
206
330
1F
100
AcDbEntity
  8
0-C_ハッチ
  6
Continuous
 62
   120
370
     5
100
AcDbLine
 10
-4069.701220306842
 20
3274.000257337416
 30
0.0
 11
-4653.000026805978
 21
2733.908769838211
 31
0.0
  0
LINE
  5
207
330
1F
100
AcDbEntity
  8
0-C_ハッチ
  6
Continuous
 62
   120
370
     5
100
AcDbLine
 10
-3996.107742334947
 20
3274.000257337416
 30
0.0
 11
-4653.000026805978
 21
2665.766660604974
 31
0.0
  0
LINE
  5
208
330
1F
100
AcDbEntity
  8
0-C_ハッチ
  6
Continuous
 62
   120
370
     5
100
AcDbLine
 10
-4032.904481320895
 20
3274.000257337416
 30
0.0
 11
-4653.000026805978
 21
2699.837715221592
 31
0.0
  0
LINE
  5
209
330
1F
100
AcDbEntity
  8
0-C_ハッチ
  6
Continuous
 62
   120
370
     5
100
AcDbLine
 10
-3973.000018557984
 20
2307.335713989688
 30
0.0
 11
-4057.602429325847
 21
2229.000148463893
 31
0.0
  0
LINE
  5
20A
330
1F
100
AcDbEntity
  8
0-C_ハッチ
  6
Continuous
 62
   120
370
     5
100
AcDbLine
 10
-3973.000018557984
 20
2273.26465937307
 30
0.0
 11
-4020.805690339897
 21
2229.000148463893
 31
0.0
  0
LINE
  5
20B
330
1F
100
AcDbEntity
  8
0-C_ハッチ
  6
Continuous
 62
   120
370
     5
100
AcDbLine
 10
-3973.000018557984
 20
2239.193604756452
 30
0.0
 11
-3984.008951353947
 21
2229.000148463893
 31
0.0
  0
LINE
  5
20C
330
1F
100
AcDbEntity
  8
0-C_ハッチ
  6
Continuous
 62
   120
370
     5
100
AcDbLine
 10
-1789.855817158437
 20
3274.000257337416
 30
0.0
 11
-1858.0002778543
 21
3210.903534470875
 31
0.0
  0
LINE
  5
20D
330
1F
100
AcDbEntity
  8
0-C_ハッチ
  6
Continuous
 62
   120
370
     5
100
AcDbLine
 10
-1753.059078172489
 20
3274.000257337416
 30
0.0
 11
-1858.0002778543
 21
3176.832479854256
 31
0.0
  0
LINE
  5
20E
330
1F
100
AcDbEntity
  8
0-C_ハッチ
  6
Continuous
 62
   120
370
     5
100
AcDbLine
 10
-1716.262339186541
 20
3274.000257337416
 30
0.0
 11
-1858.0002778543
 21
3142.761425237637
 31
0.0
  0
LINE
  5
20F
330
1F
100
AcDbEntity
  8
0-C_ハッチ
  6
Continuous
 62
   120
370
     5
100
AcDbLine
 10
-1679.465600200593
 20
3274.000257337416
 30
0.0
 11
-1858.0002778543
 21
3108.690370621018
 31
0.0
  0
LINE
  5
210
330
1F
100
AcDbEntity
  8
0-C_ハッチ
  6
Continuous
 62
   120
370
     5
100
AcDbLine
 10
-1826.652556144385
 20
3274.000257337416
 30
0.0
 11
-1858.0002778543
 21
3244.974589087494
 31
0.0
  0
LINE
  5
211
330
1F
100
AcDbEntity
  8
0-C_ハッチ
  6
Continuous
 62
   120
370
     5
100
AcDbLine
 10
-1642.668861214645
 20
3274.000257337416
 30
0.0
 11
-1858.0002778543
 21
3074.619316004399
 31
0.0
  0
LINE
  5
212
330
1F
100
AcDbEntity
  8
0-C_ハッチ
  6
Continuous
 62
   120
370
     5
100
AcDbLine
 10
-1605.872122228697
 20
3274.000257337416
 30
0.0
 11
-1858.0002778543
 21
3040.548261387781
 31
0.0
  0
LINE
  5
213
330
1F
100
AcDbEntity
  8
0-C_ハッチ
  6
Continuous
 62
   120
370
     5
100
AcDbLine
 10
-1569.075383242749
 20
3274.000257337416
 30
0.0
 11
-1858.0002778543
 21
3006.477206771162
 31
0.0
  0
LINE
  5
214
330
1F
100
AcDbEntity
  8
0-C_ハッチ
  6
Continuous
 62
   120
370
     5
100
AcDbLine
 10
-1532.278644256801
 20
3274.000257337416
 30
0.0
 11
-1858.0002778543
 21
2972.406152154543
 31
0.0
  0
LINE
  5
215
330
1F
100
AcDbEntity
  8
0-C_ハッチ
  6
Continuous
 62
   120
370
     5
100
AcDbLine
 10
-1495.481905270853
 20
3274.000257337416
 30
0.0
 11
-1858.0002778543
 21
2938.335097537924
 31
0.0
  0
LINE
  5
216
330
1F
100
AcDbEntity
  8
0-C_ハッチ
  6
Continuous
 62
   120
370
     5
100
AcDbLine
 10
-1458.685166284906
 20
3274.000257337416
 30
0.0
 11
-1858.0002778543
 21
2904.264042921305
 31
0.0
  0
LINE
  5
217
330
1F
100
AcDbEntity
  8
0-C_ハッチ
  6
Continuous
 62
   120
370
     5
100
AcDbLine
 10
-1421.888427298958
 20
3274.000257337416
 30
0.0
 11
-1858.0002778543
 21
2870.192988304687
 31
0.0
  0
LINE
  5
218
330
1F
100
AcDbEntity
  8
0-C_ハッチ
  6
Continuous
 62
   120
370
     5
100
AcDbLine
 10
-1385.09168831301
 20
3274.000257337416
 30
0.0
 11
-1858.0002778543
 21
2836.121933688068
 31
0.0
  0
LINE
  5
219
330
1F
100
AcDbEntity
  8
0-C_ハッチ
  6
Continuous
 62
   120
370
     5
100
AcDbLine
 10
-1348.294949327061
 20
3274.000257337416
 30
0.0
 11
-1858.0002778543
 21
2802.050879071449
 31
0.0
  0
LINE
  5
21A
330
1F
100
AcDbEntity
  8
0-C_ハッチ
  6
Continuous
 62
   120
370
     5
100
AcDbLine
 10
-1311.498210341112
 20
3274.000257337416
 30
0.0
 11
-1858.0002778543
 21
2767.97982445483
 31
0.0
  0
LINE
  5
21B
330
1F
100
AcDbEntity
  8
0-C_ハッチ
  6
Continuous
 62
   120
370
     5
100
AcDbLine
 10
-1274.701471355164
 20
3274.000257337416
 30
0.0
 11
-1858.0002778543
 21
2733.908769838211
 31
0.0
  0
LINE
  5
21C
330
1F
100
AcDbEntity
  8
0-C_ハッチ
  6
Continuous
 62
   120
370
     5
100
AcDbLine
 10
-1268.000319094271
 20
3246.133973332736
 30
0.0
 11
-1858.0002778543
 21
2699.837715221592
 31
0.0
  0
LINE
  5
21D
330
1F
100
AcDbEntity
  8
0-C_ハッチ
  6
Continuous
 62
   120
370
     5
100
AcDbLine
 10
-1268.000319094271
 20
2258.073389450788
 30
0.0
 11
-1299.399551196055
 21
2229.000026393582
 31
0.0
  0
LINE
  5
21E
330
1F
100
AcDbEntity
  8
0-C_ハッチ
  6
Continuous
 62
   120
370
     5
100
AcDbLine
 10
-1268.000319094271
 20
2326.215498684023
 30
0.0
 11
-1372.992761932944
 21
2229.000273833404
 31
0.0
  0
LINE
  5
21F
330
1F
100
AcDbEntity
  8
0-C_ハッチ
  6
Continuous
 62
   120
370
     5
100
AcDbLine
 10
-1268.000319094271
 20
3177.991864099498
 30
0.0
 11
-1858.0002778543
 21
2631.695605988356
 31
0.0
  0
LINE
  5
220
330
1F
100
AcDbEntity
  8
0-C_ハッチ
  6
Continuous
 62
   120
370
     5
100
AcDbLine
 10
-1268.000319094271
 20
3143.920809482879
 30
0.0
 11
-1858.0002778543
 21
2597.624551371736
 31
0.0
  0
LINE
  5
221
330
1F
100
AcDbEntity
  8
0-C_ハッチ
  6
Continuous
 62
   120
370
     5
100
AcDbLine
 10
-1268.000319094271
 20
3109.84975486626
 30
0.0
 11
-1858.0002778543
 21
2563.553496755117
 31
0.0
  0
LINE
  5
222
330
1F
100
AcDbEntity
  8
0-C_ハッチ
  6
Continuous
 62
   120
370
     5
100
AcDbLine
 10
-1268.000319094271
 20
3075.778700249642
 30
0.0
 11
-1858.0002778543
 21
2529.482442138498
 31
0.0
  0
LINE
  5
223
330
1F
100
AcDbEntity
  8
0-C_ハッチ
  6
Continuous
 62
   120
370
     5
100
AcDbLine
 10
-1268.000319094271
 20
3041.707645633022
 30
0.0
 11
-1858.0002778543
 21
2495.411387521879
 31
0.0
  0
LINE
  5
224
330
1F
100
AcDbEntity
  8
0-C_ハッチ
  6
Continuous
 62
   120
370
     5
100
AcDbLine
 10
-1268.000319094271
 20
3007.636591016404
 30
0.0
 11
-1858.0002778543
 21
2461.340332905261
 31
0.0
  0
LINE
  5
225
330
1F
100
AcDbEntity
  8
0-C_ハッチ
  6
Continuous
 62
   120
370
     5
100
AcDbLine
 10
-1268.000319094271
 20
2973.565536399784
 30
0.0
 11
-1858.0002778543
 21
2427.269278288641
 31
0.0
  0
LINE
  5
226
330
1F
100
AcDbEntity
  8
0-C_ハッチ
  6
Continuous
 62
   120
370
     5
100
AcDbLine
 10
-1268.000319094271
 20
2939.494481783166
 30
0.0
 11
-1858.0002778543
 21
2393.198223672023
 31
0.0
  0
LINE
  5
227
330
1F
100
AcDbEntity
  8
0-C_ハッチ
  6
Continuous
 62
   120
370
     5
100
AcDbLine
 10
-1268.000319094271
 20
2837.281317933309
 30
0.0
 11
-1858.0002778543
 21
2290.985059822167
 31
0.0
  0
LINE
  5
228
330
1F
100
AcDbEntity
  8
0-C_ハッチ
  6
Continuous
 62
   120
370
     5
100
AcDbLine
 10
-1268.000319094271
 20
2803.210263316691
 30
0.0
 11
-1858.0002778543
 21
2256.914005205548
 31
0.0
  0
LINE
  5
229
330
1F
100
AcDbEntity
  8
0-C_ハッチ
  6
Continuous
 62
   120
370
     5
100
AcDbLine
 10
-1268.000319094271
 20
2769.139208700072
 30
0.0
 11
-1851.350368750266
 21
2229.000273833404
 31
0.0
  0
LINE
  5
22A
330
1F
100
AcDbEntity
  8
0-C_ハッチ
  6
Continuous
 62
   120
370
     5
100
AcDbLine
 10
-1268.000319094271
 20
2735.068154083453
 30
0.0
 11
-1814.553629764319
 21
2229.000273833404
 31
0.0
  0
LINE
  5
22B
330
1F
100
AcDbEntity
  8
0-C_ハッチ
  6
Continuous
 62
   120
370
     5
100
AcDbLine
 10
-1268.000319094271
 20
2700.997099466835
 30
0.0
 11
-1777.75689077837
 21
2229.000273833404
 31
0.0
  0
LINE
  5
22C
330
1F
100
AcDbEntity
  8
0-C_ハッチ
  6
Continuous
 62
   120
370
     5
100
AcDbLine
 10
-1268.000319094271
 20
2666.926044850215
 30
0.0
 11
-1740.960151792422
 21
2229.000273833404
 31
0.0
  0
LINE
  5
22D
330
1F
100
AcDbEntity
  8
0-C_ハッチ
  6
Continuous
 62
   120
370
     5
100
AcDbLine
 10
-1268.000319094271
 20
2632.854990233596
 30
0.0
 11
-1704.163412806475
 21
2229.000273833404
 31
0.0
  0
LINE
  5
22E
330
1F
100
AcDbEntity
  8
0-C_ハッチ
  6
Continuous
 62
   120
370
     5
100
AcDbLine
 10
-1268.000319094271
 20
2598.783935616977
 30
0.0
 11
-1667.366673820527
 21
2229.000273833404
 31
0.0
  0
LINE
  5
22F
330
1F
100
AcDbEntity
  8
0-C_ハッチ
  6
Continuous
 62
   120
370
     5
100
AcDbLine
 10
-1268.000319094271
 20
2564.712881000359
 30
0.0
 11
-1630.56993483458
 21
2229.000273833404
 31
0.0
  0
LINE
  5
230
330
1F
100
AcDbEntity
  8
0-C_ハッチ
  6
Continuous
 62
   120
370
     5
100
AcDbLine
 10
-1268.000319094271
 20
2530.641826383741
 30
0.0
 11
-1593.773195848632
 21
2229.000273833404
 31
0.0
  0
LINE
  5
231
330
1F
100
AcDbEntity
  8
0-C_ハッチ
  6
Continuous
 62
   120
370
     5
100
AcDbLine
 10
-1268.000319094271
 20
2496.570771767123
 30
0.0
 11
-1556.976456862684
 21
2229.000273833404
 31
0.0
  0
LINE
  5
232
330
1F
100
AcDbEntity
  8
0-C_ハッチ
  6
Continuous
 62
   120
370
     5
100
AcDbLine
 10
-1268.000319094271
 20
2462.499717150503
 30
0.0
 11
-1520.179717876735
 21
2229.000273833404
 31
0.0
  0
LINE
  5
233
330
1F
100
AcDbEntity
  8
0-C_ハッチ
  6
Continuous
 62
   120
370
     5
100
AcDbLine
 10
-1268.000319094271
 20
2428.428662533885
 30
0.0
 11
-1483.382978890787
 21
2229.000273833404
 31
0.0
  0
LINE
  5
234
330
1F
100
AcDbEntity
  8
0-C_ハッチ
  6
Continuous
 62
   120
370
     5
100
AcDbLine
 10
-1268.000319094271
 20
2394.357607917265
 30
0.0
 11
-1446.586239904839
 21
2229.000273833404
 31
0.0
  0
LINE
  5
235
330
1F
100
AcDbEntity
  8
0-C_ハッチ
  6
Continuous
 62
   120
370
     5
100
AcDbLine
 10
-1268.000319094271
 20
2360.286553300645
 30
0.0
 11
-1409.789500918892
 21
2229.000273833404
 31
0.0
  0
LINE
  5
236
330
1F
100
AcDbEntity
  8
0-C_ハッチ
  6
Continuous
 62
   120
370
     5
100
AcDbLine
 10
-1268.000319094271
 20
2292.144444067406
 30
0.0
 11
-1336.196290182004
 21
2229.000026393582
 31
0.0
  0
LINE
  5
237
330
1F
100
AcDbEntity
  8
0-C_ハッチ
  6
Continuous
 62
   120
370
     5
100
AcDbLine
 10
-1268.000319094271
 20
2905.423427166547
 30
0.0
 11
-1858.000269606306
 21
2359.127176692435
 31
0.0
  0
LINE
  5
238
330
1F
100
AcDbEntity
  8
0-C_ハッチ
  6
Continuous
 62
   120
370
     5
100
AcDbLine
 10
-1268.000319094271
 20
2871.352372549929
 30
0.0
 11
-1858.000269606306
 21
2325.056122075817
 31
0.0
  0
LINE
  5
239
330
1F
100
AcDbEntity
  8
0-C_ハッチ
  6
Continuous
 62
   120
370
     5
100
AcDbLine
 10
-1268.000319094271
 20
3212.062918716117
 30
0.0
 11
-1858.0002778543
 21
2665.766660604974
 31
0.0
  0
LINE
  5
23A
330
1F
100
AcDbEntity
  8
0-B_寸法
  6
Continuous
 62
   120
370
     5
100
AcDbLine
 10
-5090.000018557985
 20
1426.000148463893
 30
0.0
 11
-4840.000018557987
 21
1426.000148463893
 31
0.0
  0
LWPOLYLINE
  5
23B
330
1F
100
AcDbEntity
  8
0-B_寸法
  6
Continuous
 62
     7
370
     9
100
AcDbPolyline
 90
        4
 70
     1
 43
3.0
 10
-5088.500018557985
 20
1426.000148463893
 42
0.4142135623731
 10
-5090.000018557985
 20
1427.500148463893
 42
0.4142135623731
 10
-5091.500018557985
 20
1426.000148463893
 42
0.4142135623731
 10
-5090.000018557985
 20
1424.500148463893
 42
0.4142135623731
  0
LINE
  5
23C
330
1F
100
AcDbEntity
  8
0-B_寸法
  6
Continuous
 62
   120
370
     5
100
AcDbLine
 10
-5090.000018557985
 20
3409.000148463893
 30
0.0
 11
-4840.000018557987
 21
3409.000148463893
 31
0.0
  0
LWPOLYLINE
  5
23D
330
1F
100
AcDbEntity
  8
0-B_寸法
  6
Continuous
 62
     7
370
     9
100
AcDbPolyline
 90
        4
 70
     1
 43
3.0
 10
-5088.500018557985
 20
3409.000148463893
 42
0.4142135623731
 10
-5090.000018557985
 20
3410.500148463893
 42
0.4142135623731
 10
-5091.500018557985
 20
3409.000148463893
 42
0.4142135623731
 10
-5090.000018557985
 20
3407.500148463893
 42
0.4142135623731
  0
LINE
  5
23E
330
1F
100
AcDbEntity
  8
0-B_寸法
  6
Continuous
 62
   120
370
     5
100
AcDbLine
 10
-5090.000018557985
 20
3409.000148463893
 30
0.0
 11
-5090.000018557985
 21
1426.000148463893
 31
0.0
  0
MTEXT
  5
23F
330
1F
100
AcDbEntity
  8
0-B_寸法
  6
Continuous
 62
     7
370
    70
100
AcDbMText
 10
-5105.000018557985
 20
2199.325148463894
 30
0.0
 40
57.14999999999999
 41
412.5
 46
0.0
 71
     7
 72
     1
  1
{\fＭＳ ゴシック|b0|i0|c128|p49;ＤＨ＝1,983}
 11
6.123031769111886E-17
 21
1.0
 31
0.0
 73
     1
 44
1.0
  0
LINE
  5
240
330
1F
100
AcDbEntity
  8
0-4_枠
  6
Continuous
 62
    92
370
    13
100
AcDbLine
 10
-381.0002696063077
 20
1418.000148463893
 30
0.0
 11
-1965.000269606306
 21
1418.000148463893
 31
0.0
  0
LINE
  5
241
330
1F
100
AcDbEntity
  8
0-4_枠
  6
Continuous
 62
    92
370
    13
100
AcDbLine
 10
-381.0002696063077
 20
1421.000148463893
 30
0.0
 11
-1965.000269606306
 21
1421.000148463893
 31
0.0
  0
LINE
  5
242
330
1F
100
AcDbEntity
  8
0-4_枠
  6
Continuous
 62
    92
370
    13
100
AcDbLine
 10
-2996.000018557986
 20
1418.000148463893
 30
0.0
 11
-4760.000018557985
 21
1418.000148463893
 31
0.0
  0
LINE
  5
243
330
1F
100
AcDbEntity
  8
0-4_枠
  6
Continuous
 62
    92
370
    13
100
AcDbLine
 10
-2996.000018557986
 20
1421.000148463893
 30
0.0
 11
-4760.000018557985
 21
1421.000148463893
 31
0.0
  0
LINE
  5
244
330
1F
100
AcDbEntity
  8
0-B_寸法
  6
Continuous
 62
   120
370
     5
100
AcDbLine
 10
-2295.000269606307
 20
-2693.250083820241
 30
0.0
 11
-2045.000269606307
 21
-2693.250083820241
 31
0.0
  0
LWPOLYLINE
  5
245
330
1F
100
AcDbEntity
  8
0-B_寸法
  6
Continuous
 62
     7
370
     9
100
AcDbPolyline
 90
        4
 70
     1
 43
3.0
 10
-2293.500269606307
 20
-2693.250083820241
 42
0.4142135623731
 10
-2295.000269606307
 20
-2691.750083820241
 42
0.4142135623731
 10
-2296.500269606306
 20
-2693.250083820241
 42
0.4142135623731
 10
-2295.000269606307
 20
-2694.750083820241
 42
0.4142135623731
  0
LINE
  5
246
330
1F
100
AcDbEntity
  8
0-B_寸法
  6
Continuous
 62
   120
370
     5
100
AcDbLine
 10
-2295.000269606307
 20
-510.2500838202414
 30
0.0
 11
-2045.000269606307
 21
-510.2500838202414
 31
0.0
  0
LINE
  5
247
330
1F
100
AcDbEntity
  8
0-B_寸法
  6
Continuous
 62
   120
370
     5
100
AcDbLine
 10
-2295.000269606307
 20
-510.2500838202414
 30
0.0
 11
-2295.000269606307
 21
-2693.250083820241
 31
0.0
  0
LWPOLYLINE
  5
248
330
1F
100
AcDbEntity
  8
0-B_寸法
  6
Continuous
 62
     7
370
     9
100
AcDbPolyline
 90
        4
 70
     1
 43
3.0
 10
-2293.500269606307
 20
-510.2500838202414
 42
0.4142135623731
 10
-2295.000269606307
 20
-508.7500838202414
 42
0.4142135623731
 10
-2296.500269606306
 20
-510.2500838202414
 42
0.4142135623731
 10
-2295.000269606307
 20
-511.7500838202414
 42
0.4142135623731
  0
MTEXT
  5
249
330
1F
100
AcDbEntity
  8
0-B_寸法
  6
Continuous
 62
     7
370
    70
100
AcDbMText
 10
-2310.000269606307
 20
-1819.925083820241
 30
0.0
 40
57.14999999999999
 41
412.5
 46
0.0
 71
     7
 72
     1
  1
{\fＭＳ ゴシック|b0|i0|c128|p49;ＤＨ＝2,183}
 11
6.123031769111886E-17
 21
1.0
 31
0.0
 73
     1
 44
1.0
  0
LINE
  5
24A
330
1F
100
AcDbEntity
  8
引手
  6
JWW_CENTER1
 62
     7
370
     9
100
AcDbLine
 10
-390.9261038049843
 20
-1735.750083820242
 30
0.0
 11
-463.4358004141453
 21
-1735.750083820242
 31
0.0
  0
LINE
  5
24B
330
1F
100
AcDbEntity
  8
引手
  6
JWW_CENTER1
 62
     7
370
     9
100
AcDbLine
 10
-429.0002696063084
 20
-1820.980752355766
 30
0.0
 11
-429.0002696063084
 21
-1650.13048093163
 31
0.0
  0
LINE
  5
24C
330
1F
100
AcDbEntity
  8
引手
  6
JWW_DASHED1
 62
     7
370
     9
100
AcDbLine
 10
-445.0002696063075
 20
-1786.750083820242
 30
0.0
 11
-445.0002696063075
 21
-1684.750083820241
 31
0.0
  0
LINE
  5
24D
330
1F
100
AcDbEntity
  8
引手
  6
JWW_DASHED1
 62
     7
370
     9
100
AcDbLine
 10
-413.0002696063093
 20
-1786.750083820242
 30
0.0
 11
-445.0002696063075
 21
-1786.750083820242
 31
0.0
  0
LINE
  5
24E
330
1F
100
AcDbEntity
  8
引手
  6
JWW_DASHED1
 62
     7
370
     9
100
AcDbLine
 10
-413.0002696063093
 20
-1786.750083820242
 30
0.0
 11
-413.0002696063093
 21
-1684.750083820241
 31
0.0
  0
LINE
  5
24F
330
1F
100
AcDbEntity
  8
引手
  6
JWW_DASHED1
 62
     7
370
     9
100
AcDbLine
 10
-413.0002696063093
 20
-1684.750083820241
 30
0.0
 11
-445.0002696063075
 21
-1684.750083820241
 31
0.0
  0
LINE
  5
250
330
1F
100
AcDbEntity
  8
引手
  6
Continuous
 62
     7
370
     9
100
AcDbLine
 10
-410.0002696063078
 20
-1790.750083820242
 30
0.0
 11
-448.000269606309
 21
-1790.750083820242
 31
0.0
  0
LINE
  5
251
330
1F
100
AcDbEntity
  8
引手
  6
Continuous
 62
     7
370
     9
100
AcDbLine
 10
-416.5002696063087
 20
-1774.750083820241
 30
0.0
 11
-441.5002696063081
 21
-1774.750083820241
 31
0.0
  0
LINE
  5
252
330
1F
100
AcDbEntity
  8
引手
  6
Continuous
 62
     7
370
     9
100
AcDbLine
 10
-416.5002696063087
 20
-1696.750083820242
 30
0.0
 11
-441.5002696063081
 21
-1696.750083820242
 31
0.0
  0
LINE
  5
253
330
1F
100
AcDbEntity
  8
引手
  6
Continuous
 62
     7
370
     9
100
AcDbLine
 10
-410.0002696063078
 20
-1680.750083820241
 30
0.0
 11
-448.000269606309
 21
-1680.750083820241
 31
0.0
  0
LINE
  5
254
330
1F
100
AcDbEntity
  8
引手
  6
Continuous
 62
     7
370
     9
100
AcDbLine
 10
-410.0002696063078
 20
-1790.750083820242
 30
0.0
 11
-410.0002696063078
 21
-1680.750083820241
 31
0.0
  0
LINE
  5
255
330
1F
100
AcDbEntity
  8
引手
  6
Continuous
 62
     7
370
     9
100
AcDbLine
 10
-416.5002696063087
 20
-1774.750083820241
 30
0.0
 11
-416.5002696063087
 21
-1696.750083820242
 31
0.0
  0
LINE
  5
256
330
1F
100
AcDbEntity
  8
引手
  6
Continuous
 62
     7
370
     9
100
AcDbLine
 10
-441.5002696063081
 20
-1774.750083820241
 30
0.0
 11
-441.5002696063081
 21
-1696.750083820242
 31
0.0
  0
LINE
  5
257
330
1F
100
AcDbEntity
  8
引手
  6
Continuous
 62
     7
370
     9
100
AcDbLine
 10
-448.000269606309
 20
-1790.750083820242
 30
0.0
 11
-448.000269606309
 21
-1680.750083820241
 31
0.0
  0
LINE
  5
258
330
1F
100
AcDbEntity
  8
引手
  6
JWW_CENTER1
 62
     7
370
     9
100
AcDbLine
 10
-3005.925852756666
 20
-1735.750083820242
 30
0.0
 11
-3078.435549365827
 21
-1735.750083820242
 31
0.0
  0
LINE
  5
259
330
1F
100
AcDbEntity
  8
引手
  6
JWW_CENTER1
 62
     7
370
     9
100
AcDbLine
 10
-3044.00001855799
 20
-1820.980752355766
 30
0.0
 11
-3044.00001855799
 21
-1650.13048093163
 31
0.0
  0
LINE
  5
25A
330
1F
100
AcDbEntity
  8
引手
  6
JWW_DASHED1
 62
     7
370
     9
100
AcDbLine
 10
-3060.000018557989
 20
-1786.750083820242
 30
0.0
 11
-3060.000018557989
 21
-1684.750083820241
 31
0.0
  0
LINE
  5
25B
330
1F
100
AcDbEntity
  8
引手
  6
JWW_DASHED1
 62
     7
370
     9
100
AcDbLine
 10
-3028.000018557991
 20
-1786.750083820242
 30
0.0
 11
-3060.000018557989
 21
-1786.750083820242
 31
0.0
  0
LINE
  5
25C
330
1F
100
AcDbEntity
  8
引手
  6
JWW_DASHED1
 62
     7
370
     9
100
AcDbLine
 10
-3028.000018557991
 20
-1786.750083820242
 30
0.0
 11
-3028.000018557991
 21
-1684.750083820241
 31
0.0
  0
LINE
  5
25D
330
1F
100
AcDbEntity
  8
引手
  6
JWW_DASHED1
 62
     7
370
     9
100
AcDbLine
 10
-3028.000018557991
 20
-1684.750083820241
 30
0.0
 11
-3060.000018557989
 21
-1684.750083820241
 31
0.0
  0
LINE
  5
25E
330
1F
100
AcDbEntity
  8
引手
  6
Continuous
 62
     7
370
     9
100
AcDbLine
 10
-3025.00001855799
 20
-1790.750083820242
 30
0.0
 11
-3063.000018557991
 21
-1790.750083820242
 31
0.0
  0
LINE
  5
25F
330
1F
100
AcDbEntity
  8
引手
  6
Continuous
 62
     7
370
     9
100
AcDbLine
 10
-3031.500018557991
 20
-1774.750083820241
 30
0.0
 11
-3056.50001855799
 21
-1774.750083820241
 31
0.0
  0
LINE
  5
260
330
1F
100
AcDbEntity
  8
引手
  6
Continuous
 62
     7
370
     9
100
AcDbLine
 10
-3031.500018557991
 20
-1696.750083820242
 30
0.0
 11
-3056.50001855799
 21
-1696.750083820242
 31
0.0
  0
LINE
  5
261
330
1F
100
AcDbEntity
  8
引手
  6
Continuous
 62
     7
370
     9
100
AcDbLine
 10
-3025.00001855799
 20
-1680.750083820241
 30
0.0
 11
-3063.000018557991
 21
-1680.750083820241
 31
0.0
  0
LINE
  5
262
330
1F
100
AcDbEntity
  8
引手
  6
Continuous
 62
     7
370
     9
100
AcDbLine
 10
-3025.00001855799
 20
-1790.750083820242
 30
0.0
 11
-3025.00001855799
 21
-1680.750083820241
 31
0.0
  0
LINE
  5
263
330
1F
100
AcDbEntity
  8
引手
  6
Continuous
 62
     7
370
     9
100
AcDbLine
 10
-3031.500018557991
 20
-1774.750083820241
 30
0.0
 11
-3031.500018557991
 21
-1696.750083820242
 31
0.0
  0
LINE
  5
264
330
1F
100
AcDbEntity
  8
引手
  6
Continuous
 62
     7
370
     9
100
AcDbLine
 10
-3056.50001855799
 20
-1774.750083820241
 30
0.0
 11
-3056.50001855799
 21
-1696.750083820242
 31
0.0
  0
LINE
  5
265
330
1F
100
AcDbEntity
  8
引手
  6
Continuous
 62
     7
370
     9
100
AcDbLine
 10
-3063.000018557991
 20
-1790.750083820242
 30
0.0
 11
-3063.000018557991
 21
-1680.750083820241
 31
0.0
  0
LINE
  5
266
330
1F
100
AcDbEntity
  8
引手
  6
JWW_CENTER1
 62
     7
370
     9
100
AcDbLine
 10
-4750.074184359308
 20
-1735.750083820242
 30
0.0
 11
-4677.564487750147
 21
-1735.750083820242
 31
0.0
  0
LINE
  5
267
330
1F
100
AcDbEntity
  8
引手
  6
JWW_CENTER1
 62
     7
370
     9
100
AcDbLine
 10
-4712.000018557984
 20
-1820.980752355766
 30
0.0
 11
-4712.000018557984
 21
-1650.13048093163
 31
0.0
  0
LINE
  5
268
330
1F
100
AcDbEntity
  8
引手
  6
JWW_DASHED1
 62
     7
370
     9
100
AcDbLine
 10
-4696.000018557985
 20
-1786.750083820242
 30
0.0
 11
-4696.000018557985
 21
-1684.750083820241
 31
0.0
  0
LINE
  5
269
330
1F
100
AcDbEntity
  8
引手
  6
JWW_DASHED1
 62
     7
370
     9
100
AcDbLine
 10
-4728.000018557983
 20
-1786.750083820242
 30
0.0
 11
-4696.000018557985
 21
-1786.750083820242
 31
0.0
  0
LINE
  5
26A
330
1F
100
AcDbEntity
  8
引手
  6
JWW_DASHED1
 62
     7
370
     9
100
AcDbLine
 10
-4728.000018557983
 20
-1786.750083820242
 30
0.0
 11
-4728.000018557983
 21
-1684.750083820241
 31
0.0
  0
LINE
  5
26B
330
1F
100
AcDbEntity
  8
引手
  6
JWW_DASHED1
 62
     7
370
     9
100
AcDbLine
 10
-4728.000018557983
 20
-1684.750083820241
 30
0.0
 11
-4696.000018557985
 21
-1684.750083820241
 31
0.0
  0
LINE
  5
26C
330
1F
100
AcDbEntity
  8
引手
  6
Continuous
 62
     7
370
     9
100
AcDbLine
 10
-4731.000018557985
 20
-1790.750083820242
 30
0.0
 11
-4693.000018557984
 21
-1790.750083820242
 31
0.0
  0
LINE
  5
26D
330
1F
100
AcDbEntity
  8
引手
  6
Continuous
 62
     7
370
     9
100
AcDbLine
 10
-4724.500018557984
 20
-1774.750083820241
 30
0.0
 11
-4699.500018557985
 21
-1774.750083820241
 31
0.0
  0
LINE
  5
26E
330
1F
100
AcDbEntity
  8
引手
  6
Continuous
 62
     7
370
     9
100
AcDbLine
 10
-4724.500018557984
 20
-1696.750083820242
 30
0.0
 11
-4699.500018557985
 21
-1696.750083820242
 31
0.0
  0
LINE
  5
26F
330
1F
100
AcDbEntity
  8
引手
  6
Continuous
 62
     7
370
     9
100
AcDbLine
 10
-4731.000018557985
 20
-1680.750083820241
 30
0.0
 11
-4693.000018557984
 21
-1680.750083820241
 31
0.0
  0
LINE
  5
270
330
1F
100
AcDbEntity
  8
引手
  6
Continuous
 62
     7
370
     9
100
AcDbLine
 10
-4731.000018557985
 20
-1790.750083820242
 30
0.0
 11
-4731.000018557985
 21
-1680.750083820241
 31
0.0
  0
LINE
  5
271
330
1F
100
AcDbEntity
  8
引手
  6
Continuous
 62
     7
370
     9
100
AcDbLine
 10
-4724.500018557984
 20
-1774.750083820241
 30
0.0
 11
-4724.500018557984
 21
-1696.750083820242
 31
0.0
  0
LINE
  5
272
330
1F
100
AcDbEntity
  8
引手
  6
Continuous
 62
     7
370
     9
100
AcDbLine
 10
-4699.500018557985
 20
-1774.750083820241
 30
0.0
 11
-4699.500018557985
 21
-1696.750083820242
 31
0.0
  0
LINE
  5
273
330
1F
100
AcDbEntity
  8
引手
  6
Continuous
 62
     7
370
     9
100
AcDbLine
 10
-4693.000018557984
 20
-1790.750083820242
 30
0.0
 11
-4693.000018557984
 21
-1680.750083820241
 31
0.0
  0
LINE
  5
274
330
1F
100
AcDbEntity
  8
引手
  6
JWW_CENTER1
 62
     7
370
     9
100
AcDbLine
 10
-1955.07443540763
 20
-1735.750083820242
 30
0.0
 11
-1882.564738798469
 21
-1735.750083820242
 31
0.0
  0
LINE
  5
275
330
1F
100
AcDbEntity
  8
引手
  6
JWW_CENTER1
 62
     7
370
     9
100
AcDbLine
 10
-1917.000269606306
 20
-1820.980752355766
 30
0.0
 11
-1917.000269606306
 21
-1650.13048093163
 31
0.0
  0
LINE
  5
276
330
1F
100
AcDbEntity
  8
引手
  6
JWW_DASHED1
 62
     7
370
     9
100
AcDbLine
 10
-1901.000269606307
 20
-1786.750083820242
 30
0.0
 11
-1901.000269606307
 21
-1684.750083820241
 31
0.0
  0
LINE
  5
277
330
1F
100
AcDbEntity
  8
引手
  6
JWW_DASHED1
 62
     7
370
     9
100
AcDbLine
 10
-1933.000269606305
 20
-1786.750083820242
 30
0.0
 11
-1901.000269606307
 21
-1786.750083820242
 31
0.0
  0
LINE
  5
278
330
1F
100
AcDbEntity
  8
引手
  6
JWW_DASHED1
 62
     7
370
     9
100
AcDbLine
 10
-1933.000269606305
 20
-1786.750083820242
 30
0.0
 11
-1933.000269606305
 21
-1684.750083820241
 31
0.0
  0
LINE
  5
279
330
1F
100
AcDbEntity
  8
引手
  6
JWW_DASHED1
 62
     7
370
     9
100
AcDbLine
 10
-1933.000269606305
 20
-1684.750083820241
 30
0.0
 11
-1901.000269606307
 21
-1684.750083820241
 31
0.0
  0
LINE
  5
27A
330
1F
100
AcDbEntity
  8
引手
  6
Continuous
 62
     7
370
     9
100
AcDbLine
 10
-1936.000269606306
 20
-1790.750083820242
 30
0.0
 11
-1898.000269606305
 21
-1790.750083820242
 31
0.0
  0
LINE
  5
27B
330
1F
100
AcDbEntity
  8
引手
  6
Continuous
 62
     7
370
     9
100
AcDbLine
 10
-1929.500269606305
 20
-1774.750083820241
 30
0.0
 11
-1904.500269606306
 21
-1774.750083820241
 31
0.0
  0
LINE
  5
27C
330
1F
100
AcDbEntity
  8
引手
  6
Continuous
 62
     7
370
     9
100
AcDbLine
 10
-1929.500269606305
 20
-1696.750083820242
 30
0.0
 11
-1904.500269606306
 21
-1696.750083820242
 31
0.0
  0
LINE
  5
27D
330
1F
100
AcDbEntity
  8
引手
  6
Continuous
 62
     7
370
     9
100
AcDbLine
 10
-1936.000269606306
 20
-1680.750083820241
 30
0.0
 11
-1898.000269606305
 21
-1680.750083820241
 31
0.0
  0
LINE
  5
27E
330
1F
100
AcDbEntity
  8
引手
  6
Continuous
 62
     7
370
     9
100
AcDbLine
 10
-1936.000269606306
 20
-1790.750083820242
 30
0.0
 11
-1936.000269606306
 21
-1680.750083820241
 31
0.0
  0
LINE
  5
27F
330
1F
100
AcDbEntity
  8
引手
  6
Continuous
 62
     7
370
     9
100
AcDbLine
 10
-1929.500269606305
 20
-1774.750083820241
 30
0.0
 11
-1929.500269606305
 21
-1696.750083820242
 31
0.0
  0
LINE
  5
280
330
1F
100
AcDbEntity
  8
引手
  6
Continuous
 62
     7
370
     9
100
AcDbLine
 10
-1904.500269606306
 20
-1774.750083820241
 30
0.0
 11
-1904.500269606306
 21
-1696.750083820242
 31
0.0
  0
LINE
  5
281
330
1F
100
AcDbEntity
  8
引手
  6
Continuous
 62
     7
370
     9
100
AcDbLine
 10
-1898.000269606305
 20
-1790.750083820242
 30
0.0
 11
-1898.000269606305
 21
-1680.750083820241
 31
0.0
  0
LINE
  5
282
330
1F
100
AcDbEntity
  8
0-4_枠
  6
Continuous
 62
    92
370
    13
100
AcDbLine
 10
-381.0002696063077
 20
-2701.250083820241
 30
0.0
 11
-381.0002696063077
 21
-2693.045304827405
 31
0.0
  0
LINE
  5
283
330
1F
100
AcDbEntity
  8
0-4_枠
  6
Continuous
 62
    92
370
    13
100
AcDbLine
 10
-2996.000018557986
 20
-2701.250083820241
 30
0.0
 11
-2996.000018557986
 21
-2693.045304827404
 31
0.0
  0
LINE
  5
284
330
1F
100
AcDbEntity
  8
0-4_枠
  6
Continuous
 62
    92
370
    13
100
AcDbLine
 10
-381.0002696063077
 20
-2692.712319017746
 30
0.0
 11
-381.0002696063077
 21
-466.2500838202405
 31
0.0
  0
LINE
  5
285
330
1F
100
AcDbEntity
  8
0-4_枠
  6
Continuous
 62
    92
370
    13
100
AcDbLine
 10
-2996.000018557986
 20
-2692.712319017746
 30
0.0
 11
-2996.000018557986
 21
-466.2500838202401
 31
0.0
  0
LINE
  5
286
330
1F
100
AcDbEntity
  8
0-2_扉
  6
JWW_DASHED1
 62
   120
370
     5
100
AcDbLine
 10
-1968.000269606307
 20
-2693.250083820241
 30
0.0
 11
-1965.000269606306
 21
-2693.250083820241
 31
0.0
  0
LINE
  5
287
330
1F
100
AcDbEntity
  8
0-2_扉
  6
JWW_DASHED1
 62
   120
370
     5
100
AcDbLine
 10
-378.000269606307
 20
-2693.250083820241
 30
0.0
 11
-381.0002696063077
 21
-2693.250083820241
 31
0.0
  0
LINE
  5
288
330
1F
100
AcDbEntity
  8
0-2_扉
  6
JWW_DASHED1
 62
   120
370
     5
100
AcDbLine
 10
-1968.000269606307
 20
-510.2500838202414
 30
0.0
 11
-1968.000269606307
 21
-2693.250083820241
 31
0.0
  0
LINE
  5
289
330
1F
100
AcDbEntity
  8
0-2_扉
  6
JWW_DASHED1
 62
   120
370
     5
100
AcDbLine
 10
-1965.000269606306
 20
-510.2500838202414
 30
0.0
 11
-1968.000269606307
 21
-510.2500838202414
 31
0.0
  0
LINE
  5
28A
330
1F
100
AcDbEntity
  8
0-2_扉
  6
JWW_DASHED1
 62
   120
370
     5
100
AcDbLine
 10
-378.000269606307
 20
-510.2500838202414
 30
0.0
 11
-378.000269606307
 21
-2693.250083820241
 31
0.0
  0
LINE
  5
28B
330
1F
100
AcDbEntity
  8
0-2_扉
  6
JWW_DASHED1
 62
   120
370
     5
100
AcDbLine
 10
-381.0002696063077
 20
-510.2500838202414
 30
0.0
 11
-378.000269606307
 21
-510.2500838202414
 31
0.0
  0
LINE
  5
28C
330
1F
100
AcDbEntity
  8
0-2_扉
  6
JWW_DASHED1
 62
   120
370
     5
100
AcDbLine
 10
-1158.000269606305
 20
-2693.250083820241
 30
0.0
 11
-1158.000269606305
 21
-510.2500838202414
 31
0.0
  0
LINE
  5
28D
330
1F
100
AcDbEntity
  8
0-2_扉
  6
JWW_DASHED1
 62
   120
370
     5
100
AcDbLine
 10
-4763.000018557986
 20
-2693.250083820241
 30
0.0
 11
-4760.000018557985
 21
-2693.250083820241
 31
0.0
  0
LINE
  5
28E
330
1F
100
AcDbEntity
  8
0-2_扉
  6
JWW_DASHED1
 62
   120
370
     5
100
AcDbLine
 10
-2993.000018557989
 20
-2693.250083820241
 30
0.0
 11
-2996.000018557986
 21
-2693.250083820241
 31
0.0
  0
LINE
  5
28F
330
1F
100
AcDbEntity
  8
0-2_扉
  6
JWW_DASHED1
 62
   120
370
     5
100
AcDbLine
 10
-3863.000018557986
 20
-2693.250083820241
 30
0.0
 11
-3863.000018557986
 21
-510.250083820241
 31
0.0
  0
LINE
  5
290
330
1F
100
AcDbEntity
  8
0-2_扉
  6
JWW_DASHED1
 62
   120
370
     5
100
AcDbLine
 10
-4763.000018557986
 20
-510.250083820241
 30
0.0
 11
-4763.000018557986
 21
-2693.250083820241
 31
0.0
  0
LINE
  5
291
330
1F
100
AcDbEntity
  8
0-2_扉
  6
JWW_DASHED1
 62
   120
370
     5
100
AcDbLine
 10
-2993.000018557989
 20
-510.250083820241
 30
0.0
 11
-2993.000018557989
 21
-2693.250083820241
 31
0.0
  0
LINE
  5
292
330
1F
100
AcDbEntity
  8
0-2_扉
  6
JWW_DASHED1
 62
   120
370
     5
100
AcDbLine
 10
-4760.000018557985
 20
-510.250083820241
 30
0.0
 11
-4763.000018557986
 21
-510.250083820241
 31
0.0
  0
LINE
  5
293
330
1F
100
AcDbEntity
  8
0-2_扉
  6
JWW_DASHED1
 62
   120
370
     5
100
AcDbLine
 10
-2996.000018557986
 20
-510.250083820241
 30
0.0
 11
-2993.000018557989
 21
-510.250083820241
 31
0.0
  0
LINE
  5
294
330
1F
100
AcDbEntity
  8
0-2_扉
  6
Continuous
 62
     7
370
     9
100
AcDbLine
 10
-3783.000018557991
 20
-1890.250083820242
 30
0.0
 11
-3530.499936078049
 21
-1890.250083820242
 31
0.0
  0
LINE
  5
295
330
1F
100
AcDbEntity
  8
0-2_扉
  6
Continuous
 62
     7
370
     9
100
AcDbLine
 10
-3783.000018557991
 20
-1995.247584678033
 30
0.0
 11
-3103.000018557989
 21
-1995.247584678033
 31
0.0
  0
LINE
  5
296
330
1F
100
AcDbEntity
  8
0-2_扉
  6
Continuous
 62
     7
370
     9
100
AcDbLine
 10
-3103.000018557989
 20
-1890.250083820242
 30
0.0
 11
-3684.499924530858
 21
-1890.250083820242
 31
0.0
  0
LINE
  5
297
330
1F
100
AcDbEntity
  8
0-2_扉
  6
Continuous
 62
     7
370
     9
100
AcDbLine
 10
-3783.000018557991
 20
-660.2499749467202
 30
0.0
 11
-3103.000018557989
 21
-660.2499749467202
 31
0.0
  0
LINE
  5
298
330
1F
100
AcDbEntity
  8
0-2_扉
  6
Continuous
 62
     7
370
     9
100
AcDbLine
 10
-3783.000018557991
 20
-2468.250083820241
 30
0.0
 11
-3103.000018557989
 21
-2468.250083820241
 31
0.0
  0
LINE
  5
299
330
1F
100
AcDbEntity
  8
0-2_扉
  6
Continuous
 62
     7
370
     9
100
AcDbLine
 10
-3893.000018557992
 20
-510.2499749467202
 30
0.0
 11
-3893.000018557992
 21
-2693.250083820241
 31
0.0
  0
LINE
  5
29A
330
1F
100
AcDbEntity
  8
0-2_扉
  6
Continuous
 62
     7
370
     9
100
AcDbLine
 10
-3783.000018557991
 20
-510.2499749467202
 30
0.0
 11
-3783.000018557991
 21
-2693.250083820241
 31
0.0
  0
LINE
  5
29B
330
1F
100
AcDbEntity
  8
0-2_扉
  6
Continuous
 62
     7
370
     9
100
AcDbLine
 10
-3103.000018557989
 20
-510.2499749467202
 30
0.0
 11
-3103.000018557989
 21
-2693.250083820241
 31
0.0
  0
LINE
  5
29C
330
1F
100
AcDbEntity
  8
0-2_扉
  6
Continuous
 62
     7
370
     9
100
AcDbLine
 10
-3412.000015258791
 20
-1890.250205890555
 30
0.0
 11
-3412.000015258791
 21
-1889.141675485149
 31
0.0
  0
LINE
  5
29D
330
1F
100
AcDbEntity
  8
0-2_扉
  6
Continuous
 62
     7
370
     9
100
AcDbLine
 10
-3893.000018557992
 20
-2693.250083820241
 30
0.0
 11
-2996.000018557988
 21
-2693.250083820241
 31
0.0
  0
LINE
  5
29E
330
1F
100
AcDbEntity
  8
0-2_扉
  6
Continuous
 62
     7
370
     9
100
AcDbLine
 10
-3893.000018557992
 20
-510.2499749467202
 30
0.0
 11
-2996.000018557988
 21
-510.2499749467202
 31
0.0
  0
LINE
  5
29F
330
1F
100
AcDbEntity
  8
0-C_ハッチ
  6
Continuous
 62
   120
370
     5
100
AcDbLine
 10
-3714.85556611012
 20
-660.2499749467198
 30
0.0
 11
-3783.000026805983
 21
-723.3466978132604
 31
0.0
  0
LINE
  5
2A0
330
1F
100
AcDbEntity
  8
0-C_ハッチ
  6
Continuous
 62
   120
370
     5
100
AcDbLine
 10
-3678.058827124172
 20
-660.2499749467198
 30
0.0
 11
-3783.000026805983
 21
-757.4177524298793
 31
0.0
  0
LINE
  5
2A1
330
1F
100
AcDbEntity
  8
0-C_ハッチ
  6
Continuous
 62
   120
370
     5
100
AcDbLine
 10
-3641.262088138224
 20
-660.2499749467198
 30
0.0
 11
-3783.000026805983
 21
-791.4888070464986
 31
0.0
  0
LINE
  5
2A2
330
1F
100
AcDbEntity
  8
0-C_ハッチ
  6
Continuous
 62
   120
370
     5
100
AcDbLine
 10
-3604.465349152276
 20
-660.2499749467198
 30
0.0
 11
-3783.000026805983
 21
-825.559861663117
 31
0.0
  0
LINE
  5
2A3
330
1F
100
AcDbEntity
  8
0-C_ハッチ
  6
Continuous
 62
   120
370
     5
100
AcDbLine
 10
-3751.652305096068
 20
-660.2499749467198
 30
0.0
 11
-3783.000026805983
 21
-689.275643196642
 31
0.0
  0
LINE
  5
2A4
330
1F
100
AcDbEntity
  8
0-C_ハッチ
  6
Continuous
 62
   120
370
     5
100
AcDbLine
 10
-3567.668610166328
 20
-660.2499749467198
 30
0.0
 11
-3783.000026805983
 21
-859.6309162797364
 31
0.0
  0
LINE
  5
2A5
330
1F
100
AcDbEntity
  8
0-C_ハッチ
  6
Continuous
 62
   120
370
     5
100
AcDbLine
 10
-3530.87187118038
 20
-660.2499749467198
 30
0.0
 11
-3783.000026805983
 21
-893.7019708963546
 31
0.0
  0
LINE
  5
2A6
330
1F
100
AcDbEntity
  8
0-C_ハッチ
  6
Continuous
 62
   120
370
     5
100
AcDbLine
 10
-3494.075132194433
 20
-660.2499749467198
 30
0.0
 11
-3783.000026805983
 21
-927.7730255129733
 31
0.0
  0
LINE
  5
2A7
330
1F
100
AcDbEntity
  8
0-C_ハッチ
  6
Continuous
 62
   120
370
     5
100
AcDbLine
 10
-3457.278393208484
 20
-660.2499749467198
 30
0.0
 11
-3783.000026805983
 21
-961.8440801295924
 31
0.0
  0
LINE
  5
2A8
330
1F
100
AcDbEntity
  8
0-C_ハッチ
  6
Continuous
 62
   120
370
     5
100
AcDbLine
 10
-3420.481654222536
 20
-660.2499749467198
 30
0.0
 11
-3783.000026805983
 21
-995.9151347462108
 31
0.0
  0
LINE
  5
2A9
330
1F
100
AcDbEntity
  8
0-C_ハッチ
  6
Continuous
 62
   120
370
     5
100
AcDbLine
 10
-3383.684915236589
 20
-660.2499749467198
 30
0.0
 11
-3783.000026805983
 21
-1029.98618936283
 31
0.0
  0
LINE
  5
2AA
330
1F
100
AcDbEntity
  8
0-C_ハッチ
  6
Continuous
 62
   120
370
     5
100
AcDbLine
 10
-3346.888176250641
 20
-660.2499749467198
 30
0.0
 11
-3783.000026805983
 21
-1064.057243979448
 31
0.0
  0
LINE
  5
2AB
330
1F
100
AcDbEntity
  8
0-C_ハッチ
  6
Continuous
 62
   120
370
     5
100
AcDbLine
 10
-3310.091437264693
 20
-660.2499749467198
 30
0.0
 11
-3783.000026805983
 21
-1098.128298596068
 31
0.0
  0
LINE
  5
2AC
330
1F
100
AcDbEntity
  8
0-C_ハッチ
  6
Continuous
 62
   120
370
     5
100
AcDbLine
 10
-3273.294698278743
 20
-660.2499749467198
 30
0.0
 11
-3783.000026805983
 21
-1132.199353212687
 31
0.0
  0
LINE
  5
2AD
330
1F
100
AcDbEntity
  8
0-C_ハッチ
  6
Continuous
 62
   120
370
     5
100
AcDbLine
 10
-3236.497959292796
 20
-660.2499749467198
 30
0.0
 11
-3783.000026805983
 21
-1166.270407829305
 31
0.0
  0
LINE
  5
2AE
330
1F
100
AcDbEntity
  8
0-C_ハッチ
  6
Continuous
 62
   120
370
     5
100
AcDbLine
 10
-3103.000018557989
 20
-672.9249890291139
 30
0.0
 11
-3783.000026805983
 21
-1302.554626295781
 31
0.0
  0
LINE
  5
2AF
330
1F
100
AcDbEntity
  8
0-C_ハッチ
  6
Continuous
 62
   120
370
     5
100
AcDbLine
 10
-3103.000018557989
 20
-706.9960436457327
 30
0.0
 11
-3783.000026805983
 21
-1336.625680912399
 31
0.0
  0
LINE
  5
2B0
330
1F
100
AcDbEntity
  8
0-C_ハッチ
  6
Continuous
 62
   120
370
     5
100
AcDbLine
 10
-3103.000018557989
 20
-741.067098262352
 30
0.0
 11
-3783.000026805983
 21
-1370.696735529018
 31
0.0
  0
LINE
  5
2B1
330
1F
100
AcDbEntity
  8
0-C_ハッチ
  6
Continuous
 62
   120
370
     5
100
AcDbLine
 10
-3103.000018557989
 20
-775.1381528789705
 30
0.0
 11
-3783.000026805983
 21
-1404.767790145637
 31
0.0
  0
LINE
  5
2B2
330
1F
100
AcDbEntity
  8
0-C_ハッチ
  6
Continuous
 62
   120
370
     5
100
AcDbLine
 10
-3103.000018557989
 20
-809.2092074955897
 30
0.0
 11
-3783.000026805983
 21
-1438.838844762257
 31
0.0
  0
LINE
  5
2B3
330
1F
100
AcDbEntity
  8
0-C_ハッチ
  6
Continuous
 62
   120
370
     5
100
AcDbLine
 10
-3103.000018557989
 20
-843.2802621122083
 30
0.0
 11
-3783.000026805983
 21
-1472.909899378875
 31
0.0
  0
LINE
  5
2B4
330
1F
100
AcDbEntity
  8
0-C_ハッチ
  6
Continuous
 62
   120
370
     5
100
AcDbLine
 10
-3103.000018557989
 20
-877.351316728827
 30
0.0
 11
-3783.000026805983
 21
-1506.980953995496
 31
0.0
  0
LINE
  5
2B5
330
1F
100
AcDbEntity
  8
0-C_ハッチ
  6
Continuous
 62
   120
370
     5
100
AcDbLine
 10
-3103.000018557989
 20
-911.4223713454459
 30
0.0
 11
-3783.000026805983
 21
-1541.052008612113
 31
0.0
  0
LINE
  5
2B6
330
1F
100
AcDbEntity
  8
0-C_ハッチ
  6
Continuous
 62
   120
370
     5
100
AcDbLine
 10
-3103.000018557989
 20
-1013.635535195303
 30
0.0
 11
-3783.000026805983
 21
-1643.26517246197
 31
0.0
  0
LINE
  5
2B7
330
1F
100
AcDbEntity
  8
0-C_ハッチ
  6
Continuous
 62
   120
370
     5
100
AcDbLine
 10
-3103.000018557989
 20
-1047.706589811921
 30
0.0
 11
-3783.000026805983
 21
-1677.336227078588
 31
0.0
  0
LINE
  5
2B8
330
1F
100
AcDbEntity
  8
0-C_ハッチ
  6
Continuous
 62
   120
370
     5
100
AcDbLine
 10
-3103.000018557989
 20
-945.4934259620647
 30
0.0
 11
-3783.000018557989
 21
-1575.123055591701
 31
0.0
  0
LINE
  5
2B9
330
1F
100
AcDbEntity
  8
0-C_ハッチ
  6
Continuous
 62
   120
370
     5
100
AcDbLine
 10
-3103.000018557989
 20
-979.5644805786835
 30
0.0
 11
-3783.000018557989
 21
-1609.194110208319
 31
0.0
  0
LINE
  5
2BA
330
1F
100
AcDbEntity
  8
0-C_ハッチ
  6
Continuous
 62
   120
370
     5
100
AcDbLine
 10
-3199.701220306848
 20
-660.2499749467198
 30
0.0
 11
-3783.000026805983
 21
-1200.341462445924
 31
0.0
  0
LINE
  5
2BB
330
1F
100
AcDbEntity
  8
0-C_ハッチ
  6
Continuous
 62
   120
370
     5
100
AcDbLine
 10
-3126.107742334952
 20
-660.2499749467198
 30
0.0
 11
-3783.000026805983
 21
-1268.483571679162
 31
0.0
  0
LINE
  5
2BC
330
1F
100
AcDbEntity
  8
0-C_ハッチ
  6
Continuous
 62
   120
370
     5
100
AcDbLine
 10
-3162.9044813209
 20
-660.2499749467198
 30
0.0
 11
-3783.000026805983
 21
-1234.412517062544
 31
0.0
  0
LINE
  5
2BD
330
1F
100
AcDbEntity
  8
0-C_ハッチ
  6
Continuous
 62
   120
370
     5
100
AcDbLine
 10
-3103.000018557989
 20
-1592.84346367783
 30
0.0
 11
-3424.19916831181
 21
-1890.250083820242
 31
0.0
  0
LINE
  5
2BE
330
1F
100
AcDbEntity
  8
0-C_ハッチ
  6
Continuous
 62
   120
370
     5
100
AcDbLine
 10
-3103.000018557989
 20
-1524.701354444593
 30
0.0
 11
-3497.792646283707
 21
-1890.250083820242
 31
0.0
  0
LINE
  5
2BF
330
1F
100
AcDbEntity
  8
0-C_ハッチ
  6
Continuous
 62
   120
370
     5
100
AcDbLine
 10
-3103.000018557989
 20
-1286.203972128253
 30
0.0
 11
-3755.369819185333
 21
-1890.250083820242
 31
0.0
  0
LINE
  5
2C0
330
1F
100
AcDbEntity
  8
0-C_ハッチ
  6
Continuous
 62
   120
370
     5
100
AcDbLine
 10
-3103.000018557989
 20
-1320.275026744872
 30
0.0
 11
-3718.573080199385
 21
-1890.250083820242
 31
0.0
  0
LINE
  5
2C1
330
1F
100
AcDbEntity
  8
0-C_ハッチ
  6
Continuous
 62
   120
370
     5
100
AcDbLine
 10
-3103.000018557989
 20
-1354.346081361491
 30
0.0
 11
-3681.776341213436
 21
-1890.250083820242
 31
0.0
  0
LINE
  5
2C2
330
1F
100
AcDbEntity
  8
0-C_ハッチ
  6
Continuous
 62
   120
370
     5
100
AcDbLine
 10
-3103.000018557989
 20
-1388.417135978109
 30
0.0
 11
-3644.979602227488
 21
-1890.250083820242
 31
0.0
  0
LINE
  5
2C3
330
1F
100
AcDbEntity
  8
0-C_ハッチ
  6
Continuous
 62
   120
370
     5
100
AcDbLine
 10
-3103.000018557989
 20
-1422.488190594728
 30
0.0
 11
-3608.18286324154
 21
-1890.250083820242
 31
0.0
  0
LINE
  5
2C4
330
1F
100
AcDbEntity
  8
0-C_ハッチ
  6
Continuous
 62
   120
370
     5
100
AcDbLine
 10
-3103.000018557989
 20
-1456.559245211347
 30
0.0
 11
-3571.386124255592
 21
-1890.250083820242
 31
0.0
  0
LINE
  5
2C5
330
1F
100
AcDbEntity
  8
0-C_ハッチ
  6
Continuous
 62
   120
370
     5
100
AcDbLine
 10
-3103.000018557989
 20
-1490.630299827969
 30
0.0
 11
-3534.589385269648
 21
-1890.250083820242
 31
0.0
  0
LINE
  5
2C6
330
1F
100
AcDbEntity
  8
0-C_ハッチ
  6
Continuous
 62
   120
370
     5
100
AcDbLine
 10
-3103.000018557989
 20
-1558.772409061211
 30
0.0
 11
-3460.995907297758
 21
-1890.250083820242
 31
0.0
  0
LINE
  5
2C7
330
1F
100
AcDbEntity
  8
0-C_ハッチ
  6
Continuous
 62
   120
370
     5
100
AcDbLine
 10
-3103.000018557989
 20
-1626.914518294448
 30
0.0
 11
-3387.402429325861
 21
-1890.250083820242
 31
0.0
  0
LINE
  5
2C8
330
1F
100
AcDbEntity
  8
0-C_ハッチ
  6
Continuous
 62
   120
370
     5
100
AcDbLine
 10
-3103.000018557989
 20
-1660.985572911066
 30
0.0
 11
-3350.605690339912
 21
-1890.250083820242
 31
0.0
  0
LINE
  5
2C9
330
1F
100
AcDbEntity
  8
0-C_ハッチ
  6
Continuous
 62
   120
370
     5
100
AcDbLine
 10
-3103.000018557989
 20
-1081.77764442854
 30
0.0
 11
-3783.000018557991
 21
-1711.407274058177
 31
0.0
  0
LINE
  5
2CA
330
1F
100
AcDbEntity
  8
0-C_ハッチ
  6
Continuous
 62
   120
370
     5
100
AcDbLine
 10
-3103.000018557989
 20
-1252.132917511634
 30
0.0
 11
-3783.000018557991
 21
-1881.76254714127
 31
0.0
  0
LINE
  5
2CB
330
1F
100
AcDbEntity
  8
0-C_ハッチ
  6
Continuous
 62
   120
370
     5
100
AcDbLine
 10
-3103.000018557989
 20
-1115.848699045159
 30
0.0
 11
-3783.000018557991
 21
-1745.478328674796
 31
0.0
  0
LINE
  5
2CC
330
1F
100
AcDbEntity
  8
0-C_ハッチ
  6
Continuous
 62
   120
370
     5
100
AcDbLine
 10
-3103.000018557989
 20
-1149.919753661777
 30
0.0
 11
-3783.000018557991
 21
-1779.549383291415
 31
0.0
  0
LINE
  5
2CD
330
1F
100
AcDbEntity
  8
0-C_ハッチ
  6
Continuous
 62
   120
370
     5
100
AcDbLine
 10
-3103.000018557989
 20
-1183.990808278397
 30
0.0
 11
-3783.000018557991
 21
-1813.620437908033
 31
0.0
  0
LINE
  5
2CE
330
1F
100
AcDbEntity
  8
0-C_ハッチ
  6
Continuous
 62
   120
370
     5
100
AcDbLine
 10
-3103.000018557989
 20
-1218.061862895016
 30
0.0
 11
-3783.000018557991
 21
-1847.691492524653
 31
0.0
  0
LINE
  5
2CF
330
1F
100
AcDbEntity
  8
0-C_ハッチ
  6
Continuous
 62
   120
370
     5
100
AcDbLine
 10
-3103.000018557989
 20
-1695.056627527684
 30
0.0
 11
-3313.808951353962
 21
-1890.250083820242
 31
0.0
  0
LINE
  5
2D0
330
1F
100
AcDbEntity
  8
0-C_ハッチ
  6
Continuous
 62
   120
370
     5
100
AcDbLine
 10
-3103.000018557989
 20
-1729.127682144302
 30
0.0
 11
-3277.012212368013
 21
-1890.250083820242
 31
0.0
  0
LINE
  5
2D1
330
1F
100
AcDbEntity
  8
0-C_ハッチ
  6
Continuous
 62
   120
370
     5
100
AcDbLine
 10
-3103.000018557989
 20
-1865.411900610773
 30
0.0
 11
-3129.825256424217
 21
-1890.250083820242
 31
0.0
  0
LINE
  5
2D2
330
1F
100
AcDbEntity
  8
0-C_ハッチ
  6
Continuous
 62
   120
370
     5
100
AcDbLine
 10
-3103.000018557989
 20
-1763.19873676092
 30
0.0
 11
-3240.215473382064
 21
-1890.250083820242
 31
0.0
  0
LINE
  5
2D3
330
1F
100
AcDbEntity
  8
0-C_ハッチ
  6
Continuous
 62
   120
370
     5
100
AcDbLine
 10
-3103.000018557989
 20
-1797.269791377538
 30
0.0
 11
-3203.418734396114
 21
-1890.250083820242
 31
0.0
  0
LINE
  5
2D4
330
1F
100
AcDbEntity
  8
0-C_ハッチ
  6
Continuous
 62
   120
370
     5
100
AcDbLine
 10
-3103.000018557989
 20
-1831.340845994156
 30
0.0
 11
-3166.621995410165
 21
-1890.250083820242
 31
0.0
  0
LINE
  5
2D5
330
1F
100
AcDbEntity
  8
0-2_扉
  6
Continuous
 62
     7
370
     9
100
AcDbLine
 10
-3973.000018557982
 20
-1890.250083820242
 30
0.0
 11
-4225.500101037923
 21
-1890.250083820242
 31
0.0
  0
LINE
  5
2D6
330
1F
100
AcDbEntity
  8
0-2_扉
  6
Continuous
 62
     7
370
     9
100
AcDbLine
 10
-3973.000018557982
 20
-1995.247584678033
 30
0.0
 11
-4653.000018557983
 21
-1995.247584678033
 31
0.0
  0
LINE
  5
2D7
330
1F
100
AcDbEntity
  8
0-2_扉
  6
Continuous
 62
     7
370
     9
100
AcDbLine
 10
-4653.000018557983
 20
-1890.250083820242
 30
0.0
 11
-4071.500112585115
 21
-1890.250083820242
 31
0.0
  0
LINE
  5
2D8
330
1F
100
AcDbEntity
  8
0-2_扉
  6
Continuous
 62
     7
370
     9
100
AcDbLine
 10
-3973.000018557982
 20
-660.2499749467202
 30
0.0
 11
-4653.000018557983
 21
-660.2499749467202
 31
0.0
  0
LINE
  5
2D9
330
1F
100
AcDbEntity
  8
0-2_扉
  6
Continuous
 62
     7
370
     9
100
AcDbLine
 10
-3973.000018557982
 20
-2468.250083820241
 30
0.0
 11
-4653.000018557983
 21
-2468.250083820241
 31
0.0
  0
LINE
  5
2DA
330
1F
100
AcDbEntity
  8
0-2_扉
  6
Continuous
 62
     7
370
     9
100
AcDbLine
 10
-3973.000018557982
 20
-510.2499749467202
 30
0.0
 11
-3973.000018557982
 21
-2693.250083820241
 31
0.0
  0
LINE
  5
2DB
330
1F
100
AcDbEntity
  8
0-2_扉
  6
Continuous
 62
     7
370
     9
100
AcDbLine
 10
-4653.000018557983
 20
-510.2499749467202
 30
0.0
 11
-4653.000018557983
 21
-2693.250083820241
 31
0.0
  0
LINE
  5
2DC
330
1F
100
AcDbEntity
  8
0-2_扉
  6
Continuous
 62
     7
370
     9
100
AcDbLine
 10
-4344.000021857182
 20
-1890.250205890555
 30
0.0
 11
-4344.000021857182
 21
-1889.141675485149
 31
0.0
  0
LINE
  5
2DD
330
1F
100
AcDbEntity
  8
0-2_扉
  6
Continuous
 62
     7
370
     9
100
AcDbLine
 10
-3863.000018557981
 20
-2693.250083820241
 30
0.0
 11
-4760.000018557985
 21
-2693.250083820241
 31
0.0
  0
LINE
  5
2DE
330
1F
100
AcDbEntity
  8
0-2_扉
  6
Continuous
 62
     7
370
     9
100
AcDbLine
 10
-3863.000018557981
 20
-510.2499749467202
 30
0.0
 11
-4760.000018557985
 21
-510.2499749467202
 31
0.0
  0
LINE
  5
2DF
330
1F
100
AcDbEntity
  8
0-2_扉
  6
Continuous
 62
     7
370
     9
100
AcDbLine
 10
-1078.000220118341
 20
-1890.250083820242
 30
0.0
 11
-870.5002861022934
 21
-1890.250083820242
 31
0.0
  0
LINE
  5
2E0
330
1F
100
AcDbEntity
  8
0-2_扉
  6
Continuous
 62
     7
370
     9
100
AcDbLine
 10
-488.0002696063071
 20
-1890.250083820242
 30
0.0
 11
-1024.500150835191
 21
-1890.250083820242
 31
0.0
  0
LINE
  5
2E1
330
1F
100
AcDbEntity
  8
0-2_扉
  6
Continuous
 62
     7
370
     9
100
AcDbLine
 10
-1078.000220118341
 20
-1995.247584678033
 30
0.0
 11
-488.0002696063071
 21
-1995.247584678033
 31
0.0
  0
LINE
  5
2E2
330
1F
100
AcDbEntity
  8
0-2_扉
  6
Continuous
 62
     7
370
     9
100
AcDbLine
 10
-1078.000220118341
 20
-660.2500368066757
 30
0.0
 11
-488.0002696063071
 21
-660.2500368066757
 31
0.0
  0
LINE
  5
2E3
330
1F
100
AcDbEntity
  8
0-2_扉
  6
Continuous
 62
     7
370
     9
100
AcDbLine
 10
-1078.000220118341
 20
-2468.250083820243
 30
0.0
 11
-488.0002696063071
 21
-2468.250083820243
 31
0.0
  0
LINE
  5
2E4
330
1F
100
AcDbEntity
  8
0-2_扉
  6
Continuous
 62
     7
370
     9
100
AcDbLine
 10
-1188.000220118341
 20
-510.2500368066757
 30
0.0
 11
-1188.000220118341
 21
-2693.250083820241
 31
0.0
  0
LINE
  5
2E5
330
1F
100
AcDbEntity
  8
0-2_扉
  6
Continuous
 62
     7
370
     9
100
AcDbLine
 10
-1078.000220118341
 20
-510.2500368066757
 30
0.0
 11
-1078.000220118341
 21
-2693.250083820241
 31
0.0
  0
LINE
  5
2E6
330
1F
100
AcDbEntity
  8
0-2_扉
  6
Continuous
 62
     7
370
     9
100
AcDbLine
 10
-488.0002696063071
 20
-510.2500368066757
 30
0.0
 11
-488.0002696063071
 21
-2693.250083820241
 31
0.0
  0
LINE
  5
2E7
330
1F
100
AcDbEntity
  8
0-2_扉
  6
Continuous
 62
     7
370
     9
100
AcDbLine
 10
-707.0002168191435
 20
-1890.250205890555
 30
0.0
 11
-707.0002168191435
 21
-1889.141675485149
 31
0.0
  0
LINE
  5
2E8
330
1F
100
AcDbEntity
  8
0-2_扉
  6
Continuous
 62
     7
370
     9
100
AcDbLine
 10
-1188.000220118341
 20
-2693.250083820241
 30
0.0
 11
-381.0002696063066
 21
-2693.250083820241
 31
0.0
  0
LINE
  5
2E9
330
1F
100
AcDbEntity
  8
0-2_扉
  6
Continuous
 62
     7
370
     9
100
AcDbLine
 10
-1188.000220118341
 20
-510.2500368066757
 30
0.0
 11
-381.0002696063066
 21
-510.2500368066757
 31
0.0
  0
LINE
  5
2EA
330
1F
100
AcDbEntity
  8
0-C_ハッチ
  6
Continuous
 62
   120
370
     5
100
AcDbLine
 10
-1009.855767670473
 20
-660.2499749467198
 30
0.0
 11
-1078.000228366337
 21
-723.3466978132604
 31
0.0
  0
LINE
  5
2EB
330
1F
100
AcDbEntity
  8
0-C_ハッチ
  6
Continuous
 62
   120
370
     5
100
AcDbLine
 10
-973.0590286845254
 20
-660.2499749467198
 30
0.0
 11
-1078.000228366337
 21
-757.4177524298793
 31
0.0
  0
LINE
  5
2EC
330
1F
100
AcDbEntity
  8
0-C_ハッチ
  6
Continuous
 62
   120
370
     5
100
AcDbLine
 10
-936.2622896985773
 20
-660.2499749467198
 30
0.0
 11
-1078.000228366337
 21
-791.4888070464986
 31
0.0
  0
LINE
  5
2ED
330
1F
100
AcDbEntity
  8
0-C_ハッチ
  6
Continuous
 62
   120
370
     5
100
AcDbLine
 10
-899.4655507126291
 20
-660.2499749467198
 30
0.0
 11
-1078.000228366337
 21
-825.559861663117
 31
0.0
  0
LINE
  5
2EE
330
1F
100
AcDbEntity
  8
0-C_ハッチ
  6
Continuous
 62
   120
370
     5
100
AcDbLine
 10
-1046.652506656421
 20
-660.2499749467198
 30
0.0
 11
-1078.000228366337
 21
-689.275643196642
 31
0.0
  0
LINE
  5
2EF
330
1F
100
AcDbEntity
  8
0-C_ハッチ
  6
Continuous
 62
   120
370
     5
100
AcDbLine
 10
-862.668811726681
 20
-660.2499749467198
 30
0.0
 11
-1078.000228366337
 21
-859.6309162797364
 31
0.0
  0
LINE
  5
2F0
330
1F
100
AcDbEntity
  8
0-C_ハッチ
  6
Continuous
 62
   120
370
     5
100
AcDbLine
 10
-825.8720727407338
 20
-660.2499749467198
 30
0.0
 11
-1078.000228366337
 21
-893.7019708963546
 31
0.0
  0
LINE
  5
2F1
330
1F
100
AcDbEntity
  8
0-C_ハッチ
  6
Continuous
 62
   120
370
     5
100
AcDbLine
 10
-789.0753337547856
 20
-660.2499749467198
 30
0.0
 11
-1078.000228366337
 21
-927.7730255129733
 31
0.0
  0
LINE
  5
2F2
330
1F
100
AcDbEntity
  8
0-C_ハッチ
  6
Continuous
 62
   120
370
     5
100
AcDbLine
 10
-752.2785947688375
 20
-660.2499749467198
 30
0.0
 11
-1078.000228366337
 21
-961.8440801295924
 31
0.0
  0
LINE
  5
2F3
330
1F
100
AcDbEntity
  8
0-C_ハッチ
  6
Continuous
 62
   120
370
     5
100
AcDbLine
 10
-715.4818557828893
 20
-660.2499749467198
 30
0.0
 11
-1078.000228366337
 21
-995.9151347462108
 31
0.0
  0
LINE
  5
2F4
330
1F
100
AcDbEntity
  8
0-C_ハッチ
  6
Continuous
 62
   120
370
     5
100
AcDbLine
 10
-678.685116796942
 20
-660.2499749467198
 30
0.0
 11
-1078.000228366337
 21
-1029.98618936283
 31
0.0
  0
LINE
  5
2F5
330
1F
100
AcDbEntity
  8
0-C_ハッチ
  6
Continuous
 62
   120
370
     5
100
AcDbLine
 10
-641.8883778109939
 20
-660.2499749467198
 30
0.0
 11
-1078.000228366337
 21
-1064.057243979448
 31
0.0
  0
LINE
  5
2F6
330
1F
100
AcDbEntity
  8
0-C_ハッチ
  6
Continuous
 62
   120
370
     5
100
AcDbLine
 10
-605.0916388250457
 20
-660.2499749467198
 30
0.0
 11
-1078.000228366337
 21
-1098.128298596068
 31
0.0
  0
LINE
  5
2F7
330
1F
100
AcDbEntity
  8
0-C_ハッチ
  6
Continuous
 62
   120
370
     5
100
AcDbLine
 10
-568.2948998390967
 20
-660.2499749467198
 30
0.0
 11
-1078.000228366337
 21
-1132.199353212687
 31
0.0
  0
LINE
  5
2F8
330
1F
100
AcDbEntity
  8
0-C_ハッチ
  6
Continuous
 62
   120
370
     5
100
AcDbLine
 10
-531.4981608531486
 20
-660.2499749467198
 30
0.0
 11
-1078.000228366337
 21
-1166.270407829305
 31
0.0
  0
LINE
  5
2F9
330
1F
100
AcDbEntity
  8
0-C_ハッチ
  6
Continuous
 62
   120
370
     5
100
AcDbLine
 10
-494.7014218672005
 20
-660.2499749467198
 30
0.0
 11
-1078.000228366337
 21
-1200.341462445924
 31
0.0
  0
LINE
  5
2FA
330
1F
100
AcDbEntity
  8
0-C_ハッチ
  6
Continuous
 62
   120
370
     5
100
AcDbLine
 10
-488.0002696063069
 20
-688.1162589513996
 30
0.0
 11
-1078.000228366337
 21
-1234.412517062544
 31
0.0
  0
LINE
  5
2FB
330
1F
100
AcDbEntity
  8
0-C_ハッチ
  6
Continuous
 62
   120
370
     5
100
AcDbLine
 10
-488.0002696063069
 20
-756.2583681846377
 30
0.0
 11
-1078.000228366337
 21
-1302.554626295781
 31
0.0
  0
LINE
  5
2FC
330
1F
100
AcDbEntity
  8
0-C_ハッチ
  6
Continuous
 62
   120
370
     5
100
AcDbLine
 10
-488.0002696063069
 20
-790.3294228012566
 30
0.0
 11
-1078.000228366337
 21
-1336.625680912399
 31
0.0
  0
LINE
  5
2FD
330
1F
100
AcDbEntity
  8
0-C_ハッチ
  6
Continuous
 62
   120
370
     5
100
AcDbLine
 10
-488.0002696063069
 20
-824.4004774178758
 30
0.0
 11
-1078.000228366337
 21
-1370.696735529018
 31
0.0
  0
LINE
  5
2FE
330
1F
100
AcDbEntity
  8
0-C_ハッチ
  6
Continuous
 62
   120
370
     5
100
AcDbLine
 10
-488.0002696063069
 20
-858.4715320344942
 30
0.0
 11
-1078.000228366337
 21
-1404.767790145637
 31
0.0
  0
LINE
  5
2FF
330
1F
100
AcDbEntity
  8
0-C_ハッチ
  6
Continuous
 62
   120
370
     5
100
AcDbLine
 10
-488.0002696063069
 20
-892.5425866511135
 30
0.0
 11
-1078.000228366337
 21
-1438.838844762257
 31
0.0
  0
LINE
  5
300
330
1F
100
AcDbEntity
  8
0-C_ハッチ
  6
Continuous
 62
   120
370
     5
100
AcDbLine
 10
-488.0002696063069
 20
-926.613641267732
 30
0.0
 11
-1078.000228366337
 21
-1472.909899378875
 31
0.0
  0
LINE
  5
301
330
1F
100
AcDbEntity
  8
0-C_ハッチ
  6
Continuous
 62
   120
370
     5
100
AcDbLine
 10
-488.0002696063069
 20
-960.6846958843507
 30
0.0
 11
-1078.000228366337
 21
-1506.980953995496
 31
0.0
  0
LINE
  5
302
330
1F
100
AcDbEntity
  8
0-C_ハッチ
  6
Continuous
 62
   120
370
     5
100
AcDbLine
 10
-488.0002696063069
 20
-994.7557505009696
 30
0.0
 11
-1078.000228366337
 21
-1541.052008612113
 31
0.0
  0
LINE
  5
303
330
1F
100
AcDbEntity
  8
0-C_ハッチ
  6
Continuous
 62
   120
370
     5
100
AcDbLine
 10
-488.0002696063069
 20
-1096.968914350827
 30
0.0
 11
-1078.000228366337
 21
-1643.26517246197
 31
0.0
  0
LINE
  5
304
330
1F
100
AcDbEntity
  8
0-C_ハッチ
  6
Continuous
 62
   120
370
     5
100
AcDbLine
 10
-488.0002696063069
 20
-1028.826805117588
 30
0.0
 11
-1078.000220118342
 21
-1575.123055591701
 31
0.0
  0
LINE
  5
305
330
1F
100
AcDbEntity
  8
0-C_ハッチ
  6
Continuous
 62
   120
370
     5
100
AcDbLine
 10
-488.0002696063069
 20
-1062.897859734207
 30
0.0
 11
-1078.000220118342
 21
-1609.194110208319
 31
0.0
  0
LINE
  5
306
330
1F
100
AcDbEntity
  8
0-C_ハッチ
  6
Continuous
 62
   120
370
     5
100
AcDbLine
 10
-488.0002696063069
 20
-722.1873135680188
 30
0.0
 11
-1078.000228366337
 21
-1268.483571679162
 31
0.0
  0
LINE
  5
307
330
1F
100
AcDbEntity
  8
0-C_ハッチ
  6
Continuous
 62
   120
370
     5
100
AcDbLine
 10
-488.0002696063069
 20
-1676.176842833349
 30
0.0
 11
-719.199369872165
 21
-1890.250083820242
 31
0.0
  0
LINE
  5
308
330
1F
100
AcDbEntity
  8
0-C_ハッチ
  6
Continuous
 62
   120
370
     5
100
AcDbLine
 10
-488.0002696063069
 20
-1608.034733600112
 30
0.0
 11
-792.7928478440596
 21
-1890.250083820242
 31
0.0
  0
LINE
  5
309
330
1F
100
AcDbEntity
  8
0-C_ハッチ
  6
Continuous
 62
   120
370
     5
100
AcDbLine
 10
-488.0002696063069
 20
-1369.537351283776
 30
0.0
 11
-1050.370020745686
 21
-1890.250083820242
 31
0.0
  0
LINE
  5
30A
330
1F
100
AcDbEntity
  8
0-C_ハッチ
  6
Continuous
 62
   120
370
     5
100
AcDbLine
 10
-488.0002696063069
 20
-1403.608405900395
 30
0.0
 11
-1013.573281759738
 21
-1890.250083820242
 31
0.0
  0
LINE
  5
30B
330
1F
100
AcDbEntity
  8
0-C_ハッチ
  6
Continuous
 62
   120
370
     5
100
AcDbLine
 10
-488.0002696063069
 20
-1437.679460517014
 30
0.0
 11
-976.7765427737895
 21
-1890.250083820242
 31
0.0
  0
LINE
  5
30C
330
1F
100
AcDbEntity
  8
0-C_ハッチ
  6
Continuous
 62
   120
370
     5
100
AcDbLine
 10
-488.0002696063069
 20
-1471.750515133633
 30
0.0
 11
-939.9798037878414
 21
-1890.250083820242
 31
0.0
  0
LINE
  5
30D
330
1F
100
AcDbEntity
  8
0-C_ハッチ
  6
Continuous
 62
   120
370
     5
100
AcDbLine
 10
-488.0002696063069
 20
-1505.821569750251
 30
0.0
 11
-903.1830648018931
 21
-1890.250083820242
 31
0.0
  0
LINE
  5
30E
330
1F
100
AcDbEntity
  8
0-C_ハッチ
  6
Continuous
 62
   120
370
     5
100
AcDbLine
 10
-488.0002696063069
 20
-1539.89262436687
 30
0.0
 11
-866.3863258159449
 21
-1890.250083820242
 31
0.0
  0
LINE
  5
30F
330
1F
100
AcDbEntity
  8
0-C_ハッチ
  6
Continuous
 62
   120
370
     5
100
AcDbLine
 10
-488.0002696063069
 20
-1573.963678983491
 30
0.0
 11
-829.5895868300013
 21
-1890.250083820242
 31
0.0
  0
LINE
  5
310
330
1F
100
AcDbEntity
  8
0-C_ハッチ
  6
Continuous
 62
   120
370
     5
100
AcDbLine
 10
-488.0002696063069
 20
-1642.10578821673
 30
0.0
 11
-755.9961088581108
 21
-1890.250083820242
 31
0.0
  0
LINE
  5
311
330
1F
100
AcDbEntity
  8
0-C_ハッチ
  6
Continuous
 62
   120
370
     5
100
AcDbLine
 10
-488.0002696063069
 20
-1131.039968967445
 30
0.0
 11
-1078.000220118341
 21
-1677.336219441556
 31
0.0
  0
LINE
  5
312
330
1F
100
AcDbEntity
  8
0-C_ハッチ
  6
Continuous
 62
   120
370
     5
100
AcDbLine
 10
-488.0002696063069
 20
-1335.466296667158
 30
0.0
 11
-1078.000220118341
 21
-1881.762547141268
 31
0.0
  0
LINE
  5
313
330
1F
100
AcDbEntity
  8
0-C_ハッチ
  6
Continuous
 62
   120
370
     5
100
AcDbLine
 10
-488.0002696063069
 20
-1165.111023584064
 30
0.0
 11
-1078.000220118341
 21
-1711.407274058175
 31
0.0
  0
LINE
  5
314
330
1F
100
AcDbEntity
  8
0-C_ハッチ
  6
Continuous
 62
   120
370
     5
100
AcDbLine
 10
-488.0002696063069
 20
-1199.182078200683
 30
0.0
 11
-1078.000220118341
 21
-1745.478328674793
 31
0.0
  0
LINE
  5
315
330
1F
100
AcDbEntity
  8
0-C_ハッチ
  6
Continuous
 62
   120
370
     5
100
AcDbLine
 10
-488.0002696063069
 20
-1233.253132817301
 30
0.0
 11
-1078.000220118341
 21
-1779.549383291413
 31
0.0
  0
LINE
  5
316
330
1F
100
AcDbEntity
  8
0-C_ハッチ
  6
Continuous
 62
   120
370
     5
100
AcDbLine
 10
-488.0002696063069
 20
-1267.32418743392
 30
0.0
 11
-1078.000220118341
 21
-1813.620437908031
 31
0.0
  0
LINE
  5
317
330
1F
100
AcDbEntity
  8
0-C_ハッチ
  6
Continuous
 62
   120
370
     5
100
AcDbLine
 10
-488.0002696063069
 20
-1301.39524205054
 30
0.0
 11
-1078.000220118341
 21
-1847.69149252465
 31
0.0
  0
LINE
  5
318
330
1F
100
AcDbEntity
  8
0-C_ハッチ
  6
Continuous
 62
   120
370
     5
100
AcDbLine
 10
-488.0002696063071
 20
-1710.247897449967
 30
0.0
 11
-682.4026308862155
 21
-1890.250083820242
 31
0.0
  0
LINE
  5
319
330
1F
100
AcDbEntity
  8
0-C_ハッチ
  6
Continuous
 62
   120
370
     5
100
AcDbLine
 10
-488.0002696063071
 20
-1880.603170533056
 30
0.0
 11
-498.4189359564687
 21
-1890.250083820242
 31
0.0
  0
LINE
  5
31A
330
1F
100
AcDbEntity
  8
0-C_ハッチ
  6
Continuous
 62
   120
370
     5
100
AcDbLine
 10
-488.0002696063071
 20
-1744.318952066585
 30
0.0
 11
-645.6058919002663
 21
-1890.250083820242
 31
0.0
  0
LINE
  5
31B
330
1F
100
AcDbEntity
  8
0-C_ハッチ
  6
Continuous
 62
   120
370
     5
100
AcDbLine
 10
-488.0002696063071
 20
-1778.390006683203
 30
0.0
 11
-608.8091529143167
 21
-1890.250083820242
 31
0.0
  0
LINE
  5
31C
330
1F
100
AcDbEntity
  8
0-C_ハッチ
  6
Continuous
 62
   120
370
     5
100
AcDbLine
 10
-488.0002696063071
 20
-1812.46106129982
 30
0.0
 11
-572.0124139283674
 21
-1890.250083820242
 31
0.0
  0
LINE
  5
31D
330
1F
100
AcDbEntity
  8
0-C_ハッチ
  6
Continuous
 62
   120
370
     5
100
AcDbLine
 10
-488.0002696063071
 20
-1846.532115916438
 30
0.0
 11
-535.2156749424182
 21
-1890.250083820242
 31
0.0
  0
LINE
  5
31E
330
1F
100
AcDbEntity
  8
0-2_扉
  6
Continuous
 62
     7
370
     9
100
AcDbLine
 10
-1268.000319094272
 20
-1890.250083820242
 30
0.0
 11
-1475.50025311032
 21
-1890.250083820242
 31
0.0
  0
LINE
  5
31F
330
1F
100
AcDbEntity
  8
0-2_扉
  6
Continuous
 62
     7
370
     9
100
AcDbLine
 10
-1858.000269606306
 20
-1890.250083820242
 30
0.0
 11
-1321.500388377422
 21
-1890.250083820242
 31
0.0
  0
LINE
  5
320
330
1F
100
AcDbEntity
  8
0-2_扉
  6
Continuous
 62
     7
370
     9
100
AcDbLine
 10
-1268.000319094272
 20
-1995.247584678033
 30
0.0
 11
-1858.000269606306
 21
-1995.247584678033
 31
0.0
  0
LINE
  5
321
330
1F
100
AcDbEntity
  8
0-2_扉
  6
Continuous
 62
     7
370
     9
100
AcDbLine
 10
-1268.000319094272
 20
-660.2500368066757
 30
0.0
 11
-1858.000269606306
 21
-660.2500368066757
 31
0.0
  0
LINE
  5
322
330
1F
100
AcDbEntity
  8
0-2_扉
  6
Continuous
 62
     7
370
     9
100
AcDbLine
 10
-1268.000319094272
 20
-2468.250083820243
 30
0.0
 11
-1858.000269606306
 21
-2468.250083820243
 31
0.0
  0
LINE
  5
323
330
1F
100
AcDbEntity
  8
0-2_扉
  6
Continuous
 62
     7
370
     9
100
AcDbLine
 10
-1268.000319094272
 20
-510.2500368066757
 30
0.0
 11
-1268.000319094272
 21
-2693.250083820241
 31
0.0
  0
LINE
  5
324
330
1F
100
AcDbEntity
  8
0-2_扉
  6
Continuous
 62
     7
370
     9
100
AcDbLine
 10
-1858.000269606306
 20
-510.2500368066757
 30
0.0
 11
-1858.000269606306
 21
-2693.250083820241
 31
0.0
  0
LINE
  5
325
330
1F
100
AcDbEntity
  8
0-2_扉
  6
Continuous
 62
     7
370
     9
100
AcDbLine
 10
-1639.00032239347
 20
-1890.250205890555
 30
0.0
 11
-1639.00032239347
 21
-1889.141675485149
 31
0.0
  0
LINE
  5
326
330
1F
100
AcDbEntity
  8
0-2_扉
  6
Continuous
 62
     7
370
     9
100
AcDbLine
 10
-1158.000319094272
 20
-2693.250083820241
 30
0.0
 11
-1965.000269606306
 21
-2693.250083820241
 31
0.0
  0
LINE
  5
327
330
1F
100
AcDbEntity
  8
0-2_扉
  6
Continuous
 62
     7
370
     9
100
AcDbLine
 10
-1158.000319094272
 20
-510.2500368066757
 30
0.0
 11
-1965.000269606306
 21
-510.2500368066757
 31
0.0
  0
LINE
  5
328
330
1F
100
AcDbEntity
  8
0-C_ハッチ
  6
Continuous
 62
   120
370
     5
100
AcDbLine
 10
-4584.855566110115
 20
-660.2499749467198
 30
0.0
 11
-4653.000026805978
 21
-723.3466978132604
 31
0.0
  0
LINE
  5
329
330
1F
100
AcDbEntity
  8
0-C_ハッチ
  6
Continuous
 62
   120
370
     5
100
AcDbLine
 10
-4548.058827124167
 20
-660.2499749467198
 30
0.0
 11
-4653.000026805978
 21
-757.4177524298793
 31
0.0
  0
LINE
  5
32A
330
1F
100
AcDbEntity
  8
0-C_ハッチ
  6
Continuous
 62
   120
370
     5
100
AcDbLine
 10
-4511.262088138219
 20
-660.2499749467198
 30
0.0
 11
-4653.000026805978
 21
-791.4888070464986
 31
0.0
  0
LINE
  5
32B
330
1F
100
AcDbEntity
  8
0-C_ハッチ
  6
Continuous
 62
   120
370
     5
100
AcDbLine
 10
-4474.465349152271
 20
-660.2499749467198
 30
0.0
 11
-4653.000026805978
 21
-825.559861663117
 31
0.0
  0
LINE
  5
32C
330
1F
100
AcDbEntity
  8
0-C_ハッチ
  6
Continuous
 62
   120
370
     5
100
AcDbLine
 10
-4621.652305096062
 20
-660.2499749467198
 30
0.0
 11
-4653.000026805978
 21
-689.275643196642
 31
0.0
  0
LINE
  5
32D
330
1F
100
AcDbEntity
  8
0-C_ハッチ
  6
Continuous
 62
   120
370
     5
100
AcDbLine
 10
-4437.668610166323
 20
-660.2499749467198
 30
0.0
 11
-4653.000026805978
 21
-859.6309162797367
 31
0.0
  0
LINE
  5
32E
330
1F
100
AcDbEntity
  8
0-C_ハッチ
  6
Continuous
 62
   120
370
     5
100
AcDbLine
 10
-4400.871871180376
 20
-660.2499749467198
 30
0.0
 11
-4653.000026805978
 21
-893.7019708963546
 31
0.0
  0
LINE
  5
32F
330
1F
100
AcDbEntity
  8
0-C_ハッチ
  6
Continuous
 62
   120
370
     5
100
AcDbLine
 10
-4364.075132194427
 20
-660.2499749467198
 30
0.0
 11
-4653.000026805978
 21
-927.7730255129735
 31
0.0
  0
LINE
  5
330
330
1F
100
AcDbEntity
  8
0-C_ハッチ
  6
Continuous
 62
   120
370
     5
100
AcDbLine
 10
-4327.278393208479
 20
-660.2499749467198
 30
0.0
 11
-4653.000026805978
 21
-961.8440801295924
 31
0.0
  0
LINE
  5
331
330
1F
100
AcDbEntity
  8
0-C_ハッチ
  6
Continuous
 62
   120
370
     5
100
AcDbLine
 10
-4290.481654222531
 20
-660.2499749467198
 30
0.0
 11
-4653.000026805978
 21
-995.9151347462108
 31
0.0
  0
LINE
  5
332
330
1F
100
AcDbEntity
  8
0-C_ハッチ
  6
Continuous
 62
   120
370
     5
100
AcDbLine
 10
-4253.684915236584
 20
-660.2499749467198
 30
0.0
 11
-4653.000026805978
 21
-1029.986189362831
 31
0.0
  0
LINE
  5
333
330
1F
100
AcDbEntity
  8
0-C_ハッチ
  6
Continuous
 62
   120
370
     5
100
AcDbLine
 10
-4216.888176250635
 20
-660.2499749467198
 30
0.0
 11
-4653.000026805978
 21
-1064.057243979448
 31
0.0
  0
LINE
  5
334
330
1F
100
AcDbEntity
  8
0-C_ハッチ
  6
Continuous
 62
   120
370
     5
100
AcDbLine
 10
-4180.091437264688
 20
-660.2499749467198
 30
0.0
 11
-4653.000026805978
 21
-1098.128298596068
 31
0.0
  0
LINE
  5
335
330
1F
100
AcDbEntity
  8
0-C_ハッチ
  6
Continuous
 62
   120
370
     5
100
AcDbLine
 10
-4143.294698278739
 20
-660.2499749467198
 30
0.0
 11
-4653.000026805978
 21
-1132.199353212687
 31
0.0
  0
LINE
  5
336
330
1F
100
AcDbEntity
  8
0-C_ハッチ
  6
Continuous
 62
   120
370
     5
100
AcDbLine
 10
-4106.49795929279
 20
-660.2499749467198
 30
0.0
 11
-4653.000026805978
 21
-1166.270407829305
 31
0.0
  0
LINE
  5
337
330
1F
100
AcDbEntity
  8
0-C_ハッチ
  6
Continuous
 62
   120
370
     5
100
AcDbLine
 10
-3973.000018557984
 20
-672.9249890291139
 30
0.0
 11
-4653.000026805978
 21
-1302.554626295781
 31
0.0
  0
LINE
  5
338
330
1F
100
AcDbEntity
  8
0-C_ハッチ
  6
Continuous
 62
   120
370
     5
100
AcDbLine
 10
-3973.000018557984
 20
-706.9960436457327
 30
0.0
 11
-4653.000026805978
 21
-1336.625680912399
 31
0.0
  0
LINE
  5
339
330
1F
100
AcDbEntity
  8
0-C_ハッチ
  6
Continuous
 62
   120
370
     5
100
AcDbLine
 10
-3973.000018557984
 20
-741.067098262352
 30
0.0
 11
-4653.000026805978
 21
-1370.696735529018
 31
0.0
  0
LINE
  5
33A
330
1F
100
AcDbEntity
  8
0-C_ハッチ
  6
Continuous
 62
   120
370
     5
100
AcDbLine
 10
-3973.000018557984
 20
-775.1381528789705
 30
0.0
 11
-4653.000026805978
 21
-1404.767790145637
 31
0.0
  0
LINE
  5
33B
330
1F
100
AcDbEntity
  8
0-C_ハッチ
  6
Continuous
 62
   120
370
     5
100
AcDbLine
 10
-3973.000018557984
 20
-809.2092074955897
 30
0.0
 11
-4653.000026805978
 21
-1438.838844762257
 31
0.0
  0
LINE
  5
33C
330
1F
100
AcDbEntity
  8
0-C_ハッチ
  6
Continuous
 62
   120
370
     5
100
AcDbLine
 10
-3973.000018557984
 20
-843.2802621122086
 30
0.0
 11
-4653.000026805978
 21
-1472.909899378876
 31
0.0
  0
LINE
  5
33D
330
1F
100
AcDbEntity
  8
0-C_ハッチ
  6
Continuous
 62
   120
370
     5
100
AcDbLine
 10
-3973.000018557984
 20
-877.351316728827
 30
0.0
 11
-4653.000026805978
 21
-1506.980953995496
 31
0.0
  0
LINE
  5
33E
330
1F
100
AcDbEntity
  8
0-C_ハッチ
  6
Continuous
 62
   120
370
     5
100
AcDbLine
 10
-3973.000018557984
 20
-911.4223713454459
 30
0.0
 11
-4653.000026805978
 21
-1541.052008612113
 31
0.0
  0
LINE
  5
33F
330
1F
100
AcDbEntity
  8
0-C_ハッチ
  6
Continuous
 62
   120
370
     5
100
AcDbLine
 10
-3973.000018557984
 20
-1013.635535195303
 30
0.0
 11
-4653.000026805978
 21
-1643.26517246197
 31
0.0
  0
LINE
  5
340
330
1F
100
AcDbEntity
  8
0-C_ハッチ
  6
Continuous
 62
   120
370
     5
100
AcDbLine
 10
-3973.000018557984
 20
-1047.706589811921
 30
0.0
 11
-4653.000026805978
 21
-1677.336227078588
 31
0.0
  0
LINE
  5
341
330
1F
100
AcDbEntity
  8
0-C_ハッチ
  6
Continuous
 62
   120
370
     5
100
AcDbLine
 10
-3973.000018557984
 20
-945.4934259620647
 30
0.0
 11
-4653.000018557984
 21
-1575.123055591701
 31
0.0
  0
LINE
  5
342
330
1F
100
AcDbEntity
  8
0-C_ハッチ
  6
Continuous
 62
   120
370
     5
100
AcDbLine
 10
-3973.000018557984
 20
-979.5644805786835
 30
0.0
 11
-4653.000018557984
 21
-1609.194110208319
 31
0.0
  0
LINE
  5
343
330
1F
100
AcDbEntity
  8
0-C_ハッチ
  6
Continuous
 62
   120
370
     5
100
AcDbLine
 10
-4069.701220306842
 20
-660.2499749467198
 30
0.0
 11
-4653.000026805978
 21
-1200.341462445924
 31
0.0
  0
LINE
  5
344
330
1F
100
AcDbEntity
  8
0-C_ハッチ
  6
Continuous
 62
   120
370
     5
100
AcDbLine
 10
-3996.107742334947
 20
-660.2499749467198
 30
0.0
 11
-4653.000026805978
 21
-1268.483571679162
 31
0.0
  0
LINE
  5
345
330
1F
100
AcDbEntity
  8
0-C_ハッチ
  6
Continuous
 62
   120
370
     5
100
AcDbLine
 10
-4032.904481320895
 20
-660.2499749467198
 30
0.0
 11
-4653.000026805978
 21
-1234.412517062544
 31
0.0
  0
LINE
  5
346
330
1F
100
AcDbEntity
  8
0-C_ハッチ
  6
Continuous
 62
   120
370
     5
100
AcDbLine
 10
-3973.000018557984
 20
-1592.84346367783
 30
0.0
 11
-4294.199168311805
 21
-1890.250083820242
 31
0.0
  0
LINE
  5
347
330
1F
100
AcDbEntity
  8
0-C_ハッチ
  6
Continuous
 62
   120
370
     5
100
AcDbLine
 10
-3973.000018557984
 20
-1524.701354444593
 30
0.0
 11
-4367.792646283701
 21
-1890.250083820242
 31
0.0
  0
LINE
  5
348
330
1F
100
AcDbEntity
  8
0-C_ハッチ
  6
Continuous
 62
   120
370
     5
100
AcDbLine
 10
-3973.000018557984
 20
-1286.203972128253
 30
0.0
 11
-4625.369819185328
 21
-1890.250083820242
 31
0.0
  0
LINE
  5
349
330
1F
100
AcDbEntity
  8
0-C_ハッチ
  6
Continuous
 62
   120
370
     5
100
AcDbLine
 10
-3973.000018557984
 20
-1320.275026744872
 30
0.0
 11
-4588.57308019938
 21
-1890.250083820242
 31
0.0
  0
LINE
  5
34A
330
1F
100
AcDbEntity
  8
0-C_ハッチ
  6
Continuous
 62
   120
370
     5
100
AcDbLine
 10
-3973.000018557984
 20
-1354.346081361491
 30
0.0
 11
-4551.776341213431
 21
-1890.250083820242
 31
0.0
  0
LINE
  5
34B
330
1F
100
AcDbEntity
  8
0-C_ハッチ
  6
Continuous
 62
   120
370
     5
100
AcDbLine
 10
-3973.000018557984
 20
-1388.417135978109
 30
0.0
 11
-4514.979602227484
 21
-1890.250083820242
 31
0.0
  0
LINE
  5
34C
330
1F
100
AcDbEntity
  8
0-C_ハッチ
  6
Continuous
 62
   120
370
     5
100
AcDbLine
 10
-3973.000018557984
 20
-1422.488190594728
 30
0.0
 11
-4478.182863241535
 21
-1890.250083820242
 31
0.0
  0
LINE
  5
34D
330
1F
100
AcDbEntity
  8
0-C_ハッチ
  6
Continuous
 62
   120
370
     5
100
AcDbLine
 10
-3973.000018557984
 20
-1456.559245211347
 30
0.0
 11
-4441.386124255588
 21
-1890.250083820242
 31
0.0
  0
LINE
  5
34E
330
1F
100
AcDbEntity
  8
0-C_ハッチ
  6
Continuous
 62
   120
370
     5
100
AcDbLine
 10
-3973.000018557984
 20
-1490.630299827969
 30
0.0
 11
-4404.589385269644
 21
-1890.250083820242
 31
0.0
  0
LINE
  5
34F
330
1F
100
AcDbEntity
  8
0-C_ハッチ
  6
Continuous
 62
   120
370
     5
100
AcDbLine
 10
-3973.000018557984
 20
-1558.772409061211
 30
0.0
 11
-4330.995907297753
 21
-1890.250083820242
 31
0.0
  0
LINE
  5
350
330
1F
100
AcDbEntity
  8
0-C_ハッチ
  6
Continuous
 62
   120
370
     5
100
AcDbLine
 10
-3973.000018557984
 20
-1626.914518294448
 30
0.0
 11
-4257.402429325856
 21
-1890.250083820242
 31
0.0
  0
LINE
  5
351
330
1F
100
AcDbEntity
  8
0-C_ハッチ
  6
Continuous
 62
   120
370
     5
100
AcDbLine
 10
-3973.000018557984
 20
-1660.985572911066
 30
0.0
 11
-4220.605690339907
 21
-1890.250083820242
 31
0.0
  0
LINE
  5
352
330
1F
100
AcDbEntity
  8
0-C_ハッチ
  6
Continuous
 62
   120
370
     5
100
AcDbLine
 10
-3973.000018557984
 20
-1081.77764442854
 30
0.0
 11
-4653.000018557986
 21
-1711.407274058177
 31
0.0
  0
LINE
  5
353
330
1F
100
AcDbEntity
  8
0-C_ハッチ
  6
Continuous
 62
   120
370
     5
100
AcDbLine
 10
-3973.000018557984
 20
-1252.132917511634
 30
0.0
 11
-4653.000018557986
 21
-1881.76254714127
 31
0.0
  0
LINE
  5
354
330
1F
100
AcDbEntity
  8
0-C_ハッチ
  6
Continuous
 62
   120
370
     5
100
AcDbLine
 10
-3973.000018557984
 20
-1115.848699045159
 30
0.0
 11
-4653.000018557986
 21
-1745.478328674796
 31
0.0
  0
LINE
  5
355
330
1F
100
AcDbEntity
  8
0-C_ハッチ
  6
Continuous
 62
   120
370
     5
100
AcDbLine
 10
-3973.000018557984
 20
-1149.919753661777
 30
0.0
 11
-4653.000018557986
 21
-1779.549383291415
 31
0.0
  0
LINE
  5
356
330
1F
100
AcDbEntity
  8
0-C_ハッチ
  6
Continuous
 62
   120
370
     5
100
AcDbLine
 10
-3973.000018557984
 20
-1183.990808278397
 30
0.0
 11
-4653.000018557986
 21
-1813.620437908034
 31
0.0
  0
LINE
  5
357
330
1F
100
AcDbEntity
  8
0-C_ハッチ
  6
Continuous
 62
   120
370
     5
100
AcDbLine
 10
-3973.000018557984
 20
-1218.061862895016
 30
0.0
 11
-4653.000018557986
 21
-1847.691492524653
 31
0.0
  0
LINE
  5
358
330
1F
100
AcDbEntity
  8
0-C_ハッチ
  6
Continuous
 62
   120
370
     5
100
AcDbLine
 10
-3973.000018557984
 20
-1695.056627527684
 30
0.0
 11
-4183.808951353957
 21
-1890.250083820242
 31
0.0
  0
LINE
  5
359
330
1F
100
AcDbEntity
  8
0-C_ハッチ
  6
Continuous
 62
   120
370
     5
100
AcDbLine
 10
-3973.000018557984
 20
-1729.127682144302
 30
0.0
 11
-4147.012212368008
 21
-1890.250083820242
 31
0.0
  0
LINE
  5
35A
330
1F
100
AcDbEntity
  8
0-C_ハッチ
  6
Continuous
 62
   120
370
     5
100
AcDbLine
 10
-3973.000018557984
 20
-1865.411900610773
 30
0.0
 11
-3999.825256424211
 21
-1890.250083820242
 31
0.0
  0
LINE
  5
35B
330
1F
100
AcDbEntity
  8
0-C_ハッチ
  6
Continuous
 62
   120
370
     5
100
AcDbLine
 10
-3973.000018557984
 20
-1763.19873676092
 30
0.0
 11
-4110.215473382058
 21
-1890.250083820242
 31
0.0
  0
LINE
  5
35C
330
1F
100
AcDbEntity
  8
0-C_ハッチ
  6
Continuous
 62
   120
370
     5
100
AcDbLine
 10
-3973.000018557984
 20
-1797.269791377538
 30
0.0
 11
-4073.418734396109
 21
-1890.250083820242
 31
0.0
  0
LINE
  5
35D
330
1F
100
AcDbEntity
  8
0-C_ハッチ
  6
Continuous
 62
   120
370
     5
100
AcDbLine
 10
-3973.000018557984
 20
-1831.340845994156
 30
0.0
 11
-4036.62199541016
 21
-1890.250083820242
 31
0.0
  0
LINE
  5
35E
330
1F
100
AcDbEntity
  8
0-C_ハッチ
  6
Continuous
 62
   120
370
     5
100
AcDbLine
 10
-1789.855817158437
 20
-660.2499749467196
 30
0.0
 11
-1858.0002778543
 21
-723.3466978132602
 31
0.0
  0
LINE
  5
35F
330
1F
100
AcDbEntity
  8
0-C_ハッチ
  6
Continuous
 62
   120
370
     5
100
AcDbLine
 10
-1753.059078172489
 20
-660.2499749467196
 30
0.0
 11
-1858.0002778543
 21
-757.4177524298791
 31
0.0
  0
LINE
  5
360
330
1F
100
AcDbEntity
  8
0-C_ハッチ
  6
Continuous
 62
   120
370
     5
100
AcDbLine
 10
-1716.262339186541
 20
-660.2499749467196
 30
0.0
 11
-1858.0002778543
 21
-791.4888070464983
 31
0.0
  0
LINE
  5
361
330
1F
100
AcDbEntity
  8
0-C_ハッチ
  6
Continuous
 62
   120
370
     5
100
AcDbLine
 10
-1679.465600200593
 20
-660.2499749467196
 30
0.0
 11
-1858.0002778543
 21
-825.5598616631167
 31
0.0
  0
LINE
  5
362
330
1F
100
AcDbEntity
  8
0-C_ハッチ
  6
Continuous
 62
   120
370
     5
100
AcDbLine
 10
-1826.652556144385
 20
-660.2499749467196
 30
0.0
 11
-1858.0002778543
 21
-689.2756431966418
 31
0.0
  0
LINE
  5
363
330
1F
100
AcDbEntity
  8
0-C_ハッチ
  6
Continuous
 62
   120
370
     5
100
AcDbLine
 10
-1642.668861214645
 20
-660.2499749467196
 30
0.0
 11
-1858.0002778543
 21
-859.6309162797363
 31
0.0
  0
LINE
  5
364
330
1F
100
AcDbEntity
  8
0-C_ハッチ
  6
Continuous
 62
   120
370
     5
100
AcDbLine
 10
-1605.872122228697
 20
-660.2499749467196
 30
0.0
 11
-1858.0002778543
 21
-893.7019708963545
 31
0.0
  0
LINE
  5
365
330
1F
100
AcDbEntity
  8
0-C_ハッチ
  6
Continuous
 62
   120
370
     5
100
AcDbLine
 10
-1569.075383242749
 20
-660.2499749467196
 30
0.0
 11
-1858.0002778543
 21
-927.7730255129732
 31
0.0
  0
LINE
  5
366
330
1F
100
AcDbEntity
  8
0-C_ハッチ
  6
Continuous
 62
   120
370
     5
100
AcDbLine
 10
-1532.278644256801
 20
-660.2499749467196
 30
0.0
 11
-1858.0002778543
 21
-961.8440801295922
 31
0.0
  0
LINE
  5
367
330
1F
100
AcDbEntity
  8
0-C_ハッチ
  6
Continuous
 62
   120
370
     5
100
AcDbLine
 10
-1495.481905270853
 20
-660.2499749467196
 30
0.0
 11
-1858.0002778543
 21
-995.9151347462106
 31
0.0
  0
LINE
  5
368
330
1F
100
AcDbEntity
  8
0-C_ハッチ
  6
Continuous
 62
   120
370
     5
100
AcDbLine
 10
-1458.685166284906
 20
-660.2499749467196
 30
0.0
 11
-1858.0002778543
 21
-1029.98618936283
 31
0.0
  0
LINE
  5
369
330
1F
100
AcDbEntity
  8
0-C_ハッチ
  6
Continuous
 62
   120
370
     5
100
AcDbLine
 10
-1421.888427298958
 20
-660.2499749467196
 30
0.0
 11
-1858.0002778543
 21
-1064.057243979448
 31
0.0
  0
LINE
  5
36A
330
1F
100
AcDbEntity
  8
0-C_ハッチ
  6
Continuous
 62
   120
370
     5
100
AcDbLine
 10
-1385.091688313009
 20
-660.2499749467196
 30
0.0
 11
-1858.0002778543
 21
-1098.128298596068
 31
0.0
  0
LINE
  5
36B
330
1F
100
AcDbEntity
  8
0-C_ハッチ
  6
Continuous
 62
   120
370
     5
100
AcDbLine
 10
-1348.29494932706
 20
-660.2499749467196
 30
0.0
 11
-1858.0002778543
 21
-1132.199353212686
 31
0.0
  0
LINE
  5
36C
330
1F
100
AcDbEntity
  8
0-C_ハッチ
  6
Continuous
 62
   120
370
     5
100
AcDbLine
 10
-1311.498210341112
 20
-660.2499749467196
 30
0.0
 11
-1858.0002778543
 21
-1166.270407829305
 31
0.0
  0
LINE
  5
36D
330
1F
100
AcDbEntity
  8
0-C_ハッチ
  6
Continuous
 62
   120
370
     5
100
AcDbLine
 10
-1274.701471355164
 20
-660.2499749467196
 30
0.0
 11
-1858.0002778543
 21
-1200.341462445924
 31
0.0
  0
LINE
  5
36E
330
1F
100
AcDbEntity
  8
0-C_ハッチ
  6
Continuous
 62
   120
370
     5
100
AcDbLine
 10
-1268.00031909427
 20
-688.1162589513993
 30
0.0
 11
-1858.0002778543
 21
-1234.412517062543
 31
0.0
  0
LINE
  5
36F
330
1F
100
AcDbEntity
  8
0-C_ハッチ
  6
Continuous
 62
   120
370
     5
100
AcDbLine
 10
-1268.00031909427
 20
-756.2583681846374
 30
0.0
 11
-1858.0002778543
 21
-1302.55462629578
 31
0.0
  0
LINE
  5
370
330
1F
100
AcDbEntity
  8
0-C_ハッチ
  6
Continuous
 62
   120
370
     5
100
AcDbLine
 10
-1268.00031909427
 20
-790.3294228012563
 30
0.0
 11
-1858.0002778543
 21
-1336.625680912399
 31
0.0
  0
LINE
  5
371
330
1F
100
AcDbEntity
  8
0-C_ハッチ
  6
Continuous
 62
   120
370
     5
100
AcDbLine
 10
-1268.00031909427
 20
-824.4004774178755
 30
0.0
 11
-1858.0002778543
 21
-1370.696735529018
 31
0.0
  0
LINE
  5
372
330
1F
100
AcDbEntity
  8
0-C_ハッチ
  6
Continuous
 62
   120
370
     5
100
AcDbLine
 10
-1268.00031909427
 20
-858.471532034494
 30
0.0
 11
-1858.0002778543
 21
-1404.767790145637
 31
0.0
  0
LINE
  5
373
330
1F
100
AcDbEntity
  8
0-C_ハッチ
  6
Continuous
 62
   120
370
     5
100
AcDbLine
 10
-1268.00031909427
 20
-892.5425866511133
 30
0.0
 11
-1858.0002778543
 21
-1438.838844762256
 31
0.0
  0
LINE
  5
374
330
1F
100
AcDbEntity
  8
0-C_ハッチ
  6
Continuous
 62
   120
370
     5
100
AcDbLine
 10
-1268.00031909427
 20
-926.6136412677317
 30
0.0
 11
-1858.0002778543
 21
-1472.909899378875
 31
0.0
  0
LINE
  5
375
330
1F
100
AcDbEntity
  8
0-C_ハッチ
  6
Continuous
 62
   120
370
     5
100
AcDbLine
 10
-1268.00031909427
 20
-960.6846958843506
 30
0.0
 11
-1858.0002778543
 21
-1506.980953995495
 31
0.0
  0
LINE
  5
376
330
1F
100
AcDbEntity
  8
0-C_ハッチ
  6
Continuous
 62
   120
370
     5
100
AcDbLine
 10
-1268.00031909427
 20
-994.7557505009694
 30
0.0
 11
-1858.0002778543
 21
-1541.052008612112
 31
0.0
  0
LINE
  5
377
330
1F
100
AcDbEntity
  8
0-C_ハッチ
  6
Continuous
 62
   120
370
     5
100
AcDbLine
 10
-1268.00031909427
 20
-1096.968914350827
 30
0.0
 11
-1858.0002778543
 21
-1643.26517246197
 31
0.0
  0
LINE
  5
378
330
1F
100
AcDbEntity
  8
0-C_ハッチ
  6
Continuous
 62
   120
370
     5
100
AcDbLine
 10
-1268.00031909427
 20
-1028.826805117588
 30
0.0
 11
-1858.000269606306
 21
-1575.123055591701
 31
0.0
  0
LINE
  5
379
330
1F
100
AcDbEntity
  8
0-C_ハッチ
  6
Continuous
 62
   120
370
     5
100
AcDbLine
 10
-1268.00031909427
 20
-1062.897859734207
 30
0.0
 11
-1858.000269606306
 21
-1609.194110208318
 31
0.0
  0
LINE
  5
37A
330
1F
100
AcDbEntity
  8
0-C_ハッチ
  6
Continuous
 62
   120
370
     5
100
AcDbLine
 10
-1268.00031909427
 20
-722.1873135680186
 30
0.0
 11
-1858.0002778543
 21
-1268.483571679162
 31
0.0
  0
LINE
  5
37B
330
1F
100
AcDbEntity
  8
0-C_ハッチ
  6
Continuous
 62
   120
370
     5
100
AcDbLine
 10
-1268.00031909427
 20
-1676.176842833349
 30
0.0
 11
-1499.199419360129
 21
-1890.250083820241
 31
0.0
  0
LINE
  5
37C
330
1F
100
AcDbEntity
  8
0-C_ハッチ
  6
Continuous
 62
   120
370
     5
100
AcDbLine
 10
-1268.00031909427
 20
-1608.034733600112
 30
0.0
 11
-1572.792897332023
 21
-1890.250083820241
 31
0.0
  0
LINE
  5
37D
330
1F
100
AcDbEntity
  8
0-C_ハッチ
  6
Continuous
 62
   120
370
     5
100
AcDbLine
 10
-1268.00031909427
 20
-1369.537351283776
 30
0.0
 11
-1830.370070233649
 21
-1890.250083820241
 31
0.0
  0
LINE
  5
37E
330
1F
100
AcDbEntity
  8
0-C_ハッチ
  6
Continuous
 62
   120
370
     5
100
AcDbLine
 10
-1268.00031909427
 20
-1403.608405900395
 30
0.0
 11
-1793.573331247701
 21
-1890.250083820241
 31
0.0
  0
LINE
  5
37F
330
1F
100
AcDbEntity
  8
0-C_ハッチ
  6
Continuous
 62
   120
370
     5
100
AcDbLine
 10
-1268.00031909427
 20
-1437.679460517014
 30
0.0
 11
-1756.776592261753
 21
-1890.250083820241
 31
0.0
  0
LINE
  5
380
330
1F
100
AcDbEntity
  8
0-C_ハッチ
  6
Continuous
 62
   120
370
     5
100
AcDbLine
 10
-1268.00031909427
 20
-1471.750515133632
 30
0.0
 11
-1719.979853275805
 21
-1890.250083820241
 31
0.0
  0
LINE
  5
381
330
1F
100
AcDbEntity
  8
0-C_ハッチ
  6
Continuous
 62
   120
370
     5
100
AcDbLine
 10
-1268.00031909427
 20
-1505.821569750251
 30
0.0
 11
-1683.183114289857
 21
-1890.250083820241
 31
0.0
  0
LINE
  5
382
330
1F
100
AcDbEntity
  8
0-C_ハッチ
  6
Continuous
 62
   120
370
     5
100
AcDbLine
 10
-1268.00031909427
 20
-1539.89262436687
 30
0.0
 11
-1646.386375303909
 21
-1890.250083820241
 31
0.0
  0
LINE
  5
383
330
1F
100
AcDbEntity
  8
0-C_ハッチ
  6
Continuous
 62
   120
370
     5
100
AcDbLine
 10
-1268.00031909427
 20
-1573.963678983491
 30
0.0
 11
-1609.589636317965
 21
-1890.250083820241
 31
0.0
  0
LINE
  5
384
330
1F
100
AcDbEntity
  8
0-C_ハッチ
  6
Continuous
 62
   120
370
     5
100
AcDbLine
 10
-1268.00031909427
 20
-1642.10578821673
 30
0.0
 11
-1535.996158346074
 21
-1890.250083820241
 31
0.0
  0
LINE
  5
385
330
1F
100
AcDbEntity
  8
0-C_ハッチ
  6
Continuous
 62
   120
370
     5
100
AcDbLine
 10
-1268.00031909427
 20
-1131.039968967445
 30
0.0
 11
-1858.000269606305
 21
-1677.336219441556
 31
0.0
  0
LINE
  5
386
330
1F
100
AcDbEntity
  8
0-C_ハッチ
  6
Continuous
 62
   120
370
     5
100
AcDbLine
 10
-1268.00031909427
 20
-1335.466296667158
 30
0.0
 11
-1858.000269606305
 21
-1881.762547141268
 31
0.0
  0
LINE
  5
387
330
1F
100
AcDbEntity
  8
0-C_ハッチ
  6
Continuous
 62
   120
370
     5
100
AcDbLine
 10
-1268.00031909427
 20
-1165.111023584063
 30
0.0
 11
-1858.000269606305
 21
-1711.407274058175
 31
0.0
  0
LINE
  5
388
330
1F
100
AcDbEntity
  8
0-C_ハッチ
  6
Continuous
 62
   120
370
     5
100
AcDbLine
 10
-1268.00031909427
 20
-1199.182078200683
 30
0.0
 11
-1858.000269606305
 21
-1745.478328674792
 31
0.0
  0
LINE
  5
389
330
1F
100
AcDbEntity
  8
0-C_ハッチ
  6
Continuous
 62
   120
370
     5
100
AcDbLine
 10
-1268.00031909427
 20
-1233.253132817301
 30
0.0
 11
-1858.000269606305
 21
-1779.549383291413
 31
0.0
  0
LINE
  5
38A
330
1F
100
AcDbEntity
  8
0-C_ハッチ
  6
Continuous
 62
   120
370
     5
100
AcDbLine
 10
-1268.00031909427
 20
-1267.32418743392
 30
0.0
 11
-1858.000269606305
 21
-1813.620437908031
 31
0.0
  0
LINE
  5
38B
330
1F
100
AcDbEntity
  8
0-C_ハッチ
  6
Continuous
 62
   120
370
     5
100
AcDbLine
 10
-1268.00031909427
 20
-1301.395242050539
 30
0.0
 11
-1858.000269606305
 21
-1847.69149252465
 31
0.0
  0
LINE
  5
38C
330
1F
100
AcDbEntity
  8
0-C_ハッチ
  6
Continuous
 62
   120
370
     5
100
AcDbLine
 10
-1268.000319094271
 20
-1710.247897449966
 30
0.0
 11
-1462.402680374179
 21
-1890.250083820241
 31
0.0
  0
LINE
  5
38D
330
1F
100
AcDbEntity
  8
0-C_ハッチ
  6
Continuous
 62
   120
370
     5
100
AcDbLine
 10
-1268.000319094271
 20
-1880.603170533056
 30
0.0
 11
-1278.418985444432
 21
-1890.250083820241
 31
0.0
  0
LINE
  5
38E
330
1F
100
AcDbEntity
  8
0-C_ハッチ
  6
Continuous
 62
   120
370
     5
100
AcDbLine
 10
-1268.000319094271
 20
-1744.318952066584
 30
0.0
 11
-1425.60594138823
 21
-1890.250083820241
 31
0.0
  0
LINE
  5
38F
330
1F
100
AcDbEntity
  8
0-C_ハッチ
  6
Continuous
 62
   120
370
     5
100
AcDbLine
 10
-1268.000319094271
 20
-1778.390006683203
 30
0.0
 11
-1388.80920240228
 21
-1890.250083820241
 31
0.0
  0
LINE
  5
390
330
1F
100
AcDbEntity
  8
0-C_ハッチ
  6
Continuous
 62
   120
370
     5
100
AcDbLine
 10
-1268.000319094271
 20
-1812.46106129982
 30
0.0
 11
-1352.012463416331
 21
-1890.250083820241
 31
0.0
  0
LINE
  5
391
330
1F
100
AcDbEntity
  8
0-C_ハッチ
  6
Continuous
 62
   120
370
     5
100
AcDbLine
 10
-1268.000319094271
 20
-1846.532115916438
 30
0.0
 11
-1315.215724430382
 21
-1890.250083820241
 31
0.0
  0
LINE
  5
392
330
1F
100
AcDbEntity
  8
0-B_寸法
  6
Continuous
 62
   120
370
     5
100
AcDbLine
 10
-5090.000018557985
 20
-2693.250083820241
 30
0.0
 11
-4840.000018557987
 21
-2693.250083820241
 31
0.0
  0
LWPOLYLINE
  5
393
330
1F
100
AcDbEntity
  8
0-B_寸法
  6
Continuous
 62
     7
370
     9
100
AcDbPolyline
 90
        4
 70
     1
 43
3.0
 10
-5088.500018557985
 20
-2693.250083820241
 42
0.4142135623731
 10
-5090.000018557985
 20
-2691.750083820241
 42
0.4142135623731
 10
-5091.500018557985
 20
-2693.250083820241
 42
0.4142135623731
 10
-5090.000018557985
 20
-2694.750083820241
 42
0.4142135623731
  0
LINE
  5
394
330
1F
100
AcDbEntity
  8
0-B_寸法
  6
Continuous
 62
   120
370
     5
100
AcDbLine
 10
-5090.000018557985
 20
-510.250083820241
 30
0.0
 11
-4840.000018557987
 21
-510.250083820241
 31
0.0
  0
LWPOLYLINE
  5
395
330
1F
100
AcDbEntity
  8
0-B_寸法
  6
Continuous
 62
     7
370
     9
100
AcDbPolyline
 90
        4
 70
     1
 43
3.0
 10
-5088.500018557985
 20
-510.250083820241
 42
0.4142135623731
 10
-5090.000018557985
 20
-508.7500838202409
 42
0.4142135623731
 10
-5091.500018557985
 20
-510.250083820241
 42
0.4142135623731
 10
-5090.000018557985
 20
-511.750083820241
 42
0.4142135623731
  0
LINE
  5
396
330
1F
100
AcDbEntity
  8
0-B_寸法
  6
Continuous
 62
   120
370
     5
100
AcDbLine
 10
-5090.000018557985
 20
-510.250083820241
 30
0.0
 11
-5090.000018557985
 21
-2693.250083820241
 31
0.0
  0
MTEXT
  5
397
330
1F
100
AcDbEntity
  8
0-B_寸法
  6
Continuous
 62
     7
370
    70
100
AcDbMText
 10
-5105.000018557987
 20
-1819.925083820241
 30
0.0
 40
57.14999999999999
 41
412.5
 46
0.0
 71
     7
 72
     1
  1
{\fＭＳ ゴシック|b0|i0|c128|p49;ＤＨ＝2,183}
 11
6.123031769111886E-17
 21
1.0
 31
0.0
 73
     1
 44
1.0
  0
LINE
  5
398
330
1F
100
AcDbEntity
  8
0-4_枠
  6
Continuous
 62
    92
370
    13
100
AcDbLine
 10
-381.0002696063077
 20
-2701.250083820241
 30
0.0
 11
-1965.000269606306
 21
-2701.250083820241
 31
0.0
  0
LINE
  5
399
330
1F
100
AcDbEntity
  8
0-4_枠
  6
Continuous
 62
    92
370
    13
100
AcDbLine
 10
-381.0002696063077
 20
-2698.250083820241
 30
0.0
 11
-1965.000269606306
 21
-2698.250083820241
 31
0.0
  0
LINE
  5
39A
330
1F
100
AcDbEntity
  8
0-4_枠
  6
Continuous
 62
    92
370
    13
100
AcDbLine
 10
-2996.000018557986
 20
-2701.250083820241
 30
0.0
 11
-4760.000018557985
 21
-2701.250083820241
 31
0.0
  0
LINE
  5
39B
330
1F
100
AcDbEntity
  8
0-4_枠
  6
Continuous
 62
    92
370
    13
100
AcDbLine
 10
-2996.000018557986
 20
-2698.250083820241
 30
0.0
 11
-4760.000018557985
 21
-2698.250083820241
 31
0.0
  0
ENDSEC
  0
SECTION
  2
OBJECTS
  0
DICTIONARY
  5
C
330
0
100
AcDbDictionary
281
     1
  3
ACAD_GROUP
350
D
  3
ACAD_LAYOUT
350
1A
  3
ACAD_MATERIAL
350
3B
  3
ACAD_MLEADERSTYLE
350
39D
  3
ACAD_MLINESTYLE
350
17
  3
ACAD_PLOTSETTINGS
350
19
  3
ACAD_PLOTSTYLENAME
350
E
  3
ACAD_TABLESTYLE
350
39C
  3
ACAD_VISUALSTYLE
350
2A
  0
DICTIONARY
  5
D
102
{ACAD_REACTORS
330
C
102
}
330
C
100
AcDbDictionary
281
     1
  0
DICTIONARY
  5
1A
102
{ACAD_REACTORS
330
C
102
}
330
C
100
AcDbDictionary
281
     1
  3
Layout1
350
1E
  3
Layout2
350
26
  3
Model
350
22
  0
DICTIONARY
  5
3B
102
{ACAD_REACTORS
330
C
102
}
330
C
100
AcDbDictionary
281
     1
  3
ByBlock
350
3D
  3
ByLayer
350
3C
  3
Global
350
3E
  0
DICTIONARY
  5
39D
102
{ACAD_REACTORS
330
C
102
}
330
C
100
AcDbDictionary
281
     1
  0
DICTIONARY
  5
17
102
{ACAD_REACTORS
330
C
102
}
330
C
100
AcDbDictionary
281
     1
  3
Standard
350
18
  0
DICTIONARY
  5
19
102
{ACAD_REACTORS
330
C
102
}
330
C
100
AcDbDictionary
281
     1
  0
ACDBDICTIONARYWDFLT
  5
E
102
{ACAD_REACTORS
330
C
102
}
330
C
100
AcDbDictionary
281
     1
  3
Normal
350
F
100
AcDbDictionaryWithDefault
340
F
  0
DICTIONARY
  5
39C
102
{ACAD_REACTORS
330
C
102
}
330
C
100
AcDbDictionary
281
     1
  0
DICTIONARY
  5
2A
102
{ACAD_REACTORS
330
C
102
}
330
C
100
AcDbDictionary
281
     1
  3
2dWireframe
350
2F
  3
3D Hidden
350
31
  3
3dWireframe
350
30
  3
Basic
350
32
  3
Brighten
350
36
  3
ColorChange
350
3A
  3
Conceptual
350
34
  3
Dim
350
35
  3
Facepattern
350
39
  3
Flat
350
2B
  3
FlatWithEdges
350
2C
  3
Gouraud
350
2D
  3
GouraudWithEdges
350
2E
  3
Linepattern
350
38
  3
Realistic
350
33
  3
Thicken
350
37
  0
LAYOUT
  5
1E
102
{ACAD_REACTORS
330
1A
102
}
330
1A
100
AcDbPlotSettings
  1

  2
none_device
  4

  6

 40
0.0
 41
0.0
 42
0.0
 43
0.0
 44
0.0
 45
0.0
 46
0.0
 47
0.0
 48
0.0
 49
0.0
140
0.0
141
0.0
142
1.0
143
1.0
 70
   688
 72
     0
 73
     0
 74
     5
  7

 75
    16
 76
     0
 77
     5
 78
   300
147
1.0
148
0.0
149
0.0
100
AcDbLayout
  1
Layout1
 70
     1
 71
     1
 10
0.0
 20
0.0
 11
420.0
 21
297.0
 12
0.0
 22
0.0
 32
0.0
 14
1.000000000000000E+20
 24
1.000000000000000E+20
 34
1.000000000000000E+20
 15
-1.000000000000000E+20
 25
-1.000000000000000E+20
 35
-1.000000000000000E+20
146
0.0
 13
0.0
 23
0.0
 33
0.0
 16
1.0
 26
0.0
 36
0.0
 17
0.0
 27
1.0
 37
0.0
 76
     0
330
1B
  0
LAYOUT
  5
26
102
{ACAD_REACTORS
330
1A
102
}
330
1A
100
AcDbPlotSettings
  1

  2
none_device
  4

  6

 40
0.0
 41
0.0
 42
0.0
 43
0.0
 44
0.0
 45
0.0
 46
0.0
 47
0.0
 48
0.0
 49
0.0
140
0.0
141
0.0
142
1.0
143
1.0
 70
   688
 72
     0
 73
     0
 74
     5
  7

 75
    16
 76
     0
 77
     5
 78
   300
147
1.0
148
0.0
149
0.0
100
AcDbLayout
  1
Layout2
 70
     1
 71
     2
 10
0.0
 20
0.0
 11
0.0
 21
0.0
 12
0.0
 22
0.0
 32
0.0
 14
0.0
 24
0.0
 34
0.0
 15
0.0
 25
0.0
 35
0.0
146
0.0
 13
0.0
 23
0.0
 33
0.0
 16
1.0
 26
0.0
 36
0.0
 17
0.0
 27
1.0
 37
0.0
 76
     0
330
23
  0
LAYOUT
  5
22
102
{ACAD_REACTORS
330
1A
102
}
330
1A
100
AcDbPlotSettings
  1

  2
none_device
  4

  6

 40
0.0
 41
0.0
 42
0.0
 43
0.0
 44
0.0
 45
0.0
 46
0.0
 47
0.0
 48
0.0
 49
0.0
140
0.0
141
0.0
142
1.0
143
1.0
 70
  1712
 72
     0
 73
     0
 74
     0
  7

 75
     0
 76
     0
 77
     5
 78
   300
147
1.0
148
0.0
149
0.0
100
AcDbLayout
  1
Model
 70
     1
 71
     0
 10
-6300.0
 20
-4455.0
 11
6300.0
 21
4455.0
 12
0.0
 22
0.0
 32
0.0
 14
-6300.0
 24
-4455.0
 34
0.0
 15
6300.0
 25
4455.0
 35
0.0
146
0.0
 13
0.0
 23
0.0
 33
0.0
 16
1.0
 26
0.0
 36
0.0
 17
0.0
 27
1.0
 37
0.0
 76
     0
330
1F
331
29
  0
MATERIAL
  5
3D
102
{ACAD_REACTORS
330
3B
102
}
330
3B
100
AcDbMaterial
  1
ByBlock
 72
     1
 94
      127
  0
MATERIAL
  5
3C
102
{ACAD_REACTORS
330
3B
102
}
330
3B
100
AcDbMaterial
  1
ByLayer
 72
     1
 94
      127
  0
MATERIAL
  5
3E
102
{ACAD_REACTORS
330
3B
102
}
330
3B
100
AcDbMaterial
  1
Global
 72
     1
 94
      127
  0
MLINESTYLE
  5
18
102
{ACAD_REACTORS
330
17
102
}
330
17
100
AcDbMlineStyle
  2
Standard
 70
     0
  3

 62
   256
 51
90.0
 52
90.0
 71
     2
 49
0.5
 62
   256
  6
BYLAYER
 49
-0.5
 62
   256
  6
BYLAYER
  0
ACDBPLACEHOLDER
  5
F
102
{ACAD_REACTORS
330
E
102
}
330
E
  0
VISUALSTYLE
  5
2F
102
{ACAD_REACTORS
330
2A
102
}
330
2A
100
AcDbVisualStyle
  2
2dWireframe
 70
     4
177
     2
291
     0
 71
     0
176
     1
 72
     2
176
     1
 73
     0
176
     1
 90
        0
176
     1
 40
-0.6
176
     1
 41
-30.0
176
     1
 62
     5
 63
     7
421
 16777215
176
     1
 74
     1
176
     1
 91
        4
176
     1
 64
     7
176
     1
 65
   257
176
     1
 75
     1
176
     1
175
     1
176
     1
 42
1.0
176
     1
 92
        0
176
     1
 66
   257
176
     1
 43
1.0
176
     1
 76
     1
176
     1
 77
     6
176
     1
 78
     2
176
     1
 67
     7
176
     1
 79
     5
176
     1
170
     0
176
     1
171
     0
176
     1
290
     0
176
     1
 93
        1
176
     1
 44
0.0
176
     1
173
     0
176
     1
  0
VISUALSTYLE
  5
31
102
{ACAD_REACTORS
330
2A
102
}
330
2A
100
AcDbVisualStyle
  2
3D Hidden
 70
     6
177
     2
291
     0
 71
     1
176
     1
 72
     2
176
     1
 73
     2
176
     1
 90
        0
176
     1
 40
-0.6
176
     1
 41
-30.0
176
     1
 62
     5
 63
     7
421
 16777215
176
     1
 74
     2
176
     1
 91
        2
176
     1
 64
     7
176
     1
 65
   257
176
     1
 75
     2
176
     1
175
     1
176
     1
 42
40.0
176
     1
 92
        0
176
     1
 66
   257
176
     1
 43
1.0
176
     1
 76
     1
176
     1
 77
     6
176
     1
 78
     2
176
     1
 67
     7
176
     1
 79
     3
176
     1
170
     0
176
     1
171
     0
176
     1
290
     0
176
     1
 93
        1
176
     1
 44
0.0
176
     1
173
     0
176
     1
  0
VISUALSTYLE
  5
30
102
{ACAD_REACTORS
330
2A
102
}
330
2A
100
AcDbVisualStyle
  2
3dWireframe
 70
     5
177
     2
291
     0
 71
     0
176
     1
 72
     2
176
     1
 73
     0
176
     1
 90
        0
176
     1
 40
-0.6
176
     1
 41
-30.0
176
     1
 62
     5
 63
     7
421
 16777215
176
     1
 74
     1
176
     1
 91
        4
176
     1
 64
     7
176
     1
 65
   257
176
     1
 75
     1
176
     1
175
     1
176
     1
 42
1.0
176
     1
 92
        0
176
     1
 66
   257
176
     1
 43
1.0
176
     1
 76
     1
176
     1
 77
     6
176
     1
 78
     2
176
     1
 67
     7
176
     1
 79
     5
176
     1
170
     0
176
     1
171
     0
176
     1
290
     0
176
     1
 93
        1
176
     1
 44
0.0
176
     1
173
     0
176
     1
  0
VISUALSTYLE
  5
32
102
{ACAD_REACTORS
330
2A
102
}
330
2A
100
AcDbVisualStyle
  2
Basic
 70
     7
177
     2
291
     1
 71
     1
176
     1
 72
     0
176
     1
 73
     1
176
     1
 90
        0
176
     1
 40
-0.6
176
     1
 41
-30.0
176
     1
 62
     5
 63
     7
421
 16777215
176
     1
 74
     0
176
     1
 91
        4
176
     1
 64
     7
176
     1
 65
   257
176
     1
 75
     1
176
     1
175
     1
176
     1
 42
1.0
176
     1
 92
        8
176
     1
 66
     7
176
     1
 43
1.0
176
     1
 76
     1
176
     1
 77
     6
176
     1
 78
     2
176
     1
 67
     7
176
     1
 79
     5
176
     1
170
     0
176
     1
171
     0
176
     1
290
     0
176
     1
 93
        1
176
     1
 44
0.0
176
     1
173
     0
176
     1
  0
VISUALSTYLE
  5
36
102
{ACAD_REACTORS
330
2A
102
}
330
2A
100
AcDbVisualStyle
  2
Brighten
 70
    12
177
     2
291
     1
 71
     2
176
     1
 72
     2
176
     1
 73
     0
176
     1
 90
        0
176
     1
 40
-0.6
176
     1
 41
-30.0
176
     1
 62
     5
 63
     7
421
 16777215
176
     1
 74
     1
176
     1
 91
        4
176
     1
 64
     7
176
     1
 65
   257
176
     1
 75
     1
176
     1
175
     1
176
     1
 42
1.0
176
     1
 92
        8
176
     1
 66
     7
176
     1
 43
1.0
176
     1
 76
     1
176
     1
 77
     6
176
     1
 78
     2
176
     1
 67
     7
176
     1
 79
     5
176
     1
170
     0
176
     1
171
     0
176
     1
290
     0
176
     1
 93
        1
176
     1
 44
50.0
176
     1
173
     0
176
     1
  0
VISUALSTYLE
  5
3A
102
{ACAD_REACTORS
330
2A
102
}
330
2A
100
AcDbVisualStyle
  2
ColorChange
 70
    16
177
     2
291
     1
 71
     2
176
     1
 72
     2
176
     1
 73
     3
176
     1
 90
        0
176
     1
 40
-0.6
176
     1
 41
-30.0
176
     1
 62
     5
 63
     8
421
  8421504
176
     1
 74
     1
176
     1
 91
        4
176
     1
 64
     7
176
     1
 65
   257
176
     1
 75
     1
176
     1
175
     1
176
     1
 42
1.0
176
     1
 92
        8
176
     1
 66
     8
424
  8421504
176
     1
 43
1.0
176
     1
 76
     1
176
     1
 77
     6
176
     1
 78
     2
176
     1
 67
     7
176
     1
 79
     5
176
     1
170
     0
176
     1
171
     0
176
     1
290
     0
176
     1
 93
        1
176
     1
 44
0.0
176
     1
173
     0
176
     1
  0
VISUALSTYLE
  5
34
102
{ACAD_REACTORS
330
2A
102
}
330
2A
100
AcDbVisualStyle
  2
Conceptual
 70
     9
177
     2
291
     0
 71
     3
176
     1
 72
     2
176
     1
 73
     0
176
     1
 90
        0
176
     1
 40
-0.6
176
     1
 41
-30.0
176
     1
 62
     5
 63
     7
421
 16777215
176
     1
 74
     2
176
     1
 91
        2
176
     1
 64
     7
176
     1
 65
   257
176
     1
 75
     1
176
     1
175
     1
176
     1
 42
40.0
176
     1
 92
        8
176
     1
 66
     7
176
     1
 43
1.0
176
     1
 76
     1
176
     1
 77
     6
176
     1
 78
     2
176
     1
 67
     7
176
     1
 79
     3
176
     1
170
     0
176
     1
171
     0
176
     1
290
     0
176
     1
 93
        1
176
     1
 44
0.0
176
     1
173
     0
176
     1
  0
VISUALSTYLE
  5
35
102
{ACAD_REACTORS
330
2A
102
}
330
2A
100
AcDbVisualStyle
  2
Dim
 70
    11
177
     2
291
     1
 71
     2
176
     1
 72
     2
176
     1
 73
     0
176
     1
 90
        0
176
     1
 40
-0.6
176
     1
 41
-30.0
176
     1
 62
     5
 63
     7
421
 16777215
176
     1
 74
     1
176
     1
 91
        4
176
     1
 64
     7
176
     1
 65
   257
176
     1
 75
     1
176
     1
175
     1
176
     1
 42
1.0
176
     1
 92
        8
176
     1
 66
     7
176
     1
 43
1.0
176
     1
 76
     1
176
     1
 77
     6
176
     1
 78
     2
176
     1
 67
     7
176
     1
 79
     5
176
     1
170
     0
176
     1
171
     0
176
     1
290
     0
176
     1
 93
        1
176
     1
 44
-50.0
176
     1
173
     0
176
     1
  0
VISUALSTYLE
  5
39
102
{ACAD_REACTORS
330
2A
102
}
330
2A
100
AcDbVisualStyle
  2
Facepattern
 70
    15
177
     2
291
     1
 71
     2
176
     1
 72
     2
176
     1
 73
     0
176
     1
 90
        0
176
     1
 40
-0.6
176
     1
 41
-30.0
176
     1
 62
     5
 63
     7
421
 16777215
176
     1
 74
     1
176
     1
 91
        4
176
     1
 64
     7
176
     1
 65
   257
176
     1
 75
     1
176
     1
175
     1
176
     1
 42
1.0
176
     1
 92
        8
176
     1
 66
     7
176
     1
 43
1.0
176
     1
 76
     1
176
     1
 77
     6
176
     1
 78
     2
176
     1
 67
     7
176
     1
 79
     5
176
     1
170
     0
176
     1
171
     0
176
     1
290
     0
176
     1
 93
        1
176
     1
 44
0.0
176
     1
173
     0
176
     1
  0
VISUALSTYLE
  5
2B
102
{ACAD_REACTORS
330
2A
102
}
330
2A
100
AcDbVisualStyle
  2
Flat
 70
     0
177
     2
291
     1
 71
     2
176
     1
 72
     1
176
     1
 73
     1
176
     1
 90
        2
176
     1
 40
-0.6
176
     1
 41
30.0
176
     1
 62
     5
 63
     7
421
 16777215
176
     1
 74
     0
176
     1
 91
        4
176
     1
 64
     7
176
     1
 65
   257
176
     1
 75
     1
176
     1
175
     1
176
     1
 42
1.0
176
     1
 92
        8
176
     1
 66
     7
176
     1
 43
1.0
176
     1
 76
     1
176
     1
 77
     6
176
     1
 78
     2
176
     1
 67
     7
176
     1
 79
     5
176
     1
170
     0
176
     1
171
     0
176
     1
290
     0
176
     1
 93
       13
176
     1
 44
0.0
176
     1
173
     0
176
     1
  0
VISUALSTYLE
  5
2C
102
{ACAD_REACTORS
330
2A
102
}
330
2A
100
AcDbVisualStyle
  2
FlatWithEdges
 70
     1
177
     2
291
     1
 71
     2
176
     1
 72
     1
176
     1
 73
     1
176
     1
 90
        2
176
     1
 40
-0.6
176
     1
 41
30.0
176
     1
 62
     5
 63
     7
421
 16777215
176
     1
 74
     1
176
     1
 91
        4
176
     1
 64
     7
176
     1
 65
   257
176
     1
 75
     1
176
     1
175
     1
176
     1
 42
1.0
176
     1
 92
        0
176
     1
 66
   257
176
     1
 43
1.0
176
     1
 76
     1
176
     1
 77
     6
176
     1
 78
     2
176
     1
 67
     7
176
     1
 79
     5
176
     1
170
     0
176
     1
171
     0
176
     1
290
     0
176
     1
 93
       13
176
     1
 44
0.0
176
     1
173
     0
176
     1
  0
VISUALSTYLE
  5
2D
102
{ACAD_REACTORS
330
2A
102
}
330
2A
100
AcDbVisualStyle
  2
Gouraud
 70
     2
177
     2
291
     1
 71
     2
176
     1
 72
     2
176
     1
 73
     1
176
     1
 90
        2
176
     1
 40
-0.6
176
     1
 41
30.0
176
     1
 62
     5
 63
     7
421
 16777215
176
     1
 74
     0
176
     1
 91
        4
176
     1
 64
     7
176
     1
 65
   257
176
     1
 75
     1
176
     1
175
     1
176
     1
 42
1.0
176
     1
 92
        0
176
     1
 66
     7
176
     1
 43
1.0
176
     1
 76
     1
176
     1
 77
     6
176
     1
 78
     2
176
     1
 67
     7
176
     1
 79
     5
176
     1
170
     0
176
     1
171
     0
176
     1
290
     0
176
     1
 93
       13
176
     1
 44
0.0
176
     1
173
     0
176
     1
  0
VISUALSTYLE
  5
2E
102
{ACAD_REACTORS
330
2A
102
}
330
2A
100
AcDbVisualStyle
  2
GouraudWithEdges
 70
     3
177
     2
291
     1
 71
     2
176
     1
 72
     2
176
     1
 73
     1
176
     1
 90
        2
176
     1
 40
-0.6
176
     1
 41
30.0
176
     1
 62
     5
 63
     7
421
 16777215
176
     1
 74
     1
176
     1
 91
        4
176
     1
 64
     7
176
     1
 65
   257
176
     1
 75
     1
176
     1
175
     1
176
     1
 42
1.0
176
     1
 92
        0
176
     1
 66
   257
176
     1
 43
1.0
176
     1
 76
     1
176
     1
 77
     6
176
     1
 78
     2
176
     1
 67
     7
176
     1
 79
     5
176
     1
170
     0
176
     1
171
     0
176
     1
290
     0
176
     1
 93
       13
176
     1
 44
0.0
176
     1
173
     0
176
     1
  0
VISUALSTYLE
  5
38
102
{ACAD_REACTORS
330
2A
102
}
330
2A
100
AcDbVisualStyle
  2
Linepattern
 70
    14
177
     2
291
     1
 71
     2
176
     1
 72
     2
176
     1
 73
     0
176
     1
 90
        0
176
     1
 40
-0.6
176
     1
 41
-30.0
176
     1
 62
     5
 63
     7
421
 16777215
176
     1
 74
     1
176
     1
 91
        4
176
     1
 64
     7
176
     1
 65
   257
176
     1
 75
     7
176
     1
175
     7
176
     1
 42
1.0
176
     1
 92
        8
176
     1
 66
     7
176
     1
 43
1.0
176
     1
 76
     1
176
     1
 77
     6
176
     1
 78
     2
176
     1
 67
     7
176
     1
 79
     5
176
     1
170
     0
176
     1
171
     0
176
     1
290
     0
176
     1
 93
        1
176
     1
 44
0.0
176
     1
173
     0
176
     1
  0
VISUALSTYLE
  5
33
102
{ACAD_REACTORS
330
2A
102
}
330
2A
100
AcDbVisualStyle
  2
Realistic
 70
     8
177
     2
291
     0
 71
     2
176
     1
 72
     2
176
     1
 73
     0
176
     1
 90
        0
176
     1
 40
-0.6
176
     1
 41
-30.0
176
     1
 62
     5
 63
     7
421
 16777215
176
     1
 74
     1
176
     1
 91
        0
176
     1
 64
     7
176
     1
 65
   257
176
     1
 75
     1
176
     1
175
     1
176
     1
 42
1.0
176
     1
 92
        8
176
     1
 66
     8
424
  7895160
176
     1
 43
1.0
176
     1
 76
     1
176
     1
 77
     6
176
     1
 78
     2
176
     1
 67
     7
176
     1
 79
     5
176
     1
170
     0
176
     1
171
     0
176
     1
290
     0
176
     1
 93
       13
176
     1
 44
0.0
176
     1
173
     0
176
     1
  0
VISUALSTYLE
  5
37
102
{ACAD_REACTORS
330
2A
102
}
330
2A
100
AcDbVisualStyle
  2
Thicken
 70
    13
177
     2
291
     1
 71
     2
176
     1
 72
     2
176
     1
 73
     0
176
     1
 90
        0
176
     1
 40
-0.6
176
     1
 41
-30.0
176
     1
 62
     5
 63
     7
421
 16777215
176
     1
 74
     1
176
     1
 91
        4
176
     1
 64
     7
176
     1
 65
   257
176
     1
 75
     1
176
     1
175
     1
176
     1
 42
1.0
176
     1
 92
       12
176
     1
 66
     7
176
     1
 43
1.0
176
     1
 76
     1
176
     1
 77
     6
176
     1
 78
     2
176
     1
 67
     7
176
     1
 79
     5
176
     1
170
     0
176
     1
171
     0
176
     1
290
     0
176
     1
 93
        1
176
     1
 44
0.0
176
     1
173
     0
176
     1
  0
ENDSEC
  0
EOF
