  0
SECTION
  2
HEADER
  9
$ACADVER
  1
AC1024
  9
$ACADMAINTVER
 70
     6
  9
$DWGCODEPAGE
  3
ANSI_932
  9
$INSBASE
 10
0.0
 20
0.0
 30
0.0
  9
$EXTMIN
 10
-4200.0
 20
-2970.0
 30
0.0
  9
$EXTMAX
 10
4200.0
 20
2970.0
 30
0.0
  9
$LIMMIN
 10
-4200.0
 20
-2970.0
  9
$LIMMAX
 10
4200.0
 20
2970.0
  9
$ORTHOMODE
 70
     0
  9
$REGENMODE
 70
     1
  9
$FILLMODE
 70
     1
  9
$QTEXTMODE
 70
     0
  9
$MIRRTEXT
 70
     1
  9
$LTSCALE
 40
20.0
  9
$ATTMODE
 70
     1
  9
$TEXTSIZE
 40
2.5
  9
$TRACEWID
 40
1.0
  9
$TEXTSTYLE
  7
Standard
  9
$CLAYER
  8
0
  9
$CELTYPE
  6
ByLayer
  9
$CECOLOR
 62
   256
  9
$CELTSCALE
 40
1.0
  9
$DISPSILH
 70
     0
  9
$DIMSCALE
 40
1.0
  9
$DIMASZ
 40
2.5
  9
$DIMEXO
 40
0.625
  9
$DIMDLI
 40
3.75
  9
$DIMRND
 40
0.0
  9
$DIMDLE
 40
0.0
  9
$DIMEXE
 40
1.25
  9
$DIMTP
 40
0.0
  9
$DIMTM
 40
0.0
  9
$DIMTXT
 40
2.5
  9
$DIMCEN
 40
2.5
  9
$DIMTSZ
 40
0.0
  9
$DIMTOL
 70
     0
  9
$DIMLIM
 70
     0
  9
$DIMTIH
 70
     0
  9
$DIMTOH
 70
     0
  9
$DIMSE1
 70
     0
  9
$DIMSE2
 70
     0
  9
$DIMTAD
 70
     1
  9
$DIMZIN
 70
     8
  9
$DIMBLK
  1

  9
$DIMASO
 70
     1
  9
$DIMSHO
 70
     1
  9
$DIMPOST
  1

  9
$DIMAPOST
  1

  9
$DIMALT
 70
     0
  9
$DIMALTD
 70
     3
  9
$DIMALTF
 40
0.03937007874016
  9
$DIMLFAC
 40
1.0
  9
$DIMTOFL
 70
     1
  9
$DIMTVP
 40
0.0
  9
$DIMTIX
 70
     0
  9
$DIMSOXD
 70
     0
  9
$DIMSAH
 70
     0
  9
$DIMBLK1
  1

  9
$DIMBLK2
  1

  9
$DIMSTYLE
  2
ISO-25
  9
$DIMCLRD
 70
     0
  9
$DIMCLRE
 70
     0
  9
$DIMCLRT
 70
     0
  9
$DIMTFAC
 40
1.0
  9
$DIMGAP
 40
0.625
  9
$DIMJUST
 70
     0
  9
$DIMSD1
 70
     0
  9
$DIMSD2
 70
     0
  9
$DIMTOLJ
 70
     0
  9
$DIMTZIN
 70
     8
  9
$DIMALTZ
 70
     0
  9
$DIMALTTZ
 70
     0
  9
$DIMUPT
 70
     0
  9
$DIMDEC
 70
     2
  9
$DIMTDEC
 70
     2
  9
$DIMALTU
 70
     2
  9
$DIMALTTD
 70
     3
  9
$DIMTXSTY
  7
Standard
  9
$DIMAUNIT
 70
     0
  9
$DIMADEC
 70
     0
  9
$DIMALTRND
 40
0.0
  9
$DIMAZIN
 70
     0
  9
$DIMDSEP
 70
    44
  9
$DIMATFIT
 70
     3
  9
$DIMFRAC
 70
     0
  9
$DIMLDRBLK
  1

  9
$DIMLUNIT
 70
     2
  9
$DIMLWD
 70
    -2
  9
$DIMLWE
 70
    -2
  9
$DIMTMOVE
 70
     0
  9
$DIMFXL
 40
1.0
  9
$DIMFXLON
 70
     0
  9
$DIMJOGANG
 40
0.7853981633974483
  9
$DIMTFILL
 70
     0
  9
$DIMTFILLCLR
 70
     0
  9
$DIMARCSYM
 70
     0
  9
$DIMLTYPE
  6

  9
$DIMLTEX1
  6

  9
$DIMLTEX2
  6

  9
$DIMTXTDIRECTION
 70
     0
  9
$LUNITS
 70
     2
  9
$LUPREC
 70
     4
  9
$SKETCHINC
 40
1.0
  9
$FILLETRAD
 40
10.0
  9
$AUNITS
 70
     0
  9
$AUPREC
 70
     0
  9
$MENU
  1
.
  9
$ELEVATION
 40
0.0
  9
$PELEVATION
 40
0.0
  9
$THICKNESS
 40
0.0
  9
$LIMCHECK
 70
     0
  9
$CHAMFERA
 40
10.0
  9
$CHAMFERB
 40
10.0
  9
$CHAMFERC
 40
20.0
  9
$CHAMFERD
 40
0.0
  9
$SKPOLY
 70
     0
  9
$TDCREATE
 40
2459432.544075151
  9
$TDUCREATE
 40
2459432.169075151
  9
$TDUPDATE
 40
2459432.544075162
  9
$TDUUPDATE
 40
2459432.169075162
  9
$TDINDWG
 40
0.0000000116
  9
$TDUSRTIMER
 40
0.0000000116
  9
$USRTIMER
 70
     1
  9
$ANGBASE
 50
0.0
  9
$ANGDIR
 70
     0
  9
$PDMODE
 70
     0
  9
$PDSIZE
 40
0.0
  9
$PLINEWID
 40
0.0
  9
$SPLFRAME
 70
     0
  9
$SPLINETYPE
 70
     6
  9
$SPLINESEGS
 70
     8
  9
$HANDSEED
  5
364
  9
$SURFTAB1
 70
     6
  9
$SURFTAB2
 70
     6
  9
$SURFTYPE
 70
     6
  9
$SURFU
 70
     6
  9
$SURFV
 70
     6
  9
$UCSBASE
  2

  9
$UCSNAME
  2

  9
$UCSORG
 10
0.0
 20
0.0
 30
0.0
  9
$UCSXDIR
 10
1.0
 20
0.0
 30
0.0
  9
$UCSYDIR
 10
0.0
 20
1.0
 30
0.0
  9
$UCSORTHOREF
  2

  9
$UCSORTHOVIEW
 70
     0
  9
$UCSORGTOP
 10
0.0
 20
0.0
 30
0.0
  9
$UCSORGBOTTOM
 10
0.0
 20
0.0
 30
0.0
  9
$UCSORGLEFT
 10
0.0
 20
0.0
 30
0.0
  9
$UCSORGRIGHT
 10
0.0
 20
0.0
 30
0.0
  9
$UCSORGFRONT
 10
0.0
 20
0.0
 30
0.0
  9
$UCSORGBACK
 10
0.0
 20
0.0
 30
0.0
  9
$PUCSBASE
  2

  9
$PUCSNAME
  2

  9
$PUCSORG
 10
0.0
 20
0.0
 30
0.0
  9
$PUCSXDIR
 10
1.0
 20
0.0
 30
0.0
  9
$PUCSYDIR
 10
0.0
 20
1.0
 30
0.0
  9
$PUCSORTHOREF
  2

  9
$PUCSORTHOVIEW
 70
     0
  9
$PUCSORGTOP
 10
0.0
 20
0.0
 30
0.0
  9
$PUCSORGBOTTOM
 10
0.0
 20
0.0
 30
0.0
  9
$PUCSORGLEFT
 10
0.0
 20
0.0
 30
0.0
  9
$PUCSORGRIGHT
 10
0.0
 20
0.0
 30
0.0
  9
$PUCSORGFRONT
 10
0.0
 20
0.0
 30
0.0
  9
$PUCSORGBACK
 10
0.0
 20
0.0
 30
0.0
  9
$USERI1
 70
     0
  9
$USERI2
 70
     0
  9
$USERI3
 70
     0
  9
$USERI4
 70
     0
  9
$USERI5
 70
     0
  9
$USERR1
 40
0.0
  9
$USERR2
 40
0.0
  9
$USERR3
 40
0.0
  9
$USERR4
 40
0.0
  9
$USERR5
 40
0.0
  9
$WORLDVIEW
 70
     1
  9
$SHADEDGE
 70
     3
  9
$SHADEDIF
 70
    70
  9
$TILEMODE
 70
     1
  9
$MAXACTVP
 70
    64
  9
$PINSBASE
 10
0.0
 20
0.0
 30
0.0
  9
$PLIMCHECK
 70
     0
  9
$PEXTMIN
 10
1.000000000000000E+20
 20
1.000000000000000E+20
 30
1.000000000000000E+20
  9
$PEXTMAX
 10
-1.000000000000000E+20
 20
-1.000000000000000E+20
 30
-1.000000000000000E+20
  9
$PLIMMIN
 10
0.0
 20
0.0
  9
$PLIMMAX
 10
420.0
 20
297.0
  9
$UNITMODE
 70
     0
  9
$VISRETAIN
 70
     1
  9
$PLINEGEN
 70
     0
  9
$PSLTSCALE
 70
     1
  9
$TREEDEPTH
 70
  3020
  9
$CMLSTYLE
  2
Standard
  9
$CMLJUST
 70
     0
  9
$CMLSCALE
 40
20.0
  9
$PROXYGRAPHICS
 70
     1
  9
$MEASUREMENT
 70
     1
  9
$CELWEIGHT
370
    -1
  9
$ENDCAPS
280
     0
  9
$JOINSTYLE
280
     0
  9
$LWDISPLAY
290
     0
  9
$INSUNITS
 70
     4
  9
$HYPERLINKBASE
  1

  9
$STYLESHEET
  1

  9
$XEDIT
290
     1
  9
$CEPSNTYPE
380
     0
  9
$PSTYLEMODE
290
     1
  9
$FINGERPRINTGUID
  2
{0BF2BA0E-DEB5-44D4-8443-EF480F8C0C13}
  9
$VERSIONGUID
  2
{FAEB1C32-E019-11D5-929B-00C0DF256EC4}
  9
$EXTNAMES
290
     1
  9
$PSVPSCALE
 40
0.0
  9
$OLESTARTUP
290
     0
  9
$SORTENTS
280
   127
  9
$INDEXCTL
280
     0
  9
$HIDETEXT
280
     1
  9
$XCLIPFRAME
280
     2
  9
$HALOGAP
280
     0
  9
$OBSCOLOR
 70
   257
  9
$OBSLTYPE
280
     0
  9
$INTERSECTIONDISPLAY
280
     0
  9
$INTERSECTIONCOLOR
 70
   257
  9
$DIMASSOC
280
     2
  9
$PROJECTNAME
  1

  9
$CAMERADISPLAY
290
     0
  9
$LENSLENGTH
 40
50.0
  9
$CAMERAHEIGHT
 40
0.0
  9
$STEPSPERSEC
 40
2.0
  9
$STEPSIZE
 40
6.0
  9
$3DDWFPREC
 40
2.0
  9
$PSOLWIDTH
 40
5.0
  9
$PSOLHEIGHT
 40
80.0
  9
$LOFTANG1
 40
1.570796326794897
  9
$LOFTANG2
 40
1.570796326794897
  9
$LOFTMAG1
 40
0.0
  9
$LOFTMAG2
 40
0.0
  9
$LOFTPARAM
 70
     7
  9
$LOFTNORMALS
280
     1
  9
$LATITUDE
 40
37.795
  9
$LONGITUDE
 40
-122.394
  9
$NORTHDIRECTION
 40
0.0
  9
$TIMEZONE
 70
 -8000
  9
$LIGHTGLYPHDISPLAY
280
     1
  9
$TILEMODELIGHTSYNCH
280
     1
  9
$SOLIDHIST
280
     1
  9
$SHOWHIST
280
     1
  9
$DWFFRAME
280
     2
  9
$DGNFRAME
280
     2
  9
$REALWORLDSCALE
290
     1
  9
$INTERFERECOLOR
 62
   256
  9
$CSHADOW
280
     0
  9
$SHADOWPLANELOCATION
 40
0.0
  0
ENDSEC
  0
SECTION
  2
CLASSES
  0
CLASS
  1
ACDBDICTIONARYWDFLT
  2
AcDbDictionaryWithDefault
  3
ObjectDBX Classes
 90
        0
 91
        4
280
     0
281
     0
  0
CLASS
  1
VISUALSTYLE
  2
AcDbVisualStyle
  3
ObjectDBX Classes
 90
     4095
 91
        4
280
     0
281
     0
  0
CLASS
  1
MATERIAL
  2
AcDbMaterial
  3
ObjectDBX Classes
 90
     1153
 91
        4
280
     0
281
     0
  0
ENDSEC
  0
SECTION
  2
TABLES
  0
TABLE
  2
VPORT
  5
8
330
0
100
AcDbSymbolTable
 70
     1
  0
VPORT
  5
29
330
8
100
AcDbSymbolTableRecord
100
AcDbViewportTableRecord
  2
*Active
 70
     0
 10
0.0
 20
0.0
 11
1.0
 21
1.0
 12
0.0
 22
0.0
 13
0.0
 23
0.0
 14
10.0
 24
10.0
 15
10.0
 25
10.0
 16
0.0
 26
0.0
 36
1.0
 17
0.0
 27
0.0
 37
0.0
 40
6534.000000000001
 41
1.414141414141414
 42
50.0
 43
0.0
 44
0.0
 50
0.0
 51
0.0
 71
     0
 72
 10000
 73
     1
 74
     3
 75
     0
 76
     0
 77
     0
 78
     0
281
     0
 65
     1
110
0.0
120
0.0
130
0.0
111
1.0
121
0.0
131
0.0
112
0.0
122
1.0
132
0.0
 79
     0
146
0.0
 60
     3
 61
     5
292
     1
282
     1
141
0.0
142
0.0
 63
   250
  0
ENDTAB
  0
TABLE
  2
LTYPE
  5
5
330
0
100
AcDbSymbolTable
 70
     3
  0
LTYPE
  5
14
330
5
100
AcDbSymbolTableRecord
100
AcDbLinetypeTableRecord
  2
ByBlock
 70
     0
  3

 72
    65
 73
     0
 40
0.0
  0
LTYPE
  5
15
330
5
100
AcDbSymbolTableRecord
100
AcDbLinetypeTableRecord
  2
ByLayer
 70
     0
  3

 72
    65
 73
     0
 40
0.0
  0
LTYPE
  5
16
330
5
100
AcDbSymbolTableRecord
100
AcDbLinetypeTableRecord
  2
Continuous
 70
     0
  3
Solid line
 72
    65
 73
     0
 40
0.0
  0
LTYPE
  5
3F
330
5
100
AcDbSymbolTableRecord
100
AcDbLinetypeTableRecord
  2
JWW_HOJO
 70
     0
  3
  -   -   -   -   -   -   -   - 
 72
    65
 73
     2
 40
1.693333333333333
 49
-1.27
 74
     0
 49
0.4233333333333333
 74
     0
  0
LTYPE
  5
40
330
5
100
AcDbSymbolTableRecord
100
AcDbLinetypeTableRecord
  2
JWW_DASHED1
 70
     0
  3
-  --  --  --  --  --  --  --  -
 72
    65
 73
     2
 40
1.693333333333333
 49
0.8466666666666667
 74
     0
 49
-0.8466666666666667
 74
     0
  0
ENDTAB
  0
TABLE
  2
LAYER
  5
2
330
0
100
AcDbSymbolTable
 70
    12
  0
LAYER
  5
10
330
2
100
AcDbSymbolTableRecord
100
AcDbLayerTableRecord
  2
0
 70
     0
 62
     7
  6
Continuous
370
    -3
390
F
347
3E
  0
LAYER
  5
41
330
2
100
AcDbSymbolTableRecord
100
AcDbLayerTableRecord
  2
F-0
 70
     0
 62
     7
  6
Continuous
370
    -3
390
F
347
3E
  0
LAYER
  5
42
330
2
100
AcDbSymbolTableRecord
100
AcDbLayerTableRecord
  2
F-1
 70
     0
 62
     7
  6
Continuous
370
    -3
390
F
347
3E
  0
LAYER
  5
43
330
2
100
AcDbSymbolTableRecord
100
AcDbLayerTableRecord
  2
F-A
 70
     0
 62
     7
  6
Continuous
370
    -3
390
F
347
3E
  0
LAYER
  5
44
330
2
100
AcDbSymbolTableRecord
100
AcDbLayerTableRecord
  2
1-A
 70
     0
 62
     7
  6
Continuous
370
    -3
390
F
347
3E
  0
LAYER
  5
45
330
2
100
AcDbSymbolTableRecord
100
AcDbLayerTableRecord
  2
1-4
 70
     0
 62
     7
  6
Continuous
370
    -3
390
F
347
3E
  0
LAYER
  5
46
330
2
100
AcDbSymbolTableRecord
100
AcDbLayerTableRecord
  2
1-B
 70
     0
 62
     7
  6
Continuous
370
    -3
390
F
347
3E
  0
LAYER
  5
47
330
2
100
AcDbSymbolTableRecord
100
AcDbLayerTableRecord
  2
1-0
 70
     0
 62
     7
  6
Continuous
370
    -3
390
F
347
3E
  0
LAYER
  5
48
330
2
100
AcDbSymbolTableRecord
100
AcDbLayerTableRecord
  2
0-4
 70
     0
 62
     7
  6
Continuous
370
    -3
390
F
347
3E
  0
LAYER
  5
49
330
2
100
AcDbSymbolTableRecord
100
AcDbLayerTableRecord
  2
0-0
 70
     0
 62
     7
  6
Continuous
370
    -3
390
F
347
3E
  0
LAYER
  5
4A
330
2
100
AcDbSymbolTableRecord
100
AcDbLayerTableRecord
  2
0-B
 70
     0
 62
     7
  6
Continuous
370
    -3
390
F
347
3E
  0
LAYER
  5
4B
330
2
100
AcDbSymbolTableRecord
100
AcDbLayerTableRecord
  2
0-A
 70
     0
 62
     7
  6
Continuous
370
    -3
390
F
347
3E
  0
ENDTAB
  0
TABLE
  2
STYLE
  5
3
330
0
100
AcDbSymbolTable
 70
     1
  0
STYLE
  5
11
330
3
100
AcDbSymbolTableRecord
100
AcDbTextStyleTableRecord
  2
Standard
 70
     0
 40
0.0
 41
1.0
 50
0.0
 71
     0
 42
2.5
  3
txt
  4

  0
ENDTAB
  0
TABLE
  2
VIEW
  5
6
330
0
100
AcDbSymbolTable
 70
     0
  0
ENDTAB
  0
TABLE
  2
UCS
  5
7
330
0
100
AcDbSymbolTable
 70
     0
  0
ENDTAB
  0
TABLE
  2
APPID
  5
9
330
0
100
AcDbSymbolTable
 70
     1
  0
APPID
  5
12
330
9
100
AcDbSymbolTableRecord
100
AcDbRegAppTableRecord
  2
ACAD
 70
     0
  0
ENDTAB
  0
TABLE
  2
DIMSTYLE
  5
A
330
0
100
AcDbSymbolTable
 70
     1
100
AcDbDimStyleTable
  0
DIMSTYLE
105
27
330
A
100
AcDbSymbolTableRecord
100
AcDbDimStyleTableRecord
  2
ISO-25
 70
     0
 41
2.5
 42
0.625
 43
3.75
 44
1.25
 73
     0
 74
     0
 77
     1
 78
     8
140
2.5
141
2.5
143
0.03937007874016
147
0.625
171
     3
172
     1
178
     0
271
     2
272
     2
274
     3
278
    44
283
     0
284
     8
340
11
  0
ENDTAB
  0
TABLE
  2
BLOCK_RECORD
  5
1
330
0
100
AcDbSymbolTable
 70
     1
  0
BLOCK_RECORD
  5
1F
330
1
100
AcDbSymbolTableRecord
100
AcDbBlockTableRecord
  2
*Model_Space
340
22
 70
     0
280
     1
281
     0
  0
BLOCK_RECORD
  5
1B
330
1
100
AcDbSymbolTableRecord
100
AcDbBlockTableRecord
  2
*Paper_Space
340
1E
 70
     0
280
     1
281
     0
  0
BLOCK_RECORD
  5
23
330
1
100
AcDbSymbolTableRecord
100
AcDbBlockTableRecord
  2
*Paper_Space0
340
26
 70
     0
280
     1
281
     0
  0
ENDTAB
  0
ENDSEC
  0
SECTION
  2
BLOCKS
  0
BLOCK
  5
20
330
1F
100
AcDbEntity
  8
0
100
AcDbBlockBegin
  2
*Model_Space
 70
     0
 10
0.0
 20
0.0
 30
0.0
  3
*Model_Space
  1

  0
ENDBLK
  5
21
330
1F
100
AcDbEntity
  8
0
100
AcDbBlockEnd
  0
BLOCK
  5
1C
330
1B
100
AcDbEntity
 67
     1
  8
0
100
AcDbBlockBegin
  2
*Paper_Space
 70
     0
 10
0.0
 20
0.0
 30
0.0
  3
*Paper_Space
  1

  0
ENDBLK
  5
1D
330
1B
100
AcDbEntity
 67
     1
  8
0
100
AcDbBlockEnd
  0
BLOCK
  5
24
330
23
100
AcDbEntity
  8
0
100
AcDbBlockBegin
  2
*Paper_Space0
 70
     0
 10
0.0
 20
0.0
 30
0.0
  3
*Paper_Space0
  1

  0
ENDBLK
  5
25
330
23
100
AcDbEntity
  8
0
100
AcDbBlockEnd
  0
ENDSEC
  0
SECTION
  2
ENTITIES
  0
LINE
  5
4C
330
1F
100
AcDbEntity
  8
F-0
  6
JWW_HOJO
 62
   120
370
     5
100
AcDbLine
 10
-3993.33306389886
 20
2631.666919605152
 30
0.0
 11
3793.558316617399
 21
2631.666919605152
 31
0.0
  0
LINE
  5
4D
330
1F
100
AcDbEntity
  8
F-0
  6
JWW_HOJO
 62
   120
370
     5
100
AcDbLine
 10
-3993.33306389886
 20
973.3331463788011
 30
0.0
 11
3799.999175200592
 21
973.3331463788011
 31
0.0
  0
LINE
  5
4E
330
1F
100
AcDbEntity
  8
F-0
  6
JWW_HOJO
 62
   120
370
     5
100
AcDbLine
 10
1448.33277109507
 20
2473.333641258446
 30
0.0
 11
1448.33277109507
 21
-2526.666678351325
 31
0.0
  0
LINE
  5
4F
330
1F
100
AcDbEntity
  8
F-1
  6
Continuous
 62
   200
370
    20
100
AcDbLine
 10
-3993.333326803671
 20
2783.333179370777
 30
0.0
 11
-3993.333326803671
 21
-2803.333443306588
 31
0.0
  0
LINE
  5
50
330
1F
100
AcDbEntity
  8
F-0
  6
JWW_HOJO
 62
   120
370
     5
100
AcDbLine
 10
1.666259765625
 20
2776.666655669342
 30
0.0
 11
1.666259765625
 21
-2526.72046558277
 31
0.0
  0
LINE
  5
51
330
1F
100
AcDbEntity
  8
F-0
  6
JWW_HOJO
 62
   120
370
     5
100
AcDbLine
 10
-4200.0
 20
2949.99973606419
 30
0.0
 11
3999.999340160473
 21
2949.99973606419
 31
0.0
  0
LINE
  5
52
330
1F
100
AcDbEntity
  8
F-0
  6
JWW_HOJO
 62
   120
370
     5
100
AcDbLine
 10
-4200.0
 20
-2970.0
 30
0.0
 11
-4200.0
 21
2949.99973606419
 31
0.0
  0
LINE
  5
53
330
1F
100
AcDbEntity
  8
F-0
  6
JWW_HOJO
 62
   120
370
     5
100
AcDbLine
 10
3999.999340160473
 20
2949.99973606419
 30
0.0
 11
3999.999340160473
 21
-2970.0
 31
0.0
  0
LINE
  5
54
330
1F
100
AcDbEntity
  8
F-0
  6
JWW_HOJO
 62
   120
370
     5
100
AcDbLine
 10
3999.999340160473
 20
-2970.0
 30
0.0
 11
-4200.0
 21
-2970.0
 31
0.0
  0
LINE
  5
55
330
1F
100
AcDbEntity
  8
F-0
  6
JWW_HOJO
 62
   120
370
     5
100
AcDbLine
 10
-3993.332816459038
 20
1973.333476298565
 30
0.0
 11
3793.332651499157
 21
1973.333476298565
 31
0.0
  0
LINE
  5
56
330
1F
100
AcDbEntity
  8
F-0
  6
JWW_HOJO
 62
   120
370
     5
100
AcDbLine
 10
-3993.33306389886
 20
-2026.666668041332
 30
0.0
 11
3799.999175200592
 21
-2026.666668041332
 31
0.0
  0
LINE
  5
57
330
1F
100
AcDbEntity
  8
F-1
  6
Continuous
 62
   200
370
    20
100
AcDbLine
 10
-3999.999835040119
 20
2783.333179370777
 30
0.0
 11
3799.999175200592
 21
2783.333179370777
 31
0.0
  0
LINE
  5
58
330
1F
100
AcDbEntity
  8
F-1
  6
Continuous
 62
   200
370
    20
100
AcDbLine
 10
3799.999175200592
 20
2783.333179370777
 30
0.0
 11
3799.999175200592
 21
-2803.333443306588
 31
0.0
  0
LINE
  5
59
330
1F
100
AcDbEntity
  8
F-1
  6
Continuous
 62
   200
370
    20
100
AcDbLine
 10
-3999.999989690007
 20
2783.333179370777
 30
0.0
 11
-3999.999989690007
 21
-2803.333443306588
 31
0.0
  0
LINE
  5
5A
330
1F
100
AcDbEntity
  8
F-1
  6
Continuous
 62
   200
370
    20
100
AcDbLine
 10
-3999.999835040119
 20
2776.666655669342
 30
0.0
 11
3799.999175200592
 21
2776.666655669342
 31
0.0
  0
LINE
  5
5B
330
1F
100
AcDbEntity
  8
F-1
  6
Continuous
 62
   200
370
    20
100
AcDbLine
 10
-3999.999835040119
 20
2779.999670080237
 30
0.0
 11
3799.999175200592
 21
2779.999670080237
 31
0.0
  0
LINE
  5
5C
330
1F
100
AcDbEntity
  8
F-1
  6
Continuous
 62
   200
370
    20
100
AcDbLine
 10
-3996.666650514345
 20
2783.333179370777
 30
0.0
 11
-3996.666650514345
 21
-2803.333443306588
 31
0.0
  0
LINE
  5
5D
330
1F
100
AcDbEntity
  8
F-1
  6
Continuous
 62
   200
370
    20
100
AcDbLine
 10
3796.665665910051
 20
2783.333179370777
 30
0.0
 11
3796.665665910051
 21
-2803.333443306588
 31
0.0
  0
LINE
  5
5E
330
1F
100
AcDbEntity
  8
F-1
  6
Continuous
 62
   200
370
    20
100
AcDbLine
 10
3793.332651499156
 20
2783.333179370777
 30
0.0
 11
3793.332651499156
 21
-2803.333443306588
 31
0.0
  0
LINE
  5
5F
330
1F
100
AcDbEntity
  8
F-1
  6
Continuous
 62
   200
370
    20
100
AcDbLine
 10
-100.0005773595859
 20
2783.333179370777
 30
0.0
 11
-100.0005773595859
 21
-2530.000032991976
 31
0.0
  0
LINE
  5
60
330
1F
100
AcDbEntity
  8
F-1
  6
Continuous
 62
   200
370
    20
100
AcDbLine
 10
-96.66731550886823
 20
2783.36534654772
 30
0.0
 11
-96.66731550886823
 21
-2530.000032991976
 31
0.0
  0
LINE
  5
61
330
1F
100
AcDbEntity
  8
F-1
  6
Continuous
 62
   200
370
    20
100
AcDbLine
 10
-103.3338392103036
 20
2783.36534654772
 30
0.0
 11
-103.3338392103036
 21
-2530.000032991976
 31
0.0
  0
LINE
  5
62
330
1F
100
AcDbEntity
  8
F-1
  6
Continuous
 62
   200
370
    20
100
AcDbLine
 10
3799.999175200592
 20
2473.333641258446
 30
0.0
 11
-3999.999835040119
 21
2473.333641258446
 31
0.0
  0
LINE
  5
63
330
1F
100
AcDbEntity
  8
F-1
  6
Continuous
 62
     7
370
     9
100
AcDbLine
 10
-1603.333839210304
 20
2783.36534654772
 30
0.0
 11
-1603.333839210304
 21
-2530.000032991976
 31
0.0
  0
LINE
  5
64
330
1F
100
AcDbEntity
  8
F-1
  6
Continuous
 62
     7
370
     9
100
AcDbLine
 10
603.3330144108953
 20
2783.36534654772
 30
0.0
 11
603.3330144108953
 21
-2530.000032991976
 31
0.0
  0
LINE
  5
65
330
1F
100
AcDbEntity
  8
F-1
  6
Continuous
 62
     7
370
     9
100
AcDbLine
 10
-3293.333352578653
 20
2783.333179370777
 30
0.0
 11
-3293.333352578653
 21
-2526.666678351325
 31
0.0
  0
LINE
  5
66
330
1F
100
AcDbEntity
  8
F-1
  6
Continuous
 62
     7
370
     9
100
AcDbLine
 10
2293.333146378801
 20
2783.333179370777
 30
0.0
 11
2293.333146378801
 21
-2526.666678351325
 31
0.0
  0
LINE
  5
67
330
1F
100
AcDbEntity
  8
F-0
  6
JWW_HOJO
 62
   120
370
     5
100
AcDbLine
 10
-2448.333595894478
 20
2473.333641258446
 30
0.0
 11
-2448.333595894478
 21
-2526.666678351325
 31
0.0
  0
LINE
  5
68
330
1F
100
AcDbEntity
  8
F-1
  6
Continuous
 62
     7
370
     9
100
AcDbLine
 10
-1603.333839210304
 20
2631.666919605152
 30
0.0
 11
-1003.333839210304
 21
2631.666919605152
 31
0.0
  0
LINE
  5
69
330
1F
100
AcDbEntity
  8
F-1
  6
Continuous
 62
     7
370
     9
100
AcDbLine
 10
-1003.333839210304
 20
2783.365346547719
 30
0.0
 11
-1003.333839210304
 21
-2530.000032991977
 31
0.0
  0
LINE
  5
6A
330
1F
100
AcDbEntity
  8
F-1
  6
JWW_HOJO
 62
     7
370
     9
100
AcDbLine
 10
-963.3338392103042
 20
2783.365346547719
 30
0.0
 11
-963.3338392103042
 21
-2530.000032991977
 31
0.0
  0
LINE
  5
6B
330
1F
100
AcDbEntity
  8
F-1
  6
Continuous
 62
     7
370
     9
100
AcDbLine
 10
-423.3338392103036
 20
2783.365346547719
 30
0.0
 11
-423.3338392103036
 21
-2530.000032991977
 31
0.0
  0
LINE
  5
6C
330
1F
100
AcDbEntity
  8
F-1
  6
Continuous
 62
     7
370
     9
100
AcDbLine
 10
2293.333146378801
 20
2631.634752428209
 30
0.0
 11
2893.333146378801
 21
2631.634752428209
 31
0.0
  0
LINE
  5
6D
330
1F
100
AcDbEntity
  8
F-1
  6
Continuous
 62
     7
370
     9
100
AcDbLine
 10
2893.333146378801
 20
2783.333179370776
 30
0.0
 11
2893.333146378801
 21
-2530.03220016892
 31
0.0
  0
LINE
  5
6E
330
1F
100
AcDbEntity
  8
F-1
  6
JWW_HOJO
 62
     7
370
     9
100
AcDbLine
 10
2933.333146378801
 20
2783.333179370776
 30
0.0
 11
2933.333146378801
 21
-2530.03220016892
 31
0.0
  0
LINE
  5
6F
330
1F
100
AcDbEntity
  8
F-1
  6
Continuous
 62
     7
370
     9
100
AcDbLine
 10
3473.333146378802
 20
2783.333179370776
 30
0.0
 11
3473.333146378802
 21
-2530.03220016892
 31
0.0
  0
LINE
  5
70
330
1F
100
AcDbEntity
  8
F-1
  6
JWW_DASHED1
 62
     7
370
     9
100
AcDbLine
 10
-103.3338392103036
 20
2373.332816459038
 30
0.0
 11
-1003.333839210304
 21
2373.332816459038
 31
0.0
  0
LINE
  5
71
330
1F
100
AcDbEntity
  8
F-1
  6
JWW_DASHED1
 62
     7
370
     9
100
AcDbLine
 10
3799.999175200592
 20
-2426.667059821052
 30
0.0
 11
2293.333146378801
 21
-2426.667059821052
 31
0.0
  0
LINE
  5
72
330
1F
100
AcDbEntity
  8
F-1
  6
JWW_DASHED1
 62
     7
370
     9
100
AcDbLine
 10
3799.999175200592
 20
2273.332981418919
 30
0.0
 11
2293.333146378801
 21
2273.332981418919
 31
0.0
  0
LINE
  5
73
330
1F
100
AcDbEntity
  8
F-1
  6
JWW_DASHED1
 62
     7
370
     9
100
AcDbLine
 10
3799.999175200592
 20
2173.333146378801
 30
0.0
 11
2293.333146378801
 21
2173.333146378801
 31
0.0
  0
LINE
  5
74
330
1F
100
AcDbEntity
  8
F-1
  6
JWW_DASHED1
 62
     7
370
     9
100
AcDbLine
 10
3799.999175200592
 20
2073.333311338683
 30
0.0
 11
2293.333146378801
 21
2073.333311338683
 31
0.0
  0
LINE
  5
75
330
1F
100
AcDbEntity
  8
F-1
  6
JWW_DASHED1
 62
     7
370
     9
100
AcDbLine
 10
3799.999175200592
 20
1973.332981418919
 30
0.0
 11
2293.333146378801
 21
1973.332981418919
 31
0.0
  0
LINE
  5
76
330
1F
100
AcDbEntity
  8
F-1
  6
JWW_DASHED1
 62
     7
370
     9
100
AcDbLine
 10
3799.999175200592
 20
1873.333146378801
 30
0.0
 11
2293.333146378801
 21
1873.333146378801
 31
0.0
  0
LINE
  5
77
330
1F
100
AcDbEntity
  8
F-1
  6
JWW_DASHED1
 62
     7
370
     9
100
AcDbLine
 10
3799.999175200592
 20
1773.333311338683
 30
0.0
 11
2293.333146378801
 21
1773.333311338683
 31
0.0
  0
LINE
  5
78
330
1F
100
AcDbEntity
  8
F-1
  6
JWW_DASHED1
 62
     7
370
     9
100
AcDbLine
 10
3799.999175200592
 20
1673.332981418919
 30
0.0
 11
2293.333146378801
 21
1673.332981418919
 31
0.0
  0
LINE
  5
79
330
1F
100
AcDbEntity
  8
F-1
  6
JWW_DASHED1
 62
     7
370
     9
100
AcDbLine
 10
3799.999175200592
 20
1573.333146378801
 30
0.0
 11
2293.333146378801
 21
1573.333146378801
 31
0.0
  0
LINE
  5
7A
330
1F
100
AcDbEntity
  8
F-1
  6
JWW_DASHED1
 62
     7
370
     9
100
AcDbLine
 10
3799.999175200592
 20
1373.332981418919
 30
0.0
 11
2293.333146378801
 21
1373.332981418919
 31
0.0
  0
LINE
  5
7B
330
1F
100
AcDbEntity
  8
F-1
  6
JWW_DASHED1
 62
     7
370
     9
100
AcDbLine
 10
3799.999175200592
 20
1273.333146378801
 30
0.0
 11
2293.333146378801
 21
1273.333146378801
 31
0.0
  0
LINE
  5
7C
330
1F
100
AcDbEntity
  8
F-1
  6
JWW_DASHED1
 62
     7
370
     9
100
AcDbLine
 10
3799.999175200592
 20
1173.33306389886
 30
0.0
 11
2293.333146378801
 21
1173.33306389886
 31
0.0
  0
LINE
  5
7D
330
1F
100
AcDbEntity
  8
F-1
  6
JWW_DASHED1
 62
     7
370
     9
100
AcDbLine
 10
3799.999175200592
 20
1073.332981418919
 30
0.0
 11
2293.333146378801
 21
1073.332981418919
 31
0.0
  0
LINE
  5
7E
330
1F
100
AcDbEntity
  8
F-1
  6
JWW_DASHED1
 62
     7
370
     9
100
AcDbLine
 10
3799.999175200592
 20
973.3328989389781
 30
0.0
 11
2293.333146378801
 21
973.3328989389781
 31
0.0
  0
LINE
  5
7F
330
1F
100
AcDbEntity
  8
F-1
  6
JWW_DASHED1
 62
     7
370
     9
100
AcDbLine
 10
3799.999175200592
 20
873.3328164590375
 30
0.0
 11
2293.333146378801
 21
873.3328164590375
 31
0.0
  0
LINE
  5
80
330
1F
100
AcDbEntity
  8
F-1
  6
JWW_DASHED1
 62
     7
370
     9
100
AcDbLine
 10
3799.999175200592
 20
773.3329814189193
 30
0.0
 11
2293.333146378801
 21
773.3329814189193
 31
0.0
  0
LINE
  5
81
330
1F
100
AcDbEntity
  8
F-1
  6
JWW_DASHED1
 62
     7
370
     9
100
AcDbLine
 10
3799.999175200592
 20
673.3328989389781
 30
0.0
 11
2293.333146378801
 21
673.3328989389781
 31
0.0
  0
LINE
  5
82
330
1F
100
AcDbEntity
  8
F-1
  6
JWW_DASHED1
 62
     7
370
     9
100
AcDbLine
 10
3799.999175200592
 20
573.3328164590375
 30
0.0
 11
2293.333146378801
 21
573.3328164590375
 31
0.0
  0
LINE
  5
83
330
1F
100
AcDbEntity
  8
F-1
  6
JWW_DASHED1
 62
     7
370
     9
100
AcDbLine
 10
3799.999175200592
 20
373.3328989389781
 30
0.0
 11
2293.333146378801
 21
373.3328989389781
 31
0.0
  0
LINE
  5
84
330
1F
100
AcDbEntity
  8
F-1
  6
JWW_DASHED1
 62
     7
370
     9
100
AcDbLine
 10
3799.999175200592
 20
273.3328164590375
 30
0.0
 11
2293.333146378801
 21
273.3328164590375
 31
0.0
  0
LINE
  5
85
330
1F
100
AcDbEntity
  8
F-1
  6
JWW_DASHED1
 62
     7
370
     9
100
AcDbLine
 10
3799.999175200592
 20
173.3329814189193
 30
0.0
 11
2293.333146378801
 21
173.3329814189193
 31
0.0
  0
LINE
  5
86
330
1F
100
AcDbEntity
  8
F-1
  6
JWW_DASHED1
 62
     7
370
     9
100
AcDbLine
 10
3799.999175200592
 20
73.33289893897813
 30
0.0
 11
2293.333146378801
 21
73.33289893897813
 31
0.0
  0
LINE
  5
87
330
1F
100
AcDbEntity
  8
F-1
  6
JWW_DASHED1
 62
     7
370
     9
100
AcDbLine
 10
3799.999175200592
 20
-26.66718354096247
 30
0.0
 11
2293.333146378801
 21
-26.66718354096247
 31
0.0
  0
LINE
  5
88
330
1F
100
AcDbEntity
  8
F-1
  6
JWW_DASHED1
 62
     7
370
     9
100
AcDbLine
 10
3799.999175200592
 20
-126.6670185810807
 30
0.0
 11
2293.333146378801
 21
-126.6670185810807
 31
0.0
  0
LINE
  5
89
330
1F
100
AcDbEntity
  8
F-1
  6
JWW_DASHED1
 62
     7
370
     9
100
AcDbLine
 10
3799.999175200592
 20
-226.6671010610219
 30
0.0
 11
2293.333146378801
 21
-226.6671010610219
 31
0.0
  0
LINE
  5
8A
330
1F
100
AcDbEntity
  8
F-1
  6
JWW_DASHED1
 62
     7
370
     9
100
AcDbLine
 10
3799.999175200592
 20
-326.6671835409625
 30
0.0
 11
2293.333146378801
 21
-326.6671835409625
 31
0.0
  0
LINE
  5
8B
330
1F
100
AcDbEntity
  8
F-1
  6
JWW_DASHED1
 62
     7
370
     9
100
AcDbLine
 10
3799.999175200592
 20
-426.667018581081
 30
0.0
 11
2293.333146378801
 21
-426.667018581081
 31
0.0
  0
LINE
  5
8C
330
1F
100
AcDbEntity
  8
F-1
  6
JWW_DASHED1
 62
     7
370
     9
100
AcDbLine
 10
3799.999175200592
 20
-626.6669361011401
 30
0.0
 11
2293.333146378801
 21
-626.6669361011401
 31
0.0
  0
LINE
  5
8D
330
1F
100
AcDbEntity
  8
F-1
  6
JWW_DASHED1
 62
     7
370
     9
100
AcDbLine
 10
3799.999175200592
 20
-726.667018581081
 30
0.0
 11
2293.333146378801
 21
-726.667018581081
 31
0.0
  0
LINE
  5
8E
330
1F
100
AcDbEntity
  8
F-1
  6
JWW_DASHED1
 62
     7
370
     9
100
AcDbLine
 10
3799.999175200592
 20
-826.6668536211992
 30
0.0
 11
2293.333146378801
 21
-826.6668536211992
 31
0.0
  0
LINE
  5
8F
330
1F
100
AcDbEntity
  8
F-1
  6
JWW_DASHED1
 62
     7
370
     9
100
AcDbLine
 10
3799.999175200592
 20
-926.6669361011401
 30
0.0
 11
2293.333146378801
 21
-926.6669361011401
 31
0.0
  0
LINE
  5
90
330
1F
100
AcDbEntity
  8
F-1
  6
JWW_DASHED1
 62
     7
370
     9
100
AcDbLine
 10
3799.999175200592
 20
-1026.667018581081
 30
0.0
 11
2293.333146378801
 21
-1026.667018581081
 31
0.0
  0
LINE
  5
91
330
1F
100
AcDbEntity
  8
F-1
  6
JWW_DASHED1
 62
     7
370
     9
100
AcDbLine
 10
3799.999175200592
 20
-1126.666977341111
 30
0.0
 11
2293.333146378801
 21
-1126.666977341111
 31
0.0
  0
LINE
  5
92
330
1F
100
AcDbEntity
  8
F-1
  6
JWW_DASHED1
 62
     7
370
     9
100
AcDbLine
 10
3799.999175200592
 20
-1226.66693610114
 30
0.0
 11
2293.333146378801
 21
-1226.66693610114
 31
0.0
  0
LINE
  5
93
330
1F
100
AcDbEntity
  8
F-1
  6
JWW_DASHED1
 62
     7
370
     9
100
AcDbLine
 10
3799.999175200592
 20
-1326.667018581081
 30
0.0
 11
2293.333146378801
 21
-1326.667018581081
 31
0.0
  0
LINE
  5
94
330
1F
100
AcDbEntity
  8
F-1
  6
JWW_DASHED1
 62
     7
370
     9
100
AcDbLine
 10
3799.999175200592
 20
-1426.666977341111
 30
0.0
 11
2293.333146378801
 21
-1426.666977341111
 31
0.0
  0
LINE
  5
95
330
1F
100
AcDbEntity
  8
F-1
  6
JWW_DASHED1
 62
     7
370
     9
100
AcDbLine
 10
3799.999175200592
 20
-1626.667018581081
 30
0.0
 11
2293.333146378801
 21
-1626.667018581081
 31
0.0
  0
LINE
  5
96
330
1F
100
AcDbEntity
  8
F-1
  6
JWW_DASHED1
 62
     7
370
     9
100
AcDbLine
 10
3799.999175200592
 20
-1726.66697734111
 30
0.0
 11
2293.333146378801
 21
-1726.66697734111
 31
0.0
  0
LINE
  5
97
330
1F
100
AcDbEntity
  8
F-1
  6
JWW_DASHED1
 62
     7
370
     9
100
AcDbLine
 10
3799.999175200592
 20
-1826.667059821052
 30
0.0
 11
2293.333146378801
 21
-1826.667059821052
 31
0.0
  0
LINE
  5
98
330
1F
100
AcDbEntity
  8
F-1
  6
JWW_DASHED1
 62
     7
370
     9
100
AcDbLine
 10
3799.999175200592
 20
-2026.667039201066
 30
0.0
 11
2293.333146378801
 21
-2026.667039201066
 31
0.0
  0
LINE
  5
99
330
1F
100
AcDbEntity
  8
F-1
  6
JWW_DASHED1
 62
     7
370
     9
100
AcDbLine
 10
3799.999175200592
 20
-2126.667059821052
 30
0.0
 11
2293.333146378801
 21
-2126.667059821052
 31
0.0
  0
LINE
  5
9A
330
1F
100
AcDbEntity
  8
F-1
  6
JWW_DASHED1
 62
     7
370
     9
100
AcDbLine
 10
3799.999175200592
 20
-2326.667039201066
 30
0.0
 11
2293.333146378801
 21
-2326.667039201066
 31
0.0
  0
LINE
  5
9B
330
1F
100
AcDbEntity
  8
F-1
  6
JWW_DASHED1
 62
     7
370
     9
100
AcDbLine
 10
3799.999175200592
 20
-1926.667018581081
 30
0.0
 11
2293.333146378801
 21
-1926.667018581081
 31
0.0
  0
LINE
  5
9C
330
1F
100
AcDbEntity
  8
F-1
  6
JWW_DASHED1
 62
     7
370
     9
100
AcDbLine
 10
3799.999175200592
 20
-2226.667018581081
 30
0.0
 11
2293.333146378801
 21
-2226.667018581081
 31
0.0
  0
LINE
  5
9D
330
1F
100
AcDbEntity
  8
F-1
  6
JWW_DASHED1
 62
     7
370
     9
100
AcDbLine
 10
-103.3338392103036
 20
2173.333146378801
 30
0.0
 11
-1603.333839210304
 21
2173.333146378801
 31
0.0
  0
LINE
  5
9E
330
1F
100
AcDbEntity
  8
F-1
  6
JWW_DASHED1
 62
     7
370
     9
100
AcDbLine
 10
-103.3338392103036
 20
-2426.667059821052
 30
0.0
 11
-1603.333839210304
 21
-2426.667059821052
 31
0.0
  0
LINE
  5
9F
330
1F
100
AcDbEntity
  8
F-1
  6
JWW_DASHED1
 62
     7
370
     9
100
AcDbLine
 10
-103.3338392103036
 20
2073.332816459038
 30
0.0
 11
-1603.333839210304
 21
2073.332816459038
 31
0.0
  0
LINE
  5
A0
330
1F
100
AcDbEntity
  8
F-1
  6
JWW_DASHED1
 62
     7
370
     9
100
AcDbLine
 10
-103.3338392103036
 20
1973.332981418919
 30
0.0
 11
-1603.333839210304
 21
1973.332981418919
 31
0.0
  0
LINE
  5
A1
330
1F
100
AcDbEntity
  8
F-1
  6
JWW_DASHED1
 62
     7
370
     9
100
AcDbLine
 10
-103.3338392103036
 20
1873.333146378801
 30
0.0
 11
-1603.333839210304
 21
1873.333146378801
 31
0.0
  0
LINE
  5
A2
330
1F
100
AcDbEntity
  8
F-1
  6
JWW_DASHED1
 62
     7
370
     9
100
AcDbLine
 10
-103.3338392103036
 20
1773.332816459038
 30
0.0
 11
-1603.333839210304
 21
1773.332816459038
 31
0.0
  0
LINE
  5
A3
330
1F
100
AcDbEntity
  8
F-1
  6
JWW_DASHED1
 62
     7
370
     9
100
AcDbLine
 10
-103.3338392103036
 20
1673.332981418919
 30
0.0
 11
-1603.333839210304
 21
1673.332981418919
 31
0.0
  0
LINE
  5
A4
330
1F
100
AcDbEntity
  8
F-1
  6
JWW_DASHED1
 62
     7
370
     9
100
AcDbLine
 10
-103.3338392103036
 20
1573.333146378801
 30
0.0
 11
-1603.333839210304
 21
1573.333146378801
 31
0.0
  0
LINE
  5
A5
330
1F
100
AcDbEntity
  8
F-1
  6
JWW_DASHED1
 62
     7
370
     9
100
AcDbLine
 10
-103.3338392103036
 20
1173.33306389886
 30
0.0
 11
-1603.333839210304
 21
1173.33306389886
 31
0.0
  0
LINE
  5
A6
330
1F
100
AcDbEntity
  8
F-1
  6
JWW_DASHED1
 62
     7
370
     9
100
AcDbLine
 10
-103.3338392103036
 20
1073.332981418919
 30
0.0
 11
-1603.333839210304
 21
1073.332981418919
 31
0.0
  0
LINE
  5
A7
330
1F
100
AcDbEntity
  8
F-1
  6
JWW_DASHED1
 62
     7
370
     9
100
AcDbLine
 10
-103.3338392103036
 20
973.3328989389781
 30
0.0
 11
-1603.333839210304
 21
973.3328989389781
 31
0.0
  0
LINE
  5
A8
330
1F
100
AcDbEntity
  8
F-1
  6
JWW_DASHED1
 62
     7
370
     9
100
AcDbLine
 10
-103.3338392103036
 20
873.3328164590375
 30
0.0
 11
-1603.333839210304
 21
873.3328164590375
 31
0.0
  0
LINE
  5
A9
330
1F
100
AcDbEntity
  8
F-1
  6
JWW_DASHED1
 62
     7
370
     9
100
AcDbLine
 10
-103.3338392103036
 20
773.3329814189193
 30
0.0
 11
-1603.333839210304
 21
773.3329814189193
 31
0.0
  0
LINE
  5
AA
330
1F
100
AcDbEntity
  8
F-1
  6
JWW_DASHED1
 62
     7
370
     9
100
AcDbLine
 10
-103.3338392103036
 20
673.3328989389781
 30
0.0
 11
-1603.333839210304
 21
673.3328989389781
 31
0.0
  0
LINE
  5
AB
330
1F
100
AcDbEntity
  8
F-1
  6
JWW_DASHED1
 62
     7
370
     9
100
AcDbLine
 10
-103.3338392103036
 20
573.3328164590375
 30
0.0
 11
-1603.333839210304
 21
573.3328164590375
 31
0.0
  0
LINE
  5
AC
330
1F
100
AcDbEntity
  8
F-1
  6
JWW_DASHED1
 62
     7
370
     9
100
AcDbLine
 10
-103.3338392103036
 20
173.3329814189193
 30
0.0
 11
-1603.333839210304
 21
173.3329814189193
 31
0.0
  0
LINE
  5
AD
330
1F
100
AcDbEntity
  8
F-1
  6
JWW_DASHED1
 62
     7
370
     9
100
AcDbLine
 10
-103.3338392103036
 20
73.33289893897813
 30
0.0
 11
-1603.333839210304
 21
73.33289893897813
 31
0.0
  0
LINE
  5
AE
330
1F
100
AcDbEntity
  8
F-1
  6
JWW_DASHED1
 62
     7
370
     9
100
AcDbLine
 10
-103.3338392103036
 20
-26.66718354096247
 30
0.0
 11
-1603.333839210304
 21
-26.66718354096247
 31
0.0
  0
LINE
  5
AF
330
1F
100
AcDbEntity
  8
F-1
  6
JWW_DASHED1
 62
     7
370
     9
100
AcDbLine
 10
-103.3338392103036
 20
-126.6670185810807
 30
0.0
 11
-1603.333839210304
 21
-126.6670185810807
 31
0.0
  0
LINE
  5
B0
330
1F
100
AcDbEntity
  8
F-1
  6
JWW_DASHED1
 62
     7
370
     9
100
AcDbLine
 10
-103.3338392103036
 20
-226.6671010610219
 30
0.0
 11
-1603.333839210304
 21
-226.6671010610219
 31
0.0
  0
LINE
  5
B1
330
1F
100
AcDbEntity
  8
F-1
  6
JWW_DASHED1
 62
     7
370
     9
100
AcDbLine
 10
-103.3338392103036
 20
-326.6671835409625
 30
0.0
 11
-1603.333839210304
 21
-326.6671835409625
 31
0.0
  0
LINE
  5
B2
330
1F
100
AcDbEntity
  8
F-1
  6
JWW_DASHED1
 62
     7
370
     9
100
AcDbLine
 10
-103.3338392103036
 20
-426.667018581081
 30
0.0
 11
-1603.333839210304
 21
-426.667018581081
 31
0.0
  0
LINE
  5
B3
330
1F
100
AcDbEntity
  8
F-1
  6
JWW_DASHED1
 62
     7
370
     9
100
AcDbLine
 10
-103.3338392103036
 20
-626.6669361011401
 30
0.0
 11
-1603.333839210304
 21
-626.6669361011401
 31
0.0
  0
LINE
  5
B4
330
1F
100
AcDbEntity
  8
F-1
  6
JWW_DASHED1
 62
     7
370
     9
100
AcDbLine
 10
-103.3338392103036
 20
-726.667018581081
 30
0.0
 11
-1603.333839210304
 21
-726.667018581081
 31
0.0
  0
LINE
  5
B5
330
1F
100
AcDbEntity
  8
F-1
  6
JWW_DASHED1
 62
     7
370
     9
100
AcDbLine
 10
-103.3338392103036
 20
-826.6668536211992
 30
0.0
 11
-1603.333839210304
 21
-826.6668536211992
 31
0.0
  0
LINE
  5
B6
330
1F
100
AcDbEntity
  8
F-1
  6
JWW_DASHED1
 62
     7
370
     9
100
AcDbLine
 10
-103.3338392103036
 20
-926.6669361011401
 30
0.0
 11
-1603.333839210304
 21
-926.6669361011401
 31
0.0
  0
LINE
  5
B7
330
1F
100
AcDbEntity
  8
F-1
  6
JWW_DASHED1
 62
     7
370
     9
100
AcDbLine
 10
-103.3338392103036
 20
-1126.666977341111
 30
0.0
 11
-1603.333839210304
 21
-1126.666977341111
 31
0.0
  0
LINE
  5
B8
330
1F
100
AcDbEntity
  8
F-1
  6
JWW_DASHED1
 62
     7
370
     9
100
AcDbLine
 10
-103.3338392103036
 20
-1026.667018581081
 30
0.0
 11
-1603.333839210304
 21
-1026.667018581081
 31
0.0
  0
LINE
  5
B9
330
1F
100
AcDbEntity
  8
F-1
  6
JWW_DASHED1
 62
     7
370
     9
100
AcDbLine
 10
-103.3338392103036
 20
-1226.66693610114
 30
0.0
 11
-1603.333839210304
 21
-1226.66693610114
 31
0.0
  0
LINE
  5
BA
330
1F
100
AcDbEntity
  8
F-1
  6
JWW_DASHED1
 62
     7
370
     9
100
AcDbLine
 10
-103.3338392103036
 20
-1326.667018581081
 30
0.0
 11
-1603.333839210304
 21
-1326.667018581081
 31
0.0
  0
LINE
  5
BB
330
1F
100
AcDbEntity
  8
F-1
  6
JWW_DASHED1
 62
     7
370
     9
100
AcDbLine
 10
-103.3338392103036
 20
-1426.666977341111
 30
0.0
 11
-1603.333839210304
 21
-1426.666977341111
 31
0.0
  0
LINE
  5
BC
330
1F
100
AcDbEntity
  8
F-1
  6
JWW_DASHED1
 62
     7
370
     9
100
AcDbLine
 10
-103.3338392103036
 20
-1926.667018581081
 30
0.0
 11
-1603.333839210304
 21
-1926.667018581081
 31
0.0
  0
LINE
  5
BD
330
1F
100
AcDbEntity
  8
F-1
  6
JWW_DASHED1
 62
     7
370
     9
100
AcDbLine
 10
-103.3338392103036
 20
-2026.667039201066
 30
0.0
 11
-1603.333839210304
 21
-2026.667039201066
 31
0.0
  0
LINE
  5
BE
330
1F
100
AcDbEntity
  8
F-1
  6
JWW_DASHED1
 62
     7
370
     9
100
AcDbLine
 10
-103.3338392103036
 20
-2126.667059821052
 30
0.0
 11
-1603.333839210304
 21
-2126.667059821052
 31
0.0
  0
LINE
  5
BF
330
1F
100
AcDbEntity
  8
F-1
  6
JWW_DASHED1
 62
     7
370
     9
100
AcDbLine
 10
-103.3338392103036
 20
-2226.667018581081
 30
0.0
 11
-1603.333839210304
 21
-2226.667018581081
 31
0.0
  0
LINE
  5
C0
330
1F
100
AcDbEntity
  8
F-1
  6
JWW_DASHED1
 62
     7
370
     9
100
AcDbLine
 10
-103.3338392103036
 20
-2326.667039201066
 30
0.0
 11
-1603.333839210304
 21
-2326.667039201066
 31
0.0
  0
LINE
  5
C1
330
1F
100
AcDbEntity
  8
F-1
  6
JWW_DASHED1
 62
     7
370
     9
100
AcDbLine
 10
-103.3338392103036
 20
-1617.299334342805
 30
0.0
 11
-1603.333839210304
 21
-1617.299334342805
 31
0.0
  0
LINE
  5
C2
330
1F
100
AcDbEntity
  8
F-1
  6
JWW_DASHED1
 62
     7
370
     9
100
AcDbLine
 10
-103.3338392103036
 20
-1717.299416822746
 30
0.0
 11
-1603.333839210304
 21
-1717.299416822746
 31
0.0
  0
LINE
  5
C3
330
1F
100
AcDbEntity
  8
F-1
  6
JWW_DASHED1
 62
     7
370
     9
100
AcDbLine
 10
-103.3338392103036
 20
-1817.299251862864
 30
0.0
 11
-1603.333839210304
 21
-1817.299251862864
 31
0.0
  0
LINE
  5
C4
330
1F
100
AcDbEntity
  8
F-1
  6
Continuous
 62
   200
370
    20
100
AcDbLine
 10
3799.999175200592
 20
2480.000164960446
 30
0.0
 11
-3999.999835040119
 21
2480.000164960446
 31
0.0
  0
LINE
  5
C5
330
1F
100
AcDbEntity
  8
F-1
  6
Continuous
 62
     7
370
     9
100
AcDbLine
 10
3799.999175200592
 20
1473.333311338683
 30
0.0
 11
-3993.333326803671
 21
1473.333311338683
 31
0.0
  0
LINE
  5
C6
330
1F
100
AcDbEntity
  8
F-1
  6
Continuous
 62
     7
370
     9
100
AcDbLine
 10
-96.66731550886823
 20
-1526.666688661317
 30
0.0
 11
-3999.999835040119
 21
-1526.666688661317
 31
0.0
  0
LINE
  5
C7
330
1F
100
AcDbEntity
  8
F-1
  6
JWW_DASHED1
 62
     7
370
     9
100
AcDbLine
 10
-103.3338392103036
 20
373.3328989389781
 30
0.0
 11
-1603.333839210304
 21
373.3328989389781
 31
0.0
  0
LINE
  5
C8
330
1F
100
AcDbEntity
  8
F-1
  6
JWW_DASHED1
 62
     7
370
     9
100
AcDbLine
 10
-103.3338392103036
 20
273.3328164590375
 30
0.0
 11
-1603.333839210304
 21
273.3328164590375
 31
0.0
  0
MTEXT
  5
C9
330
1F
100
AcDbEntity
  8
F-A
  6
Continuous
 62
     7
370
     0
100
AcDbMText
 10
-3773.333208238756
 20
2584.686919605152
 30
0.0
 40
66.04
 41
260.0
 46
0.0
 71
     7
 72
     1
  1
{\fＭＳ ゴシック|b0|i0|c128|p49;部材名}
 73
     1
 44
1.0
  0
MTEXT
  5
CA
330
1F
100
AcDbEntity
  8
F-A
  6
Continuous
 62
     7
370
     0
100
AcDbMText
 10
119.9995876002959
 20
2584.686919605152
 30
0.0
 40
66.04
 41
260.0
 46
0.0
 71
     7
 72
     1
  1
{\fＭＳ ゴシック|b0|i0|c128|p49;部材名}
 73
     1
 44
1.0
  0
MTEXT
  5
CB
330
1F
100
AcDbEntity
  8
F-A
  6
Continuous
 62
     7
370
     0
100
AcDbMText
 10
3548.333146378802
 20
2656.519620460303
 30
0.0
 40
64.77
 41
170.0
 46
0.0
 71
     7
 72
     1
  1
{\fＭＳ ゴシック|b0|i0|c128|p49;梱包}
 73
     1
 44
1.0
  0
MTEXT
  5
CC
330
1F
100
AcDbEntity
  8
F-A
  6
Continuous
 62
     7
370
     0
100
AcDbMText
 10
3548.333146378802
 20
2511.487717219171
 30
0.0
 40
64.77
 41
170.0
 46
0.0
 71
     7
 72
     1
  1
{\fＭＳ ゴシック|b0|i0|c128|p49;入数}
 73
     1
 44
1.0
  0
LINE
  5
CD
330
1F
100
AcDbEntity
  8
F-1
  6
Continuous
 62
     7
370
     9
100
AcDbLine
 10
3799.999175200592
 20
-1526.666688661317
 30
0.0
 11
-96.66731550886823
 21
-1526.666688661317
 31
0.0
  0
MTEXT
  5
CE
330
1F
100
AcDbEntity
  8
F-A
  6
Continuous
 62
     7
370
     0
100
AcDbMText
 10
3460.130633894714
 20
-2877.490187658314
 30
0.0
 40
45.72
 41
30.0
 46
0.0
 71
     7
 72
     1
  1
{\fＭＳ ゴシック|b0|i0|c128|p49;,}
 73
     1
 44
1.0
  0
MTEXT
  5
CF
330
1F
100
AcDbEntity
  8
F-A
  6
Continuous
 62
     7
370
     0
100
AcDbMText
 10
3282.624841276916
 20
-2876.514536603932
 30
0.0
 40
49.53
 41
65.0
 46
0.0
 71
     7
 72
     1
  1
{\fＭＳ ゴシック|b0|i0|c128|p49;$y}
 73
     1
 44
1.0
  0
MTEXT
  5
D0
330
1F
100
AcDbEntity
  8
F-A
  6
Continuous
 62
     7
370
     0
100
AcDbMText
 10
3385.782655302796
 20
-2876.514536603932
 30
0.0
 40
49.53
 41
65.0
 46
0.0
 71
     7
 72
     1
  1
{\fＭＳ ゴシック|b0|i0|c128|p49;$m}
 73
     1
 44
1.0
  0
MTEXT
  5
D1
330
1F
100
AcDbEntity
  8
F-A
  6
Continuous
 62
     7
370
     0
100
AcDbMText
 10
3488.940476958069
 20
-2876.514536603932
 30
0.0
 40
49.53
 41
65.0
 46
0.0
 71
     7
 72
     1
  1
{\fＭＳ ゴシック|b0|i0|c128|p49;$d}
 73
     1
 44
1.0
  0
MTEXT
  5
D2
330
1F
100
AcDbEntity
  8
F-A
  6
Continuous
 62
     7
370
     0
100
AcDbMText
 10
3592.098298613341
 20
-2876.514536603932
 30
0.0
 40
49.53
 41
130.0
 46
0.0
 71
     7
 72
     1
  1
{\fＭＳ ゴシック|b0|i0|c128|p49;印刷}
 73
     1
 44
1.0
  0
MTEXT
  5
D3
330
1F
100
AcDbEntity
  8
F-A
  6
Continuous
 62
     7
370
     0
100
AcDbMText
 10
3354.184762541563
 20
-2879.348887456898
 30
0.0
 40
45.72
 41
30.0
 46
0.0
 71
     7
 72
     1
  1
{\fＭＳ ゴシック|b0|i0|c128|p49;,}
 73
     1
 44
1.0
  0
MTEXT
  5
D4
330
1F
100
AcDbEntity
  8
F-A
  6
Continuous
 62
     7
370
     0
100
AcDbMText
 10
3738.935540739808
 20
-2876.560837759023
 30
0.0
 40
45.72
 41
60.0
 46
0.0
 71
     7
 72
     1
  1
{\fＭＳ ゴシック|b0|i0|c128|p49;）}
 73
     1
 44
1.0
  0
MTEXT
  5
D5
330
1F
100
AcDbEntity
  8
F-A
  6
Continuous
 62
     7
370
     0
100
AcDbMText
 10
3189.355582835333
 20
-2879.348887456898
 30
0.0
 40
45.72
 41
60.0
 46
0.0
 71
     7
 72
     1
  1
{\fＭＳ ゴシック|b0|i0|c128|p49;（}
 73
     1
 44
1.0
  0
LINE
  5
D6
330
1F
100
AcDbEntity
  8
F-0
  6
JWW_HOJO
 62
     7
370
     9
100
AcDbLine
 10
566.6663917335308
 20
-2530.000002061998
 30
0.0
 11
566.6663917335308
 21
-2796.666672165329
 31
0.0
  0
LINE
  5
D7
330
1F
100
AcDbEntity
  8
F-0
  6
JWW_HOJO
 62
     7
370
     9
100
AcDbLine
 10
233.3332783467063
 20
-2530.000002061998
 30
0.0
 11
233.3332783467063
 21
-2796.666672165329
 31
0.0
  0
LINE
  5
D8
330
1F
100
AcDbEntity
  8
F-1
  6
Continuous
 62
   200
370
    20
100
AcDbLine
 10
3799.999175200592
 20
-2803.333335051665
 30
0.0
 11
-3999.999835040119
 21
-2803.333335051665
 31
0.0
  0
LINE
  5
D9
330
1F
100
AcDbEntity
  8
F-1
  6
Continuous
 62
   200
370
    20
100
AcDbLine
 10
3799.999175200592
 20
-2799.999995876003
 30
0.0
 11
-3999.999835040119
 21
-2799.999995876003
 31
0.0
  0
LINE
  5
DA
330
1F
100
AcDbEntity
  8
F-1
  6
Continuous
 62
   200
370
    20
100
AcDbLine
 10
3799.999175200592
 20
-2796.666672165329
 30
0.0
 11
-3999.999835040119
 21
-2796.666672165329
 31
0.0
  0
LINE
  5
DB
330
1F
100
AcDbEntity
  8
F-1
  6
Continuous
 62
   200
370
    20
100
AcDbLine
 10
2793.332816459038
 20
-2530.000002061998
 30
0.0
 11
2793.332816459038
 21
-2796.666672165329
 31
0.0
  0
LINE
  5
DC
330
1F
100
AcDbEntity
  8
F-1
  6
Continuous
 62
   200
370
    20
100
AcDbLine
 10
1793.332486539274
 20
-2530.000002061998
 30
0.0
 11
1793.332486539274
 21
-2796.666672165329
 31
0.0
  0
LINE
  5
DD
330
1F
100
AcDbEntity
  8
F-1
  6
Continuous
 62
   200
370
    20
100
AcDbLine
 10
-100.0000824799406
 20
-2530.000002061998
 30
0.0
 11
-100.0000824799406
 21
-2796.666672165329
 31
0.0
  0
LINE
  5
DE
330
1F
100
AcDbEntity
  8
F-1
  6
Continuous
 62
   200
370
    20
100
AcDbLine
 10
-100.0000824799406
 20
-2663.333290718697
 30
0.0
 11
3793.332651499156
 21
-2663.336909526103
 31
0.0
  0
LINE
  5
DF
330
1F
100
AcDbEntity
  8
F-0
  6
JWW_HOJO
 62
     7
370
     9
100
AcDbLine
 10
-3993.333326803671
 20
-2603.333290718927
 30
0.0
 11
-100.0000824799406
 21
-2603.333290718927
 31
0.0
  0
LINE
  5
E0
330
1F
100
AcDbEntity
  8
F-0
  6
JWW_HOJO
 62
     7
370
     9
100
AcDbLine
 10
-100.0001723303592
 20
-2759.999826518655
 30
0.0
 11
3793.332561648736
 21
-2760.003445326061
 31
0.0
  0
LINE
  5
E1
330
1F
100
AcDbEntity
  8
F-0
  6
JWW_HOJO
 62
     7
370
     9
100
AcDbLine
 10
-100.0001165610581
 20
-2699.999826518681
 30
0.0
 11
3793.332617418037
 21
-2700.003445326087
 31
0.0
  0
LINE
  5
E2
330
1F
100
AcDbEntity
  8
F-0
  6
JWW_HOJO
 62
     7
370
     9
100
AcDbLine
 10
-100.0000483985781
 20
-2626.666491478713
 30
0.0
 11
3793.332685580518
 21
-2626.670110286119
 31
0.0
  0
LINE
  5
E3
330
1F
100
AcDbEntity
  8
F-0
  6
JWW_HOJO
 62
     7
370
     9
100
AcDbLine
 10
-99.99999262927702
 20
-2566.66649147874
 30
0.0
 11
3793.332741349819
 21
-2566.670110286145
 31
0.0
  0
LINE
  5
E4
330
1F
100
AcDbEntity
  8
F-0
  6
JWW_HOJO
 62
     7
370
     9
100
AcDbLine
 10
1853.332486539274
 20
-2530.000002061998
 30
0.0
 11
1853.332486539274
 21
-2796.666672165329
 31
0.0
  0
LINE
  5
E5
330
1F
100
AcDbEntity
  8
F-0
  6
JWW_HOJO
 62
     7
370
     9
100
AcDbLine
 10
-40.0000824799406
 20
-2530.000002061998
 30
0.0
 11
-40.0000824799406
 21
-2796.666672165329
 31
0.0
  0
LINE
  5
E6
330
1F
100
AcDbEntity
  8
F-0
  6
JWW_HOJO
 62
     7
370
     9
100
AcDbLine
 10
2853.332816459038
 20
-2530.000002061998
 30
0.0
 11
2853.332816459038
 21
-2796.666672165329
 31
0.0
  0
MTEXT
  5
E7
330
1F
100
AcDbEntity
  8
F-A
  6
Continuous
 62
     7
370
     0
100
AcDbMText
 10
2853.332816459038
 20
-2591.429236567169
 30
0.0
 40
30.48
 41
160.0
 46
0.0
 71
     7
 72
     1
  1
{\fＭＳ ゴシック|b0|i0|c128|p49;ＤＡＴＥ}
 73
     1
 44
1.0
  0
MTEXT
  5
E8
330
1F
100
AcDbEntity
  8
F-A
  6
Continuous
 62
     7
370
     0
100
AcDbMText
 10
2853.332816459038
 20
-2724.762571607227
 30
0.0
 40
30.48
 41
120.0
 46
0.0
 71
     7
 72
     1
  1
{\fＭＳ ゴシック|b0|i0|c128|p49;ＮＯ．}
 73
     1
 44
1.0
  0
MTEXT
  5
E9
330
1F
100
AcDbEntity
  8
F-A
  6
Continuous
 62
     7
370
     0
100
AcDbMText
 10
1853.332486539274
 20
-2591.428307078516
 30
0.0
 40
30.48
 41
200.0
 46
0.0
 71
     7
 72
     1
  1
{\fＭＳ ゴシック|b0|i0|c128|p49;ＳＣＡＬＥ}
 73
     1
 44
1.0
  0
MTEXT
  5
EA
330
1F
100
AcDbEntity
  8
F-A
  6
Continuous
 62
     7
370
     0
100
AcDbMText
 10
1853.332486539274
 20
-2724.761642118573
 30
0.0
 40
30.48
 41
160.0
 46
0.0
 71
     7
 72
     1
  1
{\fＭＳ ゴシック|b0|i0|c128|p49;ＦＩＬＥ}
 73
     1
 44
1.0
  0
MTEXT
  5
EB
330
1F
100
AcDbEntity
  8
F-A
  6
Continuous
 62
     7
370
     0
100
AcDbMText
 10
-40.0000824799406
 20
-2591.426547247957
 30
0.0
 40
30.48
 41
120.0
 46
0.0
 71
     7
 72
     1
  1
{\fＭＳ ゴシック|b0|i0|c128|p49;図面名}
 73
     1
 44
1.0
  0
MTEXT
  5
EC
330
1F
100
AcDbEntity
  8
F-A
  6
Continuous
 62
     7
370
     0
100
AcDbMText
 10
963.332486539274
 20
-2776.187836349286
 30
0.0
 40
67.62750000000003
 41
710.0000000000002
 46
0.0
 71
     7
 72
     1
  1
{\fＭＳ ゴシック|b0|i0|c128|p49;ウッドワン・・・}
 73
     1
 44
1.0
  0
MTEXT
  5
ED
330
1F
100
AcDbEntity
  8
F-A
  6
Continuous
 62
     7
370
     0
100
AcDbMText
 10
823.332486539274
 20
-2730.760446177432
 30
0.0
 40
30.48
 41
80.0
 46
0.0
 71
     7
 72
     1
  1
{\fＭＳ ゴシック|b0|i0|c128|p49;株式}
 73
     1
 44
1.0
  0
MTEXT
  5
EE
330
1F
100
AcDbEntity
  8
F-A
  6
Continuous
 62
     7
370
     0
100
AcDbMText
 10
823.332486539274
 20
-2778.760446177458
 30
0.0
 40
30.48
 41
80.0
 46
0.0
 71
     7
 72
     1
  1
{\fＭＳ ゴシック|b0|i0|c128|p49;会社}
 73
     1
 44
1.0
  0
LINE
  5
EF
330
1F
100
AcDbEntity
  8
F-1
  6
Continuous
 62
   200
370
    20
100
AcDbLine
 10
3799.999175200592
 20
-2530.000002061998
 30
0.0
 11
-3999.999835040119
 21
-2530.000002061998
 31
0.0
  0
LINE
  5
F0
330
1F
100
AcDbEntity
  8
F-1
  6
Continuous
 62
   200
370
    20
100
AcDbLine
 10
3799.999175200592
 20
-2526.666678351325
 30
0.0
 11
-3999.999835040119
 21
-2526.666678351325
 31
0.0
  0
LINE
  5
F1
330
1F
100
AcDbEntity
  8
F-0
  6
JWW_HOJO
 62
     7
370
     9
100
AcDbLine
 10
-3498.364917835225
 20
-2530.000002061999
 30
0.0
 11
-3498.364917835225
 21
-2803.333443306588
 31
0.0
  0
LINE
  5
F2
330
1F
100
AcDbEntity
  8
F-0
  6
JWW_HOJO
 62
     7
370
     9
100
AcDbLine
 10
-140.0000824799406
 20
-2530.000002061998
 30
0.0
 11
-140.0000824799406
 21
-2796.666672165329
 31
0.0
  0
MTEXT
  5
F3
330
1F
100
AcDbEntity
  8
F-A
  6
Continuous
 62
     7
370
     0
100
AcDbMText
 10
233.3332783467063
 20
-2634.331527915002
 30
0.0
 40
45.72
 41
240.0
 46
0.0
 71
     7
 72
     1
  1
{\fＭＳ ゴシック|b0|i0|c128|p49;DOORETUS}
 73
     1
 44
1.0
  0
MTEXT
  5
F4
330
1F
100
AcDbEntity
  8
F-A
  6
Continuous
 62
     7
370
     0
100
AcDbMText
 10
2273.332651499156
 20
-2631.268743938205
 30
0.0
 40
50.8
 41
100.0
 46
0.0
 71
     7
 72
     1
  1
{\fＭＳ ゴシック|b0|i0|c128|p49;1/2}
 73
     1
 44
1.0
  0
LINE
  5
F5
330
1F
100
AcDbEntity
  8
F-1
  6
Continuous
 62
     7
370
     9
100
AcDbLine
 10
3799.999175200592
 20
473.3332288587417
 30
0.0
 11
-96.66731550886823
 21
473.3332288587417
 31
0.0
  0
MTEXT
  5
F6
330
1F
100
AcDbEntity
  8
F-A
  6
Continuous
 62
     7
370
     0
100
AcDbMText
 10
786.9451346024795
 20
-2630.758774399892
 30
0.0
 40
51.816
 41
340.0
 46
0.0
 71
     7
 72
     1
  1
{\fＭＳ ゴシック|b0|i0|c128|p49;洋風造作材}
 73
     1
 44
1.0
  0
MTEXT
  5
F7
330
1F
100
AcDbEntity
  8
F-A
  6
Continuous
 62
     7
370
     0
100
AcDbMText
 10
-1388.333839210304
 20
2656.551787637246
 30
0.0
 40
64.77
 41
170.0
 46
0.0
 71
     7
 72
     1
  1
{\fＭＳ ゴシック|b0|i0|c128|p49;寸法}
 73
     1
 44
1.0
  0
MTEXT
  5
F8
330
1F
100
AcDbEntity
  8
F-A
  6
Continuous
 62
     7
370
     0
100
AcDbMText
 10
-348.3338392103036
 20
2656.551787637246
 30
0.0
 40
64.77
 41
170.0
 46
0.0
 71
     7
 72
     1
  1
{\fＭＳ ゴシック|b0|i0|c128|p49;梱包}
 73
     1
 44
1.0
  0
MTEXT
  5
F9
330
1F
100
AcDbEntity
  8
F-A
  6
Continuous
 62
     7
370
     0
100
AcDbMText
 10
2508.333146378801
 20
2656.551787637247
 30
0.0
 40
64.77
 41
170.0
 46
0.0
 71
     7
 72
     1
  1
{\fＭＳ ゴシック|b0|i0|c128|p49;寸法}
 73
     1
 44
1.0
  0
MTEXT
  5
FA
330
1F
100
AcDbEntity
  8
F-A
  6
Continuous
 62
     7
370
     0
100
AcDbMText
 10
-798.3338392103042
 20
2584.051919605152
 30
0.0
 40
64.77
 41
170.0
 46
0.0
 71
     7
 72
     1
  1
{\fＭＳ ゴシック|b0|i0|c128|p49;品番}
 73
     1
 44
1.0
  0
MTEXT
  5
FB
330
1F
100
AcDbEntity
  8
F-A
  6
Continuous
 62
     7
370
     0
100
AcDbMText
 10
-2623.333719614389
 20
2585.004287637247
 30
0.0
 40
66.675
 41
350.0
 46
0.0
 71
     7
 72
     1
  1
{\fＭＳ ゴシック|b0|i0|c128|p49;断面形状}
 73
     1
 44
1.0
  0
MTEXT
  5
FC
330
1F
100
AcDbEntity
  8
F-A
  6
Continuous
 62
     7
370
     0
100
AcDbMText
 10
1273.333327834671
 20
2585.004287637247
 30
0.0
 40
66.675
 41
350.0
 46
0.0
 71
     7
 72
     1
  1
{\fＭＳ ゴシック|b0|i0|c128|p49;断面形状}
 73
     1
 44
1.0
  0
MTEXT
  5
FD
330
1F
100
AcDbEntity
  8
F-A
  6
Continuous
 62
     7
370
     0
100
AcDbMText
 10
3098.333146378801
 20
2584.035836016682
 30
0.0
 40
64.77
 41
170.0
 46
0.0
 71
     7
 72
     1
  1
{\fＭＳ ゴシック|b0|i0|c128|p49;品番}
 73
     1
 44
1.0
  0
MTEXT
  5
FE
330
1F
100
AcDbEntity
  8
F-A
  6
Continuous
 62
     7
370
     0
100
AcDbMText
 10
-1573.333839210304
 20
2498.693542282799
 30
0.0
 40
45.72
 41
540.0
 46
0.0
 71
     7
 72
     1
  1
{\fＭＳ ゴシック|b0|i0|c128|p49;長さ×幅×厚さ(㎜)}
 73
     1
 44
1.0
  0
MTEXT
  5
FF
330
1F
100
AcDbEntity
  8
F-A
  6
Continuous
 62
     7
370
     0
100
AcDbMText
 10
-348.3338392103036
 20
2508.218542282799
 30
0.0
 40
64.77
 41
170.0
 46
0.0
 71
     7
 72
     1
  1
{\fＭＳ ゴシック|b0|i0|c128|p49;入数}
 73
     1
 44
1.0
  0
MTEXT
  5
100
330
1F
100
AcDbEntity
  8
F-A
  6
Continuous
 62
     7
370
     0
100
AcDbMText
 10
2323.333146378801
 20
2498.677458694328
 30
0.0
 40
45.72
 41
540.0
 46
0.0
 71
     7
 72
     1
  1
{\fＭＳ ゴシック|b0|i0|c128|p49;長さ×幅×厚さ(㎜)}
 73
     1
 44
1.0
  0
LINE
  5
101
330
1F
100
AcDbEntity
  8
F-0
  6
JWW_HOJO
 62
     7
370
     9
100
AcDbLine
 10
-3993.333326803671
 20
-2663.333290718697
 30
0.0
 11
-100.0000824799406
 21
-2663.333290718697
 31
0.0
  0
LINE
  5
102
330
1F
100
AcDbEntity
  8
F-0
  6
JWW_HOJO
 62
     7
370
     9
100
AcDbLine
 10
-3993.333326803671
 20
-2723.333290718468
 30
0.0
 11
-100.0000824799406
 21
-2723.333290718468
 31
0.0
  0
MTEXT
  5
103
330
1F
100
AcDbEntity
  8
F-A
  6
Continuous
 62
     7
370
     9
100
AcDbMText
 10
3290.832689053886
 20
-2765.238008466657
 30
0.0
 40
49.53
 41
65.0
 46
0.0
 71
     7
 72
     1
  1
{\fＭＳ ゴシック|b0|i0|c128|p49;01}
 73
     1
 44
1.0
  0
MTEXT
  5
104
330
1F
100
AcDbEntity
  8
F-A
  6
Continuous
 62
     7
370
     0
100
AcDbMText
 10
-3498.364917835225
 20
-2696.775349542456
 30
0.0
 40
53.11588235294118
 41
2370.0
 46
0.0
 71
     7
 72
     1
  1
{\fＭＳ ゴシック|b0|i0|c128|p49;ドレタス　洋風造作材　廻り縁・コーナー廻り縁・廻り縁コーナーキャップ}
 73
     1
 44
1.0
  0
CIRCLE
  5
105
330
1F
100
AcDbEntity
  8
1-A
  6
Continuous
 62
     7
370
     9
100
AcDbCircle
 10
-2075.833717552391
 20
1913.333393838209
 30
0.0
 40
300.0
  0
LINE
  5
106
330
1F
100
AcDbEntity
  8
1-4
  6
Continuous
 62
    92
370
    13
100
AcDbLine
 10
-2035.833717552391
 20
1719.505347066244
 30
0.0
 11
-2121.833717552391
 21
1719.505347066244
 31
0.0
  0
LINE
  5
107
330
1F
100
AcDbEntity
  8
1-4
  6
Continuous
 62
    92
370
    13
100
AcDbLine
 10
-2025.833717552391
 20
1729.505347066244
 30
0.0
 11
-2111.833717552391
 21
1729.505347066244
 31
0.0
  0
LINE
  5
108
330
1F
100
AcDbEntity
  8
1-4
  6
Continuous
 62
    92
370
    13
100
AcDbLine
 10
-2111.833717552391
 20
1729.505347066244
 30
0.0
 11
-2111.833717552391
 21
1829.505347066244
 31
0.0
  0
LINE
  5
109
330
1F
100
AcDbEntity
  8
1-4
  6
Continuous
 62
    92
370
    13
100
AcDbLine
 10
-2121.833717552391
 20
1719.505347066244
 30
0.0
 11
-2121.833717552391
 21
1839.505347066244
 31
0.0
  0
LINE
  5
10A
330
1F
100
AcDbEntity
  8
1-4
  6
Continuous
 62
    92
370
    13
100
AcDbLine
 10
-2111.833717552391
 20
1829.505347066244
 30
0.0
 11
-2025.833717552391
 21
1829.505347066244
 31
0.0
  0
LINE
  5
10B
330
1F
100
AcDbEntity
  8
1-4
  6
Continuous
 62
    92
370
    13
100
AcDbLine
 10
-2121.833717552391
 20
1839.505347066244
 30
0.0
 11
-2035.833717552391
 21
1839.505347066244
 31
0.0
  0
LWPOLYLINE
  5
10C
330
1F
100
AcDbEntity
  8
1-B
  6
Continuous
 62
     7
370
     9
100
AcDbPolyline
 90
        4
 70
     1
 43
2.0
 10
-1944.833717552391
 20
1829.505347066244
 42
0.4142135623731
 10
-1945.833717552391
 20
1830.505347066244
 42
0.4142135623731
 10
-1946.833717552391
 20
1829.505347066244
 42
0.4142135623731
 10
-1945.833717552391
 20
1828.505347066244
 42
0.4142135623731
  0
LINE
  5
10D
330
1F
100
AcDbEntity
  8
1-B
  6
Continuous
 62
   120
370
     5
100
AcDbLine
 10
-1945.833717552391
 20
1829.505347066244
 30
0.0
 11
-1985.833717552391
 21
1829.505347066244
 31
0.0
  0
LINE
  5
10E
330
1F
100
AcDbEntity
  8
1-B
  6
Continuous
 62
   120
370
     5
100
AcDbLine
 10
-1945.833717552391
 20
2089.505347066243
 30
0.0
 11
-1945.833717552391
 21
1729.505347066244
 31
0.0
  0
LWPOLYLINE
  5
10F
330
1F
100
AcDbEntity
  8
1-B
  6
Continuous
 62
     7
370
     9
100
AcDbPolyline
 90
        4
 70
     1
 43
2.0
 10
-1944.833717552391
 20
1729.505347066244
 42
0.4142135623731
 10
-1945.833717552391
 20
1730.505347066244
 42
0.4142135623731
 10
-1946.833717552391
 20
1729.505347066244
 42
0.4142135623731
 10
-1945.833717552391
 20
1728.505347066244
 42
0.4142135623731
  0
LINE
  5
110
330
1F
100
AcDbEntity
  8
1-B
  6
Continuous
 62
   120
370
     5
100
AcDbLine
 10
-1945.833717552391
 20
1729.505347066244
 30
0.0
 11
-1985.833717552391
 21
1729.505347066244
 31
0.0
  0
LINE
  5
111
330
1F
100
AcDbEntity
  8
1-4
  6
Continuous
 62
    92
370
    13
100
AcDbLine
 10
-2205.833717552391
 20
2089.505347066243
 30
0.0
 11
-2025.833717552391
 21
2089.505347066243
 31
0.0
  0
LWPOLYLINE
  5
112
330
1F
100
AcDbEntity
  8
1-B
  6
Continuous
 62
     7
370
     9
100
AcDbPolyline
 90
        4
 70
     1
 43
2.0
 10
-1944.833717552391
 20
2089.505347066243
 42
0.4142135623731
 10
-1945.833717552391
 20
2090.505347066243
 42
0.4142135623731
 10
-1946.833717552391
 20
2089.505347066243
 42
0.4142135623731
 10
-1945.833717552391
 20
2088.505347066244
 42
0.4142135623731
  0
LINE
  5
113
330
1F
100
AcDbEntity
  8
1-B
  6
Continuous
 62
   120
370
     5
100
AcDbLine
 10
-1945.833717552391
 20
2089.505347066243
 30
0.0
 11
-1985.833717552391
 21
2089.505347066243
 31
0.0
  0
LINE
  5
114
330
1F
100
AcDbEntity
  8
1-4
  6
Continuous
 62
    92
370
    13
100
AcDbLine
 10
-2025.833717552391
 20
2089.505347066243
 30
0.0
 11
-2025.833717552391
 21
1829.505347066244
 31
0.0
  0
LINE
  5
115
330
1F
100
AcDbEntity
  8
1-4
  6
Continuous
 62
    92
370
    13
100
AcDbLine
 10
-2035.833717552391
 20
2089.505347066243
 30
0.0
 11
-2035.833717552391
 21
1839.505347066244
 31
0.0
  0
LINE
  5
116
330
1F
100
AcDbEntity
  8
1-0
  6
JWW_HOJO
 62
     7
370
     9
100
AcDbLine
 10
-1985.833717552391
 20
2089.505347066243
 30
0.0
 11
-1985.833717552391
 21
1829.505347066244
 31
0.0
  0
LINE
  5
117
330
1F
100
AcDbEntity
  8
1-0
  6
JWW_HOJO
 62
     7
370
     9
100
AcDbLine
 10
-1945.833717552391
 20
2089.505347066243
 30
0.0
 11
-1945.833717552391
 21
1829.505347066244
 31
0.0
  0
LINE
  5
118
330
1F
100
AcDbEntity
  8
1-4
  6
Continuous
 62
    92
370
    13
100
AcDbLine
 10
-2205.833717552391
 20
2089.505347066243
 30
0.0
 11
-2205.833717552391
 21
1642.963277146294
 31
0.0
  0
LINE
  5
119
330
1F
100
AcDbEntity
  8
1-4
  6
Continuous
 62
    92
370
    13
100
AcDbLine
 10
-2035.833717552391
 20
1616.012018891839
 30
0.0
 11
-2035.833717552391
 21
1719.505347066244
 31
0.0
  0
LINE
  5
11A
330
1F
100
AcDbEntity
  8
1-4
  6
Continuous
 62
    92
370
    13
100
AcDbLine
 10
-2025.833717552391
 20
1617.529404683228
 30
0.0
 11
-2025.833717552391
 21
1729.505347066244
 31
0.0
  0
LINE
  5
11B
330
1F
100
AcDbEntity
  8
1-B
  6
Continuous
 62
   120
370
     5
100
AcDbLine
 10
-2068.833717552391
 20
1654.449485843248
 30
0.0
 11
-1966.060412802478
 21
1595.113290680378
 31
0.0
  0
LINE
  5
11C
330
1F
100
AcDbEntity
  8
1-B
  6
Continuous
 62
   120
370
     5
100
AcDbLine
 10
-1966.060412802478
 20
1595.113290680378
 30
0.0
 11
-1783.537611170366
 21
1595.113290680378
 31
0.0
  0
LINE
  5
11D
330
1F
100
AcDbEntity
  8
0-4
  6
Continuous
 62
    92
370
    13
100
AcDbLine
 10
-2883.148577642162
 20
2134.806665577315
 30
0.0
 11
-2793.148577642162
 21
2134.806665577315
 31
0.0
  0
LINE
  5
11E
330
1F
100
AcDbEntity
  8
0-4
  6
Continuous
 62
    92
370
    13
100
AcDbLine
 10
-2878.148577642162
 20
1944.806665577315
 30
0.0
 11
-2883.148577642162
 21
1944.806665577315
 31
0.0
  0
LINE
  5
11F
330
1F
100
AcDbEntity
  8
0-4
  6
Continuous
 62
    92
370
    13
100
AcDbLine
 10
-2878.148577642162
 20
1944.806665577315
 30
0.0
 11
-2878.148577642162
 21
1839.806665577315
 31
0.0
  0
LINE
  5
120
330
1F
100
AcDbEntity
  8
0-4
  6
Continuous
 62
    92
370
    13
100
AcDbLine
 10
-2883.148577642162
 20
2134.806665577315
 30
0.0
 11
-2883.148577642162
 21
1834.806665577315
 31
0.0
  0
LINE
  5
121
330
1F
100
AcDbEntity
  8
0-4
  6
Continuous
 62
    92
370
    13
100
AcDbLine
 10
-2883.148577642162
 20
1834.806665577315
 30
0.0
 11
-2814.36178107776
 21
1834.806665577315
 31
0.0
  0
LINE
  5
122
330
1F
100
AcDbEntity
  8
0-4
  6
Continuous
 62
    92
370
    13
100
AcDbLine
 10
-2878.148577642162
 20
1839.806665577315
 30
0.0
 11
-2816.432848889624
 21
1839.806665577315
 31
0.0
  0
LINE
  5
123
330
1F
100
AcDbEntity
  8
0-4
  6
Continuous
 62
    92
370
    13
100
AcDbLine
 10
-2814.36178107776
 20
1834.806665577315
 30
0.0
 11
-2793.148577642162
 21
1856.019869012911
 31
0.0
  0
LINE
  5
124
330
1F
100
AcDbEntity
  8
0-4
  6
Continuous
 62
    92
370
    13
100
AcDbLine
 10
-2816.432848889624
 20
1839.806665577315
 30
0.0
 11
-2798.148577642162
 21
1858.090936824777
 31
0.0
  0
LINE
  5
125
330
1F
100
AcDbEntity
  8
0-4
  6
Continuous
 62
    92
370
    13
100
AcDbLine
 10
-2793.148577642162
 20
1856.019869012911
 30
0.0
 11
-2793.148577642162
 21
1954.806665577315
 31
0.0
  0
LINE
  5
126
330
1F
100
AcDbEntity
  8
0-4
  6
Continuous
 62
    92
370
    13
100
AcDbLine
 10
-2798.148577642162
 20
1858.090936824777
 30
0.0
 11
-2798.148577642162
 21
1949.806665577315
 31
0.0
  0
LINE
  5
127
330
1F
100
AcDbEntity
  8
0-4
  6
Continuous
 62
    92
370
    13
100
AcDbLine
 10
-2793.148577642162
 20
1954.806665577315
 30
0.0
 11
-2836.148577642162
 21
1954.806665577315
 31
0.0
  0
LINE
  5
128
330
1F
100
AcDbEntity
  8
0-4
  6
Continuous
 62
    92
370
    13
100
AcDbLine
 10
-2798.148577642162
 20
1949.806665577315
 30
0.0
 11
-2841.148577642162
 21
1949.806665577315
 31
0.0
  0
LINE
  5
129
330
1F
100
AcDbEntity
  8
0-4
  6
Continuous
 62
    92
370
    13
100
AcDbLine
 10
-2836.148577642162
 20
1954.806665577315
 30
0.0
 11
-2836.148577642162
 21
2004.806665577315
 31
0.0
  0
LINE
  5
12A
330
1F
100
AcDbEntity
  8
0-4
  6
Continuous
 62
    92
370
    13
100
AcDbLine
 10
-2841.148577642162
 20
1949.806665577315
 30
0.0
 11
-2841.148577642162
 21
2009.806665577315
 31
0.0
  0
LINE
  5
12B
330
1F
100
AcDbEntity
  8
0-4
  6
Continuous
 62
    92
370
    13
100
AcDbLine
 10
-2793.148577642162
 20
2134.806665577315
 30
0.0
 11
-2793.148577642162
 21
2004.806665577315
 31
0.0
  0
LINE
  5
12C
330
1F
100
AcDbEntity
  8
0-4
  6
Continuous
 62
    92
370
    13
100
AcDbLine
 10
-2798.148577642162
 20
2134.806665577315
 30
0.0
 11
-2798.148577642162
 21
2009.806665577315
 31
0.0
  0
LINE
  5
12D
330
1F
100
AcDbEntity
  8
0-4
  6
Continuous
 62
    92
370
    13
100
AcDbLine
 10
-2836.148577642162
 20
2004.806665577315
 30
0.0
 11
-2793.148577642162
 21
2004.806665577315
 31
0.0
  0
LINE
  5
12E
330
1F
100
AcDbEntity
  8
0-4
  6
Continuous
 62
    92
370
    13
100
AcDbLine
 10
-2841.148577642162
 20
2009.806665577315
 30
0.0
 11
-2798.148577642162
 21
2009.806665577315
 31
0.0
  0
LINE
  5
12F
330
1F
100
AcDbEntity
  8
0-0
  6
JWW_HOJO
 62
     7
370
     9
100
AcDbLine
 10
-2933.148577642162
 20
1784.806665577315
 30
0.0
 11
-2793.651102959104
 21
1784.806665577315
 31
0.0
  0
LINE
  5
130
330
1F
100
AcDbEntity
  8
0-0
  6
JWW_HOJO
 62
     7
370
     9
100
AcDbLine
 10
-2793.651102959104
 20
1784.806665577315
 30
0.0
 11
-2743.148577642162
 21
1835.309190894257
 31
0.0
  0
LINE
  5
131
330
1F
100
AcDbEntity
  8
0-0
  6
JWW_HOJO
 62
     7
370
     9
100
AcDbLine
 10
-2743.148577642162
 20
2184.806665577315
 30
0.0
 11
-2743.148577642162
 21
1835.309190894257
 31
0.0
  0
LINE
  5
132
330
1F
100
AcDbEntity
  8
0-0
  6
JWW_HOJO
 62
     7
370
     9
100
AcDbLine
 10
-2933.148577642162
 20
2184.806665577315
 30
0.0
 11
-2933.148577642162
 21
1784.806665577315
 31
0.0
  0
LINE
  5
133
330
1F
100
AcDbEntity
  8
0-0
  6
JWW_HOJO
 62
     7
370
     9
100
AcDbLine
 10
-2933.148577642162
 20
2184.806665577315
 30
0.0
 11
-2743.148577642162
 21
2184.806665577315
 31
0.0
  0
LINE
  5
134
330
1F
100
AcDbEntity
  8
0-0
  6
JWW_HOJO
 62
     7
370
     9
100
AcDbLine
 10
-2983.148577642162
 20
2234.806665577315
 30
0.0
 11
-2983.148577642162
 21
1734.806665577315
 31
0.0
  0
LINE
  5
135
330
1F
100
AcDbEntity
  8
0-0
  6
JWW_HOJO
 62
     7
370
     9
100
AcDbLine
 10
-2983.148577642162
 20
1734.806665577315
 30
0.0
 11
-2772.94042484045
 21
1734.806665577315
 31
0.0
  0
LINE
  5
136
330
1F
100
AcDbEntity
  8
0-0
  6
JWW_HOJO
 62
     7
370
     9
100
AcDbLine
 10
-2772.94042484045
 20
1734.806665577315
 30
0.0
 11
-2693.148577642162
 21
1814.598512775602
 31
0.0
  0
LINE
  5
137
330
1F
100
AcDbEntity
  8
0-0
  6
JWW_HOJO
 62
     7
370
     9
100
AcDbLine
 10
-2693.148577642162
 20
2234.806665577315
 30
0.0
 11
-2693.148577642162
 21
1814.598512775602
 31
0.0
  0
LINE
  5
138
330
1F
100
AcDbEntity
  8
0-0
  6
JWW_HOJO
 62
     7
370
     9
100
AcDbLine
 10
-2983.148577642162
 20
2234.806665577315
 30
0.0
 11
-2693.148577642162
 21
2234.806665577315
 31
0.0
  0
LINE
  5
139
330
1F
100
AcDbEntity
  8
0-B
  6
Continuous
 62
   120
370
     5
100
AcDbLine
 10
-2883.148577642162
 20
2234.806665577315
 30
0.0
 11
-2793.148577642162
 21
2234.806665577315
 31
0.0
  0
LWPOLYLINE
  5
13A
330
1F
100
AcDbEntity
  8
0-B
  6
Continuous
 62
     7
370
     9
100
AcDbPolyline
 90
        4
 70
     1
 43
2.0
 10
-2882.148577642161
 20
2234.806665577315
 42
0.4142135623731
 10
-2883.148577642162
 20
2235.806665577315
 42
0.4142135623731
 10
-2884.148577642162
 20
2234.806665577315
 42
0.4142135623731
 10
-2883.148577642162
 20
2233.806665577315
 42
0.4142135623731
  0
LWPOLYLINE
  5
13B
330
1F
100
AcDbEntity
  8
0-B
  6
Continuous
 62
     7
370
     9
100
AcDbPolyline
 90
        4
 70
     1
 43
2.0
 10
-2792.148577642161
 20
2234.806665577315
 42
0.4142135623731
 10
-2793.148577642162
 20
2235.806665577315
 42
0.4142135623731
 10
-2794.148577642162
 20
2234.806665577315
 42
0.4142135623731
 10
-2793.148577642162
 20
2233.806665577315
 42
0.4142135623731
  0
LINE
  5
13C
330
1F
100
AcDbEntity
  8
0-B
  6
Continuous
 62
   120
370
     5
100
AcDbLine
 10
-2883.148577642162
 20
2234.806665577315
 30
0.0
 11
-2883.148577642162
 21
2184.806665577315
 31
0.0
  0
LINE
  5
13D
330
1F
100
AcDbEntity
  8
0-B
  6
Continuous
 62
   120
370
     5
100
AcDbLine
 10
-2793.148577642162
 20
2234.806665577315
 30
0.0
 11
-2793.148577642162
 21
2184.806665577315
 31
0.0
  0
LINE
  5
13E
330
1F
100
AcDbEntity
  8
0-B
  6
Continuous
 62
   120
370
     5
100
AcDbLine
 10
-2983.148577642162
 20
2134.806665577315
 30
0.0
 11
-2983.148577642162
 21
1834.806665577315
 31
0.0
  0
LWPOLYLINE
  5
13F
330
1F
100
AcDbEntity
  8
0-B
  6
Continuous
 62
     7
370
     9
100
AcDbPolyline
 90
        4
 70
     1
 43
2.0
 10
-2982.148577642161
 20
2134.806665577315
 42
0.4142135623731
 10
-2983.148577642162
 20
2135.806665577315
 42
0.4142135623731
 10
-2984.148577642162
 20
2134.806665577315
 42
0.4142135623731
 10
-2983.148577642162
 20
2133.806665577315
 42
0.4142135623731
  0
LWPOLYLINE
  5
140
330
1F
100
AcDbEntity
  8
0-B
  6
Continuous
 62
     7
370
     9
100
AcDbPolyline
 90
        4
 70
     1
 43
2.0
 10
-2982.148577642161
 20
1834.806665577315
 42
0.4142135623731
 10
-2983.148577642162
 20
1835.806665577315
 42
0.4142135623731
 10
-2984.148577642162
 20
1834.806665577315
 42
0.4142135623731
 10
-2983.148577642162
 20
1833.806665577315
 42
0.4142135623731
  0
LINE
  5
141
330
1F
100
AcDbEntity
  8
0-B
  6
Continuous
 62
   120
370
     5
100
AcDbLine
 10
-2983.148577642162
 20
2134.806665577315
 30
0.0
 11
-2933.148577642162
 21
2134.806665577315
 31
0.0
  0
LINE
  5
142
330
1F
100
AcDbEntity
  8
0-B
  6
Continuous
 62
   120
370
     5
100
AcDbLine
 10
-2983.148577642162
 20
1834.806665577315
 30
0.0
 11
-2933.148577642162
 21
1834.806665577315
 31
0.0
  0
LINE
  5
143
330
1F
100
AcDbEntity
  8
0-B
  6
Continuous
 62
   120
370
     5
100
AcDbLine
 10
-2693.148577642162
 20
2134.806665577315
 30
0.0
 11
-2693.148577642162
 21
1834.806665577315
 31
0.0
  0
LWPOLYLINE
  5
144
330
1F
100
AcDbEntity
  8
0-B
  6
Continuous
 62
     7
370
     9
100
AcDbPolyline
 90
        4
 70
     1
 43
2.0
 10
-2692.148577642161
 20
2134.806665577315
 42
0.4142135623731
 10
-2693.148577642162
 20
2135.806665577315
 42
0.4142135623731
 10
-2694.148577642162
 20
2134.806665577315
 42
0.4142135623731
 10
-2693.148577642162
 20
2133.806665577315
 42
0.4142135623731
  0
LWPOLYLINE
  5
145
330
1F
100
AcDbEntity
  8
0-B
  6
Continuous
 62
     7
370
     9
100
AcDbPolyline
 90
        4
 70
     1
 43
2.0
 10
-2692.148577642161
 20
2004.806665577315
 42
0.4142135623731
 10
-2693.148577642162
 20
2005.806665577315
 42
0.4142135623731
 10
-2694.148577642162
 20
2004.806665577315
 42
0.4142135623731
 10
-2693.148577642162
 20
2003.806665577315
 42
0.4142135623731
  0
LINE
  5
146
330
1F
100
AcDbEntity
  8
0-B
  6
Continuous
 62
   120
370
     5
100
AcDbLine
 10
-2693.148577642162
 20
2134.806665577315
 30
0.0
 11
-2743.148577642162
 21
2134.806665577315
 31
0.0
  0
LINE
  5
147
330
1F
100
AcDbEntity
  8
0-B
  6
Continuous
 62
   120
370
     5
100
AcDbLine
 10
-2693.148577642162
 20
2004.806665577315
 30
0.0
 11
-2743.148577642162
 21
2004.806665577315
 31
0.0
  0
LWPOLYLINE
  5
148
330
1F
100
AcDbEntity
  8
0-B
  6
Continuous
 62
     7
370
     9
100
AcDbPolyline
 90
        4
 70
     1
 43
2.0
 10
-2692.148577642161
 20
1954.806665577315
 42
0.4142135623731
 10
-2693.148577642162
 20
1955.806665577315
 42
0.4142135623731
 10
-2694.148577642162
 20
1954.806665577315
 42
0.4142135623731
 10
-2693.148577642162
 20
1953.806665577315
 42
0.4142135623731
  0
LINE
  5
149
330
1F
100
AcDbEntity
  8
0-B
  6
Continuous
 62
   120
370
     5
100
AcDbLine
 10
-2693.148577642162
 20
1954.806665577315
 30
0.0
 11
-2743.148577642162
 21
1954.806665577315
 31
0.0
  0
LWPOLYLINE
  5
14A
330
1F
100
AcDbEntity
  8
0-B
  6
Continuous
 62
     7
370
     9
100
AcDbPolyline
 90
        4
 70
     1
 43
2.0
 10
-2692.148577642161
 20
1834.806665577315
 42
0.4142135623731
 10
-2693.148577642162
 20
1835.806665577315
 42
0.4142135623731
 10
-2694.148577642162
 20
1834.806665577315
 42
0.4142135623731
 10
-2693.148577642162
 20
1833.806665577315
 42
0.4142135623731
  0
LINE
  5
14B
330
1F
100
AcDbEntity
  8
0-B
  6
Continuous
 62
   120
370
     5
100
AcDbLine
 10
-2693.148577642162
 20
1834.806665577315
 30
0.0
 11
-2743.148577642162
 21
1834.806665577315
 31
0.0
  0
LINE
  5
14C
330
1F
100
AcDbEntity
  8
0-B
  6
Continuous
 62
   120
370
     5
100
AcDbLine
 10
-2722.437899523507
 20
1785.309190894257
 30
0.0
 11
-2743.651102959104
 21
1764.09598745866
 31
0.0
  0
LWPOLYLINE
  5
14D
330
1F
100
AcDbEntity
  8
0-B
  6
Continuous
 62
     7
370
     9
100
AcDbPolyline
 90
        4
 70
     1
 43
2.0
 10
-2721.437899523507
 20
1785.309190894257
 42
0.4142135623731
 10
-2722.437899523507
 20
1786.309190894257
 42
0.4142135623731
 10
-2723.437899523508
 20
1785.309190894257
 42
0.4142135623731
 10
-2722.437899523507
 20
1784.309190894257
 42
0.4142135623731
  0
LWPOLYLINE
  5
14E
330
1F
100
AcDbEntity
  8
0-B
  6
Continuous
 62
     7
370
     9
100
AcDbPolyline
 90
        4
 70
     1
 43
2.0
 10
-2742.651102959104
 20
1764.09598745866
 42
0.4142135623731
 10
-2743.651102959104
 20
1765.09598745866
 42
0.4142135623731
 10
-2744.651102959105
 20
1764.09598745866
 42
0.4142135623731
 10
-2743.651102959104
 20
1763.09598745866
 42
0.4142135623731
  0
LINE
  5
14F
330
1F
100
AcDbEntity
  8
0-B
  6
Continuous
 62
   120
370
     5
100
AcDbLine
 10
-2722.437899523507
 20
1785.309190894257
 30
0.0
 11
-2757.793238582835
 21
1820.664529953583
 31
0.0
  0
LINE
  5
150
330
1F
100
AcDbEntity
  8
0-B
  6
Continuous
 62
   120
370
     5
100
AcDbLine
 10
-2743.651102959104
 20
1764.09598745866
 30
0.0
 11
-2779.006442018432
 21
1799.451326517987
 31
0.0
  0
LINE
  5
151
330
1F
100
AcDbEntity
  8
1-B
  6
Continuous
 62
   120
370
     5
100
AcDbLine
 10
-2025.833717552391
 20
1654.449485843248
 30
0.0
 11
-2111.833717552391
 21
1654.449485843248
 31
0.0
  0
LWPOLYLINE
  5
152
330
1F
100
AcDbEntity
  8
1-B
  6
Continuous
 62
     7
370
     9
100
AcDbPolyline
 90
        4
 70
     1
 43
2.0
 10
-2024.833717552391
 20
1654.449485843248
 42
0.4142135623731
 10
-2025.833717552391
 20
1655.449485843248
 42
0.4142135623731
 10
-2026.833717552391
 20
1654.449485843248
 42
0.4142135623731
 10
-2025.833717552391
 20
1653.449485843248
 42
0.4142135623731
  0
LWPOLYLINE
  5
153
330
1F
100
AcDbEntity
  8
1-B
  6
Continuous
 62
     7
370
     9
100
AcDbPolyline
 90
        4
 70
     1
 43
2.0
 10
-2110.833717552392
 20
1654.449485843248
 42
0.4142135623731
 10
-2111.833717552391
 20
1655.449485843248
 42
0.4142135623731
 10
-2112.833717552391
 20
1654.449485843248
 42
0.4142135623731
 10
-2111.833717552391
 20
1653.449485843248
 42
0.4142135623731
  0
LINE
  5
154
330
1F
100
AcDbEntity
  8
1-B
  6
Continuous
 62
   120
370
     5
100
AcDbLine
 10
-2025.833717552391
 20
1654.449485843248
 30
0.0
 11
-2025.833717552391
 21
1703.777390420923
 31
0.0
  0
LINE
  5
155
330
1F
100
AcDbEntity
  8
1-B
  6
Continuous
 62
   120
370
     5
100
AcDbLine
 10
-2111.833717552391
 20
1654.449485843248
 30
0.0
 11
-2111.833717552391
 21
1703.777390420923
 31
0.0
  0
MTEXT
  5
156
330
1F
100
AcDbEntity
  8
0-A
  6
Continuous
 62
     7
370
     9
100
AcDbMText
 10
-3773.333084448675
 20
2007.078823795188
 30
0.0
 40
66.04
 41
260.0
 46
0.0
 71
     7
 72
     1
  1
{\fＭＳ ゴシック|b0|i0|c128|p49;廻り縁}
 73
     1
 44
1.0
  0
MTEXT
  5
157
330
1F
100
AcDbEntity
  8
0-A
  6
Continuous
 62
     7
370
     9
100
AcDbMText
 10
-3773.333084448675
 20
1847.078823795188
 30
0.0
 40
66.04
 41
260.0
 46
0.0
 71
     7
 72
     1
  1
{\fＭＳ ゴシック|b0|i0|c128|p49;Ｐ　型}
 73
     1
 44
1.0
  0
MTEXT
  5
158
330
1F
100
AcDbEntity
  8
0-A
  6
Continuous
 62
     7
370
     9
100
AcDbMText
 10
-293.3338392103036
 20
2386.193476298564
 30
0.0
 40
45.72
 41
60.0
 46
0.0
 71
     7
 72
     1
  1
{\fＭＳ ゴシック|b0|i0|c128|p49;10}
 73
     1
 44
1.0
  0
MTEXT
  5
159
330
1F
100
AcDbEntity
  8
0-A
  6
Continuous
 62
     7
370
     9
100
AcDbMText
 10
-1483.333839210304
 20
2286.193517538535
 30
0.0
 40
45.72
 41
360.0
 46
0.0
 71
     7
 72
     1
  1
{\fＭＳ ゴシック|b0|i0|c128|p49;3,900×30×9}
 73
     1
 44
1.0
  0
MTEXT
  5
15A
330
1F
100
AcDbEntity
  8
0-A
  6
Continuous
 62
     7
370
     9
100
AcDbMText
 10
-278.3338392103036
 20
2286.193270098712
 30
0.0
 40
45.72
 41
30.0
 46
0.0
 71
     7
 72
     1
  1
{\fＭＳ ゴシック|b0|i0|c128|p49;6}
 73
     1
 44
1.0
  0
MTEXT
  5
15B
330
1F
100
AcDbEntity
  8
0-A
  6
Continuous
 62
     7
370
     9
100
AcDbMText
 10
-278.3338392103036
 20
2186.193311338683
 30
0.0
 40
45.72
 41
30.0
 46
0.0
 71
     7
 72
     1
  1
{\fＭＳ ゴシック|b0|i0|c128|p49;1}
 73
     1
 44
1.0
  0
MTEXT
  5
15C
330
1F
100
AcDbEntity
  8
0-B
  6
Continuous
 62
     7
370
   211
100
AcDbMText
 10
-2853.148577642162
 20
2237.666665577315
 30
0.0
 40
45.72
 41
30.0
 46
0.0
 71
     7
 72
     1
  1
{\fＭＳ ゴシック|b0|i0|c128|p49;9}
 73
     1
 44
1.0
  0
MTEXT
  5
15D
330
1F
100
AcDbEntity
  8
0-B
  6
Continuous
 62
     7
370
   211
100
AcDbMText
 10
-2703.148577642162
 20
2032.666665577314
 30
0.0
 40
45.72
 41
60.0
 46
0.0
 71
     7
 72
     1
  1
{\fＭＳ ゴシック|b0|i0|c128|p49;13}
 11
6.123031769111886E-17
 21
1.0
 31
0.0
 73
     1
 44
1.0
  0
MTEXT
  5
15E
330
1F
100
AcDbEntity
  8
0-B
  6
Continuous
 62
     7
370
   211
100
AcDbMText
 10
-2703.148577642162
 20
1957.666665577314
 30
0.0
 40
45.72
 41
30.0
 46
0.0
 71
     7
 72
     1
  1
{\fＭＳ ゴシック|b0|i0|c128|p49;5}
 11
6.123031769111886E-17
 21
1.0
 31
0.0
 73
     1
 44
1.0
  0
MTEXT
  5
15F
330
1F
100
AcDbEntity
  8
0-B
  6
Continuous
 62
     7
370
   211
100
AcDbMText
 10
-2993.148577642162
 20
1947.666665577314
 30
0.0
 40
45.72
 41
60.0
 46
0.0
 71
     7
 72
     1
  1
{\fＭＳ ゴシック|b0|i0|c128|p49;30}
 11
6.123031769111886E-17
 21
1.0
 31
0.0
 73
     1
 44
1.0
  0
MTEXT
  5
160
330
1F
100
AcDbEntity
  8
0-B
  6
Continuous
 62
     7
370
   211
100
AcDbMText
 10
-2703.148577642162
 20
1857.666665577314
 30
0.0
 40
45.72
 41
60.0
 46
0.0
 71
     7
 72
     1
  1
{\fＭＳ ゴシック|b0|i0|c128|p49;12}
 11
6.123031769111886E-17
 21
1.0
 31
0.0
 73
     1
 44
1.0
  0
MTEXT
  5
161
330
1F
100
AcDbEntity
  8
0-B
  6
Continuous
 62
     7
370
   211
100
AcDbMText
 10
-2750.722170770972
 20
1764.027055270526
 30
0.0
 40
45.72000000000038
 41
30.00000000000025
 46
0.0
 71
     7
 72
     1
  1
{\fＭＳ ゴシック|b0|i0|c128|p49;3}
 11
0.7071067811865853
 21
0.7071067811865097
 31
0.0
 73
     1
 44
1.0
  0
MTEXT
  5
162
330
1F
100
AcDbEntity
  8
1-A
  6
Continuous
 62
     7
370
     9
100
AcDbMText
 10
-2255.833717552391
 20
2347.42490399203
 30
0.0
 40
45.72
 41
360.0
 46
0.0
 71
     7
 72
     1
  1
{\fＭＳ ゴシック|b0|i0|c128|p49;掘り込み部分}
 73
     1
 44
1.0
  0
MTEXT
  5
163
330
1F
100
AcDbEntity
  8
1-A
  6
Continuous
 62
     7
370
     9
100
AcDbMText
 10
-2165.833717552391
 20
2272.882474707505
 30
0.0
 40
45.72
 41
180.0
 46
0.0
 71
     7
 72
     1
  1
{\fＭＳ ゴシック|b0|i0|c128|p49;拡大図}
 73
     1
 44
1.0
  0
MTEXT
  5
164
330
1F
100
AcDbEntity
  8
1-B
  6
Continuous
 62
     7
370
   211
100
AcDbMText
 10
-1955.833717552391
 20
1922.365347066243
 30
0.0
 40
45.72
 41
60.0
 46
0.0
 71
     7
 72
     1
  1
{\fＭＳ ゴシック|b0|i0|c128|p49;13}
 11
6.123031769111886E-17
 21
1.0
 31
0.0
 73
     1
 44
1.0
  0
MTEXT
  5
165
330
1F
100
AcDbEntity
  8
1-B
  6
Continuous
 62
     7
370
   211
100
AcDbMText
 10
-1955.833717552391
 20
1757.365347066243
 30
0.0
 40
45.72
 41
30.0
 46
0.0
 71
     7
 72
     1
  1
{\fＭＳ ゴシック|b0|i0|c128|p49;5}
 11
6.123031769111886E-17
 21
1.0
 31
0.0
 73
     1
 44
1.0
  0
MTEXT
  5
166
330
1F
100
AcDbEntity
  8
1-B
  6
Continuous
 62
     7
370
   211
100
AcDbMText
 10
-1888.938159510876
 20
1586.77316396183
 30
0.0
 40
45.72
 41
90.0
 46
0.0
 71
     7
 72
     1
  1
{\fＭＳ ゴシック|b0|i0|c128|p49;4.3}
 73
     1
 44
1.0
  0
MTEXT
  5
167
330
1F
100
AcDbEntity
  8
0-A
  6
Continuous
 62
     7
370
     9
100
AcDbMText
 10
-290.0002061998515
 20
1386.193393818623
 30
0.0
 40
45.72
 41
60.0
 46
0.0
 71
     7
 72
     1
  1
{\fＭＳ ゴシック|b0|i0|c128|p49;10}
 73
     1
 44
1.0
  0
MTEXT
  5
168
330
1F
100
AcDbEntity
  8
0-A
  6
Continuous
 62
     7
370
     9
100
AcDbMText
 10
-293.3334680505692
 20
386.1930638988599
 30
0.0
 40
45.72
 41
60.0
 46
0.0
 71
     7
 72
     1
  1
{\fＭＳ ゴシック|b0|i0|c128|p49;20}
 73
     1
 44
1.0
  0
LINE
  5
169
330
1F
100
AcDbEntity
  8
0-4
  6
Continuous
 62
    92
370
    13
100
AcDbLine
 10
-2430.216262745892
 20
699.0879474413742
 30
0.0
 11
-2267.310196763947
 21
742.7384962633681
 31
0.0
  0
LINE
  5
16A
330
1F
100
AcDbEntity
  8
0-4
  6
Continuous
 62
    92
370
    13
100
AcDbLine
 10
-2248.333595903068
 20
765.3539285145467
 30
0.0
 11
-2267.310196763947
 21
742.7384962633681
 31
0.0
  0
LINE
  5
16B
330
1F
100
AcDbEntity
  8
0-4
  6
Continuous
 62
    92
370
    13
100
AcDbLine
 10
-2466.450929060245
 20
699.0879474413742
 30
0.0
 11
-2617.63998842917
 21
739.5989338036998
 31
0.0
  0
LINE
  5
16C
330
1F
100
AcDbEntity
  8
0-4
  6
Continuous
 62
    92
370
    13
100
AcDbLine
 10
-2648.333595903068
 20
765.3539285145467
 30
0.0
 11
-2617.63998842917
 21
739.5989338036998
 31
0.0
  0
ARC
  5
16D
330
1F
100
AcDbEntity
  8
0-4
  6
Continuous
 62
    92
370
    13
100
AcDbCircle
 10
-2448.333595903068
 20
766.7027552816097
 30
0.0
 40
70.0
100
AcDbArc
 50
254.9999999999999
 51
285.0
  0
LINE
  5
16E
330
1F
100
AcDbEntity
  8
0-4
  6
Continuous
 62
    92
370
    13
100
AcDbLine
 10
-2448.333595903068
 20
714.2334226570284
 30
0.0
 11
-2448.333595903068
 21
831.7642550675242
 31
0.0
  0
LINE
  5
16F
330
1F
100
AcDbEntity
  8
0-4
  6
Continuous
 62
    92
370
    13
100
AcDbLine
 10
-2648.333595903068
 20
765.3539285145467
 30
0.0
 11
-2648.333595903068
 21
885.3539285145467
 31
0.0
  0
LINE
  5
170
330
1F
100
AcDbEntity
  8
0-4
  6
Continuous
 62
    92
370
    13
100
AcDbLine
 10
-2248.333595903068
 20
765.3539285145467
 30
0.0
 11
-2248.333595903068
 21
885.3539285145467
 31
0.0
  0
ARC
  5
171
330
1F
100
AcDbEntity
  8
0-4
  6
Continuous
 62
    92
370
    13
100
AcDbCircle
 10
-2448.333595903068
 20
784.2334226570284
 30
0.0
 40
70.0
100
AcDbArc
 50
255.0
 51
285.0
  0
LINE
  5
172
330
1F
100
AcDbEntity
  8
0-4
  6
Continuous
 62
    92
370
    13
100
AcDbLine
 10
-2430.216262745892
 20
716.618614816793
 30
0.0
 11
-2248.333595903068
 21
765.3539285145467
 31
0.0
  0
LINE
  5
173
330
1F
100
AcDbEntity
  8
0-4
  6
Continuous
 62
    92
370
    13
100
AcDbLine
 10
-2466.450929060245
 20
716.618614816793
 30
0.0
 11
-2648.333595903068
 21
765.3539285145467
 31
0.0
  0
LINE
  5
174
330
1F
100
AcDbEntity
  8
0-4
  6
JWW_DASHED1
 62
    92
370
    13
100
AcDbLine
 10
-2448.333595903068
 20
881.7642550674401
 30
0.0
 11
-2448.333595903068
 21
831.7642550675242
 31
0.0
  0
LINE
  5
175
330
1F
100
AcDbEntity
  8
0-4
  6
Continuous
 62
    92
370
    13
100
AcDbLine
 10
-2648.333595903068
 20
935.3540935536654
 30
0.0
 11
-2648.333595903068
 21
1145.354093553665
 31
0.0
  0
LINE
  5
176
330
1F
100
AcDbEntity
  8
0-4
  6
Continuous
 62
    92
370
    13
100
AcDbLine
 10
-2448.333595903068
 20
881.7642550674401
 30
0.0
 11
-2248.333595903068
 21
935.3540935536648
 31
0.0
  0
LINE
  5
177
330
1F
100
AcDbEntity
  8
0-4
  6
Continuous
 62
    92
370
    13
100
AcDbLine
 10
-2248.333595903068
 20
885.3539285145467
 30
0.0
 11
-2287.767482795057
 21
924.7878154065364
 31
0.0
  0
LINE
  5
178
330
1F
100
AcDbEntity
  8
0-4
  6
Continuous
 62
    92
370
    13
100
AcDbLine
 10
-2648.333595903068
 20
885.3539285145467
 30
0.0
 11
-2608.899709011079
 21
924.7878154065364
 31
0.0
  0
LINE
  5
179
330
1F
100
AcDbEntity
  8
0-4
  6
Continuous
 62
    92
370
    13
100
AcDbLine
 10
-2448.334211837753
 20
831.7642550675242
 30
0.0
 11
-2648.333595903068
 21
885.3539285145467
 31
0.0
  0
LINE
  5
17A
330
1F
100
AcDbEntity
  8
0-4
  6
Continuous
 62
    92
370
    13
100
AcDbLine
 10
-2448.332979968381
 20
831.7642550675242
 30
0.0
 11
-2248.333595903068
 21
885.3539285145467
 31
0.0
  0
LINE
  5
17B
330
1F
100
AcDbEntity
  8
0-4
  6
Continuous
 62
    92
370
    13
100
AcDbLine
 10
-2248.333595903068
 20
935.3540935536648
 30
0.0
 11
-2248.333595903068
 21
1145.354093553665
 31
0.0
  0
LINE
  5
17C
330
1F
100
AcDbEntity
  8
0-4
  6
Continuous
 62
    92
370
    13
100
AcDbLine
 10
-2448.333595903067
 20
881.7642550674401
 30
0.0
 11
-2648.333595903068
 21
935.3540935536654
 31
0.0
  0
LINE
  5
17D
330
1F
100
AcDbEntity
  8
0-4
  6
Continuous
 62
    92
370
    13
100
AcDbLine
 10
-2448.333595894479
 20
1091.76425506744
 30
0.0
 11
-2648.333595894479
 21
1145.354093553665
 31
0.0
  0
LINE
  5
17E
330
1F
100
AcDbEntity
  8
0-4
  6
Continuous
 62
    92
370
    13
100
AcDbLine
 10
-2448.333595911658
 20
1091.76425506744
 30
0.0
 11
-2248.333595911658
 21
1145.354093553665
 31
0.0
  0
LINE
  5
17F
330
1F
100
AcDbEntity
  8
0-4
  6
Continuous
 62
    92
370
    13
100
AcDbLine
 10
-2448.333595903068
 20
881.7642550674407
 30
0.0
 11
-2448.333595903068
 21
1091.76425506744
 31
0.0
  0
LINE
  5
180
330
1F
100
AcDbEntity
  8
0-4
  6
JWW_DASHED1
 62
    92
370
    13
100
AcDbLine
 10
-2448.333595903068
 20
714.2334226570284
 30
0.0
 11
-2448.333595903068
 21
696.7027552816097
 31
0.0
  0
LINE
  5
181
330
1F
100
AcDbEntity
  8
0-B
  6
Continuous
 62
   120
370
     5
100
AcDbLine
 10
-2148.333595911658
 20
1172.690296418864
 30
0.0
 11
-2210.441762651868
 21
1208.548463205199
 31
0.0
  0
LWPOLYLINE
  5
182
330
1F
100
AcDbEntity
  8
0-B
  6
Continuous
 62
     7
370
     9
100
AcDbPolyline
 90
        4
 70
     1
 43
2.0
 10
-2147.333595911658
 20
1172.690296418864
 42
0.4142135623731
 10
-2148.333595911658
 20
1173.690296418864
 42
0.4142135623731
 10
-2149.333595911657
 20
1172.690296418864
 42
0.4142135623731
 10
-2148.333595911658
 20
1171.690296418865
 42
0.4142135623731
  0
LWPOLYLINE
  5
183
330
1F
100
AcDbEntity
  8
0-B
  6
Continuous
 62
     7
370
     9
100
AcDbPolyline
 90
        4
 70
     1
 43
2.0
 10
-2209.441762651868
 20
1208.548463205199
 42
0.4142135623731
 10
-2210.441762651868
 20
1209.548463205199
 42
0.4142135623731
 10
-2211.441762651867
 20
1208.548463205199
 42
0.4142135623731
 10
-2210.441762651868
 20
1207.548463205199
 42
0.4142135623731
  0
LINE
  5
184
330
1F
100
AcDbEntity
  8
0-B
  6
Continuous
 62
   120
370
     5
100
AcDbLine
 10
-2275.568239953002
 20
1191.097876209262
 30
0.0
 11
-2210.441762652564
 21
1208.548463207798
 31
0.0
  0
LINE
  5
185
330
1F
100
AcDbEntity
  8
0-B
  6
Continuous
 62
   120
370
     5
100
AcDbLine
 10
-2213.460073201855
 20
1155.239709416613
 30
0.0
 11
-2148.333595910042
 21
1172.690296412838
 31
0.0
  0
LINE
  5
186
330
1F
100
AcDbEntity
  8
0-B
  6
JWW_HOJO
 62
   120
370
     5
100
AcDbLine
 10
-2563.821699793977
 20
1025.08716719105
 30
0.0
 11
-2763.821699793976
 21
1078.677005677275
 31
0.0
  0
LINE
  5
187
330
1F
100
AcDbEntity
  8
0-B
  6
Continuous
 62
   120
370
     5
100
AcDbLine
 10
-2763.821699801991
 20
1078.677005679422
 30
0.0
 11
-2563.821699810005
 21
1025.087167195346
 31
0.0
  0
LWPOLYLINE
  5
188
330
1F
100
AcDbEntity
  8
0-B
  6
Continuous
 62
     7
370
     9
100
AcDbPolyline
 90
        4
 70
     1
 43
2.0
 10
-2762.821699801991
 20
1078.677005679422
 42
0.4142135623731
 10
-2763.821699801991
 20
1079.677005679422
 42
0.4142135623731
 10
-2764.821699801991
 20
1078.677005679422
 42
0.4142135623731
 10
-2763.821699801991
 20
1077.677005679422
 42
0.4142135623731
  0
LWPOLYLINE
  5
189
330
1F
100
AcDbEntity
  8
0-B
  6
Continuous
 62
     7
370
     9
100
AcDbPolyline
 90
        4
 70
     1
 43
2.0
 10
-2562.821699810004
 20
1025.087167195346
 42
0.4142135623731
 10
-2563.821699810005
 20
1026.087167195346
 42
0.4142135623731
 10
-2564.821699810005
 20
1025.087167195346
 42
0.4142135623731
 10
-2563.821699810005
 20
1024.087167195346
 42
0.4142135623731
  0
LINE
  5
18A
330
1F
100
AcDbEntity
  8
0-B
  6
Continuous
 62
   120
370
     5
100
AcDbLine
 10
-2697.323390756009
 20
1117.069822307775
 30
0.0
 11
-2763.821699801991
 21
1078.677005679422
 31
0.0
  0
LINE
  5
18B
330
1F
100
AcDbEntity
  8
0-B
  6
Continuous
 62
   120
370
     5
100
AcDbLine
 10
-2563.821699810005
 20
1025.087167195346
 30
0.0
 11
-2497.323390756031
 21
1063.479983821556
 31
0.0
  0
LINE
  5
18C
330
1F
100
AcDbEntity
  8
0-0
  6
JWW_HOJO
 62
   120
370
     5
100
AcDbLine
 10
-2148.333595903068
 20
935.3540935536648
 30
0.0
 11
-2148.333595903068
 21
1145.354093553665
 31
0.0
  0
LINE
  5
18D
330
1F
100
AcDbEntity
  8
0-0
  6
JWW_HOJO
 62
   120
370
     5
100
AcDbLine
 10
-2048.333595903068
 20
935.3540935536648
 30
0.0
 11
-2048.333595903068
 21
1145.354093553665
 31
0.0
  0
LINE
  5
18E
330
1F
100
AcDbEntity
  8
0-0
  6
JWW_HOJO
 62
   120
370
     5
100
AcDbLine
 10
-2148.333595911657
 20
1172.690296418864
 30
0.0
 11
-2210.441762651867
 21
1208.548463205199
 31
0.0
  0
LINE
  5
18F
330
1F
100
AcDbEntity
  8
0-0
  6
JWW_HOJO
 62
   120
370
     5
100
AcDbLine
 10
-2213.460073201855
 20
1155.239709416613
 30
0.0
 11
-2213.460073201855
 21
742.7384962633681
 31
0.0
  0
LINE
  5
190
330
1F
100
AcDbEntity
  8
0-B
  6
Continuous
 62
   120
370
     5
100
AcDbLine
 10
-2448.333595898773
 20
986.7642550674401
 30
0.0
 11
-2695.535943797975
 21
920.5265855807721
 31
0.0
  0
LINE
  5
191
330
1F
100
AcDbEntity
  8
0-4
  6
Continuous
 62
    92
370
    13
100
AcDbLine
 10
-2648.333595894479
 20
1145.354093553665
 30
0.0
 11
-2593.220076681857
 21
1177.17389870706
 31
0.0
  0
LINE
  5
192
330
1F
100
AcDbEntity
  8
0-4
  6
Continuous
 62
    92
370
    13
100
AcDbLine
 10
-2448.333595903068
 20
1138.351683188196
 30
0.0
 11
-2593.220076681857
 21
1177.17389870706
 31
0.0
  0
LINE
  5
193
330
1F
100
AcDbEntity
  8
0-4
  6
Continuous
 62
    92
370
    13
100
AcDbLine
 10
-2448.333595903068
 20
1138.351683188196
 30
0.0
 11
-2303.447115124279
 21
1177.17389870706
 31
0.0
  0
LINE
  5
194
330
1F
100
AcDbEntity
  8
0-4
  6
Continuous
 62
    92
370
    13
100
AcDbLine
 10
-2248.333595911658
 20
1145.354093553665
 30
0.0
 11
-2303.447115124279
 21
1177.17389870706
 31
0.0
  0
LINE
  5
195
330
1F
100
AcDbEntity
  8
0-4
  6
JWW_DASHED1
 62
    92
370
    13
100
AcDbLine
 10
-2448.333595911658
 20
1091.76425506744
 30
0.0
 11
-2448.333595911658
 21
1138.351683190497
 31
0.0
  0
LINE
  5
196
330
1F
100
AcDbEntity
  8
0-B
  6
Continuous
 62
   120
370
     5
100
AcDbLine
 10
-2148.333595903068
 20
1145.354093553665
 30
0.0
 11
-2148.333595903068
 21
742.7384962633681
 31
0.0
  0
LWPOLYLINE
  5
197
330
1F
100
AcDbEntity
  8
0-B
  6
Continuous
 62
     7
370
     9
100
AcDbPolyline
 90
        4
 70
     1
 43
2.0
 10
-2147.333595903068
 20
1145.354093553665
 42
0.4142135623731
 10
-2148.333595903068
 20
1146.354093553665
 42
0.4142135623731
 10
-2149.333595903068
 20
1145.354093553665
 42
0.4142135623731
 10
-2148.333595903068
 20
1144.354093553665
 42
0.4142135623731
  0
LWPOLYLINE
  5
198
330
1F
100
AcDbEntity
  8
0-B
  6
Continuous
 62
     7
370
     9
100
AcDbPolyline
 90
        4
 70
     1
 43
2.0
 10
-2147.333595903068
 20
742.7384962633681
 42
0.4142135623731
 10
-2148.333595903068
 20
743.738496263368
 42
0.4142135623731
 10
-2149.333595903068
 20
742.7384962633681
 42
0.4142135623731
 10
-2148.333595903068
 20
741.7384962633682
 42
0.4142135623731
  0
LINE
  5
199
330
1F
100
AcDbEntity
  8
0-B
  6
Continuous
 62
   120
370
     5
100
AcDbLine
 10
-2148.333595903068
 20
1145.354093553665
 30
0.0
 11
-2213.460073201855
 21
1145.354093553665
 31
0.0
  0
LINE
  5
19A
330
1F
100
AcDbEntity
  8
0-B
  6
Continuous
 62
   120
370
     5
100
AcDbLine
 10
-2148.333595903068
 20
742.7384962633681
 30
0.0
 11
-2213.460073201855
 21
742.7384962633681
 31
0.0
  0
MTEXT
  5
19B
330
1F
100
AcDbEntity
  8
0-A
  6
Continuous
 62
     7
370
     9
100
AcDbMText
 10
-3818.333084448675
 20
310.299041800658
 30
0.0
 40
66.675
 41
350.0
 46
0.0
 71
     7
 72
     1
  1
{\fＭＳ ゴシック|b0|i0|c128|p49;Ｐ型対応}
 73
     1
 44
1.0
  0
MTEXT
  5
19C
330
1F
100
AcDbEntity
  8
0-A
  6
Continuous
 62
     7
370
     9
100
AcDbMText
 10
-3963.333084448675
 20
422.0796290205533
 30
0.0
 40
60.96
 41
640.0
 46
0.0
 71
     7
 72
     1
  1
{\fＭＳ ゴシック|b0|i0|c128|p49;コーナーキャップ}
 73
     1
 44
1.0
  0
MTEXT
  5
19D
330
1F
100
AcDbEntity
  8
0-A
  6
Continuous
 62
     7
370
     9
100
AcDbMText
 10
-3763.333084448675
 20
537.7250571327043
 30
0.0
 40
60.96
 41
240.0
 46
0.0
 71
     7
 72
     1
  1
{\fＭＳ ゴシック|b0|i0|c128|p49;廻り縁}
 73
     1
 44
1.0
  0
LINE
  5
19E
330
1F
100
AcDbEntity
  8
0-4
  6
Continuous
 62
    92
370
    13
100
AcDbLine
 10
-2710.073667714473
 20
122.5735281696609
 30
0.0
 11
-2710.073667714473
 21
114.1363898017727
 31
0.0
  0
LINE
  5
19F
330
1F
100
AcDbEntity
  8
0-4
  6
Continuous
 62
    92
370
    13
100
AcDbLine
 10
-2448.3332865947
 20
128.557079666374
 30
0.0
 11
-2648.3332865947
 21
74.96724118014924
 31
0.0
  0
LINE
  5
1A0
330
1F
100
AcDbEntity
  8
0-4
  6
Continuous
 62
    92
370
    13
100
AcDbLine
 10
-2658.3332865947
 20
72.28774925583821
 30
0.0
 11
-2668.705081861436
 21
90.2522256235278
 31
0.0
  0
LINE
  5
1A1
330
1F
100
AcDbEntity
  8
0-4
  6
Continuous
 62
    92
370
    13
100
AcDbLine
 10
-2648.3332865947
 20
74.96724118014924
 30
0.0
 11
-2658.705081861436
 21
92.93171754783941
 31
0.0
  0
LINE
  5
1A2
330
1F
100
AcDbEntity
  8
0-4
  6
Continuous
 62
    92
370
    13
100
AcDbLine
 10
-2448.3332865947
 20
149.3006701998456
 30
0.0
 11
-2658.705081861436
 21
92.93171754783884
 31
0.0
  0
LINE
  5
1A3
330
1F
100
AcDbEntity
  8
0-4
  6
Continuous
 62
    92
370
    13
100
AcDbLine
 10
-2658.705081861436
 20
92.93171754783941
 30
0.0
 11
-2710.066801757547
 21
122.5854203559004
 31
0.0
  0
LINE
  5
1A4
330
1F
100
AcDbEntity
  8
0-4
  6
Continuous
 62
    92
370
    13
100
AcDbLine
 10
-2668.705081861436
 20
90.2522256235278
 30
0.0
 11
-2710.073667714473
 21
114.1363898017727
 31
0.0
  0
LINE
  5
1A5
330
1F
100
AcDbEntity
  8
0-4
  6
Continuous
 62
    92
370
    13
100
AcDbLine
 10
-2186.592905474927
 20
122.5735281696609
 30
0.0
 11
-2186.592905474927
 21
114.1363898017727
 31
0.0
  0
LINE
  5
1A6
330
1F
100
AcDbEntity
  8
0-4
  6
Continuous
 62
    92
370
    13
100
AcDbLine
 10
-2448.3332865947
 20
128.557079666374
 30
0.0
 11
-2248.3332865947
 21
74.96724118014924
 31
0.0
  0
LINE
  5
1A7
330
1F
100
AcDbEntity
  8
0-4
  6
Continuous
 62
    92
370
    13
100
AcDbLine
 10
-2238.3332865947
 20
72.28774925583821
 30
0.0
 11
-2227.961491327964
 21
90.2522256235278
 31
0.0
  0
LINE
  5
1A8
330
1F
100
AcDbEntity
  8
0-4
  6
Continuous
 62
    92
370
    13
100
AcDbLine
 10
-2248.3332865947
 20
74.96724118014924
 30
0.0
 11
-2237.961491327964
 21
92.93171754783941
 31
0.0
  0
LINE
  5
1A9
330
1F
100
AcDbEntity
  8
0-4
  6
Continuous
 62
    92
370
    13
100
AcDbLine
 10
-2448.3332865947
 20
149.3006701998456
 30
0.0
 11
-2237.961491327964
 21
92.93171754783884
 31
0.0
  0
LINE
  5
1AA
330
1F
100
AcDbEntity
  8
0-4
  6
Continuous
 62
    92
370
    13
100
AcDbLine
 10
-2237.961491327964
 20
92.93171754783941
 30
0.0
 11
-2186.599771431854
 21
122.5854203559004
 31
0.0
  0
LINE
  5
1AB
330
1F
100
AcDbEntity
  8
0-4
  6
Continuous
 62
    92
370
    13
100
AcDbLine
 10
-2227.961491327964
 20
90.2522256235278
 30
0.0
 11
-2186.592905474927
 21
114.1363898017727
 31
0.0
  0
LINE
  5
1AC
330
1F
100
AcDbEntity
  8
0-4
  6
Continuous
 62
    92
370
    13
100
AcDbLine
 10
-2493.626619487641
 20
180.5703399461407
 30
0.0
 11
-2710.073667714473
 21
122.5735281696609
 31
0.0
  0
LINE
  5
1AD
330
1F
100
AcDbEntity
  8
0-4
  6
Continuous
 62
    92
370
    13
100
AcDbLine
 10
-2403.039953701759
 20
180.5703399461407
 30
0.0
 11
-2186.592905474927
 21
122.5735281696609
 31
0.0
  0
ARC
  5
1AE
330
1F
100
AcDbEntity
  8
0-4
  6
Continuous
 62
    92
370
    13
100
AcDbCircle
 10
-2448.3332865947
 20
11.53332034555319
 30
0.0
 40
175.0
100
AcDbArc
 50
75.00000000000006
 51
104.9999999999999
  0
LINE
  5
1AF
330
1F
100
AcDbEntity
  8
0-0
  6
JWW_HOJO
 62
     7
370
     9
100
AcDbLine
 10
-2448.3332865947
 20
244.4704609378221
 30
0.0
 11
-2136.592905474927
 21
160.9398775686088
 31
0.0
  0
LWPOLYLINE
  5
1B0
330
1F
100
AcDbEntity
  8
0-B
  6
Continuous
 62
     7
370
     9
100
AcDbPolyline
 90
        4
 70
     1
 43
2.0
 10
-2085.592905474927
 20
122.5785543989736
 42
0.4142135623731
 10
-2086.592905474927
 20
123.5785543989736
 42
0.4142135623731
 10
-2087.592905474927
 20
122.5785543989736
 42
0.4142135623731
 10
-2086.592905474927
 20
121.5785543989736
 42
0.4142135623731
  0
LINE
  5
1B1
330
1F
100
AcDbEntity
  8
0-B
  6
Continuous
 62
   120
370
     5
100
AcDbLine
 10
-2086.592905474927
 20
122.5785543989736
 30
0.0
 11
-2136.592905474927
 21
122.5785543989736
 31
0.0
  0
LINE
  5
1B2
330
1F
100
AcDbEntity
  8
0-4
  6
Continuous
 62
    92
370
    13
100
AcDbLine
 10
-2448.3332865947
 20
-110.0196286496606
 30
0.0
 11
-2648.3332865947
 21
-163.6094671358848
 31
0.0
  0
LINE
  5
1B3
330
1F
100
AcDbEntity
  8
0-4
  6
Continuous
 62
    92
370
    13
100
AcDbLine
 10
-2658.3332865947
 20
-169.3829698471069
 30
0.0
 11
-2688.3332865947
 21
-152.0624617714179
 31
0.0
  0
LINE
  5
1B4
330
1F
100
AcDbEntity
  8
0-4
  6
Continuous
 62
    92
370
    13
100
AcDbLine
 10
-2678.3332865947
 20
-146.288959079522
 30
0.0
 11
-2648.3332865947
 21
-163.6094671552104
 31
0.0
  0
LINE
  5
1B5
330
1F
100
AcDbEntity
  8
0-4
  6
Continuous
 62
    92
370
    13
100
AcDbLine
 10
-2448.3332865947
 20
-68.47262326617908
 30
0.0
 11
-2648.3332865947
 21
-122.0624617524038
 31
0.0
  0
LINE
  5
1B6
330
1F
100
AcDbEntity
  8
0-4
  6
Continuous
 62
    92
370
    13
100
AcDbLine
 10
-2678.3332865947
 20
-146.288959079522
 30
0.0
 11
-2447.006811811466
 21
-84.3052169734159
 31
0.0
  0
LINE
  5
1B7
330
1F
100
AcDbEntity
  8
0-4
  6
Continuous
 62
    92
370
    13
100
AcDbLine
 10
-2678.3332865947
 20
-146.288959079522
 30
0.0
 11
-2678.3332865947
 21
-104.7419536767148
 31
0.0
  0
LINE
  5
1B8
330
1F
100
AcDbEntity
  8
0-4
  6
Continuous
 62
    92
370
    13
100
AcDbLine
 10
-2648.3332865947
 20
-122.0624617524038
 30
0.0
 11
-2678.3332865947
 21
-104.7419536767148
 31
0.0
  0
LINE
  5
1B9
330
1F
100
AcDbEntity
  8
0-4
  6
Continuous
 62
    92
370
    13
100
AcDbLine
 10
-2658.3332865947
 20
-104.7419536767148
 30
0.0
 11
-2688.3332865947
 21
-87.42144560102645
 31
0.0
  0
LINE
  5
1BA
330
1F
100
AcDbEntity
  8
0-4
  6
Continuous
 62
    92
370
    13
100
AcDbLine
 10
-2688.3332865947
 20
-152.0624617714179
 30
0.0
 11
-2688.3332865947
 21
-87.42144560102645
 31
0.0
  0
LINE
  5
1BB
330
1F
100
AcDbEntity
  8
0-4
  6
Continuous
 62
    92
370
    13
100
AcDbLine
 10
-2688.3332865947
 20
-87.42144560102645
 30
0.0
 11
-2658.3332865947
 21
-79.38296982809277
 31
0.0
  0
LINE
  5
1BC
330
1F
100
AcDbEntity
  8
0-4
  6
Continuous
 62
    92
370
    13
100
AcDbLine
 10
-2658.3332865947
 20
-104.7419536767148
 30
0.0
 11
-2658.3332865947
 21
72.28774925583821
 31
0.0
  0
LINE
  5
1BD
330
1F
100
AcDbEntity
  8
0-4
  6
Continuous
 62
    92
370
    13
100
AcDbLine
 10
-2648.3332865947
 20
-122.0624617524038
 30
0.0
 11
-2648.3332865947
 21
74.96724118014924
 31
0.0
  0
LINE
  5
1BE
330
1F
100
AcDbEntity
  8
0-4
  6
Continuous
 62
    92
370
    13
100
AcDbLine
 10
-2448.3332865947
 20
-110.0196286496606
 30
0.0
 11
-2248.3332865947
 21
-163.6094671358848
 31
0.0
  0
LINE
  5
1BF
330
1F
100
AcDbEntity
  8
0-4
  6
Continuous
 62
    92
370
    13
100
AcDbLine
 10
-2218.3332865947
 20
-146.288959079522
 30
0.0
 11
-2248.3332865947
 21
-163.6094671552104
 31
0.0
  0
LINE
  5
1C0
330
1F
100
AcDbEntity
  8
0-4
  6
Continuous
 62
    92
370
    13
100
AcDbLine
 10
-2448.3332865947
 20
-68.47262326617908
 30
0.0
 11
-2248.3332865947
 21
-122.0624617524038
 31
0.0
  0
LINE
  5
1C1
330
1F
100
AcDbEntity
  8
0-4
  6
Continuous
 62
    92
370
    13
100
AcDbLine
 10
-2218.3332865947
 20
-146.288959079522
 30
0.0
 11
-2449.659761377934
 21
-84.3052169734159
 31
0.0
  0
LINE
  5
1C2
330
1F
100
AcDbEntity
  8
0-4
  6
Continuous
 62
    92
370
    13
100
AcDbLine
 10
-2218.3332865947
 20
-146.288959079522
 30
0.0
 11
-2218.3332865947
 21
-104.7419536767148
 31
0.0
  0
LINE
  5
1C3
330
1F
100
AcDbEntity
  8
0-4
  6
Continuous
 62
    92
370
    13
100
AcDbLine
 10
-2248.3332865947
 20
-122.0624617524038
 30
0.0
 11
-2218.3332865947
 21
-104.7419536767148
 31
0.0
  0
LINE
  5
1C4
330
1F
100
AcDbEntity
  8
0-4
  6
Continuous
 62
    92
370
    13
100
AcDbLine
 10
-2238.3332865947
 20
-104.7419536767148
 30
0.0
 11
-2208.3332865947
 21
-87.42144560102645
 31
0.0
  0
LINE
  5
1C5
330
1F
100
AcDbEntity
  8
0-4
  6
Continuous
 62
    92
370
    13
100
AcDbLine
 10
-2208.3332865947
 20
-152.0624617714179
 30
0.0
 11
-2208.3332865947
 21
-87.42144560102645
 31
0.0
  0
LINE
  5
1C6
330
1F
100
AcDbEntity
  8
0-4
  6
Continuous
 62
    92
370
    13
100
AcDbLine
 10
-2208.3332865947
 20
-87.42144560102645
 30
0.0
 11
-2238.3332865947
 21
-79.38296982809277
 31
0.0
  0
LINE
  5
1C7
330
1F
100
AcDbEntity
  8
0-4
  6
Continuous
 62
    92
370
    13
100
AcDbLine
 10
-2238.3332865947
 20
-104.7419536767148
 30
0.0
 11
-2238.3332865947
 21
72.28774925583821
 31
0.0
  0
LINE
  5
1C8
330
1F
100
AcDbEntity
  8
0-4
  6
Continuous
 62
    92
370
    13
100
AcDbLine
 10
-2248.3332865947
 20
-122.0624617524038
 30
0.0
 11
-2248.3332865947
 21
74.96724118014924
 31
0.0
  0
LINE
  5
1C9
330
1F
100
AcDbEntity
  8
0-4
  6
Continuous
 62
    92
370
    13
100
AcDbLine
 10
-2238.3332865947
 20
-169.3829698471069
 30
0.0
 11
-2208.3332865947
 21
-152.0624617714179
 31
0.0
  0
LINE
  5
1CA
330
1F
100
AcDbEntity
  8
0-4
  6
Continuous
 62
    92
370
    13
100
AcDbLine
 10
-2430.215953437524
 20
-223.3271480736647
 30
0.0
 11
-2248.3332865947
 21
-272.0624617714179
 31
0.0
  0
ARC
  5
1CB
330
1F
100
AcDbEntity
  8
0-4
  6
Continuous
 62
    92
370
    13
100
AcDbCircle
 10
-2448.3332865947
 20
-290.9419559138991
 30
0.0
 40
70.0
100
AcDbArc
 50
74.99999999999996
 51
105.0
  0
LINE
  5
1CC
330
1F
100
AcDbEntity
  8
0-4
  6
Continuous
 62
    92
370
    13
100
AcDbLine
 10
-2448.3332865947
 20
-220.9419559138991
 30
0.0
 11
-2448.3332865947
 21
186.5333203455532
 31
0.0
  0
LINE
  5
1CD
330
1F
100
AcDbEntity
  8
0-4
  6
Continuous
 62
    92
370
    13
100
AcDbLine
 10
-2238.3332865947
 20
-169.3829698471069
 30
0.0
 11
-2238.3332865947
 21
-266.288959079522
 31
0.0
  0
LINE
  5
1CE
330
1F
100
AcDbEntity
  8
0-4
  6
Continuous
 62
    92
370
    13
100
AcDbLine
 10
-2248.3332865947
 20
-163.6094671358848
 30
0.0
 11
-2248.3332865947
 21
-272.0624617714179
 31
0.0
  0
LINE
  5
1CF
330
1F
100
AcDbEntity
  8
0-B
  6
Continuous
 62
   120
370
     5
100
AcDbLine
 10
-2448.3332865947
 20
25.51472619388221
 30
0.0
 11
-2761.656231319672
 21
-58.43990381531569
 31
0.0
  0
LINE
  5
1D0
330
1F
100
AcDbEntity
  8
0-4
  6
Continuous
 62
    92
370
    13
100
AcDbLine
 10
-2648.3332865947
 20
-163.6094671358848
 30
0.0
 11
-2648.3332865947
 21
-272.0624617714179
 31
0.0
  0
LINE
  5
1D1
330
1F
100
AcDbEntity
  8
0-4
  6
Continuous
 62
    92
370
    13
100
AcDbLine
 10
-2658.3332865947
 20
-266.288959079522
 30
0.0
 11
-2658.3332865947
 21
-169.3829698471069
 31
0.0
  0
LINE
  5
1D2
330
1F
100
AcDbEntity
  8
0-4
  6
Continuous
 62
    92
370
    13
100
AcDbLine
 10
-2658.3332865947
 20
-266.288959079522
 30
0.0
 11
-2660.2650626747
 21
-267.4042705193239
 31
0.0
  0
LINE
  5
1D3
330
1F
100
AcDbEntity
  8
0-4
  6
Continuous
 62
    92
370
    13
100
AcDbLine
 10
-2466.450619751877
 20
-223.3271480736647
 30
0.0
 11
-2648.3332865947
 21
-272.0624617714179
 31
0.0
  0
LINE
  5
1D4
330
1F
100
AcDbEntity
  8
0-4
  6
Continuous
 62
    92
370
    13
100
AcDbLine
 10
-2660.2650626747
 20
-267.4042705193239
 30
0.0
 11
-2694.4384663667
 21
-261.7735554378834
 31
0.0
  0
LINE
  5
1D5
330
1F
100
AcDbEntity
  8
0-4
  6
Continuous
 62
    92
370
    13
100
AcDbLine
 10
-2648.3332865947
 20
-272.0624617714179
 30
0.0
 11
-2655.4043544067
 21
-284.3099104855673
 31
0.0
  0
LINE
  5
1D6
330
1F
100
AcDbEntity
  8
0-4
  6
Continuous
 62
    92
370
    13
100
AcDbLine
 10
-2694.4384663667
 20
-261.7735554378834
 30
0.0
 11
-2655.404354406933
 21
-284.3099104854326
 31
0.0
  0
LINE
  5
1D7
330
1F
100
AcDbEntity
  8
0-4
  6
Continuous
 62
    92
370
    13
100
AcDbLine
 10
-2463.862429300852
 20
-232.9864063365551
 30
0.0
 11
-2655.404354406565
 21
-284.3099104853337
 31
0.0
  0
LINE
  5
1D8
330
1F
100
AcDbEntity
  8
0-4
  6
Continuous
 62
    92
370
    13
100
AcDbLine
 10
-2694.4384663667
 20
-261.7735554378834
 30
0.0
 11
-2658.3332865947
 21
-252.0992016753951
 31
0.0
  0
LINE
  5
1D9
330
1F
100
AcDbEntity
  8
0-4
  6
Continuous
 62
    92
370
    13
100
AcDbLine
 10
-2432.804143888549
 20
-232.9864063365551
 30
0.0
 11
-2241.262218782835
 21
-284.3099104853337
 31
0.0
  0
LINE
  5
1DA
330
1F
100
AcDbEntity
  8
0-4
  6
Continuous
 62
    92
370
    13
100
AcDbLine
 10
-2248.3332865947
 20
-272.0624617714179
 30
0.0
 11
-2241.262218782701
 21
-284.3099104855673
 31
0.0
  0
LINE
  5
1DB
330
1F
100
AcDbEntity
  8
0-4
  6
Continuous
 62
    92
370
    13
100
AcDbLine
 10
-2202.2281068227
 20
-261.7735554378834
 30
0.0
 11
-2241.262218782467
 21
-284.3099104854326
 31
0.0
  0
LINE
  5
1DC
330
1F
100
AcDbEntity
  8
0-4
  6
Continuous
 62
    92
370
    13
100
AcDbLine
 10
-2236.4015105147
 20
-267.4042705193239
 30
0.0
 11
-2202.2281068227
 21
-261.7735554378834
 31
0.0
  0
LINE
  5
1DD
330
1F
100
AcDbEntity
  8
0-4
  6
Continuous
 62
    92
370
    13
100
AcDbLine
 10
-2202.2281068227
 20
-261.7735554378834
 30
0.0
 11
-2238.3332865947
 21
-252.0992016753951
 31
0.0
  0
LINE
  5
1DE
330
1F
100
AcDbEntity
  8
0-4
  6
Continuous
 62
    92
370
    13
100
AcDbLine
 10
-2238.3332865947
 20
-266.288959079522
 30
0.0
 11
-2236.4015105147
 21
-267.4042705193239
 31
0.0
  0
ARC
  5
1DF
330
1F
100
AcDbEntity
  8
0-4
  6
Continuous
 62
    92
370
    13
100
AcDbCircle
 10
-2448.3332865947
 20
-290.9419559138991
 30
0.0
 40
60.0
100
AcDbArc
 50
74.99999999999996
 51
105.0
  0
LINE
  5
1E0
330
1F
100
AcDbEntity
  8
0-0
  6
JWW_HOJO
 62
     7
370
     9
100
AcDbLine
 10
-2186.592905474927
 20
114.1363898017727
 30
0.0
 11
-2186.592905474927
 21
-252.8229166006611
 31
0.0
  0
LINE
  5
1E1
330
1F
100
AcDbEntity
  8
0-0
  6
JWW_HOJO
 62
     7
370
     9
100
AcDbLine
 10
-2136.592905474927
 20
160.9398775686088
 30
0.0
 11
-2136.592905474927
 21
-252.8229166006611
 31
0.0
  0
LINE
  5
1E2
330
1F
100
AcDbEntity
  8
0-0
  6
JWW_HOJO
 62
     7
370
     9
100
AcDbLine
 10
-2086.592905474927
 20
199.3062269675568
 30
0.0
 11
-2086.592905474927
 21
-252.8229166006611
 31
0.0
  0
LINE
  5
1E3
330
1F
100
AcDbEntity
  8
0-B
  6
Continuous
 62
   120
370
     5
100
AcDbLine
 10
-2086.592905474927
 20
-261.7735554378834
 30
0.0
 11
-2086.592905474927
 21
122.5785543989736
 31
0.0
  0
LWPOLYLINE
  5
1E4
330
1F
100
AcDbEntity
  8
0-B
  6
Continuous
 62
     7
370
     9
100
AcDbPolyline
 90
        4
 70
     1
 43
2.0
 10
-2085.592905474927
 20
-261.7735554378834
 42
0.4142135623731
 10
-2086.592905474927
 20
-260.7735554378834
 42
0.4142135623731
 10
-2087.592905474927
 20
-261.7735554378834
 42
0.4142135623731
 10
-2086.592905474927
 20
-262.7735554378834
 42
0.4142135623731
  0
LINE
  5
1E5
330
1F
100
AcDbEntity
  8
0-B
  6
Continuous
 62
   120
370
     5
100
AcDbLine
 10
-2086.592905474927
 20
-261.7735554378834
 30
0.0
 11
-2136.592905474927
 21
-261.7735554378834
 31
0.0
  0
LINE
  5
1E6
330
1F
100
AcDbEntity
  8
0-B
  6
Continuous
 62
   120
370
     5
100
AcDbLine
 10
-2818.391477174119
 20
180.2500196351178
 30
0.0
 11
-2558.20380801887
 21
249.9670954658029
 31
0.0
  0
LWPOLYLINE
  5
1E7
330
1F
100
AcDbEntity
  8
0-B
  6
Continuous
 62
     7
370
     9
100
AcDbPolyline
 90
        4
 70
     1
 43
2.0
 10
-2817.391477174119
 20
180.2500196351178
 42
0.4142135623731
 10
-2818.391477174119
 20
181.2500196351178
 42
0.4142135623731
 10
-2819.391477174119
 20
180.2500196351178
 42
0.4142135623731
 10
-2818.391477174119
 20
179.2500196351178
 42
0.4142135623731
  0
LWPOLYLINE
  5
1E8
330
1F
100
AcDbEntity
  8
0-B
  6
Continuous
 62
     7
370
     9
100
AcDbPolyline
 90
        4
 70
     1
 43
2.0
 10
-2557.20380801887
 20
249.9670954658029
 42
0.4142135623731
 10
-2558.20380801887
 20
250.9670954658029
 42
0.4142135623731
 10
-2559.20380801887
 20
249.9670954658029
 42
0.4142135623731
 10
-2558.20380801887
 20
248.9670954658029
 42
0.4142135623731
  0
LINE
  5
1E9
330
1F
100
AcDbEntity
  8
0-B
  6
Continuous
 62
   120
370
     5
100
AcDbLine
 10
-2751.385057763508
 20
146.4405265833881
 30
0.0
 11
-2816.279812257402
 21
183.9075305594321
 31
0.0
  0
LINE
  5
1EA
330
1F
100
AcDbEntity
  8
0-B
  6
Continuous
 62
   120
370
     5
100
AcDbLine
 10
-2496.966564449291
 20
214.6117564064753
 30
0.0
 11
-2560.546111046867
 21
251.3194247495403
 31
0.0
  0
MTEXT
  5
1EB
330
1F
100
AcDbEntity
  8
0-A
  6
Continuous
 62
     7
370
     9
100
AcDbMText
 10
-1483.333220610748
 20
1386.192898938978
 30
0.0
 40
45.71999999999998
 41
360.0
 46
0.0
 71
     7
 72
     1
  1
{\fＭＳ ゴシック|b0|i0|c128|p49;25×25×10.5}
 73
     1
 44
1.0
  0
MTEXT
  5
1EC
330
1F
100
AcDbEntity
  8
0-A
  6
Continuous
 62
     7
370
     9
100
AcDbMText
 10
-1543.333220610748
 20
386.1930638988599
 30
0.0
 40
45.71999999999998
 41
480.0
 46
0.0
 71
     7
 72
     1
  1
{\fＭＳ ゴシック|b0|i0|c128|p49;30.5×30.5×10.5}
 73
     1
 44
1.0
  0
MTEXT
  5
1ED
330
1F
100
AcDbEntity
  8
0-B
  6
Continuous
 62
     7
370
   211
100
AcDbMText
 10
-2153.354368025321
 20
1178.721505143718
 30
0.0
 40
45.72
 41
120.0
 46
0.0
 71
     7
 72
     1
  1
{\fＭＳ ゴシック|b0|i0|c128|p49;10.5}
 73
     1
 44
1.0
  0
MTEXT
  5
1EE
330
1F
100
AcDbEntity
  8
0-B
  6
Continuous
 62
     7
370
   211
100
AcDbMText
 10
-2744.597400070971
 20
983.5767571453505
 30
0.0
 40
45.72
 41
60.0
 46
0.0
 71
     7
 72
     1
  1
{\fＭＳ ゴシック|b0|i0|c128|p49;25}
 73
     1
 44
1.0
  0
MTEXT
  5
1EF
330
1F
100
AcDbEntity
  8
0-B
  6
Continuous
 62
     7
370
   211
100
AcDbMText
 10
-2134.23341257628
 20
921.5665862817741
 30
0.0
 40
45.72
 41
120.0
 46
0.0
 71
     7
 72
     1
  1
{\fＭＳ ゴシック|b0|i0|c128|p49;31.5}
 73
     1
 44
1.0
  0
MTEXT
  5
1F0
330
1F
100
AcDbEntity
  8
0-B
  6
Continuous
 62
     7
370
     9
100
AcDbMText
 10
-2758.035943797975
 20
883.3865855807721
 30
0.0
 40
45.72
 41
60.0
 46
0.0
 71
     7
 72
     1
  1
{\fＭＳ ゴシック|b0|i0|c128|p49;3R}
 73
     1
 44
1.0
  0
MTEXT
  5
1F1
330
1F
100
AcDbEntity
  8
0-B
  6
Continuous
 62
     7
370
     9
100
AcDbMText
 10
-2778.636030400217
 20
226.0508084408036
 30
0.0
 40
45.72
 41
120.0
 46
0.0
 71
     7
 72
     1
  1
{\fＭＳ ゴシック|b0|i0|c128|p49;30.5}
 73
     1
 44
1.0
  0
MTEXT
  5
1F2
330
1F
100
AcDbEntity
  8
0-B
  6
Continuous
 62
     7
370
     9
100
AcDbMText
 10
-2824.156231319672
 20
-95.57990381531569
 30
0.0
 40
45.72
 41
60.0
 46
0.0
 71
     7
 72
     1
  1
{\fＭＳ ゴシック|b0|i0|c128|p49;3R}
 73
     1
 44
1.0
  0
MTEXT
  5
1F3
330
1F
100
AcDbEntity
  8
0-B
  6
Continuous
 62
     7
370
     9
100
AcDbMText
 10
-2079.092905474927
 20
-106.7375005194549
 30
0.0
 40
45.72
 41
120.0
 46
0.0
 71
     7
 72
     1
  1
{\fＭＳ ゴシック|b0|i0|c128|p49;31.5}
 73
     1
 44
1.0
  0
MTEXT
  5
1F4
330
1F
100
AcDbEntity
  8
F-0
  6
Continuous
 62
     7
370
     9
100
AcDbMText
 10
-3263.333352578653
 20
23.81314637880108
 30
0.0
 40
60.96
 41
80.0
 46
0.0
 71
     7
 72
     1
  1
{\fＭＳ ゴシック|b0|i0|c128|p49;入}
 73
     1
 44
1.0
  0
MTEXT
  5
1F5
330
1F
100
AcDbEntity
  8
F-0
  6
Continuous
 62
     7
370
     9
100
AcDbMText
 10
-3263.333352578653
 20
-76.18668866131715
 30
0.0
 40
60.96
 41
80.0
 46
0.0
 71
     7
 72
     1
  1
{\fＭＳ ゴシック|b0|i0|c128|p49;隅}
 73
     1
 44
1.0
  0
MTEXT
  5
1F6
330
1F
100
AcDbEntity
  8
F-0
  6
Continuous
 62
     7
370
     9
100
AcDbMText
 10
-3263.333352578653
 20
-176.1868948611692
 30
0.0
 40
60.96
 41
80.0
 46
0.0
 71
     7
 72
     1
  1
{\fＭＳ ゴシック|b0|i0|c128|p49;用}
 73
     1
 44
1.0
  0
MTEXT
  5
1F7
330
1F
100
AcDbEntity
  8
F-0
  6
Continuous
 62
     7
370
     9
100
AcDbMText
 10
-3263.333352578653
 20
1023.813228858742
 30
0.0
 40
60.96
 41
80.0
 46
0.0
 71
     7
 72
     1
  1
{\fＭＳ ゴシック|b0|i0|c128|p49;入}
 73
     1
 44
1.0
  0
MTEXT
  5
1F8
330
1F
100
AcDbEntity
  8
F-0
  6
Continuous
 62
     7
370
     9
100
AcDbMText
 10
-3263.333352578653
 20
923.8133938186238
 30
0.0
 40
60.96
 41
80.0
 46
0.0
 71
     7
 72
     1
  1
{\fＭＳ ゴシック|b0|i0|c128|p49;隅}
 73
     1
 44
1.0
  0
MTEXT
  5
1F9
330
1F
100
AcDbEntity
  8
F-0
  6
Continuous
 62
     7
370
     9
100
AcDbMText
 10
-3263.333352578653
 20
823.8131876187717
 30
0.0
 40
60.96
 41
80.0
 46
0.0
 71
     7
 72
     1
  1
{\fＭＳ ゴシック|b0|i0|c128|p49;用}
 73
     1
 44
1.0
  0
LINE
  5
1FA
330
1F
100
AcDbEntity
  8
F-1
  6
Continuous
 62
     7
370
     9
100
AcDbLine
 10
-3153.333352578653
 20
1473.333311338683
 30
0.0
 11
-3153.333352578653
 21
-526.6666061813766
 31
0.0
  0
LINE
  5
1FB
330
1F
100
AcDbEntity
  8
F-1
  6
Continuous
 62
     7
370
     9
100
AcDbLine
 10
-96.66731550886823
 20
-526.6666061813766
 30
0.0
 11
-3993.333326803671
 21
-526.6666061813766
 31
0.0
  0
LINE
  5
1FC
330
1F
100
AcDbEntity
  8
0-B
  6
Continuous
 62
   120
370
     5
100
AcDbLine
 10
-1703.333595894479
 20
-797.7062884310817
 30
0.0
 11
-1703.333595894479
 21
-1097.706288444858
 31
0.0
  0
LWPOLYLINE
  5
1FD
330
1F
100
AcDbEntity
  8
0-B
  6
Continuous
 62
     7
370
     9
100
AcDbPolyline
 90
        4
 70
     1
 43
2.0
 10
-1702.333595894479
 20
-797.7062884310817
 42
0.4142135623731
 10
-1703.333595894479
 20
-796.7062884310817
 42
0.4142135623731
 10
-1704.333595894479
 20
-797.7062884310817
 42
0.4142135623731
 10
-1703.333595894479
 20
-798.7062884310817
 42
0.4142135623731
  0
LWPOLYLINE
  5
1FE
330
1F
100
AcDbEntity
  8
0-B
  6
Continuous
 62
     7
370
     9
100
AcDbPolyline
 90
        4
 70
     1
 43
2.0
 10
-1702.333595894479
 20
-947.7062059209982
 42
0.4142135623731
 10
-1703.333595894479
 20
-946.7062059209982
 42
0.4142135623731
 10
-1704.333595894479
 20
-947.7062059209982
 42
0.4142135623731
 10
-1703.333595894479
 20
-948.7062059209982
 42
0.4142135623731
  0
LWPOLYLINE
  5
1FF
330
1F
100
AcDbEntity
  8
0-B
  6
Continuous
 62
     7
370
     9
100
AcDbPolyline
 90
        4
 70
     1
 43
2.0
 10
-1702.333595894479
 20
-997.7062059234584
 42
0.4142135623731
 10
-1703.333595894479
 20
-996.7062059234584
 42
0.4142135623731
 10
-1704.333595894479
 20
-997.7062059234584
 42
0.4142135623731
 10
-1703.333595894479
 20
-998.7062059234584
 42
0.4142135623731
  0
LWPOLYLINE
  5
200
330
1F
100
AcDbEntity
  8
0-B
  6
Continuous
 62
     7
370
     9
100
AcDbPolyline
 90
        4
 70
     1
 43
2.0
 10
-1702.333595894479
 20
-1097.706288444858
 42
0.4142135623731
 10
-1703.333595894479
 20
-1096.706288444858
 42
0.4142135623731
 10
-1704.333595894479
 20
-1097.706288444858
 42
0.4142135623731
 10
-1703.333595894479
 20
-1098.706288444858
 42
0.4142135623731
  0
LINE
  5
201
330
1F
100
AcDbEntity
  8
0-4
  6
Continuous
 62
    92
370
    13
100
AcDbLine
 10
-1803.333595894479
 20
-947.7062059209982
 30
0.0
 11
-1803.333595894479
 21
-797.7062884448583
 31
0.0
  0
LINE
  5
202
330
1F
100
AcDbEntity
  8
0-4
  6
Continuous
 62
    92
370
    13
100
AcDbLine
 10
-1803.333595894479
 20
-1097.706288444858
 30
0.0
 11
-1803.333595894479
 21
-997.7062059234584
 31
0.0
  0
LINE
  5
203
330
1F
100
AcDbEntity
  8
0-4
  6
Continuous
 62
    92
370
    13
100
AcDbLine
 10
-1840.392464571521
 20
-986.9174663720457
 30
0.0
 11
-1840.392464571521
 21
-959.0528777869542
 31
0.0
  0
LINE
  5
204
330
1F
100
AcDbEntity
  8
0-4
  6
Continuous
 62
    92
370
    13
100
AcDbLine
 10
-3056.274727217437
 20
-986.9174663720457
 30
0.0
 11
-3056.274727217437
 21
-959.0528777869542
 31
0.0
  0
LINE
  5
205
330
1F
100
AcDbEntity
  8
0-B
  6
Continuous
 62
   120
370
     5
100
AcDbLine
 10
-1703.333595894479
 20
-997.7062059234584
 30
0.0
 11
-1753.333595894479
 21
-997.7062059234584
 31
0.0
  0
LINE
  5
206
330
1F
100
AcDbEntity
  8
0-B
  6
Continuous
 62
   120
370
     5
100
AcDbLine
 10
-1703.333595894479
 20
-1097.706288444858
 30
0.0
 11
-1753.333595894479
 21
-1097.706288444858
 31
0.0
  0
LINE
  5
207
330
1F
100
AcDbEntity
  8
0-B
  6
Continuous
 62
   120
370
     5
100
AcDbLine
 10
-1703.333595894479
 20
-947.7062059209982
 30
0.0
 11
-1753.333595894479
 21
-947.7062059209982
 31
0.0
  0
LINE
  5
208
330
1F
100
AcDbEntity
  8
0-B
  6
Continuous
 62
   120
370
     5
100
AcDbLine
 10
-1703.333595894479
 20
-797.7062884310817
 30
0.0
 11
-1753.333595894479
 21
-797.7062884310817
 31
0.0
  0
LWPOLYLINE
  5
209
330
1F
100
AcDbEntity
  8
0-B
  6
Continuous
 62
     7
370
     9
100
AcDbPolyline
 90
        4
 70
     1
 43
2.0
 10
-3192.333595885295
 20
-797.7062884310817
 42
0.4142135623731
 10
-3193.333595885295
 20
-796.7062884310817
 42
0.4142135623731
 10
-3194.333595885295
 20
-797.7062884310817
 42
0.4142135623731
 10
-3193.333595885295
 20
-798.7062884310817
 42
0.4142135623731
  0
LINE
  5
20A
330
1F
100
AcDbEntity
  8
0-B
  6
Continuous
 62
   120
370
     5
100
AcDbLine
 10
-3193.333595885295
 20
-797.7062884310817
 30
0.0
 11
-3143.333595885295
 21
-797.7062884310817
 31
0.0
  0
LINE
  5
20B
330
1F
100
AcDbEntity
  8
0-B
  6
Continuous
 62
   120
370
     5
100
AcDbLine
 10
-3193.333595885295
 20
-797.7062884310817
 30
0.0
 11
-3193.333595885295
 21
-1097.706288454941
 31
0.0
  0
LWPOLYLINE
  5
20C
330
1F
100
AcDbEntity
  8
0-B
  6
Continuous
 62
     7
370
     9
100
AcDbPolyline
 90
        4
 70
     1
 43
2.0
 10
-3192.333595885295
 20
-1097.706288454941
 42
0.4142135623731
 10
-3193.333595885295
 20
-1096.706288454941
 42
0.4142135623731
 10
-3194.333595885295
 20
-1097.706288454941
 42
0.4142135623731
 10
-3193.333595885295
 20
-1098.706288454941
 42
0.4142135623731
  0
LINE
  5
20D
330
1F
100
AcDbEntity
  8
0-B
  6
Continuous
 62
   120
370
     5
100
AcDbLine
 10
-3193.333595885295
 20
-1097.706288454941
 30
0.0
 11
-3143.333595885295
 21
-1097.706288454941
 31
0.0
  0
ELLIPSE
  5
20E
330
1F
100
AcDbEntity
  8
0-A
  6
Continuous
 62
     7
370
     9
100
AcDbEllipse
 10
-2155.037198190014
 20
-1107.807293011037
 30
0.0
 11
8.766066765101137E-15
 21
143.1654627258713
 31
0.0
210
0.0
220
0.0
230
1.0
 40
0.6
 41
3.788236129452477
 42
5.251141408901648
  0
ELLIPSE
  5
20F
330
1F
100
AcDbEntity
  8
0-A
  6
Continuous
 62
     7
370
     9
100
AcDbEllipse
 10
-1960.092228806567
 20
-913.5979622202854
 30
0.0
 11
1.349278997723753E-14
 21
220.3612603367986
 31
0.0
210
0.0
220
0.0
230
1.0
 40
0.572771983647082
 41
1.071254151639393
 42
2.109549021627965
  0
ELLIPSE
  5
210
330
1F
100
AcDbEntity
  8
0-A
  6
Continuous
 62
     7
370
     9
100
AcDbEllipse
 10
-2155.037198190014
 20
-1107.807293011037
 30
0.0
 11
9.684521530467920E-15
 21
158.1654627258713
 31
0.0
210
0.0
220
0.0
230
1.0
 40
0.6379349568268203
 41
3.905093302852613
 42
5.251141408901648
  0
ELLIPSE
  5
211
330
1F
100
AcDbEntity
  8
0-A
  6
Continuous
 62
     7
370
     9
100
AcDbEllipse
 10
-1960.092228806567
 20
-913.5979622202854
 30
0.0
 11
1.441124474260431E-14
 21
235.3612603367986
 31
0.0
210
0.0
220
0.0
230
1.0
 40
0.6000000000000002
 41
1.105715931026258
 42
2.109549021627964
  0
ELLIPSE
  5
212
330
1F
100
AcDbEntity
  8
0-A
  6
Continuous
 62
     7
370
     9
100
AcDbEllipse
 10
-2934.06939072041
 20
-1107.807293011037
 30
0.0
 11
8.766066765101137E-15
 21
143.1654627258713
 31
0.0
210
0.0
220
0.0
230
1.0
 40
0.6
 41
3.788236129452477
 42
5.251141408901648
  0
ELLIPSE
  5
213
330
1F
100
AcDbEntity
  8
0-A
  6
Continuous
 62
     7
370
     9
100
AcDbEllipse
 10
-2739.124421336963
 20
-913.5979622202854
 30
0.0
 11
1.349278997723753E-14
 21
220.3612603367986
 31
0.0
210
0.0
220
0.0
230
1.0
 40
0.572771983647082
 41
1.071254151639393
 42
2.109549021627965
  0
ELLIPSE
  5
214
330
1F
100
AcDbEntity
  8
0-A
  6
Continuous
 62
     7
370
     9
100
AcDbEllipse
 10
-2934.06939072041
 20
-1107.807293011037
 30
0.0
 11
9.684521530467920E-15
 21
158.1654627258713
 31
0.0
210
0.0
220
0.0
230
1.0
 40
0.6379349568268203
 41
3.905093302852613
 42
5.251141408901648
  0
ELLIPSE
  5
215
330
1F
100
AcDbEntity
  8
0-A
  6
Continuous
 62
     7
370
     9
100
AcDbEllipse
 10
-2739.124421336963
 20
-913.5979622202854
 30
0.0
 11
1.441124474260431E-14
 21
235.3612603367986
 31
0.0
210
0.0
220
0.0
230
1.0
 40
0.6000000000000002
 41
1.105715931026258
 42
2.109549021627964
  0
MTEXT
  5
216
330
1F
100
AcDbEntity
  8
0-A
  6
Continuous
 62
     7
370
     9
100
AcDbMText
 10
-293.334086650126
 20
-613.8065237014354
 30
0.0
 40
45.72
 41
60.0
 46
0.0
 71
     7
 72
     1
  1
{\fＭＳ ゴシック|b0|i0|c128|p49;10}
 73
     1
 44
1.0
  0
LINE
  5
217
330
1F
100
AcDbEntity
  8
0-4
  6
Continuous
 62
    92
370
    13
100
AcDbLine
 10
-2395.75229553541
 20
-1283.000612535236
 30
0.0
 11
-2304.565476841328
 21
-1272.96133034473
 31
0.0
  0
LINE
  5
218
330
1F
100
AcDbEntity
  8
0-4
  6
Continuous
 62
    92
370
    13
100
AcDbLine
 10
-2304.565476841328
 20
-1272.96133034473
 30
0.0
 11
-2225.350685447916
 21
-1249.744662436452
 31
0.0
  0
LINE
  5
219
330
1F
100
AcDbEntity
  8
0-4
  6
Continuous
 62
    92
370
    13
100
AcDbLine
 10
-2401.870871926644
 20
-1294.36866486755
 30
0.0
 11
-2321.29492653245
 21
-1285.497594847079
 31
0.0
  0
LINE
  5
21A
330
1F
100
AcDbEntity
  8
0-4
  6
Continuous
 62
    92
370
    13
100
AcDbLine
 10
-2321.29492653245
 20
-1285.497594847079
 30
0.0
 11
-2251.297894097955
 21
-1264.982513913194
 31
0.0
  0
LINE
  5
21B
330
1F
100
AcDbEntity
  8
0-4
  6
Continuous
 62
    92
370
    13
100
AcDbLine
 10
-1803.333595894479
 20
-1097.706288444858
 30
0.0
 11
-1829.280804544517
 21
-1112.9441399216
 31
0.0
  0
LINE
  5
21C
330
1F
100
AcDbEntity
  8
0-4
  6
Continuous
 62
    92
370
    13
100
AcDbLine
 10
-2395.75229553541
 20
-1283.000612535236
 30
0.0
 11
-2401.870871926644
 21
-1294.368664867549
 31
0.0
  0
LINE
  5
21D
330
1F
100
AcDbEntity
  8
0-4
  6
Continuous
 62
    92
370
    13
100
AcDbLine
 10
-2304.565476841328
 20
-1272.96133034473
 30
0.0
 11
-2321.294926532449
 21
-1285.497594847079
 31
0.0
  0
LINE
  5
21E
330
1F
100
AcDbEntity
  8
0-4
  6
Continuous
 62
    92
370
    13
100
AcDbLine
 10
-2225.350685447917
 20
-1249.744662436452
 30
0.0
 11
-2251.297894097955
 21
-1264.982513913194
 31
0.0
  0
LINE
  5
21F
330
1F
100
AcDbEntity
  8
0-4
  6
Continuous
 62
    92
370
    13
100
AcDbLine
 10
-2500.914896253548
 20
-945.6403941959127
 30
0.0
 11
-2395.75229553541
 21
-945.6403941959127
 31
0.0
  0
LINE
  5
220
330
1F
100
AcDbEntity
  8
0-4
  6
Continuous
 62
    92
370
    13
100
AcDbLine
 10
-2395.75229553541
 20
-945.6403941959127
 30
0.0
 11
-2304.565476841328
 21
-937.6035502288835
 31
0.0
  0
LINE
  5
221
330
1F
100
AcDbEntity
  8
0-4
  6
Continuous
 62
    92
370
    13
100
AcDbLine
 10
-2304.565476841328
 20
-937.6035502288835
 30
0.0
 11
-2225.350685447916
 21
-919.0024894147564
 31
0.0
  0
LINE
  5
222
330
1F
100
AcDbEntity
  8
0-4
  6
Continuous
 62
    92
370
    13
100
AcDbLine
 10
-2500.914896253548
 20
-945.6403941959127
 30
0.0
 11
-2592.10171494763
 21
-937.6035502288835
 31
0.0
  0
LINE
  5
223
330
1F
100
AcDbEntity
  8
0-4
  6
Continuous
 62
    92
370
    13
100
AcDbLine
 10
-2592.10171494763
 20
-937.6035502288835
 30
0.0
 11
-2671.316506341041
 21
-919.0024894147564
 31
0.0
  0
LINE
  5
224
330
1F
100
AcDbEntity
  8
0-4
  6
Continuous
 62
    92
370
    13
100
AcDbLine
 10
-2500.914896253548
 20
-1283.000612535236
 30
0.0
 11
-2395.75229553541
 21
-1283.000612535236
 31
0.0
  0
LINE
  5
225
330
1F
100
AcDbEntity
  8
0-4
  6
Continuous
 62
    92
370
    13
100
AcDbLine
 10
-2592.10171494763
 20
-1272.96133034473
 30
0.0
 11
-2671.316506341041
 21
-1249.744662436452
 31
0.0
  0
LINE
  5
226
330
1F
100
AcDbEntity
  8
0-4
  6
Continuous
 62
    92
370
    13
100
AcDbLine
 10
-2500.914896253548
 20
-1283.000612535236
 30
0.0
 11
-2592.10171494763
 21
-1272.96133034473
 31
0.0
  0
LINE
  5
227
330
1F
100
AcDbEntity
  8
0-4
  6
Continuous
 62
    92
370
    13
100
AcDbLine
 10
-2500.914896253548
 20
-1165.741506578726
 30
0.0
 11
-2395.75229553541
 21
-1165.741506578726
 31
0.0
  0
LINE
  5
228
330
1F
100
AcDbEntity
  8
0-4
  6
Continuous
 62
    92
370
    13
100
AcDbLine
 10
-2395.75229553541
 20
-1165.741506578726
 30
0.0
 11
-2304.565476841328
 21
-1155.70222438822
 31
0.0
  0
LINE
  5
229
330
1F
100
AcDbEntity
  8
0-4
  6
Continuous
 62
    92
370
    13
100
AcDbLine
 10
-2304.565476841328
 20
-1155.70222438822
 30
0.0
 11
-2225.350685447916
 21
-1132.485556479942
 31
0.0
  0
LINE
  5
22A
330
1F
100
AcDbEntity
  8
0-4
  6
Continuous
 62
    92
370
    13
100
AcDbLine
 10
-2592.10171494763
 20
-1155.70222438822
 30
0.0
 11
-2671.316506341041
 21
-1132.485556479942
 31
0.0
  0
LINE
  5
22B
330
1F
100
AcDbEntity
  8
0-4
  6
Continuous
 62
    92
370
    13
100
AcDbLine
 10
-2500.914896253548
 20
-1165.741506578726
 30
0.0
 11
-2592.10171494763
 21
-1155.70222438822
 31
0.0
  0
LINE
  5
22C
330
1F
100
AcDbEntity
  8
0-4
  6
Continuous
 62
    92
370
    13
100
AcDbLine
 10
-2500.914896253548
 20
-1110.175205633333
 30
0.0
 11
-2395.75229553541
 21
-1110.175205633333
 31
0.0
  0
LINE
  5
22D
330
1F
100
AcDbEntity
  8
0-4
  6
Continuous
 62
    92
370
    13
100
AcDbLine
 10
-2395.75229553541
 20
-1110.175205633333
 30
0.0
 11
-2304.565476841328
 21
-1100.135923442828
 31
0.0
  0
LINE
  5
22E
330
1F
100
AcDbEntity
  8
0-4
  6
Continuous
 62
    92
370
    13
100
AcDbLine
 10
-2304.565476841328
 20
-1100.135923442828
 30
0.0
 11
-2225.350685447916
 21
-1076.919255534549
 31
0.0
  0
LINE
  5
22F
330
1F
100
AcDbEntity
  8
0-4
  6
Continuous
 62
    92
370
    13
100
AcDbLine
 10
-2592.10171494763
 20
-1100.135923442828
 30
0.0
 11
-2671.316506341041
 21
-1076.919255534549
 31
0.0
  0
LINE
  5
230
330
1F
100
AcDbEntity
  8
0-4
  6
Continuous
 62
    92
370
    13
100
AcDbLine
 10
-2500.914896253548
 20
-1110.175205633333
 30
0.0
 11
-2592.10171494763
 21
-1100.135923442828
 31
0.0
  0
LINE
  5
231
330
1F
100
AcDbEntity
  8
0-4
  6
Continuous
 62
    92
370
    13
100
AcDbLine
 10
-2488.457174040663
 20
-913.4877081948821
 30
0.0
 11
-2408.210017748294
 21
-913.4877081948821
 31
0.0
  0
LINE
  5
232
330
1F
100
AcDbEntity
  8
0-4
  6
Continuous
 62
    92
370
    13
100
AcDbLine
 10
-2408.210017748294
 20
-913.4877081948821
 30
0.0
 11
-2338.627458534486
 21
-907.3549778371745
 31
0.0
  0
LINE
  5
233
330
1F
100
AcDbEntity
  8
0-4
  6
Continuous
 62
    92
370
    13
100
AcDbLine
 10
-2338.627458534486
 20
-907.3549778371745
 30
0.0
 11
-2294.810547654633
 21
-897.0659773913417
 31
0.0
  0
LINE
  5
234
330
1F
100
AcDbEntity
  8
0-4
  6
Continuous
 62
    92
370
    13
100
AcDbLine
 10
-2488.457174040663
 20
-913.4877081948821
 30
0.0
 11
-2558.039733254471
 21
-907.3549778371745
 31
0.0
  0
LINE
  5
235
330
1F
100
AcDbEntity
  8
0-4
  6
Continuous
 62
    92
370
    13
100
AcDbLine
 10
-2558.039733254471
 20
-907.3549778371745
 30
0.0
 11
-2601.856644134325
 21
-897.0659773913417
 31
0.0
  0
LINE
  5
236
330
1F
100
AcDbEntity
  8
0-4
  6
Continuous
 62
    92
370
    13
100
AcDbLine
 10
-3056.274727217437
 20
-986.9174663720457
 30
0.0
 11
-3093.333595894479
 21
-997.7062059234584
 31
0.0
  0
LINE
  5
237
330
1F
100
AcDbEntity
  8
0-4
  6
Continuous
 62
    92
370
    13
100
AcDbLine
 10
-1803.333595894479
 20
-997.7062059234584
 30
0.0
 11
-1840.392464571521
 21
-986.9174663720457
 31
0.0
  0
LINE
  5
238
330
1F
100
AcDbEntity
  8
0-4
  6
Continuous
 62
    92
370
    13
100
AcDbLine
 10
-2225.350685447917
 20
-1132.485556479942
 30
0.0
 11
-2261.23724201011
 21
-1121.322416295474
 31
0.0
  0
LINE
  5
239
330
1F
100
AcDbEntity
  8
0-4
  6
Continuous
 62
    92
370
    13
100
AcDbLine
 10
-2401.136054310115
 20
-1147.346941514345
 30
0.0
 11
-2319.285783627005
 21
-1138.335573681525
 31
0.0
  0
LINE
  5
23A
330
1F
100
AcDbEntity
  8
0-4
  6
Continuous
 62
    92
370
    13
100
AcDbLine
 10
-2319.285783627005
 20
-1138.335573681525
 30
0.0
 11
-2261.237242010109
 21
-1121.322416295474
 31
0.0
  0
LINE
  5
23B
330
1F
100
AcDbEntity
  8
0-4
  6
Continuous
 62
    92
370
    13
100
AcDbLine
 10
-2401.136054310115
 20
-1147.346941514345
 30
0.0
 11
-2401.136054310115
 21
-1110.175205633333
 31
0.0
  0
LINE
  5
23C
330
1F
100
AcDbEntity
  8
0-4
  6
Continuous
 62
    92
370
    13
100
AcDbLine
 10
-2319.285783627005
 20
-1138.335573681525
 30
0.0
 11
-2319.285783627005
 21
-1101.756566819454
 31
0.0
  0
LINE
  5
23D
330
1F
100
AcDbEntity
  8
0-4
  6
Continuous
 62
    92
370
    13
100
AcDbLine
 10
-2261.237242010109
 20
-1121.322416295474
 30
0.0
 11
-2261.237242010109
 21
-1087.437067314653
 31
0.0
  0
LINE
  5
23E
330
1F
100
AcDbEntity
  8
0-4
  6
Continuous
 62
    92
370
    13
100
AcDbLine
 10
-2500.914896253547
 20
-1110.175205633333
 30
0.0
 11
-2592.101714947629
 21
-1100.135923442828
 31
0.0
  0
LINE
  5
23F
330
1F
100
AcDbEntity
  8
0-4
  6
Continuous
 62
    92
370
    13
100
AcDbLine
 10
-2495.531137478842
 20
-1147.346941514345
 30
0.0
 11
-2577.381408161953
 21
-1138.335573681525
 31
0.0
  0
LINE
  5
240
330
1F
100
AcDbEntity
  8
0-4
  6
Continuous
 62
    92
370
    13
100
AcDbLine
 10
-2577.381408161953
 20
-1138.335573681525
 30
0.0
 11
-2635.429949778847
 21
-1121.322416295474
 31
0.0
  0
LINE
  5
241
330
1F
100
AcDbEntity
  8
0-4
  6
Continuous
 62
    92
370
    13
100
AcDbLine
 10
-2495.531137478842
 20
-1147.346941514345
 30
0.0
 11
-2495.531137478842
 21
-1110.175205633333
 31
0.0
  0
LINE
  5
242
330
1F
100
AcDbEntity
  8
0-4
  6
Continuous
 62
    92
370
    13
100
AcDbLine
 10
-2577.381408161952
 20
-1138.335573681525
 30
0.0
 11
-2577.381408161952
 21
-1101.756566819454
 31
0.0
  0
LINE
  5
243
330
1F
100
AcDbEntity
  8
0-4
  6
Continuous
 62
    92
370
    13
100
AcDbLine
 10
-2671.31650634104
 20
-1132.485556479942
 30
0.0
 11
-2635.429949778847
 21
-1121.322416295474
 31
0.0
  0
LINE
  5
244
330
1F
100
AcDbEntity
  8
0-4
  6
Continuous
 62
    92
370
    13
100
AcDbLine
 10
-2495.531137478841
 20
-1147.346941514345
 30
0.0
 11
-2401.136054310115
 21
-1147.346941514345
 31
0.0
  0
LINE
  5
245
330
1F
100
AcDbEntity
  8
0-4
  6
Continuous
 62
    92
370
    13
100
AcDbLine
 10
-2635.429949778847
 20
-1121.322416295474
 30
0.0
 11
-2635.429949778847
 21
-1087.437067314653
 31
0.0
  0
LINE
  5
246
330
1F
100
AcDbEntity
  8
0-4
  6
Continuous
 62
    92
370
    13
100
AcDbLine
 10
-2577.381408161953
 20
-1138.335573681525
 30
0.0
 11
-2592.10171494763
 21
-1155.70222438822
 31
0.0
  0
LINE
  5
247
330
1F
100
AcDbEntity
  8
0-4
  6
Continuous
 62
    92
370
    13
100
AcDbLine
 10
-2495.531137478842
 20
-1147.346941514345
 30
0.0
 11
-2500.914896253548
 21
-1165.741506578726
 31
0.0
  0
LINE
  5
248
330
1F
100
AcDbEntity
  8
0-4
  6
Continuous
 62
    92
370
    13
100
AcDbLine
 10
-2401.136054310115
 20
-1147.346941514345
 30
0.0
 11
-2395.75229553541
 21
-1165.741506578726
 31
0.0
  0
LINE
  5
249
330
1F
100
AcDbEntity
  8
0-4
  6
Continuous
 62
    92
370
    13
100
AcDbLine
 10
-2319.285783627005
 20
-1138.335573681525
 30
0.0
 11
-2304.565476841328
 21
-1155.70222438822
 31
0.0
  0
LINE
  5
24A
330
1F
100
AcDbEntity
  8
0-4
  6
Continuous
 62
    92
370
    13
100
AcDbLine
 10
-2494.796319862312
 20
-1294.36866486755
 30
0.0
 11
-2401.870871926644
 21
-1294.36866486755
 31
0.0
  0
LINE
  5
24B
330
1F
100
AcDbEntity
  8
0-4
  6
Continuous
 62
    92
370
    13
100
AcDbLine
 10
-2494.796319862312
 20
-1294.36866486755
 30
0.0
 11
-2500.914896253548
 21
-1283.000612535236
 31
0.0
  0
LINE
  5
24C
330
1F
100
AcDbEntity
  8
0-4
  6
Continuous
 62
    92
370
    13
100
AcDbLine
 10
-2494.796319862313
 20
-1294.368664867549
 30
0.0
 11
-2575.372265256508
 21
-1285.497594847079
 31
0.0
  0
LINE
  5
24D
330
1F
100
AcDbEntity
  8
0-4
  6
Continuous
 62
    92
370
    13
100
AcDbLine
 10
-2500.914896253548
 20
-1283.000612535236
 30
0.0
 11
-2494.796319862313
 21
-1294.368664867549
 31
0.0
  0
LINE
  5
24E
330
1F
100
AcDbEntity
  8
0-4
  6
Continuous
 62
    92
370
    13
100
AcDbLine
 10
-2592.10171494763
 20
-1272.96133034473
 30
0.0
 11
-2575.372265256508
 21
-1285.497594847079
 31
0.0
  0
LINE
  5
24F
330
1F
100
AcDbEntity
  8
0-4
  6
Continuous
 62
    92
370
    13
100
AcDbLine
 10
-2575.372265256508
 20
-1285.497594847079
 30
0.0
 11
-2645.369297691002
 21
-1264.982513913194
 31
0.0
  0
LINE
  5
250
330
1F
100
AcDbEntity
  8
0-4
  6
Continuous
 62
    92
370
    13
100
AcDbLine
 10
-2671.316506341041
 20
-1249.744662436452
 30
0.0
 11
-2645.369297691002
 21
-1264.982513913194
 31
0.0
  0
LINE
  5
251
330
1F
100
AcDbEntity
  8
0-4
  6
Continuous
 62
    92
370
    13
100
AcDbLine
 10
-3093.333595894479
 20
-1097.706288444858
 30
0.0
 11
-3067.386387244441
 21
-1112.9441399216
 31
0.0
  0
LINE
  5
252
330
1F
100
AcDbEntity
  8
0-4
  6
Continuous
 62
    92
370
    13
100
AcDbLine
 10
-2592.10171494763
 20
-937.6035502288835
 30
0.0
 11
-2558.039733254471
 21
-907.3549778371745
 31
0.0
  0
LINE
  5
253
330
1F
100
AcDbEntity
  8
0-4
  6
Continuous
 62
    92
370
    13
100
AcDbLine
 10
-2488.457174040663
 20
-913.4877081948821
 30
0.0
 11
-2500.914896253547
 21
-945.6403941959127
 31
0.0
  0
LINE
  5
254
330
1F
100
AcDbEntity
  8
0-4
  6
Continuous
 62
    92
370
    13
100
AcDbLine
 10
-2395.75229553541
 20
-945.6403941959127
 30
0.0
 11
-2408.210017748294
 21
-913.4877081948821
 31
0.0
  0
LINE
  5
255
330
1F
100
AcDbEntity
  8
0-4
  6
Continuous
 62
    92
370
    13
100
AcDbLine
 10
-2304.565476841328
 20
-937.6035502288835
 30
0.0
 11
-2338.627458534486
 21
-907.3549778371745
 31
0.0
  0
LINE
  5
256
330
1F
100
AcDbEntity
  8
0-4
  6
Continuous
 62
    92
370
    13
100
AcDbLine
 10
-2225.350685447916
 20
-919.0024894147564
 30
0.0
 11
-2295.232268660231
 21
-897.0659773913417
 31
0.0
  0
LINE
  5
257
330
1F
100
AcDbEntity
  8
0-4
  6
Continuous
 62
    92
370
    13
100
AcDbLine
 10
-3093.333595894479
 20
-797.7062884310817
 30
0.0
 11
-3093.333595894479
 21
-947.7062059209982
 31
0.0
  0
LINE
  5
258
330
1F
100
AcDbEntity
  8
0-4
  6
Continuous
 62
    92
370
    13
100
AcDbLine
 10
-3093.333595894479
 20
-997.7062059234584
 30
0.0
 11
-3093.333595894479
 21
-1097.706288444858
 31
0.0
  0
LINE
  5
259
330
1F
100
AcDbEntity
  8
0-4
  6
Continuous
 62
    92
370
    13
100
AcDbLine
 10
-2671.316506341042
 20
-1249.744662436452
 30
0.0
 11
-2671.316506341042
 21
-1132.485556479942
 31
0.0
  0
LINE
  5
25A
330
1F
100
AcDbEntity
  8
0-4
  6
Continuous
 62
    92
370
    13
100
AcDbLine
 10
-2671.316506341042
 20
-1076.919255534549
 30
0.0
 11
-2671.316506341042
 21
-919.0024894147552
 31
0.0
  0
LINE
  5
25B
330
1F
100
AcDbEntity
  8
0-4
  6
Continuous
 62
    92
370
    13
100
AcDbLine
 10
-2592.10171494763
 20
-937.6035502288835
 30
0.0
 11
-2592.10171494763
 21
-1100.135923442828
 31
0.0
  0
LINE
  5
25C
330
1F
100
AcDbEntity
  8
0-4
  6
Continuous
 62
    92
370
    13
100
AcDbLine
 10
-2592.10171494763
 20
-1155.70222438822
 30
0.0
 11
-2592.10171494763
 21
-1272.96133034473
 31
0.0
  0
LINE
  5
25D
330
1F
100
AcDbEntity
  8
0-4
  6
Continuous
 62
    92
370
    13
100
AcDbLine
 10
-2500.914896253548
 20
-945.6403941959127
 30
0.0
 11
-2500.914896253548
 21
-1110.175205633333
 31
0.0
  0
LINE
  5
25E
330
1F
100
AcDbEntity
  8
0-4
  6
Continuous
 62
    92
370
    13
100
AcDbLine
 10
-2500.914896253548
 20
-1165.741506578726
 30
0.0
 11
-2500.914896253548
 21
-1283.000612535236
 31
0.0
  0
LINE
  5
25F
330
1F
100
AcDbEntity
  8
0-4
  6
Continuous
 62
    92
370
    13
100
AcDbLine
 10
-2395.75229553541
 20
-1283.000612535236
 30
0.0
 11
-2395.75229553541
 21
-1165.741506578726
 31
0.0
  0
LINE
  5
260
330
1F
100
AcDbEntity
  8
0-4
  6
Continuous
 62
    92
370
    13
100
AcDbLine
 10
-2395.75229553541
 20
-1110.175205633333
 30
0.0
 11
-2395.75229553541
 21
-945.6403941959127
 31
0.0
  0
LINE
  5
261
330
1F
100
AcDbEntity
  8
0-4
  6
Continuous
 62
    92
370
    13
100
AcDbLine
 10
-2304.565476841328
 20
-937.6035502288835
 30
0.0
 11
-2304.565476841328
 21
-1100.135923442828
 31
0.0
  0
LINE
  5
262
330
1F
100
AcDbEntity
  8
0-4
  6
Continuous
 62
    92
370
    13
100
AcDbLine
 10
-2304.565476841328
 20
-1155.70222438822
 30
0.0
 11
-2304.565476841328
 21
-1272.96133034473
 31
0.0
  0
LINE
  5
263
330
1F
100
AcDbEntity
  8
0-4
  6
Continuous
 62
    92
370
    13
100
AcDbLine
 10
-2225.350685447917
 20
-919.0024894147564
 30
0.0
 11
-2225.350685447917
 21
-1076.919255534551
 31
0.0
  0
LINE
  5
264
330
1F
100
AcDbEntity
  8
0-4
  6
Continuous
 62
    92
370
    13
100
AcDbLine
 10
-2225.350685447917
 20
-1132.485556479943
 30
0.0
 11
-2225.350685447917
 21
-1249.744662436452
 31
0.0
  0
LINE
  5
265
330
1F
100
AcDbEntity
  8
0-4
  6
Continuous
 62
    92
370
    13
100
AcDbLine
 10
-2671.316506341041
 20
-919.0024894147564
 30
0.0
 11
-2862.123833839153
 21
-864.160625143669
 31
0.0
  0
LINE
  5
266
330
1F
100
AcDbEntity
  8
0-4
  6
Continuous
 62
    92
370
    13
100
AcDbLine
 10
-2876.629524110347
 20
-859.9913979580981
 30
0.0
 11
-3093.333595894479
 21
-797.7062884310817
 31
0.0
  0
LINE
  5
267
330
1F
100
AcDbEntity
  8
0-4
  6
Continuous
 62
    92
370
    13
100
AcDbLine
 10
-3093.333595894479
 20
-947.7062059209982
 30
0.0
 11
-2865.880606272382
 21
-1017.347685283576
 31
0.0
  0
LINE
  5
268
330
1F
100
AcDbEntity
  8
0-4
  6
Continuous
 62
    92
370
    13
100
AcDbLine
 10
-2848.828524189418
 20
-1022.568686003077
 30
0.0
 11
-2671.316506341042
 21
-1076.919255534549
 31
0.0
  0
LINE
  5
269
330
1F
100
AcDbEntity
  8
0-4
  6
Continuous
 62
    92
370
    13
100
AcDbLine
 10
-3056.274727217437
 20
-986.9174663720457
 30
0.0
 11
-2855.185775671556
 21
-1051.139126973792
 31
0.0
  0
LINE
  5
26A
330
1F
100
AcDbEntity
  8
0-4
  6
Continuous
 62
    92
370
    13
100
AcDbLine
 10
-2838.643424222812
 20
-1056.422248060899
 30
0.0
 11
-2635.429949778847
 21
-1121.322416295474
 31
0.0
  0
LINE
  5
26B
330
1F
100
AcDbEntity
  8
0-4
  6
Continuous
 62
    92
370
    13
100
AcDbLine
 10
-2671.316506341042
 20
-1132.485556479942
 30
0.0
 11
-2834.70734823593
 21
-1080.303519063465
 31
0.0
  0
LINE
  5
26C
330
1F
100
AcDbEntity
  8
0-4
  6
Continuous
 62
    92
370
    13
100
AcDbLine
 10
-2850.415605431554
 20
-1075.286782169135
 30
0.0
 11
-3093.333595894479
 21
-997.7062059234584
 31
0.0
  0
LINE
  5
26D
330
1F
100
AcDbEntity
  8
0-4
  6
Continuous
 62
    92
370
    13
100
AcDbLine
 10
-2671.316506341041
 20
-1249.744662436452
 30
0.0
 11
-2846.5823559191
 21
-1186.602350322266
 31
0.0
  0
LINE
  5
26E
330
1F
100
AcDbEntity
  8
0-4
  6
Continuous
 62
    92
370
    13
100
AcDbLine
 10
-2860.460789192775
 20
-1181.602423824709
 30
0.0
 11
-3093.333595894479
 21
-1097.706288444858
 31
0.0
  0
LINE
  5
26F
330
1F
100
AcDbEntity
  8
0-4
  6
Continuous
 62
    92
370
    13
100
AcDbLine
 10
-3067.386387244441
 20
-1112.9441399216
 30
0.0
 11
-2862.423231214221
 21
-1186.785379393667
 31
0.0
  0
LINE
  5
270
330
1F
100
AcDbEntity
  8
0-4
  6
Continuous
 62
    92
370
    13
100
AcDbLine
 10
-2848.564248519589
 20
-1191.778298510519
 30
0.0
 11
-2645.369297691002
 21
-1264.982513913194
 31
0.0
  0
LINE
  5
271
330
1F
100
AcDbEntity
  8
0-4
  6
Continuous
 62
    92
370
    13
100
AcDbLine
 10
-1803.333595894479
 20
-797.7062884310817
 30
0.0
 11
-2084.704947766083
 21
-878.5780751252668
 31
0.0
  0
LINE
  5
272
330
1F
100
AcDbEntity
  8
0-4
  6
Continuous
 62
    92
370
    13
100
AcDbLine
 10
-2100.111019257667
 20
-883.0060899859666
 30
0.0
 11
-2225.350685447915
 21
-919.0024894147558
 31
0.0
  0
LINE
  5
273
330
1F
100
AcDbEntity
  8
0-4
  6
Continuous
 62
    92
370
    13
100
AcDbLine
 10
-1803.333595894479
 20
-947.7062059209982
 30
0.0
 11
-2067.810188746525
 21
-1028.683559586879
 31
0.0
  0
LINE
  5
274
330
1F
100
AcDbEntity
  8
0-4
  6
Continuous
 62
    92
370
    13
100
AcDbLine
 10
-2081.799133663684
 20
-1032.966690005921
 30
0.0
 11
-2225.350685447917
 21
-1076.919255534549
 31
0.0
  0
LINE
  5
275
330
1F
100
AcDbEntity
  8
0-4
  6
Continuous
 62
    92
370
    13
100
AcDbLine
 10
-1840.392464571521
 20
-986.9174663720457
 30
0.0
 11
-2059.507897177495
 21
-1056.896233665062
 31
0.0
  0
LINE
  5
276
330
1F
100
AcDbEntity
  8
0-4
  6
Continuous
 62
    92
370
    13
100
AcDbLine
 10
-2073.765808001627
 20
-1061.449774288742
 30
0.0
 11
-2261.23724201011
 21
-1121.322416295474
 31
0.0
  0
LINE
  5
277
330
1F
100
AcDbEntity
  8
0-4
  6
Continuous
 62
    92
370
    13
100
AcDbLine
 10
-1803.333595894479
 20
-997.7062059234584
 30
0.0
 11
-2055.901053664214
 21
-1078.368526887588
 31
0.0
  0
LINE
  5
278
330
1F
100
AcDbEntity
  8
0-4
  6
Continuous
 62
    92
370
    13
100
AcDbLine
 10
-2070.436189748591
 20
-1083.010604780157
 30
0.0
 11
-2225.350685447916
 21
-1132.485556479942
 31
0.0
  0
LINE
  5
279
330
1F
100
AcDbEntity
  8
0-4
  6
Continuous
 62
    92
370
    13
100
AcDbLine
 10
-1803.333595894479
 20
-1097.706288444858
 30
0.0
 11
-2070.404540981518
 21
-1193.922847528753
 31
0.0
  0
LINE
  5
27A
330
1F
100
AcDbEntity
  8
0-4
  6
Continuous
 62
    92
370
    13
100
AcDbLine
 10
-2089.77886166122
 20
-1200.902754945419
 30
0.0
 11
-2225.350685447916
 21
-1249.744662436452
 31
0.0
  0
LINE
  5
27B
330
1F
100
AcDbEntity
  8
0-4
  6
Continuous
 62
    92
370
    13
100
AcDbLine
 10
-1829.280804544517
 20
-1112.9441399216
 30
0.0
 11
-2073.474951034129
 21
-1200.918968168087
 31
0.0
  0
LINE
  5
27C
330
1F
100
AcDbEntity
  8
0-4
  6
Continuous
 62
    92
370
    13
100
AcDbLine
 10
-2093.827298438171
 20
-1208.251225279989
 30
0.0
 11
-2251.297894097955
 21
-1264.982513913194
 31
0.0
  0
LINE
  5
27D
330
1F
100
AcDbEntity
  8
0-4
  6
Continuous
 62
    92
370
    13
100
AcDbLine
 10
-2671.316506341041
 20
-919.0024894147564
 30
0.0
 11
-2601.818815619194
 21
-897.1864849964322
 31
0.0
  0
LINE
  5
27E
330
1F
100
AcDbEntity
  8
0-4
  6
Continuous
 62
    92
370
    13
100
AcDbLine
 10
-1803.333595894479
 20
-797.7062884310817
 30
0.0
 11
-1870.589856769708
 21
-780.3518756407516
 31
0.0
  0
LINE
  5
27F
330
1F
100
AcDbEntity
  8
0-4
  6
Continuous
 62
    92
370
    13
100
AcDbLine
 10
-2294.810547654633
 20
-897.0659773913417
 30
0.0
 11
-2094.613702384099
 21
-841.9866390396191
 31
0.0
  0
LINE
  5
280
330
1F
100
AcDbEntity
  8
0-4
  6
Continuous
 62
    92
370
    13
100
AcDbLine
 10
-2078.558814156407
 20
-837.5695233767965
 30
0.0
 11
-1870.589856769708
 21
-780.3518756407516
 31
0.0
  0
LINE
  5
281
330
1F
100
AcDbEntity
  8
0-4
  6
Continuous
 62
    92
370
    13
100
AcDbLine
 10
-3093.333595894479
 20
-797.7062884310817
 30
0.0
 11
-3026.077335019249
 21
-780.3518756407516
 31
0.0
  0
LINE
  5
282
330
1F
100
AcDbEntity
  8
0-4
  6
Continuous
 62
    92
370
    13
100
AcDbLine
 10
-2869.5628317663
 20
-823.4130700865057
 30
0.0
 11
-3026.077335019249
 21
-780.3518756407516
 31
0.0
  0
LINE
  5
283
330
1F
100
AcDbEntity
  8
0-4
  6
Continuous
 62
    92
370
    13
100
AcDbLine
 10
-2601.856644134325
 20
-897.0659773913417
 30
0.0
 11
-2855.270857521413
 21
-827.3451624433278
 31
0.0
  0
LINE
  5
284
330
1F
100
AcDbEntity
  8
0-0
  6
JWW_HOJO
 62
     7
370
     9
100
AcDbLine
 10
-3193.333595894479
 20
-1097.706288452645
 30
0.0
 11
-3193.333595885295
 21
-977.706288455106
 31
0.0
  0
LINE
  5
285
330
1F
100
AcDbEntity
  8
0-0
  6
JWW_HOJO
 62
     7
370
     9
100
AcDbLine
 10
-1703.333595894479
 20
-1097.706288444858
 30
0.0
 11
-1703.333595894479
 21
-997.7062059209982
 31
0.0
  0
LINE
  5
286
330
1F
100
AcDbEntity
  8
0-B
  6
Continuous
 62
   120
370
     5
100
AcDbLine
 10
-1718.874883776977
 20
-1139.929769630519
 30
0.0
 11
-2322.62226294848
 21
-1381.257270522662
 31
0.0
  0
LINE
  5
287
330
1F
100
AcDbEntity
  8
0-B
  6
Continuous
 62
   120
370
     5
100
AcDbLine
 10
-2483.476046845085
 20
-1323.307134475058
 30
0.0
 11
-2322.62226294848
 21
-1381.257270522662
 31
0.0
  0
LINE
  5
288
330
1F
100
AcDbEntity
  8
0-B
  6
Continuous
 62
   120
370
     5
100
AcDbLine
 10
-1800.806676832558
 20
-1119.903841551527
 30
0.0
 11
-1718.874883776977
 21
-1139.929769630519
 31
0.0
  0
LINE
  5
289
330
1F
100
AcDbEntity
  8
0-B
  6
Continuous
 62
   120
370
     5
100
AcDbLine
 10
-1787.692126693951
 20
-793.0596823579049
 30
0.0
 11
-1739.331954353754
 21
-778.6933419831644
 31
0.0
  0
LINE
  5
28A
330
1F
100
AcDbEntity
  8
0-B
  6
Continuous
 62
   120
370
     5
100
AcDbLine
 10
-2413.191144943872
 20
-1323.307134475058
 30
0.0
 11
-2574.044928840478
 21
-1381.257270522661
 31
0.0
  0
LINE
  5
28B
330
1F
100
AcDbEntity
  8
0-B
  6
Continuous
 62
   120
370
     5
100
AcDbLine
 10
-3177.79230801198
 20
-1139.929769630519
 30
0.0
 11
-2574.044928840478
 21
-1381.257270522661
 31
0.0
  0
LINE
  5
28C
330
1F
100
AcDbEntity
  8
0-B
  6
Continuous
 62
   120
370
     5
100
AcDbLine
 10
-3095.8605149564
 20
-1119.903841551527
 30
0.0
 11
-3177.79230801198
 21
-1139.929769630519
 31
0.0
  0
LINE
  5
28D
330
1F
100
AcDbEntity
  8
0-B
  6
Continuous
 62
   120
370
     5
100
AcDbLine
 10
-2448.333595894479
 20
-849.0059742933727
 30
0.0
 11
-2327.927951886599
 21
-849.0059742933727
 31
0.0
  0
LINE
  5
28E
330
1F
100
AcDbEntity
  8
0-B
  6
Continuous
 62
   120
370
     5
100
AcDbLine
 10
-2526.484886904098
 20
-910.1360966452813
 30
0.0
 11
-2448.333595894479
 21
-849.0059742933727
 31
0.0
  0
LINE
  5
28F
330
1F
100
AcDbEntity
  8
0-B
  6
Continuous
 62
   120
370
     5
100
AcDbLine
 10
-2526.484886904098
 20
-910.1360966452813
 30
0.0
 11
-2506.077787251445
 21
-881.7032188062416
 31
0.0
  0
LINE
  5
290
330
1F
100
AcDbEntity
  8
0-B
  6
Continuous
 62
   120
370
     5
100
AcDbLine
 10
-1839.83021517954
 20
-771.8891013925713
 30
0.0
 11
-1793.995021377166
 21
-759.2786521897062
 31
0.0
  0
LINE
  5
291
330
1F
100
AcDbEntity
  8
0-B
  6
Continuous
 62
   120
370
     5
100
AcDbLine
 10
-1739.331954353754
 20
-778.6933419831644
 30
0.0
 11
-1793.995021377166
 21
-759.2786521897062
 31
0.0
  0
LWPOLYLINE
  5
292
330
1F
100
AcDbEntity
  8
0-B
  6
Continuous
 62
     7
370
     9
100
AcDbPolyline
 90
        4
 70
     1
 43
2.0
 10
-1792.995021377166
 20
-759.2786521897062
 42
0.4142135623731
 10
-1793.995021377166
 20
-758.2786521897062
 42
0.4142135623731
 10
-1794.995021377165
 20
-759.2786521897062
 42
0.4142135623731
 10
-1793.995021377166
 20
-760.2786521897062
 42
0.4142135623731
  0
LWPOLYLINE
  5
293
330
1F
100
AcDbEntity
  8
0-B
  6
Continuous
 62
     7
370
     9
100
AcDbPolyline
 90
        4
 70
     1
 43
2.0
 10
-1738.331954353754
 20
-778.6933419831644
 42
0.4142135623731
 10
-1739.331954353754
 20
-777.6933419831644
 42
0.4142135623731
 10
-1740.331954353754
 20
-778.6933419831644
 42
0.4142135623731
 10
-1739.331954353754
 20
-779.6933419831644
 42
0.4142135623731
  0
LWPOLYLINE
  5
294
330
1F
100
AcDbEntity
  8
0-B
  6
Continuous
 62
     7
370
     9
100
AcDbPolyline
 90
        4
 70
     1
 43
2.0
 10
-2321.62226294848
 20
-1381.257270522662
 42
0.4142135623731
 10
-2322.62226294848
 20
-1380.257270522662
 42
0.4142135623731
 10
-2323.62226294848
 20
-1381.257270522662
 42
0.4142135623731
 10
-2322.62226294848
 20
-1382.257270522662
 42
0.4142135623731
  0
LWPOLYLINE
  5
295
330
1F
100
AcDbEntity
  8
0-B
  6
Continuous
 62
     7
370
     9
100
AcDbPolyline
 90
        4
 70
     1
 43
2.0
 10
-2573.044928840478
 20
-1381.257270522661
 42
0.4142135623731
 10
-2574.044928840478
 20
-1380.257270522661
 42
0.4142135623731
 10
-2575.044928840479
 20
-1381.257270522661
 42
0.4142135623731
 10
-2574.044928840478
 20
-1382.257270522661
 42
0.4142135623731
  0
LWPOLYLINE
  5
296
330
1F
100
AcDbEntity
  8
0-B
  6
Continuous
 62
     7
370
     9
100
AcDbPolyline
 90
        4
 70
     1
 43
2.0
 10
-1717.874883776977
 20
-1139.929769630519
 42
0.4142135623731
 10
-1718.874883776977
 20
-1138.92976963052
 42
0.4142135623731
 10
-1719.874883776977
 20
-1139.929769630519
 42
0.4142135623731
 10
-1718.874883776977
 20
-1140.929769630519
 42
0.4142135623731
  0
LWPOLYLINE
  5
297
330
1F
100
AcDbEntity
  8
0-B
  6
Continuous
 62
     7
370
     9
100
AcDbPolyline
 90
        4
 70
     1
 43
2.0
 10
-3176.79230801198
 20
-1139.929769630519
 42
0.4142135623731
 10
-3177.79230801198
 20
-1138.92976963052
 42
0.4142135623731
 10
-3178.79230801198
 20
-1139.929769630519
 42
0.4142135623731
 10
-3177.79230801198
 20
-1140.929769630519
 42
0.4142135623731
  0
LINE
  5
298
330
1F
100
AcDbEntity
  8
0-B
  6
Continuous
 62
   120
370
     5
100
AcDbLine
 10
-3056.836976609418
 20
-771.8891013925713
 30
0.0
 11
-3102.672170411792
 21
-759.2786521897062
 31
0.0
  0
LWPOLYLINE
  5
299
330
1F
100
AcDbEntity
  8
0-B
  6
Continuous
 62
     7
370
     9
100
AcDbPolyline
 90
        4
 70
     1
 43
2.0
 10
-3101.672170411791
 20
-759.2786521897062
 42
0.4142135623731
 10
-3102.672170411792
 20
-758.2786521897062
 42
0.4142135623731
 10
-3103.672170411792
 20
-759.2786521897062
 42
0.4142135623731
 10
-3102.672170411792
 20
-760.2786521897062
 42
0.4142135623731
  0
LINE
  5
29A
330
1F
100
AcDbEntity
  8
0-B
  6
Continuous
 62
   120
370
     5
100
AcDbLine
 10
-3157.335237435203
 20
-778.6933419831644
 30
0.0
 11
-3102.672170411792
 21
-759.2786521897062
 31
0.0
  0
LWPOLYLINE
  5
29B
330
1F
100
AcDbEntity
  8
0-B
  6
Continuous
 62
     7
370
     9
100
AcDbPolyline
 90
        4
 70
     1
 43
2.0
 10
-3156.335237435203
 20
-778.6933419831644
 42
0.4142135623731
 10
-3157.335237435203
 20
-777.6933419831644
 42
0.4142135623731
 10
-3158.335237435203
 20
-778.6933419831644
 42
0.4142135623731
 10
-3157.335237435203
 20
-779.6933419831644
 42
0.4142135623731
  0
LINE
  5
29C
330
1F
100
AcDbEntity
  8
0-B
  6
Continuous
 62
   120
370
     5
100
AcDbLine
 10
-3108.975065095006
 20
-793.0596823579049
 30
0.0
 11
-3157.335237435203
 21
-778.6933419831644
 31
0.0
  0
MTEXT
  5
29D
330
1F
100
AcDbEntity
  8
0-A
  6
Continuous
 62
     7
370
     9
100
AcDbMText
 10
-293.3334680505692
 20
-1613.8068536212
 30
0.0
 40
45.72
 41
60.0
 46
0.0
 71
     7
 72
     1
  1
{\fＭＳ ゴシック|b0|i0|c128|p49;10}
 73
     1
 44
1.0
  0
LINE
  5
29E
330
1F
100
AcDbEntity
  8
0-4
  6
Continuous
 62
    92
370
    13
100
AcDbLine
 10
-2485.170982160442
 20
-1899.118923421029
 30
0.0
 11
-2395.170982160442
 21
-1899.118923421029
 31
0.0
  0
LINE
  5
29F
330
1F
100
AcDbEntity
  8
0-4
  6
Continuous
 62
    92
370
    13
100
AcDbLine
 10
-2485.170982160442
 20
-1899.118923421029
 30
0.0
 11
-2440.170982160442
 21
-1873.138161307496
 31
0.0
  0
LINE
  5
2A0
330
1F
100
AcDbEntity
  8
0-4
  6
Continuous
 62
    92
370
    13
100
AcDbLine
 10
-2395.170982160442
 20
-1899.118923421029
 30
0.0
 11
-2440.170982160442
 21
-1873.138161307496
 31
0.0
  0
LINE
  5
2A1
330
1F
100
AcDbEntity
  8
0-4
  6
Continuous
 62
    92
370
    13
100
AcDbLine
 10
-2485.170982160442
 20
-2079.118923444889
 30
0.0
 11
-2467.850616978945
 21
-2069.11900594489
 31
0.0
  0
LINE
  5
2A2
330
1F
100
AcDbEntity
  8
0-4
  6
Continuous
 62
    92
370
    13
100
AcDbLine
 10
-2467.850616978945
 20
-2069.11900594489
 30
0.0
 11
-2412.491347341939
 21
-2069.11900594489
 31
0.0
  0
LINE
  5
2A3
330
1F
100
AcDbEntity
  8
0-4
  6
Continuous
 62
    92
370
    13
100
AcDbLine
 10
-2485.170982160442
 20
-2079.11900594489
 30
0.0
 11
-2395.170982160442
 21
-2079.11900594489
 31
0.0
  0
LINE
  5
2A4
330
1F
100
AcDbEntity
  8
0-4
  6
Continuous
 62
    92
370
    13
100
AcDbLine
 10
-2395.170982160442
 20
-2079.118923444889
 30
0.0
 11
-2412.491347341939
 21
-2069.11900594489
 31
0.0
  0
LINE
  5
2A5
330
1F
100
AcDbEntity
  8
0-4
  6
Continuous
 62
    92
370
    13
100
AcDbLine
 10
-2467.850616978945
 20
-2069.11900594489
 30
0.0
 11
-2467.850616978945
 21
-2029.118923444889
 31
0.0
  0
LINE
  5
2A6
330
1F
100
AcDbEntity
  8
0-4
  6
Continuous
 62
    92
370
    13
100
AcDbLine
 10
-2412.491347341939
 20
-2069.11900594489
 30
0.0
 11
-2412.491347341939
 21
-2029.118923444889
 31
0.0
  0
LINE
  5
2A7
330
1F
100
AcDbEntity
  8
0-4
  6
Continuous
 62
    92
370
    13
100
AcDbLine
 10
-2485.170982160442
 20
-2029.118923444889
 30
0.0
 11
-2395.170982160442
 21
-2029.118923444889
 31
0.0
  0
LINE
  5
2A8
330
1F
100
AcDbEntity
  8
0-4
  6
Continuous
 62
    92
370
    13
100
AcDbLine
 10
-2485.170982160442
 20
-2029.118923444889
 30
0.0
 11
-2485.170982160442
 21
-1899.118923421029
 31
0.0
  0
LINE
  5
2A9
330
1F
100
AcDbEntity
  8
0-4
  6
Continuous
 62
    92
370
    13
100
AcDbLine
 10
-2395.170982160442
 20
-2029.118923444889
 30
0.0
 11
-2395.170982160442
 21
-1899.11892342103
 31
0.0
  0
LINE
  5
2AA
330
1F
100
AcDbEntity
  8
0-4
  6
Continuous
 62
    92
370
    13
100
AcDbLine
 10
-2485.170982160442
 20
-2199.118923444889
 30
0.0
 11
-2395.170982160442
 21
-2199.118923444889
 31
0.0
  0
LINE
  5
2AB
330
1F
100
AcDbEntity
  8
0-0
  6
JWW_HOJO
 62
     7
370
     9
100
AcDbLine
 10
-2651.227045644299
 20
-2245.329858944057
 30
0.0
 11
-2490.347363061584
 21
-2288.437439970671
 31
0.0
  0
LINE
  5
2AC
330
1F
100
AcDbEntity
  8
0-0
  6
JWW_HOJO
 62
     7
370
     9
100
AcDbLine
 10
-2664.167997899425
 20
-2293.62615025851
 30
0.0
 11
-2503.28831531671
 21
-2336.733731285124
 31
0.0
  0
LWPOLYLINE
  5
2AD
330
1F
100
AcDbEntity
  8
0-B
  6
Continuous
 62
     7
370
     9
100
AcDbPolyline
 90
        4
 70
     1
 43
2.0
 10
-2358.553649003326
 20
-2332.044620417353
 42
0.4142135623731
 10
-2359.553649003326
 20
-2331.044620417353
 42
0.4142135623731
 10
-2360.553649003326
 20
-2332.044620417353
 42
0.4142135623731
 10
-2359.553649003326
 20
-2333.044620417353
 42
0.4142135623731
  0
LINE
  5
2AE
330
1F
100
AcDbEntity
  8
0-B
  6
Continuous
 62
   120
370
     5
100
AcDbLine
 10
-2359.553649003326
 20
-2332.044620417353
 30
0.0
 11
-2372.494601258452
 21
-2283.7483291029
 31
0.0
  0
LWPOLYLINE
  5
2AF
330
1F
100
AcDbEntity
  8
0-B
  6
Continuous
 62
     7
370
     9
100
AcDbPolyline
 90
        4
 70
     1
 43
2.0
 10
-2502.288315317619
 20
-2336.733731284881
 42
0.4142135623731
 10
-2503.288315317619
 20
-2335.733731284881
 42
0.4142135623731
 10
-2504.288315317619
 20
-2336.733731284881
 42
0.4142135623731
 10
-2503.288315317619
 20
-2337.733731284881
 42
0.4142135623731
  0
LINE
  5
2B0
330
1F
100
AcDbEntity
  8
0-B
  6
Continuous
 62
   120
370
     5
100
AcDbLine
 10
-2503.288315317619
 20
-2336.733731284881
 30
0.0
 11
-2490.347363062493
 21
-2288.437439970428
 31
0.0
  0
LINE
  5
2B1
330
1F
100
AcDbEntity
  8
0-4
  6
Continuous
 62
    92
370
    13
100
AcDbLine
 10
-2485.170982160442
 20
-2199.118923444889
 30
0.0
 11
-2485.170982160442
 21
-2079.118923444889
 31
0.0
  0
LINE
  5
2B2
330
1F
100
AcDbEntity
  8
0-4
  6
Continuous
 62
    92
370
    13
100
AcDbLine
 10
-2395.170982160442
 20
-2199.118923444889
 30
0.0
 11
-2395.170982160442
 21
-2079.118923444889
 31
0.0
  0
LINE
  5
2B3
330
1F
100
AcDbEntity
  8
0-4
  6
Continuous
 62
    92
370
    13
100
AcDbLine
 10
-2485.170982160442
 20
-2199.118923444889
 30
0.0
 11
-2440.170982160442
 21
-2219.118923444889
 31
0.0
  0
LINE
  5
2B4
330
1F
100
AcDbEntity
  8
0-4
  6
Continuous
 62
    92
370
    13
100
AcDbLine
 10
-2395.170982160442
 20
-2199.118923444889
 30
0.0
 11
-2440.170982160442
 21
-2219.118923444889
 31
0.0
  0
LINE
  5
2B5
330
1F
100
AcDbEntity
  8
0-4
  6
Continuous
 62
    92
370
    13
100
AcDbLine
 10
-2440.170982160442
 20
-2219.118923444889
 30
0.0
 11
-2485.170982176742
 21
-2219.118923444889
 31
0.0
  0
LINE
  5
2B6
330
1F
100
AcDbEntity
  8
0-4
  6
JWW_DASHED1
 62
    92
370
    13
100
AcDbLine
 10
-2485.170982160442
 20
-2199.118923444889
 30
0.0
 11
-2485.170982160442
 21
-2219.118923444889
 31
0.0
  0
LINE
  5
2B7
330
1F
100
AcDbEntity
  8
0-4
  6
JWW_DASHED1
 62
    92
370
    13
100
AcDbLine
 10
-2395.170611000708
 20
-2199.118923444889
 30
0.0
 11
-2395.170611000708
 21
-2219.118923444889
 31
0.0
  0
LINE
  5
2B8
330
1F
100
AcDbEntity
  8
0-4
  6
Continuous
 62
    92
370
    13
100
AcDbLine
 10
-2440.170611000708
 20
-2219.118923444889
 30
0.0
 11
-2395.170610984408
 21
-2219.118923444889
 31
0.0
  0
LINE
  5
2B9
330
1F
100
AcDbEntity
  8
0-4
  6
Continuous
 62
    92
370
    13
100
AcDbLine
 10
-2761.848208434542
 20
-1825.570254143166
 30
0.0
 11
-2716.848208410683
 21
-1799.589492015857
 31
0.0
  0
LWPOLYLINE
  5
2BA
330
1F
100
AcDbEntity
  8
0-B
  6
Continuous
 62
     7
370
     9
100
AcDbPolyline
 90
        4
 70
     1
 43
2.0
 10
-2860.848208439134
 20
-1825.570254119306
 42
0.4142135623731
 10
-2861.848208439134
 20
-1824.570254119306
 42
0.4142135623731
 10
-2862.848208439134
 20
-1825.570254119306
 42
0.4142135623731
 10
-2861.848208439134
 20
-1826.570254119306
 42
0.4142135623731
  0
LINE
  5
2BB
330
1F
100
AcDbEntity
  8
0-B
  6
Continuous
 62
   120
370
     5
100
AcDbLine
 10
-2861.848208439134
 20
-1825.570254119306
 30
0.0
 11
-2811.848208439134
 21
-1825.570254119306
 31
0.0
  0
LINE
  5
2BC
330
1F
100
AcDbEntity
  8
0-4
  6
Continuous
 62
    92
370
    13
100
AcDbLine
 10
-2761.848208439134
 20
-2005.570254145626
 30
0.0
 11
-2744.527843257637
 21
-1995.570336645626
 31
0.0
  0
LINE
  5
2BD
330
1F
100
AcDbEntity
  8
0-4
  6
Continuous
 62
    92
370
    13
100
AcDbLine
 10
-2744.527843257637
 20
-1995.570336645626
 30
0.0
 11
-2744.527843257637
 21
-1960.211232008621
 31
0.0
  0
LINE
  5
2BE
330
1F
100
AcDbEntity
  8
0-4
  6
Continuous
 62
    92
370
    13
100
AcDbLine
 10
-2761.848208437986
 20
-1955.570254145935
 30
0.0
 11
-2761.848208434542
 21
-1825.570254143166
 31
0.0
  0
LINE
  5
2BF
330
1F
100
AcDbEntity
  8
0-B
  6
Continuous
 62
   120
370
     5
100
AcDbLine
 10
-2861.848208439134
 20
-1825.570254119306
 30
0.0
 11
-2861.848208439134
 21
-2125.570254143166
 31
0.0
  0
LWPOLYLINE
  5
2C0
330
1F
100
AcDbEntity
  8
0-B
  6
Continuous
 62
     7
370
     9
100
AcDbPolyline
 90
        4
 70
     1
 43
2.0
 10
-2860.848208439134
 20
-2125.570254143166
 42
0.4142135623731
 10
-2861.848208439134
 20
-2124.570254143166
 42
0.4142135623731
 10
-2862.848208439134
 20
-2125.570254143166
 42
0.4142135623731
 10
-2861.848208439134
 20
-2126.570254143166
 42
0.4142135623731
  0
LINE
  5
2C1
330
1F
100
AcDbEntity
  8
0-B
  6
Continuous
 62
   120
370
     5
100
AcDbLine
 10
-2861.848208439134
 20
-2125.570254143166
 30
0.0
 11
-2811.848208439134
 21
-2125.570254143166
 31
0.0
  0
LINE
  5
2C2
330
1F
100
AcDbEntity
  8
0-B
  6
Continuous
 62
   120
370
     5
100
AcDbLine
 10
-2503.288315317619
 20
-2336.733731284881
 30
0.0
 11
-2797.465541605434
 21
-2258.495951115629
 31
0.0
  0
LWPOLYLINE
  5
2C3
330
1F
100
AcDbEntity
  8
0-B
  6
Continuous
 62
     7
370
     9
100
AcDbPolyline
 90
        4
 70
     1
 43
2.0
 10
-2796.465541605434
 20
-2258.495951115629
 42
0.4142135623731
 10
-2797.465541605434
 20
-2257.49595111563
 42
0.4142135623731
 10
-2798.465541605434
 20
-2258.495951115629
 42
0.4142135623731
 10
-2797.465541605434
 20
-2259.495951115629
 42
0.4142135623731
  0
LINE
  5
2C4
330
1F
100
AcDbEntity
  8
0-B
  6
Continuous
 62
   120
370
     5
100
AcDbLine
 10
-2797.465541605434
 20
-2258.495951115629
 30
0.0
 11
-2784.524589350308
 21
-2210.199659801176
 31
0.0
  0
LINE
  5
2C5
330
1F
100
AcDbEntity
  8
0-4
  6
Continuous
 62
    92
370
    13
100
AcDbLine
 10
-2761.848208448318
 20
-2125.570254143166
 30
0.0
 11
-2761.848208439134
 21
-2005.570254145626
 31
0.0
  0
LINE
  5
2C6
330
1F
100
AcDbEntity
  8
0-0
  6
JWW_HOJO
 62
     7
370
     9
100
AcDbLine
 10
-2811.848208448318
 20
-2125.570254142018
 30
0.0
 11
-2811.848208439134
 21
-2005.570254144479
 31
0.0
  0
LINE
  5
2C7
330
1F
100
AcDbEntity
  8
0-0
  6
JWW_HOJO
 62
     7
370
     9
100
AcDbLine
 10
-2861.848208448318
 20
-2125.57025414087
 30
0.0
 11
-2861.848208439134
 21
-2005.570254143331
 31
0.0
  0
LINE
  5
2C8
330
1F
100
AcDbEntity
  8
0-4
  6
Continuous
 62
    92
370
    13
100
AcDbLine
 10
-2744.527843257637
 20
-2130.211232008621
 30
0.0
 11
-2722.878238643461
 21
-2156.01222608581
 31
0.0
  0
LINE
  5
2C9
330
1F
100
AcDbEntity
  8
0-4
  6
Continuous
 62
    92
370
    13
100
AcDbLine
 10
-2123.363173157472
 20
-1827.870946405034
 30
0.0
 11
-2168.363173181333
 21
-1801.890184277725
 31
0.0
  0
LINE
  5
2CA
330
1F
100
AcDbEntity
  8
0-0
  6
JWW_HOJO
 62
     7
370
     9
100
AcDbLine
 10
-2113.363173157472
 20
-1810.550438329345
 30
0.0
 11
-2158.363173181333
 21
-1784.569676202037
 31
0.0
  0
LINE
  5
2CB
330
1F
100
AcDbEntity
  8
0-0
  6
JWW_HOJO
 62
     7
370
     9
100
AcDbLine
 10
-2103.363173157472
 20
-1793.229930253656
 30
0.0
 11
-2148.363173181333
 21
-1767.249168126348
 31
0.0
  0
LINE
  5
2CC
330
1F
100
AcDbEntity
  8
0-B
  6
Continuous
 62
   120
370
     5
100
AcDbLine
 10
-2023.363173143697
 20
-1827.870946391258
 30
0.0
 11
-2023.363173143697
 21
-2127.870946405034
 31
0.0
  0
LWPOLYLINE
  5
2CD
330
1F
100
AcDbEntity
  8
0-B
  6
Continuous
 62
     7
370
     9
100
AcDbPolyline
 90
        4
 70
     1
 43
2.0
 10
-2022.363173143697
 20
-1827.870946391258
 42
0.4142135623731
 10
-2023.363173143697
 20
-1826.870946391258
 42
0.4142135623731
 10
-2024.363173143697
 20
-1827.870946391258
 42
0.4142135623731
 10
-2023.363173143697
 20
-1828.870946391258
 42
0.4142135623731
  0
LWPOLYLINE
  5
2CE
330
1F
100
AcDbEntity
  8
0-B
  6
Continuous
 62
     7
370
     9
100
AcDbPolyline
 90
        4
 70
     1
 43
2.0
 10
-2022.363173143697
 20
-1977.870863881175
 42
0.4142135623731
 10
-2023.363173143697
 20
-1976.870863881175
 42
0.4142135623731
 10
-2024.363173143697
 20
-1977.870863881175
 42
0.4142135623731
 10
-2023.363173143697
 20
-1978.870863881175
 42
0.4142135623731
  0
LINE
  5
2CF
330
1F
100
AcDbEntity
  8
0-B
  6
Continuous
 62
   120
370
     5
100
AcDbLine
 10
-2023.363173143697
 20
-1827.870946391258
 30
0.0
 11
-2073.363173143697
 21
-1827.870946391258
 31
0.0
  0
LINE
  5
2D0
330
1F
100
AcDbEntity
  8
0-B
  6
Continuous
 62
   120
370
     5
100
AcDbLine
 10
-2023.363173143697
 20
-1977.870863881175
 30
0.0
 11
-2073.363173143697
 21
-1977.870863881175
 31
0.0
  0
LWPOLYLINE
  5
2D1
330
1F
100
AcDbEntity
  8
0-B
  6
Continuous
 62
     7
370
     9
100
AcDbPolyline
 90
        4
 70
     1
 43
2.0
 10
-2022.363173143697
 20
-2027.870863883635
 42
0.4142135623731
 10
-2023.363173143697
 20
-2026.870863883635
 42
0.4142135623731
 10
-2024.363173143697
 20
-2027.870863883635
 42
0.4142135623731
 10
-2023.363173143697
 20
-2028.870863883635
 42
0.4142135623731
  0
LINE
  5
2D2
330
1F
100
AcDbEntity
  8
0-B
  6
Continuous
 62
   120
370
     5
100
AcDbLine
 10
-2023.363173143697
 20
-2027.870863883635
 30
0.0
 11
-2073.363173143697
 21
-2027.870863883635
 31
0.0
  0
LINE
  5
2D3
330
1F
100
AcDbEntity
  8
0-B
  6
Continuous
 62
   120
370
     5
100
AcDbLine
 10
-2148.363173181333
 20
-1767.249168126348
 30
0.0
 11
-2103.363173181333
 21
-1793.229930239881
 31
0.0
  0
LWPOLYLINE
  5
2D4
330
1F
100
AcDbEntity
  8
0-B
  6
Continuous
 62
     7
370
     9
100
AcDbPolyline
 90
        4
 70
     1
 43
2.0
 10
-2147.363173181333
 20
-1767.249168126348
 42
0.4142135623731
 10
-2148.363173181333
 20
-1766.249168126348
 42
0.4142135623731
 10
-2149.363173181333
 20
-1767.249168126348
 42
0.4142135623731
 10
-2148.363173181333
 20
-1768.249168126348
 42
0.4142135623731
  0
LWPOLYLINE
  5
2D5
330
1F
100
AcDbEntity
  8
0-B
  6
Continuous
 62
     7
370
     9
100
AcDbPolyline
 90
        4
 70
     1
 43
2.0
 10
-2102.363173181333
 20
-1793.229930239881
 42
0.4142135623731
 10
-2103.363173181333
 20
-1792.229930239881
 42
0.4142135623731
 10
-2104.363173181333
 20
-1793.229930239881
 42
0.4142135623731
 10
-2103.363173181333
 20
-1794.229930239881
 42
0.4142135623731
  0
LINE
  5
2D6
330
1F
100
AcDbEntity
  8
0-B
  6
Continuous
 62
   120
370
     5
100
AcDbLine
 10
-2148.363173181333
 20
-1767.249168126348
 30
0.0
 11
-2158.363173181333
 21
-1784.569676202037
 31
0.0
  0
LINE
  5
2D7
330
1F
100
AcDbEntity
  8
0-B
  6
Continuous
 62
   120
370
     5
100
AcDbLine
 10
-2103.363173181333
 20
-1793.229930239881
 30
0.0
 11
-2113.363173181333
 21
-1810.55043831557
 31
0.0
  0
LINE
  5
2D8
330
1F
100
AcDbEntity
  8
0-4
  6
Continuous
 62
    92
370
    13
100
AcDbLine
 10
-2123.36317315288
 20
-2007.870946407495
 30
0.0
 11
-2140.683538334378
 21
-1997.871028907495
 31
0.0
  0
LINE
  5
2D9
330
1F
100
AcDbEntity
  8
0-4
  6
Continuous
 62
    92
370
    13
100
AcDbLine
 10
-2140.683538334378
 20
-1997.871028907495
 30
0.0
 11
-2140.683538334378
 21
-1962.511924270489
 31
0.0
  0
LINE
  5
2DA
330
1F
100
AcDbEntity
  8
0-4
  6
Continuous
 62
    92
370
    13
100
AcDbLine
 10
-2123.363173143697
 20
-1957.870946405034
 30
0.0
 11
-2123.363173143697
 21
-1827.870946405034
 31
0.0
  0
LINE
  5
2DB
330
1F
100
AcDbEntity
  8
0-0
  6
JWW_HOJO
 62
     7
370
     9
100
AcDbLine
 10
-2073.363173143697
 20
-2127.870946405034
 30
0.0
 11
-2073.363173143697
 21
-2027.870863881175
 31
0.0
  0
LINE
  5
2DC
330
1F
100
AcDbEntity
  8
0-0
  6
JWW_HOJO
 62
     7
370
     9
100
AcDbLine
 10
-2023.363173143697
 20
-2127.870946405034
 30
0.0
 11
-2023.363173143697
 21
-2027.870863881175
 31
0.0
  0
LINE
  5
2DD
330
1F
100
AcDbEntity
  8
0-0
  6
JWW_HOJO
 62
     7
370
     9
100
AcDbLine
 10
-2135.507157432327
 20
-2221.830440796028
 30
0.0
 11
-2178.796301821621
 21
-2231.847026193519
 31
0.0
  0
LINE
  5
2DE
330
1F
100
AcDbEntity
  8
0-0
  6
JWW_HOJO
 62
     7
370
     9
100
AcDbLine
 10
-2122.566205177201
 20
-2270.126732110481
 30
0.0
 11
-2165.855349566495
 21
-2280.143317507972
 31
0.0
  0
LWPOLYLINE
  5
2DF
330
1F
100
AcDbEntity
  8
0-B
  6
Continuous
 62
     7
370
     9
100
AcDbPolyline
 90
        4
 70
     1
 43
2.0
 10
-2022.363173143697
 20
-2127.870946405034
 42
0.4142135623731
 10
-2023.363173143697
 20
-2126.870946405034
 42
0.4142135623731
 10
-2024.363173143697
 20
-2127.870946405034
 42
0.4142135623731
 10
-2023.363173143697
 20
-2128.870946405034
 42
0.4142135623731
  0
LINE
  5
2E0
330
1F
100
AcDbEntity
  8
0-B
  6
Continuous
 62
   120
370
     5
100
AcDbLine
 10
-2023.363173143697
 20
-2127.870946405034
 30
0.0
 11
-2073.363173143697
 21
-2127.870946405034
 31
0.0
  0
LINE
  5
2E1
330
1F
100
AcDbEntity
  8
0-B
  6
Continuous
 62
   120
370
     5
100
AcDbLine
 10
-2087.745839986581
 20
-2260.796643377498
 30
0.0
 11
-2359.553649003326
 21
-2332.044620417353
 31
0.0
  0
LWPOLYLINE
  5
2E2
330
1F
100
AcDbEntity
  8
0-B
  6
Continuous
 62
     7
370
     9
100
AcDbPolyline
 90
        4
 70
     1
 43
2.0
 10
-2086.745839986581
 20
-2260.796643377498
 42
0.4142135623731
 10
-2087.745839986581
 20
-2259.796643377498
 42
0.4142135623731
 10
-2088.745839986581
 20
-2260.796643377498
 42
0.4142135623731
 10
-2087.745839986581
 20
-2261.796643377498
 42
0.4142135623731
  0
LINE
  5
2E3
330
1F
100
AcDbEntity
  8
0-B
  6
Continuous
 62
   120
370
     5
100
AcDbLine
 10
-2087.745839986581
 20
-2260.796643377498
 30
0.0
 11
-2100.686792241707
 21
-2212.500352063044
 31
0.0
  0
LINE
  5
2E4
330
1F
100
AcDbEntity
  8
0-4
  6
Continuous
 62
    92
370
    13
100
AcDbLine
 10
-2123.363173143697
 20
-2127.870946405034
 30
0.0
 11
-2123.363173143697
 21
-2007.870946405034
 31
0.0
  0
LINE
  5
2E5
330
1F
100
AcDbEntity
  8
0-4
  6
Continuous
 62
    92
370
    13
100
AcDbLine
 10
-2140.683167174643
 20
-2132.511924270489
 30
0.0
 11
-2162.33277178882
 21
-2158.312918347678
 31
0.0
  0
LINE
  5
2E6
330
1F
100
AcDbEntity
  8
0-B
  6
Continuous
 62
   120
370
     5
100
AcDbLine
 10
-2023.363173143697
 20
-2160.022329837267
 30
0.0
 11
-2045.012777757874
 21
-2185.823323914456
 31
0.0
  0
LWPOLYLINE
  5
2E7
330
1F
100
AcDbEntity
  8
0-B
  6
Continuous
 62
     7
370
     9
100
AcDbPolyline
 90
        4
 70
     1
 43
2.0
 10
-2022.363173143697
 20
-2160.022329837267
 42
0.4142135623731
 10
-2023.363173143697
 20
-2159.022329837267
 42
0.4142135623731
 10
-2024.363173143697
 20
-2160.022329837267
 42
0.4142135623731
 10
-2023.363173143697
 20
-2161.022329837267
 42
0.4142135623731
  0
LWPOLYLINE
  5
2E8
330
1F
100
AcDbEntity
  8
0-B
  6
Continuous
 62
     7
370
     9
100
AcDbPolyline
 90
        4
 70
     1
 43
2.0
 10
-2044.012777757874
 20
-2185.823323914456
 42
0.4142135623731
 10
-2045.012777757874
 20
-2184.823323914456
 42
0.4142135623731
 10
-2046.012777757874
 20
-2185.823323914456
 42
0.4142135623731
 10
-2045.012777757874
 20
-2186.823323914456
 42
0.4142135623731
  0
LINE
  5
2E9
330
1F
100
AcDbEntity
  8
0-B
  6
Continuous
 62
   120
370
     5
100
AcDbLine
 10
-2023.363173143697
 20
-2160.022329837267
 30
0.0
 11
-2077.903426894633
 21
-2147.233167062442
 31
0.0
  0
LINE
  5
2EA
330
1F
100
AcDbEntity
  8
0-B
  6
Continuous
 62
   120
370
     5
100
AcDbLine
 10
-2045.012777757874
 20
-2185.823323914456
 30
0.0
 11
-2099.553031506492
 21
-2173.034161140175
 31
0.0
  0
ELLIPSE
  5
2EB
330
1F
100
AcDbEntity
  8
0-A
  6
Continuous
 62
     7
370
     9
100
AcDbEllipse
 10
-2693.925618039716
 20
-2093.360557332315
 30
0.0
 11
8.766066765101137E-15
 21
143.1654627258713
 31
0.0
210
0.0
220
0.0
230
1.0
 40
0.6
 41
3.788236129452477
 42
5.251141408901648
  0
ELLIPSE
  5
2EC
330
1F
100
AcDbEntity
  8
0-A
  6
Continuous
 62
     7
370
     9
100
AcDbEllipse
 10
-2498.98064865627
 20
-1899.151226541563
 30
0.0
 11
1.349278997723753E-14
 21
220.3612603367986
 31
0.0
210
0.0
220
0.0
230
1.0
 40
0.572771983647082
 41
1.071254151639393
 42
2.109549021627965
  0
ELLIPSE
  5
2ED
330
1F
100
AcDbEntity
  8
0-A
  6
Continuous
 62
     7
370
     9
100
AcDbEllipse
 10
-2693.925618039716
 20
-2093.360557332315
 30
0.0
 11
9.684521530467920E-15
 21
158.1654627258713
 31
0.0
210
0.0
220
0.0
230
1.0
 40
0.6379349568268203
 41
3.905093302852613
 42
5.251141408901648
  0
ELLIPSE
  5
2EE
330
1F
100
AcDbEntity
  8
0-A
  6
Continuous
 62
     7
370
     9
100
AcDbEllipse
 10
-2498.98064865627
 20
-1899.151226541563
 30
0.0
 11
1.441124474260431E-14
 21
235.3612603367986
 31
0.0
210
0.0
220
0.0
230
1.0
 40
0.6000000000000002
 41
1.105715931026258
 42
2.109549021627964
  0
LINE
  5
2EF
330
1F
100
AcDbEntity
  8
0-4
  6
Continuous
 62
    92
370
    13
100
AcDbLine
 10
-2485.170982160442
 20
-1899.118923421029
 30
0.0
 11
-2623.446298649801
 21
-1862.571841135509
 31
0.0
  0
LINE
  5
2F0
330
1F
100
AcDbEntity
  8
0-4
  6
Continuous
 62
    92
370
    13
100
AcDbLine
 10
-2440.170982160442
 20
-1873.138161307496
 30
0.0
 11
-2618.036618756494
 21
-1825.982884721298
 31
0.0
  0
LINE
  5
2F1
330
1F
100
AcDbEntity
  8
0-4
  6
Continuous
 62
    92
370
    13
100
AcDbLine
 10
-2485.170982160442
 20
-2029.118923444889
 30
0.0
 11
-2612.491603315827
 21
-1995.507142927436
 31
0.0
  0
LINE
  5
2F2
330
1F
100
AcDbEntity
  8
0-4
  6
Continuous
 62
    92
370
    13
100
AcDbLine
 10
-2467.850616978945
 20
-2069.11900594489
 30
0.0
 11
-2600.372725823236
 21
-2034.113491001754
 31
0.0
  0
LINE
  5
2F3
330
1F
100
AcDbEntity
  8
0-4
  6
Continuous
 62
    92
370
    13
100
AcDbLine
 10
-2485.170982160442
 20
-2079.118923444889
 30
0.0
 11
-2596.952095021538
 21
-2049.670941625667
 31
0.0
  0
LINE
  5
2F4
330
1F
100
AcDbEntity
  8
0-4
  6
Continuous
 62
    92
370
    13
100
AcDbLine
 10
-2485.170982160442
 20
-2199.118923444889
 30
0.0
 11
-2604.819278481482
 21
-2167.562936170867
 31
0.0
  0
LINE
  5
2F5
330
1F
100
AcDbEntity
  8
0-4
  6
Continuous
 62
    92
370
    13
100
AcDbLine
 10
-2611.981153205058
 20
-2185.64391762676
 30
0.0
 11
-2485.170982176742
 21
-2219.118923444889
 31
0.0
  0
LINE
  5
2F6
330
1F
100
AcDbEntity
  8
0-4
  6
Continuous
 62
    92
370
    13
100
AcDbLine
 10
-2632.421533619892
 20
-1822.128458400459
 30
0.0
 11
-2716.848208410683
 21
-1799.589492015857
 31
0.0
  0
LINE
  5
2F7
330
1F
100
AcDbEntity
  8
0-4
  6
Continuous
 62
    92
370
    13
100
AcDbLine
 10
-2638.09062456176
 20
-1858.647905833701
 30
0.0
 11
-2761.848208448318
 21
-1825.570254119306
 31
0.0
  0
LINE
  5
2F8
330
1F
100
AcDbEntity
  8
0-4
  6
Continuous
 62
    92
370
    13
100
AcDbLine
 10
-2628.977586856972
 20
-1991.089736951153
 30
0.0
 11
-2761.848208437986
 21
-1955.570254145935
 31
0.0
  0
LINE
  5
2F9
330
1F
100
AcDbEntity
  8
0-4
  6
Continuous
 62
    92
370
    13
100
AcDbLine
 10
-2616.998164245608
 20
-2029.658718202665
 30
0.0
 11
-2744.527843257637
 21
-1995.570336645626
 31
0.0
  0
LINE
  5
2FA
330
1F
100
AcDbEntity
  8
0-4
  6
Continuous
 62
    92
370
    13
100
AcDbLine
 10
-2612.995751662811
 20
-2045.372056784996
 30
0.0
 11
-2761.848208439134
 21
-2005.570254145626
 31
0.0
  0
LINE
  5
2FB
330
1F
100
AcDbEntity
  8
0-4
  6
Continuous
 62
    92
370
    13
100
AcDbLine
 10
-2619.119496409589
 20
-2163.731204325441
 30
0.0
 11
-2761.848208448318
 21
-2125.570254143166
 31
0.0
  0
LINE
  5
2FC
330
1F
100
AcDbEntity
  8
0-4
  6
Continuous
 62
    92
370
    13
100
AcDbLine
 10
-2722.878238643461
 20
-2156.01222608581
 30
0.0
 11
-2626.370604867589
 21
-2181.788275674258
 31
0.0
  0
ELLIPSE
  5
2FD
330
1F
100
AcDbEntity
  8
0-A
  6
Continuous
 62
     7
370
     9
100
AcDbEllipse
 10
-2354.23461367149
 20
-2098.864493831821
 30
0.0
 11
8.766066765101137E-15
 21
143.1654627258713
 31
0.0
210
0.0
220
0.0
230
1.0
 40
0.6
 41
3.788236129452477
 42
5.251141408901648
  0
ELLIPSE
  5
2FE
330
1F
100
AcDbEntity
  8
0-A
  6
Continuous
 62
     7
370
     9
100
AcDbEllipse
 10
-2159.289644288042
 20
-1904.655163041069
 30
0.0
 11
1.349278997723753E-14
 21
220.3612603367986
 31
0.0
210
0.0
220
0.0
230
1.0
 40
0.572771983647082
 41
1.071254151639393
 42
2.109549021627965
  0
ELLIPSE
  5
2FF
330
1F
100
AcDbEntity
  8
0-A
  6
Continuous
 62
     7
370
     9
100
AcDbEllipse
 10
-2354.23461367149
 20
-2098.864493831821
 30
0.0
 11
9.684521530467920E-15
 21
158.1654627258713
 31
0.0
210
0.0
220
0.0
230
1.0
 40
0.6379349568268203
 41
3.905093302852613
 42
5.251141408901648
  0
ELLIPSE
  5
300
330
1F
100
AcDbEntity
  8
0-A
  6
Continuous
 62
     7
370
     9
100
AcDbEllipse
 10
-2159.289644288042
 20
-1904.655163041069
 30
0.0
 11
1.441124474260431E-14
 21
235.3612603367986
 31
0.0
210
0.0
220
0.0
230
1.0
 40
0.6000000000000002
 41
1.105715931026258
 42
2.109549021627964
  0
LINE
  5
301
330
1F
100
AcDbEntity
  8
0-4
  6
Continuous
 62
    92
370
    13
100
AcDbLine
 10
-2440.170982160442
 20
-1873.138161307496
 30
0.0
 11
-2294.537025392088
 21
-1836.948316662845
 31
0.0
  0
LINE
  5
302
330
1F
100
AcDbEntity
  8
0-4
  6
Continuous
 62
    92
370
    13
100
AcDbLine
 10
-2395.170982160442
 20
-1899.118923421029
 30
0.0
 11
-2299.478620297668
 21
-1876.310888800051
 31
0.0
  0
LINE
  5
303
330
1F
100
AcDbEntity
  8
0-4
  6
Continuous
 62
    92
370
    13
100
AcDbLine
 10
-2395.170982160442
 20
-2029.118923444889
 30
0.0
 11
-2287.555508739212
 21
-2003.116100710556
 31
0.0
  0
LINE
  5
304
330
1F
100
AcDbEntity
  8
0-4
  6
Continuous
 62
    92
370
    13
100
AcDbLine
 10
-2412.491347341939
 20
-2069.11900594489
 30
0.0
 11
-2277.151512444438
 21
-2035.68746294232
 31
0.0
  0
LINE
  5
305
330
1F
100
AcDbEntity
  8
0-4
  6
Continuous
 62
    92
370
    13
100
AcDbLine
 10
-2395.170982160442
 20
-2079.118923444889
 30
0.0
 11
-2273.628742564069
 21
-2049.384434960749
 31
0.0
  0
LINE
  5
306
330
1F
100
AcDbEntity
  8
0-4
  6
Continuous
 62
    92
370
    13
100
AcDbLine
 10
-2395.170982160442
 20
-2199.118923444889
 30
0.0
 11
-2280.075296173189
 21
-2171.111783794277
 31
0.0
  0
LINE
  5
307
330
1F
100
AcDbEntity
  8
0-4
  6
Continuous
 62
    92
370
    13
100
AcDbLine
 10
-2289.909494034388
 20
-2193.746948625712
 30
0.0
 11
-2395.170610984408
 21
-2219.118923444889
 31
0.0
  0
LINE
  5
308
330
1F
100
AcDbEntity
  8
0-4
  6
Continuous
 62
    92
370
    13
100
AcDbLine
 10
-2278.5826696453
 20
-1832.673359924735
 30
0.0
 11
-2168.363173181333
 21
-1801.890184277725
 31
0.0
  0
LINE
  5
309
330
1F
100
AcDbEntity
  8
0-4
  6
Continuous
 62
    92
370
    13
100
AcDbLine
 10
-2284.129801303937
 20
-1872.198185145909
 30
0.0
 11
-2123.363173143697
 21
-1827.870946381174
 31
0.0
  0
LINE
  5
30A
330
1F
100
AcDbEntity
  8
0-4
  6
Continuous
 62
    92
370
    13
100
AcDbLine
 10
-2273.274740322517
 20
-1999.289580346007
 30
0.0
 11
-2123.363173143697
 21
-1957.870946405034
 31
0.0
  0
LINE
  5
30B
330
1F
100
AcDbEntity
  8
0-4
  6
Continuous
 62
    92
370
    13
100
AcDbLine
 10
-2262.838997487932
 20
-2031.852436118066
 30
0.0
 11
-2140.683538334378
 21
-1997.871028907495
 31
0.0
  0
LINE
  5
30C
330
1F
100
AcDbEntity
  8
0-4
  6
Continuous
 62
    92
370
    13
100
AcDbLine
 10
-2259.244885053967
 20
-2045.530291956873
 30
0.0
 11
-2123.363173143697
 21
-2007.870946405034
 31
0.0
  0
LINE
  5
30D
330
1F
100
AcDbEntity
  8
0-4
  6
Continuous
 62
    92
370
    13
100
AcDbLine
 10
-2263.040359682312
 20
-2166.547286318431
 30
0.0
 11
-2123.363173143697
 21
-2127.870946405034
 31
0.0
  0
LINE
  5
30E
330
1F
100
AcDbEntity
  8
0-4
  6
Continuous
 62
    92
370
    13
100
AcDbLine
 10
-2162.33277178882
 20
-2158.312918347678
 30
0.0
 11
-2271.206124036942
 21
-2188.735395739155
 31
0.0
  0
MTEXT
  5
30F
330
1F
100
AcDbEntity
  8
0-A
  6
Continuous
 62
     7
370
     9
100
AcDbMText
 10
-3923.333084448675
 20
-1962.559505320321
 30
0.0
 40
60.96
 41
560.0
 46
0.0
 71
     7
 72
     1
  1
{\fＭＳ ゴシック|b0|i0|c128|p49;コーナー廻り縁}
 73
     1
 44
1.0
  0
MTEXT
  5
310
330
1F
100
AcDbEntity
  8
0-A
  6
Continuous
 62
     7
370
     9
100
AcDbMText
 10
-3843.333084448675
 20
-2068.161280140066
 30
0.0
 40
60.96
 41
400.0
 46
0.0
 71
     7
 72
     1
  1
{\fＭＳ ゴシック|b0|i0|c128|p49;（出隅用）}
 73
     1
 44
1.0
  0
MTEXT
  5
311
330
1F
100
AcDbEntity
  8
0-A
  6
Continuous
 62
     7
370
     9
100
AcDbMText
 10
-3803.333084448675
 20
-2192.558540679282
 30
0.0
 40
60.96
 41
320.0
 46
0.0
 71
     7
 72
     1
  1
{\fＭＳ ゴシック|b0|i0|c128|p49;Ｐ型対応}
 73
     1
 44
1.0
  0
MTEXT
  5
312
330
1F
100
AcDbEntity
  8
0-A
  6
Continuous
 62
     7
370
     9
100
AcDbMText
 10
-3953.333084448675
 20
-912.9206856958102
 30
0.0
 40
67.49142857142857
 41
620.0
 46
0.0
 71
     7
 72
     1
  1
{\fＭＳ ゴシック|b0|i0|c128|p49;コーナー廻り縁}
 73
     1
 44
1.0
  0
MTEXT
  5
313
330
1F
100
AcDbEntity
  8
0-A
  6
Continuous
 62
     7
370
     9
100
AcDbMText
 10
-3810.19224306616
 20
-1233.654430162058
 30
0.0
 40
66.675
 41
350.0
 46
0.0
 71
     7
 72
     1
  1
{\fＭＳ ゴシック|b0|i0|c128|p49;Ｐ型対応}
 73
     1
 44
1.0
  0
MTEXT
  5
314
330
1F
100
AcDbEntity
  8
0-A
  6
Continuous
 62
     7
370
     9
100
AcDbMText
 10
-3954.079416386178
 20
-1072.648542838667
 30
0.0
 40
68.03571428571428
 41
625.0
 46
0.0
 71
     7
 72
     1
  1
{\fＭＳ ゴシック|b0|i0|c128|p49;１５Ｒ(出隅用)}
 73
     1
 44
1.0
  0
MTEXT
  5
315
330
1F
100
AcDbEntity
  8
0-A
  6
Continuous
 62
     7
370
     9
100
AcDbMText
 10
-1468.333220610748
 20
-613.8065237014354
 30
0.0
 40
45.72
 41
330.0
 46
0.0
 71
     7
 72
     1
  1
{\fＭＳ ゴシック|b0|i0|c128|p49;100×100×9}
 73
     1
 44
1.0
  0
MTEXT
  5
316
330
1F
100
AcDbEntity
  8
0-A
  6
Continuous
 62
     7
370
     9
100
AcDbMText
 10
-1468.333220610748
 20
-1613.8068536212
 30
0.0
 40
45.72
 41
330.0
 46
0.0
 71
     7
 72
     1
  1
{\fＭＳ ゴシック|b0|i0|c128|p49;100×100×9}
 73
     1
 44
1.0
  0
MTEXT
  5
317
330
1F
100
AcDbEntity
  8
0-B
  6
Continuous
 62
     7
370
   211
100
AcDbMText
 10
-3151.936600782711
 20
-759.0308766506615
 30
0.0
 40
45.72
 41
30.0
 46
0.0
 71
     7
 72
     1
  1
{\fＭＳ ゴシック|b0|i0|c128|p49;9}
 73
     1
 44
1.0
  0
MTEXT
  5
318
330
1F
100
AcDbEntity
  8
0-B
  6
Continuous
 62
     7
370
   211
100
AcDbMText
 10
-1774.730591006246
 20
-759.0308766506615
 30
0.0
 40
45.72
 41
30.0
 46
0.0
 71
     7
 72
     1
  1
{\fＭＳ ゴシック|b0|i0|c128|p49;9}
 73
     1
 44
1.0
  0
MTEXT
  5
319
330
1F
100
AcDbEntity
  8
0-B
  6
Continuous
 62
     7
370
     9
100
AcDbMText
 10
-2437.015296008686
 20
-851.9575700743127
 30
0.0
 40
45.72
 41
90.0
 46
0.0
 71
     7
 72
     1
  1
{\fＭＳ ゴシック|b0|i0|c128|p49;R15}
 73
     1
 44
1.0
  0
MTEXT
  5
31A
330
1F
100
AcDbEntity
  8
0-B
  6
Continuous
 62
     7
370
   211
100
AcDbMText
 10
-1692.670982160442
 20
-916.1406362545745
 30
0.0
 40
45.72
 41
60.0
 46
0.0
 71
     7
 72
     1
  1
{\fＭＳ ゴシック|b0|i0|c128|p49;13}
 73
     1
 44
1.0
  0
MTEXT
  5
31B
330
1F
100
AcDbEntity
  8
0-B
  6
Continuous
 62
     7
370
   211
100
AcDbMText
 10
-3203.333595885295
 20
-984.8462884430114
 30
0.0
 40
45.72
 41
60.0
 46
0.0
 71
     7
 72
     1
  1
{\fＭＳ ゴシック|b0|i0|c128|p49;30}
 11
6.123031769111886E-17
 21
1.0
 31
0.0
 73
     1
 44
1.0
  0
MTEXT
  5
31C
330
1F
100
AcDbEntity
  8
0-B
  6
Continuous
 62
     7
370
   211
100
AcDbMText
 10
-1679.989770859422
 20
-1011.431618252105
 30
0.0
 40
45.72
 41
30.0
 46
0.0
 71
     7
 72
     1
  1
{\fＭＳ ゴシック|b0|i0|c128|p49;5}
 73
     1
 44
1.0
  0
MTEXT
  5
31D
330
1F
100
AcDbEntity
  8
0-B
  6
Continuous
 62
     7
370
   211
100
AcDbMText
 10
-1692.670982160442
 20
-1084.846247184158
 30
0.0
 40
45.72
 41
60.0
 46
0.0
 71
     7
 72
     1
  1
{\fＭＳ ゴシック|b0|i0|c128|p49;12}
 73
     1
 44
1.0
  0
MTEXT
  5
31E
330
1F
100
AcDbEntity
  8
0-B
  6
Continuous
 62
     7
370
     9
100
AcDbMText
 10
-2982.165862047752
 20
-1350.628271885348
 30
0.0
 40
45.72
 41
90.0
 46
0.0
 71
     7
 72
     1
  1
{\fＭＳ ゴシック|b0|i0|c128|p49;100}
 73
     1
 44
1.0
  0
MTEXT
  5
31F
330
1F
100
AcDbEntity
  8
0-B
  6
Continuous
 62
     7
370
     9
100
AcDbMText
 10
-2047.081386903837
 20
-1350.628271885348
 30
0.0
 40
45.72
 41
90.0
 46
0.0
 71
     7
 72
     1
  1
{\fＭＳ ゴシック|b0|i0|c128|p49;100}
 73
     1
 44
1.0
  0
MTEXT
  5
320
330
1F
100
AcDbEntity
  8
0-B
  6
Continuous
 62
     7
370
   211
100
AcDbMText
 10
-2120.863173181333
 20
-1782.738533031737
 30
0.0
 40
45.72
 41
30.0
 46
0.0
 71
     7
 72
     1
  1
{\fＭＳ ゴシック|b0|i0|c128|p49;9}
 73
     1
 44
1.0
  0
MTEXT
  5
321
330
1F
100
AcDbEntity
  8
0-B
  6
Continuous
 62
     7
370
   211
100
AcDbMText
 10
-2020.863173143697
 20
-1946.305294214751
 30
0.0
 40
45.72
 41
60.0
 46
0.0
 71
     7
 72
     1
  1
{\fＭＳ ゴシック|b0|i0|c128|p49;13}
 73
     1
 44
1.0
  0
MTEXT
  5
322
330
1F
100
AcDbEntity
  8
0-B
  6
Continuous
 62
     7
370
   211
100
AcDbMText
 10
-2871.848208439134
 20
-2012.710254131236
 30
0.0
 40
45.72
 41
60.0
 46
0.0
 71
     7
 72
     1
  1
{\fＭＳ ゴシック|b0|i0|c128|p49;30}
 11
6.123031769111886E-17
 21
1.0
 31
0.0
 73
     1
 44
1.0
  0
MTEXT
  5
323
330
1F
100
AcDbEntity
  8
0-B
  6
Continuous
 62
     7
370
   211
100
AcDbMText
 10
-2000.01934810864
 20
-2041.596276212282
 30
0.0
 40
45.72
 41
30.0
 46
0.0
 71
     7
 72
     1
  1
{\fＭＳ ゴシック|b0|i0|c128|p49;5}
 73
     1
 44
1.0
  0
MTEXT
  5
324
330
1F
100
AcDbEntity
  8
0-B
  6
Continuous
 62
     7
370
   211
100
AcDbMText
 10
-2020.863173143697
 20
-2115.010905144334
 30
0.0
 40
45.72
 41
60.0
 46
0.0
 71
     7
 72
     1
  1
{\fＭＳ ゴシック|b0|i0|c128|p49;12}
 73
     1
 44
1.0
  0
MTEXT
  5
325
330
1F
100
AcDbEntity
  8
0-B
  6
Continuous
 62
     7
370
   211
100
AcDbMText
 10
-2022.143405859832
 20
-2216.531448153437
 30
0.0
 40
45.72
 41
30.0
 46
0.0
 71
     7
 72
     1
  1
{\fＭＳ ゴシック|b0|i0|c128|p49;3}
 73
     1
 44
1.0
  0
MTEXT
  5
326
330
1F
100
AcDbEntity
  8
0-B
  6
Continuous
 62
     7
370
   211
100
AcDbMText
 10
-2719.155380768436
 20
-2358.482463553599
 30
0.0
 40
45.72000000000013
 41
90.00000000000026
 46
0.0
 71
     7
 72
     1
  1
{\fＭＳ ゴシック|b0|i0|c128|p49;100}
 11
0.9659258262890665
 21
-0.2588190451025276
 31
0.0
 73
     1
 44
1.0
  0
MTEXT
  5
327
330
1F
100
AcDbEntity
  8
0-B
  6
Continuous
 62
     7
370
   211
100
AcDbMText
 10
-2235.895501224505
 20
-2376.944723862903
 30
0.0
 40
45.71999999999986
 41
89.99999999999972
 46
0.0
 71
     7
 72
     1
  1
{\fＭＳ ゴシック|b0|i0|c128|p49;100}
 11
0.9659258262890661
 21
0.2588190451025294
 31
0.0
 73
     1
 44
1.0
  0
LINE
  5
328
330
1F
100
AcDbEntity
  8
F-1
  6
JWW_DASHED1
 62
     7
370
     9
100
AcDbLine
 10
-103.3338392103036
 20
1273.333146378801
 30
0.0
 11
-1603.333839210304
 21
1273.333146378801
 31
0.0
  0
LINE
  5
329
330
1F
100
AcDbEntity
  8
F-1
  6
JWW_DASHED1
 62
     7
370
     9
100
AcDbLine
 10
-103.3338392103036
 20
1373.332981418919
 30
0.0
 11
-1603.333839210304
 21
1373.332981418919
 31
0.0
  0
LINE
  5
32A
330
1F
100
AcDbEntity
  8
0-4
  6
Continuous
 62
    92
370
    13
100
AcDbLine
 10
1203.981504314259
 20
1866.658274909789
 30
0.0
 11
1203.981504314259
 21
2067.469082346418
 31
0.0
  0
LINE
  5
32B
330
1F
100
AcDbEntity
  8
0-4
  6
Continuous
 62
    92
370
    13
100
AcDbLine
 10
1503.981504314259
 20
2266.658274909789
 30
0.0
 11
1347.840365610027
 21
2266.658274909789
 31
0.0
  0
LINE
  5
32C
330
1F
100
AcDbEntity
  8
0-4
  6
Continuous
 62
    92
370
    13
100
AcDbLine
 10
1203.981504314259
 20
2067.469082346418
 30
0.0
 11
1347.840365610027
 21
2266.658274909789
 31
0.0
  0
LINE
  5
32D
330
1F
100
AcDbEntity
  8
0-B
  6
Continuous
 62
   120
370
     5
100
AcDbLine
 10
1203.981504314259
 20
1666.658274909789
 30
0.0
 11
1503.981504314259
 21
1666.658274909789
 31
0.0
  0
LWPOLYLINE
  5
32E
330
1F
100
AcDbEntity
  8
0-B
  6
Continuous
 62
     7
370
     9
100
AcDbPolyline
 90
        4
 70
     1
 43
2.0
 10
1204.981504314259
 20
1666.658274909789
 42
0.4142135623731
 10
1203.981504314259
 20
1667.658274909789
 42
0.4142135623731
 10
1202.981504314259
 20
1666.658274909789
 42
0.4142135623731
 10
1203.981504314259
 20
1665.658274909789
 42
0.4142135623731
  0
LWPOLYLINE
  5
32F
330
1F
100
AcDbEntity
  8
0-B
  6
Continuous
 62
     7
370
     9
100
AcDbPolyline
 90
        4
 70
     1
 43
2.0
 10
1504.981504314259
 20
1666.658274909789
 42
0.4142135623731
 10
1503.981504314259
 20
1667.658274909789
 42
0.4142135623731
 10
1502.981504314259
 20
1666.658274909789
 42
0.4142135623731
 10
1503.981504314259
 20
1665.658274909789
 42
0.4142135623731
  0
LINE
  5
330
330
1F
100
AcDbEntity
  8
0-B
  6
Continuous
 62
   120
370
     5
100
AcDbLine
 10
1203.981504314259
 20
1666.658274909789
 30
0.0
 11
1203.981504314259
 21
1766.658274909789
 31
0.0
  0
LINE
  5
331
330
1F
100
AcDbEntity
  8
0-B
  6
Continuous
 62
   120
370
     5
100
AcDbLine
 10
1503.981504314259
 20
1666.658274909789
 30
0.0
 11
1503.981504314259
 21
1766.658274909789
 31
0.0
  0
LINE
  5
332
330
1F
100
AcDbEntity
  8
0-B
  6
Continuous
 62
   120
370
     5
100
AcDbLine
 10
1703.981504314259
 20
2266.658274909789
 30
0.0
 11
1703.981504314259
 21
1866.658274909789
 31
0.0
  0
LWPOLYLINE
  5
333
330
1F
100
AcDbEntity
  8
0-B
  6
Continuous
 62
     7
370
     9
100
AcDbPolyline
 90
        4
 70
     1
 43
2.0
 10
1704.981504314259
 20
2266.658274909789
 42
0.4142135623731
 10
1703.981504314259
 20
2267.658274909789
 42
0.4142135623731
 10
1702.981504314259
 20
2266.658274909789
 42
0.4142135623731
 10
1703.981504314259
 20
2265.658274909789
 42
0.4142135623731
  0
LWPOLYLINE
  5
334
330
1F
100
AcDbEntity
  8
0-B
  6
Continuous
 62
     7
370
     9
100
AcDbPolyline
 90
        4
 70
     1
 43
2.0
 10
1704.981504314259
 20
1866.658274909789
 42
0.4142135623731
 10
1703.981504314259
 20
1867.658274909789
 42
0.4142135623731
 10
1702.981504314259
 20
1866.658274909789
 42
0.4142135623731
 10
1703.981504314259
 20
1865.658274909789
 42
0.4142135623731
  0
LINE
  5
335
330
1F
100
AcDbEntity
  8
0-B
  6
Continuous
 62
   120
370
     5
100
AcDbLine
 10
1703.981504314259
 20
2266.658274909789
 30
0.0
 11
1603.981504314259
 21
2266.658274909789
 31
0.0
  0
LINE
  5
336
330
1F
100
AcDbEntity
  8
0-B
  6
Continuous
 62
   120
370
     5
100
AcDbLine
 10
1703.981504314259
 20
1866.658274909789
 30
0.0
 11
1603.981504314259
 21
1866.658274909789
 31
0.0
  0
LINE
  5
337
330
1F
100
AcDbEntity
  8
0-0
  6
JWW_HOJO
 62
   120
370
     5
100
AcDbLine
 10
1203.981504314259
 20
1866.658274909789
 30
0.0
 11
1203.981504314259
 21
1666.658274909789
 31
0.0
  0
LINE
  5
338
330
1F
100
AcDbEntity
  8
0-0
  6
JWW_HOJO
 62
   120
370
     5
100
AcDbLine
 10
1503.981504314259
 20
2266.658274909789
 30
0.0
 11
1703.981504314259
 21
2266.658274909789
 31
0.0
  0
LINE
  5
339
330
1F
100
AcDbEntity
  8
0-0
  6
JWW_HOJO
 62
   120
370
     5
100
AcDbLine
 10
1203.981504314259
 20
1766.658274909789
 30
0.0
 11
1603.981504314259
 21
1766.658274909789
 31
0.0
  0
LINE
  5
33A
330
1F
100
AcDbEntity
  8
0-0
  6
JWW_HOJO
 62
   120
370
     5
100
AcDbLine
 10
1603.981504314259
 20
1766.658274909789
 30
0.0
 11
1603.981504314259
 21
2266.658274909789
 31
0.0
  0
LINE
  5
33B
330
1F
100
AcDbEntity
  8
0-0
  6
JWW_HOJO
 62
   120
370
     5
100
AcDbLine
 10
1703.981504314259
 20
1666.658274909789
 30
0.0
 11
1703.981504314259
 21
2266.658274909789
 31
0.0
  0
LINE
  5
33C
330
1F
100
AcDbEntity
  8
0-0
  6
JWW_HOJO
 62
   120
370
     5
100
AcDbLine
 10
1203.981504314259
 20
1666.658274909789
 30
0.0
 11
1703.981504314259
 21
1666.658274909789
 31
0.0
  0
LINE
  5
33D
330
1F
100
AcDbEntity
  8
0-4
  6
Continuous
 62
    92
370
    13
100
AcDbLine
 10
1498.981504314259
 20
2240.960064703992
 30
0.0
 11
1498.981504314259
 21
2266.658274909789
 31
0.0
  0
ARC
  5
33E
330
1F
100
AcDbEntity
  8
0-4
  6
Continuous
 62
    92
370
    13
100
AcDbCircle
 10
1249.963204122974
 20
1974.185256610988
 30
0.0
 40
50.0
100
AcDbArc
 50
296.752939385355
 51
65.47227951990658
  0
ARC
  5
33F
330
1F
100
AcDbEntity
  8
0-4
  6
Continuous
 62
    92
370
    13
100
AcDbCircle
 10
1249.963204122974
 20
1974.185256610988
 30
0.0
 40
45.0
100
AcDbArc
 50
296.7529393853549
 51
73.6335676802124
  0
LINE
  5
340
330
1F
100
AcDbEntity
  8
0-4
  6
Continuous
 62
    92
370
    13
100
AcDbLine
 10
1294.55056168453
 20
2053.001292704816
 30
0.0
 11
1271.130939530756
 21
2020.574123568821
 31
0.0
  0
LINE
  5
341
330
1F
100
AcDbEntity
  8
0-4
  6
Continuous
 62
    92
370
    13
100
AcDbLine
 10
1292.449135565526
 20
2058.631473198186
 30
0.0
 11
1262.643276153617
 21
2017.361821704772
 31
0.0
  0
ARC
  5
342
330
1F
100
AcDbEntity
  8
0-4
  6
Continuous
 62
    92
370
    13
100
AcDbCircle
 10
1303.98051436398
 20
1867.030554454121
 30
0.0
 40
75.0
100
AcDbArc
 50
116.7529393853545
 51
180.2844017904083
  0
ARC
  5
343
330
1F
100
AcDbEntity
  8
0-4
  6
Continuous
 62
    92
370
    13
100
AcDbCircle
 10
1303.98051436398
 20
1867.030554454121
 30
0.0
 40
70.0
100
AcDbArc
 50
116.7529393853545
 51
180.3047163891534
  0
LINE
  5
344
330
1F
100
AcDbEntity
  8
0-4
  6
Continuous
 62
    92
370
    13
100
AcDbLine
 10
1203.981504314259
 20
1866.658274909789
 30
0.0
 11
1233.981504314259
 21
1866.658274909789
 31
0.0
  0
ARC
  5
345
330
1F
100
AcDbEntity
  8
0-4
  6
Continuous
 62
    92
370
    13
100
AcDbCircle
 10
1498.981504314259
 20
2150.960064703992
 30
0.0
 40
90.0
100
AcDbArc
 50
90.0
 51
188.3009919672361
  0
ARC
  5
346
330
1F
100
AcDbEntity
  8
0-4
  6
Continuous
 62
    92
370
    13
100
AcDbCircle
 10
1315.784488182003
 20
2150.720893428007
 30
0.0
 40
95.0
100
AcDbArc
 50
255.7806194678796
 51
352.2843336756177
  0
ARC
  5
347
330
1F
100
AcDbEntity
  8
0-4
  6
Continuous
 62
    92
370
    13
100
AcDbCircle
 10
1315.784488182003
 20
2150.720893428007
 30
0.0
 40
100.0
100
AcDbArc
 50
257.7405255239233
 51
353.0762638892818
  0
LINE
  5
348
330
1F
100
AcDbEntity
  8
0-4
  6
Continuous
 62
    92
370
    13
100
AcDbLine
 10
1503.981504314259
 20
2266.658274909789
 30
0.0
 11
1503.981504314259
 21
2236.658274909789
 31
0.0
  0
ARC
  5
349
330
1F
100
AcDbEntity
  8
0-4
  6
Continuous
 62
    92
370
    13
100
AcDbCircle
 10
1498.981504314259
 20
2150.960064703992
 30
0.0
 40
85.0
100
AcDbArc
 50
86.66090463350815
 51
188.3009919672361
  0
MTEXT
  5
34A
330
1F
100
AcDbEntity
  8
0-A
  6
Continuous
 62
     7
370
     9
100
AcDbMText
 10
123.3332825408735
 20
2007.078823795187
 30
0.0
 40
66.04
 41
260.0
 46
0.0
 71
     7
 72
     1
  1
{\fＭＳ ゴシック|b0|i0|c128|p49;廻り縁}
 73
     1
 44
1.0
  0
MTEXT
  5
34B
330
1F
100
AcDbEntity
  8
0-A
  6
Continuous
 62
     7
370
     9
100
AcDbMText
 10
123.3332825408735
 20
1847.078823795187
 30
0.0
 40
66.04
 41
260.0
 46
0.0
 71
     7
 72
     1
  1
{\fＭＳ ゴシック|b0|i0|c128|p49;Ｑ　型}
 73
     1
 44
1.0
  0
MTEXT
  5
34C
330
1F
100
AcDbEntity
  8
0-B
  6
Continuous
 62
     7
370
   211
100
AcDbMText
 10
1693.981504314259
 20
2029.518274909789
 30
0.0
 40
45.72
 41
60.0
 46
0.0
 71
     7
 72
     1
  1
{\fＭＳ ゴシック|b0|i0|c128|p49;40}
 11
6.123031769111886E-17
 21
1.0
 31
0.0
 73
     1
 44
1.0
  0
MTEXT
  5
34D
330
1F
100
AcDbEntity
  8
0-B
  6
Continuous
 62
     7
370
   211
100
AcDbMText
 10
1323.981504314259
 20
1669.518274909789
 30
0.0
 40
45.72
 41
60.0
 46
0.0
 71
     7
 72
     1
  1
{\fＭＳ ゴシック|b0|i0|c128|p49;30}
 73
     1
 44
1.0
  0
MTEXT
  5
34E
330
1F
100
AcDbEntity
  8
0-A
  6
Continuous
 62
     7
370
     9
100
AcDbMText
 10
2398.332527779244
 20
2336.193558778505
 30
0.0
 40
45.71999999999999
 41
390.0
 46
0.0
 71
     7
 72
     1
  1
{\fＭＳ ゴシック|b0|i0|c128|p49;3,900×40×30}
 73
     1
 44
1.0
  0
MTEXT
  5
34F
330
1F
100
AcDbEntity
  8
0-A
  6
Continuous
 62
     7
370
     9
100
AcDbMText
 10
3618.332527779245
 20
2386.193476298565
 30
0.0
 40
45.72
 41
30.0
 46
0.0
 71
     7
 72
     1
  1
{\fＭＳ ゴシック|b0|i0|c128|p49;6}
 73
     1
 44
1.0
  0
MTEXT
  5
350
330
1F
100
AcDbEntity
  8
0-A
  6
Continuous
 62
     7
370
     9
100
AcDbMText
 10
3618.332527779245
 20
2286.193393818623
 30
0.0
 40
45.72
 41
30.0
 46
0.0
 71
     7
 72
     1
  1
{\fＭＳ ゴシック|b0|i0|c128|p49;1}
 73
     1
 44
1.0
  0
LINE
  5
351
330
1F
100
AcDbEntity
  8
F-1
  6
JWW_DASHED1
 62
     7
370
     9
100
AcDbLine
 10
3799.999175200592
 20
2373.333311338683
 30
0.0
 11
2893.333146378801
 21
2373.333311338683
 31
0.0
  0
LINE
  5
352
330
1F
100
AcDbEntity
  8
F-1
  6
JWW_DASHED1
 62
     7
370
     9
100
AcDbLine
 10
-103.3338392103036
 20
2273.332981418919
 30
0.0
 11
-1003.333839210304
 21
2273.332981418919
 31
0.0
  0
LINE
  5
353
330
1F
100
AcDbEntity
  8
F-1
  6
Continuous
 62
     7
370
     9
100
AcDbLine
 10
3799.999175200592
 20
-526.6666061813766
 30
0.0
 11
-96.66731550886823
 21
-526.6666061813766
 31
0.0
  0
LINE
  5
354
330
1F
100
AcDbEntity
  8
F-1
  6
Continuous
 62
     7
370
     9
100
AcDbLine
 10
-96.66731550886823
 20
473.3332288587417
 30
0.0
 11
-3293.333352578653
 21
473.3332288587417
 31
0.0
  0
MTEXT
  5
355
330
1F
100
AcDbEntity
  8
F-A
  6
Continuous
 62
     7
370
     0
100
AcDbMText
 10
3150.832751019777
 20
-2625.380673426644
 30
0.0
 40
52.57799999999999
 41
345.0
 46
0.0
 71
     7
 72
     1
  1
{\fＭＳ ゴシック|b0|i0|c128|p49;2021.04.01}
 73
     1
 44
1.0
  0
MTEXT
  5
356
330
1F
100
AcDbEntity
  8
0-A
  6
Continuous
 62
     7
370
     9
100
AcDbMText
 10
-963.3338392103042
 20
2386.193476298564
 30
0.0
 40
45.71999999999999
 41
390.0
 46
0.0
 71
     7
 72
     1
  1
{\fＭＳ ゴシック|b0|i0|c128|p49;ＤＩＢＰ13-□}
 73
     1
 44
1.0
  0
MTEXT
  5
357
330
1F
100
AcDbEntity
  8
0-A
  6
Continuous
 62
     7
370
     9
100
AcDbMText
 10
-963.3338392103042
 20
2286.193270098712
 30
0.0
 40
45.71999999999999
 41
390.0
 46
0.0
 71
     7
 72
     1
  1
{\fＭＳ ゴシック|b0|i0|c128|p49;ＤＩＢＰ63-□}
 73
     1
 44
1.0
  0
MTEXT
  5
358
330
1F
100
AcDbEntity
  8
0-A
  6
Continuous
 62
     7
370
     9
100
AcDbMText
 10
-963.3338392103042
 20
2186.193311338683
 30
0.0
 40
45.71999999999999
 41
390.0
 46
0.0
 71
     7
 72
     1
  1
{\fＭＳ ゴシック|b0|i0|c128|p49;ＤＩＢＰ03-□}
 73
     1
 44
1.0
  0
MTEXT
  5
359
330
1F
100
AcDbEntity
  8
0-A
  6
Continuous
 62
     7
370
     9
100
AcDbMText
 10
-290.0002061998515
 20
2086.193228858741
 30
0.0
 40
45.72
 41
60.0
 46
0.0
 71
     7
 72
     1
  1
{\fＭＳ ゴシック|b0|i0|c128|p49;10}
 73
     1
 44
1.0
  0
MTEXT
  5
35A
330
1F
100
AcDbEntity
  8
0-A
  6
Continuous
 62
     7
370
     9
100
AcDbMText
 10
-1483.333220610748
 20
2086.192733979096
 30
0.0
 40
45.72
 41
360.0
 46
0.0
 71
     7
 72
     1
  1
{\fＭＳ ゴシック|b0|i0|c128|p49;1,900×30×9}
 73
     1
 44
1.0
  0
MTEXT
  5
35B
330
1F
100
AcDbEntity
  8
0-A
  6
Continuous
 62
     7
370
     9
100
AcDbMText
 10
-963.3332206107474
 20
2086.192981418919
 30
0.0
 40
45.71999999999999
 41
390.0
 46
0.0
 71
     7
 72
     1
  1
{\fＭＳ ゴシック|b0|i0|c128|p49;ＤＩＢＰ12-□}
 73
     1
 44
1.0
  0
MTEXT
  5
35C
330
1F
100
AcDbEntity
  8
0-A
  6
Continuous
 62
     7
370
     9
100
AcDbMText
 10
2933.332527779244
 20
2386.193476298565
 30
0.0
 40
45.71999999999999
 41
390.0
 46
0.0
 71
     7
 72
     1
  1
{\fＭＳ ゴシック|b0|i0|c128|p49;ＤＩＢＱ63-□}
 73
     1
 44
1.0
  0
MTEXT
  5
35D
330
1F
100
AcDbEntity
  8
0-A
  6
Continuous
 62
     7
370
     9
100
AcDbMText
 10
2933.332527779244
 20
2286.193393818623
 30
0.0
 40
45.71999999999999
 41
390.0
 46
0.0
 71
     7
 72
     1
  1
{\fＭＳ ゴシック|b0|i0|c128|p49;ＤＩＢＱ03-□}
 73
     1
 44
1.0
  0
MTEXT
  5
35E
330
1F
100
AcDbEntity
  8
0-A
  6
Continuous
 62
     7
370
     9
100
AcDbMText
 10
-963.3332206107474
 20
1386.193146378801
 30
0.0
 40
45.71999999999999
 41
450.0
 46
0.0
 71
     7
 72
     1
  1
{\fＭＳ ゴシック|b0|i0|c128|p49;ＤＱＢＤＰ10-□}
 73
     1
 44
1.0
  0
MTEXT
  5
35F
330
1F
100
AcDbEntity
  8
0-A
  6
Continuous
 62
     7
370
     9
100
AcDbMText
 10
-963.3332206107474
 20
386.1930638988602
 30
0.0
 40
45.71999999999999
 41
450.0
 46
0.0
 71
     7
 72
     1
  1
{\fＭＳ ゴシック|b0|i0|c128|p49;ＤＱＢＩＰ20-□}
 73
     1
 44
1.0
  0
MTEXT
  5
360
330
1F
100
AcDbEntity
  8
0-A
  6
Continuous
 62
     7
370
     9
100
AcDbMText
 10
-963.3338392103042
 20
-613.8065237014354
 30
0.0
 40
45.71999999999999
 41
419.9999999999999
 46
0.0
 71
     7
 72
     1
  1
{\fＭＳ ゴシック|b0|i0|c128|p49;ＤＱＢＰ1Ｒ-□}
 73
     1
 44
1.0
  0
MTEXT
  5
361
330
1F
100
AcDbEntity
  8
0-A
  6
Continuous
 62
     7
370
     9
100
AcDbMText
 10
-963.3332206107474
 20
-1613.8068536212
 30
0.0
 40
45.71999999999999
 41
390.0
 46
0.0
 71
     7
 72
     1
  1
{\fＭＳ ゴシック|b0|i0|c128|p49;ＤＱＢＰ11-□}
 73
     1
 44
1.0
  0
ENDSEC
  0
SECTION
  2
OBJECTS
  0
DICTIONARY
  5
C
330
0
100
AcDbDictionary
281
     1
  3
ACAD_GROUP
350
D
  3
ACAD_LAYOUT
350
1A
  3
ACAD_MATERIAL
350
3B
  3
ACAD_MLEADERSTYLE
350
363
  3
ACAD_MLINESTYLE
350
17
  3
ACAD_PLOTSETTINGS
350
19
  3
ACAD_PLOTSTYLENAME
350
E
  3
ACAD_TABLESTYLE
350
362
  3
ACAD_VISUALSTYLE
350
2A
  0
DICTIONARY
  5
D
102
{ACAD_REACTORS
330
C
102
}
330
C
100
AcDbDictionary
281
     1
  0
DICTIONARY
  5
1A
102
{ACAD_REACTORS
330
C
102
}
330
C
100
AcDbDictionary
281
     1
  3
Layout1
350
1E
  3
Layout2
350
26
  3
Model
350
22
  0
DICTIONARY
  5
3B
102
{ACAD_REACTORS
330
C
102
}
330
C
100
AcDbDictionary
281
     1
  3
ByBlock
350
3D
  3
ByLayer
350
3C
  3
Global
350
3E
  0
DICTIONARY
  5
363
102
{ACAD_REACTORS
330
C
102
}
330
C
100
AcDbDictionary
281
     1
  0
DICTIONARY
  5
17
102
{ACAD_REACTORS
330
C
102
}
330
C
100
AcDbDictionary
281
     1
  3
Standard
350
18
  0
DICTIONARY
  5
19
102
{ACAD_REACTORS
330
C
102
}
330
C
100
AcDbDictionary
281
     1
  0
ACDBDICTIONARYWDFLT
  5
E
102
{ACAD_REACTORS
330
C
102
}
330
C
100
AcDbDictionary
281
     1
  3
Normal
350
F
100
AcDbDictionaryWithDefault
340
F
  0
DICTIONARY
  5
362
102
{ACAD_REACTORS
330
C
102
}
330
C
100
AcDbDictionary
281
     1
  0
DICTIONARY
  5
2A
102
{ACAD_REACTORS
330
C
102
}
330
C
100
AcDbDictionary
281
     1
  3
2dWireframe
350
2F
  3
3D Hidden
350
31
  3
3dWireframe
350
30
  3
Basic
350
32
  3
Brighten
350
36
  3
ColorChange
350
3A
  3
Conceptual
350
34
  3
Dim
350
35
  3
Facepattern
350
39
  3
Flat
350
2B
  3
FlatWithEdges
350
2C
  3
Gouraud
350
2D
  3
GouraudWithEdges
350
2E
  3
Linepattern
350
38
  3
Realistic
350
33
  3
Thicken
350
37
  0
LAYOUT
  5
1E
102
{ACAD_REACTORS
330
1A
102
}
330
1A
100
AcDbPlotSettings
  1

  2
none_device
  4

  6

 40
0.0
 41
0.0
 42
0.0
 43
0.0
 44
0.0
 45
0.0
 46
0.0
 47
0.0
 48
0.0
 49
0.0
140
0.0
141
0.0
142
1.0
143
1.0
 70
   688
 72
     0
 73
     0
 74
     5
  7

 75
    16
 76
     0
 77
     5
 78
   300
147
1.0
148
0.0
149
0.0
100
AcDbLayout
  1
Layout1
 70
     1
 71
     1
 10
0.0
 20
0.0
 11
420.0
 21
297.0
 12
0.0
 22
0.0
 32
0.0
 14
1.000000000000000E+20
 24
1.000000000000000E+20
 34
1.000000000000000E+20
 15
-1.000000000000000E+20
 25
-1.000000000000000E+20
 35
-1.000000000000000E+20
146
0.0
 13
0.0
 23
0.0
 33
0.0
 16
1.0
 26
0.0
 36
0.0
 17
0.0
 27
1.0
 37
0.0
 76
     0
330
1B
  0
LAYOUT
  5
26
102
{ACAD_REACTORS
330
1A
102
}
330
1A
100
AcDbPlotSettings
  1

  2
none_device
  4

  6

 40
0.0
 41
0.0
 42
0.0
 43
0.0
 44
0.0
 45
0.0
 46
0.0
 47
0.0
 48
0.0
 49
0.0
140
0.0
141
0.0
142
1.0
143
1.0
 70
   688
 72
     0
 73
     0
 74
     5
  7

 75
    16
 76
     0
 77
     5
 78
   300
147
1.0
148
0.0
149
0.0
100
AcDbLayout
  1
Layout2
 70
     1
 71
     2
 10
0.0
 20
0.0
 11
0.0
 21
0.0
 12
0.0
 22
0.0
 32
0.0
 14
0.0
 24
0.0
 34
0.0
 15
0.0
 25
0.0
 35
0.0
146
0.0
 13
0.0
 23
0.0
 33
0.0
 16
1.0
 26
0.0
 36
0.0
 17
0.0
 27
1.0
 37
0.0
 76
     0
330
23
  0
LAYOUT
  5
22
102
{ACAD_REACTORS
330
1A
102
}
330
1A
100
AcDbPlotSettings
  1

  2
none_device
  4

  6

 40
0.0
 41
0.0
 42
0.0
 43
0.0
 44
0.0
 45
0.0
 46
0.0
 47
0.0
 48
0.0
 49
0.0
140
0.0
141
0.0
142
1.0
143
1.0
 70
  1712
 72
     0
 73
     0
 74
     0
  7

 75
     0
 76
     0
 77
     5
 78
   300
147
1.0
148
0.0
149
0.0
100
AcDbLayout
  1
Model
 70
     1
 71
     0
 10
-4200.0
 20
-2970.0
 11
4200.0
 21
2970.0
 12
0.0
 22
0.0
 32
0.0
 14
-4200.0
 24
-2970.0
 34
0.0
 15
4200.0
 25
2970.0
 35
0.0
146
0.0
 13
0.0
 23
0.0
 33
0.0
 16
1.0
 26
0.0
 36
0.0
 17
0.0
 27
1.0
 37
0.0
 76
     0
330
1F
331
29
  0
MATERIAL
  5
3D
102
{ACAD_REACTORS
330
3B
102
}
330
3B
100
AcDbMaterial
  1
ByBlock
 72
     1
 94
      127
  0
MATERIAL
  5
3C
102
{ACAD_REACTORS
330
3B
102
}
330
3B
100
AcDbMaterial
  1
ByLayer
 72
     1
 94
      127
  0
MATERIAL
  5
3E
102
{ACAD_REACTORS
330
3B
102
}
330
3B
100
AcDbMaterial
  1
Global
 72
     1
 94
      127
  0
MLINESTYLE
  5
18
102
{ACAD_REACTORS
330
17
102
}
330
17
100
AcDbMlineStyle
  2
Standard
 70
     0
  3

 62
   256
 51
90.0
 52
90.0
 71
     2
 49
0.5
 62
   256
  6
BYLAYER
 49
-0.5
 62
   256
  6
BYLAYER
  0
ACDBPLACEHOLDER
  5
F
102
{ACAD_REACTORS
330
E
102
}
330
E
  0
VISUALSTYLE
  5
2F
102
{ACAD_REACTORS
330
2A
102
}
330
2A
100
AcDbVisualStyle
  2
2dWireframe
 70
     4
177
     2
291
     0
 71
     0
176
     1
 72
     2
176
     1
 73
     0
176
     1
 90
        0
176
     1
 40
-0.6
176
     1
 41
-30.0
176
     1
 62
     5
 63
     7
421
 16777215
176
     1
 74
     1
176
     1
 91
        4
176
     1
 64
     7
176
     1
 65
   257
176
     1
 75
     1
176
     1
175
     1
176
     1
 42
1.0
176
     1
 92
        0
176
     1
 66
   257
176
     1
 43
1.0
176
     1
 76
     1
176
     1
 77
     6
176
     1
 78
     2
176
     1
 67
     7
176
     1
 79
     5
176
     1
170
     0
176
     1
171
     0
176
     1
290
     0
176
     1
 93
        1
176
     1
 44
0.0
176
     1
173
     0
176
     1
  0
VISUALSTYLE
  5
31
102
{ACAD_REACTORS
330
2A
102
}
330
2A
100
AcDbVisualStyle
  2
3D Hidden
 70
     6
177
     2
291
     0
 71
     1
176
     1
 72
     2
176
     1
 73
     2
176
     1
 90
        0
176
     1
 40
-0.6
176
     1
 41
-30.0
176
     1
 62
     5
 63
     7
421
 16777215
176
     1
 74
     2
176
     1
 91
        2
176
     1
 64
     7
176
     1
 65
   257
176
     1
 75
     2
176
     1
175
     1
176
     1
 42
40.0
176
     1
 92
        0
176
     1
 66
   257
176
     1
 43
1.0
176
     1
 76
     1
176
     1
 77
     6
176
     1
 78
     2
176
     1
 67
     7
176
     1
 79
     3
176
     1
170
     0
176
     1
171
     0
176
     1
290
     0
176
     1
 93
        1
176
     1
 44
0.0
176
     1
173
     0
176
     1
  0
VISUALSTYLE
  5
30
102
{ACAD_REACTORS
330
2A
102
}
330
2A
100
AcDbVisualStyle
  2
3dWireframe
 70
     5
177
     2
291
     0
 71
     0
176
     1
 72
     2
176
     1
 73
     0
176
     1
 90
        0
176
     1
 40
-0.6
176
     1
 41
-30.0
176
     1
 62
     5
 63
     7
421
 16777215
176
     1
 74
     1
176
     1
 91
        4
176
     1
 64
     7
176
     1
 65
   257
176
     1
 75
     1
176
     1
175
     1
176
     1
 42
1.0
176
     1
 92
        0
176
     1
 66
   257
176
     1
 43
1.0
176
     1
 76
     1
176
     1
 77
     6
176
     1
 78
     2
176
     1
 67
     7
176
     1
 79
     5
176
     1
170
     0
176
     1
171
     0
176
     1
290
     0
176
     1
 93
        1
176
     1
 44
0.0
176
     1
173
     0
176
     1
  0
VISUALSTYLE
  5
32
102
{ACAD_REACTORS
330
2A
102
}
330
2A
100
AcDbVisualStyle
  2
Basic
 70
     7
177
     2
291
     1
 71
     1
176
     1
 72
     0
176
     1
 73
     1
176
     1
 90
        0
176
     1
 40
-0.6
176
     1
 41
-30.0
176
     1
 62
     5
 63
     7
421
 16777215
176
     1
 74
     0
176
     1
 91
        4
176
     1
 64
     7
176
     1
 65
   257
176
     1
 75
     1
176
     1
175
     1
176
     1
 42
1.0
176
     1
 92
        8
176
     1
 66
     7
176
     1
 43
1.0
176
     1
 76
     1
176
     1
 77
     6
176
     1
 78
     2
176
     1
 67
     7
176
     1
 79
     5
176
     1
170
     0
176
     1
171
     0
176
     1
290
     0
176
     1
 93
        1
176
     1
 44
0.0
176
     1
173
     0
176
     1
  0
VISUALSTYLE
  5
36
102
{ACAD_REACTORS
330
2A
102
}
330
2A
100
AcDbVisualStyle
  2
Brighten
 70
    12
177
     2
291
     1
 71
     2
176
     1
 72
     2
176
     1
 73
     0
176
     1
 90
        0
176
     1
 40
-0.6
176
     1
 41
-30.0
176
     1
 62
     5
 63
     7
421
 16777215
176
     1
 74
     1
176
     1
 91
        4
176
     1
 64
     7
176
     1
 65
   257
176
     1
 75
     1
176
     1
175
     1
176
     1
 42
1.0
176
     1
 92
        8
176
     1
 66
     7
176
     1
 43
1.0
176
     1
 76
     1
176
     1
 77
     6
176
     1
 78
     2
176
     1
 67
     7
176
     1
 79
     5
176
     1
170
     0
176
     1
171
     0
176
     1
290
     0
176
     1
 93
        1
176
     1
 44
50.0
176
     1
173
     0
176
     1
  0
VISUALSTYLE
  5
3A
102
{ACAD_REACTORS
330
2A
102
}
330
2A
100
AcDbVisualStyle
  2
ColorChange
 70
    16
177
     2
291
     1
 71
     2
176
     1
 72
     2
176
     1
 73
     3
176
     1
 90
        0
176
     1
 40
-0.6
176
     1
 41
-30.0
176
     1
 62
     5
 63
     8
421
  8421504
176
     1
 74
     1
176
     1
 91
        4
176
     1
 64
     7
176
     1
 65
   257
176
     1
 75
     1
176
     1
175
     1
176
     1
 42
1.0
176
     1
 92
        8
176
     1
 66
     8
424
  8421504
176
     1
 43
1.0
176
     1
 76
     1
176
     1
 77
     6
176
     1
 78
     2
176
     1
 67
     7
176
     1
 79
     5
176
     1
170
     0
176
     1
171
     0
176
     1
290
     0
176
     1
 93
        1
176
     1
 44
0.0
176
     1
173
     0
176
     1
  0
VISUALSTYLE
  5
34
102
{ACAD_REACTORS
330
2A
102
}
330
2A
100
AcDbVisualStyle
  2
Conceptual
 70
     9
177
     2
291
     0
 71
     3
176
     1
 72
     2
176
     1
 73
     0
176
     1
 90
        0
176
     1
 40
-0.6
176
     1
 41
-30.0
176
     1
 62
     5
 63
     7
421
 16777215
176
     1
 74
     2
176
     1
 91
        2
176
     1
 64
     7
176
     1
 65
   257
176
     1
 75
     1
176
     1
175
     1
176
     1
 42
40.0
176
     1
 92
        8
176
     1
 66
     7
176
     1
 43
1.0
176
     1
 76
     1
176
     1
 77
     6
176
     1
 78
     2
176
     1
 67
     7
176
     1
 79
     3
176
     1
170
     0
176
     1
171
     0
176
     1
290
     0
176
     1
 93
        1
176
     1
 44
0.0
176
     1
173
     0
176
     1
  0
VISUALSTYLE
  5
35
102
{ACAD_REACTORS
330
2A
102
}
330
2A
100
AcDbVisualStyle
  2
Dim
 70
    11
177
     2
291
     1
 71
     2
176
     1
 72
     2
176
     1
 73
     0
176
     1
 90
        0
176
     1
 40
-0.6
176
     1
 41
-30.0
176
     1
 62
     5
 63
     7
421
 16777215
176
     1
 74
     1
176
     1
 91
        4
176
     1
 64
     7
176
     1
 65
   257
176
     1
 75
     1
176
     1
175
     1
176
     1
 42
1.0
176
     1
 92
        8
176
     1
 66
     7
176
     1
 43
1.0
176
     1
 76
     1
176
     1
 77
     6
176
     1
 78
     2
176
     1
 67
     7
176
     1
 79
     5
176
     1
170
     0
176
     1
171
     0
176
     1
290
     0
176
     1
 93
        1
176
     1
 44
-50.0
176
     1
173
     0
176
     1
  0
VISUALSTYLE
  5
39
102
{ACAD_REACTORS
330
2A
102
}
330
2A
100
AcDbVisualStyle
  2
Facepattern
 70
    15
177
     2
291
     1
 71
     2
176
     1
 72
     2
176
     1
 73
     0
176
     1
 90
        0
176
     1
 40
-0.6
176
     1
 41
-30.0
176
     1
 62
     5
 63
     7
421
 16777215
176
     1
 74
     1
176
     1
 91
        4
176
     1
 64
     7
176
     1
 65
   257
176
     1
 75
     1
176
     1
175
     1
176
     1
 42
1.0
176
     1
 92
        8
176
     1
 66
     7
176
     1
 43
1.0
176
     1
 76
     1
176
     1
 77
     6
176
     1
 78
     2
176
     1
 67
     7
176
     1
 79
     5
176
     1
170
     0
176
     1
171
     0
176
     1
290
     0
176
     1
 93
        1
176
     1
 44
0.0
176
     1
173
     0
176
     1
  0
VISUALSTYLE
  5
2B
102
{ACAD_REACTORS
330
2A
102
}
330
2A
100
AcDbVisualStyle
  2
Flat
 70
     0
177
     2
291
     1
 71
     2
176
     1
 72
     1
176
     1
 73
     1
176
     1
 90
        2
176
     1
 40
-0.6
176
     1
 41
30.0
176
     1
 62
     5
 63
     7
421
 16777215
176
     1
 74
     0
176
     1
 91
        4
176
     1
 64
     7
176
     1
 65
   257
176
     1
 75
     1
176
     1
175
     1
176
     1
 42
1.0
176
     1
 92
        8
176
     1
 66
     7
176
     1
 43
1.0
176
     1
 76
     1
176
     1
 77
     6
176
     1
 78
     2
176
     1
 67
     7
176
     1
 79
     5
176
     1
170
     0
176
     1
171
     0
176
     1
290
     0
176
     1
 93
       13
176
     1
 44
0.0
176
     1
173
     0
176
     1
  0
VISUALSTYLE
  5
2C
102
{ACAD_REACTORS
330
2A
102
}
330
2A
100
AcDbVisualStyle
  2
FlatWithEdges
 70
     1
177
     2
291
     1
 71
     2
176
     1
 72
     1
176
     1
 73
     1
176
     1
 90
        2
176
     1
 40
-0.6
176
     1
 41
30.0
176
     1
 62
     5
 63
     7
421
 16777215
176
     1
 74
     1
176
     1
 91
        4
176
     1
 64
     7
176
     1
 65
   257
176
     1
 75
     1
176
     1
175
     1
176
     1
 42
1.0
176
     1
 92
        0
176
     1
 66
   257
176
     1
 43
1.0
176
     1
 76
     1
176
     1
 77
     6
176
     1
 78
     2
176
     1
 67
     7
176
     1
 79
     5
176
     1
170
     0
176
     1
171
     0
176
     1
290
     0
176
     1
 93
       13
176
     1
 44
0.0
176
     1
173
     0
176
     1
  0
VISUALSTYLE
  5
2D
102
{ACAD_REACTORS
330
2A
102
}
330
2A
100
AcDbVisualStyle
  2
Gouraud
 70
     2
177
     2
291
     1
 71
     2
176
     1
 72
     2
176
     1
 73
     1
176
     1
 90
        2
176
     1
 40
-0.6
176
     1
 41
30.0
176
     1
 62
     5
 63
     7
421
 16777215
176
     1
 74
     0
176
     1
 91
        4
176
     1
 64
     7
176
     1
 65
   257
176
     1
 75
     1
176
     1
175
     1
176
     1
 42
1.0
176
     1
 92
        0
176
     1
 66
     7
176
     1
 43
1.0
176
     1
 76
     1
176
     1
 77
     6
176
     1
 78
     2
176
     1
 67
     7
176
     1
 79
     5
176
     1
170
     0
176
     1
171
     0
176
     1
290
     0
176
     1
 93
       13
176
     1
 44
0.0
176
     1
173
     0
176
     1
  0
VISUALSTYLE
  5
2E
102
{ACAD_REACTORS
330
2A
102
}
330
2A
100
AcDbVisualStyle
  2
GouraudWithEdges
 70
     3
177
     2
291
     1
 71
     2
176
     1
 72
     2
176
     1
 73
     1
176
     1
 90
        2
176
     1
 40
-0.6
176
     1
 41
30.0
176
     1
 62
     5
 63
     7
421
 16777215
176
     1
 74
     1
176
     1
 91
        4
176
     1
 64
     7
176
     1
 65
   257
176
     1
 75
     1
176
     1
175
     1
176
     1
 42
1.0
176
     1
 92
        0
176
     1
 66
   257
176
     1
 43
1.0
176
     1
 76
     1
176
     1
 77
     6
176
     1
 78
     2
176
     1
 67
     7
176
     1
 79
     5
176
     1
170
     0
176
     1
171
     0
176
     1
290
     0
176
     1
 93
       13
176
     1
 44
0.0
176
     1
173
     0
176
     1
  0
VISUALSTYLE
  5
38
102
{ACAD_REACTORS
330
2A
102
}
330
2A
100
AcDbVisualStyle
  2
Linepattern
 70
    14
177
     2
291
     1
 71
     2
176
     1
 72
     2
176
     1
 73
     0
176
     1
 90
        0
176
     1
 40
-0.6
176
     1
 41
-30.0
176
     1
 62
     5
 63
     7
421
 16777215
176
     1
 74
     1
176
     1
 91
        4
176
     1
 64
     7
176
     1
 65
   257
176
     1
 75
     7
176
     1
175
     7
176
     1
 42
1.0
176
     1
 92
        8
176
     1
 66
     7
176
     1
 43
1.0
176
     1
 76
     1
176
     1
 77
     6
176
     1
 78
     2
176
     1
 67
     7
176
     1
 79
     5
176
     1
170
     0
176
     1
171
     0
176
     1
290
     0
176
     1
 93
        1
176
     1
 44
0.0
176
     1
173
     0
176
     1
  0
VISUALSTYLE
  5
33
102
{ACAD_REACTORS
330
2A
102
}
330
2A
100
AcDbVisualStyle
  2
Realistic
 70
     8
177
     2
291
     0
 71
     2
176
     1
 72
     2
176
     1
 73
     0
176
     1
 90
        0
176
     1
 40
-0.6
176
     1
 41
-30.0
176
     1
 62
     5
 63
     7
421
 16777215
176
     1
 74
     1
176
     1
 91
        0
176
     1
 64
     7
176
     1
 65
   257
176
     1
 75
     1
176
     1
175
     1
176
     1
 42
1.0
176
     1
 92
        8
176
     1
 66
     8
424
  7895160
176
     1
 43
1.0
176
     1
 76
     1
176
     1
 77
     6
176
     1
 78
     2
176
     1
 67
     7
176
     1
 79
     5
176
     1
170
     0
176
     1
171
     0
176
     1
290
     0
176
     1
 93
       13
176
     1
 44
0.0
176
     1
173
     0
176
     1
  0
VISUALSTYLE
  5
37
102
{ACAD_REACTORS
330
2A
102
}
330
2A
100
AcDbVisualStyle
  2
Thicken
 70
    13
177
     2
291
     1
 71
     2
176
     1
 72
     2
176
     1
 73
     0
176
     1
 90
        0
176
     1
 40
-0.6
176
     1
 41
-30.0
176
     1
 62
     5
 63
     7
421
 16777215
176
     1
 74
     1
176
     1
 91
        4
176
     1
 64
     7
176
     1
 65
   257
176
     1
 75
     1
176
     1
175
     1
176
     1
 42
1.0
176
     1
 92
       12
176
     1
 66
     7
176
     1
 43
1.0
176
     1
 76
     1
176
     1
 77
     6
176
     1
 78
     2
176
     1
 67
     7
176
     1
 79
     5
176
     1
170
     0
176
     1
171
     0
176
     1
290
     0
176
     1
 93
        1
176
     1
 44
0.0
176
     1
173
     0
176
     1
  0
ENDSEC
  0
EOF
