  0
SECTION
  2
HEADER
  9
$ACADVER
  1
AC1024
  9
$ACADMAINTVER
 70
     6
  9
$DWGCODEPAGE
  3
ANSI_932
  9
$INSBASE
 10
0.0
 20
0.0
 30
0.0
  9
$EXTMIN
 10
-8910.0
 20
-6300.0
 30
0.0
  9
$EXTMAX
 10
8910.0
 20
6300.0
 30
0.0
  9
$LIMMIN
 10
-8910.0
 20
-6300.0
  9
$LIMMAX
 10
8910.0
 20
6300.0
  9
$ORTHOMODE
 70
     0
  9
$REGENMODE
 70
     1
  9
$FILLMODE
 70
     1
  9
$QTEXTMODE
 70
     0
  9
$MIRRTEXT
 70
     1
  9
$LTSCALE
 40
30.0
  9
$ATTMODE
 70
     1
  9
$TEXTSIZE
 40
2.5
  9
$TRACEWID
 40
1.0
  9
$TEXTSTYLE
  7
Standard
  9
$CLAYER
  8
0
  9
$CELTYPE
  6
ByLayer
  9
$CECOLOR
 62
   256
  9
$CELTSCALE
 40
1.0
  9
$DISPSILH
 70
     0
  9
$DIMSCALE
 40
1.0
  9
$DIMASZ
 40
2.5
  9
$DIMEXO
 40
0.625
  9
$DIMDLI
 40
3.75
  9
$DIMRND
 40
0.0
  9
$DIMDLE
 40
0.0
  9
$DIMEXE
 40
1.25
  9
$DIMTP
 40
0.0
  9
$DIMTM
 40
0.0
  9
$DIMTXT
 40
2.5
  9
$DIMCEN
 40
2.5
  9
$DIMTSZ
 40
0.0
  9
$DIMTOL
 70
     0
  9
$DIMLIM
 70
     0
  9
$DIMTIH
 70
     0
  9
$DIMTOH
 70
     0
  9
$DIMSE1
 70
     0
  9
$DIMSE2
 70
     0
  9
$DIMTAD
 70
     1
  9
$DIMZIN
 70
     8
  9
$DIMBLK
  1

  9
$DIMASO
 70
     1
  9
$DIMSHO
 70
     1
  9
$DIMPOST
  1

  9
$DIMAPOST
  1

  9
$DIMALT
 70
     0
  9
$DIMALTD
 70
     3
  9
$DIMALTF
 40
0.03937007874016
  9
$DIMLFAC
 40
1.0
  9
$DIMTOFL
 70
     1
  9
$DIMTVP
 40
0.0
  9
$DIMTIX
 70
     0
  9
$DIMSOXD
 70
     0
  9
$DIMSAH
 70
     0
  9
$DIMBLK1
  1

  9
$DIMBLK2
  1

  9
$DIMSTYLE
  2
ISO-25
  9
$DIMCLRD
 70
     0
  9
$DIMCLRE
 70
     0
  9
$DIMCLRT
 70
     0
  9
$DIMTFAC
 40
1.0
  9
$DIMGAP
 40
0.625
  9
$DIMJUST
 70
     0
  9
$DIMSD1
 70
     0
  9
$DIMSD2
 70
     0
  9
$DIMTOLJ
 70
     0
  9
$DIMTZIN
 70
     8
  9
$DIMALTZ
 70
     0
  9
$DIMALTTZ
 70
     0
  9
$DIMUPT
 70
     0
  9
$DIMDEC
 70
     2
  9
$DIMTDEC
 70
     2
  9
$DIMALTU
 70
     2
  9
$DIMALTTD
 70
     3
  9
$DIMTXSTY
  7
Standard
  9
$DIMAUNIT
 70
     0
  9
$DIMADEC
 70
     0
  9
$DIMALTRND
 40
0.0
  9
$DIMAZIN
 70
     0
  9
$DIMDSEP
 70
    44
  9
$DIMATFIT
 70
     3
  9
$DIMFRAC
 70
     0
  9
$DIMLDRBLK
  1

  9
$DIMLUNIT
 70
     2
  9
$DIMLWD
 70
    -2
  9
$DIMLWE
 70
    -2
  9
$DIMTMOVE
 70
     0
  9
$DIMFXL
 40
1.0
  9
$DIMFXLON
 70
     0
  9
$DIMJOGANG
 40
0.7853981633974483
  9
$DIMTFILL
 70
     0
  9
$DIMTFILLCLR
 70
     0
  9
$DIMARCSYM
 70
     0
  9
$DIMLTYPE
  6

  9
$DIMLTEX1
  6

  9
$DIMLTEX2
  6

  9
$DIMTXTDIRECTION
 70
     0
  9
$LUNITS
 70
     2
  9
$LUPREC
 70
     4
  9
$SKETCHINC
 40
1.0
  9
$FILLETRAD
 40
10.0
  9
$AUNITS
 70
     0
  9
$AUPREC
 70
     0
  9
$MENU
  1
.
  9
$ELEVATION
 40
0.0
  9
$PELEVATION
 40
0.0
  9
$THICKNESS
 40
0.0
  9
$LIMCHECK
 70
     0
  9
$CHAMFERA
 40
10.0
  9
$CHAMFERB
 40
10.0
  9
$CHAMFERC
 40
20.0
  9
$CHAMFERD
 40
0.0
  9
$SKPOLY
 70
     0
  9
$TDCREATE
 40
2459682.517206597
  9
$TDUCREATE
 40
2459682.142206597
  9
$TDUPDATE
 40
2459682.517206609
  9
$TDUUPDATE
 40
2459682.142206609
  9
$TDINDWG
 40
0.0000000116
  9
$TDUSRTIMER
 40
0.0000000116
  9
$USRTIMER
 70
     1
  9
$ANGBASE
 50
0.0
  9
$ANGDIR
 70
     0
  9
$PDMODE
 70
     0
  9
$PDSIZE
 40
0.0
  9
$PLINEWID
 40
0.0
  9
$SPLFRAME
 70
     0
  9
$SPLINETYPE
 70
     6
  9
$SPLINESEGS
 70
     8
  9
$HANDSEED
  5
449
  9
$SURFTAB1
 70
     6
  9
$SURFTAB2
 70
     6
  9
$SURFTYPE
 70
     6
  9
$SURFU
 70
     6
  9
$SURFV
 70
     6
  9
$UCSBASE
  2

  9
$UCSNAME
  2

  9
$UCSORG
 10
0.0
 20
0.0
 30
0.0
  9
$UCSXDIR
 10
1.0
 20
0.0
 30
0.0
  9
$UCSYDIR
 10
0.0
 20
1.0
 30
0.0
  9
$UCSORTHOREF
  2

  9
$UCSORTHOVIEW
 70
     0
  9
$UCSORGTOP
 10
0.0
 20
0.0
 30
0.0
  9
$UCSORGBOTTOM
 10
0.0
 20
0.0
 30
0.0
  9
$UCSORGLEFT
 10
0.0
 20
0.0
 30
0.0
  9
$UCSORGRIGHT
 10
0.0
 20
0.0
 30
0.0
  9
$UCSORGFRONT
 10
0.0
 20
0.0
 30
0.0
  9
$UCSORGBACK
 10
0.0
 20
0.0
 30
0.0
  9
$PUCSBASE
  2

  9
$PUCSNAME
  2

  9
$PUCSORG
 10
0.0
 20
0.0
 30
0.0
  9
$PUCSXDIR
 10
1.0
 20
0.0
 30
0.0
  9
$PUCSYDIR
 10
0.0
 20
1.0
 30
0.0
  9
$PUCSORTHOREF
  2

  9
$PUCSORTHOVIEW
 70
     0
  9
$PUCSORGTOP
 10
0.0
 20
0.0
 30
0.0
  9
$PUCSORGBOTTOM
 10
0.0
 20
0.0
 30
0.0
  9
$PUCSORGLEFT
 10
0.0
 20
0.0
 30
0.0
  9
$PUCSORGRIGHT
 10
0.0
 20
0.0
 30
0.0
  9
$PUCSORGFRONT
 10
0.0
 20
0.0
 30
0.0
  9
$PUCSORGBACK
 10
0.0
 20
0.0
 30
0.0
  9
$USERI1
 70
     0
  9
$USERI2
 70
     0
  9
$USERI3
 70
     0
  9
$USERI4
 70
     0
  9
$USERI5
 70
     0
  9
$USERR1
 40
0.0
  9
$USERR2
 40
0.0
  9
$USERR3
 40
0.0
  9
$USERR4
 40
0.0
  9
$USERR5
 40
0.0
  9
$WORLDVIEW
 70
     1
  9
$SHADEDGE
 70
     3
  9
$SHADEDIF
 70
    70
  9
$TILEMODE
 70
     1
  9
$MAXACTVP
 70
    64
  9
$PINSBASE
 10
0.0
 20
0.0
 30
0.0
  9
$PLIMCHECK
 70
     0
  9
$PEXTMIN
 10
1.000000000000000E+20
 20
1.000000000000000E+20
 30
1.000000000000000E+20
  9
$PEXTMAX
 10
-1.000000000000000E+20
 20
-1.000000000000000E+20
 30
-1.000000000000000E+20
  9
$PLIMMIN
 10
0.0
 20
0.0
  9
$PLIMMAX
 10
420.0
 20
297.0
  9
$UNITMODE
 70
     0
  9
$VISRETAIN
 70
     1
  9
$PLINEGEN
 70
     0
  9
$PSLTSCALE
 70
     1
  9
$TREEDEPTH
 70
  3020
  9
$CMLSTYLE
  2
Standard
  9
$CMLJUST
 70
     0
  9
$CMLSCALE
 40
20.0
  9
$PROXYGRAPHICS
 70
     1
  9
$MEASUREMENT
 70
     1
  9
$CELWEIGHT
370
    -1
  9
$ENDCAPS
280
     0
  9
$JOINSTYLE
280
     0
  9
$LWDISPLAY
290
     0
  9
$INSUNITS
 70
     4
  9
$HYPERLINKBASE
  1

  9
$STYLESHEET
  1

  9
$XEDIT
290
     1
  9
$CEPSNTYPE
380
     0
  9
$PSTYLEMODE
290
     1
  9
$FINGERPRINTGUID
  2
{E09D1835-80D7-41D6-B467-B4A7DFCF2376}
  9
$VERSIONGUID
  2
{FAEB1C32-E019-11D5-929B-00C0DF256EC4}
  9
$EXTNAMES
290
     1
  9
$PSVPSCALE
 40
0.0
  9
$OLESTARTUP
290
     0
  9
$SORTENTS
280
   127
  9
$INDEXCTL
280
     0
  9
$HIDETEXT
280
     1
  9
$XCLIPFRAME
280
     2
  9
$HALOGAP
280
     0
  9
$OBSCOLOR
 70
   257
  9
$OBSLTYPE
280
     0
  9
$INTERSECTIONDISPLAY
280
     0
  9
$INTERSECTIONCOLOR
 70
   257
  9
$DIMASSOC
280
     2
  9
$PROJECTNAME
  1

  9
$CAMERADISPLAY
290
     0
  9
$LENSLENGTH
 40
50.0
  9
$CAMERAHEIGHT
 40
0.0
  9
$STEPSPERSEC
 40
2.0
  9
$STEPSIZE
 40
6.0
  9
$3DDWFPREC
 40
2.0
  9
$PSOLWIDTH
 40
5.0
  9
$PSOLHEIGHT
 40
80.0
  9
$LOFTANG1
 40
1.570796326794897
  9
$LOFTANG2
 40
1.570796326794897
  9
$LOFTMAG1
 40
0.0
  9
$LOFTMAG2
 40
0.0
  9
$LOFTPARAM
 70
     7
  9
$LOFTNORMALS
280
     1
  9
$LATITUDE
 40
37.795
  9
$LONGITUDE
 40
-122.394
  9
$NORTHDIRECTION
 40
0.0
  9
$TIMEZONE
 70
 -8000
  9
$LIGHTGLYPHDISPLAY
280
     1
  9
$TILEMODELIGHTSYNCH
280
     1
  9
$SOLIDHIST
280
     1
  9
$SHOWHIST
280
     1
  9
$DWFFRAME
280
     2
  9
$DGNFRAME
280
     2
  9
$REALWORLDSCALE
290
     1
  9
$INTERFERECOLOR
 62
   256
  9
$CSHADOW
280
     0
  9
$SHADOWPLANELOCATION
 40
0.0
  0
ENDSEC
  0
SECTION
  2
CLASSES
  0
CLASS
  1
ACDBDICTIONARYWDFLT
  2
AcDbDictionaryWithDefault
  3
ObjectDBX Classes
 90
        0
 91
        4
280
     0
281
     0
  0
CLASS
  1
VISUALSTYLE
  2
AcDbVisualStyle
  3
ObjectDBX Classes
 90
     4095
 91
        4
280
     0
281
     0
  0
CLASS
  1
MATERIAL
  2
AcDbMaterial
  3
ObjectDBX Classes
 90
     1153
 91
        4
280
     0
281
     0
  0
ENDSEC
  0
SECTION
  2
TABLES
  0
TABLE
  2
VPORT
  5
8
330
0
100
AcDbSymbolTable
 70
     1
  0
VPORT
  5
29
330
8
100
AcDbSymbolTableRecord
100
AcDbViewportTableRecord
  2
*Active
 70
     0
 10
0.0
 20
0.0
 11
1.0
 21
1.0
 12
0.0
 22
0.0
 13
0.0
 23
0.0
 14
10.0
 24
10.0
 15
10.0
 25
10.0
 16
0.0
 26
0.0
 36
1.0
 17
0.0
 27
0.0
 37
0.0
 40
13860.0
 41
1.414285714285714
 42
50.0
 43
0.0
 44
0.0
 50
0.0
 51
0.0
 71
     0
 72
 10000
 73
     1
 74
     3
 75
     0
 76
     0
 77
     0
 78
     0
281
     0
 65
     1
110
0.0
120
0.0
130
0.0
111
1.0
121
0.0
131
0.0
112
0.0
122
1.0
132
0.0
 79
     0
146
0.0
 60
     3
 61
     5
292
     1
282
     1
141
0.0
142
0.0
 63
   250
  0
ENDTAB
  0
TABLE
  2
LTYPE
  5
5
330
0
100
AcDbSymbolTable
 70
     4
  0
LTYPE
  5
14
330
5
100
AcDbSymbolTableRecord
100
AcDbLinetypeTableRecord
  2
ByBlock
 70
     0
  3

 72
    65
 73
     0
 40
0.0
  0
LTYPE
  5
15
330
5
100
AcDbSymbolTableRecord
100
AcDbLinetypeTableRecord
  2
ByLayer
 70
     0
  3

 72
    65
 73
     0
 40
0.0
  0
LTYPE
  5
16
330
5
100
AcDbSymbolTableRecord
100
AcDbLinetypeTableRecord
  2
Continuous
 70
     0
  3
Solid line
 72
    65
 73
     0
 40
0.0
  0
LTYPE
  5
3F
330
5
100
AcDbSymbolTableRecord
100
AcDbLinetypeTableRecord
  2
JWW_HOJO
 70
     0
  3
  -   -   -   -   -   -   -   - 
 72
    65
 73
     2
 40
1.693333333333333
 49
-1.27
 74
     0
 49
0.4233333333333333
 74
     0
  0
LTYPE
  5
40
330
5
100
AcDbSymbolTableRecord
100
AcDbLinetypeTableRecord
  2
JWW_CENTER1
 70
     0
  3
-----  --  ----------  --  -----
 72
    65
 73
     4
 40
6.773333333333333
 49
4.233333333333333
 74
     0
 49
-0.8466666666666667
 74
     0
 49
0.8466666666666667
 74
     0
 49
-0.8466666666666667
 74
     0
  0
LTYPE
  5
41
330
5
100
AcDbSymbolTableRecord
100
AcDbLinetypeTableRecord
  2
JWW_DASHED1
 70
     0
  3
-  --  --  --  --  --  --  --  -
 72
    65
 73
     2
 40
1.693333333333333
 49
0.8466666666666667
 74
     0
 49
-0.8466666666666667
 74
     0
  0
ENDTAB
  0
TABLE
  2
LAYER
  5
2
330
0
100
AcDbSymbolTable
 70
    22
  0
LAYER
  5
10
330
2
100
AcDbSymbolTableRecord
100
AcDbLayerTableRecord
  2
0
 70
     0
 62
     7
  6
Continuous
370
    -3
390
F
347
3E
  0
LAYER
  5
42
330
2
100
AcDbSymbolTableRecord
100
AcDbLayerTableRecord
  2
F-0_補助線
 70
     0
 62
     7
  6
Continuous
370
    -3
390
F
347
3E
  0
LAYER
  5
43
330
2
100
AcDbSymbolTableRecord
100
AcDbLayerTableRecord
  2
F-1_枠
 70
     0
 62
     7
  6
Continuous
370
    -3
390
F
347
3E
  0
LAYER
  5
44
330
2
100
AcDbSymbolTableRecord
100
AcDbLayerTableRecord
  2
F-A_文字
 70
     0
 62
     7
  6
Continuous
370
    -3
390
F
347
3E
  0
LAYER
  5
45
330
2
100
AcDbSymbolTableRecord
100
AcDbLayerTableRecord
  2
0-B_寸法
 70
     0
 62
     7
  6
Continuous
370
    -3
390
F
347
3E
  0
LAYER
  5
46
330
2
100
AcDbSymbolTableRecord
100
AcDbLayerTableRecord
  2
1-A_文字
 70
     0
 62
     7
  6
Continuous
370
    -3
390
F
347
3E
  0
LAYER
  5
47
330
2
100
AcDbSymbolTableRecord
100
AcDbLayerTableRecord
  2
0-C_ハッチ
 70
     0
 62
     7
  6
Continuous
370
    -3
390
F
347
3E
  0
LAYER
  5
48
330
2
100
AcDbSymbolTableRecord
100
AcDbLayerTableRecord
  2
0-A_文字
 70
     0
 62
     7
  6
Continuous
370
    -3
390
F
347
3E
  0
LAYER
  5
49
330
2
100
AcDbSymbolTableRecord
100
AcDbLayerTableRecord
  2
0-4_枠
 70
     0
 62
     7
  6
Continuous
370
    -3
390
F
347
3E
  0
LAYER
  5
4A
330
2
100
AcDbSymbolTableRecord
100
AcDbLayerTableRecord
  2
0-1_通り芯
 70
     0
 62
     7
  6
Continuous
370
    -3
390
F
347
3E
  0
LAYER
  5
4B
330
2
100
AcDbSymbolTableRecord
100
AcDbLayerTableRecord
  2
0-7_金物
 70
     0
 62
     7
  6
Continuous
370
    -3
390
F
347
3E
  0
LAYER
  5
4C
330
2
100
AcDbSymbolTableRecord
100
AcDbLayerTableRecord
  2
0-0_補助線
 70
     0
 62
     7
  6
Continuous
370
    -3
390
F
347
3E
  0
LAYER
  5
4D
330
2
100
AcDbSymbolTableRecord
100
AcDbLayerTableRecord
  2
0-6_扉
 70
     0
 62
     7
  6
Continuous
370
    -3
390
F
347
3E
  0
LAYER
  5
4E
330
2
100
AcDbSymbolTableRecord
100
AcDbLayerTableRecord
  2
0-3_仕上げ
 70
     0
 62
     7
  6
Continuous
370
    -3
390
F
347
3E
  0
LAYER
  5
4F
330
2
100
AcDbSymbolTableRecord
100
AcDbLayerTableRecord
  2
0-5_ケーシング
 70
     0
 62
     7
  6
Continuous
370
    -3
390
F
347
3E
  0
LAYER
  5
50
330
2
100
AcDbSymbolTableRecord
100
AcDbLayerTableRecord
  2
0-2_柱
 70
     0
 62
     7
  6
Continuous
370
    -3
390
F
347
3E
  0
LAYER
  5
51
330
2
100
AcDbSymbolTableRecord
100
AcDbLayerTableRecord
  2
その他構成部品
 70
     0
 62
     7
  6
Continuous
370
    -3
390
F
347
3E
  0
LAYER
  5
52
330
2
100
AcDbSymbolTableRecord
100
AcDbLayerTableRecord
  2
1-B_寸法
 70
     0
 62
     7
  6
Continuous
370
    -3
390
F
347
3E
  0
LAYER
  5
53
330
2
100
AcDbSymbolTableRecord
100
AcDbLayerTableRecord
  2
1-1_通り芯
 70
     0
 62
     7
  6
Continuous
370
    -3
390
F
347
3E
  0
LAYER
  5
54
330
2
100
AcDbSymbolTableRecord
100
AcDbLayerTableRecord
  2
1-7_金物
 70
     0
 62
     7
  6
Continuous
370
    -3
390
F
347
3E
  0
LAYER
  5
55
330
2
100
AcDbSymbolTableRecord
100
AcDbLayerTableRecord
  2
1-4_枠
 70
     0
 62
     7
  6
Continuous
370
    -3
390
F
347
3E
  0
LAYER
  5
56
330
2
100
AcDbSymbolTableRecord
100
AcDbLayerTableRecord
  2
1-C_ハッチ
 70
     0
 62
     7
  6
Continuous
370
    -3
390
F
347
3E
  0
ENDTAB
  0
TABLE
  2
STYLE
  5
3
330
0
100
AcDbSymbolTable
 70
     1
  0
STYLE
  5
11
330
3
100
AcDbSymbolTableRecord
100
AcDbTextStyleTableRecord
  2
Standard
 70
     0
 40
0.0
 41
1.0
 50
0.0
 71
     0
 42
2.5
  3
txt
  4

  0
ENDTAB
  0
TABLE
  2
VIEW
  5
6
330
0
100
AcDbSymbolTable
 70
     0
  0
ENDTAB
  0
TABLE
  2
UCS
  5
7
330
0
100
AcDbSymbolTable
 70
     0
  0
ENDTAB
  0
TABLE
  2
APPID
  5
9
330
0
100
AcDbSymbolTable
 70
     1
  0
APPID
  5
12
330
9
100
AcDbSymbolTableRecord
100
AcDbRegAppTableRecord
  2
ACAD
 70
     0
  0
ENDTAB
  0
TABLE
  2
DIMSTYLE
  5
A
330
0
100
AcDbSymbolTable
 70
     1
100
AcDbDimStyleTable
  0
DIMSTYLE
105
27
330
A
100
AcDbSymbolTableRecord
100
AcDbDimStyleTableRecord
  2
ISO-25
 70
     0
 41
2.5
 42
0.625
 43
3.75
 44
1.25
 73
     0
 74
     0
 77
     1
 78
     8
140
2.5
141
2.5
143
0.03937007874016
147
0.625
171
     3
172
     1
178
     0
271
     2
272
     2
274
     3
278
    44
283
     0
284
     8
340
11
  0
ENDTAB
  0
TABLE
  2
BLOCK_RECORD
  5
1
330
0
100
AcDbSymbolTable
 70
     1
  0
BLOCK_RECORD
  5
1F
330
1
100
AcDbSymbolTableRecord
100
AcDbBlockTableRecord
  2
*Model_Space
340
22
 70
     0
280
     1
281
     0
  0
BLOCK_RECORD
  5
1B
330
1
100
AcDbSymbolTableRecord
100
AcDbBlockTableRecord
  2
*Paper_Space
340
1E
 70
     0
280
     1
281
     0
  0
BLOCK_RECORD
  5
23
330
1
100
AcDbSymbolTableRecord
100
AcDbBlockTableRecord
  2
*Paper_Space0
340
26
 70
     0
280
     1
281
     0
  0
ENDTAB
  0
ENDSEC
  0
SECTION
  2
BLOCKS
  0
BLOCK
  5
20
330
1F
100
AcDbEntity
  8
0
100
AcDbBlockBegin
  2
*Model_Space
 70
     0
 10
0.0
 20
0.0
 30
0.0
  3
*Model_Space
  1

  0
ENDBLK
  5
21
330
1F
100
AcDbEntity
  8
0
100
AcDbBlockEnd
  0
BLOCK
  5
1C
330
1B
100
AcDbEntity
 67
     1
  8
0
100
AcDbBlockBegin
  2
*Paper_Space
 70
     0
 10
0.0
 20
0.0
 30
0.0
  3
*Paper_Space
  1

  0
ENDBLK
  5
1D
330
1B
100
AcDbEntity
 67
     1
  8
0
100
AcDbBlockEnd
  0
BLOCK
  5
24
330
23
100
AcDbEntity
  8
0
100
AcDbBlockBegin
  2
*Paper_Space0
 70
     0
 10
0.0
 20
0.0
 30
0.0
  3
*Paper_Space0
  1

  0
ENDBLK
  5
25
330
23
100
AcDbEntity
  8
0
100
AcDbBlockEnd
  0
ENDSEC
  0
SECTION
  2
ENTITIES
  0
LINE
  5
57
330
1F
100
AcDbEntity
  8
F-0_補助線
  6
JWW_HOJO
 62
   120
370
     5
100
AcDbLine
 10
-6300.0
 20
-4455.0
 30
0.0
 11
-6300.0
 21
4424.999604096284
 31
0.0
  0
LINE
  5
58
330
1F
100
AcDbEntity
  8
F-0_補助線
  6
JWW_HOJO
 62
   120
370
     5
100
AcDbLine
 10
5999.999010240709
 20
4424.999604096284
 30
0.0
 11
5999.999010240709
 21
-4455.0
 31
0.0
  0
LINE
  5
59
330
1F
100
AcDbEntity
  8
F-0_補助線
  6
JWW_HOJO
 62
   120
370
     5
100
AcDbLine
 10
5999.999010240709
 20
-4455.0
 30
0.0
 11
-6300.0
 21
-4455.0
 31
0.0
  0
LINE
  5
5A
330
1F
100
AcDbEntity
  8
F-1_枠
  6
JWW_HOJO
 62
   120
370
     5
100
AcDbLine
 10
-6300.0
 20
4424.999604096284
 30
0.0
 11
5999.999010240709
 21
4424.999604096284
 31
0.0
  0
LINE
  5
5B
330
1F
100
AcDbEntity
  8
F-1_枠
  6
Continuous
 62
   200
370
    20
100
AcDbLine
 10
-5999.999752560175
 20
4164.999983504013
 30
0.0
 11
5699.998762800888
 21
4164.999983504013
 31
0.0
  0
LINE
  5
5C
330
1F
100
AcDbEntity
  8
F-1_枠
  6
Continuous
 62
   200
370
    20
100
AcDbLine
 10
-5999.999752560175
 20
4169.999505120355
 30
0.0
 11
5699.998762800888
 21
4169.999505120355
 31
0.0
  0
LINE
  5
5D
330
1F
100
AcDbEntity
  8
F-1_枠
  6
Continuous
 62
   200
370
    20
100
AcDbLine
 10
-5999.999984535007
 20
4174.999769056166
 30
0.0
 11
-5999.999984535007
 21
-4205.000164959882
 31
0.0
  0
LINE
  5
5E
330
1F
100
AcDbEntity
  8
F-1_枠
  6
Continuous
 62
   200
370
    20
100
AcDbLine
 10
-5999.999984535007
 20
4174.999769056166
 30
0.0
 11
5699.998762800888
 21
4174.999769056166
 31
0.0
  0
LINE
  5
5F
330
1F
100
AcDbEntity
  8
F-1_枠
  6
Continuous
 62
   200
370
    20
100
AcDbLine
 10
-5994.999975771516
 20
4174.999769056166
 30
0.0
 11
-5994.999975771516
 21
-4205.000164959882
 31
0.0
  0
LINE
  5
60
330
1F
100
AcDbEntity
  8
F-1_枠
  6
Continuous
 62
   200
370
    20
100
AcDbLine
 10
-5989.999990205508
 20
4174.999769056166
 30
0.0
 11
-5989.999990205508
 21
-4205.000164959882
 31
0.0
  0
LINE
  5
61
330
1F
100
AcDbEntity
  8
F-1_枠
  6
Continuous
 62
   200
370
    20
100
AcDbLine
 10
5689.998977248734
 20
4174.999769056166
 30
0.0
 11
5689.998977248734
 21
-4205.000164959882
 31
0.0
  0
LINE
  5
62
330
1F
100
AcDbEntity
  8
F-1_枠
  6
Continuous
 62
   200
370
    20
100
AcDbLine
 10
5694.998498865075
 20
4174.999769056166
 30
0.0
 11
5694.998498865075
 21
-4205.000164959882
 31
0.0
  0
LINE
  5
63
330
1F
100
AcDbEntity
  8
F-1_枠
  6
Continuous
 62
   200
370
    20
100
AcDbLine
 10
5699.998762800888
 20
4174.999769056166
 30
0.0
 11
5699.998762800888
 21
-4205.000164959882
 31
0.0
  0
LINE
  5
64
330
1F
100
AcDbEntity
  8
F-0_補助線
  6
JWW_HOJO
 62
     7
370
     9
100
AcDbLine
 10
849.999587600297
 20
-3795.000165475381
 30
0.0
 11
849.999587600297
 21
-4195.000170630377
 31
0.0
  0
LINE
  5
65
330
1F
100
AcDbEntity
  8
F-0_補助線
  6
JWW_HOJO
 62
     7
370
     9
100
AcDbLine
 10
349.9999175200594
 20
-3795.000165475381
 30
0.0
 11
349.9999175200594
 21
-4195.000170630377
 31
0.0
  0
LINE
  5
66
330
1F
100
AcDbEntity
  8
F-1_枠
  6
Continuous
 62
   200
370
    20
100
AcDbLine
 10
5699.998762800888
 20
-4205.000164959882
 30
0.0
 11
-5999.999752560175
 21
-4205.000164959882
 31
0.0
  0
LINE
  5
67
330
1F
100
AcDbEntity
  8
F-1_枠
  6
Continuous
 62
   200
370
    20
100
AcDbLine
 10
5699.998762800888
 20
-4200.000156196389
 30
0.0
 11
-5999.999752560175
 21
-4200.000156196389
 31
0.0
  0
LINE
  5
68
330
1F
100
AcDbEntity
  8
F-1_枠
  6
Continuous
 62
   200
370
    20
100
AcDbLine
 10
5699.998762800888
 20
-4195.000170630377
 30
0.0
 11
-5999.999752560175
 21
-4195.000170630377
 31
0.0
  0
LINE
  5
69
330
1F
100
AcDbEntity
  8
F-1_枠
  6
Continuous
 62
   200
370
    20
100
AcDbLine
 10
4189.999224688556
 20
-3795.000165475381
 30
0.0
 11
4189.999224688556
 21
-4195.000170630377
 31
0.0
  0
LINE
  5
6A
330
1F
100
AcDbEntity
  8
F-1_枠
  6
Continuous
 62
   200
370
    20
100
AcDbLine
 10
2689.998729808913
 20
-3795.000165475381
 30
0.0
 11
2689.998729808913
 21
-4195.000170630377
 31
0.0
  0
LINE
  5
6B
330
1F
100
AcDbEntity
  8
F-1_枠
  6
Continuous
 62
   200
370
    20
100
AcDbLine
 10
-150.0001237199126
 20
-3795.000165475381
 30
0.0
 11
-150.0001237199126
 21
-4195.000170630377
 31
0.0
  0
LINE
  5
6C
330
1F
100
AcDbEntity
  8
F-1_枠
  6
Continuous
 62
   200
370
    20
100
AcDbLine
 10
-150.0001237199126
 20
-3995.00009846043
 30
0.0
 11
5689.998977248734
 21
-3995.005526671539
 31
0.0
  0
LINE
  5
6D
330
1F
100
AcDbEntity
  8
F-0_補助線
  6
JWW_HOJO
 62
     7
370
     9
100
AcDbLine
 10
-5989.999990205508
 20
-3995.000098460775
 30
0.0
 11
-150.0001237199126
 21
-3995.000098460775
 31
0.0
  0
LINE
  5
6E
330
1F
100
AcDbEntity
  8
F-0_補助線
  6
JWW_HOJO
 62
     7
370
     9
100
AcDbLine
 10
-5989.999990205508
 20
-3905.000098460775
 30
0.0
 11
-150.0001237199126
 21
-3905.000098460775
 31
0.0
  0
LINE
  5
6F
330
1F
100
AcDbEntity
  8
F-0_補助線
  6
JWW_HOJO
 62
     7
370
     9
100
AcDbLine
 10
-5989.999990205508
 20
-4085.000098460775
 30
0.0
 11
-150.0001237199126
 21
-4085.000098460775
 31
0.0
  0
LINE
  5
70
330
1F
100
AcDbEntity
  8
F-0_補助線
  6
JWW_HOJO
 62
     7
370
     9
100
AcDbLine
 10
-150.0002584955405
 20
-4139.999902160367
 30
0.0
 11
5689.998842473104
 21
-4140.005330371476
 31
0.0
  0
LINE
  5
71
330
1F
100
AcDbEntity
  8
F-0_補助線
  6
JWW_HOJO
 62
     7
370
     9
100
AcDbLine
 10
-150.0001748415889
 20
-4049.999902160406
 30
0.0
 11
5689.998926127055
 21
-4050.005330371515
 31
0.0
  0
LINE
  5
72
330
1F
100
AcDbEntity
  8
F-0_補助線
  6
JWW_HOJO
 62
     7
370
     9
100
AcDbLine
 10
-150.000072597868
 20
-3939.999899600454
 30
0.0
 11
5689.999028370776
 21
-3940.005327811563
 31
0.0
  0
LINE
  5
73
330
1F
100
AcDbEntity
  8
F-0_補助線
  6
JWW_HOJO
 62
     7
370
     9
100
AcDbLine
 10
-149.9999889439164
 20
-3849.999899600493
 30
0.0
 11
5689.999112024727
 21
-3850.005327811602
 31
0.0
  0
LINE
  5
74
330
1F
100
AcDbEntity
  8
F-0_補助線
  6
JWW_HOJO
 62
     7
370
     9
100
AcDbLine
 10
2779.998729808913
 20
-3795.000165475381
 30
0.0
 11
2779.998729808913
 21
-4195.000170630377
 31
0.0
  0
LINE
  5
75
330
1F
100
AcDbEntity
  8
F-0_補助線
  6
JWW_HOJO
 62
     7
370
     9
100
AcDbLine
 10
-60.00012371991261
 20
-3795.000165475381
 30
0.0
 11
-60.00012371991261
 21
-4195.000170630377
 31
0.0
  0
LINE
  5
76
330
1F
100
AcDbEntity
  8
F-0_補助線
  6
JWW_HOJO
 62
     7
370
     9
100
AcDbLine
 10
4279.999224688556
 20
-3795.000165475381
 30
0.0
 11
4279.999224688556
 21
-4195.000170630377
 31
0.0
  0
MTEXT
  5
77
330
1F
100
AcDbEntity
  8
F-A_文字
  6
Continuous
 62
     7
370
     0
100
AcDbMText
 10
4279.999224688556
 20
-3887.144017233137
 30
0.0
 40
45.72
 41
240.0
 46
0.0
 71
     7
 72
     1
  1
{\fＭＳ ゴシック|b0|i0|c128|p49;ＤＡＴＥ}
 73
     1
 44
1.0
  0
MTEXT
  5
78
330
1F
100
AcDbEntity
  8
F-A_文字
  6
Continuous
 62
     7
370
     0
100
AcDbMText
 10
4279.999224688556
 20
-4087.144019793223
 30
0.0
 40
45.72
 41
180.0
 46
0.0
 71
     7
 72
     1
  1
{\fＭＳ ゴシック|b0|i0|c128|p49;ＮＯ．}
 73
     1
 44
1.0
  0
MTEXT
  5
79
330
1F
100
AcDbEntity
  8
F-A_文字
  6
Continuous
 62
     7
370
     0
100
AcDbMText
 10
2779.998729808913
 20
-3887.142623000158
 30
0.0
 40
45.72
 41
300.0
 46
0.0
 71
     7
 72
     1
  1
{\fＭＳ ゴシック|b0|i0|c128|p49;ＳＣＡＬＥ}
 73
     1
 44
1.0
  0
MTEXT
  5
7A
330
1F
100
AcDbEntity
  8
F-A_文字
  6
Continuous
 62
     7
370
     0
100
AcDbMText
 10
2779.998729808913
 20
-4087.142625560244
 30
0.0
 40
45.72
 41
240.0
 46
0.0
 71
     7
 72
     1
  1
{\fＭＳ ゴシック|b0|i0|c128|p49;ＦＩＬＥ}
 73
     1
 44
1.0
  0
MTEXT
  5
7B
330
1F
100
AcDbEntity
  8
F-A_文字
  6
Continuous
 62
     7
370
     0
100
AcDbMText
 10
-60.00012371991261
 20
-3887.139983254319
 30
0.0
 40
45.72
 41
180.0
 46
0.0
 71
     7
 72
     1
  1
{\fＭＳ ゴシック|b0|i0|c128|p49;図面名}
 73
     1
 44
1.0
  0
MTEXT
  5
7C
330
1F
100
AcDbEntity
  8
F-A_文字
  6
Continuous
 62
     7
370
     0
100
AcDbMText
 10
1444.998729808913
 20
-4164.281916906312
 30
0.0
 40
101.44125
 41
1065.0
 46
0.0
 71
     7
 72
     1
  1
{\fＭＳ ゴシック|b0|i0|c128|p49;ウッドワン・・・}
 73
     1
 44
1.0
  0
MTEXT
  5
7D
330
1F
100
AcDbEntity
  8
F-A_文字
  6
Continuous
 62
     7
370
     0
100
AcDbMText
 10
1234.998729808913
 20
-4096.140831648532
 30
0.0
 40
45.72
 41
120.0
 46
0.0
 71
     7
 72
     1
  1
{\fＭＳ ゴシック|b0|i0|c128|p49;株式}
 73
     1
 44
1.0
  0
MTEXT
  5
7E
330
1F
100
AcDbEntity
  8
F-A_文字
  6
Continuous
 62
     7
370
     0
100
AcDbMText
 10
1234.998729808913
 20
-4168.140831648571
 30
0.0
 40
45.72
 41
120.0
 46
0.0
 71
     7
 72
     1
  1
{\fＭＳ ゴシック|b0|i0|c128|p49;会社}
 73
     1
 44
1.0
  0
LINE
  5
7F
330
1F
100
AcDbEntity
  8
F-1_枠
  6
Continuous
 62
   200
370
    20
100
AcDbLine
 10
5699.998762800888
 20
-3795.000165475381
 30
0.0
 11
-5999.999752560175
 21
-3795.000165475381
 31
0.0
  0
LINE
  5
80
330
1F
100
AcDbEntity
  8
F-1_枠
  6
Continuous
 62
   200
370
    20
100
AcDbLine
 10
5699.998762800888
 20
-3790.000179909372
 30
0.0
 11
-5999.999752560175
 21
-3790.000179909372
 31
0.0
  0
LINE
  5
81
330
1F
100
AcDbEntity
  8
F-0_補助線
  6
JWW_HOJO
 62
     7
370
     9
100
AcDbLine
 10
-5247.547376752836
 20
-3795.000165475382
 30
0.0
 11
-5247.547376752836
 21
-4205.000327342266
 31
0.0
  0
LINE
  5
82
330
1F
100
AcDbEntity
  8
F-0_補助線
  6
JWW_HOJO
 62
     7
370
     9
100
AcDbLine
 10
-210.0001237199126
 20
-3795.000165475381
 30
0.0
 11
-210.0001237199126
 21
-4195.000170630377
 31
0.0
  0
MTEXT
  5
83
330
1F
100
AcDbEntity
  8
F-A_文字
  6
Continuous
 62
     7
370
     0
100
AcDbMText
 10
5608.403311109712
 20
-4314.841581403302
 30
0.0
 40
68.58
 41
90.0
 46
0.0
 71
     7
 72
     1
  1
{\fＭＳ ゴシック|b0|i0|c128|p49;）}
 73
     1
 44
1.0
  0
MTEXT
  5
84
330
1F
100
AcDbEntity
  8
F-A_文字
  6
Continuous
 62
     7
370
     0
100
AcDbMText
 10
5190.195950842071
 20
-4316.23560625224
 30
0.0
 40
68.58
 41
45.0
 46
0.0
 71
     7
 72
     1
  1
{\fＭＳ ゴシック|b0|i0|c128|p49;,}
 73
     1
 44
1.0
  0
MTEXT
  5
85
330
1F
100
AcDbEntity
  8
F-A_文字
  6
Continuous
 62
     7
370
     0
100
AcDbMText
 10
4923.937261915373
 20
-4314.772129670666
 30
0.0
 40
74.295
 41
97.5
 46
0.0
 71
     7
 72
     1
  1
{\fＭＳ ゴシック|b0|i0|c128|p49;$y}
 73
     1
 44
1.0
  0
MTEXT
  5
86
330
1F
100
AcDbEntity
  8
F-A_文字
  6
Continuous
 62
     7
370
     0
100
AcDbMText
 10
5078.673982954195
 20
-4314.772129670666
 30
0.0
 40
74.295
 41
97.5
 46
0.0
 71
     7
 72
     1
  1
{\fＭＳ ゴシック|b0|i0|c128|p49;$m}
 73
     1
 44
1.0
  0
MTEXT
  5
87
330
1F
100
AcDbEntity
  8
F-A_文字
  6
Continuous
 62
     7
370
     0
100
AcDbMText
 10
5233.410715437103
 20
-4314.772129670666
 30
0.0
 40
74.295
 41
97.5
 46
0.0
 71
     7
 72
     1
  1
{\fＭＳ ゴシック|b0|i0|c128|p49;$d}
 73
     1
 44
1.0
  0
MTEXT
  5
88
330
1F
100
AcDbEntity
  8
F-A_文字
  6
Continuous
 62
     7
370
     0
100
AcDbMText
 10
5388.147447920011
 20
-4314.772129670666
 30
0.0
 40
74.295
 41
195.0
 46
0.0
 71
     7
 72
     1
  1
{\fＭＳ ゴシック|b0|i0|c128|p49;印刷}
 73
     1
 44
1.0
  0
MTEXT
  5
89
330
1F
100
AcDbEntity
  8
F-A_文字
  6
Continuous
 62
     7
370
     0
100
AcDbMText
 10
4784.033374252999
 20
-4319.023655950115
 30
0.0
 40
68.58
 41
90.0
 46
0.0
 71
     7
 72
     1
  1
{\fＭＳ ゴシック|b0|i0|c128|p49;（}
 73
     1
 44
1.0
  0
MTEXT
  5
8A
330
1F
100
AcDbEntity
  8
F-A_文字
  6
Continuous
 62
     7
370
     0
100
AcDbMText
 10
5031.277143812345
 20
-4319.023655950115
 30
0.0
 40
68.58
 41
45.0
 46
0.0
 71
     7
 72
     1
  1
{\fＭＳ ゴシック|b0|i0|c128|p49;,}
 73
     1
 44
1.0
  0
LINE
  5
8B
330
1F
100
AcDbEntity
  8
F-0_補助線
  6
Continuous
 62
   200
370
    20
100
AcDbLine
 10
3561.017955216862
 20
4174.999769056166
 30
0.0
 11
3561.017955216862
 21
-3795.000003092998
 31
0.0
  0
MTEXT
  5
8C
330
1F
100
AcDbEntity
  8
F-1_枠
  6
Continuous
 62
     7
370
     0
100
AcDbMText
 10
349.9999175200594
 20
-3946.496829254887
 30
0.0
 40
78.58125
 41
412.5
 46
0.0
 71
     7
 72
     1
  1
{\fＭＳ ゴシック|b0|i0|c128|p49;DOORETUS}
 73
     1
 44
1.0
  0
MTEXT
  5
8D
330
1F
100
AcDbEntity
  8
F-1_枠
  6
Continuous
 62
     7
370
     0
100
AcDbMText
 10
950.2907610420846
 20
-3946.734954254888
 30
0.0
 40
78.105
 41
615.0
 46
0.0
 71
     7
 72
     1
  1
{\fＭＳ ゴシック|b0|i0|c128|p49;建具納まり図}
 73
     1
 44
1.0
  0
LINE
  5
8E
330
1F
100
AcDbEntity
  8
F-0_補助線
  6
JWW_HOJO
 62
     7
370
     9
100
AcDbLine
 10
3604.998977248734
 20
-3795.000165475381
 30
0.0
 11
3604.998977248734
 21
-4195.000170630377
 31
0.0
  0
MTEXT
  5
8F
330
1F
100
AcDbEntity
  8
F-A_文字
  6
Continuous
 62
     7
370
     0
100
AcDbMText
 10
3529.998977248734
 20
-3946.903278289692
 30
0.0
 40
76.19999999999999
 41
150.0
 46
0.0
 71
     7
 72
     1
  1
{\fＭＳ ゴシック|b0|i0|c128|p49;1/5}
 73
     1
 44
1.0
  0
LINE
  5
90
330
1F
100
AcDbEntity
  8
0-B_寸法
  6
Continuous
 62
   200
370
    20
100
AcDbLine
 10
3561.017955216862
 20
3832.641856629238
 30
0.0
 11
5694.998498865079
 21
3832.641856629238
 31
0.0
  0
MTEXT
  5
91
330
1F
100
AcDbEntity
  8
1-A_文字
  6
Continuous
 62
     7
370
     9
100
AcDbMText
 10
3688.008466232798
 20
3895.055765714996
 30
0.0
 40
79.375
 41
1875.0
 46
0.0
 71
     7
 72
     1
  1
{\fＭＳ ゴシック|b0|i0|c128|p49;寸法を参考に加工をお願いいたします。}
 73
     1
 44
1.0
  0
MTEXT
  5
92
330
1F
100
AcDbEntity
  8
1-A_文字
  6
Continuous
 62
     7
370
     9
100
AcDbMText
 10
3688.008466232798
 20
4017.440084582498
 30
0.0
 40
79.2725806451613
 41
1612.5
 46
0.0
 71
     7
 72
     1
  1
{\fＭＳ ゴシック|b0|i0|c128|p49;※縦枠はＨ2,047あります。下記の}
 73
     1
 44
1.0
  0
LINE
  5
93
330
1F
100
AcDbEntity
  8
0-C_ハッチ
  6
Continuous
 62
     7
370
     9
100
AcDbLine
 10
796.750609928155
 20
-3434.785199466718
 30
0.0
 11
2347.803633853144
 21
-3434.785199466718
 31
0.0
  0
LINE
  5
94
330
1F
100
AcDbEntity
  8
0-C_ハッチ
  6
Continuous
 62
     7
370
     9
100
AcDbLine
 10
-1388.007019461708
 20
-3434.785199466718
 30
0.0
 11
676.750609928155
 21
-3434.785199466718
 31
0.0
  0
LINE
  5
95
330
1F
100
AcDbEntity
  8
0-C_ハッチ
  6
Continuous
 62
     7
370
     9
100
AcDbLine
 10
796.750609928155
 20
-3416.785065849215
 30
0.0
 11
2347.803633853144
 21
-3416.785065849215
 31
0.0
  0
LINE
  5
96
330
1F
100
AcDbEntity
  8
0-C_ハッチ
  6
Continuous
 62
     7
370
     9
100
AcDbLine
 10
-1388.007019461708
 20
-3416.785065849215
 30
0.0
 11
676.750609928155
 21
-3416.785065849215
 31
0.0
  0
LINE
  5
97
330
1F
100
AcDbEntity
  8
0-C_ハッチ
  6
Continuous
 62
     7
370
     9
100
AcDbLine
 10
796.750609928155
 20
-3398.785303391443
 30
0.0
 11
2347.803633853144
 21
-3398.785303391443
 31
0.0
  0
LINE
  5
98
330
1F
100
AcDbEntity
  8
0-C_ハッチ
  6
Continuous
 62
     7
370
     9
100
AcDbLine
 10
-1388.007019461708
 20
-3398.785303391443
 30
0.0
 11
676.750609928155
 21
-3398.785303391443
 31
0.0
  0
LINE
  5
99
330
1F
100
AcDbEntity
  8
0-C_ハッチ
  6
Continuous
 62
     7
370
     9
100
AcDbLine
 10
796.750609928155
 20
-3380.78516977394
 30
0.0
 11
2347.803633853144
 21
-3380.78516977394
 31
0.0
  0
LINE
  5
9A
330
1F
100
AcDbEntity
  8
0-C_ハッチ
  6
Continuous
 62
     7
370
     9
100
AcDbLine
 10
-1388.007019461708
 20
-3380.78516977394
 30
0.0
 11
676.750609928155
 21
-3380.78516977394
 31
0.0
  0
LINE
  5
9B
330
1F
100
AcDbEntity
  8
0-C_ハッチ
  6
Continuous
 62
     7
370
     9
100
AcDbLine
 10
796.750609928155
 20
-3362.785036156437
 30
0.0
 11
2347.803633853144
 21
-3362.785036156437
 31
0.0
  0
LINE
  5
9C
330
1F
100
AcDbEntity
  8
0-C_ハッチ
  6
Continuous
 62
     7
370
     9
100
AcDbLine
 10
-1388.007019461708
 20
-3362.785036156437
 30
0.0
 11
676.750609928155
 21
-3362.785036156437
 31
0.0
  0
MTEXT
  5
9D
330
1F
100
AcDbEntity
  8
0-A_文字
  6
Continuous
 62
     7
370
     9
100
AcDbMText
 10
368.5612658198247
 20
-3230.816936885844
 30
0.0
 40
57.15
 41
600.0
 46
0.0
 71
     7
 72
     1
  1
{\fＭＳ ゴシック|b0|i0|c128|p49;　必要ありません}
 73
     1
 44
1.0
  0
MTEXT
  5
9E
330
1F
100
AcDbEntity
  8
0-A_文字
  6
Continuous
 62
     7
370
     9
100
AcDbMText
 10
368.5612658198247
 20
-3130.177686534921
 30
0.0
 40
57.15000000000002
 41
1200.0
 46
0.0
 71
     7
 72
     1
  1
{\fＭＳ ゴシック|b0|i0|c128|p49;※ソフトクローズを付ける場合は、}
 73
     1
 44
1.0
  0
LINE
  5
9F
330
1F
100
AcDbEntity
  8
0-A_文字
  6
Continuous
 62
     7
370
     9
100
AcDbLine
 10
-641.110325466434
 20
-3017.135847941374
 30
0.0
 11
71.19705139987076
 21
-3017.135847941374
 31
0.0
  0
LINE
  5
A0
330
1F
100
AcDbEntity
  8
0-A_文字
  6
Continuous
 62
     7
370
     9
100
AcDbLine
 10
71.19705139987076
 20
-3017.135847941374
 30
0.0
 11
71.19705139987076
 21
-2850.050297130393
 31
0.0
  0
LINE
  5
A1
330
1F
100
AcDbEntity
  8
0-A_文字
  6
Continuous
 62
     7
370
     9
100
AcDbLine
 10
-641.110325466434
 20
-2850.050297130393
 30
0.0
 11
71.19705139987076
 21
-2850.050297130393
 31
0.0
  0
LINE
  5
A2
330
1F
100
AcDbEntity
  8
0-A_文字
  6
Continuous
 62
     7
370
     9
100
AcDbLine
 10
-823.2493900718254
 20
-3311.784293836965
 30
0.0
 11
-626.9318376795445
 21
-3017.135847941374
 31
0.0
  0
LINE
  5
A3
330
1F
100
AcDbEntity
  8
0-A_文字
  6
Continuous
 62
     7
370
     9
100
AcDbLine
 10
-641.110325466434
 20
-3017.135847941374
 30
0.0
 11
-641.110325466434
 21
-2850.050297130393
 31
0.0
  0
MTEXT
  5
A4
330
1F
100
AcDbEntity
  8
0-A_文字
  6
Continuous
 62
     7
370
     9
100
AcDbMText
 10
-583.9767873086845
 20
-2992.604290874876
 30
0.0
 40
78.10500000000087
 41
615.0000000000068
 46
0.0
 71
     7
 72
     1
  1
{\fＭＳ ゴシック|b0|i0|c128|p49;振れ止め金具}
 73
     1
 44
1.0
  0
LINE
  5
A5
330
1F
100
AcDbEntity
  8
0-A_文字
  6
Continuous
 62
     7
370
     9
100
AcDbLine
 10
1716.825533831855
 20
-2914.345118386971
 30
0.0
 11
2012.474799128007
 21
-3247.051078681236
 31
0.0
  0
LINE
  5
A6
330
1F
100
AcDbEntity
  8
0-A_文字
  6
Continuous
 62
     7
370
     9
100
AcDbLine
 10
1589.209798596517
 20
-2914.345118386971
 30
0.0
 11
1716.825533831855
 21
-2914.345118386971
 31
0.0
  0
LINE
  5
A7
330
1F
100
AcDbEntity
  8
0-A_文字
  6
Continuous
 62
     7
370
     9
100
AcDbLine
 10
341.9013421572123
 20
-2850.050297130393
 30
0.0
 11
1589.209798596517
 21
-2850.050297130393
 31
0.0
  0
LINE
  5
A8
330
1F
100
AcDbEntity
  8
0-A_文字
  6
Continuous
 62
     7
370
     9
100
AcDbLine
 10
1589.209798596517
 20
-2850.050297130393
 30
0.0
 11
1589.209798596517
 21
-3017.135847941374
 31
0.0
  0
LINE
  5
A9
330
1F
100
AcDbEntity
  8
0-A_文字
  6
Continuous
 62
     7
370
     9
100
AcDbLine
 10
341.9013421572123
 20
-3017.135847941374
 30
0.0
 11
1589.209798596517
 21
-3017.135847941374
 31
0.0
  0
LINE
  5
AA
330
1F
100
AcDbEntity
  8
0-A_文字
  6
Continuous
 62
     7
370
     9
100
AcDbLine
 10
341.9013421572123
 20
-3017.135847941374
 30
0.0
 11
341.9013421572123
 21
-2850.050297130393
 31
0.0
  0
MTEXT
  5
AB
330
1F
100
AcDbEntity
  8
0-A_文字
  6
Continuous
 62
     7
370
     9
100
AcDbMText
 10
399.8719435628959
 20
-2985.256113872663
 30
0.0
 40
78.97090909090909
 41
1140.0
 46
0.0
 71
     7
 72
     1
  1
{\fＭＳ ゴシック|b0|i0|c128|p49;床付　戸当りストッパー}
 73
     1
 44
1.0
  0
LINE
  5
AC
330
1F
100
AcDbEntity
  8
0-4_枠
  6
Continuous
 62
    92
370
    13
100
AcDbLine
 10
-355.2493900718417
 20
-1742.785036156436
 30
0.0
 11
-355.2493900718417
 21
-317.7850361564325
 31
0.0
  0
LINE
  5
AD
330
1F
100
AcDbEntity
  8
0-4_枠
  6
Continuous
 62
    92
370
    13
100
AcDbLine
 10
-355.2493900718417
 20
-3362.785036156437
 30
0.0
 11
-355.2493900718417
 21
-1832.785036156436
 31
0.0
  0
LINE
  5
AE
330
1F
100
AcDbEntity
  8
0-4_枠
  6
Continuous
 62
    92
370
    13
100
AcDbLine
 10
-523.2493900718254
 20
-1742.785036156436
 30
0.0
 11
-523.2493900718254
 21
-317.7850361564325
 31
0.0
  0
LINE
  5
AF
330
1F
100
AcDbEntity
  8
0-4_枠
  6
Continuous
 62
    92
370
    13
100
AcDbLine
 10
-523.2493900718254
 20
-3362.785036156437
 30
0.0
 11
-523.2493900718254
 21
-1832.785036156436
 31
0.0
  0
LINE
  5
B0
330
1F
100
AcDbEntity
  8
0-4_枠
  6
Continuous
 62
    92
370
    13
100
AcDbLine
 10
-523.2493900718254
 20
-533.7850361564356
 30
0.0
 11
-1388.007019461708
 21
-533.7850361564356
 31
0.0
  0
LINE
  5
B1
330
1F
100
AcDbEntity
  8
0-1_通り芯
  6
JWW_CENTER1
 62
   120
370
     5
100
AcDbLine
 10
-823.2493900718254
 20
-3167.107842271958
 30
0.0
 11
-823.2493900718254
 21
-3456.298562081596
 31
0.0
  0
LINE
  5
B2
330
1F
100
AcDbEntity
  8
0-7_金物
  6
Continuous
 62
     7
370
     9
100
AcDbLine
 10
-787.2493900718308
 20
-3242.784640252721
 30
0.0
 11
-787.2493900718308
 21
-3344.785036156436
 31
0.0
  0
LINE
  5
B3
330
1F
100
AcDbEntity
  8
0-7_金物
  6
Continuous
 62
     7
370
     9
100
AcDbLine
 10
-859.2493900718267
 20
-3242.784640252721
 30
0.0
 11
-859.2493900718267
 21
-3344.785036156436
 31
0.0
  0
LINE
  5
B4
330
1F
100
AcDbEntity
  8
0-7_金物
  6
Continuous
 62
     7
370
     9
100
AcDbLine
 10
-913.2493900718254
 20
-3344.785036156436
 30
0.0
 11
-913.2493900718254
 21
-3362.785036156437
 31
0.0
  0
LINE
  5
B5
330
1F
100
AcDbEntity
  8
0-7_金物
  6
Continuous
 62
     7
370
     9
100
AcDbLine
 10
-733.2493900718254
 20
-3344.785036156436
 30
0.0
 11
-913.2493900718254
 21
-3344.785036156436
 31
0.0
  0
LINE
  5
B6
330
1F
100
AcDbEntity
  8
0-7_金物
  6
Continuous
 62
     7
370
     9
100
AcDbLine
 10
-733.2493900718254
 20
-3344.785036156436
 30
0.0
 11
-733.2493900718254
 21
-3362.785036156437
 31
0.0
  0
LINE
  5
B7
330
1F
100
AcDbEntity
  8
0-7_金物
  6
Continuous
 62
     7
370
     9
100
AcDbLine
 10
-787.2493900718308
 20
-3242.784640252721
 30
0.0
 11
-859.2493900718267
 21
-3242.784640252721
 31
0.0
  0
LINE
  5
B8
330
1F
100
AcDbEntity
  8
0-7_金物
  6
Continuous
 62
     7
370
     9
100
AcDbLine
 10
2092.75060992815
 20
-3242.784664996699
 30
0.0
 11
2092.75060992815
 21
-3362.784664996699
 31
0.0
  0
ARC
  5
B9
330
1F
100
AcDbEntity
  8
0-7_金物
  6
Continuous
 62
     7
370
     9
100
AcDbCircle
 10
2002.75060992815
 20
-3242.784664996699
 30
0.0
 40
90.0
100
AcDbArc
 50
0.0
 51
90.0
  0
LINE
  5
BA
330
1F
100
AcDbEntity
  8
0-7_金物
  6
Continuous
 62
     7
370
     9
100
AcDbLine
 10
2002.75060992815
 20
-3152.784664996699
 30
0.0
 11
1948.75060992815
 21
-3152.784664996699
 31
0.0
  0
LINE
  5
BB
330
1F
100
AcDbEntity
  8
0-7_金物
  6
Continuous
 62
     7
370
     9
100
AcDbLine
 10
1948.75060992815
 20
-3362.784664996699
 30
0.0
 11
1948.75060992815
 21
-3152.784664996699
 31
0.0
  0
LINE
  5
BC
330
1F
100
AcDbEntity
  8
0-7_金物
  6
Continuous
 62
     7
370
     9
100
AcDbLine
 10
796.750609928155
 20
-317.7850361564325
 30
0.0
 11
2014.750609928157
 21
-317.7850361564325
 31
0.0
  0
LINE
  5
BD
330
1F
100
AcDbEntity
  8
0-7_金物
  6
Continuous
 62
     7
370
     9
100
AcDbLine
 10
2014.750609928157
 20
-317.7850361564325
 30
0.0
 11
2014.750609928157
 21
24.21496384356857
 31
0.0
  0
LINE
  5
BE
330
1F
100
AcDbEntity
  8
0-7_金物
  6
Continuous
 62
     7
370
     9
100
AcDbLine
 10
2014.750609928157
 20
24.21496384356857
 30
0.0
 11
796.750609928155
 21
24.21496384356857
 31
0.0
  0
LINE
  5
BF
330
1F
100
AcDbEntity
  8
0-7_金物
  6
Continuous
 62
     7
370
     9
100
AcDbLine
 10
676.750609928155
 20
24.21496384356857
 30
0.0
 11
-1388.007019461708
 21
24.21496384356857
 31
0.0
  0
LINE
  5
C0
330
1F
100
AcDbEntity
  8
0-7_金物
  6
Continuous
 62
     7
370
     9
100
AcDbLine
 10
676.750609928155
 20
-53.78524400588304
 30
0.0
 11
-1388.007019461708
 21
-53.78524400588304
 31
0.0
  0
LINE
  5
C1
330
1F
100
AcDbEntity
  8
0-7_金物
  6
Continuous
 62
     7
370
     9
100
AcDbLine
 10
1996.750609928155
 20
-53.78524400588304
 30
0.0
 11
796.750609928155
 21
-53.78524400588304
 31
0.0
  0
LINE
  5
C2
330
1F
100
AcDbEntity
  8
0-7_金物
  6
Continuous
 62
     7
370
     9
100
AcDbLine
 10
676.750609928155
 20
-245.7852440058824
 30
0.0
 11
-1388.007019461708
 21
-245.7852440058824
 31
0.0
  0
LINE
  5
C3
330
1F
100
AcDbEntity
  8
0-7_金物
  6
Continuous
 62
     7
370
     9
100
AcDbLine
 10
1996.750609928155
 20
-245.7852440058824
 30
0.0
 11
796.750609928155
 21
-245.7852440058824
 31
0.0
  0
LINE
  5
C4
330
1F
100
AcDbEntity
  8
0-7_金物
  6
Continuous
 62
     7
370
     9
100
AcDbLine
 10
-1388.007019461708
 20
-317.7850361564325
 30
0.0
 11
676.750609928155
 21
-317.7850361564325
 31
0.0
  0
LINE
  5
C5
330
1F
100
AcDbEntity
  8
0-7_金物
  6
Continuous
 62
     7
370
     9
100
AcDbLine
 10
1996.750609928155
 20
-317.7850361564325
 30
0.0
 11
1996.750609928155
 21
24.21496384356857
 31
0.0
  0
LINE
  5
C6
330
1F
100
AcDbEntity
  8
0-0_補助線
  6
JWW_HOJO
 62
     7
370
     9
100
AcDbLine
 10
796.750609928155
 20
-1832.785036156436
 30
0.0
 11
1948.750609928151
 21
-1832.785036156436
 31
0.0
  0
LINE
  5
C7
330
1F
100
AcDbEntity
  8
0-0_補助線
  6
JWW_HOJO
 62
     7
370
     9
100
AcDbLine
 10
-1388.007019461708
 20
-1832.785036156436
 30
0.0
 11
676.750609928155
 21
-1832.785036156436
 31
0.0
  0
LINE
  5
C8
330
1F
100
AcDbEntity
  8
0-0_補助線
  6
JWW_HOJO
 62
     7
370
     9
100
AcDbLine
 10
796.750609928155
 20
-1742.785036156436
 30
0.0
 11
1948.750609928151
 21
-1742.785036156436
 31
0.0
  0
LINE
  5
C9
330
1F
100
AcDbEntity
  8
0-0_補助線
  6
JWW_HOJO
 62
     7
370
     9
100
AcDbLine
 10
-1388.007019461708
 20
-1742.785036156436
 30
0.0
 11
676.750609928155
 21
-1742.785036156436
 31
0.0
  0
LINE
  5
CA
330
1F
100
AcDbEntity
  8
0-0_補助線
  6
JWW_HOJO
 62
     7
370
     9
100
AcDbLine
 10
676.750609928155
 20
-1832.785036156436
 30
0.0
 11
676.750609928155
 21
-3434.785199466718
 31
0.0
  0
LINE
  5
CB
330
1F
100
AcDbEntity
  8
0-0_補助線
  6
JWW_HOJO
 62
     7
370
     9
100
AcDbLine
 10
676.750609928155
 20
24.21496384356857
 30
0.0
 11
676.750609928155
 21
-1742.785036156436
 31
0.0
  0
LINE
  5
CC
330
1F
100
AcDbEntity
  8
0-0_補助線
  6
JWW_HOJO
 62
     7
370
     9
100
AcDbLine
 10
796.750609928155
 20
-1832.785036156436
 30
0.0
 11
796.750609928155
 21
-3434.785199466718
 31
0.0
  0
LINE
  5
CD
330
1F
100
AcDbEntity
  8
0-0_補助線
  6
JWW_HOJO
 62
     7
370
     9
100
AcDbLine
 10
796.750609928155
 20
24.21496384356857
 30
0.0
 11
796.750609928155
 21
-1742.785036156436
 31
0.0
  0
LINE
  5
CE
330
1F
100
AcDbEntity
  8
0-6_扉
  6
JWW_DASHED1
 62
   200
370
    20
100
AcDbLine
 10
676.750609928155
 20
-3311.784664996701
 30
0.0
 11
-1388.007019461708
 21
-3311.784664996701
 31
0.0
  0
LINE
  5
CF
330
1F
100
AcDbEntity
  8
0-6_扉
  6
JWW_DASHED1
 62
   200
370
    20
100
AcDbLine
 10
1948.750609928151
 20
-3311.784664996701
 30
0.0
 11
796.750609928155
 21
-3311.784664996701
 31
0.0
  0
LINE
  5
D0
330
1F
100
AcDbEntity
  8
0-6_扉
  6
JWW_DASHED1
 62
   200
370
    20
100
AcDbLine
 10
676.750609928155
 20
-275.7849668732811
 30
0.0
 11
-1388.007019461708
 21
-275.7849668732811
 31
0.0
  0
LINE
  5
D1
330
1F
100
AcDbEntity
  8
0-6_扉
  6
JWW_DASHED1
 62
   200
370
    20
100
AcDbLine
 10
1948.750609928151
 20
-275.7849668732811
 30
0.0
 11
796.750609928155
 21
-275.7849668732811
 31
0.0
  0
LINE
  5
D2
330
1F
100
AcDbEntity
  8
0-6_扉
  6
JWW_DASHED1
 62
   200
370
    20
100
AcDbLine
 10
-361.2493900718363
 20
-1832.785036156436
 30
0.0
 11
-361.2493900718363
 21
-3311.784664996701
 31
0.0
  0
LINE
  5
D3
330
1F
100
AcDbEntity
  8
0-6_扉
  6
JWW_DASHED1
 62
   200
370
    20
100
AcDbLine
 10
-361.2493900718363
 20
-275.7849668732811
 30
0.0
 11
-361.2493900718363
 21
-1742.785036156436
 31
0.0
  0
LINE
  5
D4
330
1F
100
AcDbEntity
  8
0-6_扉
  6
JWW_DASHED1
 62
   200
370
    20
100
AcDbLine
 10
-1123.249390071825
 20
-1832.785036156436
 30
0.0
 11
-1123.249390071825
 21
-3311.784664996701
 31
0.0
  0
LINE
  5
D5
330
1F
100
AcDbEntity
  8
0-6_扉
  6
JWW_DASHED1
 62
   200
370
    20
100
AcDbLine
 10
-1123.249390071825
 20
-275.7849668732811
 30
0.0
 11
-1123.249390071825
 21
-1742.785036156436
 31
0.0
  0
LINE
  5
D6
330
1F
100
AcDbEntity
  8
0-6_扉
  6
JWW_DASHED1
 62
   200
370
    20
100
AcDbLine
 10
1948.750609928151
 20
-1742.785036156433
 30
0.0
 11
1948.750609928151
 21
-275.7849668732811
 31
0.0
  0
LINE
  5
D7
330
1F
100
AcDbEntity
  8
0-6_扉
  6
JWW_DASHED1
 62
   200
370
    20
100
AcDbLine
 10
1948.750609928151
 20
-1832.785036156433
 30
0.0
 11
1948.750609928151
 21
-3311.784664996701
 31
0.0
  0
MTEXT
  5
D8
330
1F
100
AcDbEntity
  8
0-B_寸法
  6
Continuous
 62
     7
370
   211
100
AcDbMText
 10
-676.9993900718254
 20
-3640.642690285085
 30
0.0
 40
74.295
 41
97.5
 46
0.0
 71
     7
 72
     1
  1
{\fＭＳ ゴシック|b0|i0|c128|p49;35}
 73
     1
 44
1.0
  0
LINE
  5
D9
330
1F
100
AcDbEntity
  8
0-B_寸法
  6
Continuous
 62
   120
370
     5
100
AcDbLine
 10
-523.2493900718254
 20
-3647.790190285085
 30
0.0
 11
-523.2493900718254
 21
-3524.016808233878
 31
0.0
  0
LWPOLYLINE
  5
DA
330
1F
100
AcDbEntity
  8
0-B_寸法
  6
Continuous
 62
     7
370
     9
100
AcDbPolyline
 90
        4
 70
     1
 43
3.0
 10
-521.7493900718254
 20
-3647.790190285085
 42
0.4142135623731
 10
-523.2493900718254
 20
-3646.290190285085
 42
0.4142135623731
 10
-524.7493900718254
 20
-3647.790190285085
 42
0.4142135623731
 10
-523.2493900718254
 20
-3649.290190285085
 42
0.4142135623731
  0
LINE
  5
DB
330
1F
100
AcDbEntity
  8
0-B_寸法
  6
Continuous
 62
   120
370
     5
100
AcDbLine
 10
-733.2493900718254
 20
-3647.790190285085
 30
0.0
 11
-523.2493900718254
 21
-3647.790190285085
 31
0.0
  0
MTEXT
  5
DC
330
1F
100
AcDbEntity
  8
0-B_寸法
  6
Continuous
 62
     7
370
   211
100
AcDbMText
 10
-871.9993900718254
 20
-3640.642690285085
 30
0.0
 40
74.295
 41
97.5
 46
0.0
 71
     7
 72
     1
  1
{\fＭＳ ゴシック|b0|i0|c128|p49;30}
 73
     1
 44
1.0
  0
LINE
  5
DD
330
1F
100
AcDbEntity
  8
0-B_寸法
  6
Continuous
 62
   120
370
     5
100
AcDbLine
 10
-733.2493900718254
 20
-3647.790190285085
 30
0.0
 11
-733.2493900718254
 21
-3524.016808233878
 31
0.0
  0
LINE
  5
DE
330
1F
100
AcDbEntity
  8
0-B_寸法
  6
Continuous
 62
   120
370
     5
100
AcDbLine
 10
-913.2493900718254
 20
-3647.790190285085
 30
0.0
 11
-913.2493900718254
 21
-3524.016808233878
 31
0.0
  0
LWPOLYLINE
  5
DF
330
1F
100
AcDbEntity
  8
0-B_寸法
  6
Continuous
 62
     7
370
     9
100
AcDbPolyline
 90
        4
 70
     1
 43
3.0
 10
-731.7493900718254
 20
-3647.790190285085
 42
0.4142135623731
 10
-733.2493900718254
 20
-3646.290190285085
 42
0.4142135623731
 10
-734.7493900718254
 20
-3647.790190285085
 42
0.4142135623731
 10
-733.2493900718254
 20
-3649.290190285085
 42
0.4142135623731
  0
LWPOLYLINE
  5
E0
330
1F
100
AcDbEntity
  8
0-B_寸法
  6
Continuous
 62
     7
370
     9
100
AcDbPolyline
 90
        4
 70
     1
 43
3.0
 10
-911.7493900718254
 20
-3647.790190285085
 42
0.4142135623731
 10
-913.2493900718254
 20
-3646.290190285085
 42
0.4142135623731
 10
-914.7493900718254
 20
-3647.790190285085
 42
0.4142135623731
 10
-913.2493900718254
 20
-3649.290190285085
 42
0.4142135623731
  0
LINE
  5
E1
330
1F
100
AcDbEntity
  8
0-B_寸法
  6
Continuous
 62
   120
370
     5
100
AcDbLine
 10
-913.2493900718254
 20
-3647.790190285085
 30
0.0
 11
-733.2493900718254
 21
-3647.790190285085
 31
0.0
  0
MTEXT
  5
E2
330
1F
100
AcDbEntity
  8
0-B_寸法
  6
Continuous
 62
     7
370
   211
100
AcDbMText
 10
-487.9993900718335
 20
-3640.642690285085
 30
0.0
 40
74.295
 41
97.5
 46
0.0
 71
     7
 72
     1
  1
{\fＭＳ ゴシック|b0|i0|c128|p49;28}
 73
     1
 44
1.0
  0
LINE
  5
E3
330
1F
100
AcDbEntity
  8
0-B_寸法
  6
Continuous
 62
   120
370
     5
100
AcDbLine
 10
-355.2493900718417
 20
-3647.790190285085
 30
0.0
 11
-355.2493900718417
 21
-3524.016808233878
 31
0.0
  0
LWPOLYLINE
  5
E4
330
1F
100
AcDbEntity
  8
0-B_寸法
  6
Continuous
 62
     7
370
     9
100
AcDbPolyline
 90
        4
 70
     1
 43
3.0
 10
-353.7493900718417
 20
-3647.790190285085
 42
0.4142135623731
 10
-355.2493900718417
 20
-3646.290190285085
 42
0.4142135623731
 10
-356.7493900718417
 20
-3647.790190285085
 42
0.4142135623731
 10
-355.2493900718417
 20
-3649.290190285085
 42
0.4142135623731
  0
LINE
  5
E5
330
1F
100
AcDbEntity
  8
0-B_寸法
  6
Continuous
 62
   120
370
     5
100
AcDbLine
 10
-523.2493900718254
 20
-3647.790190285085
 30
0.0
 11
-355.2493900718417
 21
-3647.790190285085
 31
0.0
  0
LINE
  5
E6
330
1F
100
AcDbEntity
  8
0-B_寸法
  6
Continuous
 62
   120
370
     5
100
AcDbLine
 10
-355.2493900718417
 20
-3647.790190285085
 30
0.0
 11
1965.698486503464
 21
-3647.790190285085
 31
0.0
  0
LINE
  5
E7
330
1F
100
AcDbEntity
  8
0-B_寸法
  6
Continuous
 62
   120
370
     5
100
AcDbLine
 10
1965.698486503464
 20
-3647.790190285085
 30
0.0
 11
1965.698486503464
 21
-3524.016808233878
 31
0.0
  0
LWPOLYLINE
  5
E8
330
1F
100
AcDbEntity
  8
0-B_寸法
  6
Continuous
 62
     7
370
     9
100
AcDbPolyline
 90
        4
 70
     1
 43
3.0
 10
1967.198486503464
 20
-3647.790190285085
 42
0.4142135623731
 10
1965.698486503464
 20
-3646.290190285085
 42
0.4142135623731
 10
1964.198486503464
 20
-3647.790190285085
 42
0.4142135623731
 10
1965.698486503464
 20
-3649.290190285085
 42
0.4142135623731
  0
LWPOLYLINE
  5
E9
330
1F
100
AcDbEntity
  8
0-B_寸法
  6
Continuous
 62
     7
370
     9
100
AcDbPolyline
 90
        4
 70
     1
 43
3.0
 10
-3331.33303431266
 20
474.1220334951754
 42
0.4142135623731
 10
-3332.83303431266
 20
475.6220334951754
 42
0.4142135623731
 10
-3334.33303431266
 20
474.1220334951754
 42
0.4142135623731
 10
-3332.83303431266
 20
472.6220334951754
 42
0.4142135623731
  0
LINE
  5
EA
330
1F
100
AcDbEntity
  8
0-B_寸法
  6
Continuous
 62
   120
370
     5
100
AcDbLine
 10
-3332.83303431266
 20
474.1220334951754
 30
0.0
 11
-3332.83303431266
 21
326.9049851143802
 31
0.0
  0
LINE
  5
EB
330
1F
100
AcDbEntity
  8
0-B_寸法
  6
Continuous
 62
   120
370
     5
100
AcDbLine
 10
-2312.83303431266
 20
611.2924589440572
 30
0.0
 11
-3332.83303431266
 21
611.2924589440572
 31
0.0
  0
LWPOLYLINE
  5
EC
330
1F
100
AcDbEntity
  8
0-B_寸法
  6
Continuous
 62
     7
370
     9
100
AcDbPolyline
 90
        4
 70
     1
 43
3.0
 10
-3331.33303431266
 20
611.2924589440572
 42
0.4142135623731
 10
-3332.83303431266
 20
612.7924589440573
 42
0.4142135623731
 10
-3334.33303431266
 20
611.2924589440572
 42
0.4142135623731
 10
-3332.83303431266
 20
609.7924589440572
 42
0.4142135623731
  0
LINE
  5
ED
330
1F
100
AcDbEntity
  8
0-B_寸法
  6
Continuous
 62
   120
370
     5
100
AcDbLine
 10
-3332.83303431266
 20
611.2924589440572
 30
0.0
 11
-3332.83303431266
 21
474.1220334951754
 31
0.0
  0
LINE
  5
EE
330
1F
100
AcDbEntity
  8
0-0_補助線
  6
JWW_HOJO
 62
     7
370
     9
100
AcDbLine
 10
-3332.83303431266
 20
-1742.785036156436
 30
0.0
 11
-2312.83303431266
 21
-1742.785036156436
 31
0.0
  0
LINE
  5
EF
330
1F
100
AcDbEntity
  8
0-0_補助線
  6
JWW_HOJO
 62
     7
370
     9
100
AcDbLine
 10
-3332.83303431266
 20
-1832.785036156436
 30
0.0
 11
-2312.83303431266
 21
-1832.785036156436
 31
0.0
  0
LINE
  5
F0
330
1F
100
AcDbEntity
  8
0-4_枠
  6
JWW_DASHED1
 62
    92
370
    13
100
AcDbLine
 10
-3332.83303431266
 20
-461.7850361564362
 30
0.0
 11
-3332.83303431266
 21
-386.7850361564362
 31
0.0
  0
LINE
  5
F1
330
1F
100
AcDbEntity
  8
0-4_枠
  6
Continuous
 62
    92
370
    13
100
AcDbLine
 10
-3332.83303431266
 20
-461.7850361564362
 30
0.0
 11
-3332.83303431266
 21
-1742.785036156436
 31
0.0
  0
LINE
  5
F2
330
1F
100
AcDbEntity
  8
0-4_枠
  6
Continuous
 62
    92
370
    13
100
AcDbLine
 10
-3332.83303431266
 20
-1832.785036156436
 30
0.0
 11
-3332.83303431266
 21
-3362.785036156436
 31
0.0
  0
MTEXT
  5
F3
330
1F
100
AcDbEntity
  8
0-A_文字
  6
Continuous
 62
     7
370
     9
100
AcDbMText
 10
-3849.897027046114
 20
319.7400060641859
 30
0.0
 40
77.15249999999999
 41
405.0
 46
0.0
 71
     7
 72
     1
  1
{\fＭＳ ゴシック|b0|i0|c128|p49;補強桟木}
 73
     1
 44
1.0
  0
LINE
  5
F4
330
1F
100
AcDbEntity
  8
0-A_文字
  6
Continuous
 62
     7
370
     9
100
AcDbLine
 10
-3866.261023799207
 20
318.2209387682383
 30
0.0
 11
-3392.899208274855
 21
318.2209387682383
 31
0.0
  0
LINE
  5
F5
330
1F
100
AcDbEntity
  8
0-A_文字
  6
Continuous
 62
     7
370
     9
100
AcDbLine
 10
-3392.899208274855
 20
318.2209387682383
 30
0.0
 11
-3102.629037512102
 21
-11.39222558569628
 31
0.0
  0
MTEXT
  5
F6
330
1F
100
AcDbEntity
  8
0-B_寸法
  6
Continuous
 62
     7
370
     9
100
AcDbMText
 10
-3003.986387455938
 20
-3694.802292931218
 30
0.0
 40
57.15
 41
375.0
 46
0.0
 71
     7
 72
     1
  1
{\fＭＳ ゴシック|b0|i0|c128|p49;(見切から)}
 73
     1
 44
1.0
  0
LINE
  5
F7
330
1F
100
AcDbEntity
  8
0-B_寸法
  6
Continuous
 62
   120
370
     5
100
AcDbLine
 10
-1962.909345112064
 20
-245.7852440058841
 30
0.0
 11
-1962.909345112064
 21
-275.7849668732828
 31
0.0
  0
LWPOLYLINE
  5
F8
330
1F
100
AcDbEntity
  8
0-B_寸法
  6
Continuous
 62
     7
370
     9
100
AcDbPolyline
 90
        4
 70
     1
 43
3.0
 10
-1961.409345112065
 20
-245.7852440058841
 42
0.4142135623731
 10
-1962.909345112064
 20
-244.285244005884
 42
0.4142135623731
 10
-1964.409345112064
 20
-245.7852440058841
 42
0.4142135623731
 10
-1962.909345112064
 20
-247.2852440058841
 42
0.4142135623731
  0
LWPOLYLINE
  5
F9
330
1F
100
AcDbEntity
  8
0-B_寸法
  6
Continuous
 62
     7
370
     9
100
AcDbPolyline
 90
        4
 70
     1
 43
3.0
 10
-1961.409345112065
 20
-275.7849668732828
 42
0.4142135623731
 10
-1962.909345112064
 20
-274.2849668732828
 42
0.4142135623731
 10
-1964.409345112064
 20
-275.7849668732828
 42
0.4142135623731
 10
-1962.909345112064
 20
-277.2849668732828
 42
0.4142135623731
  0
LINE
  5
FA
330
1F
100
AcDbEntity
  8
0-B_寸法
  6
Continuous
 62
   120
370
     5
100
AcDbLine
 10
-1962.909345112064
 20
-245.7852440058841
 30
0.0
 11
-2126.773906015092
 21
-245.7852440058841
 31
0.0
  0
LINE
  5
FB
330
1F
100
AcDbEntity
  8
0-B_寸法
  6
Continuous
 62
   120
370
     5
100
AcDbLine
 10
-1962.909345112064
 20
-275.7849668732828
 30
0.0
 11
-2126.773906015092
 21
-275.7849668732828
 31
0.0
  0
LINE
  5
FC
330
1F
100
AcDbEntity
  8
0-B_寸法
  6
Continuous
 62
   120
370
     5
100
AcDbLine
 10
-1962.909345112064
 20
-275.7849668732828
 30
0.0
 11
-1962.909345112064
 21
-3311.7846649967
 31
0.0
  0
LWPOLYLINE
  5
FD
330
1F
100
AcDbEntity
  8
0-B_寸法
  6
Continuous
 62
     7
370
     9
100
AcDbPolyline
 90
        4
 70
     1
 43
3.0
 10
-1961.409345112065
 20
-3311.7846649967
 42
0.4142135623731
 10
-1962.909345112064
 20
-3310.2846649967
 42
0.4142135623731
 10
-1964.409345112064
 20
-3311.7846649967
 42
0.4142135623731
 10
-1962.909345112064
 20
-3313.2846649967
 42
0.4142135623731
  0
LINE
  5
FE
330
1F
100
AcDbEntity
  8
0-B_寸法
  6
Continuous
 62
   120
370
     5
100
AcDbLine
 10
-1962.909345112064
 20
-3311.7846649967
 30
0.0
 11
-2126.773906015092
 21
-3311.7846649967
 31
0.0
  0
LINE
  5
FF
330
1F
100
AcDbEntity
  8
0-B_寸法
  6
Continuous
 62
   120
370
     5
100
AcDbLine
 10
-1962.909345112064
 20
-3311.7846649967
 30
0.0
 11
-1962.909345112064
 21
-3362.785036156436
 31
0.0
  0
LWPOLYLINE
  5
100
330
1F
100
AcDbEntity
  8
0-B_寸法
  6
Continuous
 62
     7
370
     9
100
AcDbPolyline
 90
        4
 70
     1
 43
3.0
 10
-1961.409345112065
 20
-3362.785036156436
 42
0.4142135623731
 10
-1962.909345112064
 20
-3361.285036156436
 42
0.4142135623731
 10
-1964.409345112064
 20
-3362.785036156436
 42
0.4142135623731
 10
-1962.909345112064
 20
-3364.285036156436
 42
0.4142135623731
  0
LINE
  5
101
330
1F
100
AcDbEntity
  8
0-B_寸法
  6
Continuous
 62
   120
370
     5
100
AcDbLine
 10
-1962.909345112064
 20
-3362.785036156436
 30
0.0
 11
-2126.773906015092
 21
-3362.785036156436
 31
0.0
  0
LINE
  5
102
330
1F
100
AcDbEntity
  8
0-B_寸法
  6
Continuous
 62
   120
370
     5
100
AcDbLine
 10
-1804.28222086502
 20
24.21496384356516
 30
0.0
 11
-1804.28222086502
 21
-245.7852440058841
 31
0.0
  0
LWPOLYLINE
  5
103
330
1F
100
AcDbEntity
  8
0-B_寸法
  6
Continuous
 62
     7
370
     9
100
AcDbPolyline
 90
        4
 70
     1
 43
3.0
 10
-1802.78222086502
 20
24.21496384356516
 42
0.4142135623731
 10
-1804.28222086502
 20
25.71496384356516
 42
0.4142135623731
 10
-1805.78222086502
 20
24.21496384356516
 42
0.4142135623731
 10
-1804.28222086502
 20
22.71496384356516
 42
0.4142135623731
  0
LWPOLYLINE
  5
104
330
1F
100
AcDbEntity
  8
0-B_寸法
  6
Continuous
 62
     7
370
     9
100
AcDbPolyline
 90
        4
 70
     1
 43
3.0
 10
-1802.78222086502
 20
-245.7852440058841
 42
0.4142135623731
 10
-1804.28222086502
 20
-244.285244005884
 42
0.4142135623731
 10
-1805.78222086502
 20
-245.7852440058841
 42
0.4142135623731
 10
-1804.28222086502
 20
-247.2852440058841
 42
0.4142135623731
  0
LINE
  5
105
330
1F
100
AcDbEntity
  8
0-B_寸法
  6
Continuous
 62
   120
370
     5
100
AcDbLine
 10
-1804.28222086502
 20
-245.7852440058841
 30
0.0
 11
-1962.909345112064
 21
-245.7852440058841
 31
0.0
  0
LINE
  5
106
330
1F
100
AcDbEntity
  8
0-B_寸法
  6
Continuous
 62
   120
370
     5
100
AcDbLine
 10
-1804.28222086502
 20
-245.7852440058841
 30
0.0
 11
-1804.28222086502
 21
-3362.785036156436
 31
0.0
  0
LWPOLYLINE
  5
107
330
1F
100
AcDbEntity
  8
0-B_寸法
  6
Continuous
 62
     7
370
     9
100
AcDbPolyline
 90
        4
 70
     1
 43
3.0
 10
-1802.78222086502
 20
-3362.785036156436
 42
0.4142135623731
 10
-1804.28222086502
 20
-3361.285036156436
 42
0.4142135623731
 10
-1805.78222086502
 20
-3362.785036156436
 42
0.4142135623731
 10
-1804.28222086502
 20
-3364.285036156436
 42
0.4142135623731
  0
LINE
  5
108
330
1F
100
AcDbEntity
  8
0-B_寸法
  6
Continuous
 62
   120
370
     5
100
AcDbLine
 10
-1804.28222086502
 20
-3362.785036156436
 30
0.0
 11
-1962.909345112064
 21
-3362.785036156436
 31
0.0
  0
LWPOLYLINE
  5
109
330
1F
100
AcDbEntity
  8
0-B_寸法
  6
Continuous
 62
     7
370
     9
100
AcDbPolyline
 90
        4
 70
     1
 43
3.0
 10
-1802.78222086502
 20
57.21496384356414
 42
0.4142135623731
 10
-1804.28222086502
 20
58.71496384356414
 42
0.4142135623731
 10
-1805.78222086502
 20
57.21496384356414
 42
0.4142135623731
 10
-1804.28222086502
 20
55.71496384356414
 42
0.4142135623731
  0
LINE
  5
10A
330
1F
100
AcDbEntity
  8
0-B_寸法
  6
Continuous
 62
   120
370
     5
100
AcDbLine
 10
-1804.28222086502
 20
24.21496384356516
 30
0.0
 11
-2126.773906015092
 21
24.21496384356516
 31
0.0
  0
LINE
  5
10B
330
1F
100
AcDbEntity
  8
0-B_寸法
  6
Continuous
 62
   120
370
     5
100
AcDbLine
 10
-1804.28222086502
 20
57.21496384356414
 30
0.0
 11
-2126.773906015092
 21
57.21496384356414
 31
0.0
  0
LINE
  5
10C
330
1F
100
AcDbEntity
  8
0-B_寸法
  6
Continuous
 62
   120
370
     5
100
AcDbLine
 10
-1804.28222086502
 20
24.21496384356516
 30
0.0
 11
-1804.28222086502
 21
230.3195841166178
 31
0.0
  0
LINE
  5
10D
330
1F
100
AcDbEntity
  8
0-B_寸法
  6
Continuous
 62
   120
370
     5
100
AcDbLine
 10
-1635.755952932353
 20
57.21496384356414
 30
0.0
 11
-1635.755952932353
 21
-3362.785036156436
 31
0.0
  0
LWPOLYLINE
  5
10E
330
1F
100
AcDbEntity
  8
0-B_寸法
  6
Continuous
 62
     7
370
     9
100
AcDbPolyline
 90
        4
 70
     1
 43
3.0
 10
-1634.255952932353
 20
57.21496384356414
 42
0.4142135623731
 10
-1635.755952932353
 20
58.71496384356414
 42
0.4142135623731
 10
-1637.255952932353
 20
57.21496384356414
 42
0.4142135623731
 10
-1635.755952932353
 20
55.71496384356414
 42
0.4142135623731
  0
LWPOLYLINE
  5
10F
330
1F
100
AcDbEntity
  8
0-B_寸法
  6
Continuous
 62
     7
370
     9
100
AcDbPolyline
 90
        4
 70
     1
 43
3.0
 10
-1634.255952932353
 20
-3362.785036156436
 42
0.4142135623731
 10
-1635.755952932353
 20
-3361.285036156436
 42
0.4142135623731
 10
-1637.255952932353
 20
-3362.785036156436
 42
0.4142135623731
 10
-1635.755952932353
 20
-3364.285036156436
 42
0.4142135623731
  0
LINE
  5
110
330
1F
100
AcDbEntity
  8
0-B_寸法
  6
Continuous
 62
   120
370
     5
100
AcDbLine
 10
-1635.755952932353
 20
57.21496384356414
 30
0.0
 11
-1804.28222086502
 21
57.21496384356414
 31
0.0
  0
LINE
  5
111
330
1F
100
AcDbEntity
  8
0-B_寸法
  6
Continuous
 62
   120
370
     5
100
AcDbLine
 10
-1635.755952932353
 20
-3362.785036156436
 30
0.0
 11
-1804.28222086502
 21
-3362.785036156436
 31
0.0
  0
LINE
  5
112
330
1F
100
AcDbEntity
  8
0-B_寸法
  6
Continuous
 62
   120
370
     5
100
AcDbLine
 10
-2332.136964940712
 20
-317.7850361564342
 30
0.0
 11
-2332.136964940712
 21
-461.7850361564396
 31
0.0
  0
LWPOLYLINE
  5
113
330
1F
100
AcDbEntity
  8
0-B_寸法
  6
Continuous
 62
     7
370
     9
100
AcDbPolyline
 90
        4
 70
     1
 43
3.0
 10
-2330.636964940712
 20
-317.7850361564342
 42
0.4142135623731
 10
-2332.136964940712
 20
-316.2850361564342
 42
0.4142135623731
 10
-2333.636964940712
 20
-317.7850361564342
 42
0.4142135623731
 10
-2332.136964940712
 20
-319.2850361564342
 42
0.4142135623731
  0
LWPOLYLINE
  5
114
330
1F
100
AcDbEntity
  8
0-B_寸法
  6
Continuous
 62
     7
370
     9
100
AcDbPolyline
 90
        4
 70
     1
 43
3.0
 10
-2330.636964940712
 20
-461.7850361564396
 42
0.4142135623731
 10
-2332.136964940712
 20
-460.2850361564396
 42
0.4142135623731
 10
-2333.636964940712
 20
-461.7850361564396
 42
0.4142135623731
 10
-2332.136964940712
 20
-463.2850361564396
 42
0.4142135623731
  0
LINE
  5
115
330
1F
100
AcDbEntity
  8
0-B_寸法
  6
Continuous
 62
   120
370
     5
100
AcDbLine
 10
-2332.136964940712
 20
-461.7850361564396
 30
0.0
 11
-2332.136964940712
 21
-533.785036156439
 31
0.0
  0
LWPOLYLINE
  5
116
330
1F
100
AcDbEntity
  8
0-B_寸法
  6
Continuous
 62
     7
370
     9
100
AcDbPolyline
 90
        4
 70
     1
 43
3.0
 10
-2330.636964940712
 20
-533.785036156439
 42
0.4142135623731
 10
-2332.136964940712
 20
-532.2850361564389
 42
0.4142135623731
 10
-2333.636964940712
 20
-533.785036156439
 42
0.4142135623731
 10
-2332.136964940712
 20
-535.285036156439
 42
0.4142135623731
  0
LINE
  5
117
330
1F
100
AcDbEntity
  8
0-B_寸法
  6
Continuous
 62
   120
370
     5
100
AcDbLine
 10
-2332.136964940712
 20
-317.7850361564342
 30
0.0
 11
-2585.650022164699
 21
-317.7850361564342
 31
0.0
  0
LINE
  5
118
330
1F
100
AcDbEntity
  8
0-B_寸法
  6
Continuous
 62
   120
370
     5
100
AcDbLine
 10
-2332.136964940712
 20
-461.7850361564396
 30
0.0
 11
-2585.650022164699
 21
-461.7850361564396
 31
0.0
  0
LINE
  5
119
330
1F
100
AcDbEntity
  8
0-B_寸法
  6
Continuous
 62
   120
370
     5
100
AcDbLine
 10
-2332.136964940712
 20
-533.785036156439
 30
0.0
 11
-2585.650022164699
 21
-533.785036156439
 31
0.0
  0
LINE
  5
11A
330
1F
100
AcDbEntity
  8
0-B_寸法
  6
Continuous
 62
   120
370
     5
100
AcDbLine
 10
-2154.472742818371
 20
-317.7850361564342
 30
0.0
 11
-2154.472742818371
 21
-533.785036156439
 31
0.0
  0
LWPOLYLINE
  5
11B
330
1F
100
AcDbEntity
  8
0-B_寸法
  6
Continuous
 62
     7
370
     9
100
AcDbPolyline
 90
        4
 70
     1
 43
3.0
 10
-2152.972742818371
 20
-317.7850361564342
 42
0.4142135623731
 10
-2154.472742818371
 20
-316.2850361564342
 42
0.4142135623731
 10
-2155.972742818371
 20
-317.7850361564342
 42
0.4142135623731
 10
-2154.472742818371
 20
-319.2850361564342
 42
0.4142135623731
  0
LWPOLYLINE
  5
11C
330
1F
100
AcDbEntity
  8
0-B_寸法
  6
Continuous
 62
     7
370
     9
100
AcDbPolyline
 90
        4
 70
     1
 43
3.0
 10
-2152.972742818371
 20
-533.785036156439
 42
0.4142135623731
 10
-2154.472742818371
 20
-532.2850361564389
 42
0.4142135623731
 10
-2155.972742818371
 20
-533.785036156439
 42
0.4142135623731
 10
-2154.472742818371
 20
-535.285036156439
 42
0.4142135623731
  0
LINE
  5
11D
330
1F
100
AcDbEntity
  8
0-B_寸法
  6
Continuous
 62
   120
370
     5
100
AcDbLine
 10
-2154.472742818371
 20
-317.7850361564342
 30
0.0
 11
-2332.136964940712
 21
-317.7850361564342
 31
0.0
  0
LINE
  5
11E
330
1F
100
AcDbEntity
  8
0-B_寸法
  6
Continuous
 62
   120
370
     5
100
AcDbLine
 10
-2154.472742818371
 20
-533.785036156439
 30
0.0
 11
-2332.136964940712
 21
-533.785036156439
 31
0.0
  0
LINE
  5
11F
330
1F
100
AcDbEntity
  8
0-B_寸法
  6
Continuous
 62
   120
370
     5
100
AcDbLine
 10
-2825.833034312663
 20
-700.4803002597475
 30
0.0
 11
-2735.833034312663
 21
-700.4803002597475
 31
0.0
  0
LWPOLYLINE
  5
120
330
1F
100
AcDbEntity
  8
0-B_寸法
  6
Continuous
 62
     7
370
     9
100
AcDbPolyline
 90
        4
 70
     1
 43
3.0
 10
-2824.333034312663
 20
-700.4803002597475
 42
0.4142135623731
 10
-2825.833034312663
 20
-698.9803002597475
 42
0.4142135623731
 10
-2827.333034312662
 20
-700.4803002597475
 42
0.4142135623731
 10
-2825.833034312663
 20
-701.9803002597475
 42
0.4142135623731
  0
LWPOLYLINE
  5
121
330
1F
100
AcDbEntity
  8
0-B_寸法
  6
Continuous
 62
     7
370
     9
100
AcDbPolyline
 90
        4
 70
     1
 43
3.0
 10
-2734.333034312663
 20
-700.4803002597475
 42
0.4142135623731
 10
-2735.833034312663
 20
-698.9803002597475
 42
0.4142135623731
 10
-2737.333034312662
 20
-700.4803002597475
 42
0.4142135623731
 10
-2735.833034312663
 20
-701.9803002597475
 42
0.4142135623731
  0
MTEXT
  5
122
330
1F
100
AcDbEntity
  8
0-B_寸法
  6
Continuous
 62
     7
370
   211
100
AcDbMText
 10
-2829.583034312663
 20
-693.3328002597475
 30
0.0
 40
74.295
 41
97.5
 46
0.0
 71
     7
 72
     1
  1
{\fＭＳ ゴシック|b0|i0|c128|p49;15}
 73
     1
 44
1.0
  0
LINE
  5
123
330
1F
100
AcDbEntity
  8
0-B_寸法
  6
Continuous
 62
   120
370
     5
100
AcDbLine
 10
-2735.833034312663
 20
-700.4803002597475
 30
0.0
 11
-2687.833034312665
 21
-700.4803002597475
 31
0.0
  0
LWPOLYLINE
  5
124
330
1F
100
AcDbEntity
  8
0-B_寸法
  6
Continuous
 62
     7
370
     9
100
AcDbPolyline
 90
        4
 70
     1
 43
3.0
 10
-2686.333034312665
 20
-700.4803002597475
 42
0.4142135623731
 10
-2687.833034312665
 20
-698.9803002597475
 42
0.4142135623731
 10
-2689.333034312665
 20
-700.4803002597475
 42
0.4142135623731
 10
-2687.833034312665
 20
-701.9803002597475
 42
0.4142135623731
  0
MTEXT
  5
125
330
1F
100
AcDbEntity
  8
0-B_寸法
  6
Continuous
 62
     7
370
   211
100
AcDbMText
 10
-2734.333034312664
 20
-696.1903002597476
 30
0.0
 40
68.58
 41
45.0
 46
0.0
 71
     7
 72
     1
  1
{\fＭＳ ゴシック|b0|i0|c128|p49;8}
 73
     1
 44
1.0
  0
LINE
  5
126
330
1F
100
AcDbEntity
  8
0-B_寸法
  6
Continuous
 62
   120
370
     5
100
AcDbLine
 10
-2687.833034312665
 20
-846.9058629184171
 30
0.0
 11
-2825.833034312663
 21
-846.9058629184171
 31
0.0
  0
LWPOLYLINE
  5
127
330
1F
100
AcDbEntity
  8
0-B_寸法
  6
Continuous
 62
     7
370
     9
100
AcDbPolyline
 90
        4
 70
     1
 43
3.0
 10
-2686.333034312665
 20
-846.9058629184171
 42
0.4142135623731
 10
-2687.833034312665
 20
-845.4058629184171
 42
0.4142135623731
 10
-2689.333034312665
 20
-846.9058629184171
 42
0.4142135623731
 10
-2687.833034312665
 20
-848.4058629184171
 42
0.4142135623731
  0
LWPOLYLINE
  5
128
330
1F
100
AcDbEntity
  8
0-B_寸法
  6
Continuous
 62
     7
370
     9
100
AcDbPolyline
 90
        4
 70
     1
 43
3.0
 10
-2824.333034312663
 20
-846.9058629184171
 42
0.4142135623731
 10
-2825.833034312663
 20
-845.4058629184171
 42
0.4142135623731
 10
-2827.333034312662
 20
-846.9058629184171
 42
0.4142135623731
 10
-2825.833034312663
 20
-848.4058629184171
 42
0.4142135623731
  0
LINE
  5
129
330
1F
100
AcDbEntity
  8
0-B_寸法
  6
Continuous
 62
   120
370
     5
100
AcDbLine
 10
-2687.833034312665
 20
-846.9058629184171
 30
0.0
 11
-2687.833034312665
 21
-700.4803002597475
 31
0.0
  0
LINE
  5
12A
330
1F
100
AcDbEntity
  8
0-B_寸法
  6
Continuous
 62
   120
370
     5
100
AcDbLine
 10
-2825.833034312663
 20
-846.9058629184171
 30
0.0
 11
-2825.833034312663
 21
-700.4803002597475
 31
0.0
  0
MTEXT
  5
12B
330
1F
100
AcDbEntity
  8
0-B_寸法
  6
Continuous
 62
     7
370
   211
100
AcDbMText
 10
-2805.583034312664
 20
-839.7583629184171
 30
0.0
 40
74.295
 41
97.5
 46
0.0
 71
     7
 72
     1
  1
{\fＭＳ ゴシック|b0|i0|c128|p49;23}
 73
     1
 44
1.0
  0
LINE
  5
12C
330
1F
100
AcDbEntity
  8
0-B_寸法
  6
Continuous
 62
   120
370
     5
100
AcDbLine
 10
-2825.833034312663
 20
-700.4803002597475
 30
0.0
 11
-2825.833034312663
 21
-561.3918762315416
 31
0.0
  0
LINE
  5
12D
330
1F
100
AcDbEntity
  8
0-B_寸法
  6
Continuous
 62
   120
370
     5
100
AcDbLine
 10
-2735.833034312663
 20
-700.4803002597475
 30
0.0
 11
-2735.833034312663
 21
-561.3918762315416
 31
0.0
  0
LINE
  5
12E
330
1F
100
AcDbEntity
  8
0-B_寸法
  6
Continuous
 62
   120
370
     5
100
AcDbLine
 10
-2687.833034312665
 20
-700.4803002597475
 30
0.0
 11
-2687.833034312665
 21
-561.3918762315416
 31
0.0
  0
LWPOLYLINE
  5
12F
330
1F
100
AcDbEntity
  8
0-B_寸法
  6
Continuous
 62
     7
370
     9
100
AcDbPolyline
 90
        4
 70
     1
 43
3.0
 10
-2623.333034312659
 20
-3589.613298761976
 42
0.4142135623731
 10
-2624.833034312659
 20
-3588.113298761976
 42
0.4142135623731
 10
-2626.333034312659
 20
-3589.613298761976
 42
0.4142135623731
 10
-2624.833034312659
 20
-3591.113298761976
 42
0.4142135623731
  0
LINE
  5
130
330
1F
100
AcDbEntity
  8
0-B_寸法
  6
Continuous
 62
   120
370
     5
100
AcDbLine
 10
-2624.833034312659
 20
-3589.613298761976
 30
0.0
 11
-2624.833034312659
 21
-3465.36083015672
 31
0.0
  0
LINE
  5
131
330
1F
100
AcDbEntity
  8
0-B_寸法
  6
Continuous
 62
   120
370
     5
100
AcDbLine
 10
-2624.833034312659
 20
-3589.613298761976
 30
0.0
 11
-2516.833034312662
 21
-3589.613298761976
 31
0.0
  0
LWPOLYLINE
  5
132
330
1F
100
AcDbEntity
  8
0-B_寸法
  6
Continuous
 62
     7
370
     9
100
AcDbPolyline
 90
        4
 70
     1
 43
3.0
 10
-2515.333034312662
 20
-3589.613298761976
 42
0.4142135623731
 10
-2516.833034312662
 20
-3588.113298761976
 42
0.4142135623731
 10
-2518.333034312662
 20
-3589.613298761976
 42
0.4142135623731
 10
-2516.833034312662
 20
-3591.113298761976
 42
0.4142135623731
  0
LINE
  5
133
330
1F
100
AcDbEntity
  8
0-B_寸法
  6
Continuous
 62
   120
370
     5
100
AcDbLine
 10
-2516.833034312662
 20
-3589.613298761976
 30
0.0
 11
-2516.833034312662
 21
-3465.36083015672
 31
0.0
  0
MTEXT
  5
134
330
1F
100
AcDbEntity
  8
0-B_寸法
  6
Continuous
 62
     7
370
   211
100
AcDbMText
 10
-2619.583034312663
 20
-3582.465798761976
 30
0.0
 40
74.295
 41
97.5
 46
0.0
 71
     7
 72
     1
  1
{\fＭＳ ゴシック|b0|i0|c128|p49;18}
 73
     1
 44
1.0
  0
LINE
  5
135
330
1F
100
AcDbEntity
  8
0-B_寸法
  6
Continuous
 62
   120
370
     5
100
AcDbLine
 10
-2624.833034312659
 20
-3589.613298761976
 30
0.0
 11
-2955.963271326372
 21
-3589.613298761976
 31
0.0
  0
LWPOLYLINE
  5
136
330
1F
100
AcDbEntity
  8
0-B_寸法
  6
Continuous
 62
     7
370
     9
100
AcDbPolyline
 90
        4
 70
     1
 43
3.0
 10
-2662.333034312661
 20
-3589.613298761976
 42
0.4142135623731
 10
-2663.833034312661
 20
-3588.113298761976
 42
0.4142135623731
 10
-2665.333034312661
 20
-3589.613298761976
 42
0.4142135623731
 10
-2663.833034312661
 20
-3591.113298761976
 42
0.4142135623731
  0
LINE
  5
137
330
1F
100
AcDbEntity
  8
0-B_寸法
  6
Continuous
 62
   120
370
     5
100
AcDbLine
 10
-2663.833034312661
 20
-3589.613298761976
 30
0.0
 11
-2663.833034312661
 21
-3465.36083015672
 31
0.0
  0
MTEXT
  5
138
330
1F
100
AcDbEntity
  8
0-B_寸法
  6
Continuous
 62
     7
370
   211
100
AcDbMText
 10
-2832.736008906932
 20
-3581.513298761976
 30
0.0
 40
76.19999999999999
 41
150.0
 46
0.0
 71
     7
 72
     1
  1
{\fＭＳ ゴシック|b0|i0|c128|p49;6.5}
 73
     1
 44
1.0
  0
MTEXT
  5
139
330
1F
100
AcDbEntity
  8
0-B_寸法
  6
Continuous
 62
     7
370
   211
100
AcDbMText
 10
-2340.575792751084
 20
-446.3875361564378
 30
0.0
 40
74.295
 41
97.5
 46
0.0
 71
     7
 72
     1
  1
{\fＭＳ ゴシック|b0|i0|c128|p49;24}
 11
6.123031769111886E-17
 21
1.0
 31
0.0
 73
     1
 44
1.0
  0
MTEXT
  5
13A
330
1F
100
AcDbEntity
  8
0-B_寸法
  6
Continuous
 62
     7
370
   211
100
AcDbMText
 10
-2340.575792751084
 20
-648.9731217383323
 30
0.0
 40
74.2949999999974
 41
97.49999999999659
 46
0.0
 71
     7
 72
     1
  1
{\fＭＳ ゴシック|b0|i0|c128|p49;12}
 11
6.123031769111886E-17
 21
1.0
 31
0.0
 73
     1
 44
1.0
  0
MTEXT
  5
13B
330
1F
100
AcDbEntity
  8
0-B_寸法
  6
Continuous
 62
     7
370
   211
100
AcDbMText
 10
-2162.911570628742
 20
-482.3875361564374
 30
0.0
 40
74.295
 41
97.5
 46
0.0
 71
     7
 72
     1
  1
{\fＭＳ ゴシック|b0|i0|c128|p49;36}
 11
6.123031769111886E-17
 21
1.0
 31
0.0
 73
     1
 44
1.0
  0
MTEXT
  5
13C
330
1F
100
AcDbEntity
  8
0-B_寸法
  6
Continuous
 62
     7
370
   211
100
AcDbMText
 10
-1812.721048675393
 20
-167.3876400811603
 30
0.0
 40
74.295
 41
97.5
 46
0.0
 71
     7
 72
     1
  1
{\fＭＳ ゴシック|b0|i0|c128|p49;45}
 11
6.123031769111886E-17
 21
1.0
 31
0.0
 73
     1
 44
1.0
  0
MTEXT
  5
13D
330
1F
100
AcDbEntity
  8
0-B_寸法
  6
Continuous
 62
     7
370
   211
100
AcDbMText
 10
-1976.602800501128
 20
-3303.734007276857
 30
0.0
 40
76.19999999999999
 41
150.0
 46
0.0
 71
     7
 72
     1
  1
{\fＭＳ ゴシック|b0|i0|c128|p49;8.5}
 11
6.123031769111886E-17
 21
1.0
 31
0.0
 73
     1
 44
1.0
  0
LWPOLYLINE
  5
13E
330
1F
100
AcDbEntity
  8
0-B_寸法
  6
Continuous
 62
     7
370
     9
100
AcDbPolyline
 90
        4
 70
     1
 43
3.0
 10
-2311.33303431266
 20
474.1220334951754
 42
0.4142135623731
 10
-2312.83303431266
 20
475.6220334951754
 42
0.4142135623731
 10
-2314.33303431266
 20
474.1220334951754
 42
0.4142135623731
 10
-2312.83303431266
 20
472.6220334951754
 42
0.4142135623731
  0
LINE
  5
13F
330
1F
100
AcDbEntity
  8
0-B_寸法
  6
Continuous
 62
   120
370
     5
100
AcDbLine
 10
-2312.83303431266
 20
474.1220334951754
 30
0.0
 11
-2312.83303431266
 21
326.9049851143802
 31
0.0
  0
LWPOLYLINE
  5
140
330
1F
100
AcDbEntity
  8
0-B_寸法
  6
Continuous
 62
     7
370
     9
100
AcDbPolyline
 90
        4
 70
     1
 43
3.0
 10
-2311.33303431266
 20
611.2924589440572
 42
0.4142135623731
 10
-2312.83303431266
 20
612.7924589440573
 42
0.4142135623731
 10
-2314.33303431266
 20
611.2924589440572
 42
0.4142135623731
 10
-2312.83303431266
 20
609.7924589440572
 42
0.4142135623731
  0
LINE
  5
141
330
1F
100
AcDbEntity
  8
0-B_寸法
  6
Continuous
 62
   120
370
     5
100
AcDbLine
 10
-2312.83303431266
 20
611.2924589440572
 30
0.0
 11
-2312.83303431266
 21
474.1220334951754
 31
0.0
  0
MTEXT
  5
142
330
1F
100
AcDbEntity
  8
0-B_寸法
  6
Continuous
 62
     7
370
   211
100
AcDbMText
 10
-2897.83303431266
 20
619.3924589440572
 30
0.0
 40
76.19999999999999
 41
150.0
 46
0.0
 71
     7
 72
     1
  1
{\fＭＳ ゴシック|b0|i0|c128|p49;170}
 73
     1
 44
1.0
  0
MTEXT
  5
143
330
1F
100
AcDbEntity
  8
0-B_寸法
  6
Continuous
 62
     7
370
   211
100
AcDbMText
 10
-1971.348172922435
 20
-364.0623962500072
 30
0.0
 40
68.58
 41
45.0
 46
0.0
 71
     7
 72
     1
  1
{\fＭＳ ゴシック|b0|i0|c128|p49;5}
 11
6.123031769111886E-17
 21
1.0
 31
0.0
 73
     1
 44
1.0
  0
MTEXT
  5
144
330
1F
100
AcDbEntity
  8
0-B_寸法
  6
Continuous
 62
     7
370
   211
100
AcDbMText
 10
-1812.721048675393
 20
65.65222788843298
 30
0.0
 40
76.19999999999999
 41
150.0
 46
0.0
 71
     7
 72
     1
  1
{\fＭＳ ゴシック|b0|i0|c128|p49;5.5}
 11
6.123031769111886E-17
 21
1.0
 31
0.0
 73
     1
 44
1.0
  0
LINE
  5
145
330
1F
100
AcDbEntity
  8
0-1_通り芯
  6
JWW_CENTER1
 62
   120
370
     5
100
AcDbLine
 10
-2525.833034312663
 20
-3467.685121139557
 30
0.0
 11
-2525.833034312663
 21
-67.864737577477
 31
0.0
  0
LINE
  5
146
330
1F
100
AcDbEntity
  8
0-3_仕上げ
  6
Continuous
 62
    40
370
    15
100
AcDbLine
 10
-2735.833034312663
 20
257.9281873394632
 30
0.0
 11
-2735.833034312663
 21
-317.7850361564342
 31
0.0
  0
LINE
  5
147
330
1F
100
AcDbEntity
  8
0-6_扉
  6
Continuous
 62
   200
370
    20
100
AcDbLine
 10
-2545.334063662325
 20
-3311.7846649967
 30
0.0
 11
-2545.334063662325
 21
-3203.784605611142
 31
0.0
  0
LINE
  5
148
330
1F
100
AcDbEntity
  8
0-6_扉
  6
Continuous
 62
   200
370
    20
100
AcDbLine
 10
-2506.334083457513
 20
-3311.7846649967
 30
0.0
 11
-2506.334083457513
 21
-3203.784605611142
 31
0.0
  0
LINE
  5
149
330
1F
100
AcDbEntity
  8
0-6_扉
  6
Continuous
 62
   200
370
    20
100
AcDbLine
 10
-2545.334063662325
 20
-3203.784605611142
 30
0.0
 11
-2506.334083457513
 21
-3203.784605611142
 31
0.0
  0
LINE
  5
14A
330
1F
100
AcDbEntity
  8
0-6_扉
  6
Continuous
 62
   200
370
    20
100
AcDbLine
 10
-2506.334083457513
 20
-3311.7846649967
 30
0.0
 11
-2435.833034312663
 21
-3311.7846649967
 31
0.0
  0
LINE
  5
14B
330
1F
100
AcDbEntity
  8
0-6_扉
  6
Continuous
 62
   200
370
    20
100
AcDbLine
 10
-2545.334063662325
 20
-3311.7846649967
 30
0.0
 11
-2615.833628168238
 21
-3311.7846649967
 31
0.0
  0
LINE
  5
14C
330
1F
100
AcDbEntity
  8
0-6_扉
  6
Continuous
 62
   200
370
    20
100
AcDbLine
 10
-2615.833628168238
 20
-275.7849668732828
 30
0.0
 11
-2435.833034312663
 21
-275.7849668732828
 31
0.0
  0
LINE
  5
14D
330
1F
100
AcDbEntity
  8
0-6_扉
  6
Continuous
 62
   200
370
    20
100
AcDbLine
 10
-2615.833628168238
 20
-275.7849668732828
 30
0.0
 11
-2615.833628168238
 21
-1742.785036156436
 31
0.0
  0
LINE
  5
14E
330
1F
100
AcDbEntity
  8
0-6_扉
  6
Continuous
 62
   200
370
    20
100
AcDbLine
 10
-2615.833628168238
 20
-1832.785036156436
 30
0.0
 11
-2615.833628168238
 21
-3311.7846649967
 31
0.0
  0
LINE
  5
14F
330
1F
100
AcDbEntity
  8
0-6_扉
  6
Continuous
 62
   200
370
    20
100
AcDbLine
 10
-2435.833034312663
 20
-275.7849668732828
 30
0.0
 11
-2435.833034312663
 21
-1742.785036156436
 31
0.0
  0
LINE
  5
150
330
1F
100
AcDbEntity
  8
0-6_扉
  6
Continuous
 62
   200
370
    20
100
AcDbLine
 10
-2435.833034312663
 20
-1832.785036156436
 30
0.0
 11
-2435.833034312663
 21
-3311.7846649967
 31
0.0
  0
LINE
  5
151
330
1F
100
AcDbEntity
  8
0-7_金物
  6
Continuous
 62
     7
370
     9
100
AcDbLine
 10
-2512.333509397125
 20
-3209.784773870226
 30
0.0
 11
-2512.333509397125
 21
-3317.78483325578
 31
0.0
  0
LINE
  5
152
330
1F
100
AcDbEntity
  8
0-7_金物
  6
Continuous
 62
     7
370
     9
100
AcDbLine
 10
-2512.333509397125
 20
-3209.784773870226
 30
0.0
 11
-2539.333153083775
 21
-3209.784773870226
 31
0.0
  0
LINE
  5
153
330
1F
100
AcDbEntity
  8
0-7_金物
  6
Continuous
 62
     7
370
     9
100
AcDbLine
 10
-2539.333153083775
 20
-3209.784773870226
 30
0.0
 11
-2539.333153083775
 21
-3317.78483325578
 31
0.0
  0
LINE
  5
154
330
1F
100
AcDbEntity
  8
0-7_金物
  6
Continuous
 62
     7
370
     9
100
AcDbLine
 10
-2494.33374693935
 20
-3317.78483325578
 30
0.0
 11
-2494.33374693935
 21
-3311.7846649967
 31
0.0
  0
LINE
  5
155
330
1F
100
AcDbEntity
  8
0-7_金物
  6
Continuous
 62
     7
370
     9
100
AcDbLine
 10
-2512.333509397125
 20
-3317.78483325578
 30
0.0
 11
-2494.33374693935
 21
-3317.78483325578
 31
0.0
  0
LINE
  5
156
330
1F
100
AcDbEntity
  8
0-7_金物
  6
Continuous
 62
     7
370
     9
100
AcDbLine
 10
-2557.33291554155
 20
-3311.7846649967
 30
0.0
 11
-2557.33291554155
 21
-3317.78483325578
 31
0.0
  0
LINE
  5
157
330
1F
100
AcDbEntity
  8
0-7_金物
  6
Continuous
 62
     7
370
     9
100
AcDbLine
 10
-2557.33291554155
 20
-3317.78483325578
 30
0.0
 11
-2539.333153083775
 21
-3317.78483325578
 31
0.0
  0
LINE
  5
158
330
1F
100
AcDbEntity
  8
0-7_金物
  6
Continuous
 62
     7
370
     9
100
AcDbLine
 10
-2726.833034312662
 20
-245.7852440058841
 30
0.0
 11
-2570.03771323475
 21
-245.7852440058841
 31
0.0
  0
LINE
  5
159
330
1F
100
AcDbEntity
  8
0-7_金物
  6
Continuous
 62
     7
370
     9
100
AcDbLine
 10
-2504.833113493405
 20
-245.7852440058841
 30
0.0
 11
-2504.833113493405
 21
-155.7849470780965
 31
0.0
  0
LINE
  5
15A
330
1F
100
AcDbEntity
  8
0-7_金物
  6
Continuous
 62
     7
370
     9
100
AcDbLine
 10
-2504.833113493405
 20
-155.7849470780965
 30
0.0
 11
-2546.833548987501
 21
-155.7849470780965
 31
0.0
  0
LINE
  5
15B
330
1F
100
AcDbEntity
  8
0-7_金物
  6
Continuous
 62
     7
370
     9
100
AcDbLine
 10
-2546.833548987501
 20
-155.7849470780965
 30
0.0
 11
-2546.833548987501
 21
-245.7852440058841
 31
0.0
  0
LINE
  5
15C
330
1F
100
AcDbEntity
  8
0-7_金物
  6
Continuous
 62
     7
370
     9
100
AcDbLine
 10
-2546.833548987501
 20
-245.7852440058841
 30
0.0
 11
-2504.833113493405
 21
-245.7852440058841
 31
0.0
  0
LINE
  5
15D
330
1F
100
AcDbEntity
  8
0-7_金物
  6
Continuous
 62
     7
370
     9
100
AcDbLine
 10
-2495.818385875163
 20
-188.8805182351936
 30
0.0
 11
-2504.833113493405
 21
-188.8805182351936
 31
0.0
  0
LINE
  5
15E
330
1F
100
AcDbEntity
  8
0-7_金物
  6
Continuous
 62
     7
370
     9
100
AcDbLine
 10
-2546.833548987501
 20
-188.8805182351936
 30
0.0
 11
-2555.8467919668
 21
-188.8805182351936
 31
0.0
  0
LINE
  5
15F
330
1F
100
AcDbEntity
  8
0-7_金物
  6
Continuous
 62
     7
370
     9
100
AcDbLine
 10
-2493.080711677525
 20
-213.9931858344309
 30
0.0
 11
-2504.833113493405
 21
-213.9931858344309
 31
0.0
  0
LINE
  5
160
330
1F
100
AcDbEntity
  8
0-7_金物
  6
Continuous
 62
     7
370
     9
100
AcDbLine
 10
-2546.833548987501
 20
-213.9931858344309
 30
0.0
 11
-2558.8606090065
 21
-213.9931858344309
 31
0.0
  0
LINE
  5
161
330
1F
100
AcDbEntity
  8
0-7_金物
  6
Continuous
 62
     7
370
     9
100
AcDbLine
 10
-2492.104561577238
 20
-143.7846105599371
 30
0.0
 11
-2504.104155775925
 21
-143.7846105599371
 31
0.0
  0
LINE
  5
162
330
1F
100
AcDbEntity
  8
0-7_金物
  6
Continuous
 62
     7
370
     9
100
AcDbLine
 10
-2547.161654192313
 20
-143.7846105599371
 30
0.0
 11
-2559.161990710467
 21
-143.7846105599371
 31
0.0
  0
LINE
  5
163
330
1F
100
AcDbEntity
  8
0-7_金物
  6
Continuous
 62
     7
370
     9
100
AcDbLine
 10
-2481.628206926688
 20
-245.7852440058841
 30
0.0
 11
-2481.738070207938
 21
-245.7852440058841
 31
0.0
  0
LINE
  5
164
330
1F
100
AcDbEntity
  8
0-7_金物
  6
Continuous
 62
     7
370
     9
100
AcDbLine
 10
-2570.03771323475
 20
-245.7852440058841
 30
0.0
 11
-2569.92710763403
 21
-245.7852440058841
 31
0.0
  0
LINE
  5
165
330
1F
100
AcDbEntity
  8
0-7_金物
  6
Continuous
 62
     7
370
     9
100
AcDbLine
 10
-2494.327808383613
 20
-233.2608299433841
 30
0.0
 11
-2494.209037268751
 21
-234.4552219672434
 31
0.0
  0
LINE
  5
166
330
1F
100
AcDbEntity
  8
0-7_金物
  6
Continuous
 62
     7
370
     9
100
AcDbLine
 10
-2494.209037268751
 20
-234.4552219672434
 30
0.0
 11
-2493.938832982425
 21
-236.4639384473966
 31
0.0
  0
LINE
  5
167
330
1F
100
AcDbEntity
  8
0-7_金物
  6
Continuous
 62
     7
370
     9
100
AcDbLine
 10
-2493.938832982425
 20
-236.4639384473966
 30
0.0
 11
-2493.487502745937
 21
-238.330129589709
 31
0.0
  0
LINE
  5
168
330
1F
100
AcDbEntity
  8
0-7_金物
  6
Continuous
 62
     7
370
     9
100
AcDbLine
 10
-2493.487502745937
 20
-238.330129589709
 30
0.0
 11
-2492.742214000163
 21
-239.9639747385717
 31
0.0
  0
LINE
  5
169
330
1F
100
AcDbEntity
  8
0-7_金物
  6
Continuous
 62
     7
370
     9
100
AcDbLine
 10
-2492.742214000163
 20
-239.9639747385717
 30
0.0
 11
-2492.130542758613
 21
-240.7693913612465
 31
0.0
  0
LINE
  5
16A
330
1F
100
AcDbEntity
  8
0-7_金物
  6
Continuous
 62
     7
370
     9
100
AcDbLine
 10
-2492.130542758613
 20
-240.7693913612465
 30
0.0
 11
-2491.547079656838
 21
-241.3149961701592
 31
0.0
  0
LINE
  5
16B
330
1F
100
AcDbEntity
  8
0-7_金物
  6
Continuous
 62
     7
370
     9
100
AcDbLine
 10
-2491.547079656838
 20
-241.3149961701592
 30
0.0
 11
-2490.35788386925
 21
-242.1085356813498
 31
0.0
  0
LINE
  5
16C
330
1F
100
AcDbEntity
  8
0-7_金物
  6
Continuous
 62
     7
370
     9
100
AcDbLine
 10
-2490.35788386925
 20
-242.1085356813498
 30
0.0
 11
-2489.0083470766
 21
-242.7654884104467
 31
0.0
  0
LINE
  5
16D
330
1F
100
AcDbEntity
  8
0-7_金物
  6
Continuous
 62
     7
370
     9
100
AcDbLine
 10
-2489.0083470766
 20
-242.7654884104467
 30
0.0
 11
-2487.58012442035
 21
-243.3444975954123
 31
0.0
  0
LINE
  5
16E
330
1F
100
AcDbEntity
  8
0-7_金物
  6
Continuous
 62
     7
370
     9
100
AcDbLine
 10
-2487.58012442035
 20
-243.3444975954123
 30
0.0
 11
-2486.748726616301
 21
-243.6674065639497
 31
0.0
  0
LINE
  5
16F
330
1F
100
AcDbEntity
  8
0-7_金物
  6
Continuous
 62
     7
370
     9
100
AcDbLine
 10
-2486.748726616301
 20
-243.6674065639497
 30
0.0
 11
-2485.905451700755
 21
-244.0036772829123
 31
0.0
  0
LINE
  5
170
330
1F
100
AcDbEntity
  8
0-7_金物
  6
Continuous
 62
     7
370
     9
100
AcDbLine
 10
-2485.905451700755
 20
-244.0036772829123
 30
0.0
 11
-2484.486879197588
 21
-244.5938212598966
 31
0.0
  0
LINE
  5
171
330
1F
100
AcDbEntity
  8
0-7_金物
  6
Continuous
 62
     7
370
     9
100
AcDbLine
 10
-2484.486879197588
 20
-244.5938212598966
 30
0.0
 11
-2483.102453389942
 21
-245.1936153899655
 31
0.0
  0
LINE
  5
172
330
1F
100
AcDbEntity
  8
0-7_金物
  6
Continuous
 62
     7
370
     9
100
AcDbLine
 10
-2483.102453389942
 20
-245.1936153899655
 30
0.0
 11
-2481.744008763675
 21
-245.7971211173717
 31
0.0
  0
LINE
  5
173
330
1F
100
AcDbEntity
  8
0-7_金物
  6
Continuous
 62
     7
370
     9
100
AcDbLine
 10
-2557.338111777825
 20
-233.2608299433841
 30
0.0
 11
-2557.457625212155
 21
-234.4552219672434
 31
0.0
  0
LINE
  5
174
330
1F
100
AcDbEntity
  8
0-7_金物
  6
Continuous
 62
     7
370
     9
100
AcDbLine
 10
-2557.457625212155
 20
-234.4552219672434
 30
0.0
 11
-2557.727829498475
 21
-236.4639384473966
 31
0.0
  0
LINE
  5
175
330
1F
100
AcDbEntity
  8
0-7_金物
  6
Continuous
 62
     7
370
     9
100
AcDbLine
 10
-2557.727829498475
 20
-236.4639384473966
 30
0.0
 11
-2558.177675096025
 21
-238.330129589709
 31
0.0
  0
LINE
  5
176
330
1F
100
AcDbEntity
  8
0-7_金物
  6
Continuous
 62
     7
370
     9
100
AcDbLine
 10
-2558.177675096025
 20
-238.330129589709
 30
0.0
 11
-2558.9229638418
 21
-239.9639747385717
 31
0.0
  0
LINE
  5
177
330
1F
100
AcDbEntity
  8
0-7_金物
  6
Continuous
 62
     7
370
     9
100
AcDbLine
 10
-2558.9229638418
 20
-239.9639747385717
 30
0.0
 11
-2559.535377402825
 21
-240.7693913612465
 31
0.0
  0
LINE
  5
178
330
1F
100
AcDbEntity
  8
0-7_金物
  6
Continuous
 62
     7
370
     9
100
AcDbLine
 10
-2559.535377402825
 20
-240.7693913612465
 30
0.0
 11
-2560.119582824062
 21
-241.3149961701592
 31
0.0
  0
LINE
  5
179
330
1F
100
AcDbEntity
  8
0-7_金物
  6
Continuous
 62
     7
370
     9
100
AcDbLine
 10
-2560.119582824062
 20
-241.3149961701592
 30
0.0
 11
-2561.30877861165
 21
-242.1085356813498
 31
0.0
  0
LINE
  5
17A
330
1F
100
AcDbEntity
  8
0-7_金物
  6
Continuous
 62
     7
370
     9
100
AcDbLine
 10
-2561.30877861165
 20
-242.1085356813498
 30
0.0
 11
-2562.6583154043
 21
-242.7654884104467
 31
0.0
  0
LINE
  5
17B
330
1F
100
AcDbEntity
  8
0-7_金物
  6
Continuous
 62
     7
370
     9
100
AcDbLine
 10
-2562.6583154043
 20
-242.7654884104467
 30
0.0
 11
-2564.085795741088
 21
-243.3444975954123
 31
0.0
  0
LINE
  5
17C
330
1F
100
AcDbEntity
  8
0-7_金物
  6
Continuous
 62
     7
370
     9
100
AcDbLine
 10
-2564.085795741088
 20
-243.3444975954123
 30
0.0
 11
-2564.917935864605
 21
-243.6674065639497
 31
0.0
  0
LINE
  5
17D
330
1F
100
AcDbEntity
  8
0-7_金物
  6
Continuous
 62
     7
370
     9
100
AcDbLine
 10
-2564.917935864605
 20
-243.6674065639497
 30
0.0
 11
-2565.761210780151
 21
-244.0036772829123
 31
0.0
  0
LINE
  5
17E
330
1F
100
AcDbEntity
  8
0-7_金物
  6
Continuous
 62
     7
370
     9
100
AcDbLine
 10
-2565.761210780151
 20
-244.0036772829123
 30
0.0
 11
-2567.179040963851
 21
-244.5938212598966
 31
0.0
  0
LINE
  5
17F
330
1F
100
AcDbEntity
  8
0-7_金物
  6
Continuous
 62
     7
370
     9
100
AcDbLine
 10
-2567.179040963851
 20
-244.5938212598966
 30
0.0
 11
-2568.563466771488
 21
-245.1936153899655
 31
0.0
  0
LINE
  5
180
330
1F
100
AcDbEntity
  8
0-7_金物
  6
Continuous
 62
     7
370
     9
100
AcDbLine
 10
-2568.563466771488
 20
-245.1936153899655
 30
0.0
 11
-2569.922653717225
 21
-245.7971211173717
 31
0.0
  0
ELLIPSE
  5
181
330
1F
100
AcDbEntity
  8
0-7_金物
  6
Continuous
 62
     7
370
     9
100
AcDbEllipse
 10
-2474.833014517475
 20
-184.2848184093904
 30
0.0
 11
3.306436842834778E-15
 21
-53.99999489655366
 31
0.0
210
0.0
220
0.0
230
1.0
 40
0.3888
 41
0.0
 42
6.283185307179586
  0
ELLIPSE
  5
182
330
1F
100
AcDbEntity
  8
0-7_金物
  6
Continuous
 62
     7
370
     9
100
AcDbEllipse
 10
-2576.833647963425
 20
-184.2848184093904
 30
0.0
 11
3.306436842834778E-15
 21
-53.99999489655366
 31
0.0
210
0.0
220
0.0
230
1.0
 40
0.3888
 41
0.0
 42
6.283185307179586
  0
ARC
  5
183
330
1F
100
AcDbEntity
  8
0-7_金物
  6
Continuous
 62
     7
370
     9
100
AcDbCircle
 10
-2473.790797984538
 20
-188.2614237989591
 30
0.0
 40
49.46393580050083
100
AcDbArc
 50
245.4683380126953
 51
297.6539306640625
  0
ARC
  5
184
330
1F
100
AcDbEntity
  8
0-7_金物
  6
Continuous
 62
     7
370
     9
100
AcDbCircle
 10
-2577.875864496363
 20
-188.2614237989591
 30
0.0
 40
49.46393580050083
100
AcDbArc
 50
242.3460693359375
 51
294.5316619873047
  0
LINE
  5
185
330
1F
100
AcDbEntity
  8
0-7_金物
  6
Continuous
 62
     7
370
     9
100
AcDbLine
 10
-2726.833034312662
 20
-245.7852440058841
 30
0.0
 11
-2726.833034312662
 21
-317.7850361564342
 31
0.0
  0
LINE
  5
186
330
1F
100
AcDbEntity
  8
0-7_金物
  6
Continuous
 62
     7
370
     9
100
AcDbLine
 10
-2735.833034312663
 20
24.21496384356516
 30
0.0
 11
-2726.833034312662
 21
24.21496384356516
 31
0.0
  0
LINE
  5
187
330
1F
100
AcDbEntity
  8
0-7_金物
  6
Continuous
 62
     7
370
     9
100
AcDbLine
 10
-2726.833034312662
 20
-53.78524400588475
 30
0.0
 11
-2726.833034312662
 21
24.21496384356516
 31
0.0
  0
LINE
  5
188
330
1F
100
AcDbEntity
  8
0-7_金物
  6
Continuous
 62
     7
370
     9
100
AcDbLine
 10
-2609.832717589687
 20
-107.7849668732856
 30
0.0
 11
-2609.832717589687
 21
-116.7849668732842
 31
0.0
  0
LINE
  5
189
330
1F
100
AcDbEntity
  8
0-7_金物
  6
Continuous
 62
     7
370
     9
100
AcDbLine
 10
-2399.833034312669
 20
-53.78524400588475
 30
0.0
 11
-2408.833034312668
 21
-53.78524400588475
 31
0.0
  0
LINE
  5
18A
330
1F
100
AcDbEntity
  8
0-7_金物
  6
Continuous
 62
     7
370
     9
100
AcDbLine
 10
-2408.833034312668
 20
-116.7849668732842
 30
0.0
 11
-2492.104561577238
 21
-116.7849668732842
 31
0.0
  0
LINE
  5
18B
330
1F
100
AcDbEntity
  8
0-7_金物
  6
Continuous
 62
     7
370
     9
100
AcDbLine
 10
-2408.833034312668
 20
-53.78524400588475
 30
0.0
 11
-2408.833034312668
 21
-116.7849668732842
 31
0.0
  0
LINE
  5
18C
330
1F
100
AcDbEntity
  8
0-7_金物
  6
Continuous
 62
     7
370
     9
100
AcDbLine
 10
-2492.104561577238
 20
-107.7849668732856
 30
0.0
 11
-2726.833034312662
 21
-53.78524400588475
 31
0.0
  0
LINE
  5
18D
330
1F
100
AcDbEntity
  8
0-7_金物
  6
Continuous
 62
     7
370
     9
100
AcDbLine
 10
-2492.104561577238
 20
-107.7849668732856
 30
0.0
 11
-2492.104561577238
 21
-116.7849668732842
 31
0.0
  0
ARC
  5
18E
330
1F
100
AcDbEntity
  8
0-7_金物
  6
Continuous
 62
     7
370
     9
100
AcDbCircle
 10
-2414.833034312669
 20
-131.7848481021699
 30
0.0
 40
6.0
100
AcDbArc
 50
0.0
 51
90.0
  0
LINE
  5
18F
330
1F
100
AcDbEntity
  8
0-7_金物
  6
Continuous
 62
     7
370
     9
100
AcDbLine
 10
-2435.832460252281
 20
-125.7848481021685
 30
0.0
 11
-2414.833034312669
 21
-125.7848481021685
 31
0.0
  0
ARC
  5
190
330
1F
100
AcDbEntity
  8
0-7_金物
  6
Continuous
 62
     7
370
     9
100
AcDbCircle
 10
-2435.832460252281
 20
-131.7848481021699
 30
0.0
 40
6.0
100
AcDbArc
 50
90.0
 51
180.0
  0
LINE
  5
191
330
1F
100
AcDbEntity
  8
0-7_金物
  6
Continuous
 62
     7
370
     9
100
AcDbLine
 10
-2408.833034312668
 20
-230.7853627769984
 30
0.0
 11
-2408.833034312668
 21
-131.7848481021699
 31
0.0
  0
ARC
  5
192
330
1F
100
AcDbEntity
  8
0-7_金物
  6
Continuous
 62
     7
370
     9
100
AcDbCircle
 10
-2414.833034312669
 20
-230.7853627769984
 30
0.0
 40
6.0
100
AcDbArc
 50
270.0
 51
0.0
  0
LINE
  5
193
330
1F
100
AcDbEntity
  8
0-7_金物
  6
Continuous
 62
     7
370
     9
100
AcDbLine
 10
-2441.832460252275
 20
-230.7853627769984
 30
0.0
 11
-2441.832460252275
 21
-131.7848481021699
 31
0.0
  0
LINE
  5
194
330
1F
100
AcDbEntity
  8
0-7_金物
  6
Continuous
 62
     7
370
     9
100
AcDbLine
 10
-2435.832460252281
 20
-236.7853627769998
 30
0.0
 11
-2414.833034312669
 21
-236.7853627769998
 31
0.0
  0
ARC
  5
195
330
1F
100
AcDbEntity
  8
0-7_金物
  6
Continuous
 62
     7
370
     9
100
AcDbCircle
 10
-2435.832460252281
 20
-230.7853627769984
 30
0.0
 40
6.0
100
AcDbArc
 50
180.0
 51
270.0
  0
LINE
  5
196
330
1F
100
AcDbEntity
  8
0-7_金物
  6
Continuous
 62
     7
370
     9
100
AcDbLine
 10
-2450.832341481163
 20
-131.7848481021699
 30
0.0
 11
-2450.832341481163
 21
-232.0746034336716
 31
0.0
  0
ARC
  5
197
330
1F
100
AcDbEntity
  8
0-7_金物
  6
Continuous
 62
     7
370
     9
100
AcDbCircle
 10
-2456.832341481158
 20
-131.7848481021699
 30
0.0
 40
6.0
100
AcDbArc
 50
0.0
 51
90.0
  0
LINE
  5
198
330
1F
100
AcDbEntity
  8
0-7_金物
  6
Continuous
 62
     7
370
     9
100
AcDbLine
 10
-2486.10456157723
 20
-125.7848481021685
 30
0.0
 11
-2456.832341481158
 21
-125.7848481021685
 31
0.0
  0
LINE
  5
199
330
1F
100
AcDbEntity
  8
0-7_金物
  6
Continuous
 62
     7
370
     9
100
AcDbLine
 10
-2492.104561577238
 20
-131.7848481021699
 30
0.0
 11
-2492.104561577238
 21
-143.7846105599371
 31
0.0
  0
ARC
  5
19A
330
1F
100
AcDbEntity
  8
0-7_金物
  6
Continuous
 62
     7
370
     9
100
AcDbCircle
 10
-2486.10456157723
 20
-131.7848481021699
 30
0.0
 40
6.0
100
AcDbArc
 50
90.0
 51
180.0
  0
LINE
  5
19B
330
1F
100
AcDbEntity
  8
0-7_金物
  6
Continuous
 62
     7
370
     9
100
AcDbLine
 10
-2504.104155775925
 20
-131.7848481021699
 30
0.0
 11
-2504.104155775925
 21
-143.7846105599371
 31
0.0
  0
ARC
  5
19C
330
1F
100
AcDbEntity
  8
0-7_金物
  6
Continuous
 62
     7
370
     9
100
AcDbCircle
 10
-2510.10415577592
 20
-131.7848481021699
 30
0.0
 40
6.0
100
AcDbArc
 50
0.0
 51
90.0
  0
LINE
  5
19D
330
1F
100
AcDbEntity
  8
0-7_金物
  6
Continuous
 62
     7
370
     9
100
AcDbLine
 10
-2541.16165419231
 20
-125.7848481021685
 30
0.0
 11
-2510.10415577592
 21
-125.7848481021685
 31
0.0
  0
LINE
  5
19E
330
1F
100
AcDbEntity
  8
0-7_金物
  6
Continuous
 62
     7
370
     9
100
AcDbLine
 10
-2547.161654192313
 20
-131.7848481021699
 30
0.0
 11
-2547.161654192313
 21
-143.7846105599371
 31
0.0
  0
ARC
  5
19F
330
1F
100
AcDbEntity
  8
0-7_金物
  6
Continuous
 62
     7
370
     9
100
AcDbCircle
 10
-2541.16165419231
 20
-131.7848481021699
 30
0.0
 40
6.0
100
AcDbArc
 50
90.0
 51
180.0
  0
LINE
  5
1A0
330
1F
100
AcDbEntity
  8
0-7_金物
  6
Continuous
 62
     7
370
     9
100
AcDbLine
 10
-2585.091470248425
 20
-107.7849668732856
 30
0.0
 11
-2609.832717589687
 21
-107.7849668732856
 31
0.0
  0
ARC
  5
1A1
330
1F
100
AcDbEntity
  8
0-7_金物
  6
Continuous
 62
     7
370
     9
100
AcDbCircle
 10
-2585.091470248425
 20
-101.7849668732842
 30
0.0
 40
6.0
100
AcDbArc
 50
270.0
 51
77.04441318749183
  0
LINE
  5
1A2
330
1F
100
AcDbEntity
  8
0-7_金物
  6
Continuous
 62
     7
370
     9
100
AcDbLine
 10
-2719.487860126523
 20
-64.71010206787213
 30
0.0
 11
-2583.746296062277
 21
-95.9377020076451
 31
0.0
  0
ARC
  5
1A3
330
1F
100
AcDbEntity
  8
0-7_金物
  6
Continuous
 62
     7
370
     9
100
AcDbCircle
 10
-2720.833034312663
 20
-70.55736693350781
 30
0.0
 40
6.0
100
AcDbArc
 50
77.04441318749183
 51
180.0
  0
LINE
  5
1A4
330
1F
100
AcDbEntity
  8
0-7_金物
  6
Continuous
 62
     7
370
     9
100
AcDbLine
 10
-2720.833034312663
 20
-116.7849668732842
 30
0.0
 11
-2609.832717589687
 21
-116.7849668732842
 31
0.0
  0
LINE
  5
1A5
330
1F
100
AcDbEntity
  8
0-7_金物
  6
Continuous
 62
     7
370
     9
100
AcDbLine
 10
-2726.833034312662
 20
-110.7849668732828
 30
0.0
 11
-2726.833034312662
 21
-70.55736693350781
 31
0.0
  0
ARC
  5
1A6
330
1F
100
AcDbEntity
  8
0-7_金物
  6
Continuous
 62
     7
370
     9
100
AcDbCircle
 10
-2720.833034312663
 20
-110.7849668732828
 30
0.0
 40
6.0
100
AcDbArc
 50
180.0
 51
270.0
  0
LINE
  5
1A7
330
1F
100
AcDbEntity
  8
0-7_金物
  6
Continuous
 62
     7
370
     9
100
AcDbLine
 10
-2615.832717589696
 20
-125.7848481021685
 30
0.0
 11
-2735.833034312663
 21
-125.7848481021685
 31
0.0
  0
ARC
  5
1A8
330
1F
100
AcDbEntity
  8
0-7_金物
  6
Continuous
 62
     7
370
     9
100
AcDbCircle
 10
-2615.832717589696
 20
-131.7848481021699
 30
0.0
 40
6.0
100
AcDbArc
 50
0.0
 51
90.0
  0
LINE
  5
1A9
330
1F
100
AcDbEntity
  8
0-7_金物
  6
Continuous
 62
     7
370
     9
100
AcDbLine
 10
-2609.832717589687
 20
-230.7853627769984
 30
0.0
 11
-2609.832717589687
 21
-131.7848481021699
 31
0.0
  0
LINE
  5
1AA
330
1F
100
AcDbEntity
  8
0-7_金物
  6
Continuous
 62
     7
370
     9
100
AcDbLine
 10
-2615.832717589696
 20
-236.7853627769998
 30
0.0
 11
-2735.833034312663
 21
-236.7853627769998
 31
0.0
  0
ARC
  5
1AB
330
1F
100
AcDbEntity
  8
0-7_金物
  6
Continuous
 62
     7
370
     9
100
AcDbCircle
 10
-2615.832717589696
 20
-230.7853627769984
 30
0.0
 40
6.0
100
AcDbArc
 50
270.0
 51
0.0
  0
LINE
  5
1AC
330
1F
100
AcDbEntity
  8
0-7_金物
  6
Continuous
 62
     7
370
     9
100
AcDbLine
 10
-2559.161990710467
 20
-131.7848481021699
 30
0.0
 11
-2559.161990710467
 21
-143.7846105599371
 31
0.0
  0
ARC
  5
1AD
330
1F
100
AcDbEntity
  8
0-7_金物
  6
Continuous
 62
     7
370
     9
100
AcDbCircle
 10
-2565.16199071047
 20
-131.7848481021699
 30
0.0
 40
6.0
100
AcDbArc
 50
0.0
 51
90.0
  0
LINE
  5
1AE
330
1F
100
AcDbEntity
  8
0-7_金物
  6
Continuous
 62
     7
370
     9
100
AcDbLine
 10
-2594.832836360805
 20
-125.7848481021685
 30
0.0
 11
-2565.16199071047
 21
-125.7848481021685
 31
0.0
  0
LINE
  5
1AF
330
1F
100
AcDbEntity
  8
0-7_金物
  6
Continuous
 62
     7
370
     9
100
AcDbLine
 10
-2600.832836360805
 20
-131.7848481021699
 30
0.0
 11
-2600.832836360805
 21
-232.0746034336716
 31
0.0
  0
ARC
  5
1B0
330
1F
100
AcDbEntity
  8
0-7_金物
  6
Continuous
 62
     7
370
     9
100
AcDbCircle
 10
-2594.832836360805
 20
-131.7848481021699
 30
0.0
 40
6.0
100
AcDbArc
 50
90.0
 51
180.0
  0
LINE
  5
1B1
330
1F
100
AcDbEntity
  8
0-7_金物
  6
Continuous
 62
     7
370
     9
100
AcDbLine
 10
-2399.833034312669
 20
-239.7852440058861
 30
0.0
 11
-2399.833034312669
 21
-53.78524400588475
 31
0.0
  0
LINE
  5
1B2
330
1F
100
AcDbEntity
  8
0-7_金物
  6
Continuous
 62
     7
370
     9
100
AcDbLine
 10
-2405.833034312664
 20
-245.7852440058841
 30
0.0
 11
-2481.628206926688
 21
-245.7852440058841
 31
0.0
  0
ARC
  5
1B3
330
1F
100
AcDbEntity
  8
0-7_金物
  6
Continuous
 62
     7
370
     9
100
AcDbCircle
 10
-2405.833034312664
 20
-239.7852440058861
 30
0.0
 40
6.0
100
AcDbArc
 50
270.0
 51
0.0
  0
LINE
  5
1B4
330
1F
100
AcDbEntity
  8
0-7_金物
  6
Continuous
 62
     7
370
     9
100
AcDbLine
 10
-2513.832994722292
 20
-245.7852440058841
 30
0.0
 11
-2513.832994722292
 21
-275.7849668732828
 31
0.0
  0
LINE
  5
1B5
330
1F
100
AcDbEntity
  8
0-7_金物
  6
Continuous
 62
     7
370
     9
100
AcDbLine
 10
-2537.832183119675
 20
-245.7852440058841
 30
0.0
 11
-2537.832183119675
 21
-275.7849668732828
 31
0.0
  0
LINE
  5
1B6
330
1F
100
AcDbEntity
  8
0-4_枠
  6
JWW_DASHED1
 62
    92
370
    13
100
AcDbLine
 10
-2735.833034312663
 20
57.21496384356414
 30
0.0
 11
-2810.833034312663
 21
57.21496384356414
 31
0.0
  0
LINE
  5
1B7
330
1F
100
AcDbEntity
  8
0-4_枠
  6
Continuous
 62
    92
370
    13
100
AcDbLine
 10
-2663.833034312661
 20
-1742.785036156436
 30
0.0
 11
-2663.833034312661
 21
-317.7850361564342
 31
0.0
  0
LINE
  5
1B8
330
1F
100
AcDbEntity
  8
0-4_枠
  6
Continuous
 62
    92
370
    13
100
AcDbLine
 10
-2663.833034312661
 20
-1832.785036156436
 30
0.0
 11
-2663.833034312661
 21
-3362.785036156436
 31
0.0
  0
LINE
  5
1B9
330
1F
100
AcDbEntity
  8
0-4_枠
  6
Continuous
 62
    92
370
    13
100
AcDbLine
 10
-2825.833034312663
 20
-1832.785036156436
 30
0.0
 11
-2825.833034312663
 21
-3362.785036156436
 31
0.0
  0
LINE
  5
1BA
330
1F
100
AcDbEntity
  8
0-4_枠
  6
Continuous
 62
    92
370
    13
100
AcDbLine
 10
-2825.833034312663
 20
-1742.785036156436
 30
0.0
 11
-2825.833034312663
 21
-533.7850361564356
 31
0.0
  0
LINE
  5
1BB
330
1F
100
AcDbEntity
  8
0-4_枠
  6
Continuous
 62
    92
370
    13
100
AcDbLine
 10
-2735.833034312663
 20
57.21496384356414
 30
0.0
 11
-2312.83303431266
 21
57.21496384356414
 31
0.0
  0
LINE
  5
1BC
330
1F
100
AcDbEntity
  8
0-4_枠
  6
Continuous
 62
    92
370
    13
100
AcDbLine
 10
-2312.83303431266
 20
57.21496384356414
 30
0.0
 11
-2312.83303431266
 21
-1742.785036156436
 31
0.0
  0
LINE
  5
1BD
330
1F
100
AcDbEntity
  8
0-4_枠
  6
Continuous
 62
    92
370
    13
100
AcDbLine
 10
-2312.83303431266
 20
-1832.785036156436
 30
0.0
 11
-2312.83303431266
 21
-3362.785036156436
 31
0.0
  0
LINE
  5
1BE
330
1F
100
AcDbEntity
  8
0-5_ケーシング
  6
Continuous
 62
    92
370
    13
100
AcDbLine
 10
-2735.833034312663
 20
-461.7850361564362
 30
0.0
 11
-2735.833034312663
 21
-317.7850361564342
 31
0.0
  0
LINE
  5
1BF
330
1F
100
AcDbEntity
  8
0-5_ケーシング
  6
Continuous
 62
    92
370
    13
100
AcDbLine
 10
-2711.833034312671
 20
-533.7850361564356
 30
0.0
 11
-2687.833034312665
 21
-509.7850361564335
 31
0.0
  0
LINE
  5
1C0
330
1F
100
AcDbEntity
  8
0-5_ケーシング
  6
Continuous
 62
    92
370
    13
100
AcDbLine
 10
-2711.833034312671
 20
-533.7850361564356
 30
0.0
 11
-2825.833034312663
 21
-533.7850361564356
 31
0.0
  0
LINE
  5
1C1
330
1F
100
AcDbEntity
  8
0-5_ケーシング
  6
Continuous
 62
    92
370
    13
100
AcDbLine
 10
-2825.833034312663
 20
-533.7850361564356
 30
0.0
 11
-2825.833034312663
 21
-461.7850361564362
 31
0.0
  0
LINE
  5
1C2
330
1F
100
AcDbEntity
  8
0-5_ケーシング
  6
Continuous
 62
    92
370
    13
100
AcDbLine
 10
-2825.833034312663
 20
-461.7850361564362
 30
0.0
 11
-2735.833034312663
 21
-461.7850361564362
 31
0.0
  0
LINE
  5
1C3
330
1F
100
AcDbEntity
  8
0-5_ケーシング
  6
Continuous
 62
    92
370
    13
100
AcDbLine
 10
-2735.833034312663
 20
-317.7850361564342
 30
0.0
 11
-2687.833034312665
 21
-317.7850361564342
 31
0.0
  0
LINE
  5
1C4
330
1F
100
AcDbEntity
  8
0-5_ケーシング
  6
Continuous
 62
    92
370
    13
100
AcDbLine
 10
-2687.833034312665
 20
-509.7850361564335
 30
0.0
 11
-2687.833034312665
 21
-317.7850361564342
 31
0.0
  0
LINE
  5
1C5
330
1F
100
AcDbEntity
  8
0-1_通り芯
  6
JWW_DASHED1
 62
    92
370
    13
100
AcDbLine
 10
-2735.833034312663
 20
-533.7850361564356
 30
0.0
 11
-2735.833034312663
 21
-1742.785036156436
 31
0.0
  0
LINE
  5
1C6
330
1F
100
AcDbEntity
  8
0-1_通り芯
  6
JWW_DASHED1
 62
    92
370
    13
100
AcDbLine
 10
-2735.833034312663
 20
-1832.785036156436
 30
0.0
 11
-2735.833034312663
 21
-3362.785036156436
 31
0.0
  0
LINE
  5
1C7
330
1F
100
AcDbEntity
  8
0-C_ハッチ
  6
Continuous
 62
   120
370
     5
100
AcDbLine
 10
-2801.117879055313
 20
-533.785036156439
 30
0.0
 11
-2825.833034312663
 21
-509.0698808990825
 31
0.0
  0
LINE
  5
1C8
330
1F
100
AcDbEntity
  8
0-C_ハッチ
  6
Continuous
 62
   120
370
     5
100
AcDbLine
 10
-2716.265065312899
 20
-533.7850361564424
 30
0.0
 11
-2788.265065312902
 21
-461.7850361564396
 31
0.0
  0
LINE
  5
1C9
330
1F
100
AcDbEntity
  8
0-C_ハッチ
  6
Continuous
 62
   120
370
     5
100
AcDbLine
 10
-2687.833034312665
 20
-350.0850328007309
 30
0.0
 11
-2720.133030956962
 21
-317.7850361564376
 31
0.0
  0
LINE
  5
1CA
330
1F
100
AcDbEntity
  8
0-C_ハッチ
  6
Continuous
 62
   120
370
     5
100
AcDbLine
 10
-2687.833034312665
 20
-392.5114396719309
 30
0.0
 11
-2735.833034312663
 21
-344.511439671937
 31
0.0
  0
LINE
  5
1CB
330
1F
100
AcDbEntity
  8
0-C_ハッチ
  6
Continuous
 62
   120
370
     5
100
AcDbLine
 10
-2687.833034312665
 20
-434.9378465431343
 30
0.0
 11
-2735.833034312663
 21
-386.937846543137
 31
0.0
  0
LINE
  5
1CC
330
1F
100
AcDbEntity
  8
0-C_ハッチ
  6
Continuous
 62
   120
370
     5
100
AcDbLine
 10
-2687.833034312665
 20
-477.3642534142763
 30
0.0
 11
-2735.833034312668
 21
-429.3642534142757
 31
0.0
  0
LINE
  5
1CD
330
1F
100
AcDbEntity
  8
0-C_ハッチ
  6
Continuous
 62
   120
370
     5
100
AcDbLine
 10
-2692.835846377192
 20
-514.7878482209567
 30
0.0
 11
-2745.838658441702
 21
-461.7850361564396
 31
0.0
  0
LINE
  5
1CE
330
1F
100
AcDbEntity
  8
0-C_ハッチ
  6
Continuous
 62
   120
370
     5
100
AcDbLine
 10
-2758.691472184104
 20
-533.785036156439
 30
0.0
 11
-2825.833034312663
 21
-466.6434740278757
 31
0.0
  0
LINE
  5
1CF
330
1F
100
AcDbEntity
  8
0-C_ハッチ
  6
Continuous
 62
   120
370
     5
100
AcDbLine
 10
-2536.436622520013
 20
-3362.785036156436
 30
0.0
 11
-2554.436127647441
 21
-3344.785036156436
 31
0.0
  0
LINE
  5
1D0
330
1F
100
AcDbEntity
  8
0-C_ハッチ
  6
Continuous
 62
   120
370
     5
100
AcDbLine
 10
-2557.650628273813
 20
-3362.785036156436
 30
0.0
 11
-2575.650133401241
 21
-3344.785036156436
 31
0.0
  0
LINE
  5
1D1
330
1F
100
AcDbEntity
  8
0-C_ハッチ
  6
Continuous
 62
   120
370
     5
100
AcDbLine
 10
-2578.863149388675
 20
-3362.785036156436
 30
0.0
 11
-2596.862654516104
 21
-3344.785036156436
 31
0.0
  0
LINE
  5
1D2
330
1F
100
AcDbEntity
  8
0-C_ハッチ
  6
Continuous
 62
   120
370
     5
100
AcDbLine
 10
-2600.075670503542
 20
-3362.785036156436
 30
0.0
 11
-2618.076165376118
 21
-3344.785036156436
 31
0.0
  0
LINE
  5
1D3
330
1F
100
AcDbEntity
  8
0-C_ハッチ
  6
Continuous
 62
   120
370
     5
100
AcDbLine
 10
-2516.833034312662
 20
-3339.962097495123
 30
0.0
 11
-2534.833034312663
 21
-3321.962097495115
 31
0.0
  0
LINE
  5
1D4
330
1F
100
AcDbEntity
  8
0-C_ハッチ
  6
Continuous
 62
   120
370
     5
100
AcDbLine
 10
-2516.833034312662
 20
-3318.7482154498
 30
0.0
 11
-2534.833034312663
 21
-3300.748710335972
 31
0.0
  0
LINE
  5
1D5
330
1F
100
AcDbEntity
  8
0-C_ハッチ
  6
Continuous
 62
   120
370
     5
100
AcDbLine
 10
-2516.833034312662
 20
-3297.535570626456
 30
0.0
 11
-2534.833034312663
 21
-3279.535570626452
 31
0.0
  0
LINE
  5
1D6
330
1F
100
AcDbEntity
  8
0-C_ハッチ
  6
Continuous
 62
   120
370
     5
100
AcDbLine
 10
-2516.833034312662
 20
-3276.321688581133
 30
0.0
 11
-2534.833034312663
 21
-3258.322183467305
 31
0.0
  0
LINE
  5
1D7
330
1F
100
AcDbEntity
  8
0-C_ハッチ
  6
Continuous
 62
   120
370
     5
100
AcDbLine
 10
-2516.833034312662
 20
-3255.10904375779
 30
0.0
 11
-2529.15743781773
 21
-3242.784640252718
 31
0.0
  0
LINE
  5
1D8
330
1F
100
AcDbEntity
  8
0-C_ハッチ
  6
Continuous
 62
   120
370
     5
100
AcDbLine
 10
-2521.325477618471
 20
-3356.682343085032
 30
0.0
 11
-2534.833034312663
 21
-3343.175157742814
 31
0.0
  0
LINE
  5
1D9
330
1F
100
AcDbEntity
  8
0-7_金物
  6
Continuous
 62
    92
370
    13
100
AcDbLine
 10
-2534.833034312663
 20
-3344.785036156436
 30
0.0
 11
-2624.833034312659
 21
-3344.785036156436
 31
0.0
  0
LINE
  5
1DA
330
1F
100
AcDbEntity
  8
0-7_金物
  6
Continuous
 62
    92
370
    13
100
AcDbLine
 10
-2534.833034312663
 20
-3344.785036156436
 30
0.0
 11
-2534.833034312663
 21
-3242.784640252718
 31
0.0
  0
LINE
  5
1DB
330
1F
100
AcDbEntity
  8
0-7_金物
  6
Continuous
 62
    92
370
    13
100
AcDbLine
 10
-2516.833034312662
 20
-3242.784640252718
 30
0.0
 11
-2534.833034312663
 21
-3242.784640252718
 31
0.0
  0
LINE
  5
1DC
330
1F
100
AcDbEntity
  8
0-7_金物
  6
Continuous
 62
    92
370
    13
100
AcDbLine
 10
-2624.833034312659
 20
-3362.785036156436
 30
0.0
 11
-2624.833034312659
 21
-3344.785036156436
 31
0.0
  0
ARC
  5
1DD
330
1F
100
AcDbEntity
  8
0-7_金物
  6
Continuous
 62
    92
370
    13
100
AcDbCircle
 10
-2534.833034312659
 20
-3344.785036156436
 30
0.0
 40
18.0
100
AcDbArc
 50
270.0
 51
0.0
  0
LINE
  5
1DE
330
1F
100
AcDbEntity
  8
0-7_金物
  6
Continuous
 62
    92
370
    13
100
AcDbLine
 10
-2516.833034312662
 20
-3344.785036156436
 30
0.0
 11
-2516.833034312662
 21
-3242.784640252718
 31
0.0
  0
MTEXT
  5
1DF
330
1F
100
AcDbEntity
  8
0-B_寸法
  6
Continuous
 62
     7
370
   211
100
AcDbMText
 10
-1979.142668244148
 20
-2084.299361389538
 30
0.0
 40
78.97090909090909
 41
570.0
 46
0.0
 71
     7
 72
     1
  1
{\fＭＳ ゴシック|b0|i0|c128|p49;ＤＨ：1,983}
 11
6.123031769111886E-17
 21
1.0
 31
0.0
 73
     1
 44
1.0
  0
MTEXT
  5
1E0
330
1F
100
AcDbEntity
  8
0-B_寸法
  6
Continuous
 62
     7
370
   211
100
AcDbMText
 10
-1822.564307029378
 20
-2294.080605408676
 30
0.0
 40
79.40842105263158
 41
990.0
 46
0.0
 71
     7
 72
     1
  1
{\fＭＳ ゴシック|b0|i0|c128|p49;鴨居内寸法：1,996.5}
 11
6.123031769111886E-17
 21
1.0
 31
0.0
 73
     1
 44
1.0
  0
MTEXT
  5
1E1
330
1F
100
AcDbEntity
  8
0-B_寸法
  6
Continuous
 62
     7
370
   211
100
AcDbMText
 10
-1651.510468110048
 20
-2189.160815934993
 30
0.0
 40
79.248
 41
780.0
 46
0.0
 71
     7
 72
     1
  1
{\fＭＳ ゴシック|b0|i0|c128|p49;竪枠寸法：2,047}
 11
6.123031769111886E-17
 21
1.0
 31
0.0
 73
     1
 44
1.0
  0
LINE
  5
1E2
330
1F
100
AcDbEntity
  8
0-3_仕上げ
  6
Continuous
 62
    40
370
    15
100
AcDbLine
 10
-2810.833034312663
 20
257.9281873394632
 30
0.0
 11
-2810.833034312663
 21
-386.7850361564362
 31
0.0
  0
LINE
  5
1E3
330
1F
100
AcDbEntity
  8
0-3_仕上げ
  6
Continuous
 62
    40
370
    15
100
AcDbLine
 10
-3515.833034312663
 20
-311.7850361564362
 30
0.0
 11
-3515.833034312663
 21
257.9281873394632
 31
0.0
  0
LINE
  5
1E4
330
1F
100
AcDbEntity
  8
0-3_仕上げ
  6
Continuous
 62
    40
370
    15
100
AcDbLine
 10
-3515.833034312663
 20
-311.7850361564362
 30
0.0
 11
-2885.833034312663
 21
-311.7850361564362
 31
0.0
  0
LINE
  5
1E5
330
1F
100
AcDbEntity
  8
0-3_仕上げ
  6
Continuous
 62
    40
370
    15
100
AcDbLine
 10
-2885.833034312663
 20
257.9281873394632
 30
0.0
 11
-2885.833034312663
 21
-311.7850361564362
 31
0.0
  0
LINE
  5
1E6
330
1F
100
AcDbEntity
  8
0-2_柱
  6
Continuous
 62
     7
370
     9
100
AcDbLine
 10
-2885.833034312663
 20
-149.7850361564352
 30
0.0
 11
-3515.833034312663
 21
-311.7850361564362
 31
0.0
  0
LINE
  5
1E7
330
1F
100
AcDbEntity
  8
0-2_柱
  6
Continuous
 62
     7
370
     9
100
AcDbLine
 10
-3515.833034312663
 20
-149.7850361564352
 30
0.0
 11
-2885.833034312663
 21
12.21496384356584
 31
0.0
  0
LINE
  5
1E8
330
1F
100
AcDbEntity
  8
0-2_柱
  6
Continuous
 62
     7
370
     9
100
AcDbLine
 10
-2885.833034312663
 20
174.2149638435652
 30
0.0
 11
-3515.833034312663
 21
12.21496384356584
 31
0.0
  0
LINE
  5
1E9
330
1F
100
AcDbEntity
  8
0-2_柱
  6
Continuous
 62
     7
370
     9
100
AcDbLine
 10
-3515.833034312663
 20
12.21496384356584
 30
0.0
 11
-2885.833034312663
 21
12.21496384356584
 31
0.0
  0
LINE
  5
1EA
330
1F
100
AcDbEntity
  8
0-2_柱
  6
Continuous
 62
     7
370
     9
100
AcDbLine
 10
-3515.833034312663
 20
-149.7850361564352
 30
0.0
 11
-2885.833034312663
 21
-149.7850361564352
 31
0.0
  0
LINE
  5
1EB
330
1F
100
AcDbEntity
  8
0-2_柱
  6
Continuous
 62
     7
370
     9
100
AcDbLine
 10
-3515.833034312663
 20
174.2149638435652
 30
0.0
 11
-2885.833034312663
 21
174.2149638435652
 31
0.0
  0
LWPOLYLINE
  5
1EC
330
1F
100
AcDbEntity
  8
0-B_寸法
  6
Continuous
 62
     7
370
     9
100
AcDbPolyline
 90
        4
 70
     1
 43
3.0
 10
-3940.5392920535
 20
-3362.785036156436
 42
0.4142135623731
 10
-3942.039292053501
 20
-3361.285036156436
 42
0.4142135623731
 10
-3943.539292053501
 20
-3362.785036156436
 42
0.4142135623731
 10
-3942.039292053501
 20
-3364.285036156436
 42
0.4142135623731
  0
LINE
  5
1ED
330
1F
100
AcDbEntity
  8
0-B_寸法
  6
Continuous
 62
   120
370
     5
100
AcDbLine
 10
-3942.039292053501
 20
-3362.785036156436
 30
0.0
 11
-3728.636909206591
 21
-3362.785036156436
 31
0.0
  0
LWPOLYLINE
  5
1EE
330
1F
100
AcDbEntity
  8
0-B_寸法
  6
Continuous
 62
     7
370
     9
100
AcDbPolyline
 90
        4
 70
     1
 43
3.0
 10
-3940.5392920535
 20
-533.785036156439
 42
0.4142135623731
 10
-3942.039292053501
 20
-532.2850361564389
 42
0.4142135623731
 10
-3943.539292053501
 20
-533.785036156439
 42
0.4142135623731
 10
-3942.039292053501
 20
-535.285036156439
 42
0.4142135623731
  0
LINE
  5
1EF
330
1F
100
AcDbEntity
  8
0-B_寸法
  6
Continuous
 62
   120
370
     5
100
AcDbLine
 10
-3942.039292053501
 20
-533.785036156439
 30
0.0
 11
-3942.039292053501
 21
-461.7850361564362
 31
0.0
  0
LWPOLYLINE
  5
1F0
330
1F
100
AcDbEntity
  8
0-B_寸法
  6
Continuous
 62
     7
370
     9
100
AcDbPolyline
 90
        4
 70
     1
 43
3.0
 10
-3940.5392920535
 20
-461.7850361564362
 42
0.4142135623731
 10
-3942.039292053501
 20
-460.2850361564362
 42
0.4142135623731
 10
-3943.539292053501
 20
-461.7850361564362
 42
0.4142135623731
 10
-3942.039292053501
 20
-463.2850361564362
 42
0.4142135623731
  0
LINE
  5
1F1
330
1F
100
AcDbEntity
  8
0-B_寸法
  6
Continuous
 62
   120
370
     5
100
AcDbLine
 10
-3942.039292053501
 20
-461.7850361564362
 30
0.0
 11
-3728.636909206591
 21
-461.7850361564362
 31
0.0
  0
LINE
  5
1F2
330
1F
100
AcDbEntity
  8
0-B_寸法
  6
Continuous
 62
   120
370
     5
100
AcDbLine
 10
-3942.039292053501
 20
-3362.785036156436
 30
0.0
 11
-3942.039292053501
 21
-533.785036156439
 31
0.0
  0
LINE
  5
1F3
330
1F
100
AcDbEntity
  8
0-B_寸法
  6
Continuous
 62
   120
370
     5
100
AcDbLine
 10
-4117.602092458241
 20
57.21496384356414
 30
0.0
 11
-4117.602092458241
 21
-386.7850361564362
 31
0.0
  0
LWPOLYLINE
  5
1F4
330
1F
100
AcDbEntity
  8
0-B_寸法
  6
Continuous
 62
     7
370
     9
100
AcDbPolyline
 90
        4
 70
     1
 43
3.0
 10
-4116.102092458241
 20
57.21496384356414
 42
0.4142135623731
 10
-4117.602092458241
 20
58.71496384356414
 42
0.4142135623731
 10
-4119.102092458242
 20
57.21496384356414
 42
0.4142135623731
 10
-4117.602092458241
 20
55.71496384356414
 42
0.4142135623731
  0
LWPOLYLINE
  5
1F5
330
1F
100
AcDbEntity
  8
0-B_寸法
  6
Continuous
 62
     7
370
     9
100
AcDbPolyline
 90
        4
 70
     1
 43
3.0
 10
-4116.102092458241
 20
-386.7850361564362
 42
0.4142135623731
 10
-4117.602092458241
 20
-385.2850361564362
 42
0.4142135623731
 10
-4119.102092458242
 20
-386.7850361564362
 42
0.4142135623731
 10
-4117.602092458241
 20
-388.2850361564362
 42
0.4142135623731
  0
LINE
  5
1F6
330
1F
100
AcDbEntity
  8
0-B_寸法
  6
Continuous
 62
   120
370
     5
100
AcDbLine
 10
-4117.602092458241
 20
-386.7850361564362
 30
0.0
 11
-4117.602092458241
 21
-461.7850361564362
 31
0.0
  0
LWPOLYLINE
  5
1F7
330
1F
100
AcDbEntity
  8
0-B_寸法
  6
Continuous
 62
     7
370
     9
100
AcDbPolyline
 90
        4
 70
     1
 43
3.0
 10
-4116.102092458241
 20
-461.7850361564362
 42
0.4142135623731
 10
-4117.602092458241
 20
-460.2850361564362
 42
0.4142135623731
 10
-4119.102092458242
 20
-461.7850361564362
 42
0.4142135623731
 10
-4117.602092458241
 20
-463.2850361564362
 42
0.4142135623731
  0
LINE
  5
1F8
330
1F
100
AcDbEntity
  8
0-B_寸法
  6
Continuous
 62
   120
370
     5
100
AcDbLine
 10
-4117.602092458241
 20
-461.7850361564362
 30
0.0
 11
-3942.039292053501
 21
-461.7850361564362
 31
0.0
  0
LINE
  5
1F9
330
1F
100
AcDbEntity
  8
0-B_寸法
  6
Continuous
 62
   120
370
     5
100
AcDbLine
 10
-4117.602092458241
 20
-461.7850361564362
 30
0.0
 11
-4117.602092458241
 21
-3362.785036156436
 31
0.0
  0
LWPOLYLINE
  5
1FA
330
1F
100
AcDbEntity
  8
0-B_寸法
  6
Continuous
 62
     7
370
     9
100
AcDbPolyline
 90
        4
 70
     1
 43
3.0
 10
-4116.102092458241
 20
-3362.785036156436
 42
0.4142135623731
 10
-4117.602092458241
 20
-3361.285036156436
 42
0.4142135623731
 10
-4119.102092458242
 20
-3362.785036156436
 42
0.4142135623731
 10
-4117.602092458241
 20
-3364.285036156436
 42
0.4142135623731
  0
LINE
  5
1FB
330
1F
100
AcDbEntity
  8
0-B_寸法
  6
Continuous
 62
   120
370
     5
100
AcDbLine
 10
-4117.602092458241
 20
-3362.785036156436
 30
0.0
 11
-3942.039292053501
 21
-3362.785036156436
 31
0.0
  0
LINE
  5
1FC
330
1F
100
AcDbEntity
  8
0-B_寸法
  6
Continuous
 62
   120
370
     5
100
AcDbLine
 10
-4117.602092458241
 20
-386.7850361564362
 30
0.0
 11
-3728.636909206591
 21
-386.7850361564362
 31
0.0
  0
LINE
  5
1FD
330
1F
100
AcDbEntity
  8
0-B_寸法
  6
Continuous
 62
   120
370
     5
100
AcDbLine
 10
-4117.602092458241
 20
57.21496384356414
 30
0.0
 11
-3728.636909206591
 21
57.21496384356414
 31
0.0
  0
MTEXT
  5
1FE
330
1F
100
AcDbEntity
  8
0-B_寸法
  6
Continuous
 62
     7
370
   211
100
AcDbMText
 10
-4141.769893130953
 20
-221.387536156436
 30
0.0
 40
74.295
 41
97.5
 46
0.0
 71
     7
 72
     1
  1
{\fＭＳ ゴシック|b0|i0|c128|p49;74}
 11
6.123031769111886E-17
 21
1.0
 31
0.0
 73
     1
 44
1.0
  0
MTEXT
  5
1FF
330
1F
100
AcDbEntity
  8
0-B_寸法
  6
Continuous
 62
     7
370
   211
100
AcDbMText
 10
-4141.769893130953
 20
-682.2393472102906
 30
0.0
 40
77.1525000000013
 41
202.5000000000034
 46
0.0
 71
     7
 72
     1
  1
{\fＭＳ ゴシック|b0|i0|c128|p49;12.5}
 11
6.123031769111886E-17
 21
1.0
 31
0.0
 73
     1
 44
1.0
  0
MTEXT
  5
200
330
1F
100
AcDbEntity
  8
0-B_寸法
  6
Continuous
 62
     7
370
   211
100
AcDbMText
 10
-3966.207092726213
 20
-655.24742614659
 30
0.0
 40
74.2950000000026
 41
97.50000000000341
 46
0.0
 71
     7
 72
     1
  1
{\fＭＳ ゴシック|b0|i0|c128|p49;12}
 11
6.123031769111886E-17
 21
1.0
 31
0.0
 73
     1
 44
1.0
  0
LINE
  5
201
330
1F
100
AcDbEntity
  8
0-3_仕上げ
  6
Continuous
 62
    40
370
    15
100
AcDbLine
 10
-3665.833034312663
 20
-461.7850361564362
 30
0.0
 11
-2735.833034312663
 21
-461.7850361564362
 31
0.0
  0
LINE
  5
202
330
1F
100
AcDbEntity
  8
0-3_仕上げ
  6
Continuous
 62
    40
370
    15
100
AcDbLine
 10
-3665.833034312663
 20
-461.7850361564362
 30
0.0
 11
-3665.833034312663
 21
257.9281873394632
 31
0.0
  0
LINE
  5
203
330
1F
100
AcDbEntity
  8
0-C_ハッチ
  6
Continuous
 62
     7
370
     9
100
AcDbLine
 10
-2184.83845448006
 20
-3380.785169773943
 30
0.0
 11
-3644.368659320082
 21
-3380.785169773943
 31
0.0
  0
LINE
  5
204
330
1F
100
AcDbEntity
  8
0-C_ハッチ
  6
Continuous
 62
     7
370
     9
100
AcDbLine
 10
-2184.83845448006
 20
-3398.785303391443
 30
0.0
 11
-3644.368659320082
 21
-3398.785303391443
 31
0.0
  0
LINE
  5
205
330
1F
100
AcDbEntity
  8
0-C_ハッチ
  6
Continuous
 62
     7
370
     9
100
AcDbLine
 10
-2184.83845448006
 20
-3416.785065849214
 30
0.0
 11
-3644.368659320082
 21
-3416.785065849214
 31
0.0
  0
LINE
  5
206
330
1F
100
AcDbEntity
  8
0-C_ハッチ
  6
Continuous
 62
     7
370
     9
100
AcDbLine
 10
-2184.83845448006
 20
-3362.785036156436
 30
0.0
 11
-3644.368659320082
 21
-3362.785036156436
 31
0.0
  0
LINE
  5
207
330
1F
100
AcDbEntity
  8
0-C_ハッチ
  6
Continuous
 62
     7
370
     9
100
AcDbLine
 10
-2184.83845448006
 20
-3434.785199466721
 30
0.0
 11
-3644.368659320082
 21
-3434.785199466721
 31
0.0
  0
MTEXT
  5
208
330
1F
100
AcDbEntity
  8
0-A_文字
  6
Continuous
 62
     7
370
     9
100
AcDbMText
 10
-3694.227356805687
 20
-3238.073012098683
 30
0.0
 40
74.295
 41
195.0
 46
0.0
 71
     7
 72
     1
  1
{\fＭＳ ゴシック|b0|i0|c128|p49;ＦＬ}
 73
     1
 44
1.0
  0
LINE
  5
209
330
1F
100
AcDbEntity
  8
0-A_文字
  6
Continuous
 62
     7
370
     9
100
AcDbLine
 10
-3664.073618718978
 20
-3262.726310438527
 30
0.0
 11
-3551.25293670884
 21
-3262.726310438527
 31
0.0
  0
LINE
  5
20A
330
1F
100
AcDbEntity
  8
0-A_文字
  6
Continuous
 62
     7
370
     9
100
AcDbLine
 10
-3607.663277713916
 20
-3360.431883443177
 30
0.0
 11
-3664.073618718978
 21
-3262.726310438527
 31
0.0
  0
LINE
  5
20B
330
1F
100
AcDbEntity
  8
0-A_文字
  6
Continuous
 62
     7
370
     9
100
AcDbLine
 10
-3551.25293670884
 20
-3262.726310438527
 30
0.0
 11
-3607.663277713916
 21
-3360.431883443177
 31
0.0
  0
LINE
  5
20C
330
1F
100
AcDbEntity
  8
0-B_寸法
  6
Continuous
 62
   120
370
     5
100
AcDbLine
 10
-3942.039292053501
 20
-533.785036156439
 30
0.0
 11
-3728.636909206591
 21
-533.785036156439
 31
0.0
  0
MTEXT
  5
20D
330
1F
100
AcDbEntity
  8
0-B_寸法
  6
Continuous
 62
     7
370
   211
100
AcDbMText
 10
-4142.987933199888
 20
-2241.61599240558
 30
0.0
 40
79.33764705882353
 41
885.0
 46
0.0
 71
     7
 72
     1
  1
{\fＭＳ ゴシック|b0|i0|c128|p49;開口寸法：1,960.5}
 11
6.123031769111886E-17
 21
1.0
 31
0.0
 73
     1
 44
1.0
  0
MTEXT
  5
20E
330
1F
100
AcDbEntity
  8
0-B_寸法
  6
Continuous
 62
     7
370
   211
100
AcDbMText
 10
-3961.09768209295
 20
-2241.61599240558
 30
0.0
 40
79.33764705882353
 41
885.0
 46
0.0
 71
     7
 72
     1
  1
{\fＭＳ ゴシック|b0|i0|c128|p49;枠内寸法：1,948.5}
 11
6.123031769111886E-17
 21
1.0
 31
0.0
 73
     1
 44
1.0
  0
MTEXT
  5
20F
330
1F
100
AcDbEntity
  8
0-A_文字
  6
Continuous
 62
     7
370
     9
100
AcDbMText
 10
-4117.602092458241
 20
757.92895215106
 30
0.0
 40
91.44
 41
600.0
 46
0.0
 71
     7
 72
     1
  1
{\fＭＳ ゴシック|b0|i0|c128|p49;■縦断面図}
 73
     1
 44
1.0
  0
LINE
  5
210
330
1F
100
AcDbEntity
  8
0-3_仕上げ
  6
Continuous
 62
    40
370
    15
100
AcDbLine
 10
-3590.833034312663
 20
-386.7850361564362
 30
0.0
 11
-2810.833034312663
 21
-386.7850361564362
 31
0.0
  0
LINE
  5
211
330
1F
100
AcDbEntity
  8
0-3_仕上げ
  6
Continuous
 62
    40
370
    15
100
AcDbLine
 10
-3590.833034312663
 20
-386.7850361564362
 30
0.0
 11
-3590.833034312663
 21
257.9281873394632
 31
0.0
  0
LINE
  5
212
330
1F
100
AcDbEntity
  8
0-B_寸法
  6
Continuous
 62
   120
370
     5
100
AcDbLine
 10
-2312.83303431266
 20
474.1220334951754
 30
0.0
 11
-2885.833034312663
 21
474.1220334951754
 31
0.0
  0
LWPOLYLINE
  5
213
330
1F
100
AcDbEntity
  8
0-B_寸法
  6
Continuous
 62
     7
370
     9
100
AcDbPolyline
 90
        4
 70
     1
 43
3.0
 10
-2884.333034312663
 20
474.1220334951754
 42
0.4142135623731
 10
-2885.833034312663
 20
475.6220334951754
 42
0.4142135623731
 10
-2887.333034312662
 20
474.1220334951754
 42
0.4142135623731
 10
-2885.833034312663
 20
472.6220334951754
 42
0.4142135623731
  0
LINE
  5
214
330
1F
100
AcDbEntity
  8
0-B_寸法
  6
Continuous
 62
   120
370
     5
100
AcDbLine
 10
-2885.833034312663
 20
474.1220334951754
 30
0.0
 11
-2885.833034312663
 21
326.9049851143802
 31
0.0
  0
LINE
  5
215
330
1F
100
AcDbEntity
  8
0-B_寸法
  6
Continuous
 62
   120
370
     5
100
AcDbLine
 10
-2885.833034312663
 20
474.1220334951754
 30
0.0
 11
-3332.83303431266
 21
474.1220334951754
 31
0.0
  0
MTEXT
  5
216
330
1F
100
AcDbEntity
  8
0-B_寸法
  6
Continuous
 62
     7
370
   211
100
AcDbMText
 10
-2700.583034312661
 20
482.6982834951754
 30
0.0
 40
77.15249999999999
 41
202.5
 46
0.0
 71
     7
 72
     1
  1
{\fＭＳ ゴシック|b0|i0|c128|p49;95.5}
 73
     1
 44
1.0
  0
MTEXT
  5
217
330
1F
100
AcDbEntity
  8
0-B_寸法
  6
Continuous
 62
     7
370
   211
100
AcDbMText
 10
-3210.583034312661
 20
482.6982834951754
 30
0.0
 40
77.15249999999999
 41
202.5
 46
0.0
 71
     7
 72
     1
  1
{\fＭＳ ゴシック|b0|i0|c128|p49;74.5}
 73
     1
 44
1.0
  0
LINE
  5
218
330
1F
100
AcDbEntity
  8
0-3_仕上げ
  6
Continuous
 62
    40
370
    15
100
AcDbLine
 10
-226.9761083091542
 20
2135.903327113426
 30
0.0
 11
826.0238916908371
 21
2135.903327113426
 31
0.0
  0
LINE
  5
219
330
1F
100
AcDbEntity
  8
0-3_仕上げ
  6
Continuous
 62
    40
370
    15
100
AcDbLine
 10
946.0238916908371
 20
2135.903327113426
 30
0.0
 11
2353.145785460518
 21
2135.903327113426
 31
0.0
  0
LINE
  5
21A
330
1F
100
AcDbEntity
  8
0-B_寸法
  6
Continuous
 62
     7
370
     9
100
AcDbLine
 10
60.47405962466954
 20
1993.408147605178
 30
0.0
 11
210.3765461839204
 21
1951.838550492107
 31
0.0
  0
LINE
  5
21B
330
1F
100
AcDbEntity
  8
0-B_寸法
  6
Continuous
 62
     7
370
     9
100
AcDbLine
 10
60.47405962466954
 20
2148.138655783859
 30
0.0
 11
60.47405962466954
 21
1993.408147605178
 31
0.0
  0
LINE
  5
21C
330
1F
100
AcDbEntity
  8
0-B_寸法
  6
Continuous
 62
     7
370
     9
100
AcDbLine
 10
-1412.998412444046
 20
2275.171650200308
 30
0.0
 11
-1412.998412444046
 21
2029.793066390628
 31
0.0
  0
LINE
  5
21D
330
1F
100
AcDbEntity
  8
0-B_寸法
  6
Continuous
 62
     7
370
     9
100
AcDbLine
 10
-1412.998412444046
 20
2029.793066390628
 30
0.0
 11
-1256.131054274536
 21
1968.78909376915
 31
0.0
  0
LINE
  5
21E
330
1F
100
AcDbEntity
  8
0-B_寸法
  6
Continuous
 62
   120
370
     5
100
AcDbLine
 10
210.3765461839204
 20
2060.903327113426
 30
0.0
 11
210.3765461839204
 21
1988.903327113427
 31
0.0
  0
LWPOLYLINE
  5
21F
330
1F
100
AcDbEntity
  8
0-B_寸法
  6
Continuous
 62
     7
370
     9
100
AcDbPolyline
 90
        4
 70
     1
 43
3.0
 10
211.8765461839204
 20
2060.903327113426
 42
0.4142135623731
 10
210.3765461839204
 20
2062.403327113426
 42
0.4142135623731
 10
208.8765461839204
 20
2060.903327113426
 42
0.4142135623731
 10
210.3765461839204
 20
2059.403327113426
 42
0.4142135623731
  0
LWPOLYLINE
  5
220
330
1F
100
AcDbEntity
  8
0-B_寸法
  6
Continuous
 62
     7
370
     9
100
AcDbPolyline
 90
        4
 70
     1
 43
3.0
 10
211.8765461839204
 20
1988.903327113427
 42
0.4142135623731
 10
210.3765461839204
 20
1990.403327113427
 42
0.4142135623731
 10
208.8765461839204
 20
1988.903327113427
 42
0.4142135623731
 10
210.3765461839204
 20
1987.403327113427
 42
0.4142135623731
  0
LINE
  5
221
330
1F
100
AcDbEntity
  8
0-B_寸法
  6
Continuous
 62
   120
370
     5
100
AcDbLine
 10
210.3765461839204
 20
2060.903327113426
 30
0.0
 11
-18.48136633823955
 21
2060.903327113426
 31
0.0
  0
MTEXT
  5
222
330
1F
100
AcDbEntity
  8
0-B_寸法
  6
Continuous
 62
     7
370
   211
100
AcDbMText
 10
195.3765461839204
 20
1968.300827113428
 30
0.0
 40
74.295
 41
97.5
 46
0.0
 71
     7
 72
     1
  1
{\fＭＳ ゴシック|b0|i0|c128|p49;12}
 11
6.123031769111886E-17
 21
1.0
 31
0.0
 73
     1
 44
1.0
  0
LINE
  5
223
330
1F
100
AcDbEntity
  8
0-B_寸法
  6
Continuous
 62
   120
370
     5
100
AcDbLine
 10
210.3765461839204
 20
1988.903327113427
 30
0.0
 11
210.3765461839204
 21
1940.903327113426
 31
0.0
  0
LWPOLYLINE
  5
224
330
1F
100
AcDbEntity
  8
0-B_寸法
  6
Continuous
 62
     7
370
     9
100
AcDbPolyline
 90
        4
 70
     1
 43
3.0
 10
211.8765461839204
 20
1940.903327113426
 42
0.4142135623731
 10
210.3765461839204
 20
1942.403327113426
 42
0.4142135623731
 10
208.8765461839204
 20
1940.903327113426
 42
0.4142135623731
 10
210.3765461839204
 20
1939.403327113426
 42
0.4142135623731
  0
LINE
  5
225
330
1F
100
AcDbEntity
  8
0-B_寸法
  6
Continuous
 62
   120
370
     5
100
AcDbLine
 10
210.3765461839204
 20
1940.903327113426
 30
0.0
 11
210.3765461839204
 21
1760.903327113426
 31
0.0
  0
LWPOLYLINE
  5
226
330
1F
100
AcDbEntity
  8
0-B_寸法
  6
Continuous
 62
     7
370
     9
100
AcDbPolyline
 90
        4
 70
     1
 43
3.0
 10
211.8765461839204
 20
1760.903327113426
 42
0.4142135623731
 10
210.3765461839204
 20
1762.403327113426
 42
0.4142135623731
 10
208.8765461839204
 20
1760.903327113426
 42
0.4142135623731
 10
210.3765461839204
 20
1759.403327113426
 42
0.4142135623731
  0
MTEXT
  5
227
330
1F
100
AcDbEntity
  8
0-B_寸法
  6
Continuous
 62
     7
370
   211
100
AcDbMText
 10
195.3765461839204
 20
1794.300827113426
 30
0.0
 40
74.295
 41
97.5
 46
0.0
 71
     7
 72
     1
  1
{\fＭＳ ゴシック|b0|i0|c128|p49;30}
 11
6.123031769111886E-17
 21
1.0
 31
0.0
 73
     1
 44
1.0
  0
MTEXT
  5
228
330
1F
100
AcDbEntity
  8
0-B_寸法
  6
Continuous
 62
     7
370
   211
100
AcDbMText
 10
63.18928588124905
 20
2066.45999367288
 30
0.0
 40
68.58
 41
45.0
 46
0.0
 71
     7
 72
     1
  1
{\fＭＳ ゴシック|b0|i0|c128|p49;8}
 11
6.123031769111886E-17
 21
1.0
 31
0.0
 73
     1
 44
1.0
  0
LINE
  5
229
330
1F
100
AcDbEntity
  8
0-B_寸法
  6
Continuous
 62
   120
370
     5
100
AcDbLine
 10
210.3765461839204
 20
1988.903327113427
 30
0.0
 11
-178.0775826425948
 21
1988.903327113427
 31
0.0
  0
LINE
  5
22A
330
1F
100
AcDbEntity
  8
0-B_寸法
  6
Continuous
 62
   120
370
     5
100
AcDbLine
 10
210.3765461839204
 20
1940.903327113426
 30
0.0
 11
-178.0775826425948
 21
1940.903327113426
 31
0.0
  0
LINE
  5
22B
330
1F
100
AcDbEntity
  8
0-B_寸法
  6
Continuous
 62
   120
370
     5
100
AcDbLine
 10
210.3765461839204
 20
1760.903327113426
 30
0.0
 11
-178.0775826425948
 21
1760.903327113426
 31
0.0
  0
LWPOLYLINE
  5
22C
330
1F
100
AcDbEntity
  8
0-B_寸法
  6
Continuous
 62
     7
370
     9
100
AcDbPolyline
 90
        4
 70
     1
 43
3.0
 10
-1112.811865019763
 20
2156.903327113427
 42
0.4142135623731
 10
-1114.311865019763
 20
2158.403327113427
 42
0.4142135623731
 10
-1115.811865019763
 20
2156.903327113427
 42
0.4142135623731
 10
-1114.311865019763
 20
2155.403327113427
 42
0.4142135623731
  0
LWPOLYLINE
  5
22D
330
1F
100
AcDbEntity
  8
0-B_寸法
  6
Continuous
 62
     7
370
     9
100
AcDbPolyline
 90
        4
 70
     1
 43
3.0
 10
-1112.811865019763
 20
2060.903327113426
 42
0.4142135623731
 10
-1114.311865019763
 20
2062.403327113426
 42
0.4142135623731
 10
-1115.811865019763
 20
2060.903327113426
 42
0.4142135623731
 10
-1114.311865019763
 20
2059.403327113426
 42
0.4142135623731
  0
LINE
  5
22E
330
1F
100
AcDbEntity
  8
0-B_寸法
  6
Continuous
 62
   120
370
     5
100
AcDbLine
 10
-1114.311865019763
 20
2060.903327113426
 30
0.0
 11
-988.0041495897335
 21
2060.903327113426
 31
0.0
  0
LINE
  5
22F
330
1F
100
AcDbEntity
  8
0-B_寸法
  6
Continuous
 62
   120
370
     5
100
AcDbLine
 10
-1114.311865019763
 20
2060.903327113426
 30
0.0
 11
-1114.311865019763
 21
1988.903327113427
 31
0.0
  0
LWPOLYLINE
  5
230
330
1F
100
AcDbEntity
  8
0-B_寸法
  6
Continuous
 62
     7
370
     9
100
AcDbPolyline
 90
        4
 70
     1
 43
3.0
 10
-1112.811865019763
 20
1988.903327113427
 42
0.4142135623731
 10
-1114.311865019763
 20
1990.403327113427
 42
0.4142135623731
 10
-1115.811865019763
 20
1988.903327113427
 42
0.4142135623731
 10
-1114.311865019763
 20
1987.403327113427
 42
0.4142135623731
  0
MTEXT
  5
231
330
1F
100
AcDbEntity
  8
0-B_寸法
  6
Continuous
 62
     7
370
   211
100
AcDbMText
 10
-1129.311865019763
 20
1968.300827113428
 30
0.0
 40
74.295
 41
97.5
 46
0.0
 71
     7
 72
     1
  1
{\fＭＳ ゴシック|b0|i0|c128|p49;12}
 11
6.123031769111886E-17
 21
1.0
 31
0.0
 73
     1
 44
1.0
  0
LINE
  5
232
330
1F
100
AcDbEntity
  8
0-B_寸法
  6
Continuous
 62
   120
370
     5
100
AcDbLine
 10
-1256.131054274536
 20
2156.903327113427
 30
0.0
 11
-1256.131054274536
 21
1988.903327113427
 31
0.0
  0
LWPOLYLINE
  5
233
330
1F
100
AcDbEntity
  8
0-B_寸法
  6
Continuous
 62
     7
370
     9
100
AcDbPolyline
 90
        4
 70
     1
 43
3.0
 10
-1254.631054274536
 20
2156.903327113427
 42
0.4142135623731
 10
-1256.131054274536
 20
2158.403327113427
 42
0.4142135623731
 10
-1257.631054274536
 20
2156.903327113427
 42
0.4142135623731
 10
-1256.131054274536
 20
2155.403327113427
 42
0.4142135623731
  0
LWPOLYLINE
  5
234
330
1F
100
AcDbEntity
  8
0-B_寸法
  6
Continuous
 62
     7
370
     9
100
AcDbPolyline
 90
        4
 70
     1
 43
3.0
 10
-1254.631054274536
 20
1988.903327113427
 42
0.4142135623731
 10
-1256.131054274536
 20
1990.403327113427
 42
0.4142135623731
 10
-1257.631054274536
 20
1988.903327113427
 42
0.4142135623731
 10
-1256.131054274536
 20
1987.403327113427
 42
0.4142135623731
  0
LINE
  5
235
330
1F
100
AcDbEntity
  8
0-B_寸法
  6
Continuous
 62
   120
370
     5
100
AcDbLine
 10
-1256.131054274536
 20
2156.903327113427
 30
0.0
 11
-1114.311865019763
 21
2156.903327113427
 31
0.0
  0
LINE
  5
236
330
1F
100
AcDbEntity
  8
0-B_寸法
  6
Continuous
 62
   120
370
     5
100
AcDbLine
 10
-1256.131054274536
 20
1988.903327113427
 30
0.0
 11
-447.7778002234344
 21
1988.903327113427
 31
0.0
  0
MTEXT
  5
237
330
1F
100
AcDbEntity
  8
0-B_寸法
  6
Continuous
 62
     7
370
   211
100
AcDbMText
 10
-1271.131054274536
 20
2016.300827113429
 30
0.0
 40
74.295
 41
97.5
 46
0.0
 71
     7
 72
     1
  1
{\fＭＳ ゴシック|b0|i0|c128|p49;28}
 11
6.123031769111886E-17
 21
1.0
 31
0.0
 73
     1
 44
1.0
  0
MTEXT
  5
238
330
1F
100
AcDbEntity
  8
0-B_寸法
  6
Continuous
 62
     7
370
   211
100
AcDbMText
 10
-1129.311865019763
 20
2160.745005468254
 30
0.0
 40
74.295
 41
97.5
 46
0.0
 71
     7
 72
     1
  1
{\fＭＳ ゴシック|b0|i0|c128|p49;16}
 11
6.123031769111886E-17
 21
1.0
 31
0.0
 73
     1
 44
1.0
  0
LINE
  5
239
330
1F
100
AcDbEntity
  8
0-B_寸法
  6
Continuous
 62
   120
370
     5
100
AcDbLine
 10
-1114.311865019763
 20
2283.82525043143
 30
0.0
 11
-1114.311865019763
 21
2060.903327113426
 31
0.0
  0
LINE
  5
23A
330
1F
100
AcDbEntity
  8
0-B_寸法
  6
Continuous
 62
   120
370
     5
100
AcDbLine
 10
-1114.311865019763
 20
2156.903327113427
 30
0.0
 11
-447.7778002234344
 21
2156.903327113427
 31
0.0
  0
LINE
  5
23B
330
1F
100
AcDbEntity
  8
0-B_寸法
  6
Continuous
 62
   120
370
     5
100
AcDbLine
 10
-1256.131054274536
 20
1988.903327113427
 30
0.0
 11
-1256.131054274536
 21
1949.903327113424
 31
0.0
  0
LWPOLYLINE
  5
23C
330
1F
100
AcDbEntity
  8
0-B_寸法
  6
Continuous
 62
     7
370
     9
100
AcDbPolyline
 90
        4
 70
     1
 43
3.0
 10
-1254.631054274536
 20
1949.903327113424
 42
0.4142135623731
 10
-1256.131054274536
 20
1951.403327113424
 42
0.4142135623731
 10
-1257.631054274536
 20
1949.903327113424
 42
0.4142135623731
 10
-1256.131054274536
 20
1948.403327113424
 42
0.4142135623731
  0
LINE
  5
23D
330
1F
100
AcDbEntity
  8
0-B_寸法
  6
Continuous
 62
   120
370
     5
100
AcDbLine
 10
-1256.131054274536
 20
1949.903327113424
 30
0.0
 11
-792.9557544303408
 21
1949.903327113424
 31
0.0
  0
MTEXT
  5
23E
330
1F
100
AcDbEntity
  8
0-B_寸法
  6
Continuous
 62
     7
370
   211
100
AcDbMText
 10
-1427.396270898042
 20
2100.924871347202
 30
0.0
 40
76.19999999999999
 41
150.0
 46
0.0
 71
     7
 72
     1
  1
{\fＭＳ ゴシック|b0|i0|c128|p49;6.5}
 11
6.123031769111886E-17
 21
1.0
 31
0.0
 73
     1
 44
1.0
  0
LINE
  5
23F
330
1F
100
AcDbEntity
  8
0-1_通り芯
  6
JWW_CENTER1
 62
   120
370
     5
100
AcDbLine
 10
2353.145785460518
 20
1850.903327113426
 30
0.0
 11
-3144.482053399321
 21
1850.903327113426
 31
0.0
  0
LINE
  5
240
330
1F
100
AcDbEntity
  8
0-6_扉
  6
JWW_DASHED1
 62
   200
370
    20
100
AcDbLine
 10
-211.9761083091542
 20
1940.903327113426
 30
0.0
 11
826.0238916908371
 21
1940.903327113426
 31
0.0
  0
LINE
  5
241
330
1F
100
AcDbEntity
  8
0-6_扉
  6
JWW_DASHED1
 62
   200
370
    20
100
AcDbLine
 10
-211.9761083091542
 20
1760.903327113426
 30
0.0
 11
826.0238916908371
 21
1760.903327113426
 31
0.0
  0
LINE
  5
242
330
1F
100
AcDbEntity
  8
0-6_扉
  6
JWW_DASHED1
 62
   200
370
    20
100
AcDbLine
 10
946.0238916908371
 20
1760.903327113426
 30
0.0
 11
2098.023891690833
 21
1760.903327113426
 31
0.0
  0
LINE
  5
243
330
1F
100
AcDbEntity
  8
0-6_扉
  6
JWW_DASHED1
 62
   200
370
    20
100
AcDbLine
 10
946.0238916908371
 20
1940.903327113426
 30
0.0
 11
2098.023891690833
 21
1940.903327113426
 31
0.0
  0
LINE
  5
244
330
1F
100
AcDbEntity
  8
0-6_扉
  6
JWW_DASHED1
 62
   200
370
    20
100
AcDbLine
 10
2098.023891690833
 20
1940.903327113426
 30
0.0
 11
2098.023891690833
 21
1760.903327113426
 31
0.0
  0
LINE
  5
245
330
1F
100
AcDbEntity
  8
0-6_扉
  6
Continuous
 62
   200
370
    20
100
AcDbLine
 10
-2911.976108309161
 20
1940.903327113426
 30
0.0
 11
-1693.976108309164
 21
1940.903327113426
 31
0.0
  0
LINE
  5
246
330
1F
100
AcDbEntity
  8
0-6_扉
  6
Continuous
 62
   200
370
    20
100
AcDbLine
 10
-2911.976108309161
 20
1760.903327113426
 30
0.0
 11
-1693.976108309164
 21
1760.903327113426
 31
0.0
  0
LINE
  5
247
330
1F
100
AcDbEntity
  8
0-6_扉
  6
Continuous
 62
   200
370
    20
100
AcDbLine
 10
-2911.976108309161
 20
1940.903327113426
 30
0.0
 11
-2911.976108309161
 21
1760.903327113426
 31
0.0
  0
LINE
  5
248
330
1F
100
AcDbEntity
  8
0-6_扉
  6
Continuous
 62
   200
370
    20
100
AcDbLine
 10
-211.9761083091542
 20
1760.903327113426
 30
0.0
 11
-211.9761083091542
 21
1940.903327113426
 31
0.0
  0
LINE
  5
249
330
1F
100
AcDbEntity
  8
0-6_扉
  6
JWW_DASHED1
 62
   200
370
    20
100
AcDbLine
 10
-1123.97610830915
 20
1940.903327113426
 30
0.0
 11
-1123.97610830915
 21
1760.903327113426
 31
0.0
  0
LINE
  5
24A
330
1F
100
AcDbEntity
  8
0-6_扉
  6
Continuous
 62
   200
370
    20
100
AcDbLine
 10
-1573.976108309164
 20
1940.903327113426
 30
0.0
 11
-211.9761083091542
 21
1940.903327113426
 31
0.0
  0
LINE
  5
24B
330
1F
100
AcDbEntity
  8
0-6_扉
  6
Continuous
 62
   200
370
    20
100
AcDbLine
 10
-1573.976108309164
 20
1760.903327113426
 30
0.0
 11
-211.9761083091542
 21
1760.903327113426
 31
0.0
  0
LINE
  5
24C
330
1F
100
AcDbEntity
  8
その他構成部品
  6
JWW_DASHED1
 62
   120
370
     5
100
AcDbLine
 10
-946.9761083091526
 20
1760.903327113419
 30
0.0
 11
-907.976108309153
 21
1640.903327113419
 31
0.0
  0
LINE
  5
24D
330
1F
100
AcDbEntity
  8
その他構成部品
  6
JWW_DASHED1
 62
   120
370
     5
100
AcDbLine
 10
-727.976108309153
 20
1640.903327113419
 30
0.0
 11
-688.9761083091485
 21
1760.903327113419
 31
0.0
  0
LINE
  5
24E
330
1F
100
AcDbEntity
  8
その他構成部品
  6
JWW_DASHED1
 62
   120
370
     5
100
AcDbLine
 10
-907.976108309153
 20
1640.903327113419
 30
0.0
 11
-727.976108309153
 21
1640.903327113419
 31
0.0
  0
LINE
  5
24F
330
1F
100
AcDbEntity
  8
その他構成部品
  6
JWW_DASHED1
 62
   120
370
     5
100
AcDbLine
 10
-988.9761083091553
 20
1949.903327113424
 30
0.0
 11
-646.9761083091526
 21
1949.903327113424
 31
0.0
  0
LINE
  5
250
330
1F
100
AcDbEntity
  8
その他構成部品
  6
JWW_DASHED1
 62
   120
370
     5
100
AcDbLine
 10
-988.9761083091553
 20
1949.903327113424
 30
0.0
 11
-988.9761083091553
 21
1940.903327113426
 31
0.0
  0
LINE
  5
251
330
1F
100
AcDbEntity
  8
その他構成部品
  6
JWW_DASHED1
 62
   120
370
     5
100
AcDbLine
 10
-727.976108309153
 20
1967.903327113429
 30
0.0
 11
-727.976108309153
 21
1949.903327113424
 31
0.0
  0
LINE
  5
252
330
1F
100
AcDbEntity
  8
その他構成部品
  6
JWW_DASHED1
 62
   120
370
     5
100
AcDbLine
 10
-727.976108309153
 20
1967.903327113429
 30
0.0
 11
-529.9761083091515
 21
1967.903327113429
 31
0.0
  0
ARC
  5
253
330
1F
100
AcDbEntity
  8
その他構成部品
  6
JWW_DASHED1
 62
   120
370
     5
100
AcDbCircle
 10
-638.0181978229784
 20
1666.508542696478
 30
0.0
 40
391.394784416947
100
AcDbArc
 50
90.0
 51
133.6089795745495
  0
LINE
  5
254
330
1F
100
AcDbEntity
  8
その他構成部品
  6
JWW_DASHED1
 62
   120
370
     5
100
AcDbLine
 10
-565.9761083091503
 20
2057.903327113429
 30
0.0
 11
-638.0181978229784
 21
2057.903327113429
 31
0.0
  0
LINE
  5
255
330
1F
100
AcDbEntity
  8
その他構成部品
  6
JWW_DASHED1
 62
   120
370
     5
100
AcDbLine
 10
-529.9761083091515
 20
2021.903327113427
 30
0.0
 11
-529.9761083091515
 21
1967.903327113429
 31
0.0
  0
ARC
  5
256
330
1F
100
AcDbEntity
  8
その他構成部品
  6
JWW_DASHED1
 62
   120
370
     5
100
AcDbCircle
 10
-565.9761083091503
 20
2021.903327113427
 30
0.0
 40
36.00000000000001
100
AcDbArc
 50
0.0
 51
90.0
  0
CIRCLE
  5
257
330
1F
100
AcDbEntity
  8
その他構成部品
  6
JWW_DASHED1
 62
   120
370
     5
100
AcDbCircle
 10
-817.9761083091505
 20
2225.903327422727
 30
0.0
 40
75.0
  0
CIRCLE
  5
258
330
1F
100
AcDbEntity
  8
その他構成部品
  6
JWW_DASHED1
 62
   120
370
     5
100
AcDbCircle
 10
-817.9761083091505
 20
1475.903327422727
 30
0.0
 40
75.0
  0
CIRCLE
  5
259
330
1F
100
AcDbEntity
  8
その他構成部品
  6
Continuous
 62
   120
370
     5
100
AcDbCircle
 10
-2606.018049359097
 20
2240.90347557732
 30
0.0
 40
75.0
  0
CIRCLE
  5
25A
330
1F
100
AcDbEntity
  8
その他構成部品
  6
Continuous
 62
   120
370
     5
100
AcDbCircle
 10
-2606.018049359097
 20
1475.90347557732
 30
0.0
 40
75.0
  0
LINE
  5
25B
330
1F
100
AcDbEntity
  8
その他構成部品
  6
Continuous
 62
   120
370
     5
100
AcDbLine
 10
-2734.976108309162
 20
1760.903327113419
 30
0.0
 11
-2695.976108309161
 21
1640.903327113419
 31
0.0
  0
LINE
  5
25C
330
1F
100
AcDbEntity
  8
その他構成部品
  6
Continuous
 62
   120
370
     5
100
AcDbLine
 10
-2515.976108309161
 20
1640.903327113419
 30
0.0
 11
-2476.976108309161
 21
1760.903327113419
 31
0.0
  0
LINE
  5
25D
330
1F
100
AcDbEntity
  8
その他構成部品
  6
Continuous
 62
   120
370
     5
100
AcDbLine
 10
-2695.976108309161
 20
1640.903327113419
 30
0.0
 11
-2515.976108309161
 21
1640.903327113419
 31
0.0
  0
LINE
  5
25E
330
1F
100
AcDbEntity
  8
その他構成部品
  6
Continuous
 62
   120
370
     5
100
AcDbLine
 10
-2776.976108309164
 20
1949.903327113424
 30
0.0
 11
-2434.976108309162
 21
1949.903327113424
 31
0.0
  0
LINE
  5
25F
330
1F
100
AcDbEntity
  8
その他構成部品
  6
Continuous
 62
   120
370
     5
100
AcDbLine
 10
-2776.976108309164
 20
1949.903327113424
 30
0.0
 11
-2776.976108309164
 21
1940.903327113426
 31
0.0
  0
LINE
  5
260
330
1F
100
AcDbEntity
  8
その他構成部品
  6
Continuous
 62
   120
370
     5
100
AcDbLine
 10
-2434.976108309162
 20
1949.903327113424
 30
0.0
 11
-2434.976108309162
 21
1940.903327113426
 31
0.0
  0
LINE
  5
261
330
1F
100
AcDbEntity
  8
その他構成部品
  6
Continuous
 62
   120
370
     5
100
AcDbLine
 10
-2515.976108309161
 20
1967.903327113429
 30
0.0
 11
-2515.976108309161
 21
1949.903327113424
 31
0.0
  0
LINE
  5
262
330
1F
100
AcDbEntity
  8
その他構成部品
  6
Continuous
 62
   120
370
     5
100
AcDbLine
 10
-2515.976108309161
 20
1967.903327113429
 30
0.0
 11
-2317.976108309163
 21
1967.903327113429
 31
0.0
  0
ARC
  5
263
330
1F
100
AcDbEntity
  8
その他構成部品
  6
Continuous
 62
   120
370
     5
100
AcDbCircle
 10
-2426.018197822988
 20
1666.508542696478
 30
0.0
 40
391.394784416947
100
AcDbArc
 50
90.0
 51
133.6089795745495
  0
LINE
  5
264
330
1F
100
AcDbEntity
  8
その他構成部品
  6
Continuous
 62
   120
370
     5
100
AcDbLine
 10
-2353.976108309158
 20
2057.903327113429
 30
0.0
 11
-2426.018197822988
 21
2057.903327113429
 31
0.0
  0
LINE
  5
265
330
1F
100
AcDbEntity
  8
その他構成部品
  6
Continuous
 62
   120
370
     5
100
AcDbLine
 10
-2317.976108309163
 20
2021.903327113427
 30
0.0
 11
-2317.976108309163
 21
1967.903327113429
 31
0.0
  0
ARC
  5
266
330
1F
100
AcDbEntity
  8
その他構成部品
  6
Continuous
 62
   120
370
     5
100
AcDbCircle
 10
-2353.976108309158
 20
2021.903327113427
 30
0.0
 40
36.00000000000001
100
AcDbArc
 50
0.0
 51
90.0
  0
LINE
  5
267
330
1F
100
AcDbEntity
  8
その他構成部品
  6
JWW_CENTER1
 62
   120
370
     5
100
AcDbLine
 10
-2681.018049359097
 20
2240.90347557732
 30
0.0
 11
-2531.018049359097
 21
2240.90347557732
 31
0.0
  0
LINE
  5
268
330
1F
100
AcDbEntity
  8
その他構成部品
  6
JWW_CENTER1
 62
   120
370
     5
100
AcDbLine
 10
-2606.018049359097
 20
2315.90347557732
 30
0.0
 11
-2606.018049359097
 21
1415.903475577321
 31
0.0
  0
LINE
  5
269
330
1F
100
AcDbEntity
  8
その他構成部品
  6
JWW_CENTER1
 62
   120
370
     5
100
AcDbLine
 10
-2681.018049359097
 20
1475.90347557732
 30
0.0
 11
-2531.018049359097
 21
1475.90347557732
 31
0.0
  0
LINE
  5
26A
330
1F
100
AcDbEntity
  8
その他構成部品
  6
JWW_CENTER1
 62
   120
370
     5
100
AcDbLine
 10
-742.9761083091505
 20
1475.903327422727
 30
0.0
 11
-892.9761083091505
 21
1475.903327422727
 31
0.0
  0
LINE
  5
26B
330
1F
100
AcDbEntity
  8
その他構成部品
  6
JWW_CENTER1
 62
   120
370
     5
100
AcDbLine
 10
-817.9761083091505
 20
1400.903327422728
 30
0.0
 11
-817.9761083091505
 21
2300.903327422727
 31
0.0
  0
LINE
  5
26C
330
1F
100
AcDbEntity
  8
その他構成部品
  6
JWW_CENTER1
 62
   120
370
     5
100
AcDbLine
 10
-742.9761083091505
 20
2225.903327422727
 30
0.0
 11
-892.9761083091505
 21
2225.903327422727
 31
0.0
  0
LINE
  5
26D
330
1F
100
AcDbEntity
  8
0-3_仕上げ
  6
Continuous
 62
    40
370
    15
100
AcDbLine
 10
-301.9761083091543
 20
2060.903327113426
 30
0.0
 11
826.0238916908371
 21
2060.903327113426
 31
0.0
  0
LINE
  5
26E
330
1F
100
AcDbEntity
  8
0-3_仕上げ
  6
Continuous
 62
    40
370
    15
100
AcDbLine
 10
946.0238916908371
 20
2060.903327113426
 30
0.0
 11
2353.145785460518
 21
2060.903327113426
 31
0.0
  0
LINE
  5
26F
330
1F
100
AcDbEntity
  8
0-1_通り芯
  6
JWW_CENTER1
 62
   120
370
     5
100
AcDbLine
 10
-2845.976108309146
 20
1794.760526240535
 30
0.0
 11
-2845.976108309146
 21
1893.626328711382
 31
0.0
  0
LINE
  5
270
330
1F
100
AcDbEntity
  8
0-1_通り芯
  6
JWW_CENTER1
 62
   120
370
     5
100
AcDbLine
 10
-2834.245328276963
 20
2291.904113662762
 30
0.0
 11
-3144.482053399321
 21
2291.904113662762
 31
0.0
  0
CIRCLE
  5
271
330
1F
100
AcDbEntity
  8
0-1_通り芯
  6
Continuous
 62
   120
370
     5
100
AcDbCircle
 10
2098.023891690833
 20
1850.903327113426
 30
0.0
 40
12.0
  0
CIRCLE
  5
272
330
1F
100
AcDbEntity
  8
0-1_通り芯
  6
Continuous
 62
   120
370
     5
100
AcDbCircle
 10
-2846.018049359078
 20
1850.903327113423
 30
0.0
 40
12.00000000000001
  0
LINE
  5
273
330
1F
100
AcDbEntity
  8
0-4_枠
  6
Continuous
 62
    92
370
    13
100
AcDbLine
 10
-3073.97595984527
 20
2657.903327113426
 30
0.0
 11
-2910.946671057638
 21
2657.903327113426
 31
0.0
  0
LINE
  5
274
330
1F
100
AcDbEntity
  8
0-4_枠
  6
Continuous
 62
    92
370
    13
100
AcDbLine
 10
-3067.975959845269
 20
1637.903327113427
 30
0.0
 11
-2910.946671057638
 21
1637.903327113427
 31
0.0
  0
LINE
  5
275
330
1F
100
AcDbEntity
  8
0-4_枠
  6
Continuous
 62
    92
370
    13
100
AcDbLine
 10
-2929.976108309162
 20
1727.903455472835
 30
0.0
 11
-2893.976108309164
 21
1727.903455472835
 31
0.0
  0
LINE
  5
276
330
1F
100
AcDbEntity
  8
0-4_枠
  6
Continuous
 62
    92
370
    13
100
AcDbLine
 10
-2929.976108309162
 20
1973.903455472836
 30
0.0
 11
-2929.976108309162
 21
1727.903455472835
 31
0.0
  0
LINE
  5
277
330
1F
100
AcDbEntity
  8
0-4_枠
  6
Continuous
 62
    92
370
    13
100
AcDbLine
 10
-2929.976108309162
 20
1973.903455472836
 30
0.0
 11
-2893.976108309164
 21
1973.903455472836
 31
0.0
  0
LINE
  5
278
330
1F
100
AcDbEntity
  8
0-4_枠
  6
Continuous
 62
    92
370
    13
100
AcDbLine
 10
-2910.946671057638
 20
1637.903327113427
 30
0.0
 11
-2893.976108309164
 21
1654.873889861905
 31
0.0
  0
ARC
  5
279
330
1F
100
AcDbEntity
  8
0-4_枠
  6
Continuous
 62
    92
370
    13
100
AcDbCircle
 10
-3067.975959845269
 20
1643.903327113426
 30
0.0
 40
6.0
100
AcDbArc
 50
180.0
 51
270.0
  0
LINE
  5
27A
330
1F
100
AcDbEntity
  8
0-4_枠
  6
Continuous
 62
    92
370
    13
100
AcDbLine
 10
-2893.976108309164
 20
1727.903455472835
 30
0.0
 11
-2893.976108309164
 21
1654.873889861905
 31
0.0
  0
LINE
  5
27B
330
1F
100
AcDbEntity
  8
0-4_枠
  6
Continuous
 62
    92
370
    13
100
AcDbLine
 10
-2893.976108309164
 20
2640.932764364951
 30
0.0
 11
-2910.946671057638
 21
2657.903327113426
 31
0.0
  0
LINE
  5
27C
330
1F
100
AcDbEntity
  8
0-4_枠
  6
Continuous
 62
    92
370
    13
100
AcDbLine
 10
-2893.976108309164
 20
2640.932764364951
 30
0.0
 11
-2893.976108309164
 21
1973.903455472836
 31
0.0
  0
LINE
  5
27D
330
1F
100
AcDbEntity
  8
0-4_枠
  6
Continuous
 62
    92
370
    13
100
AcDbLine
 10
-3073.97595984527
 20
1643.903327113426
 30
0.0
 11
-3073.97595984527
 21
2657.903327113426
 31
0.0
  0
LINE
  5
27E
330
1F
100
AcDbEntity
  8
0-5_ケーシング
  6
Continuous
 62
    92
370
    13
100
AcDbLine
 10
-349.9761083091608
 20
1988.903327113427
 30
0.0
 11
-373.9761083091638
 21
2012.903327113429
 31
0.0
  0
LINE
  5
27F
330
1F
100
AcDbEntity
  8
0-5_ケーシング
  6
Continuous
 62
    92
370
    13
100
AcDbLine
 10
-373.9761083091638
 20
2012.903327113429
 30
0.0
 11
-373.9761083091638
 21
2156.903327113427
 31
0.0
  0
LINE
  5
280
330
1F
100
AcDbEntity
  8
0-5_ケーシング
  6
Continuous
 62
    92
370
    13
100
AcDbLine
 10
-349.9761083091608
 20
1988.903327113427
 30
0.0
 11
-205.9761083091597
 21
1988.903327113427
 31
0.0
  0
LINE
  5
281
330
1F
100
AcDbEntity
  8
0-5_ケーシング
  6
Continuous
 62
    92
370
    13
100
AcDbLine
 10
-205.9761083091597
 20
1988.903327113427
 30
0.0
 11
-205.9761083091597
 21
2060.903327113426
 31
0.0
  0
LINE
  5
282
330
1F
100
AcDbEntity
  8
0-5_ケーシング
  6
Continuous
 62
    92
370
    13
100
AcDbLine
 10
-301.9761083091543
 20
2060.903327113426
 30
0.0
 11
-301.9761083091543
 21
2156.903327113427
 31
0.0
  0
LINE
  5
283
330
1F
100
AcDbEntity
  8
0-5_ケーシング
  6
Continuous
 62
    92
370
    13
100
AcDbLine
 10
-301.9761083091543
 20
2156.903327113427
 30
0.0
 11
-373.9761083091638
 21
2156.903327113427
 31
0.0
  0
LINE
  5
284
330
1F
100
AcDbEntity
  8
0-5_ケーシング
  6
Continuous
 62
    92
370
    13
100
AcDbLine
 10
-205.9761083091597
 20
2060.903327113426
 30
0.0
 11
-301.9761083091543
 21
2060.903327113426
 31
0.0
  0
LINE
  5
285
330
1F
100
AcDbEntity
  8
0-C_ハッチ
  6
Continuous
 62
   120
370
     5
100
AcDbLine
 10
-3073.97595984527
 20
2260.200490483919
 30
0.0
 11
-2893.976108309164
 21
2080.200638947812
 31
0.0
  0
LINE
  5
286
330
1F
100
AcDbEntity
  8
0-C_ハッチ
  6
Continuous
 62
   120
370
     5
100
AcDbLine
 10
-3073.97595984527
 20
2217.773963615256
 30
0.0
 11
-2893.976108309164
 21
2037.77411207915
 31
0.0
  0
LINE
  5
287
330
1F
100
AcDbEntity
  8
0-C_ハッチ
  6
Continuous
 62
   120
370
     5
100
AcDbLine
 10
-3073.97595984527
 20
1835.937448755669
 30
0.0
 11
-2893.976108309164
 21
1655.937597219563
 31
0.0
  0
LINE
  5
288
330
1F
100
AcDbEntity
  8
0-C_ハッチ
  6
Continuous
 62
   120
370
     5
100
AcDbLine
 10
-3073.97595984527
 20
2302.626275033119
 30
0.0
 11
-2893.976108309164
 21
2122.626423497013
 31
0.0
  0
LINE
  5
289
330
1F
100
AcDbEntity
  8
0-C_ハッチ
  6
Continuous
 62
   120
370
     5
100
AcDbLine
 10
-3073.97595984527
 20
2345.052801901781
 30
0.0
 11
-2893.976108309164
 21
2165.052950365675
 31
0.0
  0
LINE
  5
28A
330
1F
100
AcDbEntity
  8
0-C_ハッチ
  6
Continuous
 62
   120
370
     5
100
AcDbLine
 10
-3073.97595984527
 20
2387.479328770447
 30
0.0
 11
-2893.976108309164
 21
2207.479477234344
 31
0.0
  0
LINE
  5
28B
330
1F
100
AcDbEntity
  8
0-C_ハッチ
  6
Continuous
 62
   120
370
     5
100
AcDbLine
 10
-3073.97595984527
 20
2175.347436746587
 30
0.0
 11
-2893.976108309164
 21
1995.347585210481
 31
0.0
  0
LINE
  5
28C
330
1F
100
AcDbEntity
  8
0-C_ハッチ
  6
Continuous
 62
   120
370
     5
100
AcDbLine
 10
-3073.97595984527
 20
2429.905113319644
 30
0.0
 11
-2893.976108309164
 21
2249.905261783541
 31
0.0
  0
LINE
  5
28D
330
1F
100
AcDbEntity
  8
0-C_ハッチ
  6
Continuous
 62
   120
370
     5
100
AcDbLine
 10
-3073.97595984527
 20
2472.330897868841
 30
0.0
 11
-2893.976108309164
 21
2292.331046332738
 31
0.0
  0
LINE
  5
28E
330
1F
100
AcDbEntity
  8
0-C_ハッチ
  6
Continuous
 62
   120
370
     5
100
AcDbLine
 10
-3073.97595984527
 20
2514.756682418037
 30
0.0
 11
-2893.976108309164
 21
2334.756830881938
 31
0.0
  0
LINE
  5
28F
330
1F
100
AcDbEntity
  8
0-C_ハッチ
  6
Continuous
 62
   120
370
     5
100
AcDbLine
 10
-3073.97595984527
 20
1920.789760173531
 30
0.0
 11
-2929.976108309162
 21
1776.789908637424
 31
0.0
  0
LINE
  5
290
330
1F
100
AcDbEntity
  8
0-C_ハッチ
  6
Continuous
 62
   120
370
     5
100
AcDbLine
 10
-3073.97595984527
 20
1963.216287042198
 30
0.0
 11
-2929.976108309162
 21
1819.216435506089
 31
0.0
  0
LINE
  5
291
330
1F
100
AcDbEntity
  8
0-C_ハッチ
  6
Continuous
 62
   120
370
     5
100
AcDbLine
 10
-3073.97595984527
 20
2005.642813910863
 30
0.0
 11
-2929.976108309162
 21
1861.642962374755
 31
0.0
  0
LINE
  5
292
330
1F
100
AcDbEntity
  8
0-C_ハッチ
  6
Continuous
 62
   120
370
     5
100
AcDbLine
 10
-3073.97595984527
 20
2048.068598460063
 30
0.0
 11
-2929.976108309162
 21
1904.068746923951
 31
0.0
  0
LINE
  5
293
330
1F
100
AcDbEntity
  8
0-C_ハッチ
  6
Continuous
 62
   120
370
     5
100
AcDbLine
 10
-3073.97595984527
 20
2090.495125328725
 30
0.0
 11
-2929.976108309162
 21
1946.495273792617
 31
0.0
  0
LINE
  5
294
330
1F
100
AcDbEntity
  8
0-C_ハッチ
  6
Continuous
 62
   120
370
     5
100
AcDbLine
 10
-3073.97595984527
 20
2132.921652197394
 30
0.0
 11
-2914.957763120713
 21
1973.903455472836
 31
0.0
  0
LINE
  5
295
330
1F
100
AcDbEntity
  8
0-C_ハッチ
  6
Continuous
 62
   120
370
     5
100
AcDbLine
 10
-3073.97595984527
 20
1878.363975624335
 30
0.0
 11
-2929.976108309162
 21
1734.364124088226
 31
0.0
  0
LINE
  5
296
330
1F
100
AcDbEntity
  8
0-C_ハッチ
  6
Continuous
 62
   120
370
     5
100
AcDbLine
 10
-2923.515439693771
 20
1727.903455472835
 30
0.0
 11
-2893.976108309164
 21
1698.364124088229
 31
0.0
  0
LINE
  5
297
330
1F
100
AcDbEntity
  8
0-C_ハッチ
  6
Continuous
 62
   120
370
     5
100
AcDbLine
 10
-301.9761083091636
 20
2130.62257456403
 30
0.0
 11
-328.2568608585551
 21
2156.903327113424
 31
0.0
  0
LINE
  5
298
330
1F
100
AcDbEntity
  8
0-C_ハッチ
  6
Continuous
 62
   120
370
     5
100
AcDbLine
 10
-205.9761083091597
 20
2034.622574564029
 30
0.0
 11
-232.2568608585563
 21
2060.903327113423
 31
0.0
  0
LINE
  5
299
330
1F
100
AcDbEntity
  8
0-C_ハッチ
  6
Continuous
 62
   120
370
     5
100
AcDbLine
 10
-301.9761083091543
 20
2088.196167692819
 30
0.0
 11
-370.6832677297551
 21
2156.90332711342
 31
0.0
  0
LINE
  5
29A
330
1F
100
AcDbEntity
  8
0-C_ハッチ
  6
Continuous
 62
   120
370
     5
100
AcDbLine
 10
-205.9761083091639
 20
1992.196167692832
 30
0.0
 11
-274.6832677297699
 21
2060.903327113437
 31
0.0
  0
LINE
  5
29B
330
1F
100
AcDbEntity
  8
0-C_ハッチ
  6
Continuous
 62
   120
370
     5
100
AcDbLine
 10
-245.1096746008896
 20
1988.903327113416
 30
0.0
 11
-373.9761083091502
 21
2117.769760821663
 31
0.0
  0
LINE
  5
29C
330
1F
100
AcDbEntity
  8
0-C_ハッチ
  6
Continuous
 62
   120
370
     5
100
AcDbLine
 10
-287.5360814720897
 20
1988.903327113414
 30
0.0
 11
-373.9761083091502
 21
2075.34335395047
 31
0.0
  0
LINE
  5
29D
330
1F
100
AcDbEntity
  8
0-C_ハッチ
  6
Continuous
 62
   120
370
     5
100
AcDbLine
 10
-329.9624883432897
 20
1988.903327113414
 30
0.0
 11
-373.976108309157
 21
2032.916947079277
 31
0.0
  0
LINE
  5
29E
330
1F
100
AcDbEntity
  8
0-C_ハッチ
  6
Continuous
 62
   120
370
     5
100
AcDbLine
 10
-3073.97595984527
 20
1666.231341281006
 30
0.0
 11
-3045.647945677691
 21
1637.903327113427
 31
0.0
  0
LINE
  5
29F
330
1F
100
AcDbEntity
  8
0-C_ハッチ
  6
Continuous
 62
   120
370
     5
100
AcDbLine
 10
-3073.97595984527
 20
1708.657868149673
 30
0.0
 11
-3003.221418809027
 21
1637.903327113427
 31
0.0
  0
LINE
  5
2A0
330
1F
100
AcDbEntity
  8
0-C_ハッチ
  6
Continuous
 62
   120
370
     5
100
AcDbLine
 10
-3073.97595984527
 20
1751.084395018338
 30
0.0
 11
-2960.794891940359
 21
1637.903327113427
 31
0.0
  0
LINE
  5
2A1
330
1F
100
AcDbEntity
  8
0-C_ハッチ
  6
Continuous
 62
   120
370
     5
100
AcDbLine
 10
-3073.97595984527
 20
1793.510921887004
 30
0.0
 11
-2918.368365071692
 21
1637.903327113427
 31
0.0
  0
LINE
  5
2A2
330
1F
100
AcDbEntity
  8
0-C_ハッチ
  6
Continuous
 62
   120
370
     5
100
AcDbLine
 10
-2893.976108309164
 20
2377.182615431131
 30
0.0
 11
-3073.97595984527
 21
2557.182466967237
 31
0.0
  0
LINE
  5
2A3
330
1F
100
AcDbEntity
  8
0-C_ハッチ
  6
Continuous
 62
   120
370
     5
100
AcDbLine
 10
-3073.97595984527
 20
2599.608251516438
 30
0.0
 11
-2893.976108309164
 21
2419.608399980331
 31
0.0
  0
LINE
  5
2A4
330
1F
100
AcDbEntity
  8
0-C_ハッチ
  6
Continuous
 62
   120
370
     5
100
AcDbLine
 10
-3073.97595984527
 20
2642.034036065635
 30
0.0
 11
-2893.976108309164
 21
2462.034184529529
 31
0.0
  0
LINE
  5
2A5
330
1F
100
AcDbEntity
  8
0-C_ハッチ
  6
Continuous
 62
   120
370
     5
100
AcDbLine
 10
-3047.419466343864
 20
2657.903327113426
 30
0.0
 11
-2893.976108309164
 21
2504.459969078732
 31
0.0
  0
LINE
  5
2A6
330
1F
100
AcDbEntity
  8
0-C_ハッチ
  6
Continuous
 62
   120
370
     5
100
AcDbLine
 10
-2893.976108309164
 20
2546.885753627925
 30
0.0
 11
-3004.993681794665
 21
2657.903327113426
 31
0.0
  0
LINE
  5
2A7
330
1F
100
AcDbEntity
  8
0-C_ハッチ
  6
Continuous
 62
   120
370
     5
100
AcDbLine
 10
-2920.142112696267
 20
2657.903327113426
 30
0.0
 11
-2893.976108309164
 21
2631.737322726323
 31
0.0
  0
LINE
  5
2A8
330
1F
100
AcDbEntity
  8
0-C_ハッチ
  6
Continuous
 62
   120
370
     5
100
AcDbLine
 10
-2962.567897245465
 20
2657.903327113426
 30
0.0
 11
-2893.976108309164
 21
2589.311538177125
 31
0.0
  0
LINE
  5
2A9
330
1F
100
AcDbEntity
  8
0-7_金物
  6
Continuous
 62
     7
370
     9
100
AcDbLine
 10
-709.9761083091396
 20
1859.903327113424
 30
0.0
 11
-709.9761083091396
 21
1841.903327113427
 31
0.0
  0
LINE
  5
2AA
330
1F
100
AcDbEntity
  8
0-7_金物
  6
Continuous
 62
     7
370
     9
100
AcDbLine
 10
-763.9761083091416
 20
1949.903327113424
 30
0.0
 11
-763.9761083091416
 21
1859.903327113424
 31
0.0
  0
LINE
  5
2AB
330
1F
100
AcDbEntity
  8
0-7_金物
  6
Continuous
 62
     7
370
     9
100
AcDbLine
 10
-637.9761083091488
 20
1841.903327113427
 30
0.0
 11
-709.9761083091396
 21
1841.903327113427
 31
0.0
  0
LINE
  5
2AC
330
1F
100
AcDbEntity
  8
0-7_金物
  6
Continuous
 62
     7
370
     9
100
AcDbLine
 10
-637.9761083091488
 20
1859.903327113424
 30
0.0
 11
-637.9761083091488
 21
1841.903327113427
 31
0.0
  0
LINE
  5
2AD
330
1F
100
AcDbEntity
  8
0-7_金物
  6
Continuous
 62
     7
370
     9
100
AcDbLine
 10
-583.9761083091485
 20
1859.903327113424
 30
0.0
 11
-763.9761083091416
 21
1859.903327113424
 31
0.0
  0
LINE
  5
2AE
330
1F
100
AcDbEntity
  8
0-7_金物
  6
Continuous
 62
     7
370
     9
100
AcDbLine
 10
-583.9761083091485
 20
1949.903327113424
 30
0.0
 11
-583.9761083091485
 21
1859.903327113424
 31
0.0
  0
LINE
  5
2AF
330
1F
100
AcDbEntity
  8
0-7_金物
  6
Continuous
 62
     7
370
     9
100
AcDbLine
 10
-583.9761083091485
 20
1949.903327113424
 30
0.0
 11
-763.9761083091416
 21
1949.903327113424
 31
0.0
  0
LINE
  5
2B0
330
1F
100
AcDbEntity
  8
その他構成部品
  6
JWW_DASHED1
 62
   120
370
     5
100
AcDbLine
 10
-646.9761083091526
 20
1949.903327113424
 30
0.0
 11
-646.9761083091526
 21
1940.903327113426
 31
0.0
  0
LINE
  5
2B1
330
1F
100
AcDbEntity
  8
0-A_文字
  6
Continuous
 62
     7
370
     9
100
AcDbLine
 10
-1474.505187733605
 20
1459.367425845769
 30
0.0
 11
-1144.610921928534
 21
1459.367425845769
 31
0.0
  0
MTEXT
  5
2B2
330
1F
100
AcDbEntity
  8
0-A_文字
  6
Continuous
 62
     7
370
     9
100
AcDbMText
 10
-1454.275355167618
 20
1464.365111812552
 30
0.0
 40
57.15
 41
300.0
 46
0.0
 71
     7
 72
     1
  1
{\fＭＳ ゴシック|b0|i0|c128|p49;振止金具}
 73
     1
 44
1.0
  0
LINE
  5
2B3
330
1F
100
AcDbEntity
  8
0-A_文字
  6
Continuous
 62
     7
370
     9
100
AcDbLine
 10
-1144.610921928534
 20
1459.367425845769
 30
0.0
 11
-709.2700533978951
 21
1907.146604905854
 31
0.0
  0
LINE
  5
2B4
330
1F
100
AcDbEntity
  8
0-7_金物
  6
Continuous
 62
     7
370
     9
100
AcDbLine
 10
-2911.841665979752
 20
1895.849242180947
 30
0.0
 11
-2929.84158552466
 21
1895.903052300568
 31
0.0
  0
LINE
  5
2B5
330
1F
100
AcDbEntity
  8
0-7_金物
  6
Continuous
 62
     7
370
     9
100
AcDbLine
 10
-2929.84158552466
 20
1895.903052300568
 30
0.0
 11
-2930.110631093663
 21
1805.903452843781
 31
0.0
  0
LINE
  5
2B6
330
1F
100
AcDbEntity
  8
0-7_金物
  6
Continuous
 62
     7
370
     9
100
AcDbLine
 10
-2929.931267381923
 20
1865.903185338138
 30
0.0
 11
-2959.9311330284
 21
1865.992866963501
 31
0.0
  0
LINE
  5
2B7
330
1F
100
AcDbEntity
  8
0-7_金物
  6
Continuous
 62
     7
370
     9
100
AcDbLine
 10
-2959.9311330284
 20
1865.992866963501
 30
0.0
 11
-2960.020814653767
 21
1835.993001431588
 31
0.0
  0
LINE
  5
2B8
330
1F
100
AcDbEntity
  8
0-7_金物
  6
Continuous
 62
     7
370
     9
100
AcDbLine
 10
-2930.020949236396
 20
1835.903319806218
 30
0.0
 11
-2960.020814653767
 21
1835.993001431588
 31
0.0
  0
ARC
  5
2B9
330
1F
100
AcDbEntity
  8
0-7_金物
  6
Continuous
 62
     7
370
     9
100
AcDbCircle
 10
-3094.682716127765
 20
1851.395627916213
 30
0.0
 40
188.1674079895021
100
AcDbArc
 50
345.9924011230469
 51
13.66500854492187
  0
LINE
  5
2BA
330
1F
100
AcDbEntity
  8
0-7_金物
  6
Continuous
 62
     7
370
     9
100
AcDbLine
 10
-2912.110710855854
 20
1805.84964558518
 30
0.0
 11
-2930.110631093663
 21
1805.903452843781
 31
0.0
  0
ARC
  5
2BB
330
1F
100
AcDbEntity
  8
0-7_金物
  6
Continuous
 62
     7
370
     9
100
AcDbCircle
 10
-3076.682716127766
 20
2292.396414465553
 30
0.0
 40
188.1674079895021
100
AcDbArc
 50
345.9924011230469
 51
13.66500854492187
  0
LINE
  5
2BC
330
1F
100
AcDbEntity
  8
0-0_補助線
  6
JWW_HOJO
 62
     7
370
     9
100
AcDbLine
 10
-1573.976108309164
 20
2060.903327113426
 30
0.0
 11
-1573.976108309164
 21
1724.903327113424
 31
0.0
  0
LINE
  5
2BD
330
1F
100
AcDbEntity
  8
0-0_補助線
  6
JWW_HOJO
 62
     7
370
     9
100
AcDbLine
 10
-1693.976108309164
 20
2060.903327113426
 30
0.0
 11
-1693.976108309164
 21
1724.903327113424
 31
0.0
  0
LINE
  5
2BE
330
1F
100
AcDbEntity
  8
0-4_枠
  6
Continuous
 62
    92
370
    13
100
AcDbLine
 10
2146.023891690837
 20
2060.903327113426
 30
0.0
 11
2146.023891690837
 21
1724.903327113424
 31
0.0
  0
LINE
  5
2BF
330
1F
100
AcDbEntity
  8
0-4_枠
  6
Continuous
 62
    92
370
    13
100
AcDbLine
 10
2164.023891690839
 20
2060.903327113426
 30
0.0
 11
2164.023891690839
 21
1724.903327113424
 31
0.0
  0
LINE
  5
2C0
330
1F
100
AcDbEntity
  8
0-4_枠
  6
Continuous
 62
    92
370
    13
100
AcDbLine
 10
-2893.976108309164
 20
2060.903327113426
 30
0.0
 11
-1693.976108309164
 21
2060.903327113426
 31
0.0
  0
LINE
  5
2C1
330
1F
100
AcDbEntity
  8
0-4_枠
  6
Continuous
 62
    92
370
    13
100
AcDbLine
 10
-1693.976108309164
 20
1724.903327113424
 30
0.0
 11
-2893.976108309164
 21
1724.903327113424
 31
0.0
  0
LINE
  5
2C2
330
1F
100
AcDbEntity
  8
0-4_枠
  6
Continuous
 62
    92
370
    13
100
AcDbLine
 10
-1573.976108309164
 20
2060.903327113426
 30
0.0
 11
-373.9761083091638
 21
2060.903327113426
 31
0.0
  0
LINE
  5
2C3
330
1F
100
AcDbEntity
  8
0-4_枠
  6
Continuous
 62
    92
370
    13
100
AcDbLine
 10
2164.023891690839
 20
1724.903327113424
 30
0.0
 11
946.0238916908371
 21
1724.903327113424
 31
0.0
  0
LINE
  5
2C4
330
1F
100
AcDbEntity
  8
0-4_枠
  6
Continuous
 62
    92
370
    13
100
AcDbLine
 10
826.0238916908371
 20
1724.903327113424
 30
0.0
 11
-1573.976108309164
 21
1724.903327113424
 31
0.0
  0
LWPOLYLINE
  5
2C5
330
1F
100
AcDbEntity
  8
0-B_寸法
  6
Continuous
 62
     7
370
     9
100
AcDbPolyline
 90
        4
 70
     1
 43
3.0
 10
-372.4761083091637
 20
1597.541696881156
 42
0.4142135623731
 10
-373.9761083091638
 20
1599.041696881156
 42
0.4142135623731
 10
-375.4761083091638
 20
1597.541696881156
 42
0.4142135623731
 10
-373.9761083091638
 20
1596.041696881156
 42
0.4142135623731
  0
LWPOLYLINE
  5
2C6
330
1F
100
AcDbEntity
  8
0-B_寸法
  6
Continuous
 62
     7
370
     9
100
AcDbPolyline
 90
        4
 70
     1
 43
3.0
 10
-300.4761083091542
 20
1597.541696881156
 42
0.4142135623731
 10
-301.9761083091543
 20
1599.041696881156
 42
0.4142135623731
 10
-303.4761083091543
 20
1597.541696881156
 42
0.4142135623731
 10
-301.9761083091543
 20
1596.041696881156
 42
0.4142135623731
  0
LINE
  5
2C7
330
1F
100
AcDbEntity
  8
0-B_寸法
  6
Continuous
 62
   120
370
     5
100
AcDbLine
 10
-301.9761083091543
 20
1597.541696881156
 30
0.0
 11
-205.9761083091597
 21
1597.541696881156
 31
0.0
  0
LWPOLYLINE
  5
2C8
330
1F
100
AcDbEntity
  8
0-B_寸法
  6
Continuous
 62
     7
370
     9
100
AcDbPolyline
 90
        4
 70
     1
 43
3.0
 10
-204.4761083091597
 20
1597.541696881156
 42
0.4142135623731
 10
-205.9761083091597
 20
1599.041696881156
 42
0.4142135623731
 10
-207.4761083091597
 20
1597.541696881156
 42
0.4142135623731
 10
-205.9761083091597
 20
1596.041696881156
 42
0.4142135623731
  0
LINE
  5
2C9
330
1F
100
AcDbEntity
  8
0-B_寸法
  6
Continuous
 62
   120
370
     5
100
AcDbLine
 10
-373.9761083091638
 20
1436.446609207612
 30
0.0
 11
-205.9761083091597
 21
1436.446609207612
 31
0.0
  0
LWPOLYLINE
  5
2CA
330
1F
100
AcDbEntity
  8
0-B_寸法
  6
Continuous
 62
     7
370
     9
100
AcDbPolyline
 90
        4
 70
     1
 43
3.0
 10
-372.4761083091637
 20
1436.446609207612
 42
0.4142135623731
 10
-373.9761083091638
 20
1437.946609207612
 42
0.4142135623731
 10
-375.4761083091638
 20
1436.446609207612
 42
0.4142135623731
 10
-373.9761083091638
 20
1434.946609207612
 42
0.4142135623731
  0
LWPOLYLINE
  5
2CB
330
1F
100
AcDbEntity
  8
0-B_寸法
  6
Continuous
 62
     7
370
     9
100
AcDbPolyline
 90
        4
 70
     1
 43
3.0
 10
-204.4761083091597
 20
1436.446609207612
 42
0.4142135623731
 10
-205.9761083091597
 20
1437.946609207612
 42
0.4142135623731
 10
-207.4761083091597
 20
1436.446609207612
 42
0.4142135623731
 10
-205.9761083091597
 20
1434.946609207612
 42
0.4142135623731
  0
LINE
  5
2CC
330
1F
100
AcDbEntity
  8
0-B_寸法
  6
Continuous
 62
   120
370
     5
100
AcDbLine
 10
-373.9761083091638
 20
1436.446609207612
 30
0.0
 11
-373.9761083091638
 21
1597.541696881156
 31
0.0
  0
LINE
  5
2CD
330
1F
100
AcDbEntity
  8
0-B_寸法
  6
Continuous
 62
   120
370
     5
100
AcDbLine
 10
-205.9761083091597
 20
1436.446609207612
 30
0.0
 11
-205.9761083091597
 21
1597.541696881156
 31
0.0
  0
LINE
  5
2CE
330
1F
100
AcDbEntity
  8
0-B_寸法
  6
Continuous
 62
   120
370
     5
100
AcDbLine
 10
-462.383654879457
 20
1597.541696881156
 30
0.0
 11
-301.9761083091543
 21
1597.541696881156
 31
0.0
  0
LINE
  5
2CF
330
1F
100
AcDbEntity
  8
0-B_寸法
  6
Continuous
 62
   120
370
     5
100
AcDbLine
 10
-373.9761083091638
 20
1597.541696881156
 30
0.0
 11
-373.9761083091638
 21
1877.759191905845
 31
0.0
  0
LINE
  5
2D0
330
1F
100
AcDbEntity
  8
0-B_寸法
  6
Continuous
 62
   120
370
     5
100
AcDbLine
 10
-205.9761083091597
 20
1597.541696881156
 30
0.0
 11
-205.9761083091597
 21
1877.759191905845
 31
0.0
  0
LINE
  5
2D1
330
1F
100
AcDbEntity
  8
0-B_寸法
  6
Continuous
 62
   120
370
     5
100
AcDbLine
 10
-301.9761083091543
 20
1597.541696881156
 30
0.0
 11
-301.9761083091543
 21
1877.759191905845
 31
0.0
  0
MTEXT
  5
2D2
330
1F
100
AcDbEntity
  8
0-B_寸法
  6
Continuous
 62
     7
370
   211
100
AcDbMText
 10
-338.7261083091618
 20
1448.835567553953
 30
0.0
 40
74.295
 41
97.5
 46
0.0
 71
     7
 72
     1
  1
{\fＭＳ ゴシック|b0|i0|c128|p49;28}
 73
     1
 44
1.0
  0
MTEXT
  5
2D3
330
1F
100
AcDbEntity
  8
0-B_寸法
  6
Continuous
 62
     7
370
   211
100
AcDbMText
 10
-481.1624757774017
 20
1609.930655227496
 30
0.0
 40
74.295
 41
97.5
 46
0.0
 71
     7
 72
     1
  1
{\fＭＳ ゴシック|b0|i0|c128|p49;12}
 73
     1
 44
1.0
  0
MTEXT
  5
2D4
330
1F
100
AcDbEntity
  8
0-B_寸法
  6
Continuous
 62
     7
370
   211
100
AcDbMText
 10
-302.726108309157
 20
1609.930655227496
 30
0.0
 40
74.295
 41
97.5
 46
0.0
 71
     7
 72
     1
  1
{\fＭＳ ゴシック|b0|i0|c128|p49;16}
 73
     1
 44
1.0
  0
LWPOLYLINE
  5
2D5
330
1F
100
AcDbEntity
  8
0-B_寸法
  6
Continuous
 62
     7
370
     9
100
AcDbPolyline
 90
        4
 70
     1
 43
3.0
 10
-2892.476108309164
 20
1234.708349661202
 42
0.4142135623731
 10
-2893.976108309164
 20
1236.208349661202
 42
0.4142135623731
 10
-2895.476108309163
 20
1234.708349661202
 42
0.4142135623731
 10
-2893.976108309164
 20
1233.208349661202
 42
0.4142135623731
  0
LINE
  5
2D6
330
1F
100
AcDbEntity
  8
0-B_寸法
  6
Continuous
 62
   120
370
     5
100
AcDbLine
 10
-2893.976108309164
 20
1234.708349661202
 30
0.0
 11
-3073.97595984527
 21
1234.708349661202
 31
0.0
  0
LWPOLYLINE
  5
2D7
330
1F
100
AcDbEntity
  8
0-B_寸法
  6
Continuous
 62
     7
370
     9
100
AcDbPolyline
 90
        4
 70
     1
 43
3.0
 10
-3072.47595984527
 20
1234.708349661202
 42
0.4142135623731
 10
-3073.97595984527
 20
1236.208349661202
 42
0.4142135623731
 10
-3075.47595984527
 20
1234.708349661202
 42
0.4142135623731
 10
-3073.97595984527
 20
1233.208349661202
 42
0.4142135623731
  0
LWPOLYLINE
  5
2D8
330
1F
100
AcDbEntity
  8
0-B_寸法
  6
Continuous
 62
     7
370
     9
100
AcDbPolyline
 90
        4
 70
     1
 43
3.0
 10
2147.523891690837
 20
1234.708349661202
 42
0.4142135623731
 10
2146.023891690837
 20
1236.208349661202
 42
0.4142135623731
 10
2144.523891690837
 20
1234.708349661202
 42
0.4142135623731
 10
2146.023891690837
 20
1233.208349661202
 42
0.4142135623731
  0
LINE
  5
2D9
330
1F
100
AcDbEntity
  8
0-B_寸法
  6
Continuous
 62
   120
370
     5
100
AcDbLine
 10
2146.023891690837
 20
1234.708349661202
 30
0.0
 11
2164.023891690839
 21
1234.708349661202
 31
0.0
  0
LWPOLYLINE
  5
2DA
330
1F
100
AcDbEntity
  8
0-B_寸法
  6
Continuous
 62
     7
370
     9
100
AcDbPolyline
 90
        4
 70
     1
 43
3.0
 10
2165.523891690838
 20
1234.708349661202
 42
0.4142135623731
 10
2164.023891690839
 20
1236.208349661202
 42
0.4142135623731
 10
2162.523891690839
 20
1234.708349661202
 42
0.4142135623731
 10
2164.023891690839
 20
1233.208349661202
 42
0.4142135623731
  0
MTEXT
  5
2DB
330
1F
100
AcDbEntity
  8
0-B_寸法
  6
Continuous
 62
     7
370
   211
100
AcDbMText
 10
2086.614621775145
 20
1227.873726477597
 30
0.0
 40
68.58
 41
45.0
 46
0.0
 71
     7
 72
     1
  1
{\fＭＳ ゴシック|b0|i0|c128|p49;3}
 73
     1
 44
1.0
  0
LINE
  5
2DC
330
1F
100
AcDbEntity
  8
0-B_寸法
  6
Continuous
 62
   120
370
     5
100
AcDbLine
 10
-2893.976108309164
 20
1234.708349661202
 30
0.0
 11
2146.023891690837
 21
1234.708349661202
 31
0.0
  0
LINE
  5
2DD
330
1F
100
AcDbEntity
  8
0-B_寸法
  6
Continuous
 62
   120
370
     5
100
AcDbLine
 10
-2893.976108309164
 20
1234.708349661202
 30
0.0
 11
-2893.976108309164
 21
1550.366262791388
 31
0.0
  0
LINE
  5
2DE
330
1F
100
AcDbEntity
  8
0-B_寸法
  6
Continuous
 62
   120
370
     5
100
AcDbLine
 10
2146.023891690837
 20
1234.708349661202
 30
0.0
 11
2146.023891690837
 21
1550.366262791388
 31
0.0
  0
LINE
  5
2DF
330
1F
100
AcDbEntity
  8
0-B_寸法
  6
Continuous
 62
   120
370
     5
100
AcDbLine
 10
2164.023891690839
 20
1234.708349661202
 30
0.0
 11
2164.023891690839
 21
1550.366262791388
 31
0.0
  0
LINE
  5
2E0
330
1F
100
AcDbEntity
  8
0-B_寸法
  6
Continuous
 62
   120
370
     5
100
AcDbLine
 10
-3073.97595984527
 20
1234.708349661202
 30
0.0
 11
-3073.97595984527
 21
1550.366262791388
 31
0.0
  0
MTEXT
  5
2E1
330
1F
100
AcDbEntity
  8
0-B_寸法
  6
Continuous
 62
     7
370
   211
100
AcDbMText
 10
-3032.726034077215
 20
1235.920383403461
 30
0.0
 40
74.295
 41
97.5
 46
0.0
 71
     7
 72
     1
  1
{\fＭＳ ゴシック|b0|i0|c128|p49;30}
 73
     1
 44
1.0
  0
LWPOLYLINE
  5
2E2
330
1F
100
AcDbEntity
  8
0-B_寸法
  6
Continuous
 62
     7
370
     9
100
AcDbPolyline
 90
        4
 70
     1
 43
3.0
 10
-2892.476108309164
 20
3265.884973367353
 42
0.4142135623731
 10
-2893.976108309164
 20
3267.384973367353
 42
0.4142135623731
 10
-2895.476108309163
 20
3265.884973367353
 42
0.4142135623731
 10
-2893.976108309164
 20
3264.384973367354
 42
0.4142135623731
  0
LWPOLYLINE
  5
2E3
330
1F
100
AcDbEntity
  8
0-B_寸法
  6
Continuous
 62
     7
370
     9
100
AcDbPolyline
 90
        4
 70
     1
 43
3.0
 10
-2892.476108309164
 20
3418.695514028084
 42
0.4142135623731
 10
-2893.976108309164
 20
3420.195514028084
 42
0.4142135623731
 10
-2895.476108309163
 20
3418.695514028084
 42
0.4142135623731
 10
-2893.976108309164
 20
3417.195514028084
 42
0.4142135623731
  0
LINE
  5
2E4
330
1F
100
AcDbEntity
  8
0-B_寸法
  6
Continuous
 62
   120
370
     5
100
AcDbLine
 10
-2893.976108309164
 20
3418.695514028084
 30
0.0
 11
-2893.976108309164
 21
3265.884973367353
 31
0.0
  0
LWPOLYLINE
  5
2E5
330
1F
100
AcDbEntity
  8
0-B_寸法
  6
Continuous
 62
     7
370
     9
100
AcDbPolyline
 90
        4
 70
     1
 43
3.0
 10
-372.476108309162
 20
3265.884973367353
 42
0.4142135623731
 10
-373.9761083091621
 20
3267.384973367353
 42
0.4142135623731
 10
-375.4761083091621
 20
3265.884973367353
 42
0.4142135623731
 10
-373.9761083091621
 20
3264.384973367354
 42
0.4142135623731
  0
LINE
  5
2E6
330
1F
100
AcDbEntity
  8
0-B_寸法
  6
Continuous
 62
   120
370
     5
100
AcDbLine
 10
-373.9761083091621
 20
3265.884973367353
 30
0.0
 11
-373.9761083091502
 21
2521.789840891637
 31
0.0
  0
LWPOLYLINE
  5
2E7
330
1F
100
AcDbEntity
  8
0-B_寸法
  6
Continuous
 62
     7
370
     9
100
AcDbPolyline
 90
        4
 70
     1
 43
3.0
 10
-372.476108309162
 20
3418.695514028084
 42
0.4142135623731
 10
-373.9761083091621
 20
3420.195514028084
 42
0.4142135623731
 10
-375.4761083091621
 20
3418.695514028084
 42
0.4142135623731
 10
-373.9761083091621
 20
3417.195514028084
 42
0.4142135623731
  0
LINE
  5
2E8
330
1F
100
AcDbEntity
  8
0-B_寸法
  6
Continuous
 62
   120
370
     5
100
AcDbLine
 10
-373.9761083091621
 20
3418.695514028084
 30
0.0
 11
-301.976108309156
 21
3418.695514028084
 31
0.0
  0
LWPOLYLINE
  5
2E9
330
1F
100
AcDbEntity
  8
0-B_寸法
  6
Continuous
 62
     7
370
     9
100
AcDbPolyline
 90
        4
 70
     1
 43
3.0
 10
-300.4761083091559
 20
3418.695514028084
 42
0.4142135623731
 10
-301.976108309156
 20
3420.195514028084
 42
0.4142135623731
 10
-303.476108309156
 20
3418.695514028084
 42
0.4142135623731
 10
-301.976108309156
 20
3417.195514028084
 42
0.4142135623731
  0
LWPOLYLINE
  5
2EA
330
1F
100
AcDbEntity
  8
0-B_寸法
  6
Continuous
 62
     7
370
     9
100
AcDbPolyline
 90
        4
 70
     1
 43
3.0
 10
-300.4761083091559
 20
3595.007349561392
 42
0.4142135623731
 10
-301.976108309156
 20
3596.507349561392
 42
0.4142135623731
 10
-303.476108309156
 20
3595.007349561392
 42
0.4142135623731
 10
-301.976108309156
 20
3593.507349561392
 42
0.4142135623731
  0
LINE
  5
2EB
330
1F
100
AcDbEntity
  8
0-B_寸法
  6
Continuous
 62
   120
370
     5
100
AcDbLine
 10
-373.9761083091621
 20
3418.695514028084
 30
0.0
 11
-373.9761083091621
 21
3265.884973367353
 31
0.0
  0
LINE
  5
2EC
330
1F
100
AcDbEntity
  8
0-B_寸法
  6
Continuous
 62
   120
370
     5
100
AcDbLine
 10
-301.976108309156
 20
3595.007349561392
 30
0.0
 11
-301.976108309156
 21
3076.240845548904
 31
0.0
  0
MTEXT
  5
2ED
330
1F
100
AcDbEntity
  8
0-B_寸法
  6
Continuous
 62
     7
370
   211
100
AcDbMText
 10
-412.8554756899415
 20
3425.843014028084
 30
0.0
 40
74.295
 41
97.5
 46
0.0
 71
     7
 72
     1
  1
{\fＭＳ ゴシック|b0|i0|c128|p49;12}
 73
     1
 44
1.0
  0
LINE
  5
2EE
330
1F
100
AcDbEntity
  8
0-B_寸法
  6
Continuous
 62
   120
370
     5
100
AcDbLine
 10
-2893.976108309164
 20
3418.695514028084
 30
0.0
 11
-373.9761083091621
 21
3418.695514028084
 31
0.0
  0
LWPOLYLINE
  5
2EF
330
1F
100
AcDbEntity
  8
0-B_寸法
  6
Continuous
 62
     7
370
     9
100
AcDbPolyline
 90
        4
 70
     1
 43
3.0
 10
-1122.476108309148
 20
3265.884973367353
 42
0.4142135623731
 10
-1123.976108309148
 20
3267.384973367353
 42
0.4142135623731
 10
-1125.476108309148
 20
3265.884973367353
 42
0.4142135623731
 10
-1123.976108309148
 20
3264.384973367354
 42
0.4142135623731
  0
LINE
  5
2F0
330
1F
100
AcDbEntity
  8
0-B_寸法
  6
Continuous
 62
   120
370
     5
100
AcDbLine
 10
-2893.976108309164
 20
3265.884973367353
 30
0.0
 11
-1123.976108309148
 21
3265.884973367353
 31
0.0
  0
LINE
  5
2F1
330
1F
100
AcDbEntity
  8
0-B_寸法
  6
Continuous
 62
   120
370
     5
100
AcDbLine
 10
-1123.976108309148
 20
3265.884973367353
 30
0.0
 11
-373.9761083091621
 21
3265.884973367353
 31
0.0
  0
LINE
  5
2F2
330
1F
100
AcDbEntity
  8
0-B_寸法
  6
Continuous
 62
   120
370
     5
100
AcDbLine
 10
-2893.976108309164
 20
3265.884973367353
 30
0.0
 11
-2893.976108309164
 21
2942.828323423645
 31
0.0
  0
LINE
  5
2F3
330
1F
100
AcDbEntity
  8
0-B_寸法
  6
Continuous
 62
   120
370
     5
100
AcDbLine
 10
-1123.976108309148
 20
3265.884973367353
 30
0.0
 11
-1123.976108309148
 21
2569.273261472917
 31
0.0
  0
LINE
  5
2F4
330
1F
100
AcDbEntity
  8
0-B_寸法
  6
Continuous
 62
   120
370
     5
100
AcDbLine
 10
-2893.976108309164
 20
3093.331374374515
 30
0.0
 11
-2681.018049359097
 21
3093.331374374515
 31
0.0
  0
LWPOLYLINE
  5
2F5
330
1F
100
AcDbEntity
  8
0-B_寸法
  6
Continuous
 62
     7
370
     9
100
AcDbPolyline
 90
        4
 70
     1
 43
3.0
 10
-2892.476108309164
 20
3093.331374374515
 42
0.4142135623731
 10
-2893.976108309164
 20
3094.831374374515
 42
0.4142135623731
 10
-2895.476108309163
 20
3093.331374374515
 42
0.4142135623731
 10
-2893.976108309164
 20
3091.831374374515
 42
0.4142135623731
  0
LWPOLYLINE
  5
2F6
330
1F
100
AcDbEntity
  8
0-B_寸法
  6
Continuous
 62
     7
370
     9
100
AcDbPolyline
 90
        4
 70
     1
 43
3.0
 10
-2679.518049359097
 20
3093.331374374515
 42
0.4142135623731
 10
-2681.018049359097
 20
3094.831374374515
 42
0.4142135623731
 10
-2682.518049359097
 20
3093.331374374515
 42
0.4142135623731
 10
-2681.018049359097
 20
3091.831374374515
 42
0.4142135623731
  0
LINE
  5
2F7
330
1F
100
AcDbEntity
  8
0-B_寸法
  6
Continuous
 62
   120
370
     5
100
AcDbLine
 10
-2681.018049359097
 20
3093.331374374515
 30
0.0
 11
-2681.018049359097
 21
2569.273261472917
 31
0.0
  0
LINE
  5
2F8
330
1F
100
AcDbEntity
  8
0-B_寸法
  6
Continuous
 62
   120
370
     5
100
AcDbLine
 10
-763.9761083091416
 20
3093.331374374515
 30
0.0
 11
-583.9761083091485
 21
3093.331374374515
 31
0.0
  0
LWPOLYLINE
  5
2F9
330
1F
100
AcDbEntity
  8
0-B_寸法
  6
Continuous
 62
     7
370
     9
100
AcDbPolyline
 90
        4
 70
     1
 43
3.0
 10
-762.4761083091416
 20
3093.331374374515
 42
0.4142135623731
 10
-763.9761083091416
 20
3094.831374374515
 42
0.4142135623731
 10
-765.4761083091416
 20
3093.331374374515
 42
0.4142135623731
 10
-763.9761083091416
 20
3091.831374374515
 42
0.4142135623731
  0
LWPOLYLINE
  5
2FA
330
1F
100
AcDbEntity
  8
0-B_寸法
  6
Continuous
 62
     7
370
     9
100
AcDbPolyline
 90
        4
 70
     1
 43
3.0
 10
-582.4761083091485
 20
3093.331374374515
 42
0.4142135623731
 10
-583.9761083091485
 20
3094.831374374515
 42
0.4142135623731
 10
-585.4761083091485
 20
3093.331374374515
 42
0.4142135623731
 10
-583.9761083091485
 20
3091.831374374515
 42
0.4142135623731
  0
LINE
  5
2FB
330
1F
100
AcDbEntity
  8
0-B_寸法
  6
Continuous
 62
   120
370
     5
100
AcDbLine
 10
-583.9761083091485
 20
3093.331374374515
 30
0.0
 11
-373.9761083091502
 21
3093.331374374515
 31
0.0
  0
LWPOLYLINE
  5
2FC
330
1F
100
AcDbEntity
  8
0-B_寸法
  6
Continuous
 62
     7
370
     9
100
AcDbPolyline
 90
        4
 70
     1
 43
3.0
 10
-372.4761083091501
 20
3093.331374374515
 42
0.4142135623731
 10
-373.9761083091502
 20
3094.831374374515
 42
0.4142135623731
 10
-375.4761083091502
 20
3093.331374374515
 42
0.4142135623731
 10
-373.9761083091502
 20
3091.831374374515
 42
0.4142135623731
  0
LINE
  5
2FD
330
1F
100
AcDbEntity
  8
0-B_寸法
  6
Continuous
 62
   120
370
     5
100
AcDbLine
 10
-583.9761083091485
 20
3093.331374374515
 30
0.0
 11
-583.9761083091485
 21
2521.789840891637
 31
0.0
  0
LINE
  5
2FE
330
1F
100
AcDbEntity
  8
0-B_寸法
  6
Continuous
 62
   120
370
     5
100
AcDbLine
 10
-763.9761083091416
 20
3093.331374374515
 30
0.0
 11
-763.9761083091416
 21
2521.789840891637
 31
0.0
  0
MTEXT
  5
2FF
330
1F
100
AcDbEntity
  8
0-B_寸法
  6
Continuous
 62
     7
370
   211
100
AcDbMText
 10
-824.1727460498304
 20
3288.577805870686
 30
0.0
 40
76.19999999999999
 41
150.0
 46
0.0
 71
     7
 72
     1
  1
{\fＭＳ ゴシック|b0|i0|c128|p49;125}
 73
     1
 44
1.0
  0
MTEXT
  5
300
330
1F
100
AcDbEntity
  8
0-B_寸法
  6
Continuous
 62
     7
370
   211
100
AcDbMText
 10
-722.7261083091433
 20
3105.720332720856
 30
0.0
 40
74.295
 41
97.5
 46
0.0
 71
     7
 72
     1
  1
{\fＭＳ ゴシック|b0|i0|c128|p49;30}
 73
     1
 44
1.0
  0
MTEXT
  5
301
330
1F
100
AcDbEntity
  8
0-B_寸法
  6
Continuous
 62
     7
370
   211
100
AcDbMText
 10
-527.7261083091502
 20
3105.720332720856
 30
0.0
 40
74.295
 41
97.5
 46
0.0
 71
     7
 72
     1
  1
{\fＭＳ ゴシック|b0|i0|c128|p49;35}
 73
     1
 44
1.0
  0
MTEXT
  5
302
330
1F
100
AcDbEntity
  8
0-B_寸法
  6
Continuous
 62
     7
370
   211
100
AcDbMText
 10
-2888.747078834131
 20
3107.149082720856
 30
0.0
 40
77.15249999999999
 41
202.5
 46
0.0
 71
     7
 72
     1
  1
{\fＭＳ ゴシック|b0|i0|c128|p49;35.5}
 73
     1
 44
1.0
  0
LINE
  5
303
330
1F
100
AcDbEntity
  8
0-3_仕上げ
  6
Continuous
 62
    40
370
    15
100
AcDbLine
 10
-3073.97595984527
 20
2210.903327113427
 30
0.0
 11
-3621.827241384735
 21
2210.903327113427
 31
0.0
  0
LINE
  5
304
330
1F
100
AcDbEntity
  8
0-2_柱
  6
Continuous
 62
     7
370
     9
100
AcDbLine
 10
-3073.97595984527
 20
2657.903327113426
 30
0.0
 11
-3073.97595984527
 21
2840.903327113427
 31
0.0
  0
LINE
  5
305
330
1F
100
AcDbEntity
  8
0-3_仕上げ
  6
Continuous
 62
    40
370
    15
100
AcDbLine
 10
-3073.97595984527
 20
2840.903327113427
 30
0.0
 11
-3621.827241384735
 21
2840.903327113427
 31
0.0
  0
LINE
  5
306
330
1F
100
AcDbEntity
  8
0-3_仕上げ
  6
Continuous
 62
    40
370
    15
100
AcDbLine
 10
-2998.97595984527
 20
2915.903327113427
 30
0.0
 11
-3621.827241384735
 21
2915.903327113427
 31
0.0
  0
LINE
  5
307
330
1F
100
AcDbEntity
  8
0-3_仕上げ
  6
Continuous
 62
    40
370
    15
100
AcDbLine
 10
-2998.97595984527
 20
2657.903327113426
 30
0.0
 11
-2998.97595984527
 21
2915.903327113427
 31
0.0
  0
LINE
  5
308
330
1F
100
AcDbEntity
  8
0-2_柱
  6
Continuous
 62
     7
370
     9
100
AcDbLine
 10
-3073.97595984527
 20
2210.903327113427
 30
0.0
 11
-3235.975959845269
 21
2840.903327113427
 31
0.0
  0
LINE
  5
309
330
1F
100
AcDbEntity
  8
0-2_柱
  6
Continuous
 62
     7
370
     9
100
AcDbLine
 10
-3235.975959845269
 20
2210.903327113427
 30
0.0
 11
-3235.975959845269
 21
2840.903327113427
 31
0.0
  0
LINE
  5
30A
330
1F
100
AcDbEntity
  8
0-3_仕上げ
  6
Continuous
 62
    40
370
    15
100
AcDbLine
 10
-2923.97595984527
 20
2990.903327113427
 30
0.0
 11
-3621.827241384735
 21
2990.903327113427
 31
0.0
  0
LINE
  5
30B
330
1F
100
AcDbEntity
  8
0-3_仕上げ
  6
Continuous
 62
    40
370
    15
100
AcDbLine
 10
-2923.97595984527
 20
2657.903327113426
 30
0.0
 11
-2923.97595984527
 21
2990.903327113427
 31
0.0
  0
LINE
  5
30C
330
1F
100
AcDbEntity
  8
0-3_仕上げ
  6
Continuous
 62
    40
370
    15
100
AcDbLine
 10
-301.9761083091543
 20
2990.903327113426
 30
0.0
 11
-301.9761083091543
 21
2060.903327113426
 31
0.0
  0
LINE
  5
30D
330
1F
100
AcDbEntity
  8
0-3_仕上げ
  6
Continuous
 62
    40
370
    15
100
AcDbLine
 10
2353.145785460518
 20
2990.903327113426
 30
0.0
 11
946.0238916908371
 21
2990.903327113426
 31
0.0
  0
LINE
  5
30E
330
1F
100
AcDbEntity
  8
0-0_補助線
  6
JWW_HOJO
 62
     7
370
     9
100
AcDbLine
 10
826.0238916908371
 20
2990.903327113426
 30
0.0
 11
826.0238916908371
 21
1724.903327113424
 31
0.0
  0
LINE
  5
30F
330
1F
100
AcDbEntity
  8
0-0_補助線
  6
JWW_HOJO
 62
     7
370
     9
100
AcDbLine
 10
946.0238916908371
 20
2990.903327113426
 30
0.0
 11
946.0238916908371
 21
1724.903327113424
 31
0.0
  0
LINE
  5
310
330
1F
100
AcDbEntity
  8
0-3_仕上げ
  6
Continuous
 62
    40
370
    15
100
AcDbLine
 10
826.0238916908371
 20
2990.903327113426
 30
0.0
 11
-301.9761083091543
 21
2990.903327113426
 31
0.0
  0
LINE
  5
311
330
1F
100
AcDbEntity
  8
0-3_仕上げ
  6
Continuous
 62
    40
370
    15
100
AcDbLine
 10
2353.145785460518
 20
2840.903327113427
 30
0.0
 11
946.0238916908371
 21
2840.903327113427
 31
0.0
  0
LINE
  5
312
330
1F
100
AcDbEntity
  8
0-3_仕上げ
  6
Continuous
 62
    40
370
    15
100
AcDbLine
 10
946.0238916908371
 20
2210.903327113427
 30
0.0
 11
2353.145785460518
 21
2210.903327113427
 31
0.0
  0
LINE
  5
313
330
1F
100
AcDbEntity
  8
0-2_柱
  6
Continuous
 62
     7
370
     9
100
AcDbLine
 10
-151.9761083091542
 20
2840.903327113427
 30
0.0
 11
28.02389169084577
 21
2210.903327113427
 31
0.0
  0
LINE
  5
314
330
1F
100
AcDbEntity
  8
0-2_柱
  6
Continuous
 62
     7
370
     9
100
AcDbLine
 10
28.02389169084577
 20
2840.903327113427
 30
0.0
 11
28.02389169084577
 21
2210.903327113427
 31
0.0
  0
LINE
  5
315
330
1F
100
AcDbEntity
  8
0-2_柱
  6
Continuous
 62
     7
370
     9
100
AcDbLine
 10
-151.9761083091542
 20
2840.903327113427
 30
0.0
 11
-151.9761083091542
 21
2210.903327113427
 31
0.0
  0
LINE
  5
316
330
1F
100
AcDbEntity
  8
0-3_仕上げ
  6
Continuous
 62
    40
370
    15
100
AcDbLine
 10
-151.9761083091542
 20
2210.903327113427
 30
0.0
 11
826.0238916908371
 21
2210.903327113427
 31
0.0
  0
LINE
  5
317
330
1F
100
AcDbEntity
  8
0-3_仕上げ
  6
Continuous
 62
    40
370
    15
100
AcDbLine
 10
826.0238916908371
 20
2840.903327113427
 30
0.0
 11
-151.9761083091542
 21
2840.903327113427
 31
0.0
  0
LINE
  5
318
330
1F
100
AcDbEntity
  8
0-3_仕上げ
  6
Continuous
 62
    40
370
    15
100
AcDbLine
 10
826.0238916908371
 20
2915.903327113426
 30
0.0
 11
-226.9761083091542
 21
2915.903327113426
 31
0.0
  0
LINE
  5
319
330
1F
100
AcDbEntity
  8
0-3_仕上げ
  6
Continuous
 62
    40
370
    15
100
AcDbLine
 10
-226.9761083091542
 20
2915.903327113426
 30
0.0
 11
-226.9761083091542
 21
2135.903327113426
 31
0.0
  0
LINE
  5
31A
330
1F
100
AcDbEntity
  8
0-3_仕上げ
  6
Continuous
 62
    40
370
    15
100
AcDbLine
 10
2353.145785460518
 20
2915.903327113427
 30
0.0
 11
946.0238916908371
 21
2915.903327113427
 31
0.0
  0
LINE
  5
31B
330
1F
100
AcDbEntity
  8
0-B_寸法
  6
Continuous
 62
   120
370
     5
100
AcDbLine
 10
-2923.97595984527
 20
3418.695514028084
 30
0.0
 11
-2893.976108309164
 21
3418.695514028084
 31
0.0
  0
LWPOLYLINE
  5
31C
330
1F
100
AcDbEntity
  8
0-B_寸法
  6
Continuous
 62
     7
370
     9
100
AcDbPolyline
 90
        4
 70
     1
 43
3.0
 10
-2922.47595984527
 20
3418.695514028084
 42
0.4142135623731
 10
-2923.97595984527
 20
3420.195514028084
 42
0.4142135623731
 10
-2925.47595984527
 20
3418.695514028084
 42
0.4142135623731
 10
-2923.97595984527
 20
3417.195514028084
 42
0.4142135623731
  0
LWPOLYLINE
  5
31D
330
1F
100
AcDbEntity
  8
0-B_寸法
  6
Continuous
 62
     7
370
     9
100
AcDbPolyline
 90
        4
 70
     1
 43
3.0
 10
-2922.47595984527
 20
3595.007349561392
 42
0.4142135623731
 10
-2923.97595984527
 20
3596.507349561392
 42
0.4142135623731
 10
-2925.47595984527
 20
3595.007349561392
 42
0.4142135623731
 10
-2923.97595984527
 20
3593.507349561392
 42
0.4142135623731
  0
LINE
  5
31E
330
1F
100
AcDbEntity
  8
0-B_寸法
  6
Continuous
 62
   120
370
     5
100
AcDbLine
 10
-2923.97595984527
 20
3595.007349561392
 30
0.0
 11
-2923.97595984527
 21
3076.240845548904
 31
0.0
  0
LINE
  5
31F
330
1F
100
AcDbEntity
  8
0-B_寸法
  6
Continuous
 62
   120
370
     5
100
AcDbLine
 10
-2923.97595984527
 20
3595.007349561392
 30
0.0
 11
-301.976108309156
 21
3595.007349561392
 31
0.0
  0
MTEXT
  5
320
330
1F
100
AcDbEntity
  8
0-B_寸法
  6
Continuous
 62
     7
370
   211
100
AcDbMText
 10
-2910.133872573726
 20
3422.985514028084
 30
0.0
 40
68.58
 41
45.0
 46
0.0
 71
     7
 72
     1
  1
{\fＭＳ ゴシック|b0|i0|c128|p49;5}
 73
     1
 44
1.0
  0
LINE
  5
321
330
1F
100
AcDbEntity
  8
0-3_仕上げ
  6
Continuous
 62
    40
370
    15
100
AcDbLine
 10
-3193.975959845268
 20
2135.903327113427
 30
0.0
 11
-3621.827241384735
 21
2135.903327113427
 31
0.0
  0
LINE
  5
322
330
1F
100
AcDbEntity
  8
0-3_仕上げ
  6
Continuous
 62
    40
370
    15
100
AcDbLine
 10
-3193.975959845268
 20
2060.903327113427
 30
0.0
 11
-3621.827241384735
 21
2060.903327113427
 31
0.0
  0
LWPOLYLINE
  5
323
330
1F
100
AcDbEntity
  8
0-A_文字
  6
Continuous
 62
     7
370
     9
100
AcDbPolyline
 90
        4
 70
     1
 43
3.0
 10
-3137.757514587634
 20
1970.864674245643
 42
0.4142135623731
 10
-3139.257514587634
 20
1972.364674245643
 42
0.4142135623731
 10
-3140.757514587634
 20
1970.864674245643
 42
0.4142135623731
 10
-3139.257514587634
 20
1969.364674245643
 42
0.4142135623731
  0
LINE
  5
324
330
1F
100
AcDbEntity
  8
0-A_文字
  6
Continuous
 62
     7
370
     9
100
AcDbLine
 10
-3139.257514587634
 20
1970.864674245643
 30
0.0
 11
-2396.051638700131
 21
2605.686359899551
 31
0.0
  0
LINE
  5
325
330
1F
100
AcDbEntity
  8
0-4_枠
  6
Continuous
 62
    92
370
    13
100
AcDbLine
 10
-3172.762756409672
 20
1640.903327113426
 30
0.0
 11
-3193.975959845268
 21
1662.116530549023
 31
0.0
  0
LINE
  5
326
330
1F
100
AcDbEntity
  8
0-4_枠
  6
Continuous
 62
    92
370
    13
100
AcDbLine
 10
-3079.97595984527
 20
1640.903327113426
 30
0.0
 11
-3172.762756409672
 21
1640.903327113426
 31
0.0
  0
LINE
  5
327
330
1F
100
AcDbEntity
  8
0-4_枠
  6
Continuous
 62
    92
370
    13
100
AcDbLine
 10
-3193.975959845268
 20
1662.116530549023
 30
0.0
 11
-3193.975959845268
 21
2210.903327113427
 31
0.0
  0
ARC
  5
328
330
1F
100
AcDbEntity
  8
0-4_枠
  6
Continuous
 62
    92
370
    13
100
AcDbCircle
 10
-3079.97595984527
 20
1646.903327113427
 30
0.0
 40
6.0
100
AcDbArc
 50
270.0
 51
0.0
  0
LINE
  5
329
330
1F
100
AcDbEntity
  8
0-C_ハッチ
  6
Continuous
 62
   120
370
     5
100
AcDbLine
 10
-3073.97595984527
 20
1848.909084872007
 30
0.0
 11
-3193.975959845268
 21
1728.909084872008
 31
0.0
  0
LINE
  5
32A
330
1F
100
AcDbEntity
  8
0-C_ハッチ
  6
Continuous
 62
   120
370
     5
100
AcDbLine
 10
-3073.97595984527
 20
1891.335611740672
 30
0.0
 11
-3193.975959845268
 21
1771.335611740674
 31
0.0
  0
LINE
  5
32B
330
1F
100
AcDbEntity
  8
0-C_ハッチ
  6
Continuous
 62
   120
370
     5
100
AcDbLine
 10
-3073.97595984527
 20
1933.762138609338
 30
0.0
 11
-3193.975959845268
 21
1813.76213860934
 31
0.0
  0
LINE
  5
32C
330
1F
100
AcDbEntity
  8
0-C_ハッチ
  6
Continuous
 62
   120
370
     5
100
AcDbLine
 10
-3073.97595984527
 20
1976.188665478004
 30
0.0
 11
-3193.975959845268
 21
1856.188665478005
 31
0.0
  0
LINE
  5
32D
330
1F
100
AcDbEntity
  8
0-C_ハッチ
  6
Continuous
 62
   120
370
     5
100
AcDbLine
 10
-3073.97595984527
 20
2018.614450027202
 30
0.0
 11
-3193.975959845268
 21
1898.614450027202
 31
0.0
  0
LINE
  5
32E
330
1F
100
AcDbEntity
  8
0-C_ハッチ
  6
Continuous
 62
   120
370
     5
100
AcDbLine
 10
-3073.97595984527
 20
2061.040976895868
 30
0.0
 11
-3193.975959845268
 21
1941.040976895868
 31
0.0
  0
LINE
  5
32F
330
1F
100
AcDbEntity
  8
0-C_ハッチ
  6
Continuous
 62
   120
370
     5
100
AcDbLine
 10
-3073.97595984527
 20
2103.467503764533
 30
0.0
 11
-3193.975959845268
 21
1983.467503764533
 31
0.0
  0
LINE
  5
330
330
1F
100
AcDbEntity
  8
0-C_ハッチ
  6
Continuous
 62
   120
370
     5
100
AcDbLine
 10
-3073.97595984527
 20
2145.89328831373
 30
0.0
 11
-3193.975959845268
 21
2025.89328831373
 31
0.0
  0
LINE
  5
331
330
1F
100
AcDbEntity
  8
0-C_ハッチ
  6
Continuous
 62
   120
370
     5
100
AcDbLine
 10
-3178.671286200768
 20
2210.903327113427
 30
0.0
 11
-3193.975959845268
 21
2195.598653468925
 31
0.0
  0
LINE
  5
332
330
1F
100
AcDbEntity
  8
0-C_ハッチ
  6
Continuous
 62
   120
370
     5
100
AcDbLine
 10
-3136.244759332102
 20
2210.903327113427
 30
0.0
 11
-3193.975959845268
 21
2153.172126600258
 31
0.0
  0
LINE
  5
333
330
1F
100
AcDbEntity
  8
0-C_ハッチ
  6
Continuous
 62
   120
370
     5
100
AcDbLine
 10
-3073.97595984527
 20
2188.319815182396
 30
0.0
 11
-3193.975959845268
 21
2068.319815182396
 31
0.0
  0
LINE
  5
334
330
1F
100
AcDbEntity
  8
0-C_ハッチ
  6
Continuous
 62
   120
370
     5
100
AcDbLine
 10
-3093.818974782905
 20
2210.903327113427
 30
0.0
 11
-3193.975959845268
 21
2110.746342051062
 31
0.0
  0
LINE
  5
335
330
1F
100
AcDbEntity
  8
0-C_ハッチ
  6
Continuous
 62
   120
370
     5
100
AcDbLine
 10
-3073.97595984527
 20
1806.482558003343
 30
0.0
 11
-3193.975959845268
 21
1686.482558003342
 31
0.0
  0
LINE
  5
336
330
1F
100
AcDbEntity
  8
0-C_ハッチ
  6
Continuous
 62
   120
370
     5
100
AcDbLine
 10
-3073.97595984527
 20
1764.056031134676
 30
0.0
 11
-3184.945710138094
 21
1653.086280841849
 31
0.0
  0
LINE
  5
337
330
1F
100
AcDbEntity
  8
0-C_ハッチ
  6
Continuous
 62
   120
370
     5
100
AcDbLine
 10
-3073.97595984527
 20
1721.629504266008
 30
0.0
 11
-3154.702136997858
 21
1640.903327113426
 31
0.0
  0
LINE
  5
338
330
1F
100
AcDbEntity
  8
0-C_ハッチ
  6
Continuous
 62
   120
370
     5
100
AcDbLine
 10
-3073.97595984527
 20
1679.202977397342
 30
0.0
 11
-3112.275610129189
 21
1640.903327113426
 31
0.0
  0
LWPOLYLINE
  5
339
330
1F
100
AcDbEntity
  8
0-B_寸法
  6
Continuous
 62
     7
370
     9
100
AcDbPolyline
 90
        4
 70
     1
 43
3.0
 10
-3960.13090092005
 20
1637.903327113427
 42
0.4142135623731
 10
-3961.63090092005
 20
1639.403327113427
 42
0.4142135623731
 10
-3963.130900920051
 20
1637.903327113427
 42
0.4142135623731
 10
-3961.63090092005
 20
1636.403327113427
 42
0.4142135623731
  0
LWPOLYLINE
  5
33A
330
1F
100
AcDbEntity
  8
0-B_寸法
  6
Continuous
 62
     7
370
     9
100
AcDbPolyline
 90
        4
 70
     1
 43
3.0
 10
-3960.13090092005
 20
2657.903327113426
 42
0.4142135623731
 10
-3961.63090092005
 20
2659.403327113426
 42
0.4142135623731
 10
-3963.130900920051
 20
2657.903327113426
 42
0.4142135623731
 10
-3961.63090092005
 20
2656.403327113426
 42
0.4142135623731
  0
LINE
  5
33B
330
1F
100
AcDbEntity
  8
0-B_寸法
  6
Continuous
 62
   120
370
     5
100
AcDbLine
 10
-4122.944244065615
 20
1637.903327113427
 30
0.0
 11
-4122.944244065615
 21
2657.903327113426
 31
0.0
  0
LWPOLYLINE
  5
33C
330
1F
100
AcDbEntity
  8
0-B_寸法
  6
Continuous
 62
     7
370
     9
100
AcDbPolyline
 90
        4
 70
     1
 43
3.0
 10
-4121.444244065614
 20
1637.903327113427
 42
0.4142135623731
 10
-4122.944244065615
 20
1639.403327113427
 42
0.4142135623731
 10
-4124.444244065615
 20
1637.903327113427
 42
0.4142135623731
 10
-4122.944244065615
 20
1636.403327113427
 42
0.4142135623731
  0
LWPOLYLINE
  5
33D
330
1F
100
AcDbEntity
  8
0-B_寸法
  6
Continuous
 62
     7
370
     9
100
AcDbPolyline
 90
        4
 70
     1
 43
3.0
 10
-4121.444244065614
 20
2657.903327113426
 42
0.4142135623731
 10
-4122.944244065615
 20
2659.403327113426
 42
0.4142135623731
 10
-4124.444244065615
 20
2657.903327113426
 42
0.4142135623731
 10
-4122.944244065615
 20
2656.403327113426
 42
0.4142135623731
  0
LINE
  5
33E
330
1F
100
AcDbEntity
  8
0-B_寸法
  6
Continuous
 62
   120
370
     5
100
AcDbLine
 10
-4122.944244065615
 20
1637.903327113427
 30
0.0
 11
-3961.63090092005
 21
1637.903327113427
 31
0.0
  0
LINE
  5
33F
330
1F
100
AcDbEntity
  8
0-B_寸法
  6
Continuous
 62
   120
370
     5
100
AcDbLine
 10
-4122.944244065615
 20
2657.903327113426
 30
0.0
 11
-3961.63090092005
 21
2657.903327113426
 31
0.0
  0
MTEXT
  5
340
330
1F
100
AcDbEntity
  8
0-B_寸法
  6
Continuous
 62
     7
370
   211
100
AcDbMText
 10
-4137.944244065615
 20
2066.003327113426
 30
0.0
 40
76.19999999999999
 41
150.0
 46
0.0
 71
     7
 72
     1
  1
{\fＭＳ ゴシック|b0|i0|c128|p49;170}
 11
6.123031769111886E-17
 21
1.0
 31
0.0
 73
     1
 44
1.0
  0
LINE
  5
341
330
1F
100
AcDbEntity
  8
0-B_寸法
  6
Continuous
 62
   120
370
     5
100
AcDbLine
 10
-3961.63090092005
 20
2657.903327113426
 30
0.0
 11
-3124.206610942888
 21
2657.903327113426
 31
0.0
  0
LINE
  5
342
330
1F
100
AcDbEntity
  8
0-B_寸法
  6
Continuous
 62
   120
370
     5
100
AcDbLine
 10
-3961.63090092005
 20
1637.903327113427
 30
0.0
 11
-3124.206610942888
 21
1637.903327113427
 31
0.0
  0
LWPOLYLINE
  5
343
330
1F
100
AcDbEntity
  8
0-B_寸法
  6
Continuous
 62
     7
370
     9
100
AcDbPolyline
 90
        4
 70
     1
 43
3.0
 10
-3960.13090092005
 20
2210.903327113427
 42
0.4142135623731
 10
-3961.63090092005
 20
2212.403327113426
 42
0.4142135623731
 10
-3963.130900920051
 20
2210.903327113427
 42
0.4142135623731
 10
-3961.63090092005
 20
2209.403327113427
 42
0.4142135623731
  0
LINE
  5
344
330
1F
100
AcDbEntity
  8
0-B_寸法
  6
Continuous
 62
   120
370
     5
100
AcDbLine
 10
-3961.63090092005
 20
1637.903327113427
 30
0.0
 11
-3961.63090092005
 21
2210.903327113427
 31
0.0
  0
LINE
  5
345
330
1F
100
AcDbEntity
  8
0-B_寸法
  6
Continuous
 62
   120
370
     5
100
AcDbLine
 10
-3961.63090092005
 20
2210.903327113427
 30
0.0
 11
-3652.400034179939
 21
2210.903327113427
 31
0.0
  0
LINE
  5
346
330
1F
100
AcDbEntity
  8
0-B_寸法
  6
Continuous
 62
   120
370
     5
100
AcDbLine
 10
-3961.63090092005
 20
2210.903327113427
 30
0.0
 11
-3961.63090092005
 21
2657.903327113426
 31
0.0
  0
MTEXT
  5
347
330
1F
100
AcDbEntity
  8
0-B_寸法
  6
Continuous
 62
     7
370
   211
100
AcDbMText
 10
-3976.63090092005
 20
2326.729577113426
 30
0.0
 40
77.15249999999999
 41
202.5
 46
0.0
 71
     7
 72
     1
  1
{\fＭＳ ゴシック|b0|i0|c128|p49;74.5}
 11
6.123031769111886E-17
 21
1.0
 31
0.0
 73
     1
 44
1.0
  0
MTEXT
  5
348
330
1F
100
AcDbEntity
  8
0-B_寸法
  6
Continuous
 62
     7
370
   211
100
AcDbMText
 10
-3976.63090092005
 20
1816.729577113427
 30
0.0
 40
77.15249999999999
 41
202.5
 46
0.0
 71
     7
 72
     1
  1
{\fＭＳ ゴシック|b0|i0|c128|p49;95.5}
 11
6.123031769111886E-17
 21
1.0
 31
0.0
 73
     1
 44
1.0
  0
LINE
  5
349
330
1F
100
AcDbEntity
  8
0-B_寸法
  6
Continuous
 62
   120
370
     5
100
AcDbLine
 10
-3807.015467549995
 20
2210.903327113427
 30
0.0
 11
-3807.015467549995
 21
1640.903327113426
 31
0.0
  0
LWPOLYLINE
  5
34A
330
1F
100
AcDbEntity
  8
0-B_寸法
  6
Continuous
 62
     7
370
     9
100
AcDbPolyline
 90
        4
 70
     1
 43
3.0
 10
-3805.515467549995
 20
2210.903327113427
 42
0.4142135623731
 10
-3807.015467549995
 20
2212.403327113426
 42
0.4142135623731
 10
-3808.515467549995
 20
2210.903327113427
 42
0.4142135623731
 10
-3807.015467549995
 20
2209.403327113427
 42
0.4142135623731
  0
LWPOLYLINE
  5
34B
330
1F
100
AcDbEntity
  8
0-B_寸法
  6
Continuous
 62
     7
370
     9
100
AcDbPolyline
 90
        4
 70
     1
 43
3.0
 10
-3805.515467549995
 20
1640.903327113426
 42
0.4142135623731
 10
-3807.015467549995
 20
1642.403327113426
 42
0.4142135623731
 10
-3808.515467549995
 20
1640.903327113426
 42
0.4142135623731
 10
-3807.015467549995
 20
1639.403327113427
 42
0.4142135623731
  0
LINE
  5
34C
330
1F
100
AcDbEntity
  8
0-B_寸法
  6
Continuous
 62
   120
370
     5
100
AcDbLine
 10
-3807.015467549995
 20
1640.903327113426
 30
0.0
 11
-3652.400034179939
 21
1640.903327113426
 31
0.0
  0
MTEXT
  5
34D
330
1F
100
AcDbEntity
  8
0-B_寸法
  6
Continuous
 62
     7
370
   211
100
AcDbMText
 10
-3822.015467549995
 20
1869.300827113427
 30
0.0
 40
74.295
 41
97.5
 46
0.0
 71
     7
 72
     1
  1
{\fＭＳ ゴシック|b0|i0|c128|p49;95}
 11
6.123031769111886E-17
 21
1.0
 31
0.0
 73
     1
 44
1.0
  0
MTEXT
  5
34E
330
1F
100
AcDbEntity
  8
0-A_文字
  6
Continuous
 62
     7
370
     9
100
AcDbMText
 10
-4122.944244065615
 20
3369.779738730751
 30
0.0
 40
91.43999999999994
 41
599.9999999999995
 46
0.0
 71
     7
 72
     1
  1
{\fＭＳ ゴシック|b0|i0|c128|p49;■横断面図}
 73
     1
 44
1.0
  0
LINE
  5
34F
330
1F
100
AcDbEntity
  8
0-B_寸法
  6
Continuous
 62
     7
370
     9
100
AcDbLine
 10
-5819.918393863917
 20
3404.579311737762
 30
0.0
 11
-5819.918393863917
 21
4000.00018145587
 31
0.0
  0
MTEXT
  5
350
330
1F
100
AcDbEntity
  8
0-B_寸法
  6
Continuous
 62
     7
370
     9
100
AcDbMText
 10
-5714.500920638385
 20
3629.885860004807
 30
0.0
 40
101.44125
 41
1065.0
 46
0.0
 71
     7
 72
     1
  1
{\fＭＳ ゴシック|b0|i0|c128|p49;竪枠裏側に枠材を}
 73
     1
 44
1.0
  0
MTEXT
  5
351
330
1F
100
AcDbEntity
  8
0-B_寸法
  6
Continuous
 62
     7
370
     9
100
AcDbMText
 10
-5714.500920638385
 20
3479.783806433378
 30
0.0
 40
101.2371428571429
 41
930.0
 46
0.0
 71
     7
 72
     1
  1
{\fＭＳ ゴシック|b0|i0|c128|p49;取り付ける場合}
 73
     1
 44
1.0
  0
LINE
  5
352
330
1F
100
AcDbEntity
  8
0-B_寸法
  6
Continuous
 62
     7
370
     9
100
AcDbLine
 10
-4544.083447412853
 20
3404.579311737762
 30
0.0
 11
-5819.918393863917
 21
3404.579311737762
 31
0.0
  0
LINE
  5
353
330
1F
100
AcDbEntity
  8
0-B_寸法
  6
Continuous
 62
     7
370
     9
100
AcDbLine
 10
-4544.083447412853
 20
4000.00018145587
 30
0.0
 11
-4544.083447412853
 21
3404.579311737762
 31
0.0
  0
LINE
  5
354
330
1F
100
AcDbEntity
  8
0-B_寸法
  6
Continuous
 62
     7
370
     9
100
AcDbLine
 10
-5819.918393863917
 20
4000.00018145587
 30
0.0
 11
-4544.083447412853
 21
4000.00018145587
 31
0.0
  0
MTEXT
  5
355
330
1F
100
AcDbEntity
  8
0-B_寸法
  6
Continuous
 62
     7
370
   211
100
AcDbMText
 10
510.698486503461
 20
-3638.928190285085
 30
0.0
 40
77.724
 41
255.0
 46
0.0
 71
     7
 72
     1
  1
{\fＭＳ ゴシック|b0|i0|c128|p49;1,005}
 73
     1
 44
1.0
  0
MTEXT
  5
356
330
1F
100
AcDbEntity
  8
0-B_寸法
  6
Continuous
 62
     7
370
   211
100
AcDbMText
 10
-1059.219046595974
 20
1250.167313496409
 30
0.0
 40
79.33764705882353
 41
885.0
 46
0.0
 71
     7
 72
     1
  1
{\fＭＳ ゴシック|b0|i0|c128|p49;上吊レール：2,169}
 73
     1
 44
1.0
  0
MTEXT
  5
357
330
1F
100
AcDbEntity
  8
0-A_文字
  6
Continuous
 62
     7
370
     9
100
AcDbMText
 10
-1993.572404668011
 20
1800.173168266292
 30
0.0
 40
78.97090909090909
 41
570.0
 46
0.0
 71
     7
 72
     1
  1
{\fＭＳ ゴシック|b0|i0|c128|p49;ＤＷ：1,158}
 73
     1
 44
1.0
  0
MTEXT
  5
358
330
1F
100
AcDbEntity
  8
0-B_寸法
  6
Continuous
 62
     7
370
   211
100
AcDbMText
 10
-2297.18771363194
 20
3284.730971601803
 30
0.0
 40
79.248
 41
780.0
 46
0.0
 71
     7
 72
     1
  1
{\fＭＳ ゴシック|b0|i0|c128|p49;有効開口：1,003}
 73
     1
 44
1.0
  0
MTEXT
  5
359
330
1F
100
AcDbEntity
  8
0-B_寸法
  6
Continuous
 62
     7
370
   211
100
AcDbMText
 10
-1872.83216275269
 20
3438.188942049906
 30
0.0
 40
77.724
 41
255.0
 46
0.0
 71
     7
 72
     1
  1
{\fＭＳ ゴシック|b0|i0|c128|p49;1,128}
 73
     1
 44
1.0
  0
MTEXT
  5
35A
330
1F
100
AcDbEntity
  8
0-B_寸法
  6
Continuous
 62
     7
370
   211
100
AcDbMText
 10
-1740.476034077213
 20
3604.288567491043
 30
0.0
 40
77.724
 41
255.0
 46
0.0
 71
     7
 72
     1
  1
{\fＭＳ ゴシック|b0|i0|c128|p49;1,145}
 73
     1
 44
1.0
  0
LINE
  5
35B
330
1F
100
AcDbEntity
  8
1-A_文字
  6
Continuous
 62
     7
370
     9
100
AcDbLine
 10
4260.336187152713
 20
3604.971590259068
 30
0.0
 11
4260.336187152713
 21
3781.086759801006
 31
0.0
  0
LINE
  5
35C
330
1F
100
AcDbEntity
  8
1-A_文字
  6
Continuous
 62
     7
370
     9
100
AcDbLine
 10
4260.336187152713
 20
3604.971590259068
 30
0.0
 11
4995.680266929227
 21
3604.971590259068
 31
0.0
  0
LINE
  5
35D
330
1F
100
AcDbEntity
  8
1-A_文字
  6
Continuous
 62
     7
370
     9
100
AcDbLine
 10
4260.336187152713
 20
3781.086759801006
 30
0.0
 11
4995.680266929227
 21
3781.086759801006
 31
0.0
  0
LINE
  5
35E
330
1F
100
AcDbEntity
  8
1-A_文字
  6
Continuous
 62
     7
370
     9
100
AcDbLine
 10
4995.680266929227
 20
3604.971590259068
 30
0.0
 11
4995.680266929227
 21
3781.086759801006
 31
0.0
  0
MTEXT
  5
35F
330
1F
100
AcDbEntity
  8
1-A_文字
  6
Continuous
 62
     7
370
     9
100
AcDbMText
 10
4381.969601696709
 20
3640.765773483336
 30
0.0
 40
77.724
 41
510.0
 46
0.0
 71
     7
 72
     1
  1
{\fＭＳ ゴシック|b0|i0|c128|p49;枠現場加工}
 73
     1
 44
1.0
  0
MTEXT
  5
360
330
1F
100
AcDbEntity
  8
1-A_文字
  6
Continuous
 62
     7
370
     9
100
AcDbMText
 10
4228.252885456376
 20
3461.121584682026
 30
0.0
 40
78.58125
 41
825.0
 46
0.0
 71
     7
 72
     1
  1
{\fＭＳ ゴシック|b0|i0|c128|p49;12.5＋12.5㎜PBの}
 73
     1
 44
1.0
  0
MTEXT
  5
361
330
1F
100
AcDbEntity
  8
1-A_文字
  6
Continuous
 62
     7
370
     9
100
AcDbMText
 10
4228.252885456376
 20
3351.194902913096
 30
0.0
 40
78.37714285714286
 41
720.0
 46
0.0
 71
     7
 72
     1
  1
{\fＭＳ ゴシック|b0|i0|c128|p49;場合のカキコミ}
 73
     1
 44
1.0
  0
MTEXT
  5
362
330
1F
100
AcDbEntity
  8
1-A_文字
  6
Continuous
 62
     7
370
     9
100
AcDbMText
 10
4228.252885456378
 20
3249.733020870096
 30
0.0
 40
77.724
 41
510.0
 46
0.0
 71
     7
 72
     1
  1
{\fＭＳ ゴシック|b0|i0|c128|p49;寸法です。}
 73
     1
 44
1.0
  0
LINE
  5
363
330
1F
100
AcDbEntity
  8
1-B_寸法
  6
Continuous
 62
     7
370
     9
100
AcDbLine
 10
4936.296572150274
 20
3133.859035312347
 30
0.0
 11
4936.269667090463
 21
3142.8589950848
 31
0.0
  0
LINE
  5
364
330
1F
100
AcDbEntity
  8
1-B_寸法
  6
Continuous
 62
     7
370
     9
100
AcDbLine
 10
4936.269667090463
 20
3142.8589950848
 30
0.0
 11
4981.269466818857
 21
3142.993517869301
 31
0.0
  0
LINE
  5
365
330
1F
100
AcDbEntity
  8
1-B_寸法
  6
Continuous
 62
     7
370
     9
100
AcDbLine
 10
4951.269600571679
 20
3142.903836013433
 30
0.0
 11
4951.224759758997
 21
3157.90376883667
 31
0.0
  0
LINE
  5
366
330
1F
100
AcDbEntity
  8
1-B_寸法
  6
Continuous
 62
     7
370
     9
100
AcDbLine
 10
4951.224759758997
 20
3157.90376883667
 30
0.0
 11
4966.224692524954
 21
3157.948609649354
 31
0.0
  0
LINE
  5
367
330
1F
100
AcDbEntity
  8
1-B_寸法
  6
Continuous
 62
     7
370
     9
100
AcDbLine
 10
4966.269533337639
 20
3142.948676940668
 30
0.0
 11
4966.224692524954
 21
3157.948609649354
 31
0.0
  0
ARC
  5
368
330
1F
100
AcDbEntity
  8
1-B_寸法
  6
Continuous
 62
     7
370
     9
100
AcDbCircle
 10
4958.523379282641
 20
3225.279560386352
 30
0.0
 40
94.083703994751
100
AcDbArc
 50
256.3349914550782
 51
284.0075988769531
  0
LINE
  5
369
330
1F
100
AcDbEntity
  8
1-B_寸法
  6
Continuous
 62
     7
370
     9
100
AcDbLine
 10
4981.296370448157
 20
3133.993557750398
 30
0.0
 11
4981.269466818857
 21
3142.993517869301
 31
0.0
  0
ARC
  5
36A
330
1F
100
AcDbEntity
  8
1-B_寸法
  6
Continuous
 62
     7
370
     9
100
AcDbCircle
 10
4679.522986007973
 20
3216.279560386351
 30
0.0
 40
94.083703994751
100
AcDbArc
 50
256.3349914550782
 51
284.0075988769531
  0
LINE
  5
36B
330
1F
100
AcDbEntity
  8
1-1_通り芯
  6
JWW_CENTER1
 62
   120
370
     5
100
AcDbLine
 10
4958.769465504331
 20
-3430.527408665256
 30
0.0
 11
4958.769465504331
 21
2763.041785948638
 31
0.0
  0
LINE
  5
36C
330
1F
100
AcDbEntity
  8
1-1_通り芯
  6
JWW_CENTER1
 62
   120
370
     5
100
AcDbLine
 10
5004.082411411361
 20
2200.472591334747
 30
0.0
 11
4916.563774130997
 21
2200.472591334747
 31
0.0
  0
LINE
  5
36D
330
1F
100
AcDbEntity
  8
1-1_通り芯
  6
JWW_CENTER1
 62
   120
370
     5
100
AcDbLine
 10
5004.082411411361
 20
-2920.527408665256
 30
0.0
 11
4916.563774130997
 21
-2920.527408665256
 31
0.0
  0
LINE
  5
36E
330
1F
100
AcDbEntity
  8
1-1_通り芯
  6
JWW_CENTER1
 62
   120
370
     5
100
AcDbLine
 10
5004.082411411361
 20
580.4725913347424
 30
0.0
 11
4916.563774130997
 21
580.4725913347424
 31
0.0
  0
LINE
  5
36F
330
1F
100
AcDbEntity
  8
1-1_通り芯
  6
JWW_CENTER1
 62
   120
370
     5
100
AcDbLine
 10
4725.082082316397
 20
-1300.527408665258
 30
0.0
 11
4637.563445036032
 21
-1300.527408665258
 31
0.0
  0
LINE
  5
370
330
1F
100
AcDbEntity
  8
1-1_通り芯
  6
JWW_CENTER1
 62
   120
370
     5
100
AcDbLine
 10
4679.769136409367
 20
-1141.004777508074
 30
0.0
 11
4679.769136409367
 21
-1394.0687783206
 31
0.0
  0
LINE
  5
371
330
1F
100
AcDbEntity
  8
1-1_通り芯
  6
JWW_CENTER1
 62
   120
370
     5
100
AcDbLine
 10
4725.082082316397
 20
2200.472591334747
 30
0.0
 11
4637.563445036032
 21
2200.472591334747
 31
0.0
  0
LINE
  5
372
330
1F
100
AcDbEntity
  8
1-1_通り芯
  6
JWW_CENTER1
 62
   120
370
     5
100
AcDbLine
 10
4679.769136409367
 20
2354.972591334747
 30
0.0
 11
4679.769136409367
 21
2072.346752794735
 31
0.0
  0
LINE
  5
373
330
1F
100
AcDbEntity
  8
1-1_通り芯
  6
JWW_CENTER1
 62
   120
370
     5
100
AcDbLine
 10
4725.082082316397
 20
-2920.527408665256
 30
0.0
 11
4637.563445036032
 21
-2920.527408665256
 31
0.0
  0
LINE
  5
374
330
1F
100
AcDbEntity
  8
1-1_通り芯
  6
JWW_CENTER1
 62
   120
370
     5
100
AcDbLine
 10
4679.769136409367
 20
-2772.575343228248
 30
0.0
 11
4679.769136409367
 21
-3035.761904073271
 31
0.0
  0
LINE
  5
375
330
1F
100
AcDbEntity
  8
1-1_通り芯
  6
JWW_CENTER1
 62
   120
370
     5
100
AcDbLine
 10
4725.082082316397
 20
580.4725913347424
 30
0.0
 11
4637.563445036032
 21
580.4725913347424
 31
0.0
  0
LINE
  5
376
330
1F
100
AcDbEntity
  8
1-1_通り芯
  6
JWW_CENTER1
 62
   120
370
     5
100
AcDbLine
 10
4679.769136409367
 20
693.8401878870857
 30
0.0
 11
4679.769136409367
 21
491.3889872370662
 31
0.0
  0
LINE
  5
377
330
1F
100
AcDbEntity
  8
1-1_通り芯
  6
JWW_CENTER1
 62
   120
370
     5
100
AcDbLine
 10
4679.769136409367
 20
3098.240120273444
 30
0.0
 11
4679.769136409367
 21
3247.217157751136
 31
0.0
  0
LINE
  5
378
330
1F
100
AcDbEntity
  8
1-1_通り芯
  6
JWW_CENTER1
 62
   120
370
     5
100
AcDbLine
 10
4958.769465504331
 20
3098.240120273444
 30
0.0
 11
4958.769465504331
 21
3247.217157751136
 31
0.0
  0
CIRCLE
  5
379
330
1F
100
AcDbEntity
  8
1-7_金物
  6
Continuous
 62
     7
370
     9
100
AcDbCircle
 10
4958.769465504331
 20
2200.472591334747
 30
0.0
 40
12.0
  0
CIRCLE
  5
37A
330
1F
100
AcDbEntity
  8
1-7_金物
  6
Continuous
 62
     7
370
     9
100
AcDbCircle
 10
4958.769465504331
 20
2200.472591334747
 30
0.0
 40
22.5
  0
CIRCLE
  5
37B
330
1F
100
AcDbEntity
  8
1-7_金物
  6
Continuous
 62
     7
370
     9
100
AcDbCircle
 10
4958.769465504331
 20
-2920.527408665256
 30
0.0
 40
12.0
  0
CIRCLE
  5
37C
330
1F
100
AcDbEntity
  8
1-7_金物
  6
Continuous
 62
     7
370
     9
100
AcDbCircle
 10
4958.769465504331
 20
-2920.527408665256
 30
0.0
 40
22.5
  0
CIRCLE
  5
37D
330
1F
100
AcDbEntity
  8
1-7_金物
  6
Continuous
 62
     7
370
     9
100
AcDbCircle
 10
4958.769465504331
 20
580.4725913347424
 30
0.0
 40
12.0
  0
CIRCLE
  5
37E
330
1F
100
AcDbEntity
  8
1-7_金物
  6
Continuous
 62
     7
370
     9
100
AcDbCircle
 10
4958.769465504331
 20
580.4725913347424
 30
0.0
 40
22.5
  0
CIRCLE
  5
37F
330
1F
100
AcDbEntity
  8
1-7_金物
  6
Continuous
 62
     7
370
     9
100
AcDbCircle
 10
4679.769136409367
 20
-1300.527408665258
 30
0.0
 40
12.0
  0
CIRCLE
  5
380
330
1F
100
AcDbEntity
  8
1-7_金物
  6
Continuous
 62
     7
370
     9
100
AcDbCircle
 10
4679.769136409367
 20
2200.472591334747
 30
0.0
 40
12.0
  0
CIRCLE
  5
381
330
1F
100
AcDbEntity
  8
1-7_金物
  6
Continuous
 62
     7
370
     9
100
AcDbCircle
 10
4679.769136409367
 20
-2920.527408665256
 30
0.0
 40
12.0
  0
CIRCLE
  5
382
330
1F
100
AcDbEntity
  8
1-7_金物
  6
Continuous
 62
     7
370
     9
100
AcDbCircle
 10
4679.769136409367
 20
580.4725913347424
 30
0.0
 40
12.0
  0
LINE
  5
383
330
1F
100
AcDbEntity
  8
1-4_枠
  6
Continuous
 62
    92
370
    13
100
AcDbLine
 10
4778.769136409367
 20
2525.972591334746
 30
0.0
 11
4778.769136409367
 21
2710.472591334746
 31
0.0
  0
LINE
  5
384
330
1F
100
AcDbEntity
  8
1-4_枠
  6
Continuous
 62
    92
370
    13
100
AcDbLine
 10
4897.269136409366
 20
2710.472591334746
 30
0.0
 11
4897.269136409366
 21
-3430.527408665256
 31
0.0
  0
LINE
  5
385
330
1F
100
AcDbEntity
  8
1-4_枠
  6
Continuous
 62
    92
370
    13
100
AcDbLine
 10
5020.269136409368
 20
2710.472591334746
 30
0.0
 11
5020.269136409368
 21
-3430.527408665256
 31
0.0
  0
LINE
  5
386
330
1F
100
AcDbEntity
  8
1-4_枠
  6
Continuous
 62
    92
370
    13
100
AcDbLine
 10
4555.269136409368
 20
2525.972591334746
 30
0.0
 11
4555.269136409368
 21
-3430.527408665256
 31
0.0
  0
LINE
  5
387
330
1F
100
AcDbEntity
  8
1-4_枠
  6
Continuous
 62
    92
370
    13
100
AcDbLine
 10
4778.769136409367
 20
2525.972591334746
 30
0.0
 11
4555.269136409368
 21
2525.972591334746
 31
0.0
  0
LINE
  5
388
330
1F
100
AcDbEntity
  8
1-4_枠
  6
Continuous
 62
    92
370
    13
100
AcDbLine
 10
4778.769136409367
 20
2710.472591334746
 30
0.0
 11
5065.269136409368
 21
2710.472591334746
 31
0.0
  0
LINE
  5
389
330
1F
100
AcDbEntity
  8
1-4_枠
  6
Continuous
 62
    92
370
    13
100
AcDbLine
 10
5065.269136409368
 20
-3430.527408665256
 30
0.0
 11
4555.269136409368
 21
-3430.527408665256
 31
0.0
  0
LINE
  5
38A
330
1F
100
AcDbEntity
  8
1-4_枠
  6
Continuous
 62
    92
370
    13
100
AcDbLine
 10
5065.269136409368
 20
2710.472591334746
 30
0.0
 11
5065.269136409368
 21
-3430.527408665256
 31
0.0
  0
LINE
  5
38B
330
1F
100
AcDbEntity
  8
1-4_枠
  6
JWW_DASHED1
 62
   120
370
     5
100
AcDbLine
 10
4853.769136409367
 20
2450.972591334746
 30
0.0
 11
4853.769136409367
 21
2710.472591334746
 31
0.0
  0
LINE
  5
38C
330
1F
100
AcDbEntity
  8
1-4_枠
  6
JWW_DASHED1
 62
   120
370
     5
100
AcDbLine
 10
4816.269136409367
 20
2488.472591334746
 30
0.0
 11
4816.269136409367
 21
2710.472591334746
 31
0.0
  0
LINE
  5
38D
330
1F
100
AcDbEntity
  8
1-4_枠
  6
JWW_DASHED1
 62
   120
370
     5
100
AcDbLine
 10
4816.269136409367
 20
2488.472591334746
 30
0.0
 11
4555.269136409368
 21
2488.472591334746
 31
0.0
  0
LINE
  5
38E
330
1F
100
AcDbEntity
  8
1-4_枠
  6
JWW_DASHED1
 62
   120
370
     5
100
AcDbLine
 10
4853.769136409367
 20
2450.972591334746
 30
0.0
 11
4555.269136409368
 21
2450.972591334746
 31
0.0
  0
LINE
  5
38F
330
1F
100
AcDbEntity
  8
1-B_寸法
  6
Continuous
 62
   120
370
     5
100
AcDbLine
 10
5225.041207714374
 20
-1300.527408665258
 30
0.0
 11
5123.916731865213
 21
-1300.527408665258
 31
0.0
  0
LINE
  5
390
330
1F
100
AcDbEntity
  8
1-B_寸法
  6
Continuous
 62
   120
370
     5
100
AcDbLine
 10
5225.041207714374
 20
-3430.527408665256
 30
0.0
 11
5123.916731865213
 21
-3430.527408665256
 31
0.0
  0
LINE
  5
391
330
1F
100
AcDbEntity
  8
1-B_寸法
  6
Continuous
 62
   120
370
     5
100
AcDbLine
 10
5225.041207714374
 20
2200.472591334747
 30
0.0
 11
5123.916731865213
 21
2200.472591334747
 31
0.0
  0
LINE
  5
392
330
1F
100
AcDbEntity
  8
1-B_寸法
  6
Continuous
 62
   120
370
     5
100
AcDbLine
 10
5225.041207714374
 20
2200.472591334747
 30
0.0
 11
5225.041207714374
 21
2710.472591334746
 31
0.0
  0
LINE
  5
393
330
1F
100
AcDbEntity
  8
1-B_寸法
  6
Continuous
 62
   120
370
     5
100
AcDbLine
 10
5225.041207714374
 20
2710.472591334746
 30
0.0
 11
5123.916731865213
 21
2710.472591334746
 31
0.0
  0
MTEXT
  5
394
330
1F
100
AcDbEntity
  8
1-B_寸法
  6
Continuous
 62
     7
370
   211
100
AcDbMText
 10
4735.269136409368
 20
2973.958441136499
 30
0.0
 40
76.19999999999999
 41
150.0
 46
0.0
 71
     7
 72
     1
  1
{\fＭＳ ゴシック|b0|i0|c128|p49;170}
 73
     1
 44
1.0
  0
LINE
  5
395
330
1F
100
AcDbEntity
  8
1-B_寸法
  6
Continuous
 62
   120
370
     5
100
AcDbLine
 10
5225.041207714374
 20
-2920.527408665256
 30
0.0
 11
5123.916731865213
 21
-2920.527408665256
 31
0.0
  0
LINE
  5
396
330
1F
100
AcDbEntity
  8
1-B_寸法
  6
Continuous
 62
   120
370
     5
100
AcDbLine
 10
5225.041207714374
 20
-2920.527408665256
 30
0.0
 11
5225.041207714374
 21
-3430.527408665256
 31
0.0
  0
LINE
  5
397
330
1F
100
AcDbEntity
  8
1-B_寸法
  6
Continuous
 62
   120
370
     5
100
AcDbLine
 10
5225.041207714374
 20
-1300.527408665258
 30
0.0
 11
5225.041207714374
 21
-2920.527408665256
 31
0.0
  0
MTEXT
  5
398
330
1F
100
AcDbEntity
  8
1-B_寸法
  6
Continuous
 62
     7
370
   211
100
AcDbMText
 10
4565.769136409367
 20
2847.135000143007
 30
0.0
 40
77.15249999999999
 41
202.5
 46
0.0
 71
     7
 72
     1
  1
{\fＭＳ ゴシック|b0|i0|c128|p49;74.5}
 73
     1
 44
1.0
  0
MTEXT
  5
399
330
1F
100
AcDbEntity
  8
1-B_寸法
  6
Continuous
 62
     7
370
   211
100
AcDbMText
 10
4820.769136409367
 20
2847.135000143007
 30
0.0
 40
77.15249999999999
 41
202.5
 46
0.0
 71
     7
 72
     1
  1
{\fＭＳ ゴシック|b0|i0|c128|p49;95.5}
 73
     1
 44
1.0
  0
LINE
  5
39A
330
1F
100
AcDbEntity
  8
1-B_寸法
  6
Continuous
 62
   120
370
     5
100
AcDbLine
 10
5225.041207714374
 20
580.4725913347424
 30
0.0
 11
5123.916731865213
 21
580.4725913347424
 31
0.0
  0
LINE
  5
39B
330
1F
100
AcDbEntity
  8
1-B_寸法
  6
Continuous
 62
   120
370
     5
100
AcDbLine
 10
5225.041207714374
 20
2200.472591334747
 30
0.0
 11
5225.041207714374
 21
580.4725913347424
 31
0.0
  0
LINE
  5
39C
330
1F
100
AcDbEntity
  8
1-B_寸法
  6
Continuous
 62
   120
370
     5
100
AcDbLine
 10
5225.041207714374
 20
580.4725913347424
 30
0.0
 11
5225.041207714374
 21
-1300.527408665258
 31
0.0
  0
MTEXT
  5
39D
330
1F
100
AcDbEntity
  8
1-B_寸法
  6
Continuous
 62
     7
370
   211
100
AcDbMText
 10
4426.677896686672
 20
2466.530123963487
 30
0.0
 40
77.15249999999999
 41
202.5
 46
0.0
 71
     7
 72
     1
  1
{\fＭＳ ゴシック|b0|i0|c128|p49;61.5}
 11
6.123031769111886E-17
 21
1.0
 31
0.0
 73
     1
 44
1.0
  0
MTEXT
  5
39E
330
1F
100
AcDbEntity
  8
1-B_寸法
  6
Continuous
 62
     7
370
   211
100
AcDbMText
 10
5210.041207714374
 20
2364.572591334747
 30
0.0
 40
76.19999999999999
 41
150.0
 46
0.0
 71
     7
 72
     1
  1
{\fＭＳ ゴシック|b0|i0|c128|p49;170}
 11
6.123031769111886E-17
 21
1.0
 31
0.0
 73
     1
 44
1.0
  0
LINE
  5
39F
330
1F
100
AcDbEntity
  8
1-B_寸法
  6
Continuous
 62
   120
370
     5
100
AcDbLine
 10
4441.677896686672
 20
2525.972591334746
 30
0.0
 11
4502.137798637705
 21
2525.972591334746
 31
0.0
  0
LINE
  5
3A0
330
1F
100
AcDbEntity
  8
1-B_寸法
  6
Continuous
 62
   120
370
     5
100
AcDbLine
 10
4441.677896686672
 20
2710.472591334746
 30
0.0
 11
4441.677896686672
 21
2525.972591334746
 31
0.0
  0
MTEXT
  5
3A1
330
1F
100
AcDbEntity
  8
1-B_寸法
  6
Continuous
 62
     7
370
   211
100
AcDbMText
 10
4770.51930095685
 20
1844.695625496879
 30
0.0
 40
74.295
 41
97.5
 46
0.0
 71
     7
 72
     1
  1
{\fＭＳ ゴシック|b0|i0|c128|p49;93}
 73
     1
 44
1.0
  0
LINE
  5
3A2
330
1F
100
AcDbEntity
  8
1-B_寸法
  6
Continuous
 62
   120
370
     5
100
AcDbLine
 10
4555.269136409368
 20
2838.558750143007
 30
0.0
 11
4778.769136409367
 21
2838.558750143007
 31
0.0
  0
LINE
  5
3A3
330
1F
100
AcDbEntity
  8
1-B_寸法
  6
Continuous
 62
   120
370
     5
100
AcDbLine
 10
4778.769136409367
 20
2838.558750143007
 30
0.0
 11
4778.769136409367
 21
2784.494502671263
 31
0.0
  0
MTEXT
  5
3A4
330
1F
100
AcDbEntity
  8
1-B_寸法
  6
Continuous
 62
     7
370
   211
100
AcDbMText
 10
4892.769300956849
 20
1715.609055943974
 30
0.0
 40
77.15249999999999
 41
202.5
 46
0.0
 71
     7
 72
     1
  1
{\fＭＳ ゴシック|b0|i0|c128|p49;35.5}
 73
     1
 44
1.0
  0
LINE
  5
3A5
330
1F
100
AcDbEntity
  8
1-B_寸法
  6
Continuous
 62
   120
370
     5
100
AcDbLine
 10
4778.769136409367
 20
2838.558750143007
 30
0.0
 11
5065.269136409368
 21
2838.558750143007
 31
0.0
  0
LINE
  5
3A6
330
1F
100
AcDbEntity
  8
1-B_寸法
  6
Continuous
 62
   120
370
     5
100
AcDbLine
 10
5065.269136409368
 20
2838.558750143007
 30
0.0
 11
5065.269136409368
 21
2784.494502671263
 31
0.0
  0
MTEXT
  5
3A7
330
1F
100
AcDbEntity
  8
1-B_寸法
  6
Continuous
 62
     7
370
   211
100
AcDbMText
 10
4498.269136409368
 20
1713.960043875614
 30
0.0
 40
77.15249999999999
 41
202.5
 46
0.0
 71
     7
 72
     1
  1
{\fＭＳ ゴシック|b0|i0|c128|p49;41.5}
 73
     1
 44
1.0
  0
LINE
  5
3A8
330
1F
100
AcDbEntity
  8
1-B_寸法
  6
Continuous
 62
   120
370
     5
100
AcDbLine
 10
5065.269136409368
 20
2965.858441136499
 30
0.0
 11
4555.269136409368
 21
2965.858441136499
 31
0.0
  0
LINE
  5
3A9
330
1F
100
AcDbEntity
  8
1-B_寸法
  6
Continuous
 62
   120
370
     5
100
AcDbLine
 10
5065.269136409368
 20
2965.858441136499
 30
0.0
 11
5065.269136409368
 21
2838.558750143007
 31
0.0
  0
LINE
  5
3AA
330
1F
100
AcDbEntity
  8
1-B_寸法
  6
Continuous
 62
   120
370
     5
100
AcDbLine
 10
4555.269136409368
 20
2965.858441136499
 30
0.0
 11
4555.269136409368
 21
2838.558750143007
 31
0.0
  0
MTEXT
  5
3AB
330
1F
100
AcDbEntity
  8
1-B_寸法
  6
Continuous
 62
     7
370
   211
100
AcDbMText
 10
5210.041207714374
 20
1342.68074353716
 30
0.0
 40
76.19999999999999
 41
150.0
 46
0.0
 71
     7
 72
     1
  1
{\fＭＳ ゴシック|b0|i0|c128|p49;540}
 11
6.123031769111886E-17
 21
1.0
 31
0.0
 73
     1
 44
1.0
  0
LINE
  5
3AC
330
1F
100
AcDbEntity
  8
1-B_寸法
  6
Continuous
 62
   120
370
     5
100
AcDbLine
 10
4555.269136409368
 20
-3601.982270617596
 30
0.0
 11
4897.269136409366
 21
-3601.982270617596
 31
0.0
  0
LINE
  5
3AD
330
1F
100
AcDbEntity
  8
1-B_寸法
  6
Continuous
 62
   120
370
     5
100
AcDbLine
 10
4555.269136409368
 20
-3601.982270617596
 30
0.0
 11
4555.269136409368
 21
-3491.63854834906
 31
0.0
  0
LINE
  5
3AE
330
1F
100
AcDbEntity
  8
1-B_寸法
  6
Continuous
 62
   120
370
     5
100
AcDbLine
 10
4897.269136409366
 20
-3601.982270617596
 30
0.0
 11
4897.269136409366
 21
-3491.63854834906
 31
0.0
  0
MTEXT
  5
3AF
330
1F
100
AcDbEntity
  8
1-B_寸法
  6
Continuous
 62
     7
370
   211
100
AcDbMText
 10
5210.041207714374
 20
-516.9274086652553
 30
0.0
 40
76.19999999999999
 41
150.0
 46
0.0
 71
     7
 72
     1
  1
{\fＭＳ ゴシック|b0|i0|c128|p49;627}
 11
6.123031769111886E-17
 21
1.0
 31
0.0
 73
     1
 44
1.0
  0
LINE
  5
3B0
330
1F
100
AcDbEntity
  8
1-B_寸法
  6
Continuous
 62
   120
370
     5
100
AcDbLine
 10
4897.269136409366
 20
-3601.982270617596
 30
0.0
 11
5020.269136409368
 21
-3601.982270617596
 31
0.0
  0
LINE
  5
3B1
330
1F
100
AcDbEntity
  8
1-B_寸法
  6
Continuous
 62
   120
370
     5
100
AcDbLine
 10
5020.269136409368
 20
-3601.982270617596
 30
0.0
 11
5020.269136409368
 21
-3491.63854834906
 31
0.0
  0
MTEXT
  5
3B2
330
1F
100
AcDbEntity
  8
1-B_寸法
  6
Continuous
 62
     7
370
   211
100
AcDbMText
 10
4015.97524636757
 20
-782.2215919239125
 30
0.0
 40
79.24799999999996
 41
779.9999999999995
 46
0.0
 71
     7
 72
     1
  1
{\fＭＳ ゴシック|b0|i0|c128|p49;竪枠寸法：2,047}
 11
6.123031769111886E-17
 21
1.0
 31
0.0
 73
     1
 44
1.0
  0
LINE
  5
3B3
330
1F
100
AcDbEntity
  8
1-B_寸法
  6
Continuous
 62
   120
370
     5
100
AcDbLine
 10
5020.269136409368
 20
-3601.982270617596
 30
0.0
 11
5065.269136409368
 21
-3601.982270617596
 31
0.0
  0
LINE
  5
3B4
330
1F
100
AcDbEntity
  8
1-B_寸法
  6
Continuous
 62
   120
370
     5
100
AcDbLine
 10
5065.269136409368
 20
-3601.982270617596
 30
0.0
 11
5065.269136409368
 21
-3491.63854834906
 31
0.0
  0
LINE
  5
3B5
330
1F
100
AcDbEntity
  8
1-B_寸法
  6
Continuous
 62
   120
370
     5
100
AcDbLine
 10
4555.269136409368
 20
2838.558750143007
 30
0.0
 11
4555.269136409368
 21
2592.967632134058
 31
0.0
  0
LWPOLYLINE
  5
3B6
330
1F
100
AcDbEntity
  8
1-B_寸法
  6
Continuous
 62
     7
370
     9
100
AcDbPolyline
 90
        4
 70
     1
 43
3.0
 10
5226.541207714375
 20
-1300.527408665258
 42
0.4142135623731
 10
5225.041207714374
 20
-1299.027408665258
 42
0.4142135623731
 10
5223.541207714374
 20
-1300.527408665258
 42
0.4142135623731
 10
5225.041207714374
 20
-1302.027408665258
 42
0.4142135623731
  0
LWPOLYLINE
  5
3B7
330
1F
100
AcDbEntity
  8
1-B_寸法
  6
Continuous
 62
     7
370
     9
100
AcDbPolyline
 90
        4
 70
     1
 43
3.0
 10
5226.541207714375
 20
-3430.527408665256
 42
0.4142135623731
 10
5225.041207714374
 20
-3429.027408665256
 42
0.4142135623731
 10
5223.541207714374
 20
-3430.527408665256
 42
0.4142135623731
 10
5225.041207714374
 20
-3432.027408665256
 42
0.4142135623731
  0
LWPOLYLINE
  5
3B8
330
1F
100
AcDbEntity
  8
1-B_寸法
  6
Continuous
 62
     7
370
     9
100
AcDbPolyline
 90
        4
 70
     1
 43
3.0
 10
5226.541207714375
 20
2200.472591334747
 42
0.4142135623731
 10
5225.041207714374
 20
2201.972591334747
 42
0.4142135623731
 10
5223.541207714374
 20
2200.472591334747
 42
0.4142135623731
 10
5225.041207714374
 20
2198.972591334747
 42
0.4142135623731
  0
LWPOLYLINE
  5
3B9
330
1F
100
AcDbEntity
  8
1-B_寸法
  6
Continuous
 62
     7
370
     9
100
AcDbPolyline
 90
        4
 70
     1
 43
3.0
 10
5226.541207714375
 20
2710.472591334746
 42
0.4142135623731
 10
5225.041207714374
 20
2711.972591334746
 42
0.4142135623731
 10
5223.541207714374
 20
2710.472591334746
 42
0.4142135623731
 10
5225.041207714374
 20
2708.972591334747
 42
0.4142135623731
  0
LWPOLYLINE
  5
3BA
330
1F
100
AcDbEntity
  8
1-B_寸法
  6
Continuous
 62
     7
370
     9
100
AcDbPolyline
 90
        4
 70
     1
 43
3.0
 10
5226.541207714375
 20
-2920.527408665256
 42
0.4142135623731
 10
5225.041207714374
 20
-2919.027408665256
 42
0.4142135623731
 10
5223.541207714374
 20
-2920.527408665256
 42
0.4142135623731
 10
5225.041207714374
 20
-2922.027408665256
 42
0.4142135623731
  0
LWPOLYLINE
  5
3BB
330
1F
100
AcDbEntity
  8
1-B_寸法
  6
Continuous
 62
     7
370
     9
100
AcDbPolyline
 90
        4
 70
     1
 43
3.0
 10
5226.541207714375
 20
580.4725913347424
 42
0.4142135623731
 10
5225.041207714374
 20
581.9725913347424
 42
0.4142135623731
 10
5223.541207714374
 20
580.4725913347424
 42
0.4142135623731
 10
5225.041207714374
 20
578.9725913347424
 42
0.4142135623731
  0
LWPOLYLINE
  5
3BC
330
1F
100
AcDbEntity
  8
1-B_寸法
  6
Continuous
 62
     7
370
     9
100
AcDbPolyline
 90
        4
 70
     1
 43
3.0
 10
4443.177896686673
 20
2525.972591334746
 42
0.4142135623731
 10
4441.677896686672
 20
2527.472591334746
 42
0.4142135623731
 10
4440.177896686672
 20
2525.972591334746
 42
0.4142135623731
 10
4441.677896686672
 20
2524.472591334746
 42
0.4142135623731
  0
LWPOLYLINE
  5
3BD
330
1F
100
AcDbEntity
  8
1-B_寸法
  6
Continuous
 62
     7
370
     9
100
AcDbPolyline
 90
        4
 70
     1
 43
3.0
 10
4443.177896686673
 20
2710.472591334746
 42
0.4142135623731
 10
4441.677896686672
 20
2711.972591334746
 42
0.4142135623731
 10
4440.177896686672
 20
2710.472591334746
 42
0.4142135623731
 10
4441.677896686672
 20
2708.972591334747
 42
0.4142135623731
  0
LWPOLYLINE
  5
3BE
330
1F
100
AcDbEntity
  8
1-B_寸法
  6
Continuous
 62
     7
370
     9
100
AcDbPolyline
 90
        4
 70
     1
 43
3.0
 10
4556.769136409368
 20
2838.558750143007
 42
0.4142135623731
 10
4555.269136409368
 20
2840.058750143007
 42
0.4142135623731
 10
4553.769136409368
 20
2838.558750143007
 42
0.4142135623731
 10
4555.269136409368
 20
2837.058750143007
 42
0.4142135623731
  0
LWPOLYLINE
  5
3BF
330
1F
100
AcDbEntity
  8
1-B_寸法
  6
Continuous
 62
     7
370
     9
100
AcDbPolyline
 90
        4
 70
     1
 43
3.0
 10
4780.269136409367
 20
2838.558750143007
 42
0.4142135623731
 10
4778.769136409367
 20
2840.058750143007
 42
0.4142135623731
 10
4777.269136409366
 20
2838.558750143007
 42
0.4142135623731
 10
4778.769136409367
 20
2837.058750143007
 42
0.4142135623731
  0
LWPOLYLINE
  5
3C0
330
1F
100
AcDbEntity
  8
1-B_寸法
  6
Continuous
 62
     7
370
     9
100
AcDbPolyline
 90
        4
 70
     1
 43
3.0
 10
5066.769136409368
 20
2838.558750143007
 42
0.4142135623731
 10
5065.269136409368
 20
2840.058750143007
 42
0.4142135623731
 10
5063.769136409368
 20
2838.558750143007
 42
0.4142135623731
 10
5065.269136409368
 20
2837.058750143007
 42
0.4142135623731
  0
LWPOLYLINE
  5
3C1
330
1F
100
AcDbEntity
  8
1-B_寸法
  6
Continuous
 62
     7
370
     9
100
AcDbPolyline
 90
        4
 70
     1
 43
3.0
 10
5066.769136409368
 20
2965.858441136499
 42
0.4142135623731
 10
5065.269136409368
 20
2967.358441136499
 42
0.4142135623731
 10
5063.769136409368
 20
2965.858441136499
 42
0.4142135623731
 10
5065.269136409368
 20
2964.358441136499
 42
0.4142135623731
  0
LWPOLYLINE
  5
3C2
330
1F
100
AcDbEntity
  8
1-B_寸法
  6
Continuous
 62
     7
370
     9
100
AcDbPolyline
 90
        4
 70
     1
 43
3.0
 10
4556.769136409368
 20
2965.858441136499
 42
0.4142135623731
 10
4555.269136409368
 20
2967.358441136499
 42
0.4142135623731
 10
4553.769136409368
 20
2965.858441136499
 42
0.4142135623731
 10
4555.269136409368
 20
2964.358441136499
 42
0.4142135623731
  0
LWPOLYLINE
  5
3C3
330
1F
100
AcDbEntity
  8
1-B_寸法
  6
Continuous
 62
     7
370
     9
100
AcDbPolyline
 90
        4
 70
     1
 43
3.0
 10
4556.769136409368
 20
-3601.982270617596
 42
0.4142135623731
 10
4555.269136409368
 20
-3600.482270617596
 42
0.4142135623731
 10
4553.769136409368
 20
-3601.982270617596
 42
0.4142135623731
 10
4555.269136409368
 20
-3603.482270617596
 42
0.4142135623731
  0
LWPOLYLINE
  5
3C4
330
1F
100
AcDbEntity
  8
1-B_寸法
  6
Continuous
 62
     7
370
     9
100
AcDbPolyline
 90
        4
 70
     1
 43
3.0
 10
4898.769136409367
 20
-3601.982270617596
 42
0.4142135623731
 10
4897.269136409366
 20
-3600.482270617596
 42
0.4142135623731
 10
4895.769136409366
 20
-3601.982270617596
 42
0.4142135623731
 10
4897.269136409366
 20
-3603.482270617596
 42
0.4142135623731
  0
LWPOLYLINE
  5
3C5
330
1F
100
AcDbEntity
  8
1-B_寸法
  6
Continuous
 62
     7
370
     9
100
AcDbPolyline
 90
        4
 70
     1
 43
3.0
 10
5021.769136409368
 20
-3601.982270617596
 42
0.4142135623731
 10
5020.269136409368
 20
-3600.482270617596
 42
0.4142135623731
 10
5018.769136409368
 20
-3601.982270617596
 42
0.4142135623731
 10
5020.269136409368
 20
-3603.482270617596
 42
0.4142135623731
  0
LWPOLYLINE
  5
3C6
330
1F
100
AcDbEntity
  8
1-B_寸法
  6
Continuous
 62
     7
370
     9
100
AcDbPolyline
 90
        4
 70
     1
 43
3.0
 10
5066.769136409368
 20
-3601.982270617596
 42
0.4142135623731
 10
5065.269136409368
 20
-3600.482270617596
 42
0.4142135623731
 10
5063.769136409368
 20
-3601.982270617596
 42
0.4142135623731
 10
5065.269136409368
 20
-3603.482270617596
 42
0.4142135623731
  0
MTEXT
  5
3C7
330
1F
100
AcDbEntity
  8
1-B_寸法
  6
Continuous
 62
     7
370
   211
100
AcDbMText
 10
5210.041207714374
 20
-2196.285303821382
 30
0.0
 40
76.19999999999999
 41
150.0
 46
0.0
 71
     7
 72
     1
  1
{\fＭＳ ゴシック|b0|i0|c128|p49;540}
 11
6.123031769111886E-17
 21
1.0
 31
0.0
 73
     1
 44
1.0
  0
MTEXT
  5
3C8
330
1F
100
AcDbEntity
  8
1-B_寸法
  6
Continuous
 62
     7
370
   211
100
AcDbMText
 10
4221.326571527119
 20
-2323.462908665256
 30
0.0
 40
79.629
 41
1567.5
 46
0.0
 71
     7
 72
     1
  1
{\fＭＳ ゴシック|b0|i0|c128|p49;ｽﾄﾗｲｸｾﾝﾀｰ(鍵加工上部時)：1,264}
 11
6.123031769111886E-17
 21
1.0
 31
0.0
 73
     1
 44
1.0
  0
LINE
  5
3C9
330
1F
100
AcDbEntity
  8
1-B_寸法
  6
Continuous
 62
   120
370
     5
100
AcDbLine
 10
4958.769465504331
 20
1837.548125496879
 30
0.0
 11
4958.769465504331
 21
1952.108805304338
 31
0.0
  0
LINE
  5
3CA
330
1F
100
AcDbEntity
  8
1-B_寸法
  6
Continuous
 62
   120
370
     5
100
AcDbLine
 10
4958.769465504331
 20
1837.548125496879
 30
0.0
 11
5065.269136409368
 21
1837.548125496879
 31
0.0
  0
LINE
  5
3CB
330
1F
100
AcDbEntity
  8
1-B_寸法
  6
Continuous
 62
   120
370
     5
100
AcDbLine
 10
5065.269136409368
 20
1837.548125496879
 30
0.0
 11
5065.269136409368
 21
1952.108805304338
 31
0.0
  0
LINE
  5
3CC
330
1F
100
AcDbEntity
  8
1-B_寸法
  6
Continuous
 62
   120
370
     5
100
AcDbLine
 10
4555.269136409368
 20
1837.548125496879
 30
0.0
 11
4679.769136409367
 21
1837.548125496879
 31
0.0
  0
LINE
  5
3CD
330
1F
100
AcDbEntity
  8
1-B_寸法
  6
Continuous
 62
   120
370
     5
100
AcDbLine
 10
4555.269136409368
 20
1837.548125496879
 30
0.0
 11
4555.269136409368
 21
1952.108805304338
 31
0.0
  0
LINE
  5
3CE
330
1F
100
AcDbEntity
  8
1-B_寸法
  6
Continuous
 62
   120
370
     5
100
AcDbLine
 10
4679.769136409367
 20
1837.548125496879
 30
0.0
 11
4679.769136409367
 21
1952.108805304338
 31
0.0
  0
LINE
  5
3CF
330
1F
100
AcDbEntity
  8
1-B_寸法
  6
Continuous
 62
   120
370
     5
100
AcDbLine
 10
4679.769136409367
 20
1837.548125496879
 30
0.0
 11
4958.769465504331
 21
1837.548125496879
 31
0.0
  0
MTEXT
  5
3D0
330
1F
100
AcDbEntity
  8
1-B_寸法
  6
Continuous
 62
     7
370
   211
100
AcDbMText
 10
5210.041207714374
 20
-3244.233271854933
 30
0.0
 40
76.19999999999999
 41
150.0
 46
0.0
 71
     7
 72
     1
  1
{\fＭＳ ゴシック|b0|i0|c128|p49;170}
 11
6.123031769111886E-17
 21
1.0
 31
0.0
 73
     1
 44
1.0
  0
LWPOLYLINE
  5
3D1
330
1F
100
AcDbEntity
  8
1-B_寸法
  6
Continuous
 62
     7
370
     9
100
AcDbPolyline
 90
        4
 70
     1
 43
3.0
 10
4960.269465504331
 20
1837.548125496879
 42
0.4142135623731
 10
4958.769465504331
 20
1839.048125496879
 42
0.4142135623731
 10
4957.269465504331
 20
1837.548125496879
 42
0.4142135623731
 10
4958.769465504331
 20
1836.048125496879
 42
0.4142135623731
  0
LWPOLYLINE
  5
3D2
330
1F
100
AcDbEntity
  8
1-B_寸法
  6
Continuous
 62
     7
370
     9
100
AcDbPolyline
 90
        4
 70
     1
 43
3.0
 10
5066.769136409368
 20
1837.548125496879
 42
0.4142135623731
 10
5065.269136409368
 20
1839.048125496879
 42
0.4142135623731
 10
5063.769136409368
 20
1837.548125496879
 42
0.4142135623731
 10
5065.269136409368
 20
1836.048125496879
 42
0.4142135623731
  0
LWPOLYLINE
  5
3D3
330
1F
100
AcDbEntity
  8
1-B_寸法
  6
Continuous
 62
     7
370
     9
100
AcDbPolyline
 90
        4
 70
     1
 43
3.0
 10
4556.769136409368
 20
1837.548125496879
 42
0.4142135623731
 10
4555.269136409368
 20
1839.048125496879
 42
0.4142135623731
 10
4553.769136409368
 20
1837.548125496879
 42
0.4142135623731
 10
4555.269136409368
 20
1836.048125496879
 42
0.4142135623731
  0
LWPOLYLINE
  5
3D4
330
1F
100
AcDbEntity
  8
1-B_寸法
  6
Continuous
 62
     7
370
     9
100
AcDbPolyline
 90
        4
 70
     1
 43
3.0
 10
4681.269136409368
 20
1837.548125496879
 42
0.4142135623731
 10
4679.769136409367
 20
1839.048125496879
 42
0.4142135623731
 10
4678.269136409367
 20
1837.548125496879
 42
0.4142135623731
 10
4679.769136409367
 20
1836.048125496879
 42
0.4142135623731
  0
LINE
  5
3D5
330
1F
100
AcDbEntity
  8
1-4_枠
  6
Continuous
 62
    92
370
    13
100
AcDbLine
 10
4897.269136409366
 20
3124.926256477051
 30
0.0
 11
4897.269136409366
 21
3142.926256477051
 31
0.0
  0
LINE
  5
3D6
330
1F
100
AcDbEntity
  8
1-4_枠
  6
Continuous
 62
    92
370
    13
100
AcDbLine
 10
4897.269136409366
 20
3142.926256477051
 30
0.0
 11
5020.269136409366
 21
3142.926256477051
 31
0.0
  0
LINE
  5
3D7
330
1F
100
AcDbEntity
  8
1-4_枠
  6
Continuous
 62
    92
370
    13
100
AcDbLine
 10
5020.269136409366
 20
3124.926256477051
 30
0.0
 11
5020.269136409366
 21
3142.926256477051
 31
0.0
  0
LINE
  5
3D8
330
1F
100
AcDbEntity
  8
1-4_枠
  6
Continuous
 62
    92
370
    13
100
AcDbLine
 10
4555.269136409368
 20
3133.411537851288
 30
0.0
 11
4555.269136409368
 21
3214.926182245103
 31
0.0
  0
LINE
  5
3D9
330
1F
100
AcDbEntity
  8
1-4_枠
  6
Continuous
 62
    92
370
    13
100
AcDbLine
 10
4563.754417783605
 20
3124.926256477051
 30
0.0
 11
4555.269136409368
 21
3133.411537851288
 31
0.0
  0
LINE
  5
3DA
330
1F
100
AcDbEntity
  8
1-4_枠
  6
Continuous
 62
    92
370
    13
100
AcDbLine
 10
5065.269136409368
 20
3133.411537851288
 30
0.0
 11
5065.269136409368
 21
3214.926182245103
 31
0.0
  0
LINE
  5
3DB
330
1F
100
AcDbEntity
  8
1-4_枠
  6
Continuous
 62
    92
370
    13
100
AcDbLine
 10
5065.269136409368
 20
3133.411537851288
 30
0.0
 11
5056.783855035131
 21
3124.926256477051
 31
0.0
  0
LINE
  5
3DC
330
1F
100
AcDbEntity
  8
1-4_枠
  6
Continuous
 62
    92
370
    13
100
AcDbLine
 10
5056.783855035131
 20
3124.926256477051
 30
0.0
 11
5020.269136409366
 21
3124.926256477051
 31
0.0
  0
LINE
  5
3DD
330
1F
100
AcDbEntity
  8
1-4_枠
  6
Continuous
 62
    92
370
    13
100
AcDbLine
 10
4563.754417783605
 20
3124.926256477051
 30
0.0
 11
4897.269136409366
 21
3124.926256477051
 31
0.0
  0
LINE
  5
3DE
330
1F
100
AcDbEntity
  8
1-4_枠
  6
Continuous
 62
    92
370
    13
100
AcDbLine
 10
5065.269136409368
 20
3214.926182245103
 30
0.0
 11
4555.269136409368
 21
3214.926182245103
 31
0.0
  0
LINE
  5
3DF
330
1F
100
AcDbEntity
  8
1-C_ハッチ
  6
Continuous
 62
     7
370
     9
100
AcDbLine
 10
4966.26771088639
 20
3143.558314555189
 30
0.0
 11
4966.899768964528
 21
3142.926256477051
 31
0.0
  0
LINE
  5
3E0
330
1F
100
AcDbEntity
  8
1-C_ハッチ
  6
Continuous
 62
   120
370
     5
100
AcDbLine
 10
4754.120947998788
 20
3214.926182245103
 30
0.0
 11
4844.120873766841
 21
3124.926256477051
 31
0.0
  0
LINE
  5
3E1
330
1F
100
AcDbEntity
  8
1-C_ハッチ
  6
Continuous
 62
   120
370
     5
100
AcDbLine
 10
4775.334211433123
 20
3214.926182245103
 30
0.0
 11
4865.334137201173
 21
3124.926256477051
 31
0.0
  0
LINE
  5
3E2
330
1F
100
AcDbEntity
  8
1-C_ハッチ
  6
Continuous
 62
   120
370
     5
100
AcDbLine
 10
4966.252468862913
 20
3214.926182245103
 30
0.0
 11
5056.252394630967
 21
3124.926256477051
 31
0.0
  0
LINE
  5
3E3
330
1F
100
AcDbEntity
  8
1-C_ハッチ
  6
Continuous
 62
   120
370
     5
100
AcDbLine
 10
4902.613049719647
 20
3214.926182245103
 30
0.0
 11
4974.612975487703
 21
3142.926256477051
 31
0.0
  0
LINE
  5
3E4
330
1F
100
AcDbEntity
  8
1-C_ハッチ
  6
Continuous
 62
   120
370
     5
100
AcDbLine
 10
4860.186894010716
 20
3214.926182245103
 30
0.0
 11
4932.186819778772
 21
3142.926256477051
 31
0.0
  0
LINE
  5
3E5
330
1F
100
AcDbEntity
  8
1-C_ハッチ
  6
Continuous
 62
   120
370
     5
100
AcDbLine
 10
4838.973630576385
 20
3214.926182245103
 30
0.0
 11
4910.973556344437
 21
3142.926256477051
 31
0.0
  0
LINE
  5
3E6
330
1F
100
AcDbEntity
  8
1-C_ハッチ
  6
Continuous
 62
   120
370
     5
100
AcDbLine
 10
4923.826313153982
 20
3214.926182245103
 30
0.0
 11
4995.826238922038
 21
3142.926256477051
 31
0.0
  0
LINE
  5
3E7
330
1F
100
AcDbEntity
  8
1-C_ハッチ
  6
Continuous
 62
   120
370
     5
100
AcDbLine
 10
4732.908055724191
 20
3214.926182245103
 30
0.0
 11
4822.907981492242
 21
3124.926256477051
 31
0.0
  0
LINE
  5
3E8
330
1F
100
AcDbEntity
  8
1-C_ハッチ
  6
Continuous
 62
   120
370
     5
100
AcDbLine
 10
4711.694792289857
 20
3214.926182245103
 30
0.0
 11
4801.69471805791
 21
3124.926256477051
 31
0.0
  0
LINE
  5
3E9
330
1F
100
AcDbEntity
  8
1-C_ハッチ
  6
Continuous
 62
   120
370
     5
100
AcDbLine
 10
4690.481528855526
 20
3214.926182245103
 30
0.0
 11
4780.481454623579
 21
3124.926256477051
 31
0.0
  0
LINE
  5
3EA
330
1F
100
AcDbEntity
  8
1-C_ハッチ
  6
Continuous
 62
   120
370
     5
100
AcDbLine
 10
4881.399786285317
 20
3214.926182245103
 30
0.0
 11
4953.399712053369
 21
3142.926256477051
 31
0.0
  0
LINE
  5
3EB
330
1F
100
AcDbEntity
  8
1-C_ハッチ
  6
Continuous
 62
   120
370
     5
100
AcDbLine
 10
4796.547474867454
 20
3214.926182245103
 30
0.0
 11
4886.547400635507
 21
3124.926256477051
 31
0.0
  0
LINE
  5
3EC
330
1F
100
AcDbEntity
  8
1-C_ハッチ
  6
Continuous
 62
   120
370
     5
100
AcDbLine
 10
4669.268636580926
 20
3214.926182245103
 30
0.0
 11
4759.268562348979
 21
3124.926256477051
 31
0.0
  0
LINE
  5
3ED
330
1F
100
AcDbEntity
  8
1-C_ハッチ
  6
Continuous
 62
   120
370
     5
100
AcDbLine
 10
4648.055744306329
 20
3214.926182245103
 30
0.0
 11
4738.055670074379
 21
3124.926256477051
 31
0.0
  0
LINE
  5
3EE
330
1F
100
AcDbEntity
  8
1-C_ハッチ
  6
Continuous
 62
   120
370
     5
100
AcDbLine
 10
4626.842852031729
 20
3214.926182245103
 30
0.0
 11
4716.842777799779
 21
3124.926256477051
 31
0.0
  0
LINE
  5
3EF
330
1F
100
AcDbEntity
  8
1-C_ハッチ
  6
Continuous
 62
   120
370
     5
100
AcDbLine
 10
4945.039205428582
 20
3214.926182245103
 30
0.0
 11
5017.039131196635
 21
3142.926256477051
 31
0.0
  0
LINE
  5
3F0
330
1F
100
AcDbEntity
  8
1-C_ハッチ
  6
Continuous
 62
   120
370
     5
100
AcDbLine
 10
5020.269136409366
 20
3139.696251264319
 30
0.0
 11
5035.039131196635
 21
3124.926256477051
 31
0.0
  0
LINE
  5
3F1
330
1F
100
AcDbEntity
  8
1-C_ハッチ
  6
Continuous
 62
   120
370
     5
100
AcDbLine
 10
4817.760367142054
 20
3214.926182245103
 30
0.0
 11
4897.269136409366
 21
3135.417412977789
 31
0.0
  0
LINE
  5
3F2
330
1F
100
AcDbEntity
  8
1-C_ハッチ
  6
Continuous
 62
   120
370
     5
100
AcDbLine
 10
5051.105522600248
 20
3214.926182245103
 30
0.0
 11
5065.269136409368
 21
3200.762568435983
 31
0.0
  0
LINE
  5
3F3
330
1F
100
AcDbEntity
  8
1-C_ハッチ
  6
Continuous
 62
   120
370
     5
100
AcDbLine
 10
5029.892259165913
 20
3214.926182245103
 30
0.0
 11
5065.269136409368
 21
3179.54930500165
 31
0.0
  0
LINE
  5
3F4
330
1F
100
AcDbEntity
  8
1-C_ハッチ
  6
Continuous
 62
   120
370
     5
100
AcDbLine
 10
5008.678995731579
 20
3214.926182245103
 30
0.0
 11
5065.269136409368
 21
3158.336041567317
 31
0.0
  0
LINE
  5
3F5
330
1F
100
AcDbEntity
  8
1-C_ハッチ
  6
Continuous
 62
   120
370
     5
100
AcDbLine
 10
4987.465732297248
 20
3214.926182245103
 30
0.0
 11
5065.269136409368
 21
3137.122778132984
 31
0.0
  0
LINE
  5
3F6
330
1F
100
AcDbEntity
  8
1-C_ハッチ
  6
Continuous
 62
   120
370
     5
100
AcDbLine
 10
4695.629885525182
 20
3124.926256477051
 30
0.0
 11
4605.629959757129
 21
3214.926182245103
 31
0.0
  0
LINE
  5
3F7
330
1F
100
AcDbEntity
  8
1-C_ハッチ
  6
Continuous
 62
   120
370
     5
100
AcDbLine
 10
4584.417067482531
 20
3214.926182245103
 30
0.0
 11
4674.416993250582
 21
3124.926256477051
 31
0.0
  0
LINE
  5
3F8
330
1F
100
AcDbEntity
  8
1-C_ハッチ
  6
Continuous
 62
   120
370
     5
100
AcDbLine
 10
4563.204175207929
 20
3214.926182245103
 30
0.0
 11
4653.204100975985
 21
3124.926256477051
 31
0.0
  0
LINE
  5
3F9
330
1F
100
AcDbEntity
  8
1-C_ハッチ
  6
Continuous
 62
   120
370
     5
100
AcDbLine
 10
4555.269136409368
 20
3201.648328769068
 30
0.0
 11
4631.991208701382
 21
3124.926256477051
 31
0.0
  0
LINE
  5
3FA
330
1F
100
AcDbEntity
  8
1-C_ハッチ
  6
Continuous
 62
   120
370
     5
100
AcDbLine
 10
4555.269136409368
 20
3180.435436494467
 30
0.0
 11
4610.778316426781
 21
3124.926256477051
 31
0.0
  0
LINE
  5
3FB
330
1F
100
AcDbEntity
  8
1-C_ハッチ
  6
Continuous
 62
   120
370
     5
100
AcDbLine
 10
4589.565424152185
 20
3124.926256477051
 30
0.0
 11
4555.269136409368
 21
3159.222544219868
 31
0.0
  0
LWPOLYLINE
  5
3FC
330
1F
100
AcDbEntity
  8
1-B_寸法
  6
Continuous
 62
     7
370
     9
100
AcDbPolyline
 90
        4
 70
     1
 43
3.0
 10
4443.177896686673
 20
-3430.527408665256
 42
0.4142135623731
 10
4441.677896686672
 20
-3429.027408665256
 42
0.4142135623731
 10
4440.177896686672
 20
-3430.527408665256
 42
0.4142135623731
 10
4441.677896686672
 20
-3432.027408665256
 42
0.4142135623731
  0
LINE
  5
3FD
330
1F
100
AcDbEntity
  8
1-7_金物
  6
Continuous
 62
     7
370
     9
100
AcDbLine
 10
4985.705960483386
 20
-1462.457579838443
 30
0.0
 11
4985.705960483386
 21
-1775.101081703594
 31
0.0
  0
ARC
  5
3FE
330
1F
100
AcDbEntity
  8
1-7_金物
  6
Continuous
 62
     7
370
     9
100
AcDbCircle
 10
4958.705960483385
 20
-1774.527408665258
 30
0.0
 40
27.0
100
AcDbArc
 50
269.9999999999999
 51
359.9999999999999
  0
ARC
  5
3FF
330
1F
100
AcDbEntity
  8
1-7_金物
  6
Continuous
 62
     7
370
     9
100
AcDbCircle
 10
4958.705960483385
 20
-1774.527408665258
 30
0.0
 40
27.0
100
AcDbArc
 50
180.0
 51
270.0
  0
LINE
  5
400
330
1F
100
AcDbEntity
  8
1-7_金物
  6
Continuous
 62
     7
370
     9
100
AcDbLine
 10
4931.705960483385
 20
-1460.339650299709
 30
0.0
 11
4931.705960483385
 21
-1775.277302713714
 31
0.0
  0
ARC
  5
401
330
1F
100
AcDbEntity
  8
1-7_金物
  6
Continuous
 62
     7
370
     9
100
AcDbCircle
 10
4958.705960483385
 20
-1720.527408665257
 30
0.0
 40
27.0
100
AcDbArc
 50
180.0
 51
270.0
  0
ARC
  5
402
330
1F
100
AcDbEntity
  8
1-7_金物
  6
Continuous
 62
     7
370
     9
100
AcDbCircle
 10
4958.705960483385
 20
-1720.527408665257
 30
0.0
 40
27.0
100
AcDbArc
 50
269.9999999999999
 51
359.9999999999999
  0
ARC
  5
403
330
1F
100
AcDbEntity
  8
1-7_金物
  6
Continuous
 62
     7
370
     9
100
AcDbCircle
 10
4958.705960483385
 20
-1516.527408665257
 30
0.0
 40
27.0
100
AcDbArc
 50
90.0
 51
180.0
  0
ARC
  5
404
330
1F
100
AcDbEntity
  8
1-7_金物
  6
Continuous
 62
     7
370
     9
100
AcDbCircle
 10
4958.705960483385
 20
-1516.527408665257
 30
0.0
 40
27.0
100
AcDbArc
 50
359.9999999999999
 51
89.99999999999994
  0
ARC
  5
405
330
1F
100
AcDbEntity
  8
1-7_金物
  6
Continuous
 62
     7
370
     9
100
AcDbCircle
 10
4958.705960483385
 20
-1462.527408665259
 30
0.0
 40
27.0
100
AcDbArc
 50
359.9999999999999
 51
89.99999999999994
  0
ARC
  5
406
330
1F
100
AcDbEntity
  8
1-7_金物
  6
Continuous
 62
     7
370
     9
100
AcDbCircle
 10
4958.705960483385
 20
-1462.527408665259
 30
0.0
 40
27.0
100
AcDbArc
 50
90.0
 51
180.0
  0
LINE
  5
407
330
1F
100
AcDbEntity
  8
1-1_通り芯
  6
JWW_CENTER1
 62
   120
370
     5
100
AcDbLine
 10
5012.012974388793
 20
-1618.527408665257
 30
0.0
 11
4913.809640799815
 21
-1618.527408665257
 31
0.0
  0
LINE
  5
408
330
1F
100
AcDbEntity
  8
1-B_寸法
  6
Continuous
 62
   120
370
     5
100
AcDbLine
 10
4441.677896686672
 20
-3430.527408665256
 30
0.0
 11
4441.677896686672
 21
-1618.527408665257
 31
0.0
  0
LINE
  5
409
330
1F
100
AcDbEntity
  8
1-B_寸法
  6
Continuous
 62
   120
370
     5
100
AcDbLine
 10
4441.677896686672
 20
-1618.527408665257
 30
0.0
 11
4875.866233719511
 21
-1618.527408665257
 31
0.0
  0
LWPOLYLINE
  5
40A
330
1F
100
AcDbEntity
  8
1-B_寸法
  6
Continuous
 62
     7
370
     9
100
AcDbPolyline
 90
        4
 70
     1
 43
3.0
 10
4443.177896686673
 20
-1618.527408665257
 42
0.4142135623731
 10
4441.677896686672
 20
-1617.027408665257
 42
0.4142135623731
 10
4440.177896686672
 20
-1618.527408665257
 42
0.4142135623731
 10
4441.677896686672
 20
-1620.027408665257
 42
0.4142135623731
  0
LINE
  5
40B
330
1F
100
AcDbEntity
  8
1-B_寸法
  6
Continuous
 62
   120
370
     5
100
AcDbLine
 10
4030.975246367566
 20
-3430.527408665256
 30
0.0
 11
4502.137798637705
 21
-3430.527408665256
 31
0.0
  0
LINE
  5
40C
330
1F
100
AcDbEntity
  8
1-B_寸法
  6
Continuous
 62
   120
370
     5
100
AcDbLine
 10
4030.975246367566
 20
2710.472591334746
 30
0.0
 11
4736.466509065244
 21
2710.472591334746
 31
0.0
  0
LINE
  5
40D
330
1F
100
AcDbEntity
  8
1-B_寸法
  6
Continuous
 62
   120
370
     5
100
AcDbLine
 10
4030.975246367566
 20
2710.472591334746
 30
0.0
 11
4030.975246367566
 21
-3430.527408665256
 31
0.0
  0
MTEXT
  5
40E
330
1F
100
AcDbEntity
  8
1-B_寸法
  6
Continuous
 62
     7
370
   211
100
AcDbMText
 10
4426.677896686674
 20
-3260.976515808113
 30
0.0
 40
79.60178571428573
 41
1462.5
 46
0.0
 71
     7
 72
     1
  1
{\fＭＳ ゴシック|b0|i0|c128|p49;ｽﾄﾗｲｸｾﾝﾀｰ(鍵加工下部時)：604}
 11
6.123031769111886E-17
 21
1.0
 31
0.0
 73
     1
 44
1.0
  0
LWPOLYLINE
  5
40F
330
1F
100
AcDbEntity
  8
1-B_寸法
  6
Continuous
 62
     7
370
     9
100
AcDbPolyline
 90
        4
 70
     1
 43
3.0
 10
4032.475246367566
 20
-3430.527408665256
 42
0.4142135623731
 10
4030.975246367566
 20
-3429.027408665256
 42
0.4142135623731
 10
4029.475246367566
 20
-3430.527408665256
 42
0.4142135623731
 10
4030.975246367566
 20
-3432.027408665256
 42
0.4142135623731
  0
LWPOLYLINE
  5
410
330
1F
100
AcDbEntity
  8
1-B_寸法
  6
Continuous
 62
     7
370
     9
100
AcDbPolyline
 90
        4
 70
     1
 43
3.0
 10
4032.475246367566
 20
2710.472591334746
 42
0.4142135623731
 10
4030.975246367566
 20
2711.972591334746
 42
0.4142135623731
 10
4029.475246367566
 20
2710.472591334746
 42
0.4142135623731
 10
4030.975246367566
 20
2708.972591334747
 42
0.4142135623731
  0
LINE
  5
411
330
1F
100
AcDbEntity
  8
1-7_金物
  6
Continuous
 62
     7
370
     9
100
AcDbLine
 10
4985.705960483386
 20
517.5424201615581
 30
0.0
 11
4985.705960483386
 21
204.8989182964067
 31
0.0
  0
ARC
  5
412
330
1F
100
AcDbEntity
  8
1-7_金物
  6
Continuous
 62
     7
370
     9
100
AcDbCircle
 10
4958.705960483385
 20
205.4725913347437
 30
0.0
 40
27.0
100
AcDbArc
 50
269.9999999999999
 51
359.9999999999999
  0
ARC
  5
413
330
1F
100
AcDbEntity
  8
1-7_金物
  6
Continuous
 62
     7
370
     9
100
AcDbCircle
 10
4958.705960483385
 20
205.4725913347437
 30
0.0
 40
27.0
100
AcDbArc
 50
180.0
 51
270.0
  0
LINE
  5
414
330
1F
100
AcDbEntity
  8
1-7_金物
  6
Continuous
 62
     7
370
     9
100
AcDbLine
 10
4931.705960483385
 20
519.6603497002923
 30
0.0
 11
4931.705960483385
 21
204.7226972862863
 31
0.0
  0
ARC
  5
415
330
1F
100
AcDbEntity
  8
1-7_金物
  6
Continuous
 62
     7
370
     9
100
AcDbCircle
 10
4958.705960483385
 20
259.472591334744
 30
0.0
 40
27.0
100
AcDbArc
 50
180.0
 51
270.0
  0
ARC
  5
416
330
1F
100
AcDbEntity
  8
1-7_金物
  6
Continuous
 62
     7
370
     9
100
AcDbCircle
 10
4958.705960483385
 20
259.472591334744
 30
0.0
 40
27.0
100
AcDbArc
 50
269.9999999999999
 51
359.9999999999999
  0
ARC
  5
417
330
1F
100
AcDbEntity
  8
1-7_金物
  6
Continuous
 62
     7
370
     9
100
AcDbCircle
 10
4958.705960483385
 20
463.4725913347431
 30
0.0
 40
27.0
100
AcDbArc
 50
90.0
 51
180.0
  0
ARC
  5
418
330
1F
100
AcDbEntity
  8
1-7_金物
  6
Continuous
 62
     7
370
     9
100
AcDbCircle
 10
4958.705960483385
 20
463.4725913347431
 30
0.0
 40
27.0
100
AcDbArc
 50
359.9999999999999
 51
89.99999999999994
  0
ARC
  5
419
330
1F
100
AcDbEntity
  8
1-7_金物
  6
Continuous
 62
     7
370
     9
100
AcDbCircle
 10
4958.705960483385
 20
517.4725913347438
 30
0.0
 40
27.0
100
AcDbArc
 50
359.9999999999999
 51
89.99999999999994
  0
ARC
  5
41A
330
1F
100
AcDbEntity
  8
1-7_金物
  6
Continuous
 62
     7
370
     9
100
AcDbCircle
 10
4958.705960483385
 20
517.4725913347438
 30
0.0
 40
27.0
100
AcDbArc
 50
90.0
 51
180.0
  0
LINE
  5
41B
330
1F
100
AcDbEntity
  8
1-1_通り芯
  6
JWW_CENTER1
 62
   120
370
     5
100
AcDbLine
 10
5012.012974388793
 20
361.4725913347438
 30
0.0
 11
4913.809640799815
 21
361.4725913347438
 31
0.0
  0
LINE
  5
41C
330
1F
100
AcDbEntity
  8
1-B_寸法
  6
Continuous
 62
   120
370
     5
100
AcDbLine
 10
4236.326571527119
 20
-3430.527408665256
 30
0.0
 11
4236.326571527119
 21
361.4725913347438
 31
0.0
  0
LWPOLYLINE
  5
41D
330
1F
100
AcDbEntity
  8
1-B_寸法
  6
Continuous
 62
     7
370
     9
100
AcDbPolyline
 90
        4
 70
     1
 43
3.0
 10
4237.82657152712
 20
-3430.527408665256
 42
0.4142135623731
 10
4236.326571527119
 20
-3429.027408665256
 42
0.4142135623731
 10
4234.826571527119
 20
-3430.527408665256
 42
0.4142135623731
 10
4236.326571527119
 20
-3432.027408665256
 42
0.4142135623731
  0
LWPOLYLINE
  5
41E
330
1F
100
AcDbEntity
  8
1-B_寸法
  6
Continuous
 62
     7
370
     9
100
AcDbPolyline
 90
        4
 70
     1
 43
3.0
 10
4237.82657152712
 20
361.4725913347438
 42
0.4142135623731
 10
4236.326571527119
 20
362.9725913347438
 42
0.4142135623731
 10
4234.826571527119
 20
361.4725913347438
 42
0.4142135623731
 10
4236.326571527119
 20
359.9725913347438
 42
0.4142135623731
  0
MTEXT
  5
41F
330
1F
100
AcDbEntity
  8
1-B_寸法
  6
Continuous
 62
     7
370
   211
100
AcDbMText
 10
4651.269136409367
 20
-3593.882270617596
 30
0.0
 40
76.19999999999999
 41
150.0
 46
0.0
 71
     7
 72
     1
  1
{\fＭＳ ゴシック|b0|i0|c128|p49;114}
 73
     1
 44
1.0
  0
MTEXT
  5
420
330
1F
100
AcDbEntity
  8
1-B_寸法
  6
Continuous
 62
     7
370
   211
100
AcDbMText
 10
4910.019136409367
 20
-3594.834770617596
 30
0.0
 40
74.295
 41
97.5
 46
0.0
 71
     7
 72
     1
  1
{\fＭＳ ゴシック|b0|i0|c128|p49;41}
 73
     1
 44
1.0
  0
MTEXT
  5
421
330
1F
100
AcDbEntity
  8
1-B_寸法
  6
Continuous
 62
     7
370
   211
100
AcDbMText
 10
5081.346771599435
 20
-3594.834770617596
 30
0.0
 40
74.295
 41
97.5
 46
0.0
 71
     7
 72
     1
  1
{\fＭＳ ゴシック|b0|i0|c128|p49;15}
 73
     1
 44
1.0
  0
LINE
  5
422
330
1F
100
AcDbEntity
  8
1-B_寸法
  6
Continuous
 62
   120
370
     5
100
AcDbLine
 10
4236.326571527119
 20
361.4725913347438
 30
0.0
 11
4875.866233719511
 21
361.4725913347438
 31
0.0
  0
MTEXT
  5
423
330
1F
100
AcDbEntity
  8
1-A_文字
  6
Continuous
 62
     7
370
     9
100
AcDbMText
 10
3621.017955216862
 20
-3735.947679909372
 30
0.0
 40
78.105
 41
307.5
 46
0.0
 71
     7
 72
     1
  1
{\fＭＳ ゴシック|b0|i0|c128|p49;S=1/10}
 73
     1
 44
1.0
  0
MTEXT
  5
424
330
1F
100
AcDbEntity
  8
0-B_寸法
  6
Continuous
 62
     7
370
     9
100
AcDbMText
 10
-5771.598639455781
 20
3779.92788206363
 30
0.0
 40
101.5252941176471
 41
1132.5
 46
0.0
 71
     7
 72
     1
  1
{\fＭＳ ゴシック|b0|i0|c128|p49;【PB：12.5㎜×2】}
 73
     1
 44
1.0
  0
MTEXT
  5
425
330
1F
100
AcDbEntity
  8
F-A_文字
  6
Continuous
 62
     7
370
     0
100
AcDbMText
 10
-5247.547376752836
 20
-4045.112933512321
 30
0.0
 40
79.77432989690712
 41
5077.5
 46
0.0
 71
     7
 72
     1
  1
{\fＭＳ ゴシック|b0|i0|c128|p49;ドレタス　幅広アウトセット片引き戸　上吊りタイプ　枠外W2,169　【PB：12.5㎜ｘ2／竪枠裏：枠材納め】}
 73
     1
 44
1.0
  0
MTEXT
  5
426
330
1F
100
AcDbEntity
  8
F-A_文字
  6
Continuous
 62
     7
370
     9
100
AcDbMText
 10
4936.24903358083
 20
-4147.857175082368
 30
0.0
 40
74.295
 41
97.5
 46
0.0
 71
     7
 72
     1
  1
{\fＭＳ ゴシック|b0|i0|c128|p49;03}
 73
     1
 44
1.0
  0
LINE
  5
427
330
1F
100
AcDbEntity
  8
0-1_通り芯
  6
JWW_CENTER1
 62
   120
370
     5
100
AcDbLine
 10
-3621.827241384735
 20
2525.903327113426
 30
0.0
 11
2353.145785460518
 21
2525.903327113426
 31
0.0
  0
LINE
  5
428
330
1F
100
AcDbEntity
  8
0-1_通り芯
  6
JWW_CENTER1
 62
   120
370
     5
100
AcDbLine
 10
-3200.833034312663
 20
-3589.613298761976
 30
0.0
 11
-3200.833034312663
 21
257.9281873394632
 31
0.0
  0
LINE
  5
429
330
1F
100
AcDbEntity
  8
0-B_寸法
  6
Continuous
 62
   120
370
     5
100
AcDbLine
 10
-3200.833034312663
 20
-1146.905862918417
 30
0.0
 11
-2525.833034312663
 21
-1146.905862918417
 31
0.0
  0
LWPOLYLINE
  5
42A
330
1F
100
AcDbEntity
  8
0-B_寸法
  6
Continuous
 62
     7
370
     9
100
AcDbPolyline
 90
        4
 70
     1
 43
3.0
 10
-3199.333034312663
 20
-1146.905862918417
 42
0.4142135623731
 10
-3200.833034312663
 20
-1145.405862918417
 42
0.4142135623731
 10
-3202.333034312662
 20
-1146.905862918417
 42
0.4142135623731
 10
-3200.833034312663
 20
-1148.405862918417
 42
0.4142135623731
  0
LWPOLYLINE
  5
42B
330
1F
100
AcDbEntity
  8
0-B_寸法
  6
Continuous
 62
     7
370
     9
100
AcDbPolyline
 90
        4
 70
     1
 43
3.0
 10
-2524.333034312663
 20
-1146.905862918417
 42
0.4142135623731
 10
-2525.833034312663
 20
-1145.405862918417
 42
0.4142135623731
 10
-2527.333034312662
 20
-1146.905862918417
 42
0.4142135623731
 10
-2525.833034312663
 20
-1148.405862918417
 42
0.4142135623731
  0
MTEXT
  5
42C
330
1F
100
AcDbEntity
  8
0-B_寸法
  6
Continuous
 62
     7
370
   211
100
AcDbMText
 10
-2990.833034312663
 20
-1138.043862918417
 30
0.0
 40
77.724
 41
255.0
 46
0.0
 71
     7
 72
     1
  1
{\fＭＳ ゴシック|b0|i0|c128|p49;112.5}
 73
     1
 44
1.0
  0
LINE
  5
42D
330
1F
100
AcDbEntity
  8
0-B_寸法
  6
Continuous
 62
   120
370
     5
100
AcDbLine
 10
2653.145785460518
 20
2525.903327113426
 30
0.0
 11
2653.145785460518
 21
1850.903327113426
 31
0.0
  0
LWPOLYLINE
  5
42E
330
1F
100
AcDbEntity
  8
0-B_寸法
  6
Continuous
 62
     7
370
     9
100
AcDbPolyline
 90
        4
 70
     1
 43
3.0
 10
2654.645785460518
 20
2525.903327113426
 42
0.4142135623731
 10
2653.145785460518
 20
2527.403327113426
 42
0.4142135623731
 10
2651.645785460518
 20
2525.903327113426
 42
0.4142135623731
 10
2653.145785460518
 20
2524.403327113426
 42
0.4142135623731
  0
LWPOLYLINE
  5
42F
330
1F
100
AcDbEntity
  8
0-B_寸法
  6
Continuous
 62
     7
370
     9
100
AcDbPolyline
 90
        4
 70
     1
 43
3.0
 10
2654.645785460518
 20
1850.903327113426
 42
0.4142135623731
 10
2653.145785460518
 20
1852.403327113426
 42
0.4142135623731
 10
2651.645785460518
 20
1850.903327113426
 42
0.4142135623731
 10
2653.145785460518
 20
1849.403327113426
 42
0.4142135623731
  0
MTEXT
  5
430
330
1F
100
AcDbEntity
  8
0-B_寸法
  6
Continuous
 62
     7
370
   211
100
AcDbMText
 10
2638.145785460518
 20
2054.765327113426
 30
0.0
 40
77.724
 41
255.0
 46
0.0
 71
     7
 72
     1
  1
{\fＭＳ ゴシック|b0|i0|c128|p49;112.5}
 11
6.123031769111886E-17
 21
1.0
 31
0.0
 73
     1
 44
1.0
  0
LINE
  5
431
330
1F
100
AcDbEntity
  8
0-B_寸法
  6
Continuous
 62
   120
370
     5
100
AcDbLine
 10
2653.145785460518
 20
2525.903327113426
 30
0.0
 11
2443.145785460518
 21
2525.903327113426
 31
0.0
  0
LINE
  5
432
330
1F
100
AcDbEntity
  8
0-B_寸法
  6
Continuous
 62
   120
370
     5
100
AcDbLine
 10
2653.145785460518
 20
1850.903327113426
 30
0.0
 11
2443.145785460518
 21
1850.903327113426
 31
0.0
  0
MTEXT
  5
433
330
1F
100
AcDbEntity
  8
F-A_文字
  6
Continuous
 62
     7
370
     0
100
AcDbMText
 10
4778.749126529666
 20
-3938.07117252235
 30
0.0
 40
78.86699999999999
 41
517.5
 46
0.0
 71
     7
 72
     1
  1
{\fＭＳ ゴシック|b0|i0|c128|p49;2022.04.01}
 73
     1
 44
1.0
  0
MTEXT
  5
434
330
1F
100
AcDbEntity
  8
0-A_文字
  6
Continuous
 62
     7
370
     9
100
AcDbMText
 10
-2326.887093786389
 20
2544.242126445337
 30
0.0
 40
78.105
 41
615.0
 46
0.0
 71
     7
 72
     1
  1
{\fＭＳ ゴシック|b0|i0|c128|p49;※入隅の場合}
 73
     1
 44
1.0
  0
LINE
  5
435
330
1F
100
AcDbEntity
  8
0-A_文字
  6
Continuous
 62
     7
370
     9
100
AcDbLine
 10
-1611.872697593647
 20
2217.747508658306
 30
0.0
 11
-2396.051638700131
 21
2217.747508658306
 31
0.0
  0
LINE
  5
436
330
1F
100
AcDbEntity
  8
0-A_文字
  6
Continuous
 62
     7
370
     9
100
AcDbLine
 10
-1656.725999199833
 20
2259.962380758246
 30
0.0
 11
-1656.725999199833
 21
2687.435075582755
 31
0.0
  0
MTEXT
  5
437
330
1F
100
AcDbEntity
  8
0-A_文字
  6
Continuous
 62
     7
370
     9
100
AcDbMText
 10
-2326.887093786389
 20
2412.320651133023
 30
0.0
 40
78.105
 41
615.0
 46
0.0
 71
     7
 72
     1
  1
{\fＭＳ ゴシック|b0|i0|c128|p49;　不要になり}
 73
     1
 44
1.0
  0
MTEXT
  5
438
330
1F
100
AcDbEntity
  8
0-A_文字
  6
Continuous
 62
     7
370
     9
100
AcDbMText
 10
-2326.887093786389
 20
2301.030361870679
 30
0.0
 40
77.15249999999999
 41
405.0
 46
0.0
 71
     7
 72
     1
  1
{\fＭＳ ゴシック|b0|i0|c128|p49;　ます。}
 73
     1
 44
1.0
  0
LINE
  5
439
330
1F
100
AcDbEntity
  8
0-A_文字
  6
Continuous
 62
     7
370
     9
100
AcDbLine
 10
-1656.725999199833
 20
2687.435075582755
 30
0.0
 11
-2354.498952899424
 21
2687.435075582755
 31
0.0
  0
LINE
  5
43A
330
1F
100
AcDbEntity
  8
0-A_文字
  6
Continuous
 62
     7
370
     9
100
AcDbLine
 10
-2354.498952899424
 20
2259.962380758246
 30
0.0
 11
-2354.498952899424
 21
2687.435075582755
 31
0.0
  0
LINE
  5
43B
330
1F
100
AcDbEntity
  8
0-A_文字
  6
Continuous
 62
     7
370
     9
100
AcDbLine
 10
-1656.725999199833
 20
2259.962380758246
 30
0.0
 11
-2354.498952899424
 21
2259.962380758246
 31
0.0
  0
MTEXT
  5
43C
330
1F
100
AcDbEntity
  8
0-A_文字
  6
Continuous
 62
     7
370
     9
100
AcDbMText
 10
-2147.893815975563
 20
2977.375919311723
 30
0.0
 40
76.19999999999999
 41
300.0
 46
0.0
 71
     7
 72
     1
  1
{\fＭＳ ゴシック|b0|i0|c128|p49;竪枠裏}
 73
     1
 44
1.0
  0
LINE
  5
43D
330
1F
100
AcDbEntity
  8
0-A_文字
  6
Continuous
 62
     7
370
     9
100
AcDbLine
 10
-2220.72453842184
 20
3120.38598977301
 30
0.0
 11
-1796.34526609549
 21
3120.38598977301
 31
0.0
  0
LINE
  5
43E
330
1F
100
AcDbEntity
  8
0-A_文字
  6
Continuous
 62
     7
370
     9
100
AcDbLine
 10
-1796.34526609549
 20
3120.38598977301
 30
0.0
 11
-1796.34526609549
 21
2963.208481503992
 31
0.0
  0
LINE
  5
43F
330
1F
100
AcDbEntity
  8
0-A_文字
  6
Continuous
 62
     7
370
     9
100
AcDbLine
 10
-1796.34526609549
 20
2963.208481503992
 30
0.0
 11
-2220.72453842184
 21
2963.208481503992
 31
0.0
  0
LINE
  5
440
330
1F
100
AcDbEntity
  8
0-A_文字
  6
Continuous
 62
     7
370
     9
100
AcDbLine
 10
-2220.72453842184
 20
2963.208481503992
 30
0.0
 11
-2220.72453842184
 21
3120.38598977301
 31
0.0
  0
LINE
  5
441
330
1F
100
AcDbEntity
  8
0-A_文字
  6
Continuous
 62
     7
370
     9
100
AcDbLine
 10
-2396.051638700131
 20
3038.8819871285
 30
0.0
 11
-2220.72453842184
 21
3038.8819871285
 31
0.0
  0
LINE
  5
442
330
1F
100
AcDbEntity
  8
0-A_文字
  6
Continuous
 62
     7
370
     9
100
AcDbLine
 10
-2396.051638700131
 20
2217.747508658306
 30
0.0
 11
-2396.051638700131
 21
3038.8819871285
 31
0.0
  0
LINE
  5
443
330
1F
100
AcDbEntity
  8
0-A_文字
  6
Continuous
 62
     7
370
     9
100
AcDbLine
 10
-1796.34526609549
 20
3038.8819871285
 30
0.0
 11
-1611.872697593647
 21
3038.8819871285
 31
0.0
  0
LINE
  5
444
330
1F
100
AcDbEntity
  8
0-A_文字
  6
Continuous
 62
     7
370
     9
100
AcDbLine
 10
-1611.872697593647
 20
2217.747508658306
 30
0.0
 11
-1611.872697593647
 21
3038.8819871285
 31
0.0
  0
MTEXT
  5
445
330
1F
100
AcDbEntity
  8
0-A_文字
  6
Continuous
 62
     7
370
     9
100
AcDbMText
 10
-2306.303096165925
 20
2832.21759733381
 30
0.0
 40
77.15249999999999
 41
405.0
 46
0.0
 71
     7
 72
     1
  1
{\fＭＳ ゴシック|b0|i0|c128|p49;95巾窓枠}
 73
     1
 44
1.0
  0
MTEXT
  5
446
330
1F
100
AcDbEntity
  8
0-A_文字
  6
Continuous
 62
     7
370
     9
100
AcDbMText
 10
-2306.303096165925
 20
2697.825507823457
 30
0.0
 40
79.0575
 41
622.5
 46
0.0
 71
     7
 72
     1
  1
{\fＭＳ ゴシック|b0|i0|c128|p49;3900×95×20}
 73
     1
 44
1.0
  0
ENDSEC
  0
SECTION
  2
OBJECTS
  0
DICTIONARY
  5
C
330
0
100
AcDbDictionary
281
     1
  3
ACAD_GROUP
350
D
  3
ACAD_LAYOUT
350
1A
  3
ACAD_MATERIAL
350
3B
  3
ACAD_MLEADERSTYLE
350
448
  3
ACAD_MLINESTYLE
350
17
  3
ACAD_PLOTSETTINGS
350
19
  3
ACAD_PLOTSTYLENAME
350
E
  3
ACAD_TABLESTYLE
350
447
  3
ACAD_VISUALSTYLE
350
2A
  0
DICTIONARY
  5
D
102
{ACAD_REACTORS
330
C
102
}
330
C
100
AcDbDictionary
281
     1
  0
DICTIONARY
  5
1A
102
{ACAD_REACTORS
330
C
102
}
330
C
100
AcDbDictionary
281
     1
  3
Layout1
350
1E
  3
Layout2
350
26
  3
Model
350
22
  0
DICTIONARY
  5
3B
102
{ACAD_REACTORS
330
C
102
}
330
C
100
AcDbDictionary
281
     1
  3
ByBlock
350
3D
  3
ByLayer
350
3C
  3
Global
350
3E
  0
DICTIONARY
  5
448
102
{ACAD_REACTORS
330
C
102
}
330
C
100
AcDbDictionary
281
     1
  0
DICTIONARY
  5
17
102
{ACAD_REACTORS
330
C
102
}
330
C
100
AcDbDictionary
281
     1
  3
Standard
350
18
  0
DICTIONARY
  5
19
102
{ACAD_REACTORS
330
C
102
}
330
C
100
AcDbDictionary
281
     1
  0
ACDBDICTIONARYWDFLT
  5
E
102
{ACAD_REACTORS
330
C
102
}
330
C
100
AcDbDictionary
281
     1
  3
Normal
350
F
100
AcDbDictionaryWithDefault
340
F
  0
DICTIONARY
  5
447
102
{ACAD_REACTORS
330
C
102
}
330
C
100
AcDbDictionary
281
     1
  0
DICTIONARY
  5
2A
102
{ACAD_REACTORS
330
C
102
}
330
C
100
AcDbDictionary
281
     1
  3
2dWireframe
350
2F
  3
3D Hidden
350
31
  3
3dWireframe
350
30
  3
Basic
350
32
  3
Brighten
350
36
  3
ColorChange
350
3A
  3
Conceptual
350
34
  3
Dim
350
35
  3
Facepattern
350
39
  3
Flat
350
2B
  3
FlatWithEdges
350
2C
  3
Gouraud
350
2D
  3
GouraudWithEdges
350
2E
  3
Linepattern
350
38
  3
Realistic
350
33
  3
Thicken
350
37
  0
LAYOUT
  5
1E
102
{ACAD_REACTORS
330
1A
102
}
330
1A
100
AcDbPlotSettings
  1

  2
none_device
  4

  6

 40
0.0
 41
0.0
 42
0.0
 43
0.0
 44
0.0
 45
0.0
 46
0.0
 47
0.0
 48
0.0
 49
0.0
140
0.0
141
0.0
142
1.0
143
1.0
 70
   688
 72
     0
 73
     0
 74
     5
  7

 75
    16
 76
     0
 77
     5
 78
   300
147
1.0
148
0.0
149
0.0
100
AcDbLayout
  1
Layout1
 70
     1
 71
     1
 10
0.0
 20
0.0
 11
420.0
 21
297.0
 12
0.0
 22
0.0
 32
0.0
 14
1.000000000000000E+20
 24
1.000000000000000E+20
 34
1.000000000000000E+20
 15
-1.000000000000000E+20
 25
-1.000000000000000E+20
 35
-1.000000000000000E+20
146
0.0
 13
0.0
 23
0.0
 33
0.0
 16
1.0
 26
0.0
 36
0.0
 17
0.0
 27
1.0
 37
0.0
 76
     0
330
1B
  0
LAYOUT
  5
26
102
{ACAD_REACTORS
330
1A
102
}
330
1A
100
AcDbPlotSettings
  1

  2
none_device
  4

  6

 40
0.0
 41
0.0
 42
0.0
 43
0.0
 44
0.0
 45
0.0
 46
0.0
 47
0.0
 48
0.0
 49
0.0
140
0.0
141
0.0
142
1.0
143
1.0
 70
   688
 72
     0
 73
     0
 74
     5
  7

 75
    16
 76
     0
 77
     5
 78
   300
147
1.0
148
0.0
149
0.0
100
AcDbLayout
  1
Layout2
 70
     1
 71
     2
 10
0.0
 20
0.0
 11
0.0
 21
0.0
 12
0.0
 22
0.0
 32
0.0
 14
0.0
 24
0.0
 34
0.0
 15
0.0
 25
0.0
 35
0.0
146
0.0
 13
0.0
 23
0.0
 33
0.0
 16
1.0
 26
0.0
 36
0.0
 17
0.0
 27
1.0
 37
0.0
 76
     0
330
23
  0
LAYOUT
  5
22
102
{ACAD_REACTORS
330
1A
102
}
330
1A
100
AcDbPlotSettings
  1

  2
none_device
  4

  6

 40
0.0
 41
0.0
 42
0.0
 43
0.0
 44
0.0
 45
0.0
 46
0.0
 47
0.0
 48
0.0
 49
0.0
140
0.0
141
0.0
142
1.0
143
1.0
 70
  1712
 72
     0
 73
     0
 74
     0
  7

 75
     0
 76
     0
 77
     5
 78
   300
147
1.0
148
0.0
149
0.0
100
AcDbLayout
  1
Model
 70
     1
 71
     0
 10
-8910.0
 20
-6300.0
 11
8910.0
 21
6300.0
 12
0.0
 22
0.0
 32
0.0
 14
-8910.0
 24
-6300.0
 34
0.0
 15
8910.0
 25
6300.0
 35
0.0
146
0.0
 13
0.0
 23
0.0
 33
0.0
 16
1.0
 26
0.0
 36
0.0
 17
0.0
 27
1.0
 37
0.0
 76
     0
330
1F
331
29
  0
MATERIAL
  5
3D
102
{ACAD_REACTORS
330
3B
102
}
330
3B
100
AcDbMaterial
  1
ByBlock
 72
     1
 94
      127
  0
MATERIAL
  5
3C
102
{ACAD_REACTORS
330
3B
102
}
330
3B
100
AcDbMaterial
  1
ByLayer
 72
     1
 94
      127
  0
MATERIAL
  5
3E
102
{ACAD_REACTORS
330
3B
102
}
330
3B
100
AcDbMaterial
  1
Global
 72
     1
 94
      127
  0
MLINESTYLE
  5
18
102
{ACAD_REACTORS
330
17
102
}
330
17
100
AcDbMlineStyle
  2
Standard
 70
     0
  3

 62
   256
 51
90.0
 52
90.0
 71
     2
 49
0.5
 62
   256
  6
BYLAYER
 49
-0.5
 62
   256
  6
BYLAYER
  0
ACDBPLACEHOLDER
  5
F
102
{ACAD_REACTORS
330
E
102
}
330
E
  0
VISUALSTYLE
  5
2F
102
{ACAD_REACTORS
330
2A
102
}
330
2A
100
AcDbVisualStyle
  2
2dWireframe
 70
     4
177
     2
291
     0
 71
     0
176
     1
 72
     2
176
     1
 73
     0
176
     1
 90
        0
176
     1
 40
-0.6
176
     1
 41
-30.0
176
     1
 62
     5
 63
     7
421
 16777215
176
     1
 74
     1
176
     1
 91
        4
176
     1
 64
     7
176
     1
 65
   257
176
     1
 75
     1
176
     1
175
     1
176
     1
 42
1.0
176
     1
 92
        0
176
     1
 66
   257
176
     1
 43
1.0
176
     1
 76
     1
176
     1
 77
     6
176
     1
 78
     2
176
     1
 67
     7
176
     1
 79
     5
176
     1
170
     0
176
     1
171
     0
176
     1
290
     0
176
     1
 93
        1
176
     1
 44
0.0
176
     1
173
     0
176
     1
  0
VISUALSTYLE
  5
31
102
{ACAD_REACTORS
330
2A
102
}
330
2A
100
AcDbVisualStyle
  2
3D Hidden
 70
     6
177
     2
291
     0
 71
     1
176
     1
 72
     2
176
     1
 73
     2
176
     1
 90
        0
176
     1
 40
-0.6
176
     1
 41
-30.0
176
     1
 62
     5
 63
     7
421
 16777215
176
     1
 74
     2
176
     1
 91
        2
176
     1
 64
     7
176
     1
 65
   257
176
     1
 75
     2
176
     1
175
     1
176
     1
 42
40.0
176
     1
 92
        0
176
     1
 66
   257
176
     1
 43
1.0
176
     1
 76
     1
176
     1
 77
     6
176
     1
 78
     2
176
     1
 67
     7
176
     1
 79
     3
176
     1
170
     0
176
     1
171
     0
176
     1
290
     0
176
     1
 93
        1
176
     1
 44
0.0
176
     1
173
     0
176
     1
  0
VISUALSTYLE
  5
30
102
{ACAD_REACTORS
330
2A
102
}
330
2A
100
AcDbVisualStyle
  2
3dWireframe
 70
     5
177
     2
291
     0
 71
     0
176
     1
 72
     2
176
     1
 73
     0
176
     1
 90
        0
176
     1
 40
-0.6
176
     1
 41
-30.0
176
     1
 62
     5
 63
     7
421
 16777215
176
     1
 74
     1
176
     1
 91
        4
176
     1
 64
     7
176
     1
 65
   257
176
     1
 75
     1
176
     1
175
     1
176
     1
 42
1.0
176
     1
 92
        0
176
     1
 66
   257
176
     1
 43
1.0
176
     1
 76
     1
176
     1
 77
     6
176
     1
 78
     2
176
     1
 67
     7
176
     1
 79
     5
176
     1
170
     0
176
     1
171
     0
176
     1
290
     0
176
     1
 93
        1
176
     1
 44
0.0
176
     1
173
     0
176
     1
  0
VISUALSTYLE
  5
32
102
{ACAD_REACTORS
330
2A
102
}
330
2A
100
AcDbVisualStyle
  2
Basic
 70
     7
177
     2
291
     1
 71
     1
176
     1
 72
     0
176
     1
 73
     1
176
     1
 90
        0
176
     1
 40
-0.6
176
     1
 41
-30.0
176
     1
 62
     5
 63
     7
421
 16777215
176
     1
 74
     0
176
     1
 91
        4
176
     1
 64
     7
176
     1
 65
   257
176
     1
 75
     1
176
     1
175
     1
176
     1
 42
1.0
176
     1
 92
        8
176
     1
 66
     7
176
     1
 43
1.0
176
     1
 76
     1
176
     1
 77
     6
176
     1
 78
     2
176
     1
 67
     7
176
     1
 79
     5
176
     1
170
     0
176
     1
171
     0
176
     1
290
     0
176
     1
 93
        1
176
     1
 44
0.0
176
     1
173
     0
176
     1
  0
VISUALSTYLE
  5
36
102
{ACAD_REACTORS
330
2A
102
}
330
2A
100
AcDbVisualStyle
  2
Brighten
 70
    12
177
     2
291
     1
 71
     2
176
     1
 72
     2
176
     1
 73
     0
176
     1
 90
        0
176
     1
 40
-0.6
176
     1
 41
-30.0
176
     1
 62
     5
 63
     7
421
 16777215
176
     1
 74
     1
176
     1
 91
        4
176
     1
 64
     7
176
     1
 65
   257
176
     1
 75
     1
176
     1
175
     1
176
     1
 42
1.0
176
     1
 92
        8
176
     1
 66
     7
176
     1
 43
1.0
176
     1
 76
     1
176
     1
 77
     6
176
     1
 78
     2
176
     1
 67
     7
176
     1
 79
     5
176
     1
170
     0
176
     1
171
     0
176
     1
290
     0
176
     1
 93
        1
176
     1
 44
50.0
176
     1
173
     0
176
     1
  0
VISUALSTYLE
  5
3A
102
{ACAD_REACTORS
330
2A
102
}
330
2A
100
AcDbVisualStyle
  2
ColorChange
 70
    16
177
     2
291
     1
 71
     2
176
     1
 72
     2
176
     1
 73
     3
176
     1
 90
        0
176
     1
 40
-0.6
176
     1
 41
-30.0
176
     1
 62
     5
 63
     8
421
  8421504
176
     1
 74
     1
176
     1
 91
        4
176
     1
 64
     7
176
     1
 65
   257
176
     1
 75
     1
176
     1
175
     1
176
     1
 42
1.0
176
     1
 92
        8
176
     1
 66
     8
424
  8421504
176
     1
 43
1.0
176
     1
 76
     1
176
     1
 77
     6
176
     1
 78
     2
176
     1
 67
     7
176
     1
 79
     5
176
     1
170
     0
176
     1
171
     0
176
     1
290
     0
176
     1
 93
        1
176
     1
 44
0.0
176
     1
173
     0
176
     1
  0
VISUALSTYLE
  5
34
102
{ACAD_REACTORS
330
2A
102
}
330
2A
100
AcDbVisualStyle
  2
Conceptual
 70
     9
177
     2
291
     0
 71
     3
176
     1
 72
     2
176
     1
 73
     0
176
     1
 90
        0
176
     1
 40
-0.6
176
     1
 41
-30.0
176
     1
 62
     5
 63
     7
421
 16777215
176
     1
 74
     2
176
     1
 91
        2
176
     1
 64
     7
176
     1
 65
   257
176
     1
 75
     1
176
     1
175
     1
176
     1
 42
40.0
176
     1
 92
        8
176
     1
 66
     7
176
     1
 43
1.0
176
     1
 76
     1
176
     1
 77
     6
176
     1
 78
     2
176
     1
 67
     7
176
     1
 79
     3
176
     1
170
     0
176
     1
171
     0
176
     1
290
     0
176
     1
 93
        1
176
     1
 44
0.0
176
     1
173
     0
176
     1
  0
VISUALSTYLE
  5
35
102
{ACAD_REACTORS
330
2A
102
}
330
2A
100
AcDbVisualStyle
  2
Dim
 70
    11
177
     2
291
     1
 71
     2
176
     1
 72
     2
176
     1
 73
     0
176
     1
 90
        0
176
     1
 40
-0.6
176
     1
 41
-30.0
176
     1
 62
     5
 63
     7
421
 16777215
176
     1
 74
     1
176
     1
 91
        4
176
     1
 64
     7
176
     1
 65
   257
176
     1
 75
     1
176
     1
175
     1
176
     1
 42
1.0
176
     1
 92
        8
176
     1
 66
     7
176
     1
 43
1.0
176
     1
 76
     1
176
     1
 77
     6
176
     1
 78
     2
176
     1
 67
     7
176
     1
 79
     5
176
     1
170
     0
176
     1
171
     0
176
     1
290
     0
176
     1
 93
        1
176
     1
 44
-50.0
176
     1
173
     0
176
     1
  0
VISUALSTYLE
  5
39
102
{ACAD_REACTORS
330
2A
102
}
330
2A
100
AcDbVisualStyle
  2
Facepattern
 70
    15
177
     2
291
     1
 71
     2
176
     1
 72
     2
176
     1
 73
     0
176
     1
 90
        0
176
     1
 40
-0.6
176
     1
 41
-30.0
176
     1
 62
     5
 63
     7
421
 16777215
176
     1
 74
     1
176
     1
 91
        4
176
     1
 64
     7
176
     1
 65
   257
176
     1
 75
     1
176
     1
175
     1
176
     1
 42
1.0
176
     1
 92
        8
176
     1
 66
     7
176
     1
 43
1.0
176
     1
 76
     1
176
     1
 77
     6
176
     1
 78
     2
176
     1
 67
     7
176
     1
 79
     5
176
     1
170
     0
176
     1
171
     0
176
     1
290
     0
176
     1
 93
        1
176
     1
 44
0.0
176
     1
173
     0
176
     1
  0
VISUALSTYLE
  5
2B
102
{ACAD_REACTORS
330
2A
102
}
330
2A
100
AcDbVisualStyle
  2
Flat
 70
     0
177
     2
291
     1
 71
     2
176
     1
 72
     1
176
     1
 73
     1
176
     1
 90
        2
176
     1
 40
-0.6
176
     1
 41
30.0
176
     1
 62
     5
 63
     7
421
 16777215
176
     1
 74
     0
176
     1
 91
        4
176
     1
 64
     7
176
     1
 65
   257
176
     1
 75
     1
176
     1
175
     1
176
     1
 42
1.0
176
     1
 92
        8
176
     1
 66
     7
176
     1
 43
1.0
176
     1
 76
     1
176
     1
 77
     6
176
     1
 78
     2
176
     1
 67
     7
176
     1
 79
     5
176
     1
170
     0
176
     1
171
     0
176
     1
290
     0
176
     1
 93
       13
176
     1
 44
0.0
176
     1
173
     0
176
     1
  0
VISUALSTYLE
  5
2C
102
{ACAD_REACTORS
330
2A
102
}
330
2A
100
AcDbVisualStyle
  2
FlatWithEdges
 70
     1
177
     2
291
     1
 71
     2
176
     1
 72
     1
176
     1
 73
     1
176
     1
 90
        2
176
     1
 40
-0.6
176
     1
 41
30.0
176
     1
 62
     5
 63
     7
421
 16777215
176
     1
 74
     1
176
     1
 91
        4
176
     1
 64
     7
176
     1
 65
   257
176
     1
 75
     1
176
     1
175
     1
176
     1
 42
1.0
176
     1
 92
        0
176
     1
 66
   257
176
     1
 43
1.0
176
     1
 76
     1
176
     1
 77
     6
176
     1
 78
     2
176
     1
 67
     7
176
     1
 79
     5
176
     1
170
     0
176
     1
171
     0
176
     1
290
     0
176
     1
 93
       13
176
     1
 44
0.0
176
     1
173
     0
176
     1
  0
VISUALSTYLE
  5
2D
102
{ACAD_REACTORS
330
2A
102
}
330
2A
100
AcDbVisualStyle
  2
Gouraud
 70
     2
177
     2
291
     1
 71
     2
176
     1
 72
     2
176
     1
 73
     1
176
     1
 90
        2
176
     1
 40
-0.6
176
     1
 41
30.0
176
     1
 62
     5
 63
     7
421
 16777215
176
     1
 74
     0
176
     1
 91
        4
176
     1
 64
     7
176
     1
 65
   257
176
     1
 75
     1
176
     1
175
     1
176
     1
 42
1.0
176
     1
 92
        0
176
     1
 66
     7
176
     1
 43
1.0
176
     1
 76
     1
176
     1
 77
     6
176
     1
 78
     2
176
     1
 67
     7
176
     1
 79
     5
176
     1
170
     0
176
     1
171
     0
176
     1
290
     0
176
     1
 93
       13
176
     1
 44
0.0
176
     1
173
     0
176
     1
  0
VISUALSTYLE
  5
2E
102
{ACAD_REACTORS
330
2A
102
}
330
2A
100
AcDbVisualStyle
  2
GouraudWithEdges
 70
     3
177
     2
291
     1
 71
     2
176
     1
 72
     2
176
     1
 73
     1
176
     1
 90
        2
176
     1
 40
-0.6
176
     1
 41
30.0
176
     1
 62
     5
 63
     7
421
 16777215
176
     1
 74
     1
176
     1
 91
        4
176
     1
 64
     7
176
     1
 65
   257
176
     1
 75
     1
176
     1
175
     1
176
     1
 42
1.0
176
     1
 92
        0
176
     1
 66
   257
176
     1
 43
1.0
176
     1
 76
     1
176
     1
 77
     6
176
     1
 78
     2
176
     1
 67
     7
176
     1
 79
     5
176
     1
170
     0
176
     1
171
     0
176
     1
290
     0
176
     1
 93
       13
176
     1
 44
0.0
176
     1
173
     0
176
     1
  0
VISUALSTYLE
  5
38
102
{ACAD_REACTORS
330
2A
102
}
330
2A
100
AcDbVisualStyle
  2
Linepattern
 70
    14
177
     2
291
     1
 71
     2
176
     1
 72
     2
176
     1
 73
     0
176
     1
 90
        0
176
     1
 40
-0.6
176
     1
 41
-30.0
176
     1
 62
     5
 63
     7
421
 16777215
176
     1
 74
     1
176
     1
 91
        4
176
     1
 64
     7
176
     1
 65
   257
176
     1
 75
     7
176
     1
175
     7
176
     1
 42
1.0
176
     1
 92
        8
176
     1
 66
     7
176
     1
 43
1.0
176
     1
 76
     1
176
     1
 77
     6
176
     1
 78
     2
176
     1
 67
     7
176
     1
 79
     5
176
     1
170
     0
176
     1
171
     0
176
     1
290
     0
176
     1
 93
        1
176
     1
 44
0.0
176
     1
173
     0
176
     1
  0
VISUALSTYLE
  5
33
102
{ACAD_REACTORS
330
2A
102
}
330
2A
100
AcDbVisualStyle
  2
Realistic
 70
     8
177
     2
291
     0
 71
     2
176
     1
 72
     2
176
     1
 73
     0
176
     1
 90
        0
176
     1
 40
-0.6
176
     1
 41
-30.0
176
     1
 62
     5
 63
     7
421
 16777215
176
     1
 74
     1
176
     1
 91
        0
176
     1
 64
     7
176
     1
 65
   257
176
     1
 75
     1
176
     1
175
     1
176
     1
 42
1.0
176
     1
 92
        8
176
     1
 66
     8
424
  7895160
176
     1
 43
1.0
176
     1
 76
     1
176
     1
 77
     6
176
     1
 78
     2
176
     1
 67
     7
176
     1
 79
     5
176
     1
170
     0
176
     1
171
     0
176
     1
290
     0
176
     1
 93
       13
176
     1
 44
0.0
176
     1
173
     0
176
     1
  0
VISUALSTYLE
  5
37
102
{ACAD_REACTORS
330
2A
102
}
330
2A
100
AcDbVisualStyle
  2
Thicken
 70
    13
177
     2
291
     1
 71
     2
176
     1
 72
     2
176
     1
 73
     0
176
     1
 90
        0
176
     1
 40
-0.6
176
     1
 41
-30.0
176
     1
 62
     5
 63
     7
421
 16777215
176
     1
 74
     1
176
     1
 91
        4
176
     1
 64
     7
176
     1
 65
   257
176
     1
 75
     1
176
     1
175
     1
176
     1
 42
1.0
176
     1
 92
       12
176
     1
 66
     7
176
     1
 43
1.0
176
     1
 76
     1
176
     1
 77
     6
176
     1
 78
     2
176
     1
 67
     7
176
     1
 79
     5
176
     1
170
     0
176
     1
171
     0
176
     1
290
     0
176
     1
 93
        1
176
     1
 44
0.0
176
     1
173
     0
176
     1
  0
ENDSEC
  0
EOF
