  0
SECTION
  2
HEADER
  9
$ACADVER
  1
AC1024
  9
$ACADMAINTVER
 70
     6
  9
$DWGCODEPAGE
  3
ANSI_932
  9
$INSBASE
 10
0.0
 20
0.0
 30
0.0
  9
$EXTMIN
 10
-8910.0
 20
-6300.0
 30
0.0
  9
$EXTMAX
 10
8910.0
 20
6300.0
 30
0.0
  9
$LIMMIN
 10
-8910.0
 20
-6300.0
  9
$LIMMAX
 10
8910.0
 20
6300.0
  9
$ORTHOMODE
 70
     0
  9
$REGENMODE
 70
     1
  9
$FILLMODE
 70
     1
  9
$QTEXTMODE
 70
     0
  9
$MIRRTEXT
 70
     1
  9
$LTSCALE
 40
30.0
  9
$ATTMODE
 70
     1
  9
$TEXTSIZE
 40
2.5
  9
$TRACEWID
 40
1.0
  9
$TEXTSTYLE
  7
Standard
  9
$CLAYER
  8
0
  9
$CELTYPE
  6
ByLayer
  9
$CECOLOR
 62
   256
  9
$CELTSCALE
 40
1.0
  9
$DISPSILH
 70
     0
  9
$DIMSCALE
 40
1.0
  9
$DIMASZ
 40
2.5
  9
$DIMEXO
 40
0.625
  9
$DIMDLI
 40
3.75
  9
$DIMRND
 40
0.0
  9
$DIMDLE
 40
0.0
  9
$DIMEXE
 40
1.25
  9
$DIMTP
 40
0.0
  9
$DIMTM
 40
0.0
  9
$DIMTXT
 40
2.5
  9
$DIMCEN
 40
2.5
  9
$DIMTSZ
 40
0.0
  9
$DIMTOL
 70
     0
  9
$DIMLIM
 70
     0
  9
$DIMTIH
 70
     0
  9
$DIMTOH
 70
     0
  9
$DIMSE1
 70
     0
  9
$DIMSE2
 70
     0
  9
$DIMTAD
 70
     1
  9
$DIMZIN
 70
     8
  9
$DIMBLK
  1

  9
$DIMASO
 70
     1
  9
$DIMSHO
 70
     1
  9
$DIMPOST
  1

  9
$DIMAPOST
  1

  9
$DIMALT
 70
     0
  9
$DIMALTD
 70
     3
  9
$DIMALTF
 40
0.03937007874016
  9
$DIMLFAC
 40
1.0
  9
$DIMTOFL
 70
     1
  9
$DIMTVP
 40
0.0
  9
$DIMTIX
 70
     0
  9
$DIMSOXD
 70
     0
  9
$DIMSAH
 70
     0
  9
$DIMBLK1
  1

  9
$DIMBLK2
  1

  9
$DIMSTYLE
  2
ISO-25
  9
$DIMCLRD
 70
     0
  9
$DIMCLRE
 70
     0
  9
$DIMCLRT
 70
     0
  9
$DIMTFAC
 40
1.0
  9
$DIMGAP
 40
0.625
  9
$DIMJUST
 70
     0
  9
$DIMSD1
 70
     0
  9
$DIMSD2
 70
     0
  9
$DIMTOLJ
 70
     0
  9
$DIMTZIN
 70
     8
  9
$DIMALTZ
 70
     0
  9
$DIMALTTZ
 70
     0
  9
$DIMUPT
 70
     0
  9
$DIMDEC
 70
     2
  9
$DIMTDEC
 70
     2
  9
$DIMALTU
 70
     2
  9
$DIMALTTD
 70
     3
  9
$DIMTXSTY
  7
Standard
  9
$DIMAUNIT
 70
     0
  9
$DIMADEC
 70
     0
  9
$DIMALTRND
 40
0.0
  9
$DIMAZIN
 70
     0
  9
$DIMDSEP
 70
    44
  9
$DIMATFIT
 70
     3
  9
$DIMFRAC
 70
     0
  9
$DIMLDRBLK
  1

  9
$DIMLUNIT
 70
     2
  9
$DIMLWD
 70
    -2
  9
$DIMLWE
 70
    -2
  9
$DIMTMOVE
 70
     0
  9
$DIMFXL
 40
1.0
  9
$DIMFXLON
 70
     0
  9
$DIMJOGANG
 40
0.7853981633974483
  9
$DIMTFILL
 70
     0
  9
$DIMTFILLCLR
 70
     0
  9
$DIMARCSYM
 70
     0
  9
$DIMLTYPE
  6

  9
$DIMLTEX1
  6

  9
$DIMLTEX2
  6

  9
$DIMTXTDIRECTION
 70
     0
  9
$LUNITS
 70
     2
  9
$LUPREC
 70
     4
  9
$SKETCHINC
 40
1.0
  9
$FILLETRAD
 40
10.0
  9
$AUNITS
 70
     0
  9
$AUPREC
 70
     0
  9
$MENU
  1
.
  9
$ELEVATION
 40
0.0
  9
$PELEVATION
 40
0.0
  9
$THICKNESS
 40
0.0
  9
$LIMCHECK
 70
     0
  9
$CHAMFERA
 40
10.0
  9
$CHAMFERB
 40
10.0
  9
$CHAMFERC
 40
20.0
  9
$CHAMFERD
 40
0.0
  9
$SKPOLY
 70
     0
  9
$TDCREATE
 40
2459682.519106516
  9
$TDUCREATE
 40
2459682.144106516
  9
$TDUPDATE
 40
2459682.519106528
  9
$TDUUPDATE
 40
2459682.144106528
  9
$TDINDWG
 40
0.0000000116
  9
$TDUSRTIMER
 40
0.0000000116
  9
$USRTIMER
 70
     1
  9
$ANGBASE
 50
0.0
  9
$ANGDIR
 70
     0
  9
$PDMODE
 70
     0
  9
$PDSIZE
 40
0.0
  9
$PLINEWID
 40
0.0
  9
$SPLFRAME
 70
     0
  9
$SPLINETYPE
 70
     6
  9
$SPLINESEGS
 70
     8
  9
$HANDSEED
  5
43C
  9
$SURFTAB1
 70
     6
  9
$SURFTAB2
 70
     6
  9
$SURFTYPE
 70
     6
  9
$SURFU
 70
     6
  9
$SURFV
 70
     6
  9
$UCSBASE
  2

  9
$UCSNAME
  2

  9
$UCSORG
 10
0.0
 20
0.0
 30
0.0
  9
$UCSXDIR
 10
1.0
 20
0.0
 30
0.0
  9
$UCSYDIR
 10
0.0
 20
1.0
 30
0.0
  9
$UCSORTHOREF
  2

  9
$UCSORTHOVIEW
 70
     0
  9
$UCSORGTOP
 10
0.0
 20
0.0
 30
0.0
  9
$UCSORGBOTTOM
 10
0.0
 20
0.0
 30
0.0
  9
$UCSORGLEFT
 10
0.0
 20
0.0
 30
0.0
  9
$UCSORGRIGHT
 10
0.0
 20
0.0
 30
0.0
  9
$UCSORGFRONT
 10
0.0
 20
0.0
 30
0.0
  9
$UCSORGBACK
 10
0.0
 20
0.0
 30
0.0
  9
$PUCSBASE
  2

  9
$PUCSNAME
  2

  9
$PUCSORG
 10
0.0
 20
0.0
 30
0.0
  9
$PUCSXDIR
 10
1.0
 20
0.0
 30
0.0
  9
$PUCSYDIR
 10
0.0
 20
1.0
 30
0.0
  9
$PUCSORTHOREF
  2

  9
$PUCSORTHOVIEW
 70
     0
  9
$PUCSORGTOP
 10
0.0
 20
0.0
 30
0.0
  9
$PUCSORGBOTTOM
 10
0.0
 20
0.0
 30
0.0
  9
$PUCSORGLEFT
 10
0.0
 20
0.0
 30
0.0
  9
$PUCSORGRIGHT
 10
0.0
 20
0.0
 30
0.0
  9
$PUCSORGFRONT
 10
0.0
 20
0.0
 30
0.0
  9
$PUCSORGBACK
 10
0.0
 20
0.0
 30
0.0
  9
$USERI1
 70
     0
  9
$USERI2
 70
     0
  9
$USERI3
 70
     0
  9
$USERI4
 70
     0
  9
$USERI5
 70
     0
  9
$USERR1
 40
0.0
  9
$USERR2
 40
0.0
  9
$USERR3
 40
0.0
  9
$USERR4
 40
0.0
  9
$USERR5
 40
0.0
  9
$WORLDVIEW
 70
     1
  9
$SHADEDGE
 70
     3
  9
$SHADEDIF
 70
    70
  9
$TILEMODE
 70
     1
  9
$MAXACTVP
 70
    64
  9
$PINSBASE
 10
0.0
 20
0.0
 30
0.0
  9
$PLIMCHECK
 70
     0
  9
$PEXTMIN
 10
1.000000000000000E+20
 20
1.000000000000000E+20
 30
1.000000000000000E+20
  9
$PEXTMAX
 10
-1.000000000000000E+20
 20
-1.000000000000000E+20
 30
-1.000000000000000E+20
  9
$PLIMMIN
 10
0.0
 20
0.0
  9
$PLIMMAX
 10
420.0
 20
297.0
  9
$UNITMODE
 70
     0
  9
$VISRETAIN
 70
     1
  9
$PLINEGEN
 70
     0
  9
$PSLTSCALE
 70
     1
  9
$TREEDEPTH
 70
  3020
  9
$CMLSTYLE
  2
Standard
  9
$CMLJUST
 70
     0
  9
$CMLSCALE
 40
20.0
  9
$PROXYGRAPHICS
 70
     1
  9
$MEASUREMENT
 70
     1
  9
$CELWEIGHT
370
    -1
  9
$ENDCAPS
280
     0
  9
$JOINSTYLE
280
     0
  9
$LWDISPLAY
290
     0
  9
$INSUNITS
 70
     4
  9
$HYPERLINKBASE
  1

  9
$STYLESHEET
  1

  9
$XEDIT
290
     1
  9
$CEPSNTYPE
380
     0
  9
$PSTYLEMODE
290
     1
  9
$FINGERPRINTGUID
  2
{4E90CA0B-6F0B-4292-958B-47125A32C1B7}
  9
$VERSIONGUID
  2
{FAEB1C32-E019-11D5-929B-00C0DF256EC4}
  9
$EXTNAMES
290
     1
  9
$PSVPSCALE
 40
0.0
  9
$OLESTARTUP
290
     0
  9
$SORTENTS
280
   127
  9
$INDEXCTL
280
     0
  9
$HIDETEXT
280
     1
  9
$XCLIPFRAME
280
     2
  9
$HALOGAP
280
     0
  9
$OBSCOLOR
 70
   257
  9
$OBSLTYPE
280
     0
  9
$INTERSECTIONDISPLAY
280
     0
  9
$INTERSECTIONCOLOR
 70
   257
  9
$DIMASSOC
280
     2
  9
$PROJECTNAME
  1

  9
$CAMERADISPLAY
290
     0
  9
$LENSLENGTH
 40
50.0
  9
$CAMERAHEIGHT
 40
0.0
  9
$STEPSPERSEC
 40
2.0
  9
$STEPSIZE
 40
6.0
  9
$3DDWFPREC
 40
2.0
  9
$PSOLWIDTH
 40
5.0
  9
$PSOLHEIGHT
 40
80.0
  9
$LOFTANG1
 40
1.570796326794897
  9
$LOFTANG2
 40
1.570796326794897
  9
$LOFTMAG1
 40
0.0
  9
$LOFTMAG2
 40
0.0
  9
$LOFTPARAM
 70
     7
  9
$LOFTNORMALS
280
     1
  9
$LATITUDE
 40
37.795
  9
$LONGITUDE
 40
-122.394
  9
$NORTHDIRECTION
 40
0.0
  9
$TIMEZONE
 70
 -8000
  9
$LIGHTGLYPHDISPLAY
280
     1
  9
$TILEMODELIGHTSYNCH
280
     1
  9
$SOLIDHIST
280
     1
  9
$SHOWHIST
280
     1
  9
$DWFFRAME
280
     2
  9
$DGNFRAME
280
     2
  9
$REALWORLDSCALE
290
     1
  9
$INTERFERECOLOR
 62
   256
  9
$CSHADOW
280
     0
  9
$SHADOWPLANELOCATION
 40
0.0
  0
ENDSEC
  0
SECTION
  2
CLASSES
  0
CLASS
  1
ACDBDICTIONARYWDFLT
  2
AcDbDictionaryWithDefault
  3
ObjectDBX Classes
 90
        0
 91
        4
280
     0
281
     0
  0
CLASS
  1
VISUALSTYLE
  2
AcDbVisualStyle
  3
ObjectDBX Classes
 90
     4095
 91
        4
280
     0
281
     0
  0
CLASS
  1
MATERIAL
  2
AcDbMaterial
  3
ObjectDBX Classes
 90
     1153
 91
        4
280
     0
281
     0
  0
ENDSEC
  0
SECTION
  2
TABLES
  0
TABLE
  2
VPORT
  5
8
330
0
100
AcDbSymbolTable
 70
     1
  0
VPORT
  5
29
330
8
100
AcDbSymbolTableRecord
100
AcDbViewportTableRecord
  2
*Active
 70
     0
 10
0.0
 20
0.0
 11
1.0
 21
1.0
 12
0.0
 22
0.0
 13
0.0
 23
0.0
 14
10.0
 24
10.0
 15
10.0
 25
10.0
 16
0.0
 26
0.0
 36
1.0
 17
0.0
 27
0.0
 37
0.0
 40
13860.0
 41
1.414285714285714
 42
50.0
 43
0.0
 44
0.0
 50
0.0
 51
0.0
 71
     0
 72
 10000
 73
     1
 74
     3
 75
     0
 76
     0
 77
     0
 78
     0
281
     0
 65
     1
110
0.0
120
0.0
130
0.0
111
1.0
121
0.0
131
0.0
112
0.0
122
1.0
132
0.0
 79
     0
146
0.0
 60
     3
 61
     5
292
     1
282
     1
141
0.0
142
0.0
 63
   250
  0
ENDTAB
  0
TABLE
  2
LTYPE
  5
5
330
0
100
AcDbSymbolTable
 70
     4
  0
LTYPE
  5
14
330
5
100
AcDbSymbolTableRecord
100
AcDbLinetypeTableRecord
  2
ByBlock
 70
     0
  3

 72
    65
 73
     0
 40
0.0
  0
LTYPE
  5
15
330
5
100
AcDbSymbolTableRecord
100
AcDbLinetypeTableRecord
  2
ByLayer
 70
     0
  3

 72
    65
 73
     0
 40
0.0
  0
LTYPE
  5
16
330
5
100
AcDbSymbolTableRecord
100
AcDbLinetypeTableRecord
  2
Continuous
 70
     0
  3
Solid line
 72
    65
 73
     0
 40
0.0
  0
LTYPE
  5
3F
330
5
100
AcDbSymbolTableRecord
100
AcDbLinetypeTableRecord
  2
JWW_DASHED1
 70
     0
  3
-  --  --  --  --  --  --  --  -
 72
    65
 73
     2
 40
1.693333333333333
 49
0.8466666666666667
 74
     0
 49
-0.8466666666666667
 74
     0
  0
LTYPE
  5
40
330
5
100
AcDbSymbolTableRecord
100
AcDbLinetypeTableRecord
  2
JWW_HOJO
 70
     0
  3
  -   -   -   -   -   -   -   - 
 72
    65
 73
     2
 40
1.693333333333333
 49
-1.27
 74
     0
 49
0.4233333333333333
 74
     0
  0
LTYPE
  5
41
330
5
100
AcDbSymbolTableRecord
100
AcDbLinetypeTableRecord
  2
JWW_CENTER1
 70
     0
  3
-----  --  ----------  --  -----
 72
    65
 73
     4
 40
6.773333333333333
 49
4.233333333333333
 74
     0
 49
-0.8466666666666667
 74
     0
 49
0.8466666666666667
 74
     0
 49
-0.8466666666666667
 74
     0
  0
ENDTAB
  0
TABLE
  2
LAYER
  5
2
330
0
100
AcDbSymbolTable
 70
    22
  0
LAYER
  5
10
330
2
100
AcDbSymbolTableRecord
100
AcDbLayerTableRecord
  2
0
 70
     0
 62
     7
  6
Continuous
370
    -3
390
F
347
3E
  0
LAYER
  5
42
330
2
100
AcDbSymbolTableRecord
100
AcDbLayerTableRecord
  2
0-A_文字
 70
     0
 62
     7
  6
Continuous
370
    -3
390
F
347
3E
  0
LAYER
  5
43
330
2
100
AcDbSymbolTableRecord
100
AcDbLayerTableRecord
  2
0-B_寸法
 70
     0
 62
     7
  6
Continuous
370
    -3
390
F
347
3E
  0
LAYER
  5
44
330
2
100
AcDbSymbolTableRecord
100
AcDbLayerTableRecord
  2
0-3_仕上げ
 70
     0
 62
     7
  6
Continuous
370
    -3
390
F
347
3E
  0
LAYER
  5
45
330
2
100
AcDbSymbolTableRecord
100
AcDbLayerTableRecord
  2
0-4_枠
 70
     0
 62
     7
  6
Continuous
370
    -3
390
F
347
3E
  0
LAYER
  5
46
330
2
100
AcDbSymbolTableRecord
100
AcDbLayerTableRecord
  2
0-2_柱
 70
     0
 62
     7
  6
Continuous
370
    -3
390
F
347
3E
  0
LAYER
  5
47
330
2
100
AcDbSymbolTableRecord
100
AcDbLayerTableRecord
  2
0-C_ハッチ
 70
     0
 62
     7
  6
Continuous
370
    -3
390
F
347
3E
  0
LAYER
  5
48
330
2
100
AcDbSymbolTableRecord
100
AcDbLayerTableRecord
  2
0-7_金物
 70
     0
 62
     7
  6
Continuous
370
    -3
390
F
347
3E
  0
LAYER
  5
49
330
2
100
AcDbSymbolTableRecord
100
AcDbLayerTableRecord
  2
0-1_通り芯
 70
     0
 62
     7
  6
Continuous
370
    -3
390
F
347
3E
  0
LAYER
  5
4A
330
2
100
AcDbSymbolTableRecord
100
AcDbLayerTableRecord
  2
0-5_ケーシング
 70
     0
 62
     7
  6
Continuous
370
    -3
390
F
347
3E
  0
LAYER
  5
4B
330
2
100
AcDbSymbolTableRecord
100
AcDbLayerTableRecord
  2
0-0_補助線
 70
     0
 62
     7
  6
Continuous
370
    -3
390
F
347
3E
  0
LAYER
  5
4C
330
2
100
AcDbSymbolTableRecord
100
AcDbLayerTableRecord
  2
0-6_扉
 70
     0
 62
     7
  6
Continuous
370
    -3
390
F
347
3E
  0
LAYER
  5
4D
330
2
100
AcDbSymbolTableRecord
100
AcDbLayerTableRecord
  2
F-0_補助線
 70
     0
 62
     7
  6
Continuous
370
    -3
390
F
347
3E
  0
LAYER
  5
4E
330
2
100
AcDbSymbolTableRecord
100
AcDbLayerTableRecord
  2
F-1_枠
 70
     0
 62
     7
  6
Continuous
370
    -3
390
F
347
3E
  0
LAYER
  5
4F
330
2
100
AcDbSymbolTableRecord
100
AcDbLayerTableRecord
  2
1-A_文字
 70
     0
 62
     7
  6
Continuous
370
    -3
390
F
347
3E
  0
LAYER
  5
50
330
2
100
AcDbSymbolTableRecord
100
AcDbLayerTableRecord
  2
その他構成部品
 70
     0
 62
     7
  6
Continuous
370
    -3
390
F
347
3E
  0
LAYER
  5
51
330
2
100
AcDbSymbolTableRecord
100
AcDbLayerTableRecord
  2
F-A_文字
 70
     0
 62
     7
  6
Continuous
370
    -3
390
F
347
3E
  0
LAYER
  5
52
330
2
100
AcDbSymbolTableRecord
100
AcDbLayerTableRecord
  2
1-1_通り芯
 70
     0
 62
     7
  6
Continuous
370
    -3
390
F
347
3E
  0
LAYER
  5
53
330
2
100
AcDbSymbolTableRecord
100
AcDbLayerTableRecord
  2
1-7_金物
 70
     0
 62
     7
  6
Continuous
370
    -3
390
F
347
3E
  0
LAYER
  5
54
330
2
100
AcDbSymbolTableRecord
100
AcDbLayerTableRecord
  2
1-C_ハッチ
 70
     0
 62
     7
  6
Continuous
370
    -3
390
F
347
3E
  0
LAYER
  5
55
330
2
100
AcDbSymbolTableRecord
100
AcDbLayerTableRecord
  2
1-4_枠
 70
     0
 62
     7
  6
Continuous
370
    -3
390
F
347
3E
  0
LAYER
  5
56
330
2
100
AcDbSymbolTableRecord
100
AcDbLayerTableRecord
  2
1-B_寸法
 70
     0
 62
     7
  6
Continuous
370
    -3
390
F
347
3E
  0
ENDTAB
  0
TABLE
  2
STYLE
  5
3
330
0
100
AcDbSymbolTable
 70
     1
  0
STYLE
  5
11
330
3
100
AcDbSymbolTableRecord
100
AcDbTextStyleTableRecord
  2
Standard
 70
     0
 40
0.0
 41
1.0
 50
0.0
 71
     0
 42
2.5
  3
txt
  4

  0
ENDTAB
  0
TABLE
  2
VIEW
  5
6
330
0
100
AcDbSymbolTable
 70
     0
  0
ENDTAB
  0
TABLE
  2
UCS
  5
7
330
0
100
AcDbSymbolTable
 70
     0
  0
ENDTAB
  0
TABLE
  2
APPID
  5
9
330
0
100
AcDbSymbolTable
 70
     1
  0
APPID
  5
12
330
9
100
AcDbSymbolTableRecord
100
AcDbRegAppTableRecord
  2
ACAD
 70
     0
  0
ENDTAB
  0
TABLE
  2
DIMSTYLE
  5
A
330
0
100
AcDbSymbolTable
 70
     1
100
AcDbDimStyleTable
  0
DIMSTYLE
105
27
330
A
100
AcDbSymbolTableRecord
100
AcDbDimStyleTableRecord
  2
ISO-25
 70
     0
 41
2.5
 42
0.625
 43
3.75
 44
1.25
 73
     0
 74
     0
 77
     1
 78
     8
140
2.5
141
2.5
143
0.03937007874016
147
0.625
171
     3
172
     1
178
     0
271
     2
272
     2
274
     3
278
    44
283
     0
284
     8
340
11
  0
ENDTAB
  0
TABLE
  2
BLOCK_RECORD
  5
1
330
0
100
AcDbSymbolTable
 70
     1
  0
BLOCK_RECORD
  5
1F
330
1
100
AcDbSymbolTableRecord
100
AcDbBlockTableRecord
  2
*Model_Space
340
22
 70
     0
280
     1
281
     0
  0
BLOCK_RECORD
  5
1B
330
1
100
AcDbSymbolTableRecord
100
AcDbBlockTableRecord
  2
*Paper_Space
340
1E
 70
     0
280
     1
281
     0
  0
BLOCK_RECORD
  5
23
330
1
100
AcDbSymbolTableRecord
100
AcDbBlockTableRecord
  2
*Paper_Space0
340
26
 70
     0
280
     1
281
     0
  0
ENDTAB
  0
ENDSEC
  0
SECTION
  2
BLOCKS
  0
BLOCK
  5
20
330
1F
100
AcDbEntity
  8
0
100
AcDbBlockBegin
  2
*Model_Space
 70
     0
 10
0.0
 20
0.0
 30
0.0
  3
*Model_Space
  1

  0
ENDBLK
  5
21
330
1F
100
AcDbEntity
  8
0
100
AcDbBlockEnd
  0
BLOCK
  5
1C
330
1B
100
AcDbEntity
 67
     1
  8
0
100
AcDbBlockBegin
  2
*Paper_Space
 70
     0
 10
0.0
 20
0.0
 30
0.0
  3
*Paper_Space
  1

  0
ENDBLK
  5
1D
330
1B
100
AcDbEntity
 67
     1
  8
0
100
AcDbBlockEnd
  0
BLOCK
  5
24
330
23
100
AcDbEntity
  8
0
100
AcDbBlockBegin
  2
*Paper_Space0
 70
     0
 10
0.0
 20
0.0
 30
0.0
  3
*Paper_Space0
  1

  0
ENDBLK
  5
25
330
23
100
AcDbEntity
  8
0
100
AcDbBlockEnd
  0
ENDSEC
  0
SECTION
  2
ENTITIES
  0
MTEXT
  5
57
330
1F
100
AcDbEntity
  8
0-A_文字
  6
Continuous
 62
     7
370
     9
100
AcDbMText
 10
-4117.602092458239
 20
757.9289521507155
 30
0.0
 40
91.44
 41
600.0
 46
0.0
 71
     7
 72
     1
  1
{\fＭＳ ゴシック|b0|i0|c128|p49;■縦断面図}
 73
     1
 44
1.0
  0
LWPOLYLINE
  5
58
330
1F
100
AcDbEntity
  8
0-B_寸法
  6
Continuous
 62
     7
370
     9
100
AcDbPolyline
 90
        4
 70
     1
 43
3.0
 10
-3451.333034312659
 20
611.292458943712
 42
0.4142135623731
 10
-3452.833034312658
 20
612.792458943712
 42
0.4142135623731
 10
-3454.333034312658
 20
611.292458943712
 42
0.4142135623731
 10
-3452.833034312658
 20
609.792458943712
 42
0.4142135623731
  0
LINE
  5
59
330
1F
100
AcDbEntity
  8
0-3_仕上げ
  6
Continuous
 62
    40
370
    15
100
AcDbLine
 10
-3223.24924160795
 20
2150.903327113082
 30
0.0
 11
-3771.100523147416
 21
2150.903327113082
 31
0.0
  0
MTEXT
  5
5A
330
1F
100
AcDbEntity
  8
0-B_寸法
  6
Continuous
 62
     7
370
   211
100
AcDbMText
 10
-2790.583034312659
 20
482.6982834948309
 30
0.0
 40
77.15249999999999
 41
202.5
 46
0.0
 71
     7
 72
     1
  1
{\fＭＳ ゴシック|b0|i0|c128|p49;85.5}
 73
     1
 44
1.0
  0
MTEXT
  5
5B
330
1F
100
AcDbEntity
  8
0-B_寸法
  6
Continuous
 62
     7
370
   211
100
AcDbMText
 10
-3300.583034312659
 20
482.6982834948309
 30
0.0
 40
77.15249999999999
 41
202.5
 46
0.0
 71
     7
 72
     1
  1
{\fＭＳ ゴシック|b0|i0|c128|p49;84.5}
 73
     1
 44
1.0
  0
LINE
  5
5C
330
1F
100
AcDbEntity
  8
0-B_寸法
  6
Continuous
 62
   120
370
     5
100
AcDbLine
 10
-2432.833034312658
 20
474.1220334948309
 30
0.0
 11
-2945.833034312661
 21
474.1220334948309
 31
0.0
  0
LWPOLYLINE
  5
5D
330
1F
100
AcDbEntity
  8
0-B_寸法
  6
Continuous
 62
     7
370
     9
100
AcDbPolyline
 90
        4
 70
     1
 43
3.0
 10
-2944.333034312661
 20
474.1220334948309
 42
0.4142135623731
 10
-2945.833034312661
 20
475.6220334948309
 42
0.4142135623731
 10
-2947.333034312661
 20
474.1220334948309
 42
0.4142135623731
 10
-2945.833034312661
 20
472.6220334948309
 42
0.4142135623731
  0
LINE
  5
5E
330
1F
100
AcDbEntity
  8
0-B_寸法
  6
Continuous
 62
   120
370
     5
100
AcDbLine
 10
-2945.833034312661
 20
474.1220334948309
 30
0.0
 11
-2945.833034312661
 21
326.9049851140358
 31
0.0
  0
LINE
  5
5F
330
1F
100
AcDbEntity
  8
0-B_寸法
  6
Continuous
 62
   120
370
     5
100
AcDbLine
 10
-2945.833034312661
 20
474.1220334948309
 30
0.0
 11
-3452.833034312658
 21
474.1220334948309
 31
0.0
  0
MTEXT
  5
60
330
1F
100
AcDbEntity
  8
0-B_寸法
  6
Continuous
 62
     7
370
   211
100
AcDbMText
 10
-4141.769893130951
 20
-473.3875361567798
 30
0.0
 40
74.295
 41
97.5
 46
0.0
 71
     7
 72
     1
  1
{\fＭＳ ゴシック|b0|i0|c128|p49;15}
 11
6.123031769111886E-17
 21
1.0
 31
0.0
 73
     1
 44
1.0
  0
MTEXT
  5
61
330
1F
100
AcDbEntity
  8
0-B_寸法
  6
Continuous
 62
     7
370
   211
100
AcDbMText
 10
-4141.769893130951
 20
-264.95878615678
 30
0.0
 40
77.15249999999999
 41
202.5
 46
0.0
 71
     7
 72
     1
  1
{\fＭＳ ゴシック|b0|i0|c128|p49;71.5}
 11
6.123031769111886E-17
 21
1.0
 31
0.0
 73
     1
 44
1.0
  0
LINE
  5
62
330
1F
100
AcDbEntity
  8
0-B_寸法
  6
Continuous
 62
   120
370
     5
100
AcDbLine
 10
-4117.602092458239
 20
-371.7850361567798
 30
0.0
 11
-3728.636909206589
 21
-371.7850361567798
 31
0.0
  0
LINE
  5
63
330
1F
100
AcDbEntity
  8
0-B_寸法
  6
Continuous
 62
   120
370
     5
100
AcDbLine
 10
-4117.602092458239
 20
-371.7850361567798
 30
0.0
 11
-4117.602092458239
 21
-461.7850361567798
 31
0.0
  0
LWPOLYLINE
  5
64
330
1F
100
AcDbEntity
  8
0-B_寸法
  6
Continuous
 62
     7
370
     9
100
AcDbPolyline
 90
        4
 70
     1
 43
3.0
 10
-4116.102092458239
 20
-371.7850361567798
 42
0.4142135623731
 10
-4117.602092458239
 20
-370.2850361567798
 42
0.4142135623731
 10
-4119.10209245824
 20
-371.7850361567798
 42
0.4142135623731
 10
-4117.602092458239
 20
-373.2850361567798
 42
0.4142135623731
  0
LINE
  5
65
330
1F
100
AcDbEntity
  8
0-B_寸法
  6
Continuous
 62
   120
370
     5
100
AcDbLine
 10
-4117.602092458239
 20
57.21496384321966
 30
0.0
 11
-4117.602092458239
 21
-371.7850361567798
 31
0.0
  0
LINE
  5
66
330
1F
100
AcDbEntity
  8
0-4_枠
  6
JWW_DASHED1
 62
    92
370
    13
100
AcDbLine
 10
-3452.833034312658
 20
-461.7850361567798
 30
0.0
 11
-3452.833034312658
 21
-371.7850361567798
 31
0.0
  0
LINE
  5
67
330
1F
100
AcDbEntity
  8
0-2_柱
  6
Continuous
 62
     7
370
     9
100
AcDbLine
 10
-2945.833034312661
 20
-209.7850361567797
 30
0.0
 11
-3575.833034312661
 21
-371.7850361567798
 31
0.0
  0
LINE
  5
68
330
1F
100
AcDbEntity
  8
0-2_柱
  6
Continuous
 62
     7
370
     9
100
AcDbLine
 10
-3575.833034312661
 20
-209.7850361567797
 30
0.0
 11
-2945.833034312661
 21
-47.78503615677948
 31
0.0
  0
LINE
  5
69
330
1F
100
AcDbEntity
  8
0-2_柱
  6
Continuous
 62
     7
370
     9
100
AcDbLine
 10
-2945.833034312661
 20
114.2149638432215
 30
0.0
 11
-3575.833034312661
 21
-47.78503615677948
 31
0.0
  0
LINE
  5
6A
330
1F
100
AcDbEntity
  8
0-2_柱
  6
Continuous
 62
     7
370
     9
100
AcDbLine
 10
-3575.833034312661
 20
-47.78503615677948
 30
0.0
 11
-2945.833034312661
 21
-47.78503615677948
 31
0.0
  0
LINE
  5
6B
330
1F
100
AcDbEntity
  8
0-2_柱
  6
Continuous
 62
     7
370
     9
100
AcDbLine
 10
-3575.833034312661
 20
-209.7850361567797
 30
0.0
 11
-2945.833034312661
 21
-209.7850361567797
 31
0.0
  0
LINE
  5
6C
330
1F
100
AcDbEntity
  8
0-2_柱
  6
Continuous
 62
     7
370
     9
100
AcDbLine
 10
-3575.833034312661
 20
114.2149638432215
 30
0.0
 11
-2945.833034312661
 21
114.2149638432215
 31
0.0
  0
LINE
  5
6D
330
1F
100
AcDbEntity
  8
0-3_仕上げ
  6
Continuous
 62
    40
370
    15
100
AcDbLine
 10
-3575.833034312661
 20
-371.7850361567798
 30
0.0
 11
-2945.833034312661
 21
-371.7850361567798
 31
0.0
  0
LINE
  5
6E
330
1F
100
AcDbEntity
  8
0-3_仕上げ
  6
Continuous
 62
    40
370
    15
100
AcDbLine
 10
-2945.833034312661
 20
257.9281873391187
 30
0.0
 11
-2945.833034312661
 21
-371.7850361567798
 31
0.0
  0
LINE
  5
6F
330
1F
100
AcDbEntity
  8
0-3_仕上げ
  6
Continuous
 62
    40
370
    15
100
AcDbLine
 10
-3575.833034312661
 20
-371.7850361567798
 30
0.0
 11
-3575.833034312661
 21
257.9281873391187
 31
0.0
  0
LINE
  5
70
330
1F
100
AcDbEntity
  8
0-4_枠
  6
JWW_DASHED1
 62
    92
370
    13
100
AcDbLine
 10
-2855.833034312661
 20
57.21496384321966
 30
0.0
 11
-2945.833034312661
 21
57.21496384321966
 31
0.0
  0
MTEXT
  5
71
330
1F
100
AcDbEntity
  8
0-A_文字
  6
Continuous
 62
     7
370
     9
100
AcDbMText
 10
-3694.227356805684
 20
-3238.073012099027
 30
0.0
 40
74.295
 41
195.0
 46
0.0
 71
     7
 72
     1
  1
{\fＭＳ ゴシック|b0|i0|c128|p49;ＦＬ}
 73
     1
 44
1.0
  0
MTEXT
  5
72
330
1F
100
AcDbEntity
  8
0-B_寸法
  6
Continuous
 62
     7
370
   211
100
AcDbMText
 10
-3961.097682092946
 20
-2241.615992405924
 30
0.0
 40
79.33764705882353
 41
885.0
 46
0.0
 71
     7
 72
     1
  1
{\fＭＳ ゴシック|b0|i0|c128|p49;枠内寸法：1,948.5}
 11
6.123031769111886E-17
 21
1.0
 31
0.0
 73
     1
 44
1.0
  0
MTEXT
  5
73
330
1F
100
AcDbEntity
  8
0-B_寸法
  6
Continuous
 62
     7
370
   211
100
AcDbMText
 10
-4142.987933199885
 20
-2241.615992405924
 30
0.0
 40
79.33764705882353
 41
885.0
 46
0.0
 71
     7
 72
     1
  1
{\fＭＳ ゴシック|b0|i0|c128|p49;開口寸法：1,960.5}
 11
6.123031769111886E-17
 21
1.0
 31
0.0
 73
     1
 44
1.0
  0
LINE
  5
74
330
1F
100
AcDbEntity
  8
0-B_寸法
  6
Continuous
 62
   120
370
     5
100
AcDbLine
 10
-3942.039292053497
 20
-533.7850361567826
 30
0.0
 11
-3728.636909206589
 21
-533.7850361567826
 31
0.0
  0
LINE
  5
75
330
1F
100
AcDbEntity
  8
0-A_文字
  6
Continuous
 62
     7
370
     9
100
AcDbLine
 10
-3551.252936708839
 20
-3262.726310438871
 30
0.0
 11
-3607.663277713914
 21
-3360.431883443522
 31
0.0
  0
LINE
  5
76
330
1F
100
AcDbEntity
  8
0-A_文字
  6
Continuous
 62
     7
370
     9
100
AcDbLine
 10
-3607.663277713914
 20
-3360.431883443522
 30
0.0
 11
-3664.073618718976
 21
-3262.726310438871
 31
0.0
  0
LINE
  5
77
330
1F
100
AcDbEntity
  8
0-A_文字
  6
Continuous
 62
     7
370
     9
100
AcDbLine
 10
-3664.073618718976
 20
-3262.726310438871
 30
0.0
 11
-3551.252936708839
 21
-3262.726310438871
 31
0.0
  0
LINE
  5
78
330
1F
100
AcDbEntity
  8
0-C_ハッチ
  6
Continuous
 62
     7
370
     9
100
AcDbLine
 10
-2304.838454480058
 20
-3434.785199467065
 30
0.0
 11
-3644.36865932008
 21
-3434.785199467065
 31
0.0
  0
LINE
  5
79
330
1F
100
AcDbEntity
  8
0-C_ハッチ
  6
Continuous
 62
     7
370
     9
100
AcDbLine
 10
-2304.838454480058
 20
-3362.785036156781
 30
0.0
 11
-3644.36865932008
 21
-3362.785036156781
 31
0.0
  0
LINE
  5
7A
330
1F
100
AcDbEntity
  8
0-C_ハッチ
  6
Continuous
 62
     7
370
     9
100
AcDbLine
 10
-2304.838454480058
 20
-3416.785065849559
 30
0.0
 11
-3644.36865932008
 21
-3416.785065849559
 31
0.0
  0
LINE
  5
7B
330
1F
100
AcDbEntity
  8
0-C_ハッチ
  6
Continuous
 62
     7
370
     9
100
AcDbLine
 10
-2304.838454480058
 20
-3398.785303391788
 30
0.0
 11
-3644.36865932008
 21
-3398.785303391788
 31
0.0
  0
LINE
  5
7C
330
1F
100
AcDbEntity
  8
0-C_ハッチ
  6
Continuous
 62
     7
370
     9
100
AcDbLine
 10
-2304.838454480058
 20
-3380.785169774287
 30
0.0
 11
-3644.36865932008
 21
-3380.785169774287
 31
0.0
  0
LINE
  5
7D
330
1F
100
AcDbEntity
  8
0-3_仕上げ
  6
Continuous
 62
    40
370
    15
100
AcDbLine
 10
-3665.833034312661
 20
-461.7850361567798
 30
0.0
 11
-3665.833034312661
 21
257.9281873391187
 31
0.0
  0
LINE
  5
7E
330
1F
100
AcDbEntity
  8
0-3_仕上げ
  6
Continuous
 62
    40
370
    15
100
AcDbLine
 10
-3665.833034312661
 20
-461.7850361567798
 30
0.0
 11
-2855.833034312661
 21
-461.7850361567798
 31
0.0
  0
MTEXT
  5
7F
330
1F
100
AcDbEntity
  8
0-B_寸法
  6
Continuous
 62
     7
370
   211
100
AcDbMText
 10
-3966.207092726209
 20
-655.2474261469348
 30
0.0
 40
74.2950000000052
 41
97.50000000000682
 46
0.0
 71
     7
 72
     1
  1
{\fＭＳ ゴシック|b0|i0|c128|p49;12}
 11
6.123031769111886E-17
 21
1.0
 31
0.0
 73
     1
 44
1.0
  0
LINE
  5
80
330
1F
100
AcDbEntity
  8
0-B_寸法
  6
Continuous
 62
   120
370
     5
100
AcDbLine
 10
-4117.602092458239
 20
57.21496384321966
 30
0.0
 11
-3728.636909206589
 21
57.21496384321966
 31
0.0
  0
LINE
  5
81
330
1F
100
AcDbEntity
  8
0-B_寸法
  6
Continuous
 62
   120
370
     5
100
AcDbLine
 10
-4117.602092458239
 20
-3362.78503615678
 30
0.0
 11
-3942.039292053497
 21
-3362.78503615678
 31
0.0
  0
LWPOLYLINE
  5
82
330
1F
100
AcDbEntity
  8
0-B_寸法
  6
Continuous
 62
     7
370
     9
100
AcDbPolyline
 90
        4
 70
     1
 43
3.0
 10
-4116.102092458239
 20
-3362.78503615678
 42
0.4142135623731
 10
-4117.602092458239
 20
-3361.28503615678
 42
0.4142135623731
 10
-4119.10209245824
 20
-3362.78503615678
 42
0.4142135623731
 10
-4117.602092458239
 20
-3364.28503615678
 42
0.4142135623731
  0
LINE
  5
83
330
1F
100
AcDbEntity
  8
0-B_寸法
  6
Continuous
 62
   120
370
     5
100
AcDbLine
 10
-4117.602092458239
 20
-461.7850361567798
 30
0.0
 11
-4117.602092458239
 21
-3362.78503615678
 31
0.0
  0
LINE
  5
84
330
1F
100
AcDbEntity
  8
0-B_寸法
  6
Continuous
 62
   120
370
     5
100
AcDbLine
 10
-4117.602092458239
 20
-461.7850361567798
 30
0.0
 11
-3942.039292053497
 21
-461.7850361567798
 31
0.0
  0
LWPOLYLINE
  5
85
330
1F
100
AcDbEntity
  8
0-B_寸法
  6
Continuous
 62
     7
370
     9
100
AcDbPolyline
 90
        4
 70
     1
 43
3.0
 10
-4116.102092458239
 20
-461.7850361567798
 42
0.4142135623731
 10
-4117.602092458239
 20
-460.2850361567798
 42
0.4142135623731
 10
-4119.10209245824
 20
-461.7850361567798
 42
0.4142135623731
 10
-4117.602092458239
 20
-463.2850361567798
 42
0.4142135623731
  0
LWPOLYLINE
  5
86
330
1F
100
AcDbEntity
  8
0-B_寸法
  6
Continuous
 62
     7
370
     9
100
AcDbPolyline
 90
        4
 70
     1
 43
3.0
 10
-4116.102092458239
 20
57.21496384321966
 42
0.4142135623731
 10
-4117.602092458239
 20
58.71496384321966
 42
0.4142135623731
 10
-4119.10209245824
 20
57.21496384321966
 42
0.4142135623731
 10
-4117.602092458239
 20
55.71496384321966
 42
0.4142135623731
  0
LINE
  5
87
330
1F
100
AcDbEntity
  8
0-B_寸法
  6
Continuous
 62
   120
370
     5
100
AcDbLine
 10
-3942.039292053497
 20
-3362.78503615678
 30
0.0
 11
-3942.039292053497
 21
-533.7850361567826
 31
0.0
  0
LINE
  5
88
330
1F
100
AcDbEntity
  8
0-B_寸法
  6
Continuous
 62
   120
370
     5
100
AcDbLine
 10
-3942.039292053497
 20
-461.7850361567798
 30
0.0
 11
-3728.636909206589
 21
-461.7850361567798
 31
0.0
  0
LWPOLYLINE
  5
89
330
1F
100
AcDbEntity
  8
0-B_寸法
  6
Continuous
 62
     7
370
     9
100
AcDbPolyline
 90
        4
 70
     1
 43
3.0
 10
-3940.539292053497
 20
-461.7850361567798
 42
0.4142135623731
 10
-3942.039292053497
 20
-460.2850361567798
 42
0.4142135623731
 10
-3943.539292053497
 20
-461.7850361567798
 42
0.4142135623731
 10
-3942.039292053497
 20
-463.2850361567798
 42
0.4142135623731
  0
LINE
  5
8A
330
1F
100
AcDbEntity
  8
0-B_寸法
  6
Continuous
 62
   120
370
     5
100
AcDbLine
 10
-3942.039292053497
 20
-533.7850361567826
 30
0.0
 11
-3942.039292053497
 21
-461.7850361567798
 31
0.0
  0
LWPOLYLINE
  5
8B
330
1F
100
AcDbEntity
  8
0-B_寸法
  6
Continuous
 62
     7
370
     9
100
AcDbPolyline
 90
        4
 70
     1
 43
3.0
 10
-3940.539292053497
 20
-533.7850361567826
 42
0.4142135623731
 10
-3942.039292053497
 20
-532.2850361567826
 42
0.4142135623731
 10
-3943.539292053497
 20
-533.7850361567826
 42
0.4142135623731
 10
-3942.039292053497
 20
-535.2850361567826
 42
0.4142135623731
  0
LINE
  5
8C
330
1F
100
AcDbEntity
  8
0-B_寸法
  6
Continuous
 62
   120
370
     5
100
AcDbLine
 10
-3942.039292053497
 20
-3362.78503615678
 30
0.0
 11
-3728.636909206589
 21
-3362.78503615678
 31
0.0
  0
LWPOLYLINE
  5
8D
330
1F
100
AcDbEntity
  8
0-B_寸法
  6
Continuous
 62
     7
370
     9
100
AcDbPolyline
 90
        4
 70
     1
 43
3.0
 10
-3940.539292053497
 20
-3362.78503615678
 42
0.4142135623731
 10
-3942.039292053497
 20
-3361.28503615678
 42
0.4142135623731
 10
-3943.539292053497
 20
-3362.78503615678
 42
0.4142135623731
 10
-3942.039292053497
 20
-3364.28503615678
 42
0.4142135623731
  0
MTEXT
  5
8E
330
1F
100
AcDbEntity
  8
0-B_寸法
  6
Continuous
 62
     7
370
   211
100
AcDbMText
 10
-1771.510468110047
 20
-2189.160815935337
 30
0.0
 40
79.248
 41
780.0
 46
0.0
 71
     7
 72
     1
  1
{\fＭＳ ゴシック|b0|i0|c128|p49;竪枠寸法：2,047}
 11
6.123031769111886E-17
 21
1.0
 31
0.0
 73
     1
 44
1.0
  0
MTEXT
  5
8F
330
1F
100
AcDbEntity
  8
0-B_寸法
  6
Continuous
 62
     7
370
   211
100
AcDbMText
 10
-1942.564307029376
 20
-2294.08060540902
 30
0.0
 40
79.40842105263158
 41
990.0
 46
0.0
 71
     7
 72
     1
  1
{\fＭＳ ゴシック|b0|i0|c128|p49;鴨居内寸法：1,996.5}
 11
6.123031769111886E-17
 21
1.0
 31
0.0
 73
     1
 44
1.0
  0
MTEXT
  5
90
330
1F
100
AcDbEntity
  8
0-B_寸法
  6
Continuous
 62
     7
370
   211
100
AcDbMText
 10
-2099.142668244146
 20
-2084.299361389882
 30
0.0
 40
78.97090909090909
 41
570.0
 46
0.0
 71
     7
 72
     1
  1
{\fＭＳ ゴシック|b0|i0|c128|p49;ＤＨ：1,983}
 11
6.123031769111886E-17
 21
1.0
 31
0.0
 73
     1
 44
1.0
  0
LINE
  5
91
330
1F
100
AcDbEntity
  8
0-7_金物
  6
Continuous
 62
    92
370
    13
100
AcDbLine
 10
-2636.833034312658
 20
-3344.785036156781
 30
0.0
 11
-2636.833034312658
 21
-3242.784640253063
 31
0.0
  0
ARC
  5
92
330
1F
100
AcDbEntity
  8
0-7_金物
  6
Continuous
 62
    92
370
    13
100
AcDbCircle
 10
-2654.833034312658
 20
-3344.785036156781
 30
0.0
 40
18.0
100
AcDbArc
 50
270.0
 51
0.0
  0
LINE
  5
93
330
1F
100
AcDbEntity
  8
0-7_金物
  6
Continuous
 62
    92
370
    13
100
AcDbLine
 10
-2744.833034312658
 20
-3362.785036156781
 30
0.0
 11
-2744.833034312658
 21
-3344.785036156781
 31
0.0
  0
LINE
  5
94
330
1F
100
AcDbEntity
  8
0-7_金物
  6
Continuous
 62
    92
370
    13
100
AcDbLine
 10
-2636.833034312658
 20
-3242.784640253063
 30
0.0
 11
-2654.833034312661
 21
-3242.784640253063
 31
0.0
  0
LINE
  5
95
330
1F
100
AcDbEntity
  8
0-7_金物
  6
Continuous
 62
    92
370
    13
100
AcDbLine
 10
-2654.833034312661
 20
-3344.785036156781
 30
0.0
 11
-2654.833034312661
 21
-3242.784640253063
 31
0.0
  0
LINE
  5
96
330
1F
100
AcDbEntity
  8
0-7_金物
  6
Continuous
 62
    92
370
    13
100
AcDbLine
 10
-2654.833034312661
 20
-3344.785036156781
 30
0.0
 11
-2744.833034312658
 21
-3344.785036156781
 31
0.0
  0
LINE
  5
97
330
1F
100
AcDbEntity
  8
0-C_ハッチ
  6
Continuous
 62
   120
370
     5
100
AcDbLine
 10
-2641.325477618469
 20
-3356.682343085376
 30
0.0
 11
-2654.833034312661
 21
-3343.175157743159
 31
0.0
  0
LINE
  5
98
330
1F
100
AcDbEntity
  8
0-C_ハッチ
  6
Continuous
 62
   120
370
     5
100
AcDbLine
 10
-2636.833034312658
 20
-3255.109043758134
 30
0.0
 11
-2649.157437817728
 21
-3242.784640253063
 31
0.0
  0
LINE
  5
99
330
1F
100
AcDbEntity
  8
0-C_ハッチ
  6
Continuous
 62
   120
370
     5
100
AcDbLine
 10
-2636.833034312658
 20
-3276.321688581477
 30
0.0
 11
-2654.833034312661
 21
-3258.32218346765
 31
0.0
  0
LINE
  5
9A
330
1F
100
AcDbEntity
  8
0-C_ハッチ
  6
Continuous
 62
   120
370
     5
100
AcDbLine
 10
-2636.833034312658
 20
-3297.535570626801
 30
0.0
 11
-2654.833034312661
 21
-3279.535570626796
 31
0.0
  0
LINE
  5
9B
330
1F
100
AcDbEntity
  8
0-C_ハッチ
  6
Continuous
 62
   120
370
     5
100
AcDbLine
 10
-2636.833034312658
 20
-3318.748215450145
 30
0.0
 11
-2654.833034312661
 21
-3300.748710336316
 31
0.0
  0
LINE
  5
9C
330
1F
100
AcDbEntity
  8
0-C_ハッチ
  6
Continuous
 62
   120
370
     5
100
AcDbLine
 10
-2636.833034312658
 20
-3339.962097495467
 30
0.0
 11
-2654.833034312661
 21
-3321.96209749546
 31
0.0
  0
LINE
  5
9D
330
1F
100
AcDbEntity
  8
0-C_ハッチ
  6
Continuous
 62
   120
370
     5
100
AcDbLine
 10
-2720.075670503541
 20
-3362.785036156781
 30
0.0
 11
-2738.076165376116
 21
-3344.785036156781
 31
0.0
  0
LINE
  5
9E
330
1F
100
AcDbEntity
  8
0-C_ハッチ
  6
Continuous
 62
   120
370
     5
100
AcDbLine
 10
-2698.863149388673
 20
-3362.785036156781
 30
0.0
 11
-2716.862654516102
 21
-3344.785036156781
 31
0.0
  0
LINE
  5
9F
330
1F
100
AcDbEntity
  8
0-C_ハッチ
  6
Continuous
 62
   120
370
     5
100
AcDbLine
 10
-2677.650628273811
 20
-3362.785036156781
 30
0.0
 11
-2695.65013340124
 21
-3344.785036156781
 31
0.0
  0
LINE
  5
A0
330
1F
100
AcDbEntity
  8
0-C_ハッチ
  6
Continuous
 62
   120
370
     5
100
AcDbLine
 10
-2656.436622520011
 20
-3362.785036156781
 30
0.0
 11
-2674.43612764744
 21
-3344.785036156781
 31
0.0
  0
LINE
  5
A1
330
1F
100
AcDbEntity
  8
0-C_ハッチ
  6
Continuous
 62
   120
370
     5
100
AcDbLine
 10
-2878.691472184103
 20
-533.7850361567826
 30
0.0
 11
-2945.833034312661
 21
-466.6434740282193
 31
0.0
  0
LINE
  5
A2
330
1F
100
AcDbEntity
  8
0-C_ハッチ
  6
Continuous
 62
   120
370
     5
100
AcDbLine
 10
-2812.83584637719
 20
-514.7878482213019
 30
0.0
 11
-2865.8386584417
 21
-461.7850361567849
 31
0.0
  0
LINE
  5
A3
330
1F
100
AcDbEntity
  8
0-C_ハッチ
  6
Continuous
 62
   120
370
     5
100
AcDbLine
 10
-2807.833034312664
 20
-477.3642534146217
 30
0.0
 11
-2855.833034312666
 21
-429.3642534146193
 31
0.0
  0
LINE
  5
A4
330
1F
100
AcDbEntity
  8
0-C_ハッチ
  6
Continuous
 62
   120
370
     5
100
AcDbLine
 10
-2807.833034312664
 20
-434.9378465434779
 30
0.0
 11
-2855.833034312661
 21
-386.9378465434806
 31
0.0
  0
LINE
  5
A5
330
1F
100
AcDbEntity
  8
0-C_ハッチ
  6
Continuous
 62
   120
370
     5
100
AcDbLine
 10
-2807.833034312664
 20
-392.5114396722762
 30
0.0
 11
-2855.833034312661
 21
-344.5114396722806
 31
0.0
  0
LINE
  5
A6
330
1F
100
AcDbEntity
  8
0-C_ハッチ
  6
Continuous
 62
   120
370
     5
100
AcDbLine
 10
-2807.833034312664
 20
-350.0850328010762
 30
0.0
 11
-2840.13303095696
 21
-317.7850361567812
 31
0.0
  0
LINE
  5
A7
330
1F
100
AcDbEntity
  8
0-C_ハッチ
  6
Continuous
 62
   120
370
     5
100
AcDbLine
 10
-2836.265065312898
 20
-533.7850361567877
 30
0.0
 11
-2908.2650653129
 21
-461.7850361567849
 31
0.0
  0
LINE
  5
A8
330
1F
100
AcDbEntity
  8
0-C_ハッチ
  6
Continuous
 62
   120
370
     5
100
AcDbLine
 10
-2921.117879055311
 20
-533.7850361567826
 30
0.0
 11
-2945.833034312661
 21
-509.0698808994262
 31
0.0
  0
LINE
  5
A9
330
1F
100
AcDbEntity
  8
0-A_文字
  6
Continuous
 62
     7
370
     9
100
AcDbLine
 10
-3512.899208274854
 20
318.2209387678938
 30
0.0
 11
-3222.629037512101
 21
-11.39222558604075
 31
0.0
  0
LINE
  5
AA
330
1F
100
AcDbEntity
  8
0-A_文字
  6
Continuous
 62
     7
370
     9
100
AcDbLine
 10
-3986.261023799206
 20
318.2209387678938
 30
0.0
 11
-3512.899208274854
 21
318.2209387678938
 31
0.0
  0
MTEXT
  5
AB
330
1F
100
AcDbEntity
  8
0-A_文字
  6
Continuous
 62
     7
370
     9
100
AcDbMText
 10
-3969.897027046112
 20
319.7400060638414
 30
0.0
 40
77.15249999999999
 41
405.0
 46
0.0
 71
     7
 72
     1
  1
{\fＭＳ ゴシック|b0|i0|c128|p49;補強桟木}
 73
     1
 44
1.0
  0
LINE
  5
AC
330
1F
100
AcDbEntity
  8
0-1_通り芯
  6
JWW_DASHED1
 62
    92
370
    13
100
AcDbLine
 10
-2855.833034312661
 20
-1832.78503615678
 30
0.0
 11
-2855.833034312661
 21
-3362.785036156781
 31
0.0
  0
LINE
  5
AD
330
1F
100
AcDbEntity
  8
0-1_通り芯
  6
JWW_DASHED1
 62
    92
370
    13
100
AcDbLine
 10
-2855.833034312661
 20
-533.7850361567808
 30
0.0
 11
-2855.833034312661
 21
-1742.78503615678
 31
0.0
  0
LINE
  5
AE
330
1F
100
AcDbEntity
  8
0-5_ケーシング
  6
Continuous
 62
    92
370
    13
100
AcDbLine
 10
-2807.833034312664
 20
-509.7850361567771
 30
0.0
 11
-2807.833034312664
 21
-317.7850361567795
 31
0.0
  0
LINE
  5
AF
330
1F
100
AcDbEntity
  8
0-5_ケーシング
  6
Continuous
 62
    92
370
    13
100
AcDbLine
 10
-2855.833034312661
 20
-317.7850361567795
 30
0.0
 11
-2807.833034312664
 21
-317.7850361567795
 31
0.0
  0
LINE
  5
B0
330
1F
100
AcDbEntity
  8
0-5_ケーシング
  6
Continuous
 62
    92
370
    13
100
AcDbLine
 10
-2945.833034312661
 20
-461.7850361567798
 30
0.0
 11
-2855.833034312661
 21
-461.7850361567798
 31
0.0
  0
LINE
  5
B1
330
1F
100
AcDbEntity
  8
0-5_ケーシング
  6
Continuous
 62
    92
370
    13
100
AcDbLine
 10
-2945.833034312661
 20
-533.7850361567808
 30
0.0
 11
-2945.833034312661
 21
-461.7850361567798
 31
0.0
  0
LINE
  5
B2
330
1F
100
AcDbEntity
  8
0-5_ケーシング
  6
Continuous
 62
    92
370
    13
100
AcDbLine
 10
-2831.833034312669
 20
-533.7850361567808
 30
0.0
 11
-2945.833034312661
 21
-533.7850361567808
 31
0.0
  0
LINE
  5
B3
330
1F
100
AcDbEntity
  8
0-5_ケーシング
  6
Continuous
 62
    92
370
    13
100
AcDbLine
 10
-2831.833034312669
 20
-533.7850361567808
 30
0.0
 11
-2807.833034312664
 21
-509.7850361567771
 31
0.0
  0
LINE
  5
B4
330
1F
100
AcDbEntity
  8
0-5_ケーシング
  6
Continuous
 62
    92
370
    13
100
AcDbLine
 10
-2855.833034312661
 20
-461.7850361567798
 30
0.0
 11
-2855.833034312661
 21
-317.7850361567795
 31
0.0
  0
LINE
  5
B5
330
1F
100
AcDbEntity
  8
0-4_枠
  6
Continuous
 62
    92
370
    13
100
AcDbLine
 10
-2432.833034312658
 20
-1832.78503615678
 30
0.0
 11
-2432.833034312658
 21
-3362.785036156781
 31
0.0
  0
LINE
  5
B6
330
1F
100
AcDbEntity
  8
0-4_枠
  6
Continuous
 62
    92
370
    13
100
AcDbLine
 10
-3452.833034312658
 20
-1832.78503615678
 30
0.0
 11
-3452.833034312658
 21
-3362.785036156781
 31
0.0
  0
LINE
  5
B7
330
1F
100
AcDbEntity
  8
0-4_枠
  6
Continuous
 62
    92
370
    13
100
AcDbLine
 10
-2432.833034312658
 20
57.21496384321966
 30
0.0
 11
-2432.833034312658
 21
-1742.78503615678
 31
0.0
  0
LINE
  5
B8
330
1F
100
AcDbEntity
  8
0-4_枠
  6
Continuous
 62
    92
370
    13
100
AcDbLine
 10
-3452.833034312658
 20
-461.7850361567798
 30
0.0
 11
-3452.833034312658
 21
-1742.78503615678
 31
0.0
  0
LINE
  5
B9
330
1F
100
AcDbEntity
  8
0-4_枠
  6
Continuous
 62
    92
370
    13
100
AcDbLine
 10
-2855.833034312661
 20
57.21496384321966
 30
0.0
 11
-2432.833034312658
 21
57.21496384321966
 31
0.0
  0
LINE
  5
BA
330
1F
100
AcDbEntity
  8
0-4_枠
  6
Continuous
 62
    92
370
    13
100
AcDbLine
 10
-2945.833034312661
 20
-1742.78503615678
 30
0.0
 11
-2945.833034312661
 21
-533.7850361567808
 31
0.0
  0
LINE
  5
BB
330
1F
100
AcDbEntity
  8
0-4_枠
  6
Continuous
 62
    92
370
    13
100
AcDbLine
 10
-2945.833034312661
 20
-1832.78503615678
 30
0.0
 11
-2945.833034312661
 21
-3362.785036156781
 31
0.0
  0
LINE
  5
BC
330
1F
100
AcDbEntity
  8
0-4_枠
  6
Continuous
 62
    92
370
    13
100
AcDbLine
 10
-2783.83303431266
 20
-1832.78503615678
 30
0.0
 11
-2783.83303431266
 21
-3362.785036156781
 31
0.0
  0
LINE
  5
BD
330
1F
100
AcDbEntity
  8
0-4_枠
  6
Continuous
 62
    92
370
    13
100
AcDbLine
 10
-2783.83303431266
 20
-1742.78503615678
 30
0.0
 11
-2783.83303431266
 21
-317.7850361567795
 31
0.0
  0
LINE
  5
BE
330
1F
100
AcDbEntity
  8
0-0_補助線
  6
JWW_HOJO
 62
     7
370
     9
100
AcDbLine
 10
-3452.833034312658
 20
-1832.78503615678
 30
0.0
 11
-2432.833034312658
 21
-1832.78503615678
 31
0.0
  0
LINE
  5
BF
330
1F
100
AcDbEntity
  8
0-0_補助線
  6
JWW_HOJO
 62
     7
370
     9
100
AcDbLine
 10
-3452.833034312658
 20
-1742.78503615678
 30
0.0
 11
-2432.833034312658
 21
-1742.78503615678
 31
0.0
  0
LINE
  5
C0
330
1F
100
AcDbEntity
  8
0-7_金物
  6
Continuous
 62
     7
370
     9
100
AcDbLine
 10
-2657.832183119674
 20
-245.7852440062294
 30
0.0
 11
-2657.832183119674
 21
-275.7849668736282
 31
0.0
  0
LINE
  5
C1
330
1F
100
AcDbEntity
  8
0-7_金物
  6
Continuous
 62
     7
370
     9
100
AcDbLine
 10
-2633.832994722291
 20
-245.7852440062294
 30
0.0
 11
-2633.832994722291
 21
-275.7849668736282
 31
0.0
  0
ARC
  5
C2
330
1F
100
AcDbEntity
  8
0-7_金物
  6
Continuous
 62
     7
370
     9
100
AcDbCircle
 10
-2525.833034312663
 20
-239.7852440062297
 30
0.0
 40
6.0
100
AcDbArc
 50
270.0
 51
0.0
  0
LINE
  5
C3
330
1F
100
AcDbEntity
  8
0-7_金物
  6
Continuous
 62
     7
370
     9
100
AcDbLine
 10
-2525.833034312663
 20
-245.7852440062294
 30
0.0
 11
-2601.628206926686
 21
-245.7852440062294
 31
0.0
  0
LINE
  5
C4
330
1F
100
AcDbEntity
  8
0-7_金物
  6
Continuous
 62
     7
370
     9
100
AcDbLine
 10
-2519.833034312668
 20
-239.7852440062297
 30
0.0
 11
-2519.833034312668
 21
-53.78524400622837
 31
0.0
  0
ARC
  5
C5
330
1F
100
AcDbEntity
  8
0-7_金物
  6
Continuous
 62
     7
370
     9
100
AcDbCircle
 10
-2714.832836360803
 20
-131.7848481025135
 30
0.0
 40
6.0
100
AcDbArc
 50
90.0
 51
180.0
  0
LINE
  5
C6
330
1F
100
AcDbEntity
  8
0-7_金物
  6
Continuous
 62
     7
370
     9
100
AcDbLine
 10
-2720.832836360803
 20
-131.7848481025135
 30
0.0
 11
-2720.832836360803
 21
-232.0746034340169
 31
0.0
  0
LINE
  5
C7
330
1F
100
AcDbEntity
  8
0-7_金物
  6
Continuous
 62
     7
370
     9
100
AcDbLine
 10
-2714.832836360803
 20
-125.7848481025121
 30
0.0
 11
-2685.161990710469
 21
-125.7848481025121
 31
0.0
  0
ARC
  5
C8
330
1F
100
AcDbEntity
  8
0-7_金物
  6
Continuous
 62
     7
370
     9
100
AcDbCircle
 10
-2685.161990710469
 20
-131.7848481025135
 30
0.0
 40
6.0
100
AcDbArc
 50
0.0
 51
90.0
  0
LINE
  5
C9
330
1F
100
AcDbEntity
  8
0-7_金物
  6
Continuous
 62
     7
370
     9
100
AcDbLine
 10
-2679.161990710465
 20
-131.7848481025135
 30
0.0
 11
-2679.161990710465
 21
-143.7846105602807
 31
0.0
  0
ARC
  5
CA
330
1F
100
AcDbEntity
  8
0-7_金物
  6
Continuous
 62
     7
370
     9
100
AcDbCircle
 10
-2735.832717589694
 20
-230.785362777342
 30
0.0
 40
6.0
100
AcDbArc
 50
270.0
 51
0.0
  0
LINE
  5
CB
330
1F
100
AcDbEntity
  8
0-7_金物
  6
Continuous
 62
     7
370
     9
100
AcDbLine
 10
-2735.832717589694
 20
-236.7853627773434
 30
0.0
 11
-2855.833034312661
 21
-236.7853627773434
 31
0.0
  0
LINE
  5
CC
330
1F
100
AcDbEntity
  8
0-7_金物
  6
Continuous
 62
     7
370
     9
100
AcDbLine
 10
-2729.832717589686
 20
-230.785362777342
 30
0.0
 11
-2729.832717589686
 21
-131.7848481025135
 31
0.0
  0
ARC
  5
CD
330
1F
100
AcDbEntity
  8
0-7_金物
  6
Continuous
 62
     7
370
     9
100
AcDbCircle
 10
-2735.832717589694
 20
-131.7848481025135
 30
0.0
 40
6.0
100
AcDbArc
 50
0.0
 51
90.0
  0
LINE
  5
CE
330
1F
100
AcDbEntity
  8
0-7_金物
  6
Continuous
 62
     7
370
     9
100
AcDbLine
 10
-2735.832717589694
 20
-125.7848481025121
 30
0.0
 11
-2855.833034312661
 21
-125.7848481025121
 31
0.0
  0
ARC
  5
CF
330
1F
100
AcDbEntity
  8
0-7_金物
  6
Continuous
 62
     7
370
     9
100
AcDbCircle
 10
-2840.833034312661
 20
-110.7849668736282
 30
0.0
 40
6.0
100
AcDbArc
 50
180.0
 51
270.0
  0
LINE
  5
D0
330
1F
100
AcDbEntity
  8
0-7_金物
  6
Continuous
 62
     7
370
     9
100
AcDbLine
 10
-2846.83303431266
 20
-110.7849668736282
 30
0.0
 11
-2846.83303431266
 21
-70.55736693385143
 31
0.0
  0
LINE
  5
D1
330
1F
100
AcDbEntity
  8
0-7_金物
  6
Continuous
 62
     7
370
     9
100
AcDbLine
 10
-2840.833034312661
 20
-116.7849668736295
 30
0.0
 11
-2729.832717589686
 21
-116.7849668736295
 31
0.0
  0
ARC
  5
D2
330
1F
100
AcDbEntity
  8
0-7_金物
  6
Continuous
 62
     7
370
     9
100
AcDbCircle
 10
-2840.833034312661
 20
-70.55736693385143
 30
0.0
 40
6.0
100
AcDbArc
 50
77.04441318749183
 51
180.0
  0
LINE
  5
D3
330
1F
100
AcDbEntity
  8
0-7_金物
  6
Continuous
 62
     7
370
     9
100
AcDbLine
 10
-2839.487860126521
 20
-64.71010206821575
 30
0.0
 11
-2703.746296062275
 21
-95.93770200798872
 31
0.0
  0
ARC
  5
D4
330
1F
100
AcDbEntity
  8
0-7_金物
  6
Continuous
 62
     7
370
     9
100
AcDbCircle
 10
-2705.091470248423
 20
-101.7849668736295
 30
0.0
 40
6.0
100
AcDbArc
 50
270.0
 51
77.04441318749183
  0
LINE
  5
D5
330
1F
100
AcDbEntity
  8
0-7_金物
  6
Continuous
 62
     7
370
     9
100
AcDbLine
 10
-2705.091470248423
 20
-107.7849668736309
 30
0.0
 11
-2729.832717589686
 21
-107.7849668736309
 31
0.0
  0
ARC
  5
D6
330
1F
100
AcDbEntity
  8
0-7_金物
  6
Continuous
 62
     7
370
     9
100
AcDbCircle
 10
-2661.161654192308
 20
-131.7848481025135
 30
0.0
 40
6.0
100
AcDbArc
 50
90.0
 51
180.0
  0
LINE
  5
D7
330
1F
100
AcDbEntity
  8
0-7_金物
  6
Continuous
 62
     7
370
     9
100
AcDbLine
 10
-2667.161654192311
 20
-131.7848481025135
 30
0.0
 11
-2667.161654192311
 21
-143.7846105602807
 31
0.0
  0
LINE
  5
D8
330
1F
100
AcDbEntity
  8
0-7_金物
  6
Continuous
 62
     7
370
     9
100
AcDbLine
 10
-2661.161654192308
 20
-125.7848481025121
 30
0.0
 11
-2630.104155775918
 21
-125.7848481025121
 31
0.0
  0
ARC
  5
D9
330
1F
100
AcDbEntity
  8
0-7_金物
  6
Continuous
 62
     7
370
     9
100
AcDbCircle
 10
-2630.104155775918
 20
-131.7848481025135
 30
0.0
 40
6.0
100
AcDbArc
 50
0.0
 51
90.0
  0
LINE
  5
DA
330
1F
100
AcDbEntity
  8
0-7_金物
  6
Continuous
 62
     7
370
     9
100
AcDbLine
 10
-2624.104155775924
 20
-131.7848481025135
 30
0.0
 11
-2624.104155775924
 21
-143.7846105602807
 31
0.0
  0
ARC
  5
DB
330
1F
100
AcDbEntity
  8
0-7_金物
  6
Continuous
 62
     7
370
     9
100
AcDbCircle
 10
-2606.104561577228
 20
-131.7848481025135
 30
0.0
 40
6.0
100
AcDbArc
 50
90.0
 51
180.0
  0
LINE
  5
DC
330
1F
100
AcDbEntity
  8
0-7_金物
  6
Continuous
 62
     7
370
     9
100
AcDbLine
 10
-2612.104561577236
 20
-131.7848481025135
 30
0.0
 11
-2612.104561577236
 21
-143.7846105602807
 31
0.0
  0
LINE
  5
DD
330
1F
100
AcDbEntity
  8
0-7_金物
  6
Continuous
 62
     7
370
     9
100
AcDbLine
 10
-2606.104561577228
 20
-125.7848481025121
 30
0.0
 11
-2576.832341481156
 21
-125.7848481025121
 31
0.0
  0
ARC
  5
DE
330
1F
100
AcDbEntity
  8
0-7_金物
  6
Continuous
 62
     7
370
     9
100
AcDbCircle
 10
-2576.832341481156
 20
-131.7848481025135
 30
0.0
 40
6.0
100
AcDbArc
 50
0.0
 51
90.0
  0
LINE
  5
DF
330
1F
100
AcDbEntity
  8
0-7_金物
  6
Continuous
 62
     7
370
     9
100
AcDbLine
 10
-2570.832341481161
 20
-131.7848481025135
 30
0.0
 11
-2570.832341481161
 21
-232.0746034340169
 31
0.0
  0
ARC
  5
E0
330
1F
100
AcDbEntity
  8
0-7_金物
  6
Continuous
 62
     7
370
     9
100
AcDbCircle
 10
-2555.832460252279
 20
-230.785362777342
 30
0.0
 40
6.0
100
AcDbArc
 50
180.0
 51
270.0
  0
LINE
  5
E1
330
1F
100
AcDbEntity
  8
0-7_金物
  6
Continuous
 62
     7
370
     9
100
AcDbLine
 10
-2555.832460252279
 20
-236.7853627773434
 30
0.0
 11
-2534.833034312668
 21
-236.7853627773434
 31
0.0
  0
LINE
  5
E2
330
1F
100
AcDbEntity
  8
0-7_金物
  6
Continuous
 62
     7
370
     9
100
AcDbLine
 10
-2561.832460252273
 20
-230.785362777342
 30
0.0
 11
-2561.832460252273
 21
-131.7848481025135
 31
0.0
  0
ARC
  5
E3
330
1F
100
AcDbEntity
  8
0-7_金物
  6
Continuous
 62
     7
370
     9
100
AcDbCircle
 10
-2534.833034312668
 20
-230.785362777342
 30
0.0
 40
6.0
100
AcDbArc
 50
270.0
 51
0.0
  0
LINE
  5
E4
330
1F
100
AcDbEntity
  8
0-7_金物
  6
Continuous
 62
     7
370
     9
100
AcDbLine
 10
-2528.833034312666
 20
-230.785362777342
 30
0.0
 11
-2528.833034312666
 21
-131.7848481025135
 31
0.0
  0
ARC
  5
E5
330
1F
100
AcDbEntity
  8
0-7_金物
  6
Continuous
 62
     7
370
     9
100
AcDbCircle
 10
-2555.832460252279
 20
-131.7848481025135
 30
0.0
 40
6.0
100
AcDbArc
 50
90.0
 51
180.0
  0
LINE
  5
E6
330
1F
100
AcDbEntity
  8
0-7_金物
  6
Continuous
 62
     7
370
     9
100
AcDbLine
 10
-2555.832460252279
 20
-125.7848481025121
 30
0.0
 11
-2534.833034312668
 21
-125.7848481025121
 31
0.0
  0
ARC
  5
E7
330
1F
100
AcDbEntity
  8
0-7_金物
  6
Continuous
 62
     7
370
     9
100
AcDbCircle
 10
-2534.833034312668
 20
-131.7848481025135
 30
0.0
 40
6.0
100
AcDbArc
 50
0.0
 51
90.0
  0
LINE
  5
E8
330
1F
100
AcDbEntity
  8
0-7_金物
  6
Continuous
 62
     7
370
     9
100
AcDbLine
 10
-2612.104561577236
 20
-107.7849668736309
 30
0.0
 11
-2612.104561577236
 21
-116.7849668736295
 31
0.0
  0
LINE
  5
E9
330
1F
100
AcDbEntity
  8
0-7_金物
  6
Continuous
 62
     7
370
     9
100
AcDbLine
 10
-2612.104561577236
 20
-107.7849668736309
 30
0.0
 11
-2846.83303431266
 21
-53.78524400622837
 31
0.0
  0
LINE
  5
EA
330
1F
100
AcDbEntity
  8
0-7_金物
  6
Continuous
 62
     7
370
     9
100
AcDbLine
 10
-2528.833034312666
 20
-53.78524400622837
 30
0.0
 11
-2528.833034312666
 21
-116.7849668736295
 31
0.0
  0
LINE
  5
EB
330
1F
100
AcDbEntity
  8
0-7_金物
  6
Continuous
 62
     7
370
     9
100
AcDbLine
 10
-2528.833034312666
 20
-116.7849668736295
 30
0.0
 11
-2612.104561577236
 21
-116.7849668736295
 31
0.0
  0
LINE
  5
EC
330
1F
100
AcDbEntity
  8
0-7_金物
  6
Continuous
 62
     7
370
     9
100
AcDbLine
 10
-2519.833034312668
 20
-53.78524400622837
 30
0.0
 11
-2528.833034312666
 21
-53.78524400622837
 31
0.0
  0
LINE
  5
ED
330
1F
100
AcDbEntity
  8
0-7_金物
  6
Continuous
 62
     7
370
     9
100
AcDbLine
 10
-2729.832717589686
 20
-107.7849668736309
 30
0.0
 11
-2729.832717589686
 21
-116.7849668736295
 31
0.0
  0
LINE
  5
EE
330
1F
100
AcDbEntity
  8
0-7_金物
  6
Continuous
 62
     7
370
     9
100
AcDbLine
 10
-2846.83303431266
 20
-53.78524400622837
 30
0.0
 11
-2846.83303431266
 21
24.21496384322154
 31
0.0
  0
LINE
  5
EF
330
1F
100
AcDbEntity
  8
0-7_金物
  6
Continuous
 62
     7
370
     9
100
AcDbLine
 10
-2855.833034312661
 20
24.21496384322154
 30
0.0
 11
-2846.83303431266
 21
24.21496384322154
 31
0.0
  0
LINE
  5
F0
330
1F
100
AcDbEntity
  8
0-7_金物
  6
Continuous
 62
     7
370
     9
100
AcDbLine
 10
-2846.83303431266
 20
-245.7852440062294
 30
0.0
 11
-2846.83303431266
 21
-317.7850361567795
 31
0.0
  0
ARC
  5
F1
330
1F
100
AcDbEntity
  8
0-7_金物
  6
Continuous
 62
     7
370
     9
100
AcDbCircle
 10
-2697.875864496361
 20
-188.2614237993045
 30
0.0
 40
49.46393580050083
100
AcDbArc
 50
242.3460693359375
 51
294.5316619873047
  0
ARC
  5
F2
330
1F
100
AcDbEntity
  8
0-7_金物
  6
Continuous
 62
     7
370
     9
100
AcDbCircle
 10
-2593.790797984536
 20
-188.2614237993045
 30
0.0
 40
49.46393580050083
100
AcDbArc
 50
245.4683380126953
 51
297.6539306640625
  0
ELLIPSE
  5
F3
330
1F
100
AcDbEntity
  8
0-7_金物
  6
Continuous
 62
     7
370
     9
100
AcDbEllipse
 10
-2696.833647963424
 20
-184.2848184097357
 30
0.0
 11
3.306436842834778E-15
 21
-53.99999489655366
 31
0.0
210
0.0
220
0.0
230
1.0
 40
0.3888
 41
0.0
 42
6.283185307179586
  0
ELLIPSE
  5
F4
330
1F
100
AcDbEntity
  8
0-7_金物
  6
Continuous
 62
     7
370
     9
100
AcDbEllipse
 10
-2594.833014517473
 20
-184.2848184097357
 30
0.0
 11
3.306436842834778E-15
 21
-53.99999489655366
 31
0.0
210
0.0
220
0.0
230
1.0
 40
0.3888
 41
0.0
 42
6.283185307179586
  0
LINE
  5
F5
330
1F
100
AcDbEntity
  8
0-7_金物
  6
Continuous
 62
     7
370
     9
100
AcDbLine
 10
-2688.563466771486
 20
-245.1936153903108
 30
0.0
 11
-2689.922653717224
 21
-245.797121117717
 31
0.0
  0
LINE
  5
F6
330
1F
100
AcDbEntity
  8
0-7_金物
  6
Continuous
 62
     7
370
     9
100
AcDbLine
 10
-2687.179040963849
 20
-244.593821260242
 30
0.0
 11
-2688.563466771486
 21
-245.1936153903108
 31
0.0
  0
LINE
  5
F7
330
1F
100
AcDbEntity
  8
0-7_金物
  6
Continuous
 62
     7
370
     9
100
AcDbLine
 10
-2685.761210780149
 20
-244.0036772832559
 30
0.0
 11
-2687.179040963849
 21
-244.593821260242
 31
0.0
  0
LINE
  5
F8
330
1F
100
AcDbEntity
  8
0-7_金物
  6
Continuous
 62
     7
370
     9
100
AcDbLine
 10
-2684.917935864603
 20
-243.6674065642933
 30
0.0
 11
-2685.761210780149
 21
-244.0036772832559
 31
0.0
  0
LINE
  5
F9
330
1F
100
AcDbEntity
  8
0-7_金物
  6
Continuous
 62
     7
370
     9
100
AcDbLine
 10
-2684.085795741086
 20
-243.3444975957559
 30
0.0
 11
-2684.917935864603
 21
-243.6674065642933
 31
0.0
  0
LINE
  5
FA
330
1F
100
AcDbEntity
  8
0-7_金物
  6
Continuous
 62
     7
370
     9
100
AcDbLine
 10
-2682.658315404298
 20
-242.765488410792
 30
0.0
 11
-2684.085795741086
 21
-243.3444975957559
 31
0.0
  0
LINE
  5
FB
330
1F
100
AcDbEntity
  8
0-7_金物
  6
Continuous
 62
     7
370
     9
100
AcDbLine
 10
-2681.308778611648
 20
-242.1085356816934
 30
0.0
 11
-2682.658315404298
 21
-242.765488410792
 31
0.0
  0
LINE
  5
FC
330
1F
100
AcDbEntity
  8
0-7_金物
  6
Continuous
 62
     7
370
     9
100
AcDbLine
 10
-2680.119582824061
 20
-241.3149961705045
 30
0.0
 11
-2681.308778611648
 21
-242.1085356816934
 31
0.0
  0
LINE
  5
FD
330
1F
100
AcDbEntity
  8
0-7_金物
  6
Continuous
 62
     7
370
     9
100
AcDbLine
 10
-2679.535377402824
 20
-240.7693913615918
 30
0.0
 11
-2680.119582824061
 21
-241.3149961705045
 31
0.0
  0
LINE
  5
FE
330
1F
100
AcDbEntity
  8
0-7_金物
  6
Continuous
 62
     7
370
     9
100
AcDbLine
 10
-2678.922963841798
 20
-239.963974738917
 30
0.0
 11
-2679.535377402824
 21
-240.7693913615918
 31
0.0
  0
LINE
  5
FF
330
1F
100
AcDbEntity
  8
0-7_金物
  6
Continuous
 62
     7
370
     9
100
AcDbLine
 10
-2678.177675096023
 20
-238.3301295900543
 30
0.0
 11
-2678.922963841798
 21
-239.963974738917
 31
0.0
  0
LINE
  5
100
330
1F
100
AcDbEntity
  8
0-7_金物
  6
Continuous
 62
     7
370
     9
100
AcDbLine
 10
-2677.727829498474
 20
-236.463938447742
 30
0.0
 11
-2678.177675096023
 21
-238.3301295900543
 31
0.0
  0
LINE
  5
101
330
1F
100
AcDbEntity
  8
0-7_金物
  6
Continuous
 62
     7
370
     9
100
AcDbLine
 10
-2677.457625212153
 20
-234.455221967587
 30
0.0
 11
-2677.727829498474
 21
-236.463938447742
 31
0.0
  0
LINE
  5
102
330
1F
100
AcDbEntity
  8
0-7_金物
  6
Continuous
 62
     7
370
     9
100
AcDbLine
 10
-2677.338111777824
 20
-233.2608299437294
 30
0.0
 11
-2677.457625212153
 21
-234.455221967587
 31
0.0
  0
LINE
  5
103
330
1F
100
AcDbEntity
  8
0-7_金物
  6
Continuous
 62
     7
370
     9
100
AcDbLine
 10
-2603.10245338994
 20
-245.1936153903108
 30
0.0
 11
-2601.744008763673
 21
-245.797121117717
 31
0.0
  0
LINE
  5
104
330
1F
100
AcDbEntity
  8
0-7_金物
  6
Continuous
 62
     7
370
     9
100
AcDbLine
 10
-2604.486879197586
 20
-244.593821260242
 30
0.0
 11
-2603.10245338994
 21
-245.1936153903108
 31
0.0
  0
LINE
  5
105
330
1F
100
AcDbEntity
  8
0-7_金物
  6
Continuous
 62
     7
370
     9
100
AcDbLine
 10
-2605.905451700753
 20
-244.0036772832559
 30
0.0
 11
-2604.486879197586
 21
-244.593821260242
 31
0.0
  0
LINE
  5
106
330
1F
100
AcDbEntity
  8
0-7_金物
  6
Continuous
 62
     7
370
     9
100
AcDbLine
 10
-2606.748726616299
 20
-243.6674065642933
 30
0.0
 11
-2605.905451700753
 21
-244.0036772832559
 31
0.0
  0
LINE
  5
107
330
1F
100
AcDbEntity
  8
0-7_金物
  6
Continuous
 62
     7
370
     9
100
AcDbLine
 10
-2607.580124420349
 20
-243.3444975957559
 30
0.0
 11
-2606.748726616299
 21
-243.6674065642933
 31
0.0
  0
LINE
  5
108
330
1F
100
AcDbEntity
  8
0-7_金物
  6
Continuous
 62
     7
370
     9
100
AcDbLine
 10
-2609.008347076599
 20
-242.765488410792
 30
0.0
 11
-2607.580124420349
 21
-243.3444975957559
 31
0.0
  0
LINE
  5
109
330
1F
100
AcDbEntity
  8
0-7_金物
  6
Continuous
 62
     7
370
     9
100
AcDbLine
 10
-2610.357883869248
 20
-242.1085356816934
 30
0.0
 11
-2609.008347076599
 21
-242.765488410792
 31
0.0
  0
LINE
  5
10A
330
1F
100
AcDbEntity
  8
0-7_金物
  6
Continuous
 62
     7
370
     9
100
AcDbLine
 10
-2611.547079656836
 20
-241.3149961705045
 30
0.0
 11
-2610.357883869248
 21
-242.1085356816934
 31
0.0
  0
LINE
  5
10B
330
1F
100
AcDbEntity
  8
0-7_金物
  6
Continuous
 62
     7
370
     9
100
AcDbLine
 10
-2612.130542758611
 20
-240.7693913615918
 30
0.0
 11
-2611.547079656836
 21
-241.3149961705045
 31
0.0
  0
LINE
  5
10C
330
1F
100
AcDbEntity
  8
0-7_金物
  6
Continuous
 62
     7
370
     9
100
AcDbLine
 10
-2612.742214000161
 20
-239.963974738917
 30
0.0
 11
-2612.130542758611
 21
-240.7693913615918
 31
0.0
  0
LINE
  5
10D
330
1F
100
AcDbEntity
  8
0-7_金物
  6
Continuous
 62
     7
370
     9
100
AcDbLine
 10
-2613.487502745936
 20
-238.3301295900543
 30
0.0
 11
-2612.742214000161
 21
-239.963974738917
 31
0.0
  0
LINE
  5
10E
330
1F
100
AcDbEntity
  8
0-7_金物
  6
Continuous
 62
     7
370
     9
100
AcDbLine
 10
-2613.938832982423
 20
-236.463938447742
 30
0.0
 11
-2613.487502745936
 21
-238.3301295900543
 31
0.0
  0
LINE
  5
10F
330
1F
100
AcDbEntity
  8
0-7_金物
  6
Continuous
 62
     7
370
     9
100
AcDbLine
 10
-2614.209037268749
 20
-234.455221967587
 30
0.0
 11
-2613.938832982423
 21
-236.463938447742
 31
0.0
  0
LINE
  5
110
330
1F
100
AcDbEntity
  8
0-7_金物
  6
Continuous
 62
     7
370
     9
100
AcDbLine
 10
-2614.327808383611
 20
-233.2608299437294
 30
0.0
 11
-2614.209037268749
 21
-234.455221967587
 31
0.0
  0
LINE
  5
111
330
1F
100
AcDbEntity
  8
0-7_金物
  6
Continuous
 62
     7
370
     9
100
AcDbLine
 10
-2690.037713234748
 20
-245.7852440062294
 30
0.0
 11
-2689.927107634028
 21
-245.7852440062294
 31
0.0
  0
LINE
  5
112
330
1F
100
AcDbEntity
  8
0-7_金物
  6
Continuous
 62
     7
370
     9
100
AcDbLine
 10
-2601.628206926686
 20
-245.7852440062294
 30
0.0
 11
-2601.738070207936
 21
-245.7852440062294
 31
0.0
  0
LINE
  5
113
330
1F
100
AcDbEntity
  8
0-7_金物
  6
Continuous
 62
     7
370
     9
100
AcDbLine
 10
-2667.161654192311
 20
-143.7846105602807
 30
0.0
 11
-2679.161990710465
 21
-143.7846105602807
 31
0.0
  0
LINE
  5
114
330
1F
100
AcDbEntity
  8
0-7_金物
  6
Continuous
 62
     7
370
     9
100
AcDbLine
 10
-2612.104561577236
 20
-143.7846105602807
 30
0.0
 11
-2624.104155775924
 21
-143.7846105602807
 31
0.0
  0
LINE
  5
115
330
1F
100
AcDbEntity
  8
0-7_金物
  6
Continuous
 62
     7
370
     9
100
AcDbLine
 10
-2666.833548987499
 20
-213.9931858347745
 30
0.0
 11
-2678.860609006499
 21
-213.9931858347745
 31
0.0
  0
LINE
  5
116
330
1F
100
AcDbEntity
  8
0-7_金物
  6
Continuous
 62
     7
370
     9
100
AcDbLine
 10
-2613.080711677523
 20
-213.9931858347745
 30
0.0
 11
-2624.833113493403
 21
-213.9931858347745
 31
0.0
  0
LINE
  5
117
330
1F
100
AcDbEntity
  8
0-7_金物
  6
Continuous
 62
     7
370
     9
100
AcDbLine
 10
-2666.833548987499
 20
-188.8805182355372
 30
0.0
 11
-2675.846791966798
 21
-188.8805182355372
 31
0.0
  0
LINE
  5
118
330
1F
100
AcDbEntity
  8
0-7_金物
  6
Continuous
 62
     7
370
     9
100
AcDbLine
 10
-2615.818385875161
 20
-188.8805182355372
 30
0.0
 11
-2624.833113493403
 21
-188.8805182355372
 31
0.0
  0
LINE
  5
119
330
1F
100
AcDbEntity
  8
0-7_金物
  6
Continuous
 62
     7
370
     9
100
AcDbLine
 10
-2666.833548987499
 20
-245.7852440062294
 30
0.0
 11
-2624.833113493403
 21
-245.7852440062294
 31
0.0
  0
LINE
  5
11A
330
1F
100
AcDbEntity
  8
0-7_金物
  6
Continuous
 62
     7
370
     9
100
AcDbLine
 10
-2666.833548987499
 20
-155.7849470784419
 30
0.0
 11
-2666.833548987499
 21
-245.7852440062294
 31
0.0
  0
LINE
  5
11B
330
1F
100
AcDbEntity
  8
0-7_金物
  6
Continuous
 62
     7
370
     9
100
AcDbLine
 10
-2624.833113493403
 20
-155.7849470784419
 30
0.0
 11
-2666.833548987499
 21
-155.7849470784419
 31
0.0
  0
LINE
  5
11C
330
1F
100
AcDbEntity
  8
0-7_金物
  6
Continuous
 62
     7
370
     9
100
AcDbLine
 10
-2624.833113493403
 20
-245.7852440062294
 30
0.0
 11
-2624.833113493403
 21
-155.7849470784419
 31
0.0
  0
LINE
  5
11D
330
1F
100
AcDbEntity
  8
0-7_金物
  6
Continuous
 62
     7
370
     9
100
AcDbLine
 10
-2846.83303431266
 20
-245.7852440062294
 30
0.0
 11
-2690.037713234748
 21
-245.7852440062294
 31
0.0
  0
LINE
  5
11E
330
1F
100
AcDbEntity
  8
0-7_金物
  6
Continuous
 62
     7
370
     9
100
AcDbLine
 10
-2677.332915541549
 20
-3317.784833256124
 30
0.0
 11
-2659.333153083773
 21
-3317.784833256124
 31
0.0
  0
LINE
  5
11F
330
1F
100
AcDbEntity
  8
0-7_金物
  6
Continuous
 62
     7
370
     9
100
AcDbLine
 10
-2677.332915541549
 20
-3311.784664997045
 30
0.0
 11
-2677.332915541549
 21
-3317.784833256124
 31
0.0
  0
LINE
  5
120
330
1F
100
AcDbEntity
  8
0-7_金物
  6
Continuous
 62
     7
370
     9
100
AcDbLine
 10
-2632.333509397124
 20
-3317.784833256124
 30
0.0
 11
-2614.333746939348
 21
-3317.784833256124
 31
0.0
  0
LINE
  5
121
330
1F
100
AcDbEntity
  8
0-7_金物
  6
Continuous
 62
     7
370
     9
100
AcDbLine
 10
-2614.333746939348
 20
-3317.784833256124
 30
0.0
 11
-2614.333746939348
 21
-3311.784664997045
 31
0.0
  0
LINE
  5
122
330
1F
100
AcDbEntity
  8
0-7_金物
  6
Continuous
 62
     7
370
     9
100
AcDbLine
 10
-2659.333153083773
 20
-3209.78477387057
 30
0.0
 11
-2659.333153083773
 21
-3317.784833256124
 31
0.0
  0
LINE
  5
123
330
1F
100
AcDbEntity
  8
0-7_金物
  6
Continuous
 62
     7
370
     9
100
AcDbLine
 10
-2632.333509397124
 20
-3209.78477387057
 30
0.0
 11
-2659.333153083773
 21
-3209.78477387057
 31
0.0
  0
LINE
  5
124
330
1F
100
AcDbEntity
  8
0-7_金物
  6
Continuous
 62
     7
370
     9
100
AcDbLine
 10
-2632.333509397124
 20
-3209.78477387057
 30
0.0
 11
-2632.333509397124
 21
-3317.784833256124
 31
0.0
  0
LINE
  5
125
330
1F
100
AcDbEntity
  8
0-6_扉
  6
Continuous
 62
   200
370
    20
100
AcDbLine
 10
-2555.833034312661
 20
-1832.78503615678
 30
0.0
 11
-2555.833034312661
 21
-3311.784664997045
 31
0.0
  0
LINE
  5
126
330
1F
100
AcDbEntity
  8
0-6_扉
  6
Continuous
 62
   200
370
    20
100
AcDbLine
 10
-2555.833034312661
 20
-275.7849668736282
 30
0.0
 11
-2555.833034312661
 21
-1742.78503615678
 31
0.0
  0
LINE
  5
127
330
1F
100
AcDbEntity
  8
0-6_扉
  6
Continuous
 62
   200
370
    20
100
AcDbLine
 10
-2735.833628168236
 20
-1832.78503615678
 30
0.0
 11
-2735.833628168236
 21
-3311.784664997045
 31
0.0
  0
LINE
  5
128
330
1F
100
AcDbEntity
  8
0-6_扉
  6
Continuous
 62
   200
370
    20
100
AcDbLine
 10
-2735.833628168236
 20
-275.7849668736282
 30
0.0
 11
-2735.833628168236
 21
-1742.78503615678
 31
0.0
  0
LINE
  5
129
330
1F
100
AcDbEntity
  8
0-6_扉
  6
Continuous
 62
   200
370
    20
100
AcDbLine
 10
-2735.833628168236
 20
-275.7849668736282
 30
0.0
 11
-2555.833034312661
 21
-275.7849668736282
 31
0.0
  0
LINE
  5
12A
330
1F
100
AcDbEntity
  8
0-6_扉
  6
Continuous
 62
   200
370
    20
100
AcDbLine
 10
-2665.334063662323
 20
-3311.784664997045
 30
0.0
 11
-2735.833628168236
 21
-3311.784664997045
 31
0.0
  0
LINE
  5
12B
330
1F
100
AcDbEntity
  8
0-6_扉
  6
Continuous
 62
   200
370
    20
100
AcDbLine
 10
-2626.334083457511
 20
-3311.784664997045
 30
0.0
 11
-2555.833034312661
 21
-3311.784664997045
 31
0.0
  0
LINE
  5
12C
330
1F
100
AcDbEntity
  8
0-6_扉
  6
Continuous
 62
   200
370
    20
100
AcDbLine
 10
-2665.334063662323
 20
-3203.784605611487
 30
0.0
 11
-2626.334083457511
 21
-3203.784605611487
 31
0.0
  0
LINE
  5
12D
330
1F
100
AcDbEntity
  8
0-6_扉
  6
Continuous
 62
   200
370
    20
100
AcDbLine
 10
-2626.334083457511
 20
-3311.784664997045
 30
0.0
 11
-2626.334083457511
 21
-3203.784605611487
 31
0.0
  0
LINE
  5
12E
330
1F
100
AcDbEntity
  8
0-6_扉
  6
Continuous
 62
   200
370
    20
100
AcDbLine
 10
-2665.334063662323
 20
-3311.784664997045
 30
0.0
 11
-2665.334063662323
 21
-3203.784605611487
 31
0.0
  0
LINE
  5
12F
330
1F
100
AcDbEntity
  8
0-3_仕上げ
  6
Continuous
 62
    40
370
    15
100
AcDbLine
 10
-2855.833034312661
 20
257.9281873391187
 30
0.0
 11
-2855.833034312661
 21
-317.7850361567795
 31
0.0
  0
LINE
  5
130
330
1F
100
AcDbEntity
  8
0-1_通り芯
  6
JWW_CENTER1
 62
   120
370
     5
100
AcDbLine
 10
-2645.833034312661
 20
-3467.685121139902
 30
0.0
 11
-2645.833034312661
 21
-67.86473757782147
 31
0.0
  0
MTEXT
  5
131
330
1F
100
AcDbEntity
  8
0-B_寸法
  6
Continuous
 62
     7
370
   211
100
AcDbMText
 10
-1932.721048675391
 20
65.6522278880885
 30
0.0
 40
76.19999999999999
 41
150.0
 46
0.0
 71
     7
 72
     1
  1
{\fＭＳ ゴシック|b0|i0|c128|p49;5.5}
 11
6.123031769111886E-17
 21
1.0
 31
0.0
 73
     1
 44
1.0
  0
MTEXT
  5
132
330
1F
100
AcDbEntity
  8
0-B_寸法
  6
Continuous
 62
     7
370
   211
100
AcDbMText
 10
-2091.348172922434
 20
-364.0623962503517
 30
0.0
 40
68.58
 41
45.0
 46
0.0
 71
     7
 72
     1
  1
{\fＭＳ ゴシック|b0|i0|c128|p49;5}
 11
6.123031769111886E-17
 21
1.0
 31
0.0
 73
     1
 44
1.0
  0
MTEXT
  5
133
330
1F
100
AcDbEntity
  8
0-B_寸法
  6
Continuous
 62
     7
370
   211
100
AcDbMText
 10
-3017.833034312658
 20
619.392458943712
 30
0.0
 40
76.19999999999999
 41
150.0
 46
0.0
 71
     7
 72
     1
  1
{\fＭＳ ゴシック|b0|i0|c128|p49;170}
 73
     1
 44
1.0
  0
LINE
  5
134
330
1F
100
AcDbEntity
  8
0-B_寸法
  6
Continuous
 62
   120
370
     5
100
AcDbLine
 10
-3452.833034312658
 20
611.292458943712
 30
0.0
 11
-3452.833034312658
 21
474.1220334948309
 31
0.0
  0
LINE
  5
135
330
1F
100
AcDbEntity
  8
0-B_寸法
  6
Continuous
 62
   120
370
     5
100
AcDbLine
 10
-2432.833034312658
 20
611.292458943712
 30
0.0
 11
-2432.833034312658
 21
474.1220334948309
 31
0.0
  0
LWPOLYLINE
  5
136
330
1F
100
AcDbEntity
  8
0-B_寸法
  6
Continuous
 62
     7
370
     9
100
AcDbPolyline
 90
        4
 70
     1
 43
3.0
 10
-2431.333034312659
 20
611.292458943712
 42
0.4142135623731
 10
-2432.833034312658
 20
612.792458943712
 42
0.4142135623731
 10
-2434.333034312658
 20
611.292458943712
 42
0.4142135623731
 10
-2432.833034312658
 20
609.792458943712
 42
0.4142135623731
  0
LINE
  5
137
330
1F
100
AcDbEntity
  8
0-B_寸法
  6
Continuous
 62
   120
370
     5
100
AcDbLine
 10
-2432.833034312658
 20
611.292458943712
 30
0.0
 11
-3452.833034312658
 21
611.292458943712
 31
0.0
  0
LINE
  5
138
330
1F
100
AcDbEntity
  8
0-B_寸法
  6
Continuous
 62
   120
370
     5
100
AcDbLine
 10
-3452.833034312658
 20
474.1220334948309
 30
0.0
 11
-3452.833034312658
 21
326.9049851140358
 31
0.0
  0
LWPOLYLINE
  5
139
330
1F
100
AcDbEntity
  8
0-B_寸法
  6
Continuous
 62
     7
370
     9
100
AcDbPolyline
 90
        4
 70
     1
 43
3.0
 10
-3451.333034312659
 20
474.1220334948309
 42
0.4142135623731
 10
-3452.833034312658
 20
475.6220334948309
 42
0.4142135623731
 10
-3454.333034312658
 20
474.1220334948309
 42
0.4142135623731
 10
-3452.833034312658
 20
472.6220334948309
 42
0.4142135623731
  0
LINE
  5
13A
330
1F
100
AcDbEntity
  8
0-B_寸法
  6
Continuous
 62
   120
370
     5
100
AcDbLine
 10
-2432.833034312658
 20
474.1220334948309
 30
0.0
 11
-2432.833034312658
 21
326.9049851140358
 31
0.0
  0
LWPOLYLINE
  5
13B
330
1F
100
AcDbEntity
  8
0-B_寸法
  6
Continuous
 62
     7
370
     9
100
AcDbPolyline
 90
        4
 70
     1
 43
3.0
 10
-2431.333034312659
 20
474.1220334948309
 42
0.4142135623731
 10
-2432.833034312658
 20
475.6220334948309
 42
0.4142135623731
 10
-2434.333034312658
 20
474.1220334948309
 42
0.4142135623731
 10
-2432.833034312658
 20
472.6220334948309
 42
0.4142135623731
  0
MTEXT
  5
13C
330
1F
100
AcDbEntity
  8
0-B_寸法
  6
Continuous
 62
     7
370
   211
100
AcDbMText
 10
-2096.602800501127
 20
-3303.734007277201
 30
0.0
 40
76.19999999999999
 41
150.0
 46
0.0
 71
     7
 72
     1
  1
{\fＭＳ ゴシック|b0|i0|c128|p49;8.5}
 11
6.123031769111886E-17
 21
1.0
 31
0.0
 73
     1
 44
1.0
  0
MTEXT
  5
13D
330
1F
100
AcDbEntity
  8
0-B_寸法
  6
Continuous
 62
     7
370
   211
100
AcDbMText
 10
-1932.721048675391
 20
-167.3876400815052
 30
0.0
 40
74.2950000000026
 41
97.50000000000341
 46
0.0
 71
     7
 72
     1
  1
{\fＭＳ ゴシック|b0|i0|c128|p49;45}
 11
6.123031769111886E-17
 21
1.0
 31
0.0
 73
     1
 44
1.0
  0
MTEXT
  5
13E
330
1F
100
AcDbEntity
  8
0-B_寸法
  6
Continuous
 62
     7
370
   211
100
AcDbMText
 10
-2282.91157062874
 20
-482.3875361567819
 30
0.0
 40
74.295
 41
97.5
 46
0.0
 71
     7
 72
     1
  1
{\fＭＳ ゴシック|b0|i0|c128|p49;36}
 11
6.123031769111886E-17
 21
1.0
 31
0.0
 73
     1
 44
1.0
  0
MTEXT
  5
13F
330
1F
100
AcDbEntity
  8
0-B_寸法
  6
Continuous
 62
     7
370
   211
100
AcDbMText
 10
-2460.575792751082
 20
-648.9731217386768
 30
0.0
 40
74.2949999999974
 41
97.49999999999659
 46
0.0
 71
     7
 72
     1
  1
{\fＭＳ ゴシック|b0|i0|c128|p49;12}
 11
6.123031769111886E-17
 21
1.0
 31
0.0
 73
     1
 44
1.0
  0
MTEXT
  5
140
330
1F
100
AcDbEntity
  8
0-B_寸法
  6
Continuous
 62
     7
370
   211
100
AcDbMText
 10
-2460.575792751082
 20
-446.3875361567822
 30
0.0
 40
74.295
 41
97.5
 46
0.0
 71
     7
 72
     1
  1
{\fＭＳ ゴシック|b0|i0|c128|p49;24}
 11
6.123031769111886E-17
 21
1.0
 31
0.0
 73
     1
 44
1.0
  0
MTEXT
  5
141
330
1F
100
AcDbEntity
  8
0-B_寸法
  6
Continuous
 62
     7
370
   211
100
AcDbMText
 10
-2952.736008906929
 20
-3581.513298762321
 30
0.0
 40
76.19999999999999
 41
150.0
 46
0.0
 71
     7
 72
     1
  1
{\fＭＳ ゴシック|b0|i0|c128|p49;6.5}
 73
     1
 44
1.0
  0
LINE
  5
142
330
1F
100
AcDbEntity
  8
0-B_寸法
  6
Continuous
 62
   120
370
     5
100
AcDbLine
 10
-2783.83303431266
 20
-3589.61329876232
 30
0.0
 11
-2783.83303431266
 21
-3465.360830157065
 31
0.0
  0
LWPOLYLINE
  5
143
330
1F
100
AcDbEntity
  8
0-B_寸法
  6
Continuous
 62
     7
370
     9
100
AcDbPolyline
 90
        4
 70
     1
 43
3.0
 10
-2782.33303431266
 20
-3589.61329876232
 42
0.4142135623731
 10
-2783.83303431266
 20
-3588.11329876232
 42
0.4142135623731
 10
-2785.333034312659
 20
-3589.61329876232
 42
0.4142135623731
 10
-2783.83303431266
 20
-3591.11329876232
 42
0.4142135623731
  0
LINE
  5
144
330
1F
100
AcDbEntity
  8
0-B_寸法
  6
Continuous
 62
   120
370
     5
100
AcDbLine
 10
-2744.833034312658
 20
-3589.61329876232
 30
0.0
 11
-3075.963271326368
 21
-3589.61329876232
 31
0.0
  0
MTEXT
  5
145
330
1F
100
AcDbEntity
  8
0-B_寸法
  6
Continuous
 62
     7
370
   211
100
AcDbMText
 10
-2739.583034312661
 20
-3582.46579876232
 30
0.0
 40
74.295
 41
97.5
 46
0.0
 71
     7
 72
     1
  1
{\fＭＳ ゴシック|b0|i0|c128|p49;18}
 73
     1
 44
1.0
  0
LINE
  5
146
330
1F
100
AcDbEntity
  8
0-B_寸法
  6
Continuous
 62
   120
370
     5
100
AcDbLine
 10
-2636.833034312658
 20
-3589.61329876232
 30
0.0
 11
-2636.833034312658
 21
-3465.360830157065
 31
0.0
  0
LWPOLYLINE
  5
147
330
1F
100
AcDbEntity
  8
0-B_寸法
  6
Continuous
 62
     7
370
     9
100
AcDbPolyline
 90
        4
 70
     1
 43
3.0
 10
-2635.333034312658
 20
-3589.61329876232
 42
0.4142135623731
 10
-2636.833034312658
 20
-3588.11329876232
 42
0.4142135623731
 10
-2638.333034312658
 20
-3589.61329876232
 42
0.4142135623731
 10
-2636.833034312658
 20
-3591.11329876232
 42
0.4142135623731
  0
LINE
  5
148
330
1F
100
AcDbEntity
  8
0-B_寸法
  6
Continuous
 62
   120
370
     5
100
AcDbLine
 10
-2744.833034312658
 20
-3589.61329876232
 30
0.0
 11
-2636.833034312658
 21
-3589.61329876232
 31
0.0
  0
LINE
  5
149
330
1F
100
AcDbEntity
  8
0-B_寸法
  6
Continuous
 62
   120
370
     5
100
AcDbLine
 10
-2744.833034312658
 20
-3589.61329876232
 30
0.0
 11
-2744.833034312658
 21
-3465.360830157065
 31
0.0
  0
LWPOLYLINE
  5
14A
330
1F
100
AcDbEntity
  8
0-B_寸法
  6
Continuous
 62
     7
370
     9
100
AcDbPolyline
 90
        4
 70
     1
 43
3.0
 10
-2743.333034312658
 20
-3589.61329876232
 42
0.4142135623731
 10
-2744.833034312658
 20
-3588.11329876232
 42
0.4142135623731
 10
-2746.333034312658
 20
-3589.61329876232
 42
0.4142135623731
 10
-2744.833034312658
 20
-3591.11329876232
 42
0.4142135623731
  0
LINE
  5
14B
330
1F
100
AcDbEntity
  8
0-B_寸法
  6
Continuous
 62
   120
370
     5
100
AcDbLine
 10
-2807.833034312664
 20
-700.4803002600911
 30
0.0
 11
-2807.833034312664
 21
-561.391876231886
 31
0.0
  0
LINE
  5
14C
330
1F
100
AcDbEntity
  8
0-B_寸法
  6
Continuous
 62
   120
370
     5
100
AcDbLine
 10
-2855.833034312661
 20
-700.4803002600911
 30
0.0
 11
-2855.833034312661
 21
-561.391876231886
 31
0.0
  0
LINE
  5
14D
330
1F
100
AcDbEntity
  8
0-B_寸法
  6
Continuous
 62
   120
370
     5
100
AcDbLine
 10
-2945.833034312661
 20
-700.4803002600911
 30
0.0
 11
-2945.833034312661
 21
-561.391876231886
 31
0.0
  0
MTEXT
  5
14E
330
1F
100
AcDbEntity
  8
0-B_寸法
  6
Continuous
 62
     7
370
   211
100
AcDbMText
 10
-2925.58303431266
 20
-839.7583629187616
 30
0.0
 40
74.295
 41
97.5
 46
0.0
 71
     7
 72
     1
  1
{\fＭＳ ゴシック|b0|i0|c128|p49;23}
 73
     1
 44
1.0
  0
LINE
  5
14F
330
1F
100
AcDbEntity
  8
0-B_寸法
  6
Continuous
 62
   120
370
     5
100
AcDbLine
 10
-2945.833034312661
 20
-846.9058629187616
 30
0.0
 11
-2945.833034312661
 21
-700.4803002600911
 31
0.0
  0
LINE
  5
150
330
1F
100
AcDbEntity
  8
0-B_寸法
  6
Continuous
 62
   120
370
     5
100
AcDbLine
 10
-2807.833034312664
 20
-846.9058629187616
 30
0.0
 11
-2807.833034312664
 21
-700.4803002600911
 31
0.0
  0
LWPOLYLINE
  5
151
330
1F
100
AcDbEntity
  8
0-B_寸法
  6
Continuous
 62
     7
370
     9
100
AcDbPolyline
 90
        4
 70
     1
 43
3.0
 10
-2944.333034312661
 20
-846.9058629187616
 42
0.4142135623731
 10
-2945.833034312661
 20
-845.4058629187616
 42
0.4142135623731
 10
-2947.333034312661
 20
-846.9058629187616
 42
0.4142135623731
 10
-2945.833034312661
 20
-848.4058629187616
 42
0.4142135623731
  0
LWPOLYLINE
  5
152
330
1F
100
AcDbEntity
  8
0-B_寸法
  6
Continuous
 62
     7
370
     9
100
AcDbPolyline
 90
        4
 70
     1
 43
3.0
 10
-2806.333034312664
 20
-846.9058629187616
 42
0.4142135623731
 10
-2807.833034312664
 20
-845.4058629187616
 42
0.4142135623731
 10
-2809.333034312664
 20
-846.9058629187616
 42
0.4142135623731
 10
-2807.833034312664
 20
-848.4058629187616
 42
0.4142135623731
  0
LINE
  5
153
330
1F
100
AcDbEntity
  8
0-B_寸法
  6
Continuous
 62
   120
370
     5
100
AcDbLine
 10
-2807.833034312664
 20
-846.9058629187616
 30
0.0
 11
-2945.833034312661
 21
-846.9058629187616
 31
0.0
  0
MTEXT
  5
154
330
1F
100
AcDbEntity
  8
0-B_寸法
  6
Continuous
 62
     7
370
   211
100
AcDbMText
 10
-2854.33303431266
 20
-696.1903002600911
 30
0.0
 40
68.58
 41
45.0
 46
0.0
 71
     7
 72
     1
  1
{\fＭＳ ゴシック|b0|i0|c128|p49;8}
 73
     1
 44
1.0
  0
LWPOLYLINE
  5
155
330
1F
100
AcDbEntity
  8
0-B_寸法
  6
Continuous
 62
     7
370
     9
100
AcDbPolyline
 90
        4
 70
     1
 43
3.0
 10
-2806.333034312664
 20
-700.4803002600911
 42
0.4142135623731
 10
-2807.833034312664
 20
-698.9803002600911
 42
0.4142135623731
 10
-2809.333034312664
 20
-700.4803002600911
 42
0.4142135623731
 10
-2807.833034312664
 20
-701.9803002600912
 42
0.4142135623731
  0
LINE
  5
156
330
1F
100
AcDbEntity
  8
0-B_寸法
  6
Continuous
 62
   120
370
     5
100
AcDbLine
 10
-2855.833034312661
 20
-700.4803002600911
 30
0.0
 11
-2807.833034312664
 21
-700.4803002600911
 31
0.0
  0
MTEXT
  5
157
330
1F
100
AcDbEntity
  8
0-B_寸法
  6
Continuous
 62
     7
370
   211
100
AcDbMText
 10
-2949.583034312661
 20
-693.3328002600911
 30
0.0
 40
74.295
 41
97.5
 46
0.0
 71
     7
 72
     1
  1
{\fＭＳ ゴシック|b0|i0|c128|p49;15}
 73
     1
 44
1.0
  0
LWPOLYLINE
  5
158
330
1F
100
AcDbEntity
  8
0-B_寸法
  6
Continuous
 62
     7
370
     9
100
AcDbPolyline
 90
        4
 70
     1
 43
3.0
 10
-2854.333034312661
 20
-700.4803002600911
 42
0.4142135623731
 10
-2855.833034312661
 20
-698.9803002600911
 42
0.4142135623731
 10
-2857.333034312661
 20
-700.4803002600911
 42
0.4142135623731
 10
-2855.833034312661
 20
-701.9803002600912
 42
0.4142135623731
  0
LWPOLYLINE
  5
159
330
1F
100
AcDbEntity
  8
0-B_寸法
  6
Continuous
 62
     7
370
     9
100
AcDbPolyline
 90
        4
 70
     1
 43
3.0
 10
-2944.333034312661
 20
-700.4803002600911
 42
0.4142135623731
 10
-2945.833034312661
 20
-698.9803002600911
 42
0.4142135623731
 10
-2947.333034312661
 20
-700.4803002600911
 42
0.4142135623731
 10
-2945.833034312661
 20
-701.9803002600912
 42
0.4142135623731
  0
LINE
  5
15A
330
1F
100
AcDbEntity
  8
0-B_寸法
  6
Continuous
 62
   120
370
     5
100
AcDbLine
 10
-2945.833034312661
 20
-700.4803002600911
 30
0.0
 11
-2855.833034312661
 21
-700.4803002600911
 31
0.0
  0
LINE
  5
15B
330
1F
100
AcDbEntity
  8
0-B_寸法
  6
Continuous
 62
   120
370
     5
100
AcDbLine
 10
-2274.47274281837
 20
-533.7850361567826
 30
0.0
 11
-2452.136964940711
 21
-533.7850361567826
 31
0.0
  0
LINE
  5
15C
330
1F
100
AcDbEntity
  8
0-B_寸法
  6
Continuous
 62
   120
370
     5
100
AcDbLine
 10
-2274.47274281837
 20
-317.7850361567795
 30
0.0
 11
-2452.136964940711
 21
-317.7850361567795
 31
0.0
  0
LWPOLYLINE
  5
15D
330
1F
100
AcDbEntity
  8
0-B_寸法
  6
Continuous
 62
     7
370
     9
100
AcDbPolyline
 90
        4
 70
     1
 43
3.0
 10
-2272.97274281837
 20
-533.7850361567826
 42
0.4142135623731
 10
-2274.47274281837
 20
-532.2850361567826
 42
0.4142135623731
 10
-2275.972742818369
 20
-533.7850361567826
 42
0.4142135623731
 10
-2274.47274281837
 20
-535.2850361567826
 42
0.4142135623731
  0
LWPOLYLINE
  5
15E
330
1F
100
AcDbEntity
  8
0-B_寸法
  6
Continuous
 62
     7
370
     9
100
AcDbPolyline
 90
        4
 70
     1
 43
3.0
 10
-2272.97274281837
 20
-317.7850361567795
 42
0.4142135623731
 10
-2274.47274281837
 20
-316.2850361567795
 42
0.4142135623731
 10
-2275.972742818369
 20
-317.7850361567795
 42
0.4142135623731
 10
-2274.47274281837
 20
-319.2850361567795
 42
0.4142135623731
  0
LINE
  5
15F
330
1F
100
AcDbEntity
  8
0-B_寸法
  6
Continuous
 62
   120
370
     5
100
AcDbLine
 10
-2274.47274281837
 20
-317.7850361567795
 30
0.0
 11
-2274.47274281837
 21
-533.7850361567826
 31
0.0
  0
LINE
  5
160
330
1F
100
AcDbEntity
  8
0-B_寸法
  6
Continuous
 62
   120
370
     5
100
AcDbLine
 10
-2452.136964940711
 20
-533.7850361567826
 30
0.0
 11
-2705.650022164697
 21
-533.7850361567826
 31
0.0
  0
LINE
  5
161
330
1F
100
AcDbEntity
  8
0-B_寸法
  6
Continuous
 62
   120
370
     5
100
AcDbLine
 10
-2452.136964940711
 20
-461.7850361567849
 30
0.0
 11
-2705.650022164697
 21
-461.7850361567849
 31
0.0
  0
LINE
  5
162
330
1F
100
AcDbEntity
  8
0-B_寸法
  6
Continuous
 62
   120
370
     5
100
AcDbLine
 10
-2452.136964940711
 20
-317.7850361567795
 30
0.0
 11
-2705.650022164697
 21
-317.7850361567795
 31
0.0
  0
LWPOLYLINE
  5
163
330
1F
100
AcDbEntity
  8
0-B_寸法
  6
Continuous
 62
     7
370
     9
100
AcDbPolyline
 90
        4
 70
     1
 43
3.0
 10
-2450.636964940711
 20
-533.7850361567826
 42
0.4142135623731
 10
-2452.136964940711
 20
-532.2850361567826
 42
0.4142135623731
 10
-2453.636964940711
 20
-533.7850361567826
 42
0.4142135623731
 10
-2452.136964940711
 20
-535.2850361567826
 42
0.4142135623731
  0
LINE
  5
164
330
1F
100
AcDbEntity
  8
0-B_寸法
  6
Continuous
 62
   120
370
     5
100
AcDbLine
 10
-2452.136964940711
 20
-461.7850361567849
 30
0.0
 11
-2452.136964940711
 21
-533.7850361567826
 31
0.0
  0
LWPOLYLINE
  5
165
330
1F
100
AcDbEntity
  8
0-B_寸法
  6
Continuous
 62
     7
370
     9
100
AcDbPolyline
 90
        4
 70
     1
 43
3.0
 10
-2450.636964940711
 20
-461.7850361567849
 42
0.4142135623731
 10
-2452.136964940711
 20
-460.2850361567849
 42
0.4142135623731
 10
-2453.636964940711
 20
-461.7850361567849
 42
0.4142135623731
 10
-2452.136964940711
 20
-463.2850361567849
 42
0.4142135623731
  0
LWPOLYLINE
  5
166
330
1F
100
AcDbEntity
  8
0-B_寸法
  6
Continuous
 62
     7
370
     9
100
AcDbPolyline
 90
        4
 70
     1
 43
3.0
 10
-2450.636964940711
 20
-317.7850361567795
 42
0.4142135623731
 10
-2452.136964940711
 20
-316.2850361567795
 42
0.4142135623731
 10
-2453.636964940711
 20
-317.7850361567795
 42
0.4142135623731
 10
-2452.136964940711
 20
-319.2850361567795
 42
0.4142135623731
  0
LINE
  5
167
330
1F
100
AcDbEntity
  8
0-B_寸法
  6
Continuous
 62
   120
370
     5
100
AcDbLine
 10
-2452.136964940711
 20
-317.7850361567795
 30
0.0
 11
-2452.136964940711
 21
-461.7850361567849
 31
0.0
  0
LINE
  5
168
330
1F
100
AcDbEntity
  8
0-B_寸法
  6
Continuous
 62
   120
370
     5
100
AcDbLine
 10
-1755.755952932351
 20
-3362.78503615678
 30
0.0
 11
-1924.282220865018
 21
-3362.78503615678
 31
0.0
  0
LINE
  5
169
330
1F
100
AcDbEntity
  8
0-B_寸法
  6
Continuous
 62
   120
370
     5
100
AcDbLine
 10
-1755.755952932351
 20
57.21496384321966
 30
0.0
 11
-1924.282220865018
 21
57.21496384321966
 31
0.0
  0
LWPOLYLINE
  5
16A
330
1F
100
AcDbEntity
  8
0-B_寸法
  6
Continuous
 62
     7
370
     9
100
AcDbPolyline
 90
        4
 70
     1
 43
3.0
 10
-1754.255952932351
 20
-3362.78503615678
 42
0.4142135623731
 10
-1755.755952932351
 20
-3361.28503615678
 42
0.4142135623731
 10
-1757.255952932351
 20
-3362.78503615678
 42
0.4142135623731
 10
-1755.755952932351
 20
-3364.28503615678
 42
0.4142135623731
  0
LWPOLYLINE
  5
16B
330
1F
100
AcDbEntity
  8
0-B_寸法
  6
Continuous
 62
     7
370
     9
100
AcDbPolyline
 90
        4
 70
     1
 43
3.0
 10
-1754.255952932351
 20
57.21496384321966
 42
0.4142135623731
 10
-1755.755952932351
 20
58.71496384321966
 42
0.4142135623731
 10
-1757.255952932351
 20
57.21496384321966
 42
0.4142135623731
 10
-1755.755952932351
 20
55.71496384321966
 42
0.4142135623731
  0
LINE
  5
16C
330
1F
100
AcDbEntity
  8
0-B_寸法
  6
Continuous
 62
   120
370
     5
100
AcDbLine
 10
-1755.755952932351
 20
57.21496384321966
 30
0.0
 11
-1755.755952932351
 21
-3362.78503615678
 31
0.0
  0
LINE
  5
16D
330
1F
100
AcDbEntity
  8
0-B_寸法
  6
Continuous
 62
   120
370
     5
100
AcDbLine
 10
-1924.282220865018
 20
24.21496384322154
 30
0.0
 11
-1924.282220865018
 21
230.3195841162733
 31
0.0
  0
LINE
  5
16E
330
1F
100
AcDbEntity
  8
0-B_寸法
  6
Continuous
 62
   120
370
     5
100
AcDbLine
 10
-1924.282220865018
 20
57.21496384321966
 30
0.0
 11
-2246.773906015091
 21
57.21496384321966
 31
0.0
  0
LINE
  5
16F
330
1F
100
AcDbEntity
  8
0-B_寸法
  6
Continuous
 62
   120
370
     5
100
AcDbLine
 10
-1924.282220865018
 20
24.21496384322154
 30
0.0
 11
-2246.773906015091
 21
24.21496384322154
 31
0.0
  0
LWPOLYLINE
  5
170
330
1F
100
AcDbEntity
  8
0-B_寸法
  6
Continuous
 62
     7
370
     9
100
AcDbPolyline
 90
        4
 70
     1
 43
3.0
 10
-1922.782220865018
 20
57.21496384321966
 42
0.4142135623731
 10
-1924.282220865018
 20
58.71496384321966
 42
0.4142135623731
 10
-1925.782220865018
 20
57.21496384321966
 42
0.4142135623731
 10
-1924.282220865018
 20
55.71496384321966
 42
0.4142135623731
  0
LINE
  5
171
330
1F
100
AcDbEntity
  8
0-B_寸法
  6
Continuous
 62
   120
370
     5
100
AcDbLine
 10
-1924.282220865018
 20
-3362.785036156781
 30
0.0
 11
-2082.909345112063
 21
-3362.785036156781
 31
0.0
  0
LWPOLYLINE
  5
172
330
1F
100
AcDbEntity
  8
0-B_寸法
  6
Continuous
 62
     7
370
     9
100
AcDbPolyline
 90
        4
 70
     1
 43
3.0
 10
-1922.782220865018
 20
-3362.785036156781
 42
0.4142135623731
 10
-1924.282220865018
 20
-3361.285036156781
 42
0.4142135623731
 10
-1925.782220865018
 20
-3362.785036156781
 42
0.4142135623731
 10
-1924.282220865018
 20
-3364.285036156781
 42
0.4142135623731
  0
LINE
  5
173
330
1F
100
AcDbEntity
  8
0-B_寸法
  6
Continuous
 62
   120
370
     5
100
AcDbLine
 10
-1924.282220865018
 20
-245.7852440062294
 30
0.0
 11
-1924.282220865018
 21
-3362.785036156781
 31
0.0
  0
LINE
  5
174
330
1F
100
AcDbEntity
  8
0-B_寸法
  6
Continuous
 62
   120
370
     5
100
AcDbLine
 10
-1924.282220865018
 20
-245.7852440062294
 30
0.0
 11
-2082.909345112063
 21
-245.7852440062294
 31
0.0
  0
LWPOLYLINE
  5
175
330
1F
100
AcDbEntity
  8
0-B_寸法
  6
Continuous
 62
     7
370
     9
100
AcDbPolyline
 90
        4
 70
     1
 43
3.0
 10
-1922.782220865018
 20
-245.7852440062294
 42
0.4142135623731
 10
-1924.282220865018
 20
-244.2852440062294
 42
0.4142135623731
 10
-1925.782220865018
 20
-245.7852440062294
 42
0.4142135623731
 10
-1924.282220865018
 20
-247.2852440062294
 42
0.4142135623731
  0
LWPOLYLINE
  5
176
330
1F
100
AcDbEntity
  8
0-B_寸法
  6
Continuous
 62
     7
370
     9
100
AcDbPolyline
 90
        4
 70
     1
 43
3.0
 10
-1922.782220865018
 20
24.21496384322154
 42
0.4142135623731
 10
-1924.282220865018
 20
25.71496384322154
 42
0.4142135623731
 10
-1925.782220865018
 20
24.21496384322154
 42
0.4142135623731
 10
-1924.282220865018
 20
22.71496384322154
 42
0.4142135623731
  0
LINE
  5
177
330
1F
100
AcDbEntity
  8
0-B_寸法
  6
Continuous
 62
   120
370
     5
100
AcDbLine
 10
-1924.282220865018
 20
24.21496384322154
 30
0.0
 11
-1924.282220865018
 21
-245.7852440062294
 31
0.0
  0
LINE
  5
178
330
1F
100
AcDbEntity
  8
0-B_寸法
  6
Continuous
 62
   120
370
     5
100
AcDbLine
 10
-2082.909345112063
 20
-3362.785036156781
 30
0.0
 11
-2246.773906015091
 21
-3362.785036156781
 31
0.0
  0
LWPOLYLINE
  5
179
330
1F
100
AcDbEntity
  8
0-B_寸法
  6
Continuous
 62
     7
370
     9
100
AcDbPolyline
 90
        4
 70
     1
 43
3.0
 10
-2081.409345112063
 20
-3362.785036156781
 42
0.4142135623731
 10
-2082.909345112063
 20
-3361.285036156781
 42
0.4142135623731
 10
-2084.409345112063
 20
-3362.785036156781
 42
0.4142135623731
 10
-2082.909345112063
 20
-3364.285036156781
 42
0.4142135623731
  0
LINE
  5
17A
330
1F
100
AcDbEntity
  8
0-B_寸法
  6
Continuous
 62
   120
370
     5
100
AcDbLine
 10
-2082.909345112063
 20
-3311.784664997045
 30
0.0
 11
-2082.909345112063
 21
-3362.785036156781
 31
0.0
  0
LINE
  5
17B
330
1F
100
AcDbEntity
  8
0-B_寸法
  6
Continuous
 62
   120
370
     5
100
AcDbLine
 10
-2082.909345112063
 20
-3311.784664997045
 30
0.0
 11
-2246.773906015091
 21
-3311.784664997045
 31
0.0
  0
LWPOLYLINE
  5
17C
330
1F
100
AcDbEntity
  8
0-B_寸法
  6
Continuous
 62
     7
370
     9
100
AcDbPolyline
 90
        4
 70
     1
 43
3.0
 10
-2081.409345112063
 20
-3311.784664997045
 42
0.4142135623731
 10
-2082.909345112063
 20
-3310.284664997045
 42
0.4142135623731
 10
-2084.409345112063
 20
-3311.784664997045
 42
0.4142135623731
 10
-2082.909345112063
 20
-3313.284664997045
 42
0.4142135623731
  0
LINE
  5
17D
330
1F
100
AcDbEntity
  8
0-B_寸法
  6
Continuous
 62
   120
370
     5
100
AcDbLine
 10
-2082.909345112063
 20
-275.7849668736282
 30
0.0
 11
-2082.909345112063
 21
-3311.784664997045
 31
0.0
  0
LINE
  5
17E
330
1F
100
AcDbEntity
  8
0-B_寸法
  6
Continuous
 62
   120
370
     5
100
AcDbLine
 10
-2082.909345112063
 20
-275.7849668736282
 30
0.0
 11
-2246.773906015091
 21
-275.7849668736282
 31
0.0
  0
LINE
  5
17F
330
1F
100
AcDbEntity
  8
0-B_寸法
  6
Continuous
 62
   120
370
     5
100
AcDbLine
 10
-2082.909345112063
 20
-245.7852440062294
 30
0.0
 11
-2246.773906015091
 21
-245.7852440062294
 31
0.0
  0
LWPOLYLINE
  5
180
330
1F
100
AcDbEntity
  8
0-B_寸法
  6
Continuous
 62
     7
370
     9
100
AcDbPolyline
 90
        4
 70
     1
 43
3.0
 10
-2081.409345112063
 20
-275.7849668736282
 42
0.4142135623731
 10
-2082.909345112063
 20
-274.2849668736282
 42
0.4142135623731
 10
-2084.409345112063
 20
-275.7849668736282
 42
0.4142135623731
 10
-2082.909345112063
 20
-277.2849668736282
 42
0.4142135623731
  0
LWPOLYLINE
  5
181
330
1F
100
AcDbEntity
  8
0-B_寸法
  6
Continuous
 62
     7
370
     9
100
AcDbPolyline
 90
        4
 70
     1
 43
3.0
 10
-2081.409345112063
 20
-245.7852440062294
 42
0.4142135623731
 10
-2082.909345112063
 20
-244.2852440062294
 42
0.4142135623731
 10
-2084.409345112063
 20
-245.7852440062294
 42
0.4142135623731
 10
-2082.909345112063
 20
-247.2852440062294
 42
0.4142135623731
  0
LINE
  5
182
330
1F
100
AcDbEntity
  8
0-B_寸法
  6
Continuous
 62
   120
370
     5
100
AcDbLine
 10
-2082.909345112063
 20
-245.7852440062294
 30
0.0
 11
-2082.909345112063
 21
-275.7849668736282
 31
0.0
  0
MTEXT
  5
183
330
1F
100
AcDbEntity
  8
0-B_寸法
  6
Continuous
 62
     7
370
     9
100
AcDbMText
 10
-3123.986387455936
 20
-3694.802292931563
 30
0.0
 40
57.15
 41
375.0
 46
0.0
 71
     7
 72
     1
  1
{\fＭＳ ゴシック|b0|i0|c128|p49;(見切から)}
 73
     1
 44
1.0
  0
LINE
  5
184
330
1F
100
AcDbEntity
  8
F-0_補助線
  6
JWW_HOJO
 62
   120
370
     5
100
AcDbLine
 10
-6300.0
 20
-4455.0
 30
0.0
 11
-6300.0
 21
4424.999604096284
 31
0.0
  0
LINE
  5
185
330
1F
100
AcDbEntity
  8
F-0_補助線
  6
JWW_HOJO
 62
   120
370
     5
100
AcDbLine
 10
5999.999010240709
 20
4424.999604096284
 30
0.0
 11
5999.999010240709
 21
-4455.0
 31
0.0
  0
LINE
  5
186
330
1F
100
AcDbEntity
  8
F-0_補助線
  6
JWW_HOJO
 62
   120
370
     5
100
AcDbLine
 10
5999.999010240709
 20
-4455.0
 30
0.0
 11
-6300.0
 21
-4455.0
 31
0.0
  0
LINE
  5
187
330
1F
100
AcDbEntity
  8
F-1_枠
  6
JWW_HOJO
 62
   120
370
     5
100
AcDbLine
 10
-6300.0
 20
4424.999604096284
 30
0.0
 11
5999.999010240709
 21
4424.999604096284
 31
0.0
  0
LINE
  5
188
330
1F
100
AcDbEntity
  8
F-1_枠
  6
Continuous
 62
   200
370
    20
100
AcDbLine
 10
-5999.999752560178
 20
4164.999983504013
 30
0.0
 11
5699.998762800888
 21
4164.999983504013
 31
0.0
  0
LINE
  5
189
330
1F
100
AcDbEntity
  8
F-1_枠
  6
Continuous
 62
   200
370
    20
100
AcDbLine
 10
-5999.999752560178
 20
4169.999505120355
 30
0.0
 11
5699.998762800888
 21
4169.999505120355
 31
0.0
  0
LINE
  5
18A
330
1F
100
AcDbEntity
  8
F-1_枠
  6
Continuous
 62
   200
370
    20
100
AcDbLine
 10
-5999.99998453501
 20
4174.999769056166
 30
0.0
 11
-5999.99998453501
 21
-4205.000164959882
 31
0.0
  0
LINE
  5
18B
330
1F
100
AcDbEntity
  8
F-1_枠
  6
Continuous
 62
   200
370
    20
100
AcDbLine
 10
-5999.99998453501
 20
4174.999769056166
 30
0.0
 11
5699.998762800888
 21
4174.999769056166
 31
0.0
  0
LINE
  5
18C
330
1F
100
AcDbEntity
  8
F-1_枠
  6
Continuous
 62
   200
370
    20
100
AcDbLine
 10
-5994.999975771516
 20
4174.999769056166
 30
0.0
 11
-5994.999975771516
 21
-4205.000164959882
 31
0.0
  0
LINE
  5
18D
330
1F
100
AcDbEntity
  8
F-1_枠
  6
Continuous
 62
   200
370
    20
100
AcDbLine
 10
-5989.999990205508
 20
4174.999769056166
 30
0.0
 11
-5989.999990205508
 21
-4205.000164959882
 31
0.0
  0
LINE
  5
18E
330
1F
100
AcDbEntity
  8
F-1_枠
  6
Continuous
 62
   200
370
    20
100
AcDbLine
 10
5689.998977248734
 20
4174.999769056166
 30
0.0
 11
5689.998977248734
 21
-4205.000164959882
 31
0.0
  0
LINE
  5
18F
330
1F
100
AcDbEntity
  8
F-1_枠
  6
Continuous
 62
   200
370
    20
100
AcDbLine
 10
5694.998498865077
 20
4174.999769056166
 30
0.0
 11
5694.998498865077
 21
-4205.000164959882
 31
0.0
  0
LINE
  5
190
330
1F
100
AcDbEntity
  8
F-1_枠
  6
Continuous
 62
   200
370
    20
100
AcDbLine
 10
5699.998762800888
 20
4174.999769056166
 30
0.0
 11
5699.998762800888
 21
-4205.000164959882
 31
0.0
  0
LINE
  5
191
330
1F
100
AcDbEntity
  8
F-0_補助線
  6
Continuous
 62
   200
370
    20
100
AcDbLine
 10
3561.017955216862
 20
4174.999769056166
 30
0.0
 11
3561.017955216862
 21
-3795.000003092998
 31
0.0
  0
MTEXT
  5
192
330
1F
100
AcDbEntity
  8
1-A_文字
  6
Continuous
 62
     7
370
     9
100
AcDbMText
 10
3698.270499271794
 20
3865.05536981128
 30
0.0
 40
79.375
 41
1875.0
 46
0.0
 71
     7
 72
     1
  1
{\fＭＳ ゴシック|b0|i0|c128|p49;寸法を参考に加工をお願いいたします。}
 73
     1
 44
1.0
  0
MTEXT
  5
193
330
1F
100
AcDbEntity
  8
1-A_文字
  6
Continuous
 62
     7
370
     9
100
AcDbMText
 10
3698.270499271794
 20
3987.439688678784
 30
0.0
 40
79.2725806451613
 41
1612.5
 46
0.0
 71
     7
 72
     1
  1
{\fＭＳ ゴシック|b0|i0|c128|p49;※縦枠はＨ2,047あります。下記の}
 73
     1
 44
1.0
  0
MTEXT
  5
194
330
1F
100
AcDbEntity
  8
1-A_文字
  6
Continuous
 62
     7
370
     9
100
AcDbMText
 10
3621.017955216862
 20
-3735.947679909372
 30
0.0
 40
78.105
 41
307.5
 46
0.0
 71
     7
 72
     1
  1
{\fＭＳ ゴシック|b0|i0|c128|p49;S=1/10}
 73
     1
 44
1.0
  0
LINE
  5
195
330
1F
100
AcDbEntity
  8
0-B_寸法
  6
Continuous
 62
   200
370
    20
100
AcDbLine
 10
3561.017955216866
 20
3802.641460725522
 30
0.0
 11
5694.998498865079
 21
3802.641460725522
 31
0.0
  0
LINE
  5
196
330
1F
100
AcDbEntity
  8
0-B_寸法
  6
Continuous
 62
     7
370
     9
100
AcDbLine
 10
-88.79922213800995
 20
1993.408147604834
 30
0.0
 11
61.10326442124176
 21
1951.838550491763
 31
0.0
  0
LINE
  5
197
330
1F
100
AcDbEntity
  8
0-B_寸法
  6
Continuous
 62
     7
370
     9
100
AcDbLine
 10
-88.79922213800995
 20
2148.138655783515
 30
0.0
 11
-88.79922213800995
 21
1993.408147604834
 31
0.0
  0
LINE
  5
198
330
1F
100
AcDbEntity
  8
0-B_寸法
  6
Continuous
 62
     7
370
     9
100
AcDbLine
 10
-1562.271694206727
 20
2275.171650199964
 30
0.0
 11
-1562.271694206727
 21
2029.793066390284
 31
0.0
  0
LINE
  5
199
330
1F
100
AcDbEntity
  8
0-B_寸法
  6
Continuous
 62
     7
370
     9
100
AcDbLine
 10
-1562.271694206727
 20
2029.793066390284
 30
0.0
 11
-1405.404336037216
 21
1968.789093768807
 31
0.0
  0
LINE
  5
19A
330
1F
100
AcDbEntity
  8
0-B_寸法
  6
Continuous
 62
   120
370
     5
100
AcDbLine
 10
61.10326442124176
 20
2060.903327113082
 30
0.0
 11
61.10326442124176
 21
1988.903327113084
 31
0.0
  0
LWPOLYLINE
  5
19B
330
1F
100
AcDbEntity
  8
0-B_寸法
  6
Continuous
 62
     7
370
     9
100
AcDbPolyline
 90
        4
 70
     1
 43
3.0
 10
62.60326442124175
 20
2060.903327113082
 42
0.4142135623731
 10
61.10326442124176
 20
2062.403327113082
 42
0.4142135623731
 10
59.60326442124176
 20
2060.903327113082
 42
0.4142135623731
 10
61.10326442124176
 20
2059.403327113082
 42
0.4142135623731
  0
LWPOLYLINE
  5
19C
330
1F
100
AcDbEntity
  8
0-B_寸法
  6
Continuous
 62
     7
370
     9
100
AcDbPolyline
 90
        4
 70
     1
 43
3.0
 10
62.60326442124175
 20
1988.903327113084
 42
0.4142135623731
 10
61.10326442124176
 20
1990.403327113084
 42
0.4142135623731
 10
59.60326442124176
 20
1988.903327113084
 42
0.4142135623731
 10
61.10326442124176
 20
1987.403327113084
 42
0.4142135623731
  0
LINE
  5
19D
330
1F
100
AcDbEntity
  8
0-B_寸法
  6
Continuous
 62
   120
370
     5
100
AcDbLine
 10
61.10326442124176
 20
2060.903327113082
 30
0.0
 11
-167.7546481009199
 21
2060.903327113082
 31
0.0
  0
MTEXT
  5
19E
330
1F
100
AcDbEntity
  8
0-B_寸法
  6
Continuous
 62
     7
370
   211
100
AcDbMText
 10
46.10326442124176
 20
1968.300827113083
 30
0.0
 40
74.295
 41
97.5
 46
0.0
 71
     7
 72
     1
  1
{\fＭＳ ゴシック|b0|i0|c128|p49;12}
 11
6.123031769111886E-17
 21
1.0
 31
0.0
 73
     1
 44
1.0
  0
LINE
  5
19F
330
1F
100
AcDbEntity
  8
0-B_寸法
  6
Continuous
 62
   120
370
     5
100
AcDbLine
 10
61.10326442124176
 20
1988.903327113084
 30
0.0
 11
61.10326442124176
 21
1940.903327113082
 31
0.0
  0
LWPOLYLINE
  5
1A0
330
1F
100
AcDbEntity
  8
0-B_寸法
  6
Continuous
 62
     7
370
     9
100
AcDbPolyline
 90
        4
 70
     1
 43
3.0
 10
62.60326442124175
 20
1940.903327113082
 42
0.4142135623731
 10
61.10326442124176
 20
1942.403327113082
 42
0.4142135623731
 10
59.60326442124176
 20
1940.903327113082
 42
0.4142135623731
 10
61.10326442124176
 20
1939.403327113082
 42
0.4142135623731
  0
LINE
  5
1A1
330
1F
100
AcDbEntity
  8
0-B_寸法
  6
Continuous
 62
   120
370
     5
100
AcDbLine
 10
61.10326442124176
 20
1940.903327113082
 30
0.0
 11
61.10326442124176
 21
1760.903327113082
 31
0.0
  0
LWPOLYLINE
  5
1A2
330
1F
100
AcDbEntity
  8
0-B_寸法
  6
Continuous
 62
     7
370
     9
100
AcDbPolyline
 90
        4
 70
     1
 43
3.0
 10
62.60326442124175
 20
1760.903327113082
 42
0.4142135623731
 10
61.10326442124176
 20
1762.403327113082
 42
0.4142135623731
 10
59.60326442124176
 20
1760.903327113082
 42
0.4142135623731
 10
61.10326442124176
 20
1759.403327113082
 42
0.4142135623731
  0
MTEXT
  5
1A3
330
1F
100
AcDbEntity
  8
0-B_寸法
  6
Continuous
 62
     7
370
   211
100
AcDbMText
 10
46.10326442124176
 20
1794.300827113081
 30
0.0
 40
74.295
 41
97.5
 46
0.0
 71
     7
 72
     1
  1
{\fＭＳ ゴシック|b0|i0|c128|p49;30}
 11
6.123031769111886E-17
 21
1.0
 31
0.0
 73
     1
 44
1.0
  0
MTEXT
  5
1A4
330
1F
100
AcDbEntity
  8
0-B_寸法
  6
Continuous
 62
     7
370
   211
100
AcDbMText
 10
-86.08399588143129
 20
2066.459993672536
 30
0.0
 40
68.58
 41
45.0
 46
0.0
 71
     7
 72
     1
  1
{\fＭＳ ゴシック|b0|i0|c128|p49;8}
 11
6.123031769111886E-17
 21
1.0
 31
0.0
 73
     1
 44
1.0
  0
LINE
  5
1A5
330
1F
100
AcDbEntity
  8
0-B_寸法
  6
Continuous
 62
   120
370
     5
100
AcDbLine
 10
61.10326442124176
 20
1988.903327113084
 30
0.0
 11
-327.3508644052743
 21
1988.903327113084
 31
0.0
  0
LINE
  5
1A6
330
1F
100
AcDbEntity
  8
0-B_寸法
  6
Continuous
 62
   120
370
     5
100
AcDbLine
 10
61.10326442124176
 20
1940.903327113082
 30
0.0
 11
-327.3508644052743
 21
1940.903327113082
 31
0.0
  0
LINE
  5
1A7
330
1F
100
AcDbEntity
  8
0-B_寸法
  6
Continuous
 62
   120
370
     5
100
AcDbLine
 10
61.10326442124176
 20
1760.903327113082
 30
0.0
 11
-327.3508644052743
 21
1760.903327113082
 31
0.0
  0
LWPOLYLINE
  5
1A8
330
1F
100
AcDbEntity
  8
0-B_寸法
  6
Continuous
 62
     7
370
     9
100
AcDbPolyline
 90
        4
 70
     1
 43
3.0
 10
-1262.085146782444
 20
2156.903327113083
 42
0.4142135623731
 10
-1263.585146782444
 20
2158.403327113083
 42
0.4142135623731
 10
-1265.085146782444
 20
2156.903327113083
 42
0.4142135623731
 10
-1263.585146782444
 20
2155.403327113083
 42
0.4142135623731
  0
LWPOLYLINE
  5
1A9
330
1F
100
AcDbEntity
  8
0-B_寸法
  6
Continuous
 62
     7
370
     9
100
AcDbPolyline
 90
        4
 70
     1
 43
3.0
 10
-1262.085146782444
 20
2060.903327113082
 42
0.4142135623731
 10
-1263.585146782444
 20
2062.403327113082
 42
0.4142135623731
 10
-1265.085146782444
 20
2060.903327113082
 42
0.4142135623731
 10
-1263.585146782444
 20
2059.403327113082
 42
0.4142135623731
  0
LINE
  5
1AA
330
1F
100
AcDbEntity
  8
0-B_寸法
  6
Continuous
 62
   120
370
     5
100
AcDbLine
 10
-1263.585146782444
 20
2060.903327113082
 30
0.0
 11
-1137.277431352414
 21
2060.903327113082
 31
0.0
  0
LINE
  5
1AB
330
1F
100
AcDbEntity
  8
0-B_寸法
  6
Continuous
 62
   120
370
     5
100
AcDbLine
 10
-1263.585146782444
 20
2060.903327113082
 30
0.0
 11
-1263.585146782444
 21
1988.903327113084
 31
0.0
  0
LWPOLYLINE
  5
1AC
330
1F
100
AcDbEntity
  8
0-B_寸法
  6
Continuous
 62
     7
370
     9
100
AcDbPolyline
 90
        4
 70
     1
 43
3.0
 10
-1262.085146782444
 20
1988.903327113084
 42
0.4142135623731
 10
-1263.585146782444
 20
1990.403327113084
 42
0.4142135623731
 10
-1265.085146782444
 20
1988.903327113084
 42
0.4142135623731
 10
-1263.585146782444
 20
1987.403327113084
 42
0.4142135623731
  0
MTEXT
  5
1AD
330
1F
100
AcDbEntity
  8
0-B_寸法
  6
Continuous
 62
     7
370
   211
100
AcDbMText
 10
-1278.585146782444
 20
1968.300827113083
 30
0.0
 40
74.295
 41
97.5
 46
0.0
 71
     7
 72
     1
  1
{\fＭＳ ゴシック|b0|i0|c128|p49;12}
 11
6.123031769111886E-17
 21
1.0
 31
0.0
 73
     1
 44
1.0
  0
LINE
  5
1AE
330
1F
100
AcDbEntity
  8
0-B_寸法
  6
Continuous
 62
   120
370
     5
100
AcDbLine
 10
-1405.404336037216
 20
2156.903327113083
 30
0.0
 11
-1405.404336037216
 21
1988.903327113084
 31
0.0
  0
LWPOLYLINE
  5
1AF
330
1F
100
AcDbEntity
  8
0-B_寸法
  6
Continuous
 62
     7
370
     9
100
AcDbPolyline
 90
        4
 70
     1
 43
3.0
 10
-1403.904336037216
 20
2156.903327113083
 42
0.4142135623731
 10
-1405.404336037216
 20
2158.403327113083
 42
0.4142135623731
 10
-1406.904336037216
 20
2156.903327113083
 42
0.4142135623731
 10
-1405.404336037216
 20
2155.403327113083
 42
0.4142135623731
  0
LWPOLYLINE
  5
1B0
330
1F
100
AcDbEntity
  8
0-B_寸法
  6
Continuous
 62
     7
370
     9
100
AcDbPolyline
 90
        4
 70
     1
 43
3.0
 10
-1403.904336037216
 20
1988.903327113084
 42
0.4142135623731
 10
-1405.404336037216
 20
1990.403327113084
 42
0.4142135623731
 10
-1406.904336037216
 20
1988.903327113084
 42
0.4142135623731
 10
-1405.404336037216
 20
1987.403327113084
 42
0.4142135623731
  0
LINE
  5
1B1
330
1F
100
AcDbEntity
  8
0-B_寸法
  6
Continuous
 62
   120
370
     5
100
AcDbLine
 10
-1405.404336037216
 20
2156.903327113083
 30
0.0
 11
-1263.585146782444
 21
2156.903327113083
 31
0.0
  0
LINE
  5
1B2
330
1F
100
AcDbEntity
  8
0-B_寸法
  6
Continuous
 62
   120
370
     5
100
AcDbLine
 10
-1405.404336037216
 20
1988.903327113084
 30
0.0
 11
-597.0510819861147
 21
1988.903327113084
 31
0.0
  0
MTEXT
  5
1B3
330
1F
100
AcDbEntity
  8
0-B_寸法
  6
Continuous
 62
     7
370
   211
100
AcDbMText
 10
-1420.404336037216
 20
2016.300827113084
 30
0.0
 40
74.295
 41
97.5
 46
0.0
 71
     7
 72
     1
  1
{\fＭＳ ゴシック|b0|i0|c128|p49;28}
 11
6.123031769111886E-17
 21
1.0
 31
0.0
 73
     1
 44
1.0
  0
MTEXT
  5
1B4
330
1F
100
AcDbEntity
  8
0-B_寸法
  6
Continuous
 62
     7
370
   211
100
AcDbMText
 10
-1278.585146782444
 20
2160.745005467911
 30
0.0
 40
74.295
 41
97.5
 46
0.0
 71
     7
 72
     1
  1
{\fＭＳ ゴシック|b0|i0|c128|p49;16}
 11
6.123031769111886E-17
 21
1.0
 31
0.0
 73
     1
 44
1.0
  0
LINE
  5
1B5
330
1F
100
AcDbEntity
  8
0-B_寸法
  6
Continuous
 62
   120
370
     5
100
AcDbLine
 10
-1263.585146782444
 20
2283.825250431086
 30
0.0
 11
-1263.585146782444
 21
2060.903327113082
 31
0.0
  0
LINE
  5
1B6
330
1F
100
AcDbEntity
  8
0-B_寸法
  6
Continuous
 62
   120
370
     5
100
AcDbLine
 10
-1263.585146782444
 20
2156.903327113083
 30
0.0
 11
-597.0510819861147
 21
2156.903327113083
 31
0.0
  0
LINE
  5
1B7
330
1F
100
AcDbEntity
  8
0-B_寸法
  6
Continuous
 62
   120
370
     5
100
AcDbLine
 10
-1405.404336037216
 20
1988.903327113084
 30
0.0
 11
-1405.404336037216
 21
1949.903327113081
 31
0.0
  0
LWPOLYLINE
  5
1B8
330
1F
100
AcDbEntity
  8
0-B_寸法
  6
Continuous
 62
     7
370
     9
100
AcDbPolyline
 90
        4
 70
     1
 43
3.0
 10
-1403.904336037216
 20
1949.903327113081
 42
0.4142135623731
 10
-1405.404336037216
 20
1951.403327113081
 42
0.4142135623731
 10
-1406.904336037216
 20
1949.903327113081
 42
0.4142135623731
 10
-1405.404336037216
 20
1948.403327113081
 42
0.4142135623731
  0
LINE
  5
1B9
330
1F
100
AcDbEntity
  8
0-B_寸法
  6
Continuous
 62
   120
370
     5
100
AcDbLine
 10
-1405.404336037216
 20
1949.903327113081
 30
0.0
 11
-942.2290361930195
 21
1949.903327113081
 31
0.0
  0
MTEXT
  5
1BA
330
1F
100
AcDbEntity
  8
0-B_寸法
  6
Continuous
 62
     7
370
   211
100
AcDbMText
 10
-1576.669552660723
 20
2100.924871346858
 30
0.0
 40
76.19999999999999
 41
150.0
 46
0.0
 71
     7
 72
     1
  1
{\fＭＳ ゴシック|b0|i0|c128|p49;6.5}
 11
6.123031769111886E-17
 21
1.0
 31
0.0
 73
     1
 44
1.0
  0
LINE
  5
1BB
330
1F
100
AcDbEntity
  8
0-1_通り芯
  6
JWW_CENTER1
 62
   120
370
     5
100
AcDbLine
 10
2203.872503697839
 20
1850.903327113082
 30
0.0
 11
-3293.755335161999
 21
1850.903327113082
 31
0.0
  0
LINE
  5
1BC
330
1F
100
AcDbEntity
  8
0-6_扉
  6
JWW_DASHED1
 62
   200
370
    20
100
AcDbLine
 10
-361.2493900718346
 20
1940.903327113082
 30
0.0
 11
676.7506099281576
 21
1940.903327113082
 31
0.0
  0
LINE
  5
1BD
330
1F
100
AcDbEntity
  8
0-6_扉
  6
JWW_DASHED1
 62
   200
370
    20
100
AcDbLine
 10
-361.2493900718346
 20
1760.903327113082
 30
0.0
 11
676.7506099281576
 21
1760.903327113082
 31
0.0
  0
LINE
  5
1BE
330
1F
100
AcDbEntity
  8
0-6_扉
  6
JWW_DASHED1
 62
   200
370
    20
100
AcDbLine
 10
796.7506099281576
 20
1760.903327113082
 30
0.0
 11
1948.750609928154
 21
1760.903327113082
 31
0.0
  0
LINE
  5
1BF
330
1F
100
AcDbEntity
  8
0-6_扉
  6
JWW_DASHED1
 62
   200
370
    20
100
AcDbLine
 10
796.7506099281576
 20
1940.903327113082
 30
0.0
 11
1948.750609928154
 21
1940.903327113082
 31
0.0
  0
LINE
  5
1C0
330
1F
100
AcDbEntity
  8
0-6_扉
  6
JWW_DASHED1
 62
   200
370
    20
100
AcDbLine
 10
1948.750609928154
 20
1940.903327113082
 30
0.0
 11
1948.750609928154
 21
1760.903327113082
 31
0.0
  0
LINE
  5
1C1
330
1F
100
AcDbEntity
  8
0-6_扉
  6
Continuous
 62
   200
370
    20
100
AcDbLine
 10
-3061.249390071841
 20
1940.903327113082
 30
0.0
 11
-1843.249390071844
 21
1940.903327113082
 31
0.0
  0
LINE
  5
1C2
330
1F
100
AcDbEntity
  8
0-6_扉
  6
Continuous
 62
   200
370
    20
100
AcDbLine
 10
-3061.249390071841
 20
1760.903327113082
 30
0.0
 11
-1843.249390071844
 21
1760.903327113082
 31
0.0
  0
LINE
  5
1C3
330
1F
100
AcDbEntity
  8
0-6_扉
  6
Continuous
 62
   200
370
    20
100
AcDbLine
 10
-3061.249390071841
 20
1940.903327113082
 30
0.0
 11
-3061.249390071841
 21
1760.903327113082
 31
0.0
  0
LINE
  5
1C4
330
1F
100
AcDbEntity
  8
0-6_扉
  6
Continuous
 62
   200
370
    20
100
AcDbLine
 10
-361.2493900718346
 20
1760.903327113082
 30
0.0
 11
-361.2493900718346
 21
1940.903327113082
 31
0.0
  0
LINE
  5
1C5
330
1F
100
AcDbEntity
  8
0-6_扉
  6
JWW_DASHED1
 62
   200
370
    20
100
AcDbLine
 10
-1273.24939007183
 20
1940.903327113082
 30
0.0
 11
-1273.24939007183
 21
1760.903327113082
 31
0.0
  0
LINE
  5
1C6
330
1F
100
AcDbEntity
  8
0-6_扉
  6
Continuous
 62
   200
370
    20
100
AcDbLine
 10
-1723.249390071844
 20
1940.903327113082
 30
0.0
 11
-361.2493900718346
 21
1940.903327113082
 31
0.0
  0
LINE
  5
1C7
330
1F
100
AcDbEntity
  8
0-6_扉
  6
Continuous
 62
   200
370
    20
100
AcDbLine
 10
-1723.249390071844
 20
1760.903327113082
 30
0.0
 11
-361.2493900718346
 21
1760.903327113082
 31
0.0
  0
LINE
  5
1C8
330
1F
100
AcDbEntity
  8
その他構成部品
  6
JWW_DASHED1
 62
   120
370
     5
100
AcDbLine
 10
-1096.249390071833
 20
1760.903327113075
 30
0.0
 11
-1057.249390071833
 21
1640.903327113075
 31
0.0
  0
LINE
  5
1C9
330
1F
100
AcDbEntity
  8
その他構成部品
  6
JWW_DASHED1
 62
   120
370
     5
100
AcDbLine
 10
-877.2493900718325
 20
1640.903327113075
 30
0.0
 11
-838.2493900718288
 21
1760.903327113075
 31
0.0
  0
LINE
  5
1CA
330
1F
100
AcDbEntity
  8
その他構成部品
  6
JWW_DASHED1
 62
   120
370
     5
100
AcDbLine
 10
-1057.249390071833
 20
1640.903327113075
 30
0.0
 11
-877.2493900718325
 21
1640.903327113075
 31
0.0
  0
LINE
  5
1CB
330
1F
100
AcDbEntity
  8
その他構成部品
  6
JWW_DASHED1
 62
   120
370
     5
100
AcDbLine
 10
-1138.249390071835
 20
1949.903327113081
 30
0.0
 11
-796.2493900718329
 21
1949.903327113081
 31
0.0
  0
LINE
  5
1CC
330
1F
100
AcDbEntity
  8
その他構成部品
  6
JWW_DASHED1
 62
   120
370
     5
100
AcDbLine
 10
-1138.249390071835
 20
1949.903327113081
 30
0.0
 11
-1138.249390071835
 21
1940.903327113082
 31
0.0
  0
LINE
  5
1CD
330
1F
100
AcDbEntity
  8
その他構成部品
  6
JWW_DASHED1
 62
   120
370
     5
100
AcDbLine
 10
-877.2493900718325
 20
1967.903327113085
 30
0.0
 11
-877.2493900718325
 21
1949.903327113081
 31
0.0
  0
LINE
  5
1CE
330
1F
100
AcDbEntity
  8
その他構成部品
  6
JWW_DASHED1
 62
   120
370
     5
100
AcDbLine
 10
-877.2493900718325
 20
1967.903327113085
 30
0.0
 11
-679.2493900718318
 21
1967.903327113085
 31
0.0
  0
ARC
  5
1CF
330
1F
100
AcDbEntity
  8
その他構成部品
  6
JWW_DASHED1
 62
   120
370
     5
100
AcDbCircle
 10
-787.2914795856587
 20
1666.508542696135
 30
0.0
 40
391.394784416947
100
AcDbArc
 50
90.0
 51
133.6089795745495
  0
LINE
  5
1D0
330
1F
100
AcDbEntity
  8
その他構成部品
  6
JWW_DASHED1
 62
   120
370
     5
100
AcDbLine
 10
-715.2493900718298
 20
2057.903327113085
 30
0.0
 11
-787.2914795856587
 21
2057.903327113085
 31
0.0
  0
LINE
  5
1D1
330
1F
100
AcDbEntity
  8
その他構成部品
  6
JWW_DASHED1
 62
   120
370
     5
100
AcDbLine
 10
-679.2493900718318
 20
2021.903327113083
 30
0.0
 11
-679.2493900718318
 21
1967.903327113085
 31
0.0
  0
ARC
  5
1D2
330
1F
100
AcDbEntity
  8
その他構成部品
  6
JWW_DASHED1
 62
   120
370
     5
100
AcDbCircle
 10
-715.2493900718298
 20
2021.903327113083
 30
0.0
 40
36.00000000000001
100
AcDbArc
 50
0.0
 51
90.0
  0
CIRCLE
  5
1D3
330
1F
100
AcDbEntity
  8
その他構成部品
  6
JWW_DASHED1
 62
   120
370
     5
100
AcDbCircle
 10
-967.24939007183
 20
2225.903327422383
 30
0.0
 40
75.0
  0
CIRCLE
  5
1D4
330
1F
100
AcDbEntity
  8
その他構成部品
  6
JWW_DASHED1
 62
   120
370
     5
100
AcDbCircle
 10
-967.24939007183
 20
1475.903327422383
 30
0.0
 40
75.0
  0
CIRCLE
  5
1D5
330
1F
100
AcDbEntity
  8
その他構成部品
  6
Continuous
 62
   120
370
     5
100
AcDbCircle
 10
-2755.291331121778
 20
2240.903475576976
 30
0.0
 40
75.0
  0
CIRCLE
  5
1D6
330
1F
100
AcDbEntity
  8
その他構成部品
  6
Continuous
 62
   120
370
     5
100
AcDbCircle
 10
-2755.291331121778
 20
1475.903475576976
 30
0.0
 40
75.0
  0
LINE
  5
1D7
330
1F
100
AcDbEntity
  8
その他構成部品
  6
Continuous
 62
   120
370
     5
100
AcDbLine
 10
-2884.24939007184
 20
1760.903327113075
 30
0.0
 11
-2845.249390071841
 21
1640.903327113075
 31
0.0
  0
LINE
  5
1D8
330
1F
100
AcDbEntity
  8
その他構成部品
  6
Continuous
 62
   120
370
     5
100
AcDbLine
 10
-2665.249390071841
 20
1640.903327113075
 30
0.0
 11
-2626.249390071841
 21
1760.903327113075
 31
0.0
  0
LINE
  5
1D9
330
1F
100
AcDbEntity
  8
その他構成部品
  6
Continuous
 62
   120
370
     5
100
AcDbLine
 10
-2845.249390071841
 20
1640.903327113075
 30
0.0
 11
-2665.249390071841
 21
1640.903327113075
 31
0.0
  0
LINE
  5
1DA
330
1F
100
AcDbEntity
  8
その他構成部品
  6
Continuous
 62
   120
370
     5
100
AcDbLine
 10
-2926.249390071843
 20
1949.903327113081
 30
0.0
 11
-2584.24939007184
 21
1949.903327113081
 31
0.0
  0
LINE
  5
1DB
330
1F
100
AcDbEntity
  8
その他構成部品
  6
Continuous
 62
   120
370
     5
100
AcDbLine
 10
-2926.249390071843
 20
1949.903327113081
 30
0.0
 11
-2926.249390071843
 21
1940.903327113082
 31
0.0
  0
LINE
  5
1DC
330
1F
100
AcDbEntity
  8
その他構成部品
  6
Continuous
 62
   120
370
     5
100
AcDbLine
 10
-2584.24939007184
 20
1949.903327113081
 30
0.0
 11
-2584.24939007184
 21
1940.903327113082
 31
0.0
  0
LINE
  5
1DD
330
1F
100
AcDbEntity
  8
その他構成部品
  6
Continuous
 62
   120
370
     5
100
AcDbLine
 10
-2665.249390071841
 20
1967.903327113085
 30
0.0
 11
-2665.249390071841
 21
1949.903327113081
 31
0.0
  0
LINE
  5
1DE
330
1F
100
AcDbEntity
  8
その他構成部品
  6
Continuous
 62
   120
370
     5
100
AcDbLine
 10
-2665.249390071841
 20
1967.903327113085
 30
0.0
 11
-2467.249390071843
 21
1967.903327113085
 31
0.0
  0
ARC
  5
1DF
330
1F
100
AcDbEntity
  8
その他構成部品
  6
Continuous
 62
   120
370
     5
100
AcDbCircle
 10
-2575.291479585666
 20
1666.508542696135
 30
0.0
 40
391.394784416947
100
AcDbArc
 50
90.0
 51
133.6089795745495
  0
LINE
  5
1E0
330
1F
100
AcDbEntity
  8
その他構成部品
  6
Continuous
 62
   120
370
     5
100
AcDbLine
 10
-2503.249390071839
 20
2057.903327113085
 30
0.0
 11
-2575.291479585666
 21
2057.903327113085
 31
0.0
  0
LINE
  5
1E1
330
1F
100
AcDbEntity
  8
その他構成部品
  6
Continuous
 62
   120
370
     5
100
AcDbLine
 10
-2467.249390071843
 20
2021.903327113083
 30
0.0
 11
-2467.249390071843
 21
1967.903327113085
 31
0.0
  0
ARC
  5
1E2
330
1F
100
AcDbEntity
  8
その他構成部品
  6
Continuous
 62
   120
370
     5
100
AcDbCircle
 10
-2503.249390071839
 20
2021.903327113083
 30
0.0
 40
36.00000000000001
100
AcDbArc
 50
0.0
 51
90.0
  0
LINE
  5
1E3
330
1F
100
AcDbEntity
  8
その他構成部品
  6
JWW_CENTER1
 62
   120
370
     5
100
AcDbLine
 10
-2830.291331121778
 20
2240.903475576976
 30
0.0
 11
-2680.291331121778
 21
2240.903475576976
 31
0.0
  0
LINE
  5
1E4
330
1F
100
AcDbEntity
  8
その他構成部品
  6
JWW_CENTER1
 62
   120
370
     5
100
AcDbLine
 10
-2755.291331121778
 20
2315.903475576976
 30
0.0
 11
-2755.291331121778
 21
1415.903475576977
 31
0.0
  0
LINE
  5
1E5
330
1F
100
AcDbEntity
  8
その他構成部品
  6
JWW_CENTER1
 62
   120
370
     5
100
AcDbLine
 10
-2830.291331121778
 20
1475.903475576976
 30
0.0
 11
-2680.291331121778
 21
1475.903475576976
 31
0.0
  0
LINE
  5
1E6
330
1F
100
AcDbEntity
  8
その他構成部品
  6
JWW_CENTER1
 62
   120
370
     5
100
AcDbLine
 10
-892.24939007183
 20
1475.903327422383
 30
0.0
 11
-1042.24939007183
 21
1475.903327422383
 31
0.0
  0
LINE
  5
1E7
330
1F
100
AcDbEntity
  8
その他構成部品
  6
JWW_CENTER1
 62
   120
370
     5
100
AcDbLine
 10
-967.24939007183
 20
1400.903327422384
 30
0.0
 11
-967.24939007183
 21
2300.903327422383
 31
0.0
  0
LINE
  5
1E8
330
1F
100
AcDbEntity
  8
その他構成部品
  6
JWW_CENTER1
 62
   120
370
     5
100
AcDbLine
 10
-892.24939007183
 20
2225.903327422383
 30
0.0
 11
-1042.24939007183
 21
2225.903327422383
 31
0.0
  0
LINE
  5
1E9
330
1F
100
AcDbEntity
  8
0-3_仕上げ
  6
Continuous
 62
    40
370
    15
100
AcDbLine
 10
-451.2493900718346
 20
2060.903327113082
 30
0.0
 11
676.7506099281576
 21
2060.903327113082
 31
0.0
  0
LINE
  5
1EA
330
1F
100
AcDbEntity
  8
0-3_仕上げ
  6
Continuous
 62
    40
370
    15
100
AcDbLine
 10
796.7506099281576
 20
2060.903327113082
 30
0.0
 11
2203.872503697839
 21
2060.903327113082
 31
0.0
  0
LINE
  5
1EB
330
1F
100
AcDbEntity
  8
0-1_通り芯
  6
JWW_CENTER1
 62
   120
370
     5
100
AcDbLine
 10
-2995.249390071826
 20
1794.760526240192
 30
0.0
 11
-2995.249390071826
 21
1893.626328711038
 31
0.0
  0
LINE
  5
1EC
330
1F
100
AcDbEntity
  8
0-1_通り芯
  6
JWW_CENTER1
 62
   120
370
     5
100
AcDbLine
 10
-2983.518610039644
 20
2291.904113662419
 30
0.0
 11
-3293.755335161999
 21
2291.904113662419
 31
0.0
  0
CIRCLE
  5
1ED
330
1F
100
AcDbEntity
  8
0-1_通り芯
  6
Continuous
 62
   120
370
     5
100
AcDbCircle
 10
1948.750609928154
 20
1850.903327113082
 30
0.0
 40
12.0
  0
CIRCLE
  5
1EE
330
1F
100
AcDbEntity
  8
0-1_通り芯
  6
Continuous
 62
   120
370
     5
100
AcDbCircle
 10
-2995.291331121759
 20
1850.90332711308
 30
0.0
 40
12.00000000000001
  0
LINE
  5
1EF
330
1F
100
AcDbEntity
  8
0-4_枠
  6
Continuous
 62
    92
370
    13
100
AcDbLine
 10
-3223.24924160795
 20
2657.903327113082
 30
0.0
 11
-3060.219952820319
 21
2657.903327113082
 31
0.0
  0
LINE
  5
1F0
330
1F
100
AcDbEntity
  8
0-4_枠
  6
Continuous
 62
    92
370
    13
100
AcDbLine
 10
-3217.249241607949
 20
1637.903327113082
 30
0.0
 11
-3060.219952820319
 21
1637.903327113082
 31
0.0
  0
LINE
  5
1F1
330
1F
100
AcDbEntity
  8
0-4_枠
  6
Continuous
 62
    92
370
    13
100
AcDbLine
 10
-3079.24939007184
 20
1727.903455472491
 30
0.0
 11
-3043.249390071844
 21
1727.903455472491
 31
0.0
  0
LINE
  5
1F2
330
1F
100
AcDbEntity
  8
0-4_枠
  6
Continuous
 62
    92
370
    13
100
AcDbLine
 10
-3079.24939007184
 20
1973.903455472493
 30
0.0
 11
-3079.24939007184
 21
1727.903455472491
 31
0.0
  0
LINE
  5
1F3
330
1F
100
AcDbEntity
  8
0-4_枠
  6
Continuous
 62
    92
370
    13
100
AcDbLine
 10
-3079.24939007184
 20
1973.903455472493
 30
0.0
 11
-3043.249390071844
 21
1973.903455472493
 31
0.0
  0
LINE
  5
1F4
330
1F
100
AcDbEntity
  8
0-4_枠
  6
Continuous
 62
    92
370
    13
100
AcDbLine
 10
-3060.219952820319
 20
1637.903327113082
 30
0.0
 11
-3043.249390071844
 21
1654.87388986156
 31
0.0
  0
ARC
  5
1F5
330
1F
100
AcDbEntity
  8
0-4_枠
  6
Continuous
 62
    92
370
    13
100
AcDbCircle
 10
-3217.249241607949
 20
1643.903327113081
 30
0.0
 40
6.0
100
AcDbArc
 50
180.0
 51
270.0
  0
LINE
  5
1F6
330
1F
100
AcDbEntity
  8
0-4_枠
  6
Continuous
 62
    92
370
    13
100
AcDbLine
 10
-3043.249390071844
 20
1727.903455472491
 30
0.0
 11
-3043.249390071844
 21
1654.87388986156
 31
0.0
  0
LINE
  5
1F7
330
1F
100
AcDbEntity
  8
0-4_枠
  6
Continuous
 62
    92
370
    13
100
AcDbLine
 10
-3043.249390071844
 20
2640.932764364607
 30
0.0
 11
-3060.219952820319
 21
2657.903327113082
 31
0.0
  0
LINE
  5
1F8
330
1F
100
AcDbEntity
  8
0-4_枠
  6
Continuous
 62
    92
370
    13
100
AcDbLine
 10
-3043.249390071844
 20
2640.932764364607
 30
0.0
 11
-3043.249390071844
 21
1973.903455472493
 31
0.0
  0
LINE
  5
1F9
330
1F
100
AcDbEntity
  8
0-4_枠
  6
Continuous
 62
    92
370
    13
100
AcDbLine
 10
-3223.24924160795
 20
1643.903327113081
 30
0.0
 11
-3223.24924160795
 21
2657.903327113082
 31
0.0
  0
LINE
  5
1FA
330
1F
100
AcDbEntity
  8
0-5_ケーシング
  6
Continuous
 62
    92
370
    13
100
AcDbLine
 10
-499.2493900718395
 20
1988.903327113084
 30
0.0
 11
-523.2493900718441
 21
2012.903327113085
 31
0.0
  0
LINE
  5
1FB
330
1F
100
AcDbEntity
  8
0-5_ケーシング
  6
Continuous
 62
    92
370
    13
100
AcDbLine
 10
-523.2493900718441
 20
2012.903327113085
 30
0.0
 11
-523.2493900718441
 21
2156.903327113083
 31
0.0
  0
LINE
  5
1FC
330
1F
100
AcDbEntity
  8
0-5_ケーシング
  6
Continuous
 62
    92
370
    13
100
AcDbLine
 10
-499.2493900718395
 20
1988.903327113084
 30
0.0
 11
-355.24939007184
 21
1988.903327113084
 31
0.0
  0
LINE
  5
1FD
330
1F
100
AcDbEntity
  8
0-5_ケーシング
  6
Continuous
 62
    92
370
    13
100
AcDbLine
 10
-355.24939007184
 20
1988.903327113084
 30
0.0
 11
-355.24939007184
 21
2060.903327113082
 31
0.0
  0
LINE
  5
1FE
330
1F
100
AcDbEntity
  8
0-5_ケーシング
  6
Continuous
 62
    92
370
    13
100
AcDbLine
 10
-451.2493900718346
 20
2060.903327113082
 30
0.0
 11
-451.2493900718346
 21
2156.903327113083
 31
0.0
  0
LINE
  5
1FF
330
1F
100
AcDbEntity
  8
0-5_ケーシング
  6
Continuous
 62
    92
370
    13
100
AcDbLine
 10
-451.2493900718346
 20
2156.903327113083
 30
0.0
 11
-523.2493900718441
 21
2156.903327113083
 31
0.0
  0
LINE
  5
200
330
1F
100
AcDbEntity
  8
0-5_ケーシング
  6
Continuous
 62
    92
370
    13
100
AcDbLine
 10
-355.24939007184
 20
2060.903327113082
 30
0.0
 11
-451.2493900718346
 21
2060.903327113082
 31
0.0
  0
LINE
  5
201
330
1F
100
AcDbEntity
  8
0-C_ハッチ
  6
Continuous
 62
   120
370
     5
100
AcDbLine
 10
-3223.24924160795
 20
2260.200490483575
 30
0.0
 11
-3043.249390071844
 21
2080.200638947469
 31
0.0
  0
LINE
  5
202
330
1F
100
AcDbEntity
  8
0-C_ハッチ
  6
Continuous
 62
   120
370
     5
100
AcDbLine
 10
-3223.24924160795
 20
2217.773963614913
 30
0.0
 11
-3043.249390071844
 21
2037.774112078806
 31
0.0
  0
LINE
  5
203
330
1F
100
AcDbEntity
  8
0-C_ハッチ
  6
Continuous
 62
   120
370
     5
100
AcDbLine
 10
-3223.24924160795
 20
1835.937448755325
 30
0.0
 11
-3043.249390071844
 21
1655.937597219219
 31
0.0
  0
LINE
  5
204
330
1F
100
AcDbEntity
  8
0-C_ハッチ
  6
Continuous
 62
   120
370
     5
100
AcDbLine
 10
-3223.24924160795
 20
2302.626275032775
 30
0.0
 11
-3043.249390071844
 21
2122.626423496669
 31
0.0
  0
LINE
  5
205
330
1F
100
AcDbEntity
  8
0-C_ハッチ
  6
Continuous
 62
   120
370
     5
100
AcDbLine
 10
-3223.24924160795
 20
2345.052801901437
 30
0.0
 11
-3043.249390071844
 21
2165.052950365331
 31
0.0
  0
LINE
  5
206
330
1F
100
AcDbEntity
  8
0-C_ハッチ
  6
Continuous
 62
   120
370
     5
100
AcDbLine
 10
-3223.24924160795
 20
2387.479328770104
 30
0.0
 11
-3043.249390071844
 21
2207.479477234
 31
0.0
  0
LINE
  5
207
330
1F
100
AcDbEntity
  8
0-C_ハッチ
  6
Continuous
 62
   120
370
     5
100
AcDbLine
 10
-3223.24924160795
 20
2175.347436746244
 30
0.0
 11
-3043.249390071844
 21
1995.347585210137
 31
0.0
  0
LINE
  5
208
330
1F
100
AcDbEntity
  8
0-C_ハッチ
  6
Continuous
 62
   120
370
     5
100
AcDbLine
 10
-3223.24924160795
 20
2429.9051133193
 30
0.0
 11
-3043.249390071844
 21
2249.905261783198
 31
0.0
  0
LINE
  5
209
330
1F
100
AcDbEntity
  8
0-C_ハッチ
  6
Continuous
 62
   120
370
     5
100
AcDbLine
 10
-3223.24924160795
 20
2472.330897868497
 30
0.0
 11
-3043.249390071844
 21
2292.331046332394
 31
0.0
  0
LINE
  5
20A
330
1F
100
AcDbEntity
  8
0-C_ハッチ
  6
Continuous
 62
   120
370
     5
100
AcDbLine
 10
-3223.24924160795
 20
2514.756682417693
 30
0.0
 11
-3043.249390071844
 21
2334.756830881594
 31
0.0
  0
LINE
  5
20B
330
1F
100
AcDbEntity
  8
0-C_ハッチ
  6
Continuous
 62
   120
370
     5
100
AcDbLine
 10
-3223.24924160795
 20
1920.789760173187
 30
0.0
 11
-3079.24939007184
 21
1776.78990863708
 31
0.0
  0
LINE
  5
20C
330
1F
100
AcDbEntity
  8
0-C_ハッチ
  6
Continuous
 62
   120
370
     5
100
AcDbLine
 10
-3223.24924160795
 20
1963.216287041854
 30
0.0
 11
-3079.24939007184
 21
1819.216435505745
 31
0.0
  0
LINE
  5
20D
330
1F
100
AcDbEntity
  8
0-C_ハッチ
  6
Continuous
 62
   120
370
     5
100
AcDbLine
 10
-3223.24924160795
 20
2005.642813910519
 30
0.0
 11
-3079.24939007184
 21
1861.642962374411
 31
0.0
  0
LINE
  5
20E
330
1F
100
AcDbEntity
  8
0-C_ハッチ
  6
Continuous
 62
   120
370
     5
100
AcDbLine
 10
-3223.24924160795
 20
2048.068598459719
 30
0.0
 11
-3079.24939007184
 21
1904.068746923607
 31
0.0
  0
LINE
  5
20F
330
1F
100
AcDbEntity
  8
0-C_ハッチ
  6
Continuous
 62
   120
370
     5
100
AcDbLine
 10
-3223.24924160795
 20
2090.495125328381
 30
0.0
 11
-3079.24939007184
 21
1946.495273792274
 31
0.0
  0
LINE
  5
210
330
1F
100
AcDbEntity
  8
0-C_ハッチ
  6
Continuous
 62
   120
370
     5
100
AcDbLine
 10
-3223.24924160795
 20
2132.92165219705
 30
0.0
 11
-3064.231044883393
 21
1973.903455472493
 31
0.0
  0
LINE
  5
211
330
1F
100
AcDbEntity
  8
0-C_ハッチ
  6
Continuous
 62
   120
370
     5
100
AcDbLine
 10
-3223.24924160795
 20
1878.363975623992
 30
0.0
 11
-3079.24939007184
 21
1734.364124087882
 31
0.0
  0
LINE
  5
212
330
1F
100
AcDbEntity
  8
0-C_ハッチ
  6
Continuous
 62
   120
370
     5
100
AcDbLine
 10
-3072.788721456449
 20
1727.903455472491
 30
0.0
 11
-3043.249390071844
 21
1698.364124087885
 31
0.0
  0
LINE
  5
213
330
1F
100
AcDbEntity
  8
0-C_ハッチ
  6
Continuous
 62
   120
370
     5
100
AcDbLine
 10
-451.2493900718422
 20
2130.622574563687
 30
0.0
 11
-477.5301426212354
 21
2156.903327113081
 31
0.0
  0
LINE
  5
214
330
1F
100
AcDbEntity
  8
0-C_ハッチ
  6
Continuous
 62
   120
370
     5
100
AcDbLine
 10
-355.24939007184
 20
2034.622574563685
 30
0.0
 11
-381.5301426212349
 21
2060.903327113079
 31
0.0
  0
LINE
  5
215
330
1F
100
AcDbEntity
  8
0-C_ハッチ
  6
Continuous
 62
   120
370
     5
100
AcDbLine
 10
-451.2493900718346
 20
2088.196167692476
 30
0.0
 11
-519.9565494924354
 21
2156.903327113077
 31
0.0
  0
LINE
  5
216
330
1F
100
AcDbEntity
  8
0-C_ハッチ
  6
Continuous
 62
   120
370
     5
100
AcDbLine
 10
-355.2493900718434
 20
1992.196167692488
 30
0.0
 11
-423.9565494924486
 21
2060.903327113093
 31
0.0
  0
LINE
  5
217
330
1F
100
AcDbEntity
  8
0-C_ハッチ
  6
Continuous
 62
   120
370
     5
100
AcDbLine
 10
-394.38295636357
 20
1988.903327113072
 30
0.0
 11
-523.2493900718305
 21
2117.769760821319
 31
0.0
  0
LINE
  5
218
330
1F
100
AcDbEntity
  8
0-C_ハッチ
  6
Continuous
 62
   120
370
     5
100
AcDbLine
 10
-436.80936323477
 20
1988.90332711307
 30
0.0
 11
-523.2493900718305
 21
2075.343353950126
 31
0.0
  0
LINE
  5
219
330
1F
100
AcDbEntity
  8
0-C_ハッチ
  6
Continuous
 62
   120
370
     5
100
AcDbLine
 10
-479.23577010597
 20
1988.90332711307
 30
0.0
 11
-523.2493900718373
 21
2032.916947078933
 31
0.0
  0
LINE
  5
21A
330
1F
100
AcDbEntity
  8
0-C_ハッチ
  6
Continuous
 62
   120
370
     5
100
AcDbLine
 10
-3223.24924160795
 20
1666.231341280662
 30
0.0
 11
-3194.921227440371
 21
1637.903327113082
 31
0.0
  0
LINE
  5
21B
330
1F
100
AcDbEntity
  8
0-C_ハッチ
  6
Continuous
 62
   120
370
     5
100
AcDbLine
 10
-3223.24924160795
 20
1708.657868149329
 30
0.0
 11
-3152.494700571705
 21
1637.903327113082
 31
0.0
  0
LINE
  5
21C
330
1F
100
AcDbEntity
  8
0-C_ハッチ
  6
Continuous
 62
   120
370
     5
100
AcDbLine
 10
-3223.24924160795
 20
1751.084395017994
 30
0.0
 11
-3110.068173703038
 21
1637.903327113082
 31
0.0
  0
LINE
  5
21D
330
1F
100
AcDbEntity
  8
0-C_ハッチ
  6
Continuous
 62
   120
370
     5
100
AcDbLine
 10
-3223.24924160795
 20
1793.51092188666
 30
0.0
 11
-3067.641646834372
 21
1637.903327113082
 31
0.0
  0
LINE
  5
21E
330
1F
100
AcDbEntity
  8
0-C_ハッチ
  6
Continuous
 62
   120
370
     5
100
AcDbLine
 10
-3043.249390071844
 20
2377.182615430787
 30
0.0
 11
-3223.24924160795
 21
2557.182466966894
 31
0.0
  0
LINE
  5
21F
330
1F
100
AcDbEntity
  8
0-C_ハッチ
  6
Continuous
 62
   120
370
     5
100
AcDbLine
 10
-3223.24924160795
 20
2599.608251516094
 30
0.0
 11
-3043.249390071844
 21
2419.608399979988
 31
0.0
  0
LINE
  5
220
330
1F
100
AcDbEntity
  8
0-C_ハッチ
  6
Continuous
 62
   120
370
     5
100
AcDbLine
 10
-3223.24924160795
 20
2642.034036065292
 30
0.0
 11
-3043.249390071844
 21
2462.034184529185
 31
0.0
  0
LINE
  5
221
330
1F
100
AcDbEntity
  8
0-C_ハッチ
  6
Continuous
 62
   120
370
     5
100
AcDbLine
 10
-3196.692748106542
 20
2657.903327113082
 30
0.0
 11
-3043.249390071844
 21
2504.459969078388
 31
0.0
  0
LINE
  5
222
330
1F
100
AcDbEntity
  8
0-C_ハッチ
  6
Continuous
 62
   120
370
     5
100
AcDbLine
 10
-3043.249390071844
 20
2546.885753627581
 30
0.0
 11
-3154.266963557346
 21
2657.903327113082
 31
0.0
  0
LINE
  5
223
330
1F
100
AcDbEntity
  8
0-C_ハッチ
  6
Continuous
 62
   120
370
     5
100
AcDbLine
 10
-3069.415394458947
 20
2657.903327113082
 30
0.0
 11
-3043.249390071844
 21
2631.73732272598
 31
0.0
  0
LINE
  5
224
330
1F
100
AcDbEntity
  8
0-C_ハッチ
  6
Continuous
 62
   120
370
     5
100
AcDbLine
 10
-3111.841179008145
 20
2657.903327113082
 30
0.0
 11
-3043.249390071844
 21
2589.311538176782
 31
0.0
  0
LINE
  5
225
330
1F
100
AcDbEntity
  8
0-7_金物
  6
Continuous
 62
     7
370
     9
100
AcDbLine
 10
-859.2493900718191
 20
1859.903327113081
 30
0.0
 11
-859.2493900718191
 21
1841.903327113083
 31
0.0
  0
LINE
  5
226
330
1F
100
AcDbEntity
  8
0-7_金物
  6
Continuous
 62
     7
370
     9
100
AcDbLine
 10
-913.249390071822
 20
1949.903327113081
 30
0.0
 11
-913.249390071822
 21
1859.903327113081
 31
0.0
  0
LINE
  5
227
330
1F
100
AcDbEntity
  8
0-7_金物
  6
Continuous
 62
     7
370
     9
100
AcDbLine
 10
-787.2493900718291
 20
1841.903327113083
 30
0.0
 11
-859.2493900718191
 21
1841.903327113083
 31
0.0
  0
LINE
  5
228
330
1F
100
AcDbEntity
  8
0-7_金物
  6
Continuous
 62
     7
370
     9
100
AcDbLine
 10
-787.2493900718291
 20
1859.903327113081
 30
0.0
 11
-787.2493900718291
 21
1841.903327113083
 31
0.0
  0
LINE
  5
229
330
1F
100
AcDbEntity
  8
0-7_金物
  6
Continuous
 62
     7
370
     9
100
AcDbLine
 10
-733.2493900718288
 20
1859.903327113081
 30
0.0
 11
-913.249390071822
 21
1859.903327113081
 31
0.0
  0
LINE
  5
22A
330
1F
100
AcDbEntity
  8
0-7_金物
  6
Continuous
 62
     7
370
     9
100
AcDbLine
 10
-733.2493900718288
 20
1949.903327113081
 30
0.0
 11
-733.2493900718288
 21
1859.903327113081
 31
0.0
  0
LINE
  5
22B
330
1F
100
AcDbEntity
  8
0-7_金物
  6
Continuous
 62
     7
370
     9
100
AcDbLine
 10
-733.2493900718288
 20
1949.903327113081
 30
0.0
 11
-913.249390071822
 21
1949.903327113081
 31
0.0
  0
LINE
  5
22C
330
1F
100
AcDbEntity
  8
その他構成部品
  6
JWW_DASHED1
 62
   120
370
     5
100
AcDbLine
 10
-796.2493900718329
 20
1949.903327113081
 30
0.0
 11
-796.2493900718329
 21
1940.903327113082
 31
0.0
  0
LINE
  5
22D
330
1F
100
AcDbEntity
  8
0-A_文字
  6
Continuous
 62
     7
370
     9
100
AcDbLine
 10
-1623.778469496286
 20
1459.367425845425
 30
0.0
 11
-1293.884203691212
 21
1459.367425845425
 31
0.0
  0
MTEXT
  5
22E
330
1F
100
AcDbEntity
  8
0-A_文字
  6
Continuous
 62
     7
370
     9
100
AcDbMText
 10
-1603.548636930298
 20
1464.365111812207
 30
0.0
 40
57.15
 41
300.0
 46
0.0
 71
     7
 72
     1
  1
{\fＭＳ ゴシック|b0|i0|c128|p49;振止金具}
 73
     1
 44
1.0
  0
LINE
  5
22F
330
1F
100
AcDbEntity
  8
0-A_文字
  6
Continuous
 62
     7
370
     9
100
AcDbLine
 10
-1293.884203691212
 20
1459.367425845425
 30
0.0
 11
-858.5433351605739
 21
1907.14660490551
 31
0.0
  0
LINE
  5
230
330
1F
100
AcDbEntity
  8
0-7_金物
  6
Continuous
 62
     7
370
     9
100
AcDbLine
 10
-3061.114947742432
 20
1895.849242180604
 30
0.0
 11
-3079.114867287339
 21
1895.903052300224
 31
0.0
  0
LINE
  5
231
330
1F
100
AcDbEntity
  8
0-7_金物
  6
Continuous
 62
     7
370
     9
100
AcDbLine
 10
-3079.114867287339
 20
1895.903052300224
 30
0.0
 11
-3079.383912856341
 21
1805.903452843437
 31
0.0
  0
LINE
  5
232
330
1F
100
AcDbEntity
  8
0-7_金物
  6
Continuous
 62
     7
370
     9
100
AcDbLine
 10
-3079.204549144603
 20
1865.903185337794
 30
0.0
 11
-3109.204414791078
 21
1865.992866963158
 31
0.0
  0
LINE
  5
233
330
1F
100
AcDbEntity
  8
0-7_金物
  6
Continuous
 62
     7
370
     9
100
AcDbLine
 10
-3109.204414791078
 20
1865.992866963158
 30
0.0
 11
-3109.294096416447
 21
1835.993001431244
 31
0.0
  0
LINE
  5
234
330
1F
100
AcDbEntity
  8
0-7_金物
  6
Continuous
 62
     7
370
     9
100
AcDbLine
 10
-3079.294230999076
 20
1835.903319805874
 30
0.0
 11
-3109.294096416447
 21
1835.993001431244
 31
0.0
  0
ARC
  5
235
330
1F
100
AcDbEntity
  8
0-7_金物
  6
Continuous
 62
     7
370
     9
100
AcDbCircle
 10
-3243.955997890445
 20
1851.395627915869
 30
0.0
 40
188.1674079895021
100
AcDbArc
 50
345.9924011230469
 51
13.66500854492187
  0
LINE
  5
236
330
1F
100
AcDbEntity
  8
0-7_金物
  6
Continuous
 62
     7
370
     9
100
AcDbLine
 10
-3061.383992618535
 20
1805.849645584837
 30
0.0
 11
-3079.383912856341
 21
1805.903452843437
 31
0.0
  0
ARC
  5
237
330
1F
100
AcDbEntity
  8
0-7_金物
  6
Continuous
 62
     7
370
     9
100
AcDbCircle
 10
-3225.955997890446
 20
2292.39641446521
 30
0.0
 40
188.1674079895021
100
AcDbArc
 50
345.9924011230469
 51
13.66500854492187
  0
LINE
  5
238
330
1F
100
AcDbEntity
  8
0-0_補助線
  6
JWW_HOJO
 62
     7
370
     9
100
AcDbLine
 10
-1723.249390071844
 20
2060.903327113082
 30
0.0
 11
-1723.249390071844
 21
1724.903327113081
 31
0.0
  0
LINE
  5
239
330
1F
100
AcDbEntity
  8
0-0_補助線
  6
JWW_HOJO
 62
     7
370
     9
100
AcDbLine
 10
-1843.249390071844
 20
2060.903327113082
 30
0.0
 11
-1843.249390071844
 21
1724.903327113081
 31
0.0
  0
LINE
  5
23A
330
1F
100
AcDbEntity
  8
0-4_枠
  6
Continuous
 62
    92
370
    13
100
AcDbLine
 10
1996.750609928158
 20
2060.903327113082
 30
0.0
 11
1996.750609928158
 21
1724.903327113081
 31
0.0
  0
LINE
  5
23B
330
1F
100
AcDbEntity
  8
0-4_枠
  6
Continuous
 62
    92
370
    13
100
AcDbLine
 10
2014.750609928158
 20
2060.903327113082
 30
0.0
 11
2014.750609928158
 21
1724.903327113081
 31
0.0
  0
LINE
  5
23C
330
1F
100
AcDbEntity
  8
0-4_枠
  6
Continuous
 62
    92
370
    13
100
AcDbLine
 10
-3043.249390071844
 20
2060.903327113082
 30
0.0
 11
-1843.249390071844
 21
2060.903327113082
 31
0.0
  0
LINE
  5
23D
330
1F
100
AcDbEntity
  8
0-4_枠
  6
Continuous
 62
    92
370
    13
100
AcDbLine
 10
-1843.249390071844
 20
1724.903327113081
 30
0.0
 11
-3043.249390071844
 21
1724.903327113081
 31
0.0
  0
LINE
  5
23E
330
1F
100
AcDbEntity
  8
0-4_枠
  6
Continuous
 62
    92
370
    13
100
AcDbLine
 10
-1723.249390071844
 20
2060.903327113082
 30
0.0
 11
-523.2493900718441
 21
2060.903327113082
 31
0.0
  0
LINE
  5
23F
330
1F
100
AcDbEntity
  8
0-4_枠
  6
Continuous
 62
    92
370
    13
100
AcDbLine
 10
2014.750609928158
 20
1724.903327113081
 30
0.0
 11
796.7506099281576
 21
1724.903327113081
 31
0.0
  0
LINE
  5
240
330
1F
100
AcDbEntity
  8
0-4_枠
  6
Continuous
 62
    92
370
    13
100
AcDbLine
 10
676.7506099281576
 20
1724.903327113081
 30
0.0
 11
-1723.249390071844
 21
1724.903327113081
 31
0.0
  0
LWPOLYLINE
  5
241
330
1F
100
AcDbEntity
  8
0-B_寸法
  6
Continuous
 62
     7
370
     9
100
AcDbPolyline
 90
        4
 70
     1
 43
3.0
 10
-521.7493900718441
 20
1597.541696880811
 42
0.4142135623731
 10
-523.2493900718441
 20
1599.041696880811
 42
0.4142135623731
 10
-524.7493900718441
 20
1597.541696880811
 42
0.4142135623731
 10
-523.2493900718441
 20
1596.041696880811
 42
0.4142135623731
  0
LWPOLYLINE
  5
242
330
1F
100
AcDbEntity
  8
0-B_寸法
  6
Continuous
 62
     7
370
     9
100
AcDbPolyline
 90
        4
 70
     1
 43
3.0
 10
-449.7493900718346
 20
1597.541696880811
 42
0.4142135623731
 10
-451.2493900718346
 20
1599.041696880811
 42
0.4142135623731
 10
-452.7493900718346
 20
1597.541696880811
 42
0.4142135623731
 10
-451.2493900718346
 20
1596.041696880811
 42
0.4142135623731
  0
LINE
  5
243
330
1F
100
AcDbEntity
  8
0-B_寸法
  6
Continuous
 62
   120
370
     5
100
AcDbLine
 10
-451.2493900718346
 20
1597.541696880811
 30
0.0
 11
-355.24939007184
 21
1597.541696880811
 31
0.0
  0
LWPOLYLINE
  5
244
330
1F
100
AcDbEntity
  8
0-B_寸法
  6
Continuous
 62
     7
370
     9
100
AcDbPolyline
 90
        4
 70
     1
 43
3.0
 10
-353.74939007184
 20
1597.541696880811
 42
0.4142135623731
 10
-355.24939007184
 20
1599.041696880811
 42
0.4142135623731
 10
-356.74939007184
 20
1597.541696880811
 42
0.4142135623731
 10
-355.24939007184
 20
1596.041696880811
 42
0.4142135623731
  0
LINE
  5
245
330
1F
100
AcDbEntity
  8
0-B_寸法
  6
Continuous
 62
   120
370
     5
100
AcDbLine
 10
-523.2493900718441
 20
1436.446609207268
 30
0.0
 11
-355.24939007184
 21
1436.446609207268
 31
0.0
  0
LWPOLYLINE
  5
246
330
1F
100
AcDbEntity
  8
0-B_寸法
  6
Continuous
 62
     7
370
     9
100
AcDbPolyline
 90
        4
 70
     1
 43
3.0
 10
-521.7493900718441
 20
1436.446609207268
 42
0.4142135623731
 10
-523.2493900718441
 20
1437.946609207268
 42
0.4142135623731
 10
-524.7493900718441
 20
1436.446609207268
 42
0.4142135623731
 10
-523.2493900718441
 20
1434.946609207268
 42
0.4142135623731
  0
LWPOLYLINE
  5
247
330
1F
100
AcDbEntity
  8
0-B_寸法
  6
Continuous
 62
     7
370
     9
100
AcDbPolyline
 90
        4
 70
     1
 43
3.0
 10
-353.74939007184
 20
1436.446609207268
 42
0.4142135623731
 10
-355.24939007184
 20
1437.946609207268
 42
0.4142135623731
 10
-356.74939007184
 20
1436.446609207268
 42
0.4142135623731
 10
-355.24939007184
 20
1434.946609207268
 42
0.4142135623731
  0
LINE
  5
248
330
1F
100
AcDbEntity
  8
0-B_寸法
  6
Continuous
 62
   120
370
     5
100
AcDbLine
 10
-523.2493900718441
 20
1436.446609207268
 30
0.0
 11
-523.2493900718441
 21
1597.541696880811
 31
0.0
  0
LINE
  5
249
330
1F
100
AcDbEntity
  8
0-B_寸法
  6
Continuous
 62
   120
370
     5
100
AcDbLine
 10
-355.24939007184
 20
1436.446609207268
 30
0.0
 11
-355.24939007184
 21
1597.541696880811
 31
0.0
  0
LINE
  5
24A
330
1F
100
AcDbEntity
  8
0-B_寸法
  6
Continuous
 62
   120
370
     5
100
AcDbLine
 10
-611.6569366421373
 20
1597.541696880811
 30
0.0
 11
-451.2493900718346
 21
1597.541696880811
 31
0.0
  0
LINE
  5
24B
330
1F
100
AcDbEntity
  8
0-B_寸法
  6
Continuous
 62
   120
370
     5
100
AcDbLine
 10
-523.2493900718441
 20
1597.541696880811
 30
0.0
 11
-523.2493900718441
 21
1877.759191905502
 31
0.0
  0
LINE
  5
24C
330
1F
100
AcDbEntity
  8
0-B_寸法
  6
Continuous
 62
   120
370
     5
100
AcDbLine
 10
-355.24939007184
 20
1597.541696880811
 30
0.0
 11
-355.24939007184
 21
1877.759191905502
 31
0.0
  0
LINE
  5
24D
330
1F
100
AcDbEntity
  8
0-B_寸法
  6
Continuous
 62
   120
370
     5
100
AcDbLine
 10
-451.2493900718346
 20
1597.541696880811
 30
0.0
 11
-451.2493900718346
 21
1877.759191905502
 31
0.0
  0
MTEXT
  5
24E
330
1F
100
AcDbEntity
  8
0-B_寸法
  6
Continuous
 62
     7
370
   211
100
AcDbMText
 10
-487.9993900718421
 20
1448.835567553608
 30
0.0
 40
74.295
 41
97.5
 46
0.0
 71
     7
 72
     1
  1
{\fＭＳ ゴシック|b0|i0|c128|p49;28}
 73
     1
 44
1.0
  0
MTEXT
  5
24F
330
1F
100
AcDbEntity
  8
0-B_寸法
  6
Continuous
 62
     7
370
   211
100
AcDbMText
 10
-630.435757540082
 20
1609.930655227152
 30
0.0
 40
74.295
 41
97.5
 46
0.0
 71
     7
 72
     1
  1
{\fＭＳ ゴシック|b0|i0|c128|p49;12}
 73
     1
 44
1.0
  0
MTEXT
  5
250
330
1F
100
AcDbEntity
  8
0-B_寸法
  6
Continuous
 62
     7
370
   211
100
AcDbMText
 10
-451.9993900718373
 20
1609.930655227152
 30
0.0
 40
74.295
 41
97.5
 46
0.0
 71
     7
 72
     1
  1
{\fＭＳ ゴシック|b0|i0|c128|p49;16}
 73
     1
 44
1.0
  0
LWPOLYLINE
  5
251
330
1F
100
AcDbEntity
  8
0-B_寸法
  6
Continuous
 62
     7
370
     9
100
AcDbPolyline
 90
        4
 70
     1
 43
3.0
 10
-3041.749390071844
 20
1234.708349660857
 42
0.4142135623731
 10
-3043.249390071844
 20
1236.208349660856
 42
0.4142135623731
 10
-3044.749390071844
 20
1234.708349660857
 42
0.4142135623731
 10
-3043.249390071844
 20
1233.208349660857
 42
0.4142135623731
  0
LINE
  5
252
330
1F
100
AcDbEntity
  8
0-B_寸法
  6
Continuous
 62
   120
370
     5
100
AcDbLine
 10
-3043.249390071844
 20
1234.708349660857
 30
0.0
 11
-3223.24924160795
 21
1234.708349660857
 31
0.0
  0
LWPOLYLINE
  5
253
330
1F
100
AcDbEntity
  8
0-B_寸法
  6
Continuous
 62
     7
370
     9
100
AcDbPolyline
 90
        4
 70
     1
 43
3.0
 10
-3221.74924160795
 20
1234.708349660857
 42
0.4142135623731
 10
-3223.24924160795
 20
1236.208349660856
 42
0.4142135623731
 10
-3224.74924160795
 20
1234.708349660857
 42
0.4142135623731
 10
-3223.24924160795
 20
1233.208349660857
 42
0.4142135623731
  0
LWPOLYLINE
  5
254
330
1F
100
AcDbEntity
  8
0-B_寸法
  6
Continuous
 62
     7
370
     9
100
AcDbPolyline
 90
        4
 70
     1
 43
3.0
 10
1998.250609928157
 20
1234.708349660857
 42
0.4142135623731
 10
1996.750609928158
 20
1236.208349660856
 42
0.4142135623731
 10
1995.250609928158
 20
1234.708349660857
 42
0.4142135623731
 10
1996.750609928158
 20
1233.208349660857
 42
0.4142135623731
  0
LINE
  5
255
330
1F
100
AcDbEntity
  8
0-B_寸法
  6
Continuous
 62
   120
370
     5
100
AcDbLine
 10
1996.750609928158
 20
1234.708349660857
 30
0.0
 11
2014.750609928158
 21
1234.708349660857
 31
0.0
  0
LWPOLYLINE
  5
256
330
1F
100
AcDbEntity
  8
0-B_寸法
  6
Continuous
 62
     7
370
     9
100
AcDbPolyline
 90
        4
 70
     1
 43
3.0
 10
2016.250609928158
 20
1234.708349660857
 42
0.4142135623731
 10
2014.750609928158
 20
1236.208349660856
 42
0.4142135623731
 10
2013.250609928158
 20
1234.708349660857
 42
0.4142135623731
 10
2014.750609928158
 20
1233.208349660857
 42
0.4142135623731
  0
MTEXT
  5
257
330
1F
100
AcDbEntity
  8
0-B_寸法
  6
Continuous
 62
     7
370
   211
100
AcDbMText
 10
1937.341340012465
 20
1227.873726477252
 30
0.0
 40
68.58
 41
45.0
 46
0.0
 71
     7
 72
     1
  1
{\fＭＳ ゴシック|b0|i0|c128|p49;3}
 73
     1
 44
1.0
  0
LINE
  5
258
330
1F
100
AcDbEntity
  8
0-B_寸法
  6
Continuous
 62
   120
370
     5
100
AcDbLine
 10
-3043.249390071844
 20
1234.708349660857
 30
0.0
 11
1996.750609928158
 21
1234.708349660857
 31
0.0
  0
LINE
  5
259
330
1F
100
AcDbEntity
  8
0-B_寸法
  6
Continuous
 62
   120
370
     5
100
AcDbLine
 10
-3043.249390071844
 20
1234.708349660857
 30
0.0
 11
-3043.249390071844
 21
1550.366262791044
 31
0.0
  0
LINE
  5
25A
330
1F
100
AcDbEntity
  8
0-B_寸法
  6
Continuous
 62
   120
370
     5
100
AcDbLine
 10
1996.750609928158
 20
1234.708349660857
 30
0.0
 11
1996.750609928158
 21
1550.366262791044
 31
0.0
  0
LINE
  5
25B
330
1F
100
AcDbEntity
  8
0-B_寸法
  6
Continuous
 62
   120
370
     5
100
AcDbLine
 10
2014.750609928158
 20
1234.708349660857
 30
0.0
 11
2014.750609928158
 21
1550.366262791044
 31
0.0
  0
LINE
  5
25C
330
1F
100
AcDbEntity
  8
0-B_寸法
  6
Continuous
 62
   120
370
     5
100
AcDbLine
 10
-3223.24924160795
 20
1234.708349660857
 30
0.0
 11
-3223.24924160795
 21
1550.366262791044
 31
0.0
  0
MTEXT
  5
25D
330
1F
100
AcDbEntity
  8
0-B_寸法
  6
Continuous
 62
     7
370
   211
100
AcDbMText
 10
-3181.999315839895
 20
1235.920383403117
 30
0.0
 40
74.295
 41
97.5
 46
0.0
 71
     7
 72
     1
  1
{\fＭＳ ゴシック|b0|i0|c128|p49;30}
 73
     1
 44
1.0
  0
LINE
  5
25E
330
1F
100
AcDbEntity
  8
0-C_ハッチ
  6
Continuous
 62
     7
370
     9
100
AcDbLine
 10
796.7506099281576
 20
-3434.785199467062
 30
0.0
 11
2347.803633853146
 21
-3434.785199467062
 31
0.0
  0
LINE
  5
25F
330
1F
100
AcDbEntity
  8
0-C_ハッチ
  6
Continuous
 62
     7
370
     9
100
AcDbLine
 10
-1388.007019461706
 20
-3434.785199467062
 30
0.0
 11
676.7506099281576
 21
-3434.785199467062
 31
0.0
  0
LINE
  5
260
330
1F
100
AcDbEntity
  8
0-C_ハッチ
  6
Continuous
 62
     7
370
     9
100
AcDbLine
 10
796.7506099281576
 20
-3416.785065849559
 30
0.0
 11
2347.803633853146
 21
-3416.785065849559
 31
0.0
  0
LINE
  5
261
330
1F
100
AcDbEntity
  8
0-C_ハッチ
  6
Continuous
 62
     7
370
     9
100
AcDbLine
 10
-1388.007019461706
 20
-3416.785065849559
 30
0.0
 11
676.7506099281576
 21
-3416.785065849559
 31
0.0
  0
LINE
  5
262
330
1F
100
AcDbEntity
  8
0-C_ハッチ
  6
Continuous
 62
     7
370
     9
100
AcDbLine
 10
796.7506099281576
 20
-3398.785303391787
 30
0.0
 11
2347.803633853146
 21
-3398.785303391787
 31
0.0
  0
LINE
  5
263
330
1F
100
AcDbEntity
  8
0-C_ハッチ
  6
Continuous
 62
     7
370
     9
100
AcDbLine
 10
-1388.007019461706
 20
-3398.785303391787
 30
0.0
 11
676.7506099281576
 21
-3398.785303391787
 31
0.0
  0
LINE
  5
264
330
1F
100
AcDbEntity
  8
0-C_ハッチ
  6
Continuous
 62
     7
370
     9
100
AcDbLine
 10
796.7506099281576
 20
-3380.785169774284
 30
0.0
 11
2347.803633853146
 21
-3380.785169774284
 31
0.0
  0
LINE
  5
265
330
1F
100
AcDbEntity
  8
0-C_ハッチ
  6
Continuous
 62
     7
370
     9
100
AcDbLine
 10
-1388.007019461706
 20
-3380.785169774284
 30
0.0
 11
676.7506099281576
 21
-3380.785169774284
 31
0.0
  0
LINE
  5
266
330
1F
100
AcDbEntity
  8
0-C_ハッチ
  6
Continuous
 62
     7
370
     9
100
AcDbLine
 10
796.7506099281576
 20
-3362.785036156781
 30
0.0
 11
2347.803633853146
 21
-3362.785036156781
 31
0.0
  0
LINE
  5
267
330
1F
100
AcDbEntity
  8
0-C_ハッチ
  6
Continuous
 62
     7
370
     9
100
AcDbLine
 10
-1388.007019461706
 20
-3362.785036156781
 30
0.0
 11
676.7506099281576
 21
-3362.785036156781
 31
0.0
  0
MTEXT
  5
268
330
1F
100
AcDbEntity
  8
0-A_文字
  6
Continuous
 62
     7
370
     9
100
AcDbMText
 10
368.5612658198281
 20
-3230.816936886189
 30
0.0
 40
57.15
 41
600.0
 46
0.0
 71
     7
 72
     1
  1
{\fＭＳ ゴシック|b0|i0|c128|p49;　必要ありません}
 73
     1
 44
1.0
  0
MTEXT
  5
269
330
1F
100
AcDbEntity
  8
0-A_文字
  6
Continuous
 62
     7
370
     9
100
AcDbMText
 10
368.5612658198281
 20
-3130.177686535265
 30
0.0
 40
57.14999999999997
 41
1199.999999999999
 46
0.0
 71
     7
 72
     1
  1
{\fＭＳ ゴシック|b0|i0|c128|p49;※ソフトクローズを付ける場合は、}
 73
     1
 44
1.0
  0
LINE
  5
26A
330
1F
100
AcDbEntity
  8
0-A_文字
  6
Continuous
 62
     7
370
     9
100
AcDbLine
 10
-641.1103254664323
 20
-3017.135847941718
 30
0.0
 11
71.19705139987417
 21
-3017.135847941718
 31
0.0
  0
LINE
  5
26B
330
1F
100
AcDbEntity
  8
0-A_文字
  6
Continuous
 62
     7
370
     9
100
AcDbLine
 10
71.19705139987417
 20
-3017.135847941718
 30
0.0
 11
71.19705139987417
 21
-2850.050297130737
 31
0.0
  0
LINE
  5
26C
330
1F
100
AcDbEntity
  8
0-A_文字
  6
Continuous
 62
     7
370
     9
100
AcDbLine
 10
-641.1103254664323
 20
-2850.050297130737
 30
0.0
 11
71.19705139987417
 21
-2850.050297130737
 31
0.0
  0
LINE
  5
26D
330
1F
100
AcDbEntity
  8
0-A_文字
  6
Continuous
 62
     7
370
     9
100
AcDbLine
 10
-823.2493900718237
 20
-3311.784293837309
 30
0.0
 11
-626.9318376795428
 21
-3017.135847941718
 31
0.0
  0
LINE
  5
26E
330
1F
100
AcDbEntity
  8
0-A_文字
  6
Continuous
 62
     7
370
     9
100
AcDbLine
 10
-641.1103254664323
 20
-3017.135847941718
 30
0.0
 11
-641.1103254664323
 21
-2850.050297130737
 31
0.0
  0
MTEXT
  5
26F
330
1F
100
AcDbEntity
  8
0-A_文字
  6
Continuous
 62
     7
370
     9
100
AcDbMText
 10
-583.9767873086811
 20
-2992.60429087522
 30
0.0
 40
78.10500000000044
 41
615.0000000000034
 46
0.0
 71
     7
 72
     1
  1
{\fＭＳ ゴシック|b0|i0|c128|p49;振れ止め金具}
 73
     1
 44
1.0
  0
LINE
  5
270
330
1F
100
AcDbEntity
  8
0-A_文字
  6
Continuous
 62
     7
370
     9
100
AcDbLine
 10
1716.825533831857
 20
-2914.345118387316
 30
0.0
 11
2012.474799128009
 21
-3247.05107868158
 31
0.0
  0
LINE
  5
271
330
1F
100
AcDbEntity
  8
0-A_文字
  6
Continuous
 62
     7
370
     9
100
AcDbLine
 10
1589.209798596519
 20
-2914.345118387316
 30
0.0
 11
1716.825533831857
 21
-2914.345118387316
 31
0.0
  0
LINE
  5
272
330
1F
100
AcDbEntity
  8
0-A_文字
  6
Continuous
 62
     7
370
     9
100
AcDbLine
 10
341.901342157214
 20
-2850.050297130737
 30
0.0
 11
1589.209798596519
 21
-2850.050297130737
 31
0.0
  0
LINE
  5
273
330
1F
100
AcDbEntity
  8
0-A_文字
  6
Continuous
 62
     7
370
     9
100
AcDbLine
 10
1589.209798596519
 20
-2850.050297130737
 30
0.0
 11
1589.209798596519
 21
-3017.135847941718
 31
0.0
  0
LINE
  5
274
330
1F
100
AcDbEntity
  8
0-A_文字
  6
Continuous
 62
     7
370
     9
100
AcDbLine
 10
341.901342157214
 20
-3017.135847941718
 30
0.0
 11
1589.209798596519
 21
-3017.135847941718
 31
0.0
  0
LINE
  5
275
330
1F
100
AcDbEntity
  8
0-A_文字
  6
Continuous
 62
     7
370
     9
100
AcDbLine
 10
341.901342157214
 20
-3017.135847941718
 30
0.0
 11
341.901342157214
 21
-2850.050297130737
 31
0.0
  0
MTEXT
  5
276
330
1F
100
AcDbEntity
  8
0-A_文字
  6
Continuous
 62
     7
370
     9
100
AcDbMText
 10
399.8719435628976
 20
-2985.256113873008
 30
0.0
 40
78.97090909090909
 41
1140.0
 46
0.0
 71
     7
 72
     1
  1
{\fＭＳ ゴシック|b0|i0|c128|p49;床付　戸当りストッパー}
 73
     1
 44
1.0
  0
LINE
  5
277
330
1F
100
AcDbEntity
  8
0-4_枠
  6
Continuous
 62
    92
370
    13
100
AcDbLine
 10
-355.24939007184
 20
-1742.78503615678
 30
0.0
 11
-355.24939007184
 21
-317.7850361567769
 31
0.0
  0
LINE
  5
278
330
1F
100
AcDbEntity
  8
0-4_枠
  6
Continuous
 62
    92
370
    13
100
AcDbLine
 10
-355.24939007184
 20
-3362.785036156781
 30
0.0
 11
-355.24939007184
 21
-1832.78503615678
 31
0.0
  0
LINE
  5
279
330
1F
100
AcDbEntity
  8
0-4_枠
  6
Continuous
 62
    92
370
    13
100
AcDbLine
 10
-523.2493900718237
 20
-1742.78503615678
 30
0.0
 11
-523.2493900718237
 21
-317.7850361567769
 31
0.0
  0
LINE
  5
27A
330
1F
100
AcDbEntity
  8
0-4_枠
  6
Continuous
 62
    92
370
    13
100
AcDbLine
 10
-523.2493900718237
 20
-3362.785036156781
 30
0.0
 11
-523.2493900718237
 21
-1832.78503615678
 31
0.0
  0
LINE
  5
27B
330
1F
100
AcDbEntity
  8
0-4_枠
  6
Continuous
 62
    92
370
    13
100
AcDbLine
 10
-523.2493900718237
 20
-533.78503615678
 30
0.0
 11
-1388.007019461706
 21
-533.78503615678
 31
0.0
  0
LINE
  5
27C
330
1F
100
AcDbEntity
  8
0-1_通り芯
  6
JWW_CENTER1
 62
   120
370
     5
100
AcDbLine
 10
-823.2493900718237
 20
-3167.107842272303
 30
0.0
 11
-823.2493900718237
 21
-3456.29856208194
 31
0.0
  0
LINE
  5
27D
330
1F
100
AcDbEntity
  8
0-7_金物
  6
Continuous
 62
     7
370
     9
100
AcDbLine
 10
-787.2493900718291
 20
-3242.784640253066
 30
0.0
 11
-787.2493900718291
 21
-3344.785036156781
 31
0.0
  0
LINE
  5
27E
330
1F
100
AcDbEntity
  8
0-7_金物
  6
Continuous
 62
     7
370
     9
100
AcDbLine
 10
-859.249390071825
 20
-3242.784640253066
 30
0.0
 11
-859.249390071825
 21
-3344.785036156781
 31
0.0
  0
LINE
  5
27F
330
1F
100
AcDbEntity
  8
0-7_金物
  6
Continuous
 62
     7
370
     9
100
AcDbLine
 10
-913.2493900718237
 20
-3344.785036156781
 30
0.0
 11
-913.2493900718237
 21
-3362.785036156781
 31
0.0
  0
LINE
  5
280
330
1F
100
AcDbEntity
  8
0-7_金物
  6
Continuous
 62
     7
370
     9
100
AcDbLine
 10
-733.2493900718237
 20
-3344.785036156781
 30
0.0
 11
-913.2493900718237
 21
-3344.785036156781
 31
0.0
  0
LINE
  5
281
330
1F
100
AcDbEntity
  8
0-7_金物
  6
Continuous
 62
     7
370
     9
100
AcDbLine
 10
-733.2493900718237
 20
-3344.785036156781
 30
0.0
 11
-733.2493900718237
 21
-3362.785036156781
 31
0.0
  0
LINE
  5
282
330
1F
100
AcDbEntity
  8
0-7_金物
  6
Continuous
 62
     7
370
     9
100
AcDbLine
 10
-787.2493900718291
 20
-3242.784640253066
 30
0.0
 11
-859.249390071825
 21
-3242.784640253066
 31
0.0
  0
LINE
  5
283
330
1F
100
AcDbEntity
  8
0-7_金物
  6
Continuous
 62
     7
370
     9
100
AcDbLine
 10
2092.750609928152
 20
-3242.784664997043
 30
0.0
 11
2092.750609928152
 21
-3362.784664997043
 31
0.0
  0
ARC
  5
284
330
1F
100
AcDbEntity
  8
0-7_金物
  6
Continuous
 62
     7
370
     9
100
AcDbCircle
 10
2002.750609928152
 20
-3242.784664997043
 30
0.0
 40
90.0
100
AcDbArc
 50
0.0
 51
90.0
  0
LINE
  5
285
330
1F
100
AcDbEntity
  8
0-7_金物
  6
Continuous
 62
     7
370
     9
100
AcDbLine
 10
2002.750609928152
 20
-3152.784664997043
 30
0.0
 11
1948.750609928152
 21
-3152.784664997043
 31
0.0
  0
LINE
  5
286
330
1F
100
AcDbEntity
  8
0-7_金物
  6
Continuous
 62
     7
370
     9
100
AcDbLine
 10
1948.750609928152
 20
-3362.784664997043
 30
0.0
 11
1948.750609928152
 21
-3152.784664997043
 31
0.0
  0
LINE
  5
287
330
1F
100
AcDbEntity
  8
0-7_金物
  6
Continuous
 62
     7
370
     9
100
AcDbLine
 10
796.7506099281576
 20
-317.7850361567769
 30
0.0
 11
2014.750609928158
 21
-317.7850361567769
 31
0.0
  0
LINE
  5
288
330
1F
100
AcDbEntity
  8
0-7_金物
  6
Continuous
 62
     7
370
     9
100
AcDbLine
 10
2014.750609928158
 20
-317.7850361567769
 30
0.0
 11
2014.750609928158
 21
24.2149638432241
 31
0.0
  0
LINE
  5
289
330
1F
100
AcDbEntity
  8
0-7_金物
  6
Continuous
 62
     7
370
     9
100
AcDbLine
 10
2014.750609928158
 20
24.2149638432241
 30
0.0
 11
796.7506099281576
 21
24.2149638432241
 31
0.0
  0
LINE
  5
28A
330
1F
100
AcDbEntity
  8
0-7_金物
  6
Continuous
 62
     7
370
     9
100
AcDbLine
 10
676.7506099281576
 20
24.2149638432241
 30
0.0
 11
-1388.007019461706
 21
24.2149638432241
 31
0.0
  0
LINE
  5
28B
330
1F
100
AcDbEntity
  8
0-7_金物
  6
Continuous
 62
     7
370
     9
100
AcDbLine
 10
676.7506099281576
 20
-53.78524400622752
 30
0.0
 11
-1388.007019461706
 21
-53.78524400622752
 31
0.0
  0
LINE
  5
28C
330
1F
100
AcDbEntity
  8
0-7_金物
  6
Continuous
 62
     7
370
     9
100
AcDbLine
 10
1996.750609928158
 20
-53.78524400622752
 30
0.0
 11
796.7506099281576
 21
-53.78524400622752
 31
0.0
  0
LINE
  5
28D
330
1F
100
AcDbEntity
  8
0-7_金物
  6
Continuous
 62
     7
370
     9
100
AcDbLine
 10
676.7506099281576
 20
-245.7852440062268
 30
0.0
 11
-1388.007019461706
 21
-245.7852440062268
 31
0.0
  0
LINE
  5
28E
330
1F
100
AcDbEntity
  8
0-7_金物
  6
Continuous
 62
     7
370
     9
100
AcDbLine
 10
1996.750609928158
 20
-245.7852440062268
 30
0.0
 11
796.7506099281576
 21
-245.7852440062268
 31
0.0
  0
LINE
  5
28F
330
1F
100
AcDbEntity
  8
0-7_金物
  6
Continuous
 62
     7
370
     9
100
AcDbLine
 10
-1388.007019461706
 20
-317.7850361567769
 30
0.0
 11
676.7506099281576
 21
-317.7850361567769
 31
0.0
  0
LINE
  5
290
330
1F
100
AcDbEntity
  8
0-7_金物
  6
Continuous
 62
     7
370
     9
100
AcDbLine
 10
1996.750609928158
 20
-317.7850361567769
 30
0.0
 11
1996.750609928158
 21
24.2149638432241
 31
0.0
  0
LINE
  5
291
330
1F
100
AcDbEntity
  8
0-0_補助線
  6
JWW_HOJO
 62
     7
370
     9
100
AcDbLine
 10
796.7506099281576
 20
-1832.78503615678
 30
0.0
 11
1948.750609928154
 21
-1832.78503615678
 31
0.0
  0
LINE
  5
292
330
1F
100
AcDbEntity
  8
0-0_補助線
  6
JWW_HOJO
 62
     7
370
     9
100
AcDbLine
 10
-1388.007019461706
 20
-1832.78503615678
 30
0.0
 11
676.7506099281576
 21
-1832.78503615678
 31
0.0
  0
LINE
  5
293
330
1F
100
AcDbEntity
  8
0-0_補助線
  6
JWW_HOJO
 62
     7
370
     9
100
AcDbLine
 10
796.7506099281576
 20
-1742.78503615678
 30
0.0
 11
1948.750609928154
 21
-1742.78503615678
 31
0.0
  0
LINE
  5
294
330
1F
100
AcDbEntity
  8
0-0_補助線
  6
JWW_HOJO
 62
     7
370
     9
100
AcDbLine
 10
-1388.007019461706
 20
-1742.78503615678
 30
0.0
 11
676.7506099281576
 21
-1742.78503615678
 31
0.0
  0
LINE
  5
295
330
1F
100
AcDbEntity
  8
0-0_補助線
  6
JWW_HOJO
 62
     7
370
     9
100
AcDbLine
 10
676.7506099281576
 20
-1832.78503615678
 30
0.0
 11
676.7506099281576
 21
-3434.785199467062
 31
0.0
  0
LINE
  5
296
330
1F
100
AcDbEntity
  8
0-0_補助線
  6
JWW_HOJO
 62
     7
370
     9
100
AcDbLine
 10
676.7506099281576
 20
24.2149638432241
 30
0.0
 11
676.7506099281576
 21
-1742.78503615678
 31
0.0
  0
LINE
  5
297
330
1F
100
AcDbEntity
  8
0-0_補助線
  6
JWW_HOJO
 62
     7
370
     9
100
AcDbLine
 10
796.7506099281576
 20
-1832.78503615678
 30
0.0
 11
796.7506099281576
 21
-3434.785199467062
 31
0.0
  0
LINE
  5
298
330
1F
100
AcDbEntity
  8
0-0_補助線
  6
JWW_HOJO
 62
     7
370
     9
100
AcDbLine
 10
796.7506099281576
 20
24.2149638432241
 30
0.0
 11
796.7506099281576
 21
-1742.78503615678
 31
0.0
  0
LINE
  5
299
330
1F
100
AcDbEntity
  8
0-6_扉
  6
JWW_DASHED1
 62
   200
370
    20
100
AcDbLine
 10
676.7506099281576
 20
-3311.784664997045
 30
0.0
 11
-1388.007019461706
 21
-3311.784664997045
 31
0.0
  0
LINE
  5
29A
330
1F
100
AcDbEntity
  8
0-6_扉
  6
JWW_DASHED1
 62
   200
370
    20
100
AcDbLine
 10
1948.750609928154
 20
-3311.784664997045
 30
0.0
 11
796.7506099281576
 21
-3311.784664997045
 31
0.0
  0
LINE
  5
29B
330
1F
100
AcDbEntity
  8
0-6_扉
  6
JWW_DASHED1
 62
   200
370
    20
100
AcDbLine
 10
676.7506099281576
 20
-275.7849668736256
 30
0.0
 11
-1388.007019461706
 21
-275.7849668736256
 31
0.0
  0
LINE
  5
29C
330
1F
100
AcDbEntity
  8
0-6_扉
  6
JWW_DASHED1
 62
   200
370
    20
100
AcDbLine
 10
1948.750609928154
 20
-275.7849668736256
 30
0.0
 11
796.7506099281576
 21
-275.7849668736256
 31
0.0
  0
LINE
  5
29D
330
1F
100
AcDbEntity
  8
0-6_扉
  6
JWW_DASHED1
 62
   200
370
    20
100
AcDbLine
 10
-361.2493900718346
 20
-1832.78503615678
 30
0.0
 11
-361.2493900718346
 21
-3311.784664997045
 31
0.0
  0
LINE
  5
29E
330
1F
100
AcDbEntity
  8
0-6_扉
  6
JWW_DASHED1
 62
   200
370
    20
100
AcDbLine
 10
-361.2493900718346
 20
-275.7849668736256
 30
0.0
 11
-361.2493900718346
 21
-1742.78503615678
 31
0.0
  0
LINE
  5
29F
330
1F
100
AcDbEntity
  8
0-6_扉
  6
JWW_DASHED1
 62
   200
370
    20
100
AcDbLine
 10
-1123.249390071824
 20
-1832.78503615678
 30
0.0
 11
-1123.249390071824
 21
-3311.784664997045
 31
0.0
  0
LINE
  5
2A0
330
1F
100
AcDbEntity
  8
0-6_扉
  6
JWW_DASHED1
 62
   200
370
    20
100
AcDbLine
 10
-1123.249390071824
 20
-275.7849668736256
 30
0.0
 11
-1123.249390071824
 21
-1742.78503615678
 31
0.0
  0
LINE
  5
2A1
330
1F
100
AcDbEntity
  8
0-6_扉
  6
JWW_DASHED1
 62
   200
370
    20
100
AcDbLine
 10
1948.750609928154
 20
-1742.785036156777
 30
0.0
 11
1948.750609928154
 21
-275.7849668736256
 31
0.0
  0
LINE
  5
2A2
330
1F
100
AcDbEntity
  8
0-6_扉
  6
JWW_DASHED1
 62
   200
370
    20
100
AcDbLine
 10
1948.750609928154
 20
-1832.785036156777
 30
0.0
 11
1948.750609928154
 21
-3311.784664997045
 31
0.0
  0
MTEXT
  5
2A3
330
1F
100
AcDbEntity
  8
0-B_寸法
  6
Continuous
 62
     7
370
   211
100
AcDbMText
 10
-676.9993900718237
 20
-3640.642690285429
 30
0.0
 40
74.295
 41
97.5
 46
0.0
 71
     7
 72
     1
  1
{\fＭＳ ゴシック|b0|i0|c128|p49;35}
 73
     1
 44
1.0
  0
LINE
  5
2A4
330
1F
100
AcDbEntity
  8
0-B_寸法
  6
Continuous
 62
   120
370
     5
100
AcDbLine
 10
-523.2493900718237
 20
-3647.790190285429
 30
0.0
 11
-523.2493900718237
 21
-3524.016808234222
 31
0.0
  0
LWPOLYLINE
  5
2A5
330
1F
100
AcDbEntity
  8
0-B_寸法
  6
Continuous
 62
     7
370
     9
100
AcDbPolyline
 90
        4
 70
     1
 43
3.0
 10
-521.7493900718237
 20
-3647.790190285429
 42
0.4142135623731
 10
-523.2493900718237
 20
-3646.29019028543
 42
0.4142135623731
 10
-524.7493900718237
 20
-3647.790190285429
 42
0.4142135623731
 10
-523.2493900718237
 20
-3649.290190285429
 42
0.4142135623731
  0
LINE
  5
2A6
330
1F
100
AcDbEntity
  8
0-B_寸法
  6
Continuous
 62
   120
370
     5
100
AcDbLine
 10
-733.2493900718237
 20
-3647.790190285429
 30
0.0
 11
-523.2493900718237
 21
-3647.790190285429
 31
0.0
  0
MTEXT
  5
2A7
330
1F
100
AcDbEntity
  8
0-B_寸法
  6
Continuous
 62
     7
370
   211
100
AcDbMText
 10
-871.9993900718237
 20
-3640.642690285429
 30
0.0
 40
74.295
 41
97.5
 46
0.0
 71
     7
 72
     1
  1
{\fＭＳ ゴシック|b0|i0|c128|p49;30}
 73
     1
 44
1.0
  0
LINE
  5
2A8
330
1F
100
AcDbEntity
  8
0-B_寸法
  6
Continuous
 62
   120
370
     5
100
AcDbLine
 10
-733.2493900718237
 20
-3647.790190285429
 30
0.0
 11
-733.2493900718237
 21
-3524.016808234222
 31
0.0
  0
LINE
  5
2A9
330
1F
100
AcDbEntity
  8
0-B_寸法
  6
Continuous
 62
   120
370
     5
100
AcDbLine
 10
-913.2493900718237
 20
-3647.790190285429
 30
0.0
 11
-913.2493900718237
 21
-3524.016808234222
 31
0.0
  0
LWPOLYLINE
  5
2AA
330
1F
100
AcDbEntity
  8
0-B_寸法
  6
Continuous
 62
     7
370
     9
100
AcDbPolyline
 90
        4
 70
     1
 43
3.0
 10
-731.7493900718237
 20
-3647.790190285429
 42
0.4142135623731
 10
-733.2493900718237
 20
-3646.29019028543
 42
0.4142135623731
 10
-734.7493900718237
 20
-3647.790190285429
 42
0.4142135623731
 10
-733.2493900718237
 20
-3649.290190285429
 42
0.4142135623731
  0
LWPOLYLINE
  5
2AB
330
1F
100
AcDbEntity
  8
0-B_寸法
  6
Continuous
 62
     7
370
     9
100
AcDbPolyline
 90
        4
 70
     1
 43
3.0
 10
-911.7493900718237
 20
-3647.790190285429
 42
0.4142135623731
 10
-913.2493900718237
 20
-3646.29019028543
 42
0.4142135623731
 10
-914.7493900718237
 20
-3647.790190285429
 42
0.4142135623731
 10
-913.2493900718237
 20
-3649.290190285429
 42
0.4142135623731
  0
LINE
  5
2AC
330
1F
100
AcDbEntity
  8
0-B_寸法
  6
Continuous
 62
   120
370
     5
100
AcDbLine
 10
-913.2493900718237
 20
-3647.790190285429
 30
0.0
 11
-733.2493900718237
 21
-3647.790190285429
 31
0.0
  0
MTEXT
  5
2AD
330
1F
100
AcDbEntity
  8
0-B_寸法
  6
Continuous
 62
     7
370
   211
100
AcDbMText
 10
-487.9993900718318
 20
-3640.642690285429
 30
0.0
 40
74.295
 41
97.5
 46
0.0
 71
     7
 72
     1
  1
{\fＭＳ ゴシック|b0|i0|c128|p49;28}
 73
     1
 44
1.0
  0
LINE
  5
2AE
330
1F
100
AcDbEntity
  8
0-B_寸法
  6
Continuous
 62
   120
370
     5
100
AcDbLine
 10
-355.24939007184
 20
-3647.790190285429
 30
0.0
 11
-355.24939007184
 21
-3524.016808234222
 31
0.0
  0
LWPOLYLINE
  5
2AF
330
1F
100
AcDbEntity
  8
0-B_寸法
  6
Continuous
 62
     7
370
     9
100
AcDbPolyline
 90
        4
 70
     1
 43
3.0
 10
-353.74939007184
 20
-3647.790190285429
 42
0.4142135623731
 10
-355.24939007184
 20
-3646.29019028543
 42
0.4142135623731
 10
-356.74939007184
 20
-3647.790190285429
 42
0.4142135623731
 10
-355.24939007184
 20
-3649.290190285429
 42
0.4142135623731
  0
LINE
  5
2B0
330
1F
100
AcDbEntity
  8
0-B_寸法
  6
Continuous
 62
   120
370
     5
100
AcDbLine
 10
-523.2493900718237
 20
-3647.790190285429
 30
0.0
 11
-355.24939007184
 21
-3647.790190285429
 31
0.0
  0
LINE
  5
2B1
330
1F
100
AcDbEntity
  8
0-B_寸法
  6
Continuous
 62
   120
370
     5
100
AcDbLine
 10
-355.24939007184
 20
-3647.790190285429
 30
0.0
 11
1965.698486503466
 21
-3647.790190285429
 31
0.0
  0
LINE
  5
2B2
330
1F
100
AcDbEntity
  8
0-B_寸法
  6
Continuous
 62
   120
370
     5
100
AcDbLine
 10
1965.698486503466
 20
-3647.790190285429
 30
0.0
 11
1965.698486503466
 21
-3524.016808234222
 31
0.0
  0
LWPOLYLINE
  5
2B3
330
1F
100
AcDbEntity
  8
0-B_寸法
  6
Continuous
 62
     7
370
     9
100
AcDbPolyline
 90
        4
 70
     1
 43
3.0
 10
1967.198486503466
 20
-3647.790190285429
 42
0.4142135623731
 10
1965.698486503466
 20
-3646.29019028543
 42
0.4142135623731
 10
1964.198486503466
 20
-3647.790190285429
 42
0.4142135623731
 10
1965.698486503466
 20
-3649.290190285429
 42
0.4142135623731
  0
LINE
  5
2B4
330
1F
100
AcDbEntity
  8
F-0_補助線
  6
JWW_HOJO
 62
     7
370
     9
100
AcDbLine
 10
849.999587600297
 20
-3795.000165475381
 30
0.0
 11
849.999587600297
 21
-4195.000170630377
 31
0.0
  0
LINE
  5
2B5
330
1F
100
AcDbEntity
  8
F-0_補助線
  6
JWW_HOJO
 62
     7
370
     9
100
AcDbLine
 10
349.9999175200594
 20
-3795.000165475381
 30
0.0
 11
349.9999175200594
 21
-4195.000170630377
 31
0.0
  0
LINE
  5
2B6
330
1F
100
AcDbEntity
  8
F-1_枠
  6
Continuous
 62
   200
370
    20
100
AcDbLine
 10
5699.998762800888
 20
-4205.000164959882
 30
0.0
 11
-5999.999752560178
 21
-4205.000164959882
 31
0.0
  0
LINE
  5
2B7
330
1F
100
AcDbEntity
  8
F-1_枠
  6
Continuous
 62
   200
370
    20
100
AcDbLine
 10
5699.998762800888
 20
-4200.000156196389
 30
0.0
 11
-5999.999752560178
 21
-4200.000156196389
 31
0.0
  0
LINE
  5
2B8
330
1F
100
AcDbEntity
  8
F-1_枠
  6
Continuous
 62
   200
370
    20
100
AcDbLine
 10
5699.998762800888
 20
-4195.000170630377
 30
0.0
 11
-5999.999752560178
 21
-4195.000170630377
 31
0.0
  0
LINE
  5
2B9
330
1F
100
AcDbEntity
  8
F-1_枠
  6
Continuous
 62
   200
370
    20
100
AcDbLine
 10
4189.999224688556
 20
-3795.000165475381
 30
0.0
 11
4189.999224688556
 21
-4195.000170630377
 31
0.0
  0
LINE
  5
2BA
330
1F
100
AcDbEntity
  8
F-1_枠
  6
Continuous
 62
   200
370
    20
100
AcDbLine
 10
2689.998729808913
 20
-3795.000165475381
 30
0.0
 11
2689.998729808913
 21
-4195.000170630377
 31
0.0
  0
LINE
  5
2BB
330
1F
100
AcDbEntity
  8
F-1_枠
  6
Continuous
 62
   200
370
    20
100
AcDbLine
 10
-150.0001237199126
 20
-3795.000165475381
 30
0.0
 11
-150.0001237199126
 21
-4195.000170630377
 31
0.0
  0
LINE
  5
2BC
330
1F
100
AcDbEntity
  8
F-1_枠
  6
Continuous
 62
   200
370
    20
100
AcDbLine
 10
-150.0001237199126
 20
-3995.00009846043
 30
0.0
 11
5689.998977248738
 21
-3995.005526671539
 31
0.0
  0
LINE
  5
2BD
330
1F
100
AcDbEntity
  8
F-0_補助線
  6
JWW_HOJO
 62
     7
370
     9
100
AcDbLine
 10
-5989.999990205508
 20
-3995.000098460775
 30
0.0
 11
-150.0001237199126
 21
-3995.000098460775
 31
0.0
  0
LINE
  5
2BE
330
1F
100
AcDbEntity
  8
F-0_補助線
  6
JWW_HOJO
 62
     7
370
     9
100
AcDbLine
 10
-5989.999990205508
 20
-3905.000098460775
 30
0.0
 11
-150.0001237199126
 21
-3905.000098460775
 31
0.0
  0
LINE
  5
2BF
330
1F
100
AcDbEntity
  8
F-0_補助線
  6
JWW_HOJO
 62
     7
370
     9
100
AcDbLine
 10
-5989.999990205508
 20
-4085.000098460775
 30
0.0
 11
-150.0001237199126
 21
-4085.000098460775
 31
0.0
  0
LINE
  5
2C0
330
1F
100
AcDbEntity
  8
F-0_補助線
  6
JWW_HOJO
 62
     7
370
     9
100
AcDbLine
 10
-150.0002584955405
 20
-4139.999902160367
 30
0.0
 11
5689.998842473104
 21
-4140.005330371476
 31
0.0
  0
LINE
  5
2C1
330
1F
100
AcDbEntity
  8
F-0_補助線
  6
JWW_HOJO
 62
     7
370
     9
100
AcDbLine
 10
-150.0001748415889
 20
-4049.999902160406
 30
0.0
 11
5689.998926127055
 21
-4050.005330371515
 31
0.0
  0
LINE
  5
2C2
330
1F
100
AcDbEntity
  8
F-0_補助線
  6
JWW_HOJO
 62
     7
370
     9
100
AcDbLine
 10
-150.000072597868
 20
-3939.999899600454
 30
0.0
 11
5689.999028370776
 21
-3940.005327811563
 31
0.0
  0
LINE
  5
2C3
330
1F
100
AcDbEntity
  8
F-0_補助線
  6
JWW_HOJO
 62
     7
370
     9
100
AcDbLine
 10
-149.9999889439164
 20
-3849.999899600493
 30
0.0
 11
5689.999112024727
 21
-3850.005327811602
 31
0.0
  0
LINE
  5
2C4
330
1F
100
AcDbEntity
  8
F-0_補助線
  6
JWW_HOJO
 62
     7
370
     9
100
AcDbLine
 10
2779.998729808913
 20
-3795.000165475381
 30
0.0
 11
2779.998729808913
 21
-4195.000170630377
 31
0.0
  0
LINE
  5
2C5
330
1F
100
AcDbEntity
  8
F-0_補助線
  6
JWW_HOJO
 62
     7
370
     9
100
AcDbLine
 10
-60.00012371991261
 20
-3795.000165475381
 30
0.0
 11
-60.00012371991261
 21
-4195.000170630377
 31
0.0
  0
LINE
  5
2C6
330
1F
100
AcDbEntity
  8
F-0_補助線
  6
JWW_HOJO
 62
     7
370
     9
100
AcDbLine
 10
4279.999224688556
 20
-3795.000165475381
 30
0.0
 11
4279.999224688556
 21
-4195.000170630377
 31
0.0
  0
MTEXT
  5
2C7
330
1F
100
AcDbEntity
  8
F-A_文字
  6
Continuous
 62
     7
370
     0
100
AcDbMText
 10
4279.999224688556
 20
-3887.144017233137
 30
0.0
 40
45.72
 41
240.0
 46
0.0
 71
     7
 72
     1
  1
{\fＭＳ ゴシック|b0|i0|c128|p49;ＤＡＴＥ}
 73
     1
 44
1.0
  0
MTEXT
  5
2C8
330
1F
100
AcDbEntity
  8
F-A_文字
  6
Continuous
 62
     7
370
     0
100
AcDbMText
 10
4279.999224688556
 20
-4087.144019793223
 30
0.0
 40
45.72
 41
180.0
 46
0.0
 71
     7
 72
     1
  1
{\fＭＳ ゴシック|b0|i0|c128|p49;ＮＯ．}
 73
     1
 44
1.0
  0
MTEXT
  5
2C9
330
1F
100
AcDbEntity
  8
F-A_文字
  6
Continuous
 62
     7
370
     0
100
AcDbMText
 10
2779.998729808913
 20
-3887.142623000158
 30
0.0
 40
45.72
 41
300.0
 46
0.0
 71
     7
 72
     1
  1
{\fＭＳ ゴシック|b0|i0|c128|p49;ＳＣＡＬＥ}
 73
     1
 44
1.0
  0
MTEXT
  5
2CA
330
1F
100
AcDbEntity
  8
F-A_文字
  6
Continuous
 62
     7
370
     0
100
AcDbMText
 10
2779.998729808913
 20
-4087.142625560244
 30
0.0
 40
45.72
 41
240.0
 46
0.0
 71
     7
 72
     1
  1
{\fＭＳ ゴシック|b0|i0|c128|p49;ＦＩＬＥ}
 73
     1
 44
1.0
  0
MTEXT
  5
2CB
330
1F
100
AcDbEntity
  8
F-A_文字
  6
Continuous
 62
     7
370
     0
100
AcDbMText
 10
-60.00012371991261
 20
-3887.139983254319
 30
0.0
 40
45.72
 41
180.0
 46
0.0
 71
     7
 72
     1
  1
{\fＭＳ ゴシック|b0|i0|c128|p49;図面名}
 73
     1
 44
1.0
  0
MTEXT
  5
2CC
330
1F
100
AcDbEntity
  8
F-A_文字
  6
Continuous
 62
     7
370
     0
100
AcDbMText
 10
1444.998729808913
 20
-4164.281916906312
 30
0.0
 40
101.44125
 41
1065.0
 46
0.0
 71
     7
 72
     1
  1
{\fＭＳ ゴシック|b0|i0|c128|p49;ウッドワン・・・}
 73
     1
 44
1.0
  0
MTEXT
  5
2CD
330
1F
100
AcDbEntity
  8
F-A_文字
  6
Continuous
 62
     7
370
     0
100
AcDbMText
 10
1234.998729808913
 20
-4096.140831648532
 30
0.0
 40
45.72
 41
120.0
 46
0.0
 71
     7
 72
     1
  1
{\fＭＳ ゴシック|b0|i0|c128|p49;株式}
 73
     1
 44
1.0
  0
MTEXT
  5
2CE
330
1F
100
AcDbEntity
  8
F-A_文字
  6
Continuous
 62
     7
370
     0
100
AcDbMText
 10
1234.998729808913
 20
-4168.140831648571
 30
0.0
 40
45.72
 41
120.0
 46
0.0
 71
     7
 72
     1
  1
{\fＭＳ ゴシック|b0|i0|c128|p49;会社}
 73
     1
 44
1.0
  0
LINE
  5
2CF
330
1F
100
AcDbEntity
  8
F-1_枠
  6
Continuous
 62
   200
370
    20
100
AcDbLine
 10
5699.998762800888
 20
-3795.000165475381
 30
0.0
 11
-5999.999752560178
 21
-3795.000165475381
 31
0.0
  0
LINE
  5
2D0
330
1F
100
AcDbEntity
  8
F-1_枠
  6
Continuous
 62
   200
370
    20
100
AcDbLine
 10
5699.998762800888
 20
-3790.000179909372
 30
0.0
 11
-5999.999752560178
 21
-3790.000179909372
 31
0.0
  0
LINE
  5
2D1
330
1F
100
AcDbEntity
  8
F-0_補助線
  6
JWW_HOJO
 62
     7
370
     9
100
AcDbLine
 10
-5247.547376752836
 20
-3795.000165475382
 30
0.0
 11
-5247.547376752836
 21
-4205.000327342266
 31
0.0
  0
LINE
  5
2D2
330
1F
100
AcDbEntity
  8
F-0_補助線
  6
JWW_HOJO
 62
     7
370
     9
100
AcDbLine
 10
-210.0001237199126
 20
-3795.000165475381
 30
0.0
 11
-210.0001237199126
 21
-4195.000170630377
 31
0.0
  0
MTEXT
  5
2D3
330
1F
100
AcDbEntity
  8
F-A_文字
  6
Continuous
 62
     7
370
     0
100
AcDbMText
 10
5608.403311109712
 20
-4314.841581403302
 30
0.0
 40
68.58
 41
90.0
 46
0.0
 71
     7
 72
     1
  1
{\fＭＳ ゴシック|b0|i0|c128|p49;）}
 73
     1
 44
1.0
  0
MTEXT
  5
2D4
330
1F
100
AcDbEntity
  8
F-A_文字
  6
Continuous
 62
     7
370
     0
100
AcDbMText
 10
5190.195950842071
 20
-4316.23560625224
 30
0.0
 40
68.58
 41
45.0
 46
0.0
 71
     7
 72
     1
  1
{\fＭＳ ゴシック|b0|i0|c128|p49;,}
 73
     1
 44
1.0
  0
MTEXT
  5
2D5
330
1F
100
AcDbEntity
  8
F-A_文字
  6
Continuous
 62
     7
370
     0
100
AcDbMText
 10
4923.937261915373
 20
-4314.772129670666
 30
0.0
 40
74.295
 41
97.5
 46
0.0
 71
     7
 72
     1
  1
{\fＭＳ ゴシック|b0|i0|c128|p49;$y}
 73
     1
 44
1.0
  0
MTEXT
  5
2D6
330
1F
100
AcDbEntity
  8
F-A_文字
  6
Continuous
 62
     7
370
     0
100
AcDbMText
 10
5078.673982954195
 20
-4314.772129670666
 30
0.0
 40
74.295
 41
97.5
 46
0.0
 71
     7
 72
     1
  1
{\fＭＳ ゴシック|b0|i0|c128|p49;$m}
 73
     1
 44
1.0
  0
MTEXT
  5
2D7
330
1F
100
AcDbEntity
  8
F-A_文字
  6
Continuous
 62
     7
370
     0
100
AcDbMText
 10
5233.410715437103
 20
-4314.772129670666
 30
0.0
 40
74.295
 41
97.5
 46
0.0
 71
     7
 72
     1
  1
{\fＭＳ ゴシック|b0|i0|c128|p49;$d}
 73
     1
 44
1.0
  0
MTEXT
  5
2D8
330
1F
100
AcDbEntity
  8
F-A_文字
  6
Continuous
 62
     7
370
     0
100
AcDbMText
 10
5388.147447920011
 20
-4314.772129670666
 30
0.0
 40
74.295
 41
195.0
 46
0.0
 71
     7
 72
     1
  1
{\fＭＳ ゴシック|b0|i0|c128|p49;印刷}
 73
     1
 44
1.0
  0
MTEXT
  5
2D9
330
1F
100
AcDbEntity
  8
F-A_文字
  6
Continuous
 62
     7
370
     0
100
AcDbMText
 10
4784.033374252999
 20
-4319.023655950115
 30
0.0
 40
68.58
 41
90.0
 46
0.0
 71
     7
 72
     1
  1
{\fＭＳ ゴシック|b0|i0|c128|p49;（}
 73
     1
 44
1.0
  0
MTEXT
  5
2DA
330
1F
100
AcDbEntity
  8
F-A_文字
  6
Continuous
 62
     7
370
     0
100
AcDbMText
 10
5031.277143812345
 20
-4319.023655950115
 30
0.0
 40
68.58
 41
45.0
 46
0.0
 71
     7
 72
     1
  1
{\fＭＳ ゴシック|b0|i0|c128|p49;,}
 73
     1
 44
1.0
  0
MTEXT
  5
2DB
330
1F
100
AcDbEntity
  8
F-1_枠
  6
Continuous
 62
     7
370
     0
100
AcDbMText
 10
349.9999175200594
 20
-3946.496829254887
 30
0.0
 40
78.58125
 41
412.5
 46
0.0
 71
     7
 72
     1
  1
{\fＭＳ ゴシック|b0|i0|c128|p49;DOORETUS}
 73
     1
 44
1.0
  0
MTEXT
  5
2DC
330
1F
100
AcDbEntity
  8
F-1_枠
  6
Continuous
 62
     7
370
     0
100
AcDbMText
 10
950.2907610420846
 20
-3946.734954254888
 30
0.0
 40
78.105
 41
615.0
 46
0.0
 71
     7
 72
     1
  1
{\fＭＳ ゴシック|b0|i0|c128|p49;建具納まり図}
 73
     1
 44
1.0
  0
LINE
  5
2DD
330
1F
100
AcDbEntity
  8
F-0_補助線
  6
JWW_HOJO
 62
     7
370
     9
100
AcDbLine
 10
3604.998977248734
 20
-3795.000165475381
 30
0.0
 11
3604.998977248734
 21
-4195.000170630377
 31
0.0
  0
MTEXT
  5
2DE
330
1F
100
AcDbEntity
  8
F-A_文字
  6
Continuous
 62
     7
370
     0
100
AcDbMText
 10
3529.998977248734
 20
-3946.903278289692
 30
0.0
 40
76.19999999999999
 41
150.0
 46
0.0
 71
     7
 72
     1
  1
{\fＭＳ ゴシック|b0|i0|c128|p49;1/5}
 73
     1
 44
1.0
  0
LINE
  5
2DF
330
1F
100
AcDbEntity
  8
0-2_柱
  6
Continuous
 62
     7
370
     9
100
AcDbLine
 10
-3223.24924160795
 20
2657.903327113082
 30
0.0
 11
-3223.24924160795
 21
2780.903327113082
 31
0.0
  0
LINE
  5
2E0
330
1F
100
AcDbEntity
  8
0-3_仕上げ
  6
Continuous
 62
    40
370
    15
100
AcDbLine
 10
-3223.24924160795
 20
2780.903327113082
 30
0.0
 11
-3771.100523147416
 21
2780.903327113082
 31
0.0
  0
LINE
  5
2E1
330
1F
100
AcDbEntity
  8
0-2_柱
  6
Continuous
 62
     7
370
     9
100
AcDbLine
 10
-3223.24924160795
 20
2150.903327113082
 30
0.0
 11
-3385.249241607948
 21
2780.903327113082
 31
0.0
  0
LINE
  5
2E2
330
1F
100
AcDbEntity
  8
0-2_柱
  6
Continuous
 62
     7
370
     9
100
AcDbLine
 10
-3385.249241607948
 20
2150.903327113082
 30
0.0
 11
-3385.249241607948
 21
2780.903327113082
 31
0.0
  0
LINE
  5
2E3
330
1F
100
AcDbEntity
  8
0-3_仕上げ
  6
Continuous
 62
    40
370
    15
100
AcDbLine
 10
-3133.24924160795
 20
2870.903327113082
 30
0.0
 11
-3771.100523147416
 21
2870.903327113082
 31
0.0
  0
LINE
  5
2E4
330
1F
100
AcDbEntity
  8
0-3_仕上げ
  6
Continuous
 62
    40
370
    15
100
AcDbLine
 10
-3133.24924160795
 20
2657.903327113082
 30
0.0
 11
-3133.24924160795
 21
2870.903327113082
 31
0.0
  0
LWPOLYLINE
  5
2E5
330
1F
100
AcDbEntity
  8
0-B_寸法
  6
Continuous
 62
     7
370
     9
100
AcDbPolyline
 90
        4
 70
     1
 43
3.0
 10
-3041.749390071844
 20
3145.88497336701
 42
0.4142135623731
 10
-3043.249390071844
 20
3147.38497336701
 42
0.4142135623731
 10
-3044.749390071844
 20
3145.88497336701
 42
0.4142135623731
 10
-3043.249390071844
 20
3144.38497336701
 42
0.4142135623731
  0
LWPOLYLINE
  5
2E6
330
1F
100
AcDbEntity
  8
0-B_寸法
  6
Continuous
 62
     7
370
     9
100
AcDbPolyline
 90
        4
 70
     1
 43
3.0
 10
-3041.749390071844
 20
3298.695514027741
 42
0.4142135623731
 10
-3043.249390071844
 20
3300.195514027741
 42
0.4142135623731
 10
-3044.749390071844
 20
3298.695514027741
 42
0.4142135623731
 10
-3043.249390071844
 20
3297.195514027741
 42
0.4142135623731
  0
LINE
  5
2E7
330
1F
100
AcDbEntity
  8
0-B_寸法
  6
Continuous
 62
   120
370
     5
100
AcDbLine
 10
-3043.249390071844
 20
3298.695514027741
 30
0.0
 11
-3043.249390071844
 21
3145.88497336701
 31
0.0
  0
LWPOLYLINE
  5
2E8
330
1F
100
AcDbEntity
  8
0-B_寸法
  6
Continuous
 62
     7
370
     9
100
AcDbPolyline
 90
        4
 70
     1
 43
3.0
 10
-521.7493900718424
 20
3145.88497336701
 42
0.4142135623731
 10
-523.2493900718424
 20
3147.38497336701
 42
0.4142135623731
 10
-524.7493900718424
 20
3145.88497336701
 42
0.4142135623731
 10
-523.2493900718424
 20
3144.38497336701
 42
0.4142135623731
  0
LINE
  5
2E9
330
1F
100
AcDbEntity
  8
0-B_寸法
  6
Continuous
 62
   120
370
     5
100
AcDbLine
 10
-523.2493900718424
 20
3145.88497336701
 30
0.0
 11
-523.2493900718305
 21
2401.789840891293
 31
0.0
  0
LWPOLYLINE
  5
2EA
330
1F
100
AcDbEntity
  8
0-B_寸法
  6
Continuous
 62
     7
370
     9
100
AcDbPolyline
 90
        4
 70
     1
 43
3.0
 10
-521.7493900718424
 20
3298.695514027741
 42
0.4142135623731
 10
-523.2493900718424
 20
3300.195514027741
 42
0.4142135623731
 10
-524.7493900718424
 20
3298.695514027741
 42
0.4142135623731
 10
-523.2493900718424
 20
3297.195514027741
 42
0.4142135623731
  0
LINE
  5
2EB
330
1F
100
AcDbEntity
  8
0-B_寸法
  6
Continuous
 62
   120
370
     5
100
AcDbLine
 10
-523.2493900718424
 20
3298.695514027741
 30
0.0
 11
-451.2493900718354
 21
3298.695514027741
 31
0.0
  0
LWPOLYLINE
  5
2EC
330
1F
100
AcDbEntity
  8
0-B_寸法
  6
Continuous
 62
     7
370
     9
100
AcDbPolyline
 90
        4
 70
     1
 43
3.0
 10
-449.7493900718354
 20
3298.695514027741
 42
0.4142135623731
 10
-451.2493900718354
 20
3300.195514027741
 42
0.4142135623731
 10
-452.7493900718354
 20
3298.695514027741
 42
0.4142135623731
 10
-451.2493900718354
 20
3297.195514027741
 42
0.4142135623731
  0
LWPOLYLINE
  5
2ED
330
1F
100
AcDbEntity
  8
0-B_寸法
  6
Continuous
 62
     7
370
     9
100
AcDbPolyline
 90
        4
 70
     1
 43
3.0
 10
-449.7493900718354
 20
3475.00734956105
 42
0.4142135623731
 10
-451.2493900718354
 20
3476.50734956105
 42
0.4142135623731
 10
-452.7493900718354
 20
3475.00734956105
 42
0.4142135623731
 10
-451.2493900718354
 20
3473.50734956105
 42
0.4142135623731
  0
LINE
  5
2EE
330
1F
100
AcDbEntity
  8
0-B_寸法
  6
Continuous
 62
   120
370
     5
100
AcDbLine
 10
-523.2493900718424
 20
3298.695514027741
 30
0.0
 11
-523.2493900718424
 21
3145.88497336701
 31
0.0
  0
LINE
  5
2EF
330
1F
100
AcDbEntity
  8
0-B_寸法
  6
Continuous
 62
   120
370
     5
100
AcDbLine
 10
-451.2493900718354
 20
3475.00734956105
 30
0.0
 11
-451.2493900718354
 21
2956.240845548561
 31
0.0
  0
MTEXT
  5
2F0
330
1F
100
AcDbEntity
  8
0-B_寸法
  6
Continuous
 62
     7
370
   211
100
AcDbMText
 10
-562.1287574526218
 20
3305.843014027741
 30
0.0
 40
74.295
 41
97.5
 46
0.0
 71
     7
 72
     1
  1
{\fＭＳ ゴシック|b0|i0|c128|p49;12}
 73
     1
 44
1.0
  0
LINE
  5
2F1
330
1F
100
AcDbEntity
  8
0-B_寸法
  6
Continuous
 62
   120
370
     5
100
AcDbLine
 10
-3043.249390071844
 20
3298.695514027741
 30
0.0
 11
-523.2493900718424
 21
3298.695514027741
 31
0.0
  0
LWPOLYLINE
  5
2F2
330
1F
100
AcDbEntity
  8
0-B_寸法
  6
Continuous
 62
     7
370
     9
100
AcDbPolyline
 90
        4
 70
     1
 43
3.0
 10
-1271.749390071829
 20
3145.88497336701
 42
0.4142135623731
 10
-1273.249390071829
 20
3147.38497336701
 42
0.4142135623731
 10
-1274.749390071829
 20
3145.88497336701
 42
0.4142135623731
 10
-1273.249390071829
 20
3144.38497336701
 42
0.4142135623731
  0
LINE
  5
2F3
330
1F
100
AcDbEntity
  8
0-B_寸法
  6
Continuous
 62
   120
370
     5
100
AcDbLine
 10
-3043.249390071844
 20
3145.88497336701
 30
0.0
 11
-1273.249390071829
 21
3145.88497336701
 31
0.0
  0
LINE
  5
2F4
330
1F
100
AcDbEntity
  8
0-B_寸法
  6
Continuous
 62
   120
370
     5
100
AcDbLine
 10
-1273.249390071829
 20
3145.88497336701
 30
0.0
 11
-523.2493900718424
 21
3145.88497336701
 31
0.0
  0
LINE
  5
2F5
330
1F
100
AcDbEntity
  8
0-B_寸法
  6
Continuous
 62
   120
370
     5
100
AcDbLine
 10
-3043.249390071844
 20
3145.88497336701
 30
0.0
 11
-3043.249390071844
 21
2822.8283234233
 31
0.0
  0
LINE
  5
2F6
330
1F
100
AcDbEntity
  8
0-B_寸法
  6
Continuous
 62
   120
370
     5
100
AcDbLine
 10
-1273.249390071829
 20
3145.88497336701
 30
0.0
 11
-1273.249390071829
 21
2449.273261472572
 31
0.0
  0
LINE
  5
2F7
330
1F
100
AcDbEntity
  8
0-B_寸法
  6
Continuous
 62
   120
370
     5
100
AcDbLine
 10
-3043.249390071844
 20
2973.331374374171
 30
0.0
 11
-2830.291331121778
 21
2973.331374374171
 31
0.0
  0
LWPOLYLINE
  5
2F8
330
1F
100
AcDbEntity
  8
0-B_寸法
  6
Continuous
 62
     7
370
     9
100
AcDbPolyline
 90
        4
 70
     1
 43
3.0
 10
-3041.749390071844
 20
2973.331374374171
 42
0.4142135623731
 10
-3043.249390071844
 20
2974.831374374171
 42
0.4142135623731
 10
-3044.749390071844
 20
2973.331374374171
 42
0.4142135623731
 10
-3043.249390071844
 20
2971.831374374171
 42
0.4142135623731
  0
LWPOLYLINE
  5
2F9
330
1F
100
AcDbEntity
  8
0-B_寸法
  6
Continuous
 62
     7
370
     9
100
AcDbPolyline
 90
        4
 70
     1
 43
3.0
 10
-2828.791331121778
 20
2973.331374374171
 42
0.4142135623731
 10
-2830.291331121778
 20
2974.831374374171
 42
0.4142135623731
 10
-2831.791331121778
 20
2973.331374374171
 42
0.4142135623731
 10
-2830.291331121778
 20
2971.831374374171
 42
0.4142135623731
  0
LINE
  5
2FA
330
1F
100
AcDbEntity
  8
0-B_寸法
  6
Continuous
 62
   120
370
     5
100
AcDbLine
 10
-2830.291331121778
 20
2973.331374374171
 30
0.0
 11
-2830.291331121778
 21
2449.273261472572
 31
0.0
  0
LINE
  5
2FB
330
1F
100
AcDbEntity
  8
0-B_寸法
  6
Continuous
 62
   120
370
     5
100
AcDbLine
 10
-913.249390071822
 20
2973.331374374171
 30
0.0
 11
-733.2493900718288
 21
2973.331374374171
 31
0.0
  0
LWPOLYLINE
  5
2FC
330
1F
100
AcDbEntity
  8
0-B_寸法
  6
Continuous
 62
     7
370
     9
100
AcDbPolyline
 90
        4
 70
     1
 43
3.0
 10
-911.749390071822
 20
2973.331374374171
 42
0.4142135623731
 10
-913.249390071822
 20
2974.831374374171
 42
0.4142135623731
 10
-914.749390071822
 20
2973.331374374171
 42
0.4142135623731
 10
-913.249390071822
 20
2971.831374374171
 42
0.4142135623731
  0
LWPOLYLINE
  5
2FD
330
1F
100
AcDbEntity
  8
0-B_寸法
  6
Continuous
 62
     7
370
     9
100
AcDbPolyline
 90
        4
 70
     1
 43
3.0
 10
-731.7493900718288
 20
2973.331374374171
 42
0.4142135623731
 10
-733.2493900718288
 20
2974.831374374171
 42
0.4142135623731
 10
-734.7493900718288
 20
2973.331374374171
 42
0.4142135623731
 10
-733.2493900718288
 20
2971.831374374171
 42
0.4142135623731
  0
LINE
  5
2FE
330
1F
100
AcDbEntity
  8
0-B_寸法
  6
Continuous
 62
   120
370
     5
100
AcDbLine
 10
-733.2493900718288
 20
2973.331374374171
 30
0.0
 11
-523.2493900718305
 21
2973.331374374171
 31
0.0
  0
LWPOLYLINE
  5
2FF
330
1F
100
AcDbEntity
  8
0-B_寸法
  6
Continuous
 62
     7
370
     9
100
AcDbPolyline
 90
        4
 70
     1
 43
3.0
 10
-521.7493900718305
 20
2973.331374374171
 42
0.4142135623731
 10
-523.2493900718305
 20
2974.831374374171
 42
0.4142135623731
 10
-524.7493900718305
 20
2973.331374374171
 42
0.4142135623731
 10
-523.2493900718305
 20
2971.831374374171
 42
0.4142135623731
  0
LINE
  5
300
330
1F
100
AcDbEntity
  8
0-B_寸法
  6
Continuous
 62
   120
370
     5
100
AcDbLine
 10
-733.2493900718288
 20
2973.331374374171
 30
0.0
 11
-733.2493900718288
 21
2401.789840891293
 31
0.0
  0
LINE
  5
301
330
1F
100
AcDbEntity
  8
0-B_寸法
  6
Continuous
 62
   120
370
     5
100
AcDbLine
 10
-913.249390071822
 20
2973.331374374171
 30
0.0
 11
-913.249390071822
 21
2401.789840891293
 31
0.0
  0
MTEXT
  5
302
330
1F
100
AcDbEntity
  8
0-B_寸法
  6
Continuous
 62
     7
370
   211
100
AcDbMText
 10
-973.4460278125107
 20
3168.577805870342
 30
0.0
 40
76.19999999999999
 41
150.0
 46
0.0
 71
     7
 72
     1
  1
{\fＭＳ ゴシック|b0|i0|c128|p49;125}
 73
     1
 44
1.0
  0
MTEXT
  5
303
330
1F
100
AcDbEntity
  8
0-B_寸法
  6
Continuous
 62
     7
370
   211
100
AcDbMText
 10
-871.9993900718237
 20
2985.720332720512
 30
0.0
 40
74.295
 41
97.5
 46
0.0
 71
     7
 72
     1
  1
{\fＭＳ ゴシック|b0|i0|c128|p49;30}
 73
     1
 44
1.0
  0
MTEXT
  5
304
330
1F
100
AcDbEntity
  8
0-B_寸法
  6
Continuous
 62
     7
370
   211
100
AcDbMText
 10
-676.9993900718305
 20
2985.720332720512
 30
0.0
 40
74.295
 41
97.5
 46
0.0
 71
     7
 72
     1
  1
{\fＭＳ ゴシック|b0|i0|c128|p49;35}
 73
     1
 44
1.0
  0
MTEXT
  5
305
330
1F
100
AcDbEntity
  8
0-B_寸法
  6
Continuous
 62
     7
370
   211
100
AcDbMText
 10
-3038.020360596811
 20
2987.149082720512
 30
0.0
 40
77.15249999999999
 41
202.5
 46
0.0
 71
     7
 72
     1
  1
{\fＭＳ ゴシック|b0|i0|c128|p49;35.5}
 73
     1
 44
1.0
  0
LINE
  5
306
330
1F
100
AcDbEntity
  8
0-B_寸法
  6
Continuous
 62
   120
370
     5
100
AcDbLine
 10
-3133.24924160795
 20
3298.695514027741
 30
0.0
 11
-3043.249390071844
 21
3298.695514027741
 31
0.0
  0
LWPOLYLINE
  5
307
330
1F
100
AcDbEntity
  8
0-B_寸法
  6
Continuous
 62
     7
370
     9
100
AcDbPolyline
 90
        4
 70
     1
 43
3.0
 10
-3131.74924160795
 20
3298.695514027741
 42
0.4142135623731
 10
-3133.24924160795
 20
3300.195514027741
 42
0.4142135623731
 10
-3134.74924160795
 20
3298.695514027741
 42
0.4142135623731
 10
-3133.24924160795
 20
3297.195514027741
 42
0.4142135623731
  0
LWPOLYLINE
  5
308
330
1F
100
AcDbEntity
  8
0-B_寸法
  6
Continuous
 62
     7
370
     9
100
AcDbPolyline
 90
        4
 70
     1
 43
3.0
 10
-3131.74924160795
 20
3475.00734956105
 42
0.4142135623731
 10
-3133.24924160795
 20
3476.50734956105
 42
0.4142135623731
 10
-3134.74924160795
 20
3475.00734956105
 42
0.4142135623731
 10
-3133.24924160795
 20
3473.50734956105
 42
0.4142135623731
  0
LINE
  5
309
330
1F
100
AcDbEntity
  8
0-B_寸法
  6
Continuous
 62
   120
370
     5
100
AcDbLine
 10
-3133.24924160795
 20
3475.00734956105
 30
0.0
 11
-3133.24924160795
 21
2956.240845548561
 31
0.0
  0
LINE
  5
30A
330
1F
100
AcDbEntity
  8
0-B_寸法
  6
Continuous
 62
   120
370
     5
100
AcDbLine
 10
-3133.24924160795
 20
3475.00734956105
 30
0.0
 11
-451.2493900718354
 21
3475.00734956105
 31
0.0
  0
MTEXT
  5
30B
330
1F
100
AcDbEntity
  8
0-B_寸法
  6
Continuous
 62
     7
370
   211
100
AcDbMText
 10
-3134.407154336407
 20
3305.843014027741
 30
0.0
 40
74.295
 41
97.5
 46
0.0
 71
     7
 72
     1
  1
{\fＭＳ ゴシック|b0|i0|c128|p49;15}
 73
     1
 44
1.0
  0
LINE
  5
30C
330
1F
100
AcDbEntity
  8
0-3_仕上げ
  6
Continuous
 62
    40
370
    15
100
AcDbLine
 10
2203.872503697839
 20
2780.903327113082
 30
0.0
 11
796.7506099281576
 21
2780.903327113082
 31
0.0
  0
LINE
  5
30D
330
1F
100
AcDbEntity
  8
0-3_仕上げ
  6
Continuous
 62
    40
370
    15
100
AcDbLine
 10
796.7506099281576
 20
2150.903327113082
 30
0.0
 11
2203.872503697839
 21
2150.903327113082
 31
0.0
  0
LINE
  5
30E
330
1F
100
AcDbEntity
  8
0-2_柱
  6
Continuous
 62
     7
370
     9
100
AcDbLine
 10
-361.2493900718346
 20
2780.903327113082
 30
0.0
 11
-181.2493900718346
 21
2150.903327113082
 31
0.0
  0
LINE
  5
30F
330
1F
100
AcDbEntity
  8
0-2_柱
  6
Continuous
 62
     7
370
     9
100
AcDbLine
 10
-181.2493900718346
 20
2780.903327113082
 30
0.0
 11
-181.2493900718346
 21
2150.903327113082
 31
0.0
  0
LINE
  5
310
330
1F
100
AcDbEntity
  8
0-2_柱
  6
Continuous
 62
     7
370
     9
100
AcDbLine
 10
-361.2493900718346
 20
2780.903327113082
 30
0.0
 11
-361.2493900718346
 21
2150.903327113082
 31
0.0
  0
LINE
  5
311
330
1F
100
AcDbEntity
  8
0-3_仕上げ
  6
Continuous
 62
    40
370
    15
100
AcDbLine
 10
-361.2493900718346
 20
2150.903327113082
 30
0.0
 11
676.7506099281576
 21
2150.903327113082
 31
0.0
  0
LINE
  5
312
330
1F
100
AcDbEntity
  8
0-3_仕上げ
  6
Continuous
 62
    40
370
    15
100
AcDbLine
 10
676.7506099281576
 20
2780.903327113082
 30
0.0
 11
-361.2493900718346
 21
2780.903327113082
 31
0.0
  0
LINE
  5
313
330
1F
100
AcDbEntity
  8
0-3_仕上げ
  6
Continuous
 62
    40
370
    15
100
AcDbLine
 10
-451.2493900718346
 20
2870.903327113082
 30
0.0
 11
-451.2493900718346
 21
2060.903327113082
 31
0.0
  0
LINE
  5
314
330
1F
100
AcDbEntity
  8
0-3_仕上げ
  6
Continuous
 62
    40
370
    15
100
AcDbLine
 10
2203.872503697839
 20
2870.903327113082
 30
0.0
 11
796.7506099281576
 21
2870.903327113082
 31
0.0
  0
LINE
  5
315
330
1F
100
AcDbEntity
  8
0-3_仕上げ
  6
Continuous
 62
    40
370
    15
100
AcDbLine
 10
676.7506099281576
 20
2870.903327113082
 30
0.0
 11
-451.2493900718346
 21
2870.903327113082
 31
0.0
  0
LINE
  5
316
330
1F
100
AcDbEntity
  8
0-0_補助線
  6
JWW_HOJO
 62
     7
370
     9
100
AcDbLine
 10
676.7506099281576
 20
2870.903327113082
 30
0.0
 11
676.7506099281576
 21
1724.903327113081
 31
0.0
  0
LINE
  5
317
330
1F
100
AcDbEntity
  8
0-0_補助線
  6
JWW_HOJO
 62
     7
370
     9
100
AcDbLine
 10
796.7506099281576
 20
2870.903327113082
 30
0.0
 11
796.7506099281576
 21
1724.903327113081
 31
0.0
  0
LINE
  5
318
330
1F
100
AcDbEntity
  8
0-4_枠
  6
Continuous
 62
    92
370
    13
100
AcDbLine
 10
-2855.833034312661
 20
-317.7850361567795
 30
0.0
 11
-2783.83303431266
 21
-317.7850361567795
 31
0.0
  0
LINE
  5
319
330
1F
100
AcDbEntity
  8
0-C_ハッチ
  6
Continuous
 62
   120
370
     5
100
AcDbLine
 10
-3223.24924160795
 20
1661.629504265665
 30
0.0
 11
-3243.975418760534
 21
1640.903327113082
 31
0.0
  0
LINE
  5
31A
330
1F
100
AcDbEntity
  8
0-C_ハッチ
  6
Continuous
 62
   120
370
     5
100
AcDbLine
 10
-3223.24924160795
 20
1704.05603113433
 30
0.0
 11
-3286.401945629198
 21
1640.903327113082
 31
0.0
  0
LINE
  5
31B
330
1F
100
AcDbEntity
  8
0-C_ハッチ
  6
Continuous
 62
   120
370
     5
100
AcDbLine
 10
-3223.24924160795
 20
1746.482558002997
 30
0.0
 11
-3325.432255335108
 21
1644.299544275838
 31
0.0
  0
LINE
  5
31C
330
1F
100
AcDbEntity
  8
0-C_ハッチ
  6
Continuous
 62
   120
370
     5
100
AcDbLine
 10
-3223.24924160795
 20
1788.909084871661
 30
0.0
 11
-3343.249241607949
 21
1668.909084871663
 31
0.0
  0
LINE
  5
31D
330
1F
100
AcDbEntity
  8
0-C_ハッチ
  6
Continuous
 62
   120
370
     5
100
AcDbLine
 10
-3223.24924160795
 20
1831.335611740328
 30
0.0
 11
-3343.249241607949
 21
1711.335611740328
 31
0.0
  0
LINE
  5
31E
330
1F
100
AcDbEntity
  8
0-C_ハッチ
  6
Continuous
 62
   120
370
     5
100
AcDbLine
 10
-3223.24924160795
 20
1873.762138608993
 30
0.0
 11
-3343.249241607949
 21
1753.762138608995
 31
0.0
  0
LINE
  5
31F
330
1F
100
AcDbEntity
  8
0-C_ハッチ
  6
Continuous
 62
   120
370
     5
100
AcDbLine
 10
-3223.24924160795
 20
1916.188665477658
 30
0.0
 11
-3343.249241607949
 21
1796.188665477659
 31
0.0
  0
LINE
  5
320
330
1F
100
AcDbEntity
  8
0-C_ハッチ
  6
Continuous
 62
   120
370
     5
100
AcDbLine
 10
-3223.24924160795
 20
1958.614450026857
 30
0.0
 11
-3343.249241607949
 21
1838.614450026857
 31
0.0
  0
LINE
  5
321
330
1F
100
AcDbEntity
  8
0-C_ハッチ
  6
Continuous
 62
   120
370
     5
100
AcDbLine
 10
-3223.24924160795
 20
2001.040976895523
 30
0.0
 11
-3343.249241607949
 21
1881.040976895523
 31
0.0
  0
LINE
  5
322
330
1F
100
AcDbEntity
  8
0-C_ハッチ
  6
Continuous
 62
   120
370
     5
100
AcDbLine
 10
-3223.24924160795
 20
2043.467503764188
 30
0.0
 11
-3343.249241607949
 21
1923.467503764188
 31
0.0
  0
LINE
  5
323
330
1F
100
AcDbEntity
  8
0-C_ハッチ
  6
Continuous
 62
   120
370
     5
100
AcDbLine
 10
-3223.24924160795
 20
2085.893288313386
 30
0.0
 11
-3343.249241607949
 21
1965.893288313386
 31
0.0
  0
LINE
  5
324
330
1F
100
AcDbEntity
  8
0-C_ハッチ
  6
Continuous
 62
   120
370
     5
100
AcDbLine
 10
-3327.944567963448
 20
2150.903327113082
 30
0.0
 11
-3343.249241607949
 21
2135.59865346858
 31
0.0
  0
LINE
  5
325
330
1F
100
AcDbEntity
  8
0-C_ハッチ
  6
Continuous
 62
   120
370
     5
100
AcDbLine
 10
-3285.518041094782
 20
2150.903327113082
 30
0.0
 11
-3343.249241607949
 21
2093.172126599915
 31
0.0
  0
LINE
  5
326
330
1F
100
AcDbEntity
  8
0-C_ハッチ
  6
Continuous
 62
   120
370
     5
100
AcDbLine
 10
-3223.24924160795
 20
2128.319815182051
 30
0.0
 11
-3343.249241607949
 21
2008.319815182051
 31
0.0
  0
LINE
  5
327
330
1F
100
AcDbEntity
  8
0-C_ハッチ
  6
Continuous
 62
   120
370
     5
100
AcDbLine
 10
-3243.092256545585
 20
2150.903327113082
 30
0.0
 11
-3343.249241607949
 21
2050.746342050717
 31
0.0
  0
LINE
  5
328
330
1F
100
AcDbEntity
  8
0-4_枠
  6
Continuous
 62
    92
370
    13
100
AcDbLine
 10
-3343.249241607949
 20
1662.116530548678
 30
0.0
 11
-3343.249241607949
 21
2150.903327113082
 31
0.0
  0
LINE
  5
329
330
1F
100
AcDbEntity
  8
0-4_枠
  6
Continuous
 62
    92
370
    13
100
AcDbLine
 10
-3322.036038172352
 20
1640.903327113082
 30
0.0
 11
-3343.249241607949
 21
1662.116530548678
 31
0.0
  0
LINE
  5
32A
330
1F
100
AcDbEntity
  8
0-4_枠
  6
Continuous
 62
    92
370
    13
100
AcDbLine
 10
-3229.24924160795
 20
1640.903327113082
 30
0.0
 11
-3322.036038172352
 21
1640.903327113082
 31
0.0
  0
ARC
  5
32B
330
1F
100
AcDbEntity
  8
0-4_枠
  6
Continuous
 62
    92
370
    13
100
AcDbCircle
 10
-3229.24924160795
 20
1646.903327113082
 30
0.0
 40
6.0
100
AcDbArc
 50
270.0
 51
0.0
  0
LINE
  5
32C
330
1F
100
AcDbEntity
  8
0-3_仕上げ
  6
Continuous
 62
    40
370
    15
100
AcDbLine
 10
-3343.249241607949
 20
2060.903327113082
 30
0.0
 11
-3771.100523147416
 21
2060.903327113082
 31
0.0
  0
LWPOLYLINE
  5
32D
330
1F
100
AcDbEntity
  8
0-B_寸法
  6
Continuous
 62
     7
370
     9
100
AcDbPolyline
 90
        4
 70
     1
 43
3.0
 10
-4109.404182682731
 20
1637.903327113082
 42
0.4142135623731
 10
-4110.904182682732
 20
1639.403327113082
 42
0.4142135623731
 10
-4112.404182682732
 20
1637.903327113082
 42
0.4142135623731
 10
-4110.904182682732
 20
1636.403327113082
 42
0.4142135623731
  0
LWPOLYLINE
  5
32E
330
1F
100
AcDbEntity
  8
0-B_寸法
  6
Continuous
 62
     7
370
     9
100
AcDbPolyline
 90
        4
 70
     1
 43
3.0
 10
-4109.404182682731
 20
2657.903327113082
 42
0.4142135623731
 10
-4110.904182682732
 20
2659.403327113082
 42
0.4142135623731
 10
-4112.404182682732
 20
2657.903327113082
 42
0.4142135623731
 10
-4110.904182682732
 20
2656.403327113082
 42
0.4142135623731
  0
LINE
  5
32F
330
1F
100
AcDbEntity
  8
0-B_寸法
  6
Continuous
 62
   120
370
     5
100
AcDbLine
 10
-4272.217525828295
 20
1637.903327113082
 30
0.0
 11
-4272.217525828295
 21
2657.903327113082
 31
0.0
  0
LWPOLYLINE
  5
330
330
1F
100
AcDbEntity
  8
0-B_寸法
  6
Continuous
 62
     7
370
     9
100
AcDbPolyline
 90
        4
 70
     1
 43
3.0
 10
-4270.717525828295
 20
1637.903327113082
 42
0.4142135623731
 10
-4272.217525828295
 20
1639.403327113082
 42
0.4142135623731
 10
-4273.717525828296
 20
1637.903327113082
 42
0.4142135623731
 10
-4272.217525828295
 20
1636.403327113082
 42
0.4142135623731
  0
LWPOLYLINE
  5
331
330
1F
100
AcDbEntity
  8
0-B_寸法
  6
Continuous
 62
     7
370
     9
100
AcDbPolyline
 90
        4
 70
     1
 43
3.0
 10
-4270.717525828295
 20
2657.903327113082
 42
0.4142135623731
 10
-4272.217525828295
 20
2659.403327113082
 42
0.4142135623731
 10
-4273.717525828296
 20
2657.903327113082
 42
0.4142135623731
 10
-4272.217525828295
 20
2656.403327113082
 42
0.4142135623731
  0
LINE
  5
332
330
1F
100
AcDbEntity
  8
0-B_寸法
  6
Continuous
 62
   120
370
     5
100
AcDbLine
 10
-4272.217525828295
 20
1637.903327113082
 30
0.0
 11
-4110.904182682732
 21
1637.903327113082
 31
0.0
  0
LINE
  5
333
330
1F
100
AcDbEntity
  8
0-B_寸法
  6
Continuous
 62
   120
370
     5
100
AcDbLine
 10
-4272.217525828295
 20
2657.903327113082
 30
0.0
 11
-4110.904182682732
 21
2657.903327113082
 31
0.0
  0
LINE
  5
334
330
1F
100
AcDbEntity
  8
0-B_寸法
  6
Continuous
 62
   120
370
     5
100
AcDbLine
 10
-4110.904182682732
 20
2657.903327113082
 30
0.0
 11
-3273.479892705568
 21
2657.903327113082
 31
0.0
  0
LINE
  5
335
330
1F
100
AcDbEntity
  8
0-B_寸法
  6
Continuous
 62
   120
370
     5
100
AcDbLine
 10
-4110.904182682732
 20
1637.903327113082
 30
0.0
 11
-3273.479892705568
 21
1637.903327113082
 31
0.0
  0
LWPOLYLINE
  5
336
330
1F
100
AcDbEntity
  8
0-B_寸法
  6
Continuous
 62
     7
370
     9
100
AcDbPolyline
 90
        4
 70
     1
 43
3.0
 10
-4109.404182682731
 20
2150.903327113082
 42
0.4142135623731
 10
-4110.904182682732
 20
2152.403327113082
 42
0.4142135623731
 10
-4112.404182682732
 20
2150.903327113082
 42
0.4142135623731
 10
-4110.904182682732
 20
2149.403327113082
 42
0.4142135623731
  0
LINE
  5
337
330
1F
100
AcDbEntity
  8
0-B_寸法
  6
Continuous
 62
   120
370
     5
100
AcDbLine
 10
-4110.904182682732
 20
1637.903327113082
 30
0.0
 11
-4110.904182682732
 21
2150.903327113082
 31
0.0
  0
LINE
  5
338
330
1F
100
AcDbEntity
  8
0-B_寸法
  6
Continuous
 62
   120
370
     5
100
AcDbLine
 10
-4110.904182682732
 20
2150.903327113082
 30
0.0
 11
-3801.673315942619
 21
2150.903327113082
 31
0.0
  0
LINE
  5
339
330
1F
100
AcDbEntity
  8
0-B_寸法
  6
Continuous
 62
   120
370
     5
100
AcDbLine
 10
-4110.904182682732
 20
2150.903327113082
 30
0.0
 11
-4110.904182682732
 21
2657.903327113082
 31
0.0
  0
MTEXT
  5
33A
330
1F
100
AcDbEntity
  8
0-B_寸法
  6
Continuous
 62
     7
370
   211
100
AcDbMText
 10
-4125.904182682732
 20
2296.729577113082
 30
0.0
 40
77.15249999999999
 41
202.5
 46
0.0
 71
     7
 72
     1
  1
{\fＭＳ ゴシック|b0|i0|c128|p49;84.5}
 11
6.123031769111886E-17
 21
1.0
 31
0.0
 73
     1
 44
1.0
  0
MTEXT
  5
33B
330
1F
100
AcDbEntity
  8
0-B_寸法
  6
Continuous
 62
     7
370
   211
100
AcDbMText
 10
-4125.904182682732
 20
1786.729577113082
 30
0.0
 40
77.15249999999999
 41
202.5
 46
0.0
 71
     7
 72
     1
  1
{\fＭＳ ゴシック|b0|i0|c128|p49;85.5}
 11
6.123031769111886E-17
 21
1.0
 31
0.0
 73
     1
 44
1.0
  0
MTEXT
  5
33C
330
1F
100
AcDbEntity
  8
0-B_寸法
  6
Continuous
 62
     7
370
   211
100
AcDbMText
 10
-4287.217525828295
 20
2066.003327113082
 30
0.0
 40
76.19999999999999
 41
150.0
 46
0.0
 71
     7
 72
     1
  1
{\fＭＳ ゴシック|b0|i0|c128|p49;170}
 11
6.123031769111886E-17
 21
1.0
 31
0.0
 73
     1
 44
1.0
  0
LINE
  5
33D
330
1F
100
AcDbEntity
  8
0-B_寸法
  6
Continuous
 62
   120
370
     5
100
AcDbLine
 10
-3956.288749312675
 20
2150.903327113082
 30
0.0
 11
-3956.288749312675
 21
1640.903327113082
 31
0.0
  0
LWPOLYLINE
  5
33E
330
1F
100
AcDbEntity
  8
0-B_寸法
  6
Continuous
 62
     7
370
     9
100
AcDbPolyline
 90
        4
 70
     1
 43
3.0
 10
-3954.788749312675
 20
2150.903327113082
 42
0.4142135623731
 10
-3956.288749312675
 20
2152.403327113082
 42
0.4142135623731
 10
-3957.788749312676
 20
2150.903327113082
 42
0.4142135623731
 10
-3956.288749312675
 20
2149.403327113082
 42
0.4142135623731
  0
LWPOLYLINE
  5
33F
330
1F
100
AcDbEntity
  8
0-B_寸法
  6
Continuous
 62
     7
370
     9
100
AcDbPolyline
 90
        4
 70
     1
 43
3.0
 10
-3954.788749312675
 20
1640.903327113082
 42
0.4142135623731
 10
-3956.288749312675
 20
1642.403327113082
 42
0.4142135623731
 10
-3957.788749312676
 20
1640.903327113082
 42
0.4142135623731
 10
-3956.288749312675
 20
1639.403327113082
 42
0.4142135623731
  0
LINE
  5
340
330
1F
100
AcDbEntity
  8
0-B_寸法
  6
Continuous
 62
   120
370
     5
100
AcDbLine
 10
-3956.288749312675
 20
1640.903327113082
 30
0.0
 11
-3801.673315942619
 21
1640.903327113082
 31
0.0
  0
MTEXT
  5
341
330
1F
100
AcDbEntity
  8
0-B_寸法
  6
Continuous
 62
     7
370
   211
100
AcDbMText
 10
-3971.288749312675
 20
1839.300827113082
 30
0.0
 40
74.295
 41
97.5
 46
0.0
 71
     7
 72
     1
  1
{\fＭＳ ゴシック|b0|i0|c128|p49;85}
 11
6.123031769111886E-17
 21
1.0
 31
0.0
 73
     1
 44
1.0
  0
LINE
  5
342
330
1F
100
AcDbEntity
  8
0-B_寸法
  6
Continuous
 62
     7
370
     9
100
AcDbLine
 10
-2369.99782018452
 20
3058.732574064308
 30
0.0
 11
-1945.61854785817
 21
3058.732574064308
 31
0.0
  0
LINE
  5
343
330
1F
100
AcDbEntity
  8
0-B_寸法
  6
Continuous
 62
     7
370
     9
100
AcDbLine
 10
-1945.61854785817
 20
3058.732574064308
 30
0.0
 11
-1945.61854785817
 21
2901.555065795289
 31
0.0
  0
LINE
  5
344
330
1F
100
AcDbEntity
  8
0-B_寸法
  6
Continuous
 62
     7
370
     9
100
AcDbLine
 10
-2369.99782018452
 20
2901.555065795289
 30
0.0
 11
-2369.99782018452
 21
3058.732574064308
 31
0.0
  0
LWPOLYLINE
  5
345
330
1F
100
AcDbEntity
  8
0-A_文字
  6
Continuous
 62
     7
370
     9
100
AcDbPolyline
 90
        4
 70
     1
 43
3.0
 10
-3287.030796350314
 20
1985.864674245298
 42
0.4142135623731
 10
-3288.530796350314
 20
1987.364674245298
 42
0.4142135623731
 10
-3290.030796350314
 20
1985.864674245298
 42
0.4142135623731
 10
-3288.530796350314
 20
1984.364674245298
 42
0.4142135623731
  0
MTEXT
  5
346
330
1F
100
AcDbEntity
  8
0-A_文字
  6
Continuous
 62
     7
370
     9
100
AcDbMText
 10
-2476.160375549069
 20
2482.588710736634
 30
0.0
 40
78.105
 41
615.0
 46
0.0
 71
     7
 72
     1
  1
{\fＭＳ ゴシック|b0|i0|c128|p49;※入隅の場合}
 73
     1
 44
1.0
  0
LINE
  5
347
330
1F
100
AcDbEntity
  8
0-A_文字
  6
Continuous
 62
     7
370
     9
100
AcDbLine
 10
-1761.145979356327
 20
2156.094092949603
 30
0.0
 11
-2545.324920462811
 21
2156.094092949603
 31
0.0
  0
LINE
  5
348
330
1F
100
AcDbEntity
  8
0-A_文字
  6
Continuous
 62
     7
370
     9
100
AcDbLine
 10
-1805.999280962513
 20
2198.308965049544
 30
0.0
 11
-1805.999280962513
 21
2625.781659874053
 31
0.0
  0
MTEXT
  5
349
330
1F
100
AcDbEntity
  8
0-A_文字
  6
Continuous
 62
     7
370
     9
100
AcDbMText
 10
-2476.160375549069
 20
2350.667235424321
 30
0.0
 40
78.105
 41
615.0
 46
0.0
 71
     7
 72
     1
  1
{\fＭＳ ゴシック|b0|i0|c128|p49;　不要になり}
 73
     1
 44
1.0
  0
MTEXT
  5
34A
330
1F
100
AcDbEntity
  8
0-A_文字
  6
Continuous
 62
     7
370
     9
100
AcDbMText
 10
-2476.160375549069
 20
2239.376946161977
 30
0.0
 40
77.15249999999999
 41
405.0
 46
0.0
 71
     7
 72
     1
  1
{\fＭＳ ゴシック|b0|i0|c128|p49;　ます。}
 73
     1
 44
1.0
  0
LINE
  5
34B
330
1F
100
AcDbEntity
  8
0-A_文字
  6
Continuous
 62
     7
370
     9
100
AcDbLine
 10
-1805.999280962513
 20
2625.781659874053
 30
0.0
 11
-2503.772234662103
 21
2625.781659874053
 31
0.0
  0
LINE
  5
34C
330
1F
100
AcDbEntity
  8
0-A_文字
  6
Continuous
 62
     7
370
     9
100
AcDbLine
 10
-2503.772234662103
 20
2198.308965049544
 30
0.0
 11
-2503.772234662103
 21
2625.781659874053
 31
0.0
  0
LINE
  5
34D
330
1F
100
AcDbEntity
  8
0-A_文字
  6
Continuous
 62
     7
370
     9
100
AcDbLine
 10
-1805.999280962513
 20
2198.308965049544
 30
0.0
 11
-2503.772234662103
 21
2198.308965049544
 31
0.0
  0
MTEXT
  5
34E
330
1F
100
AcDbEntity
  8
0-A_文字
  6
Continuous
 62
     7
370
     9
100
AcDbMText
 10
-2455.576377928604
 20
2636.172092114754
 30
0.0
 40
79.0575
 41
622.5
 46
0.0
 71
     7
 72
     1
  1
{\fＭＳ ゴシック|b0|i0|c128|p49;2100×85×20}
 73
     1
 44
1.0
  0
MTEXT
  5
34F
330
1F
100
AcDbEntity
  8
0-A_文字
  6
Continuous
 62
     7
370
     9
100
AcDbMText
 10
-2297.167097738242
 20
2915.722503603021
 30
0.0
 40
76.19999999999999
 41
300.0
 46
0.0
 71
     7
 72
     1
  1
{\fＭＳ ゴシック|b0|i0|c128|p49;竪枠裏}
 73
     1
 44
1.0
  0
LINE
  5
350
330
1F
100
AcDbEntity
  8
0-A_文字
  6
Continuous
 62
     7
370
     9
100
AcDbLine
 10
-1945.61854785817
 20
2901.555065795289
 30
0.0
 11
-2369.99782018452
 21
2901.555065795289
 31
0.0
  0
LINE
  5
351
330
1F
100
AcDbEntity
  8
0-A_文字
  6
Continuous
 62
     7
370
     9
100
AcDbLine
 10
-2545.324920462811
 20
2977.228571419797
 30
0.0
 11
-2369.99782018452
 21
2977.228571419797
 31
0.0
  0
LINE
  5
352
330
1F
100
AcDbEntity
  8
0-A_文字
  6
Continuous
 62
     7
370
     9
100
AcDbLine
 10
-2545.324920462811
 20
2156.094092949603
 30
0.0
 11
-2545.324920462811
 21
2977.228571419797
 31
0.0
  0
LINE
  5
353
330
1F
100
AcDbEntity
  8
0-A_文字
  6
Continuous
 62
     7
370
     9
100
AcDbLine
 10
-1945.61854785817
 20
2977.228571419797
 30
0.0
 11
-1761.145979356327
 21
2977.228571419797
 31
0.0
  0
LINE
  5
354
330
1F
100
AcDbEntity
  8
0-A_文字
  6
Continuous
 62
     7
370
     9
100
AcDbLine
 10
-1761.145979356327
 20
2156.094092949603
 30
0.0
 11
-1761.145979356327
 21
2977.228571419797
 31
0.0
  0
LINE
  5
355
330
1F
100
AcDbEntity
  8
0-A_文字
  6
Continuous
 62
     7
370
     9
100
AcDbLine
 10
-3288.530796350314
 20
1985.864674245298
 30
0.0
 11
-2545.324920462811
 21
2620.686359899207
 31
0.0
  0
LINE
  5
356
330
1F
100
AcDbEntity
  8
0-B_寸法
  6
Continuous
 62
     7
370
     9
100
AcDbLine
 10
-5819.91839386392
 20
3404.579311737762
 30
0.0
 11
-5819.91839386392
 21
4000.00018145587
 31
0.0
  0
MTEXT
  5
357
330
1F
100
AcDbEntity
  8
0-A_文字
  6
Continuous
 62
     7
370
     9
100
AcDbMText
 10
-4110.904182682732
 20
3369.779738730407
 30
0.0
 40
91.44
 41
600.0
 46
0.0
 71
     7
 72
     1
  1
{\fＭＳ ゴシック|b0|i0|c128|p49;■横断面図}
 73
     1
 44
1.0
  0
MTEXT
  5
358
330
1F
100
AcDbEntity
  8
0-A_文字
  6
Continuous
 62
     7
370
     9
100
AcDbMText
 10
-2455.576377928604
 20
2770.849931625108
 30
0.0
 40
77.724
 41
510.0
 46
0.0
 71
     7
 72
     1
  1
{\fＭＳ ゴシック|b0|i0|c128|p49;戸先裏部材}
 73
     1
 44
1.0
  0
MTEXT
  5
359
330
1F
100
AcDbEntity
  8
0-B_寸法
  6
Continuous
 62
     7
370
     9
100
AcDbMText
 10
-5714.500920638388
 20
3629.885860004807
 30
0.0
 40
101.44125
 41
1065.0
 46
0.0
 71
     7
 72
     1
  1
{\fＭＳ ゴシック|b0|i0|c128|p49;竪枠裏側に枠材を}
 73
     1
 44
1.0
  0
MTEXT
  5
35A
330
1F
100
AcDbEntity
  8
0-B_寸法
  6
Continuous
 62
     7
370
     9
100
AcDbMText
 10
-5714.500920638388
 20
3479.783806433378
 30
0.0
 40
101.2371428571429
 41
930.0
 46
0.0
 71
     7
 72
     1
  1
{\fＭＳ ゴシック|b0|i0|c128|p49;取り付ける場合}
 73
     1
 44
1.0
  0
LINE
  5
35B
330
1F
100
AcDbEntity
  8
0-B_寸法
  6
Continuous
 62
     7
370
     9
100
AcDbLine
 10
-4544.083447412857
 20
3404.579311737762
 30
0.0
 11
-5819.91839386392
 21
3404.579311737762
 31
0.0
  0
LINE
  5
35C
330
1F
100
AcDbEntity
  8
0-B_寸法
  6
Continuous
 62
     7
370
     9
100
AcDbLine
 10
-4544.083447412857
 20
4000.00018145587
 30
0.0
 11
-4544.083447412857
 21
3404.579311737762
 31
0.0
  0
LINE
  5
35D
330
1F
100
AcDbEntity
  8
0-B_寸法
  6
Continuous
 62
     7
370
     9
100
AcDbLine
 10
-5819.91839386392
 20
4000.00018145587
 30
0.0
 11
-4544.083447412857
 21
4000.00018145587
 31
0.0
  0
MTEXT
  5
35E
330
1F
100
AcDbEntity
  8
0-B_寸法
  6
Continuous
 62
     7
370
   211
100
AcDbMText
 10
510.6984865034627
 20
-3638.928190285429
 30
0.0
 40
77.724
 41
255.0
 46
0.0
 71
     7
 72
     1
  1
{\fＭＳ ゴシック|b0|i0|c128|p49;1,005}
 73
     1
 44
1.0
  0
MTEXT
  5
35F
330
1F
100
AcDbEntity
  8
0-B_寸法
  6
Continuous
 62
     7
370
   211
100
AcDbMText
 10
-1208.492328358655
 20
1250.167313496065
 30
0.0
 40
79.33764705882353
 41
885.0
 46
0.0
 71
     7
 72
     1
  1
{\fＭＳ ゴシック|b0|i0|c128|p49;上吊レール：2,169}
 73
     1
 44
1.0
  0
MTEXT
  5
360
330
1F
100
AcDbEntity
  8
0-A_文字
  6
Continuous
 62
     7
370
     9
100
AcDbMText
 10
-2142.845686430692
 20
1800.173168265948
 30
0.0
 40
78.97090909090909
 41
570.0
 46
0.0
 71
     7
 72
     1
  1
{\fＭＳ ゴシック|b0|i0|c128|p49;ＤＷ：1,158}
 73
     1
 44
1.0
  0
MTEXT
  5
361
330
1F
100
AcDbEntity
  8
0-B_寸法
  6
Continuous
 62
     7
370
   211
100
AcDbMText
 10
-2446.46099539462
 20
3164.73097160146
 30
0.0
 40
79.248
 41
780.0
 46
0.0
 71
     7
 72
     1
  1
{\fＭＳ ゴシック|b0|i0|c128|p49;有効開口：1,003}
 73
     1
 44
1.0
  0
MTEXT
  5
362
330
1F
100
AcDbEntity
  8
0-B_寸法
  6
Continuous
 62
     7
370
   211
100
AcDbMText
 10
-2022.105444515371
 20
3318.188942049561
 30
0.0
 40
77.724
 41
255.0
 46
0.0
 71
     7
 72
     1
  1
{\fＭＳ ゴシック|b0|i0|c128|p49;1,128}
 73
     1
 44
1.0
  0
MTEXT
  5
363
330
1F
100
AcDbEntity
  8
0-B_寸法
  6
Continuous
 62
     7
370
   211
100
AcDbMText
 10
-1919.749315839893
 20
3484.288567490697
 30
0.0
 40
77.724
 41
255.0
 46
0.0
 71
     7
 72
     1
  1
{\fＭＳ ゴシック|b0|i0|c128|p49;1,155}
 73
     1
 44
1.0
  0
MTEXT
  5
364
330
1F
100
AcDbEntity
  8
1-A_文字
  6
Continuous
 62
     7
370
     9
100
AcDbMText
 10
4305.965191410642
 20
3610.76537757962
 30
0.0
 40
77.724
 41
510.0
 46
0.0
 71
     7
 72
     1
  1
{\fＭＳ ゴシック|b0|i0|c128|p49;枠現場加工}
 73
     1
 44
1.0
  0
MTEXT
  5
365
330
1F
100
AcDbEntity
  8
1-A_文字
  6
Continuous
 62
     7
370
     9
100
AcDbMText
 10
4152.24847517031
 20
3430.406813778311
 30
0.0
 40
77.15249999999999
 41
405.0
 46
0.0
 71
     7
 72
     1
  1
{\fＭＳ ゴシック|b0|i0|c128|p49;15㎜PBの}
 73
     1
 44
1.0
  0
MTEXT
  5
366
330
1F
100
AcDbEntity
  8
1-A_文字
  6
Continuous
 62
     7
370
     9
100
AcDbMText
 10
4152.24847517031
 20
3321.19450700938
 30
0.0
 40
78.37714285714286
 41
720.0
 46
0.0
 71
     7
 72
     1
  1
{\fＭＳ ゴシック|b0|i0|c128|p49;場合のカキコミ}
 73
     1
 44
1.0
  0
MTEXT
  5
367
330
1F
100
AcDbEntity
  8
1-A_文字
  6
Continuous
 62
     7
370
     9
100
AcDbMText
 10
4152.24847517031
 20
3219.73262496638
 30
0.0
 40
77.724
 41
510.0
 46
0.0
 71
     7
 72
     1
  1
{\fＭＳ ゴシック|b0|i0|c128|p49;寸法です。}
 73
     1
 44
1.0
  0
LINE
  5
368
330
1F
100
AcDbEntity
  8
1-A_文字
  6
Continuous
 62
     7
370
     9
100
AcDbLine
 10
4919.67585664316
 20
3574.971194355353
 30
0.0
 11
4919.67585664316
 21
3751.086363897291
 31
0.0
  0
LINE
  5
369
330
1F
100
AcDbEntity
  8
1-A_文字
  6
Continuous
 62
     7
370
     9
100
AcDbLine
 10
4184.331776866646
 20
3751.086363897291
 30
0.0
 11
4919.67585664316
 21
3751.086363897291
 31
0.0
  0
LINE
  5
36A
330
1F
100
AcDbEntity
  8
1-A_文字
  6
Continuous
 62
     7
370
     9
100
AcDbLine
 10
4184.331776866646
 20
3574.971194355353
 30
0.0
 11
4919.67585664316
 21
3574.971194355353
 31
0.0
  0
LINE
  5
36B
330
1F
100
AcDbEntity
  8
1-A_文字
  6
Continuous
 62
     7
370
     9
100
AcDbLine
 10
4184.331776866646
 20
3574.971194355353
 30
0.0
 11
4184.331776866646
 21
3751.086363897291
 31
0.0
  0
LINE
  5
36C
330
1F
100
AcDbEntity
  8
1-1_通り芯
  6
JWW_CENTER1
 62
   120
370
     5
100
AcDbLine
 10
4541.796491818151
 20
2324.972195431032
 30
0.0
 11
4541.796491818151
 21
2042.346356891021
 31
0.0
  0
LINE
  5
36D
330
1F
100
AcDbEntity
  8
1-1_通り芯
  6
JWW_CENTER1
 62
   120
370
     5
100
AcDbLine
 10
4587.109437725182
 20
2170.472195431032
 30
0.0
 11
4499.590800444814
 21
2170.472195431032
 31
0.0
  0
LINE
  5
36E
330
1F
100
AcDbEntity
  8
1-1_通り芯
  6
JWW_CENTER1
 62
   120
370
     5
100
AcDbLine
 10
4820.796820913118
 20
-3460.527804568972
 30
0.0
 11
4820.796820913118
 21
2731.203912353073
 31
0.0
  0
LINE
  5
36F
330
1F
100
AcDbEntity
  8
1-1_通り芯
  6
JWW_CENTER1
 62
   120
370
     5
100
AcDbLine
 10
4866.109766820146
 20
2170.472195431032
 30
0.0
 11
4778.591129539781
 21
2170.472195431032
 31
0.0
  0
LINE
  5
370
330
1F
100
AcDbEntity
  8
1-1_通り芯
  6
JWW_CENTER1
 62
   120
370
     5
100
AcDbLine
 10
4541.796491818151
 20
663.839791983371
 30
0.0
 11
4541.796491818151
 21
461.3885913333506
 31
0.0
  0
LINE
  5
371
330
1F
100
AcDbEntity
  8
1-1_通り芯
  6
JWW_CENTER1
 62
   120
370
     5
100
AcDbLine
 10
4587.109437725182
 20
550.4721954310269
 30
0.0
 11
4499.590800444814
 21
550.4721954310269
 31
0.0
  0
LINE
  5
372
330
1F
100
AcDbEntity
  8
1-1_通り芯
  6
JWW_CENTER1
 62
   120
370
     5
100
AcDbLine
 10
4866.109766820146
 20
550.4721954310269
 30
0.0
 11
4778.591129539781
 21
550.4721954310269
 31
0.0
  0
LINE
  5
373
330
1F
100
AcDbEntity
  8
1-1_通り芯
  6
JWW_CENTER1
 62
   120
370
     5
100
AcDbLine
 10
4587.109437725182
 20
-1330.527804568973
 30
0.0
 11
4499.590800444814
 21
-1330.527804568973
 31
0.0
  0
LINE
  5
374
330
1F
100
AcDbEntity
  8
1-1_通り芯
  6
JWW_CENTER1
 62
   120
370
     5
100
AcDbLine
 10
4541.796491818151
 20
-1171.00517341179
 30
0.0
 11
4541.796491818151
 21
-1424.069174224316
 31
0.0
  0
LINE
  5
375
330
1F
100
AcDbEntity
  8
1-1_通り芯
  6
JWW_CENTER1
 62
   120
370
     5
100
AcDbLine
 10
4587.109437725182
 20
-2950.527804568972
 30
0.0
 11
4499.590800444814
 21
-2950.527804568972
 31
0.0
  0
LINE
  5
376
330
1F
100
AcDbEntity
  8
1-1_通り芯
  6
JWW_CENTER1
 62
   120
370
     5
100
AcDbLine
 10
4541.796491818151
 20
-2802.575739131964
 30
0.0
 11
4541.796491818151
 21
-3065.762299976986
 31
0.0
  0
LINE
  5
377
330
1F
100
AcDbEntity
  8
1-1_通り芯
  6
JWW_CENTER1
 62
   120
370
     5
100
AcDbLine
 10
4866.109766820146
 20
-2950.527804568972
 30
0.0
 11
4778.591129539781
 21
-2950.527804568972
 31
0.0
  0
CIRCLE
  5
378
330
1F
100
AcDbEntity
  8
1-7_金物
  6
Continuous
 62
     7
370
     9
100
AcDbCircle
 10
4541.796491818151
 20
550.4721954310269
 30
0.0
 40
12.0
  0
CIRCLE
  5
379
330
1F
100
AcDbEntity
  8
1-7_金物
  6
Continuous
 62
     7
370
     9
100
AcDbCircle
 10
4541.796491818151
 20
-2950.527804568972
 30
0.0
 40
12.0
  0
CIRCLE
  5
37A
330
1F
100
AcDbEntity
  8
1-7_金物
  6
Continuous
 62
     7
370
     9
100
AcDbCircle
 10
4541.796491818151
 20
2170.472195431032
 30
0.0
 40
12.0
  0
CIRCLE
  5
37B
330
1F
100
AcDbEntity
  8
1-7_金物
  6
Continuous
 62
     7
370
     9
100
AcDbCircle
 10
4541.796491818151
 20
-1330.527804568973
 30
0.0
 40
12.0
  0
CIRCLE
  5
37C
330
1F
100
AcDbEntity
  8
1-7_金物
  6
Continuous
 62
     7
370
     9
100
AcDbCircle
 10
4820.796820913118
 20
550.4721954310269
 30
0.0
 40
22.5
  0
CIRCLE
  5
37D
330
1F
100
AcDbEntity
  8
1-7_金物
  6
Continuous
 62
     7
370
     9
100
AcDbCircle
 10
4820.796820913118
 20
550.4721954310269
 30
0.0
 40
12.0
  0
CIRCLE
  5
37E
330
1F
100
AcDbEntity
  8
1-7_金物
  6
Continuous
 62
     7
370
     9
100
AcDbCircle
 10
4820.796820913118
 20
-2950.527804568972
 30
0.0
 40
22.5
  0
CIRCLE
  5
37F
330
1F
100
AcDbEntity
  8
1-7_金物
  6
Continuous
 62
     7
370
     9
100
AcDbCircle
 10
4820.796820913118
 20
-2950.527804568972
 30
0.0
 40
12.0
  0
CIRCLE
  5
380
330
1F
100
AcDbEntity
  8
1-7_金物
  6
Continuous
 62
     7
370
     9
100
AcDbCircle
 10
4820.796820913118
 20
2170.472195431032
 30
0.0
 40
22.5
  0
CIRCLE
  5
381
330
1F
100
AcDbEntity
  8
1-7_金物
  6
Continuous
 62
     7
370
     9
100
AcDbCircle
 10
4820.796820913118
 20
2170.472195431032
 30
0.0
 40
12.0
  0
LINE
  5
382
330
1F
100
AcDbEntity
  8
1-1_通り芯
  6
JWW_CENTER1
 62
   120
370
     5
100
AcDbLine
 10
4820.796820913114
 20
3068.239724369729
 30
0.0
 11
4820.796820913114
 21
3217.21676184742
 31
0.0
  0
LINE
  5
383
330
1F
100
AcDbEntity
  8
1-1_通り芯
  6
JWW_CENTER1
 62
   120
370
     5
100
AcDbLine
 10
4541.796491818151
 20
3068.239724369729
 30
0.0
 11
4541.796491818151
 21
3217.21676184742
 31
0.0
  0
ARC
  5
384
330
1F
100
AcDbEntity
  8
1-7_金物
  6
Continuous
 62
     7
370
     9
100
AcDbCircle
 10
4541.550341416754
 20
3186.279164482637
 30
0.0
 40
94.083703994751
100
AcDbArc
 50
256.3349914550782
 51
284.0075988769531
  0
LINE
  5
385
330
1F
100
AcDbEntity
  8
1-7_金物
  6
Continuous
 62
     7
370
     9
100
AcDbLine
 10
4843.323725856942
 20
3103.993161846683
 30
0.0
 11
4843.296822227641
 21
3112.993121965586
 31
0.0
  0
LINE
  5
386
330
1F
100
AcDbEntity
  8
1-7_金物
  6
Continuous
 62
     7
370
     9
100
AcDbLine
 10
4828.295066295174
 20
3113.557918651474
 30
0.0
 11
4828.927124373311
 21
3112.925860573336
 31
0.0
  0
ARC
  5
387
330
1F
100
AcDbEntity
  8
1-7_金物
  6
Continuous
 62
     7
370
     9
100
AcDbCircle
 10
4820.550734691426
 20
3195.279164482637
 30
0.0
 40
94.083703994751
100
AcDbArc
 50
256.3349914550782
 51
284.0075988769531
  0
LINE
  5
388
330
1F
100
AcDbEntity
  8
1-7_金物
  6
Continuous
 62
     7
370
     9
100
AcDbLine
 10
4828.296888746421
 20
3112.948281036953
 30
0.0
 11
4828.252047933736
 21
3127.948213745639
 31
0.0
  0
LINE
  5
389
330
1F
100
AcDbEntity
  8
1-7_金物
  6
Continuous
 62
     7
370
     9
100
AcDbLine
 10
4813.252115167781
 20
3127.903372932955
 30
0.0
 11
4828.252047933736
 21
3127.948213745639
 31
0.0
  0
LINE
  5
38A
330
1F
100
AcDbEntity
  8
1-7_金物
  6
Continuous
 62
     7
370
     9
100
AcDbLine
 10
4813.296955980461
 20
3112.903440109717
 30
0.0
 11
4813.252115167781
 21
3127.903372932955
 31
0.0
  0
LINE
  5
38B
330
1F
100
AcDbEntity
  8
1-7_金物
  6
Continuous
 62
     7
370
     9
100
AcDbLine
 10
4798.297022499248
 20
3112.858599181085
 30
0.0
 11
4843.296822227641
 21
3112.993121965586
 31
0.0
  0
LINE
  5
38C
330
1F
100
AcDbEntity
  8
1-7_金物
  6
Continuous
 62
     7
370
     9
100
AcDbLine
 10
4798.323927559057
 20
3103.858639408631
 30
0.0
 11
4798.297022499248
 21
3112.858599181085
 31
0.0
  0
LINE
  5
38D
330
1F
100
AcDbEntity
  8
1-C_ハッチ
  6
Continuous
 62
   120
370
     5
100
AcDbLine
 10
4451.592779560968
 20
3094.925860573335
 30
0.0
 11
4417.296491818153
 21
3129.222148316152
 31
0.0
  0
LINE
  5
38E
330
1F
100
AcDbEntity
  8
1-C_ハッチ
  6
Continuous
 62
   120
370
     5
100
AcDbLine
 10
4417.296491818153
 20
3150.435040590751
 30
0.0
 11
4472.805671835564
 21
3094.925860573335
 31
0.0
  0
LINE
  5
38F
330
1F
100
AcDbEntity
  8
1-C_ハッチ
  6
Continuous
 62
   120
370
     5
100
AcDbLine
 10
4417.296491818153
 20
3171.647932865353
 30
0.0
 11
4494.018564110164
 21
3094.925860573335
 31
0.0
  0
LINE
  5
390
330
1F
100
AcDbEntity
  8
1-C_ハッチ
  6
Continuous
 62
   120
370
     5
100
AcDbLine
 10
4425.231530616713
 20
3184.925786341389
 30
0.0
 11
4515.231456384769
 21
3094.925860573335
 31
0.0
  0
LINE
  5
391
330
1F
100
AcDbEntity
  8
1-C_ハッチ
  6
Continuous
 62
   120
370
     5
100
AcDbLine
 10
4446.444422891314
 20
3184.925786341389
 30
0.0
 11
4536.444348659365
 21
3094.925860573335
 31
0.0
  0
LINE
  5
392
330
1F
100
AcDbEntity
  8
1-C_ハッチ
  6
Continuous
 62
   120
370
     5
100
AcDbLine
 10
4557.657240933964
 20
3094.925860573335
 30
0.0
 11
4467.657315165913
 21
3184.925786341389
 31
0.0
  0
LINE
  5
393
330
1F
100
AcDbEntity
  8
1-C_ハッチ
  6
Continuous
 62
   120
370
     5
100
AcDbLine
 10
4849.493087706031
 20
3184.925786341389
 30
0.0
 11
4927.296491818153
 21
3107.122382229269
 31
0.0
  0
LINE
  5
394
330
1F
100
AcDbEntity
  8
1-C_ハッチ
  6
Continuous
 62
   120
370
     5
100
AcDbLine
 10
4870.706351140363
 20
3184.925786341389
 30
0.0
 11
4927.296491818153
 21
3128.335645663601
 31
0.0
  0
LINE
  5
395
330
1F
100
AcDbEntity
  8
1-C_ハッチ
  6
Continuous
 62
   120
370
     5
100
AcDbLine
 10
4891.919614574696
 20
3184.925786341389
 30
0.0
 11
4927.296491818153
 21
3149.548909097934
 31
0.0
  0
LINE
  5
396
330
1F
100
AcDbEntity
  8
1-C_ハッチ
  6
Continuous
 62
   120
370
     5
100
AcDbLine
 10
4913.13287800903
 20
3184.925786341389
 30
0.0
 11
4927.296491818153
 21
3170.762172532267
 31
0.0
  0
LINE
  5
397
330
1F
100
AcDbEntity
  8
1-C_ハッチ
  6
Continuous
 62
   120
370
     5
100
AcDbLine
 10
4679.787722550838
 20
3184.925786341389
 30
0.0
 11
4759.296491818151
 21
3105.417017074074
 31
0.0
  0
LINE
  5
398
330
1F
100
AcDbEntity
  8
1-C_ハッチ
  6
Continuous
 62
   120
370
     5
100
AcDbLine
 10
4882.296491818153
 20
3109.695855360605
 30
0.0
 11
4897.066486605419
 21
3094.925860573335
 31
0.0
  0
LINE
  5
399
330
1F
100
AcDbEntity
  8
1-C_ハッチ
  6
Continuous
 62
   120
370
     5
100
AcDbLine
 10
4807.066560837365
 20
3184.925786341389
 30
0.0
 11
4879.066486605422
 21
3112.925860573336
 31
0.0
  0
LINE
  5
39A
330
1F
100
AcDbEntity
  8
1-C_ハッチ
  6
Continuous
 62
   120
370
     5
100
AcDbLine
 10
4488.870207440512
 20
3184.925786341389
 30
0.0
 11
4578.870133208563
 21
3094.925860573335
 31
0.0
  0
LINE
  5
39B
330
1F
100
AcDbEntity
  8
1-C_ハッチ
  6
Continuous
 62
   120
370
     5
100
AcDbLine
 10
4510.083099715113
 20
3184.925786341389
 30
0.0
 11
4600.083025483162
 21
3094.925860573335
 31
0.0
  0
LINE
  5
39C
330
1F
100
AcDbEntity
  8
1-C_ハッチ
  6
Continuous
 62
   120
370
     5
100
AcDbLine
 10
4531.295991989708
 20
3184.925786341389
 30
0.0
 11
4621.295917757763
 21
3094.925860573335
 31
0.0
  0
LINE
  5
39D
330
1F
100
AcDbEntity
  8
1-C_ハッチ
  6
Continuous
 62
   120
370
     5
100
AcDbLine
 10
4658.574830276237
 20
3184.925786341389
 30
0.0
 11
4748.57475604429
 21
3094.925860573335
 31
0.0
  0
LINE
  5
39E
330
1F
100
AcDbEntity
  8
1-C_ハッチ
  6
Continuous
 62
   120
370
     5
100
AcDbLine
 10
4743.427141694099
 20
3184.925786341389
 30
0.0
 11
4815.427067462153
 21
3112.925860573336
 31
0.0
  0
LINE
  5
39F
330
1F
100
AcDbEntity
  8
1-C_ハッチ
  6
Continuous
 62
   120
370
     5
100
AcDbLine
 10
4552.508884264308
 20
3184.925786341389
 30
0.0
 11
4642.508810032361
 21
3094.925860573335
 31
0.0
  0
LINE
  5
3A0
330
1F
100
AcDbEntity
  8
1-C_ハッチ
  6
Continuous
 62
   120
370
     5
100
AcDbLine
 10
4573.72214769864
 20
3184.925786341389
 30
0.0
 11
4663.722073466694
 21
3094.925860573335
 31
0.0
  0
LINE
  5
3A1
330
1F
100
AcDbEntity
  8
1-C_ハッチ
  6
Continuous
 62
   120
370
     5
100
AcDbLine
 10
4594.935411132976
 20
3184.925786341389
 30
0.0
 11
4684.935336901024
 21
3094.925860573335
 31
0.0
  0
LINE
  5
3A2
330
1F
100
AcDbEntity
  8
1-C_ハッチ
  6
Continuous
 62
   120
370
     5
100
AcDbLine
 10
4785.853668562764
 20
3184.925786341389
 30
0.0
 11
4857.85359433082
 21
3112.925860573336
 31
0.0
  0
LINE
  5
3A3
330
1F
100
AcDbEntity
  8
1-C_ハッチ
  6
Continuous
 62
   120
370
     5
100
AcDbLine
 10
4701.000985985167
 20
3184.925786341389
 30
0.0
 11
4773.000911753222
 21
3112.925860573336
 31
0.0
  0
LINE
  5
3A4
330
1F
100
AcDbEntity
  8
1-C_ハッチ
  6
Continuous
 62
   120
370
     5
100
AcDbLine
 10
4722.2142494195
 20
3184.925786341389
 30
0.0
 11
4794.214175187554
 21
3112.925860573336
 31
0.0
  0
LINE
  5
3A5
330
1F
100
AcDbEntity
  8
1-C_ハッチ
  6
Continuous
 62
   120
370
     5
100
AcDbLine
 10
4764.640405128432
 20
3184.925786341389
 30
0.0
 11
4836.640330896485
 21
3112.925860573336
 31
0.0
  0
LINE
  5
3A6
330
1F
100
AcDbEntity
  8
1-C_ハッチ
  6
Continuous
 62
   120
370
     5
100
AcDbLine
 10
4828.279824271695
 20
3184.925786341389
 30
0.0
 11
4918.279750039748
 21
3094.925860573335
 31
0.0
  0
LINE
  5
3A7
330
1F
100
AcDbEntity
  8
1-C_ハッチ
  6
Continuous
 62
   120
370
     5
100
AcDbLine
 10
4637.361566841907
 20
3184.925786341389
 30
0.0
 11
4727.361492609954
 21
3094.925860573335
 31
0.0
  0
LINE
  5
3A8
330
1F
100
AcDbEntity
  8
1-C_ハッチ
  6
Continuous
 62
   120
370
     5
100
AcDbLine
 10
4616.148303407571
 20
3184.925786341389
 30
0.0
 11
4706.148229175626
 21
3094.925860573335
 31
0.0
  0
LINE
  5
3A9
330
1F
100
AcDbEntity
  8
1-4_枠
  6
Continuous
 62
    92
370
    13
100
AcDbLine
 10
4927.296491818153
 20
3184.925786341389
 30
0.0
 11
4417.296491818153
 21
3184.925786341389
 31
0.0
  0
LINE
  5
3AA
330
1F
100
AcDbEntity
  8
1-4_枠
  6
Continuous
 62
    92
370
    13
100
AcDbLine
 10
4425.781773192391
 20
3094.925860573335
 30
0.0
 11
4759.296491818151
 21
3094.925860573335
 31
0.0
  0
LINE
  5
3AB
330
1F
100
AcDbEntity
  8
1-4_枠
  6
Continuous
 62
    92
370
    13
100
AcDbLine
 10
4918.811210443916
 20
3094.925860573335
 30
0.0
 11
4882.296491818153
 21
3094.925860573335
 31
0.0
  0
LINE
  5
3AC
330
1F
100
AcDbEntity
  8
1-4_枠
  6
Continuous
 62
    92
370
    13
100
AcDbLine
 10
4927.296491818153
 20
3103.411141947572
 30
0.0
 11
4918.811210443916
 21
3094.925860573335
 31
0.0
  0
LINE
  5
3AD
330
1F
100
AcDbEntity
  8
1-4_枠
  6
Continuous
 62
    92
370
    13
100
AcDbLine
 10
4927.296491818153
 20
3103.411141947572
 30
0.0
 11
4927.296491818153
 21
3184.925786341389
 31
0.0
  0
LINE
  5
3AE
330
1F
100
AcDbEntity
  8
1-4_枠
  6
Continuous
 62
    92
370
    13
100
AcDbLine
 10
4425.781773192391
 20
3094.925860573335
 30
0.0
 11
4417.296491818153
 21
3103.411141947572
 31
0.0
  0
LINE
  5
3AF
330
1F
100
AcDbEntity
  8
1-4_枠
  6
Continuous
 62
    92
370
    13
100
AcDbLine
 10
4417.296491818153
 20
3103.411141947572
 30
0.0
 11
4417.296491818153
 21
3184.925786341389
 31
0.0
  0
LINE
  5
3B0
330
1F
100
AcDbEntity
  8
1-4_枠
  6
Continuous
 62
    92
370
    13
100
AcDbLine
 10
4882.296491818153
 20
3094.925860573335
 30
0.0
 11
4882.296491818153
 21
3112.925860573336
 31
0.0
  0
LINE
  5
3B1
330
1F
100
AcDbEntity
  8
1-4_枠
  6
Continuous
 62
    92
370
    13
100
AcDbLine
 10
4759.296491818151
 20
3112.925860573336
 30
0.0
 11
4882.296491818153
 21
3112.925860573336
 31
0.0
  0
LINE
  5
3B2
330
1F
100
AcDbEntity
  8
1-4_枠
  6
Continuous
 62
    92
370
    13
100
AcDbLine
 10
4759.296491818151
 20
3094.925860573335
 30
0.0
 11
4759.296491818151
 21
3112.925860573336
 31
0.0
  0
LINE
  5
3B3
330
1F
100
AcDbEntity
  8
1-4_枠
  6
JWW_DASHED1
 62
   120
370
     5
100
AcDbLine
 10
4715.796491818153
 20
2420.972195431031
 30
0.0
 11
4417.296491818153
 21
2420.972195431031
 31
0.0
  0
LINE
  5
3B4
330
1F
100
AcDbEntity
  8
1-4_枠
  6
JWW_DASHED1
 62
   120
370
     5
100
AcDbLine
 10
4715.796491818153
 20
2420.972195431031
 30
0.0
 11
4715.796491818153
 21
2680.472195431032
 31
0.0
  0
LINE
  5
3B5
330
1F
100
AcDbEntity
  8
1-4_枠
  6
Continuous
 62
    92
370
    13
100
AcDbLine
 10
4927.296491818153
 20
2680.472195431032
 30
0.0
 11
4927.296491818153
 21
-3460.527804568972
 31
0.0
  0
LINE
  5
3B6
330
1F
100
AcDbEntity
  8
1-4_枠
  6
Continuous
 62
    92
370
    13
100
AcDbLine
 10
4670.796491818153
 20
2680.472195431032
 30
0.0
 11
4927.296491818153
 21
2680.472195431032
 31
0.0
  0
LINE
  5
3B7
330
1F
100
AcDbEntity
  8
1-4_枠
  6
Continuous
 62
    92
370
    13
100
AcDbLine
 10
4882.296491818153
 20
2680.472195431032
 30
0.0
 11
4882.296491818153
 21
-3460.527804568972
 31
0.0
  0
LINE
  5
3B8
330
1F
100
AcDbEntity
  8
1-4_枠
  6
Continuous
 62
    92
370
    13
100
AcDbLine
 10
4759.296491818151
 20
2680.472195431032
 30
0.0
 11
4759.296491818151
 21
-3460.527804568972
 31
0.0
  0
LINE
  5
3B9
330
1F
100
AcDbEntity
  8
1-4_枠
  6
Continuous
 62
    92
370
    13
100
AcDbLine
 10
4670.796491818153
 20
2465.972195431031
 30
0.0
 11
4670.796491818153
 21
2680.472195431032
 31
0.0
  0
LINE
  5
3BA
330
1F
100
AcDbEntity
  8
1-4_枠
  6
Continuous
 62
    92
370
    13
100
AcDbLine
 10
4670.796491818153
 20
2465.972195431031
 30
0.0
 11
4417.296491818153
 21
2465.972195431031
 31
0.0
  0
LINE
  5
3BB
330
1F
100
AcDbEntity
  8
1-4_枠
  6
Continuous
 62
    92
370
    13
100
AcDbLine
 10
4417.296491818153
 20
2465.972195431031
 30
0.0
 11
4417.296491818153
 21
-3460.527804568972
 31
0.0
  0
LINE
  5
3BC
330
1F
100
AcDbEntity
  8
1-4_枠
  6
Continuous
 62
    92
370
    13
100
AcDbLine
 10
4927.296491818153
 20
-3460.527804568972
 30
0.0
 11
4417.296491818153
 21
-3460.527804568972
 31
0.0
  0
MTEXT
  5
3BD
330
1F
100
AcDbEntity
  8
1-B_寸法
  6
Continuous
 62
     7
370
   211
100
AcDbMText
 10
4597.296491818153
 20
2943.958045232783
 30
0.0
 40
76.19999999999999
 41
150.0
 46
0.0
 71
     7
 72
     1
  1
{\fＭＳ ゴシック|b0|i0|c128|p49;170}
 73
     1
 44
1.0
  0
LINE
  5
3BE
330
1F
100
AcDbEntity
  8
1-B_寸法
  6
Continuous
 62
   120
370
     5
100
AcDbLine
 10
4303.705252095457
 20
2680.472195431032
 30
0.0
 11
4303.705252095457
 21
2465.972195431031
 31
0.0
  0
LINE
  5
3BF
330
1F
100
AcDbEntity
  8
1-B_寸法
  6
Continuous
 62
   120
370
     5
100
AcDbLine
 10
4303.705252095457
 20
2465.972195431031
 30
0.0
 11
4364.165154046488
 21
2465.972195431031
 31
0.0
  0
MTEXT
  5
3C0
330
1F
100
AcDbEntity
  8
1-B_寸法
  6
Continuous
 62
     7
370
   211
100
AcDbMText
 10
4442.796491818152
 20
2817.134604239292
 30
0.0
 40
77.15249999999999
 41
202.5
 46
0.0
 71
     7
 72
     1
  1
{\fＭＳ ゴシック|b0|i0|c128|p49;84.5}
 73
     1
 44
1.0
  0
LINE
  5
3C1
330
1F
100
AcDbEntity
  8
1-B_寸法
  6
Continuous
 62
   120
370
     5
100
AcDbLine
 10
4927.296491818153
 20
-3631.982666521312
 30
0.0
 11
4927.296491818153
 21
-3521.638944252776
 31
0.0
  0
LINE
  5
3C2
330
1F
100
AcDbEntity
  8
1-B_寸法
  6
Continuous
 62
   120
370
     5
100
AcDbLine
 10
4882.296491818153
 20
-3631.982666521312
 30
0.0
 11
4927.296491818153
 21
-3631.982666521312
 31
0.0
  0
MTEXT
  5
3C3
330
1F
100
AcDbEntity
  8
1-B_寸法
  6
Continuous
 62
     7
370
   211
100
AcDbMText
 10
4697.796491818152
 20
2817.134604239292
 30
0.0
 40
77.15249999999999
 41
202.5
 46
0.0
 71
     7
 72
     1
  1
{\fＭＳ ゴシック|b0|i0|c128|p49;85.5}
 73
     1
 44
1.0
  0
LINE
  5
3C4
330
1F
100
AcDbEntity
  8
1-B_寸法
  6
Continuous
 62
   120
370
     5
100
AcDbLine
 10
4882.296491818153
 20
-3631.982666521312
 30
0.0
 11
4882.296491818153
 21
-3521.638944252776
 31
0.0
  0
LINE
  5
3C5
330
1F
100
AcDbEntity
  8
1-B_寸法
  6
Continuous
 62
   120
370
     5
100
AcDbLine
 10
4759.296491818151
 20
-3631.982666521312
 30
0.0
 11
4882.296491818153
 21
-3631.982666521312
 31
0.0
  0
MTEXT
  5
3C6
330
1F
100
AcDbEntity
  8
1-B_寸法
  6
Continuous
 62
     7
370
   211
100
AcDbMText
 10
4288.705252095457
 20
2461.048445431032
 30
0.0
 40
77.15249999999999
 41
202.5
 46
0.0
 71
     7
 72
     1
  1
{\fＭＳ ゴシック|b0|i0|c128|p49;71.5}
 11
6.123031769111886E-17
 21
1.0
 31
0.0
 73
     1
 44
1.0
  0
LINE
  5
3C7
330
1F
100
AcDbEntity
  8
1-B_寸法
  6
Continuous
 62
   120
370
     5
100
AcDbLine
 10
4759.296491818151
 20
-3631.982666521312
 30
0.0
 11
4759.296491818151
 21
-3521.638944252776
 31
0.0
  0
LINE
  5
3C8
330
1F
100
AcDbEntity
  8
1-B_寸法
  6
Continuous
 62
   120
370
     5
100
AcDbLine
 10
4417.296491818153
 20
-3631.982666521312
 30
0.0
 11
4417.296491818153
 21
-3521.638944252776
 31
0.0
  0
LINE
  5
3C9
330
1F
100
AcDbEntity
  8
1-B_寸法
  6
Continuous
 62
   120
370
     5
100
AcDbLine
 10
4417.296491818153
 20
-3631.982666521312
 30
0.0
 11
4759.296491818151
 21
-3631.982666521312
 31
0.0
  0
MTEXT
  5
3CA
330
1F
100
AcDbEntity
  8
1-B_寸法
  6
Continuous
 62
     7
370
   211
100
AcDbMText
 10
5072.068563123158
 20
2334.572195431033
 30
0.0
 40
76.19999999999999
 41
150.0
 46
0.0
 71
     7
 72
     1
  1
{\fＭＳ ゴシック|b0|i0|c128|p49;170}
 11
6.123031769111886E-17
 21
1.0
 31
0.0
 73
     1
 44
1.0
  0
LINE
  5
3CB
330
1F
100
AcDbEntity
  8
1-B_寸法
  6
Continuous
 62
   120
370
     5
100
AcDbLine
 10
4417.296491818153
 20
2808.558354239291
 30
0.0
 11
4417.296491818153
 21
2562.967236230343
 31
0.0
  0
LINE
  5
3CC
330
1F
100
AcDbEntity
  8
1-B_寸法
  6
Continuous
 62
   120
370
     5
100
AcDbLine
 10
4670.796491818153
 20
2808.558354239291
 30
0.0
 11
4417.296491818153
 21
2808.558354239291
 31
0.0
  0
MTEXT
  5
3CD
330
1F
100
AcDbEntity
  8
1-B_寸法
  6
Continuous
 62
     7
370
   211
100
AcDbMText
 10
4632.546656365632
 20
1814.695229593163
 30
0.0
 40
74.295
 41
97.5
 46
0.0
 71
     7
 72
     1
  1
{\fＭＳ ゴシック|b0|i0|c128|p49;93}
 73
     1
 44
1.0
  0
LINE
  5
3CE
330
1F
100
AcDbEntity
  8
1-B_寸法
  6
Continuous
 62
   120
370
     5
100
AcDbLine
 10
4670.796491818153
 20
2808.558354239291
 30
0.0
 11
4670.796491818153
 21
2754.494106767546
 31
0.0
  0
LINE
  5
3CF
330
1F
100
AcDbEntity
  8
1-B_寸法
  6
Continuous
 62
   120
370
     5
100
AcDbLine
 10
4927.296491818153
 20
2808.558354239291
 30
0.0
 11
4927.296491818153
 21
2754.494106767546
 31
0.0
  0
LINE
  5
3D0
330
1F
100
AcDbEntity
  8
1-B_寸法
  6
Continuous
 62
   120
370
     5
100
AcDbLine
 10
4927.296491818153
 20
2808.558354239291
 30
0.0
 11
4670.796491818153
 21
2808.558354239291
 31
0.0
  0
MTEXT
  5
3D1
330
1F
100
AcDbEntity
  8
1-B_寸法
  6
Continuous
 62
     7
370
   211
100
AcDbMText
 10
4772.796656365635
 20
1691.492256874223
 30
0.0
 40
77.15249999999999
 41
202.5
 46
0.0
 71
     7
 72
     1
  1
{\fＭＳ ゴシック|b0|i0|c128|p49;35.5}
 73
     1
 44
1.0
  0
LINE
  5
3D2
330
1F
100
AcDbEntity
  8
1-B_寸法
  6
Continuous
 62
   120
370
     5
100
AcDbLine
 10
4417.296491818153
 20
2935.858045232783
 30
0.0
 11
4417.296491818153
 21
2808.558354239291
 31
0.0
  0
LINE
  5
3D3
330
1F
100
AcDbEntity
  8
1-B_寸法
  6
Continuous
 62
   120
370
     5
100
AcDbLine
 10
4927.296491818153
 20
2935.858045232783
 30
0.0
 11
4927.296491818153
 21
2808.558354239291
 31
0.0
  0
LINE
  5
3D4
330
1F
100
AcDbEntity
  8
1-B_寸法
  6
Continuous
 62
   120
370
     5
100
AcDbLine
 10
4927.296491818153
 20
2935.858045232783
 30
0.0
 11
4417.296491818153
 21
2935.858045232783
 31
0.0
  0
MTEXT
  5
3D5
330
1F
100
AcDbEntity
  8
1-B_寸法
  6
Continuous
 62
     7
370
   211
100
AcDbMText
 10
4423.29649181815
 20
1683.959647971899
 30
0.0
 40
77.15249999999999
 41
202.5
 46
0.0
 71
     7
 72
     1
  1
{\fＭＳ ゴシック|b0|i0|c128|p49;41.5}
 73
     1
 44
1.0
  0
LINE
  5
3D6
330
1F
100
AcDbEntity
  8
1-B_寸法
  6
Continuous
 62
   120
370
     5
100
AcDbLine
 10
4820.796820913118
 20
1807.547729593163
 30
0.0
 11
4820.796820913118
 21
1922.108409400623
 31
0.0
  0
LINE
  5
3D7
330
1F
100
AcDbEntity
  8
1-B_寸法
  6
Continuous
 62
   120
370
     5
100
AcDbLine
 10
4541.796491818151
 20
1807.547729593163
 30
0.0
 11
4541.796491818151
 21
1922.108409400623
 31
0.0
  0
LINE
  5
3D8
330
1F
100
AcDbEntity
  8
1-B_寸法
  6
Continuous
 62
   120
370
     5
100
AcDbLine
 10
4541.796491818151
 20
1807.547729593163
 30
0.0
 11
4820.796820913118
 21
1807.547729593163
 31
0.0
  0
MTEXT
  5
3D9
330
1F
100
AcDbEntity
  8
1-B_寸法
  6
Continuous
 62
     7
370
   211
100
AcDbMText
 10
5072.068563123158
 20
1312.680347633445
 30
0.0
 40
76.19999999999999
 41
150.0
 46
0.0
 71
     7
 72
     1
  1
{\fＭＳ ゴシック|b0|i0|c128|p49;540}
 11
6.123031769111886E-17
 21
1.0
 31
0.0
 73
     1
 44
1.0
  0
LINE
  5
3DA
330
1F
100
AcDbEntity
  8
1-B_寸法
  6
Continuous
 62
   120
370
     5
100
AcDbLine
 10
4927.296491818153
 20
1807.547729593163
 30
0.0
 11
4927.296491818153
 21
1922.108409400623
 31
0.0
  0
LINE
  5
3DB
330
1F
100
AcDbEntity
  8
1-B_寸法
  6
Continuous
 62
   120
370
     5
100
AcDbLine
 10
4820.796820913118
 20
1807.547729593163
 30
0.0
 11
4927.296491818153
 21
1807.547729593163
 31
0.0
  0
LINE
  5
3DC
330
1F
100
AcDbEntity
  8
1-B_寸法
  6
Continuous
 62
   120
370
     5
100
AcDbLine
 10
4417.296491818153
 20
1807.547729593163
 30
0.0
 11
4417.296491818153
 21
1922.108409400623
 31
0.0
  0
LINE
  5
3DD
330
1F
100
AcDbEntity
  8
1-B_寸法
  6
Continuous
 62
   120
370
     5
100
AcDbLine
 10
4417.296491818153
 20
1807.547729593163
 30
0.0
 11
4541.796491818151
 21
1807.547729593163
 31
0.0
  0
MTEXT
  5
3DE
330
1F
100
AcDbEntity
  8
1-B_寸法
  6
Continuous
 62
     7
370
   211
100
AcDbMText
 10
5072.068563123158
 20
-546.9278045689708
 30
0.0
 40
76.19999999999999
 41
150.0
 46
0.0
 71
     7
 72
     1
  1
{\fＭＳ ゴシック|b0|i0|c128|p49;627}
 11
6.123031769111886E-17
 21
1.0
 31
0.0
 73
     1
 44
1.0
  0
MTEXT
  5
3DF
330
1F
100
AcDbEntity
  8
1-B_寸法
  6
Continuous
 62
     7
370
   211
100
AcDbMText
 10
3984.618312609002
 20
-812.221987827628
 30
0.0
 40
79.24799999999996
 41
779.9999999999995
 46
0.0
 71
     7
 72
     1
  1
{\fＭＳ ゴシック|b0|i0|c128|p49;竪枠寸法：2,047}
 11
6.123031769111886E-17
 21
1.0
 31
0.0
 73
     1
 44
1.0
  0
LINE
  5
3E0
330
1F
100
AcDbEntity
  8
1-B_寸法
  6
Continuous
 62
   120
370
     5
100
AcDbLine
 10
5087.068563123158
 20
2170.472195431032
 30
0.0
 11
5087.068563123158
 21
550.4721954310269
 31
0.0
  0
LINE
  5
3E1
330
1F
100
AcDbEntity
  8
1-B_寸法
  6
Continuous
 62
   120
370
     5
100
AcDbLine
 10
5087.068563123158
 20
550.4721954310269
 30
0.0
 11
5087.068563123158
 21
-1330.527804568973
 31
0.0
  0
LINE
  5
3E2
330
1F
100
AcDbEntity
  8
1-B_寸法
  6
Continuous
 62
   120
370
     5
100
AcDbLine
 10
5087.068563123158
 20
550.4721954310269
 30
0.0
 11
4985.944087273998
 21
550.4721954310269
 31
0.0
  0
MTEXT
  5
3E3
330
1F
100
AcDbEntity
  8
1-B_寸法
  6
Continuous
 62
     7
370
   211
100
AcDbMText
 10
5072.068563123158
 20
-2226.285699725098
 30
0.0
 40
76.19999999999999
 41
150.0
 46
0.0
 71
     7
 72
     1
  1
{\fＭＳ ゴシック|b0|i0|c128|p49;540}
 11
6.123031769111886E-17
 21
1.0
 31
0.0
 73
     1
 44
1.0
  0
MTEXT
  5
3E4
330
1F
100
AcDbEntity
  8
1-B_寸法
  6
Continuous
 62
     7
370
   211
100
AcDbMText
 10
4145.392863503006
 20
-2323.462908665256
 30
0.0
 40
79.629
 41
1567.5
 46
0.0
 71
     7
 72
     1
  1
{\fＭＳ ゴシック|b0|i0|c128|p49;ｽﾄﾗｲｸｾﾝﾀｰ(鍵加工上部時)：1,264}
 11
6.123031769111886E-17
 21
1.0
 31
0.0
 73
     1
 44
1.0
  0
LINE
  5
3E5
330
1F
100
AcDbEntity
  8
1-B_寸法
  6
Continuous
 62
   120
370
     5
100
AcDbLine
 10
5087.068563123158
 20
-1330.527804568973
 30
0.0
 11
5087.068563123158
 21
-2950.527804568972
 31
0.0
  0
LINE
  5
3E6
330
1F
100
AcDbEntity
  8
1-B_寸法
  6
Continuous
 62
   120
370
     5
100
AcDbLine
 10
5087.068563123158
 20
-2950.527804568972
 30
0.0
 11
5087.068563123158
 21
-3460.527804568972
 31
0.0
  0
LINE
  5
3E7
330
1F
100
AcDbEntity
  8
1-B_寸法
  6
Continuous
 62
   120
370
     5
100
AcDbLine
 10
5087.068563123158
 20
-2950.527804568972
 30
0.0
 11
4985.944087273998
 21
-2950.527804568972
 31
0.0
  0
MTEXT
  5
3E8
330
1F
100
AcDbEntity
  8
1-B_寸法
  6
Continuous
 62
     7
370
   211
100
AcDbMText
 10
4297.612850890898
 20
-3260.976515808114
 30
0.0
 40
79.60178571428573
 41
1462.5
 46
0.0
 71
     7
 72
     1
  1
{\fＭＳ ゴシック|b0|i0|c128|p49;ｽﾄﾗｲｸｾﾝﾀｰ(鍵加工下部時)：604}
 11
6.123031769111886E-17
 21
1.0
 31
0.0
 73
     1
 44
1.0
  0
LINE
  5
3E9
330
1F
100
AcDbEntity
  8
1-B_寸法
  6
Continuous
 62
   120
370
     5
100
AcDbLine
 10
5087.068563123158
 20
2680.472195431032
 30
0.0
 11
5087.068563123158
 21
2170.472195431032
 31
0.0
  0
LINE
  5
3EA
330
1F
100
AcDbEntity
  8
1-B_寸法
  6
Continuous
 62
   120
370
     5
100
AcDbLine
 10
5087.068563123158
 20
2680.472195431032
 30
0.0
 11
4985.944087273998
 21
2680.472195431032
 31
0.0
  0
LINE
  5
3EB
330
1F
100
AcDbEntity
  8
1-B_寸法
  6
Continuous
 62
   120
370
     5
100
AcDbLine
 10
5087.068563123158
 20
-1330.527804568973
 30
0.0
 11
4985.944087273998
 21
-1330.527804568973
 31
0.0
  0
LINE
  5
3EC
330
1F
100
AcDbEntity
  8
1-B_寸法
  6
Continuous
 62
   120
370
     5
100
AcDbLine
 10
5087.068563123158
 20
2170.472195431032
 30
0.0
 11
4985.944087273998
 21
2170.472195431032
 31
0.0
  0
MTEXT
  5
3ED
330
1F
100
AcDbEntity
  8
1-B_寸法
  6
Continuous
 62
     7
370
   211
100
AcDbMText
 10
5072.068563123158
 20
-3274.233667758649
 30
0.0
 40
76.19999999999999
 41
150.0
 46
0.0
 71
     7
 72
     1
  1
{\fＭＳ ゴシック|b0|i0|c128|p49;170}
 11
6.123031769111886E-17
 21
1.0
 31
0.0
 73
     1
 44
1.0
  0
LINE
  5
3EE
330
1F
100
AcDbEntity
  8
1-B_寸法
  6
Continuous
 62
   120
370
     5
100
AcDbLine
 10
5087.068563123158
 20
-3460.527804568972
 30
0.0
 11
4985.944087273998
 21
-3460.527804568972
 31
0.0
  0
LWPOLYLINE
  5
3EF
330
1F
100
AcDbEntity
  8
1-B_寸法
  6
Continuous
 62
     7
370
     9
100
AcDbPolyline
 90
        4
 70
     1
 43
3.0
 10
4305.205252095458
 20
2680.472195431032
 42
0.4142135623731
 10
4303.705252095457
 20
2681.972195431032
 42
0.4142135623731
 10
4302.205252095457
 20
2680.472195431032
 42
0.4142135623731
 10
4303.705252095457
 20
2678.972195431032
 42
0.4142135623731
  0
LWPOLYLINE
  5
3F0
330
1F
100
AcDbEntity
  8
1-B_寸法
  6
Continuous
 62
     7
370
     9
100
AcDbPolyline
 90
        4
 70
     1
 43
3.0
 10
4305.205252095458
 20
2465.972195431031
 42
0.4142135623731
 10
4303.705252095457
 20
2467.47219543103
 42
0.4142135623731
 10
4302.205252095457
 20
2465.972195431031
 42
0.4142135623731
 10
4303.705252095457
 20
2464.472195431031
 42
0.4142135623731
  0
LWPOLYLINE
  5
3F1
330
1F
100
AcDbEntity
  8
1-B_寸法
  6
Continuous
 62
     7
370
     9
100
AcDbPolyline
 90
        4
 70
     1
 43
3.0
 10
4305.558287384784
 20
-3460.527804568972
 42
0.4142135623731
 10
4304.058287384784
 20
-3459.027804568972
 42
0.4142135623731
 10
4302.558287384783
 20
-3460.527804568972
 42
0.4142135623731
 10
4304.058287384784
 20
-3462.027804568972
 42
0.4142135623731
  0
LWPOLYLINE
  5
3F2
330
1F
100
AcDbEntity
  8
1-B_寸法
  6
Continuous
 62
     7
370
     9
100
AcDbPolyline
 90
        4
 70
     1
 43
3.0
 10
4928.796491818153
 20
-3631.982666521312
 42
0.4142135623731
 10
4927.296491818153
 20
-3630.482666521312
 42
0.4142135623731
 10
4925.796491818153
 20
-3631.982666521312
 42
0.4142135623731
 10
4927.296491818153
 20
-3633.482666521312
 42
0.4142135623731
  0
LWPOLYLINE
  5
3F3
330
1F
100
AcDbEntity
  8
1-B_寸法
  6
Continuous
 62
     7
370
     9
100
AcDbPolyline
 90
        4
 70
     1
 43
3.0
 10
4883.796491818153
 20
-3631.982666521312
 42
0.4142135623731
 10
4882.296491818153
 20
-3630.482666521312
 42
0.4142135623731
 10
4880.796491818153
 20
-3631.982666521312
 42
0.4142135623731
 10
4882.296491818153
 20
-3633.482666521312
 42
0.4142135623731
  0
LWPOLYLINE
  5
3F4
330
1F
100
AcDbEntity
  8
1-B_寸法
  6
Continuous
 62
     7
370
     9
100
AcDbPolyline
 90
        4
 70
     1
 43
3.0
 10
4760.796491818151
 20
-3631.982666521312
 42
0.4142135623731
 10
4759.296491818151
 20
-3630.482666521312
 42
0.4142135623731
 10
4757.796491818151
 20
-3631.982666521312
 42
0.4142135623731
 10
4759.296491818151
 20
-3633.482666521312
 42
0.4142135623731
  0
LWPOLYLINE
  5
3F5
330
1F
100
AcDbEntity
  8
1-B_寸法
  6
Continuous
 62
     7
370
     9
100
AcDbPolyline
 90
        4
 70
     1
 43
3.0
 10
4418.796491818153
 20
-3631.982666521312
 42
0.4142135623731
 10
4417.296491818153
 20
-3630.482666521312
 42
0.4142135623731
 10
4415.796491818153
 20
-3631.982666521312
 42
0.4142135623731
 10
4417.296491818153
 20
-3633.482666521312
 42
0.4142135623731
  0
LWPOLYLINE
  5
3F6
330
1F
100
AcDbEntity
  8
1-B_寸法
  6
Continuous
 62
     7
370
     9
100
AcDbPolyline
 90
        4
 70
     1
 43
3.0
 10
4418.796491818153
 20
2808.558354239291
 42
0.4142135623731
 10
4417.296491818153
 20
2810.058354239291
 42
0.4142135623731
 10
4415.796491818153
 20
2808.558354239291
 42
0.4142135623731
 10
4417.296491818153
 20
2807.058354239291
 42
0.4142135623731
  0
LWPOLYLINE
  5
3F7
330
1F
100
AcDbEntity
  8
1-B_寸法
  6
Continuous
 62
     7
370
     9
100
AcDbPolyline
 90
        4
 70
     1
 43
3.0
 10
4672.296491818153
 20
2808.558354239291
 42
0.4142135623731
 10
4670.796491818153
 20
2810.058354239291
 42
0.4142135623731
 10
4669.296491818152
 20
2808.558354239291
 42
0.4142135623731
 10
4670.796491818153
 20
2807.058354239291
 42
0.4142135623731
  0
LWPOLYLINE
  5
3F8
330
1F
100
AcDbEntity
  8
1-B_寸法
  6
Continuous
 62
     7
370
     9
100
AcDbPolyline
 90
        4
 70
     1
 43
3.0
 10
4928.796491818153
 20
2808.558354239291
 42
0.4142135623731
 10
4927.296491818153
 20
2810.058354239291
 42
0.4142135623731
 10
4925.796491818153
 20
2808.558354239291
 42
0.4142135623731
 10
4927.296491818153
 20
2807.058354239291
 42
0.4142135623731
  0
LWPOLYLINE
  5
3F9
330
1F
100
AcDbEntity
  8
1-B_寸法
  6
Continuous
 62
     7
370
     9
100
AcDbPolyline
 90
        4
 70
     1
 43
3.0
 10
4418.796491818153
 20
2935.858045232783
 42
0.4142135623731
 10
4417.296491818153
 20
2937.358045232783
 42
0.4142135623731
 10
4415.796491818153
 20
2935.858045232783
 42
0.4142135623731
 10
4417.296491818153
 20
2934.358045232783
 42
0.4142135623731
  0
LWPOLYLINE
  5
3FA
330
1F
100
AcDbEntity
  8
1-B_寸法
  6
Continuous
 62
     7
370
     9
100
AcDbPolyline
 90
        4
 70
     1
 43
3.0
 10
4928.796491818153
 20
2935.858045232783
 42
0.4142135623731
 10
4927.296491818153
 20
2937.358045232783
 42
0.4142135623731
 10
4925.796491818153
 20
2935.858045232783
 42
0.4142135623731
 10
4927.296491818153
 20
2934.358045232783
 42
0.4142135623731
  0
LWPOLYLINE
  5
3FB
330
1F
100
AcDbEntity
  8
1-B_寸法
  6
Continuous
 62
     7
370
     9
100
AcDbPolyline
 90
        4
 70
     1
 43
3.0
 10
4822.296820913118
 20
1807.547729593163
 42
0.4142135623731
 10
4820.796820913118
 20
1809.047729593163
 42
0.4142135623731
 10
4819.296820913117
 20
1807.547729593163
 42
0.4142135623731
 10
4820.796820913118
 20
1806.047729593163
 42
0.4142135623731
  0
LWPOLYLINE
  5
3FC
330
1F
100
AcDbEntity
  8
1-B_寸法
  6
Continuous
 62
     7
370
     9
100
AcDbPolyline
 90
        4
 70
     1
 43
3.0
 10
4543.296491818151
 20
1807.547729593163
 42
0.4142135623731
 10
4541.796491818151
 20
1809.047729593163
 42
0.4142135623731
 10
4540.296491818151
 20
1807.547729593163
 42
0.4142135623731
 10
4541.796491818151
 20
1806.047729593163
 42
0.4142135623731
  0
LWPOLYLINE
  5
3FD
330
1F
100
AcDbEntity
  8
1-B_寸法
  6
Continuous
 62
     7
370
     9
100
AcDbPolyline
 90
        4
 70
     1
 43
3.0
 10
4928.796491818153
 20
1807.547729593163
 42
0.4142135623731
 10
4927.296491818153
 20
1809.047729593163
 42
0.4142135623731
 10
4925.796491818153
 20
1807.547729593163
 42
0.4142135623731
 10
4927.296491818153
 20
1806.047729593163
 42
0.4142135623731
  0
LWPOLYLINE
  5
3FE
330
1F
100
AcDbEntity
  8
1-B_寸法
  6
Continuous
 62
     7
370
     9
100
AcDbPolyline
 90
        4
 70
     1
 43
3.0
 10
4418.796491818153
 20
1807.547729593163
 42
0.4142135623731
 10
4417.296491818153
 20
1809.047729593163
 42
0.4142135623731
 10
4415.796491818153
 20
1807.547729593163
 42
0.4142135623731
 10
4417.296491818153
 20
1806.047729593163
 42
0.4142135623731
  0
LWPOLYLINE
  5
3FF
330
1F
100
AcDbEntity
  8
1-B_寸法
  6
Continuous
 62
     7
370
     9
100
AcDbPolyline
 90
        4
 70
     1
 43
3.0
 10
5088.568563123159
 20
550.4721954310269
 42
0.4142135623731
 10
5087.068563123158
 20
551.9721954310269
 42
0.4142135623731
 10
5085.568563123158
 20
550.4721954310269
 42
0.4142135623731
 10
5087.068563123158
 20
548.9721954310269
 42
0.4142135623731
  0
LWPOLYLINE
  5
400
330
1F
100
AcDbEntity
  8
1-B_寸法
  6
Continuous
 62
     7
370
     9
100
AcDbPolyline
 90
        4
 70
     1
 43
3.0
 10
5088.568563123159
 20
-2950.527804568972
 42
0.4142135623731
 10
5087.068563123158
 20
-2949.027804568972
 42
0.4142135623731
 10
5085.568563123158
 20
-2950.527804568972
 42
0.4142135623731
 10
5087.068563123158
 20
-2952.027804568972
 42
0.4142135623731
  0
LWPOLYLINE
  5
401
330
1F
100
AcDbEntity
  8
1-B_寸法
  6
Continuous
 62
     7
370
     9
100
AcDbPolyline
 90
        4
 70
     1
 43
3.0
 10
5088.568563123159
 20
2680.472195431032
 42
0.4142135623731
 10
5087.068563123158
 20
2681.972195431032
 42
0.4142135623731
 10
5085.568563123158
 20
2680.472195431032
 42
0.4142135623731
 10
5087.068563123158
 20
2678.972195431032
 42
0.4142135623731
  0
LWPOLYLINE
  5
402
330
1F
100
AcDbEntity
  8
1-B_寸法
  6
Continuous
 62
     7
370
     9
100
AcDbPolyline
 90
        4
 70
     1
 43
3.0
 10
5088.568563123159
 20
-1330.527804568973
 42
0.4142135623731
 10
5087.068563123158
 20
-1329.027804568973
 42
0.4142135623731
 10
5085.568563123158
 20
-1330.527804568973
 42
0.4142135623731
 10
5087.068563123158
 20
-1332.027804568973
 42
0.4142135623731
  0
LWPOLYLINE
  5
403
330
1F
100
AcDbEntity
  8
1-B_寸法
  6
Continuous
 62
     7
370
     9
100
AcDbPolyline
 90
        4
 70
     1
 43
3.0
 10
5088.568563123159
 20
2170.472195431032
 42
0.4142135623731
 10
5087.068563123158
 20
2171.972195431032
 42
0.4142135623731
 10
5085.568563123158
 20
2170.472195431032
 42
0.4142135623731
 10
5087.068563123158
 20
2168.972195431032
 42
0.4142135623731
  0
LWPOLYLINE
  5
404
330
1F
100
AcDbEntity
  8
1-B_寸法
  6
Continuous
 62
     7
370
     9
100
AcDbPolyline
 90
        4
 70
     1
 43
3.0
 10
5088.568563123159
 20
-3460.527804568972
 42
0.4142135623731
 10
5087.068563123158
 20
-3459.027804568972
 42
0.4142135623731
 10
5085.568563123158
 20
-3460.527804568972
 42
0.4142135623731
 10
5087.068563123158
 20
-3462.027804568972
 42
0.4142135623731
  0
MTEXT
  5
405
330
1F
100
AcDbEntity
  8
1-B_寸法
  6
Continuous
 62
     7
370
   211
100
AcDbMText
 10
4513.29649181815
 20
-3623.882666521312
 30
0.0
 40
76.19999999999999
 41
150.0
 46
0.0
 71
     7
 72
     1
  1
{\fＭＳ ゴシック|b0|i0|c128|p49;114}
 73
     1
 44
1.0
  0
LINE
  5
406
330
1F
100
AcDbEntity
  8
1-B_寸法
  6
Continuous
 62
   120
370
     5
100
AcDbLine
 10
3999.618312608998
 20
2680.472195431032
 30
0.0
 11
4597.185396684366
 21
2680.472195431032
 31
0.0
  0
LINE
  5
407
330
1F
100
AcDbEntity
  8
1-B_寸法
  6
Continuous
 62
   120
370
     5
100
AcDbLine
 10
3999.618312608998
 20
2680.472195431032
 30
0.0
 11
3999.618312608998
 21
-3460.527804568972
 31
0.0
  0
MTEXT
  5
408
330
1F
100
AcDbEntity
  8
1-B_寸法
  6
Continuous
 62
     7
370
   211
100
AcDbMText
 10
4772.04649181815
 20
-3624.835166521312
 30
0.0
 40
74.295
 41
97.5
 46
0.0
 71
     7
 72
     1
  1
{\fＭＳ ゴシック|b0|i0|c128|p49;41}
 73
     1
 44
1.0
  0
LINE
  5
409
330
1F
100
AcDbEntity
  8
1-B_寸法
  6
Continuous
 62
   120
370
     5
100
AcDbLine
 10
3999.618312608998
 20
-3460.527804568972
 30
0.0
 11
4364.165154046488
 21
-3460.527804568972
 31
0.0
  0
LWPOLYLINE
  5
40A
330
1F
100
AcDbEntity
  8
1-B_寸法
  6
Continuous
 62
     7
370
     9
100
AcDbPolyline
 90
        4
 70
     1
 43
3.0
 10
4001.118312608999
 20
2680.472195431032
 42
0.4142135623731
 10
3999.618312608998
 20
2681.972195431032
 42
0.4142135623731
 10
3998.118312608998
 20
2680.472195431032
 42
0.4142135623731
 10
3999.618312608998
 20
2678.972195431032
 42
0.4142135623731
  0
LWPOLYLINE
  5
40B
330
1F
100
AcDbEntity
  8
1-B_寸法
  6
Continuous
 62
     7
370
     9
100
AcDbPolyline
 90
        4
 70
     1
 43
3.0
 10
4001.118312608999
 20
-3460.527804568972
 42
0.4142135623731
 10
3999.618312608998
 20
-3459.027804568972
 42
0.4142135623731
 10
3998.118312608998
 20
-3460.527804568972
 42
0.4142135623731
 10
3999.618312608998
 20
-3462.027804568972
 42
0.4142135623731
  0
LINE
  5
40C
330
1F
100
AcDbEntity
  8
1-1_通り芯
  6
JWW_CENTER1
 62
   120
370
     5
100
AcDbLine
 10
4874.040329797579
 20
-1648.527804568972
 30
0.0
 11
4775.836996208598
 21
-1648.527804568972
 31
0.0
  0
ARC
  5
40D
330
1F
100
AcDbEntity
  8
1-7_金物
  6
Continuous
 62
     7
370
     9
100
AcDbCircle
 10
4820.733315892173
 20
-1492.527804568973
 30
0.0
 40
27.0
100
AcDbArc
 50
90.0
 51
180.0
  0
ARC
  5
40E
330
1F
100
AcDbEntity
  8
1-7_金物
  6
Continuous
 62
     7
370
     9
100
AcDbCircle
 10
4820.733315892173
 20
-1492.527804568973
 30
0.0
 40
27.0
100
AcDbArc
 50
359.9999999999999
 51
89.99999999999994
  0
ARC
  5
40F
330
1F
100
AcDbEntity
  8
1-7_金物
  6
Continuous
 62
     7
370
     9
100
AcDbCircle
 10
4820.733315892173
 20
-1546.527804568973
 30
0.0
 40
27.0
100
AcDbArc
 50
359.9999999999999
 51
89.99999999999994
  0
ARC
  5
410
330
1F
100
AcDbEntity
  8
1-7_金物
  6
Continuous
 62
     7
370
     9
100
AcDbCircle
 10
4820.733315892173
 20
-1546.527804568973
 30
0.0
 40
27.0
100
AcDbArc
 50
90.0
 51
180.0
  0
ARC
  5
411
330
1F
100
AcDbEntity
  8
1-7_金物
  6
Continuous
 62
     7
370
     9
100
AcDbCircle
 10
4820.733315892173
 20
-1750.527804568972
 30
0.0
 40
27.0
100
AcDbArc
 50
269.9999999999999
 51
359.9999999999999
  0
ARC
  5
412
330
1F
100
AcDbEntity
  8
1-7_金物
  6
Continuous
 62
     7
370
     9
100
AcDbCircle
 10
4820.733315892173
 20
-1750.527804568972
 30
0.0
 40
27.0
100
AcDbArc
 50
180.0
 51
270.0
  0
LINE
  5
413
330
1F
100
AcDbEntity
  8
1-7_金物
  6
Continuous
 62
     7
370
     9
100
AcDbLine
 10
4793.73331589217
 20
-1490.340046203423
 30
0.0
 11
4793.73331589217
 21
-1805.27769861743
 31
0.0
  0
ARC
  5
414
330
1F
100
AcDbEntity
  8
1-7_金物
  6
Continuous
 62
     7
370
     9
100
AcDbCircle
 10
4820.733315892173
 20
-1804.527804568972
 30
0.0
 40
27.0
100
AcDbArc
 50
180.0
 51
270.0
  0
ARC
  5
415
330
1F
100
AcDbEntity
  8
1-7_金物
  6
Continuous
 62
     7
370
     9
100
AcDbCircle
 10
4820.733315892173
 20
-1804.527804568972
 30
0.0
 40
27.0
100
AcDbArc
 50
269.9999999999999
 51
359.9999999999999
  0
LINE
  5
416
330
1F
100
AcDbEntity
  8
1-7_金物
  6
Continuous
 62
     7
370
     9
100
AcDbLine
 10
4847.73331589217
 20
-1492.457975742158
 30
0.0
 11
4847.73331589217
 21
-1805.101477607309
 31
0.0
  0
LINE
  5
417
330
1F
100
AcDbEntity
  8
1-B_寸法
  6
Continuous
 62
   120
370
     5
100
AcDbLine
 10
4304.058287384784
 20
-1648.527804568972
 30
0.0
 11
4684.762251356632
 21
-1648.527804568972
 31
0.0
  0
LINE
  5
418
330
1F
100
AcDbEntity
  8
1-B_寸法
  6
Continuous
 62
   120
370
     5
100
AcDbLine
 10
4304.058287384784
 20
-3460.527804568972
 30
0.0
 11
4304.058287384784
 21
-1648.527804568972
 31
0.0
  0
LWPOLYLINE
  5
419
330
1F
100
AcDbEntity
  8
1-B_寸法
  6
Continuous
 62
     7
370
     9
100
AcDbPolyline
 90
        4
 70
     1
 43
3.0
 10
4305.558287384784
 20
-1648.527804568972
 42
0.4142135623731
 10
4304.058287384784
 20
-1647.027804568972
 42
0.4142135623731
 10
4302.558287384783
 20
-1648.527804568972
 42
0.4142135623731
 10
4304.058287384784
 20
-1650.027804568972
 42
0.4142135623731
  0
LINE
  5
41A
330
1F
100
AcDbEntity
  8
1-1_通り芯
  6
JWW_CENTER1
 62
   120
370
     5
100
AcDbLine
 10
4874.040329797579
 20
331.4721954310282
 30
0.0
 11
4775.836996208598
 21
331.4721954310282
 31
0.0
  0
ARC
  5
41B
330
1F
100
AcDbEntity
  8
1-7_金物
  6
Continuous
 62
     7
370
     9
100
AcDbCircle
 10
4820.733315892173
 20
487.472195431027
 30
0.0
 40
27.0
100
AcDbArc
 50
90.0
 51
180.0
  0
ARC
  5
41C
330
1F
100
AcDbEntity
  8
1-7_金物
  6
Continuous
 62
     7
370
     9
100
AcDbCircle
 10
4820.733315892173
 20
487.472195431027
 30
0.0
 40
27.0
100
AcDbArc
 50
359.9999999999999
 51
89.99999999999994
  0
ARC
  5
41D
330
1F
100
AcDbEntity
  8
1-7_金物
  6
Continuous
 62
     7
370
     9
100
AcDbCircle
 10
4820.733315892173
 20
433.4721954310276
 30
0.0
 40
27.0
100
AcDbArc
 50
359.9999999999999
 51
89.99999999999994
  0
ARC
  5
41E
330
1F
100
AcDbEntity
  8
1-7_金物
  6
Continuous
 62
     7
370
     9
100
AcDbCircle
 10
4820.733315892173
 20
433.4721954310276
 30
0.0
 40
27.0
100
AcDbArc
 50
90.0
 51
180.0
  0
ARC
  5
41F
330
1F
100
AcDbEntity
  8
1-7_金物
  6
Continuous
 62
     7
370
     9
100
AcDbCircle
 10
4820.733315892173
 20
229.4721954310285
 30
0.0
 40
27.0
100
AcDbArc
 50
269.9999999999999
 51
359.9999999999999
  0
ARC
  5
420
330
1F
100
AcDbEntity
  8
1-7_金物
  6
Continuous
 62
     7
370
     9
100
AcDbCircle
 10
4820.733315892173
 20
229.4721954310285
 30
0.0
 40
27.0
100
AcDbArc
 50
180.0
 51
270.0
  0
LINE
  5
421
330
1F
100
AcDbEntity
  8
1-7_金物
  6
Continuous
 62
     7
370
     9
100
AcDbLine
 10
4793.73331589217
 20
489.6599537965767
 30
0.0
 11
4793.73331589217
 21
174.7223013825707
 31
0.0
  0
ARC
  5
422
330
1F
100
AcDbEntity
  8
1-7_金物
  6
Continuous
 62
     7
370
     9
100
AcDbCircle
 10
4820.733315892173
 20
175.4721954310281
 30
0.0
 40
27.0
100
AcDbArc
 50
180.0
 51
270.0
  0
ARC
  5
423
330
1F
100
AcDbEntity
  8
1-7_金物
  6
Continuous
 62
     7
370
     9
100
AcDbCircle
 10
4820.733315892173
 20
175.4721954310281
 30
0.0
 40
27.0
100
AcDbArc
 50
269.9999999999999
 51
359.9999999999999
  0
LINE
  5
424
330
1F
100
AcDbEntity
  8
1-7_金物
  6
Continuous
 62
     7
370
     9
100
AcDbLine
 10
4847.73331589217
 20
487.5420242578417
 30
0.0
 11
4847.73331589217
 21
174.8985223926911
 31
0.0
  0
LINE
  5
425
330
1F
100
AcDbEntity
  8
1-B_寸法
  6
Continuous
 62
   120
370
     5
100
AcDbLine
 10
4151.838299996891
 20
331.4721954310282
 30
0.0
 11
4151.838299996891
 21
-3460.527804568972
 31
0.0
  0
LWPOLYLINE
  5
426
330
1F
100
AcDbEntity
  8
1-B_寸法
  6
Continuous
 62
     7
370
     9
100
AcDbPolyline
 90
        4
 70
     1
 43
3.0
 10
4153.338299996892
 20
331.4721954310282
 42
0.4142135623731
 10
4151.838299996891
 20
332.9721954310282
 42
0.4142135623731
 10
4150.338299996891
 20
331.4721954310282
 42
0.4142135623731
 10
4151.838299996891
 20
329.9721954310282
 42
0.4142135623731
  0
LWPOLYLINE
  5
427
330
1F
100
AcDbEntity
  8
1-B_寸法
  6
Continuous
 62
     7
370
     9
100
AcDbPolyline
 90
        4
 70
     1
 43
3.0
 10
4153.338299996892
 20
-3460.527804568972
 42
0.4142135623731
 10
4151.838299996891
 20
-3459.027804568972
 42
0.4142135623731
 10
4150.338299996891
 20
-3460.527804568972
 42
0.4142135623731
 10
4151.838299996891
 20
-3462.027804568972
 42
0.4142135623731
  0
MTEXT
  5
428
330
1F
100
AcDbEntity
  8
1-B_寸法
  6
Continuous
 62
     7
370
   211
100
AcDbMText
 10
4943.374127008217
 20
-3624.835166521312
 30
0.0
 40
74.295
 41
97.5
 46
0.0
 71
     7
 72
     1
  1
{\fＭＳ ゴシック|b0|i0|c128|p49;15}
 73
     1
 44
1.0
  0
LINE
  5
429
330
1F
100
AcDbEntity
  8
1-B_寸法
  6
Continuous
 62
   120
370
     5
100
AcDbLine
 10
4151.838299996891
 20
331.4721954310282
 30
0.0
 11
4684.762251356632
 21
331.4721954310282
 31
0.0
  0
MTEXT
  5
42A
330
1F
100
AcDbEntity
  8
0-B_寸法
  6
Continuous
 62
     7
370
     9
100
AcDbMText
 10
-5774.65487823794
 20
3779.647735004807
 30
0.0
 40
100.965
 41
795.0
 46
0.0
 71
     7
 72
     1
  1
{\fＭＳ ゴシック|b0|i0|c128|p49;【PB：15mm】}
 73
     1
 44
1.0
  0
MTEXT
  5
42B
330
1F
100
AcDbEntity
  8
F-A_文字
  6
Continuous
 62
     7
370
     0
100
AcDbMText
 10
-5247.547376752836
 20
-4045.119337591209
 30
0.0
 40
79.76152173913034
 41
4815.0
 46
0.0
 71
     7
 72
     1
  1
{\fＭＳ ゴシック|b0|i0|c128|p49;ドレタス　幅広アウトセット片引き戸　上吊りタイプ　枠外W2,169　【PB：15㎜／竪枠裏：枠材納め】}
 73
     1
 44
1.0
  0
MTEXT
  5
42C
330
1F
100
AcDbEntity
  8
F-A_文字
  6
Continuous
 62
     7
370
     9
100
AcDbMText
 10
4936.24903358083
 20
-4147.857175082368
 30
0.0
 40
74.295
 41
97.5
 46
0.0
 71
     7
 72
     1
  1
{\fＭＳ ゴシック|b0|i0|c128|p49;03}
 73
     1
 44
1.0
  0
LINE
  5
42D
330
1F
100
AcDbEntity
  8
0-1_通り芯
  6
JWW_CENTER1
 62
   120
370
     5
100
AcDbLine
 10
-3260.833034312661
 20
-3589.61329876232
 30
0.0
 11
-3260.833034312661
 21
257.9281873391187
 31
0.0
  0
LINE
  5
42E
330
1F
100
AcDbEntity
  8
0-1_通り芯
  6
JWW_CENTER1
 62
   120
370
     5
100
AcDbLine
 10
-3771.100523147416
 20
2465.903327113082
 30
0.0
 11
2203.872503697839
 21
2465.903327113082
 31
0.0
  0
LINE
  5
42F
330
1F
100
AcDbEntity
  8
0-B_寸法
  6
Continuous
 62
   120
370
     5
100
AcDbLine
 10
2503.872503697839
 20
1850.903327113082
 30
0.0
 11
2503.872503697839
 21
2465.903327113082
 31
0.0
  0
LWPOLYLINE
  5
430
330
1F
100
AcDbEntity
  8
0-B_寸法
  6
Continuous
 62
     7
370
     9
100
AcDbPolyline
 90
        4
 70
     1
 43
3.0
 10
2505.372503697838
 20
1850.903327113082
 42
0.4142135623731
 10
2503.872503697839
 20
1852.403327113082
 42
0.4142135623731
 10
2502.372503697839
 20
1850.903327113082
 42
0.4142135623731
 10
2503.872503697839
 20
1849.403327113082
 42
0.4142135623731
  0
LWPOLYLINE
  5
431
330
1F
100
AcDbEntity
  8
0-B_寸法
  6
Continuous
 62
     7
370
     9
100
AcDbPolyline
 90
        4
 70
     1
 43
3.0
 10
2505.372503697838
 20
2465.903327113082
 42
0.4142135623731
 10
2503.872503697839
 20
2467.403327113082
 42
0.4142135623731
 10
2502.372503697839
 20
2465.903327113082
 42
0.4142135623731
 10
2503.872503697839
 20
2464.403327113082
 42
0.4142135623731
  0
MTEXT
  5
432
330
1F
100
AcDbEntity
  8
0-B_寸法
  6
Continuous
 62
     7
370
   211
100
AcDbMText
 10
2488.872503697839
 20
2024.765327113082
 30
0.0
 40
77.724
 41
255.0
 46
0.0
 71
     7
 72
     1
  1
{\fＭＳ ゴシック|b0|i0|c128|p49;102.5}
 11
6.123031769111886E-17
 21
1.0
 31
0.0
 73
     1
 44
1.0
  0
LINE
  5
433
330
1F
100
AcDbEntity
  8
0-B_寸法
  6
Continuous
 62
   120
370
     5
100
AcDbLine
 10
2503.872503697839
 20
1850.903327113082
 30
0.0
 11
2293.872503697839
 21
1850.903327113082
 31
0.0
  0
LINE
  5
434
330
1F
100
AcDbEntity
  8
0-B_寸法
  6
Continuous
 62
   120
370
     5
100
AcDbLine
 10
2503.872503697839
 20
2465.903327113082
 30
0.0
 11
2293.872503697839
 21
2465.903327113082
 31
0.0
  0
LINE
  5
435
330
1F
100
AcDbEntity
  8
0-B_寸法
  6
Continuous
 62
   120
370
     5
100
AcDbLine
 10
-3260.833034312661
 20
-1146.905862918762
 30
0.0
 11
-2645.833034312661
 21
-1146.905862918762
 31
0.0
  0
LWPOLYLINE
  5
436
330
1F
100
AcDbEntity
  8
0-B_寸法
  6
Continuous
 62
     7
370
     9
100
AcDbPolyline
 90
        4
 70
     1
 43
3.0
 10
-3259.333034312661
 20
-1146.905862918762
 42
0.4142135623731
 10
-3260.833034312661
 20
-1145.405862918762
 42
0.4142135623731
 10
-3262.333034312661
 20
-1146.905862918762
 42
0.4142135623731
 10
-3260.833034312661
 20
-1148.405862918762
 42
0.4142135623731
  0
LWPOLYLINE
  5
437
330
1F
100
AcDbEntity
  8
0-B_寸法
  6
Continuous
 62
     7
370
     9
100
AcDbPolyline
 90
        4
 70
     1
 43
3.0
 10
-2644.333034312661
 20
-1146.905862918762
 42
0.4142135623731
 10
-2645.833034312661
 20
-1145.405862918762
 42
0.4142135623731
 10
-2647.333034312661
 20
-1146.905862918762
 42
0.4142135623731
 10
-2645.833034312661
 20
-1148.405862918762
 42
0.4142135623731
  0
MTEXT
  5
438
330
1F
100
AcDbEntity
  8
0-B_寸法
  6
Continuous
 62
     7
370
   211
100
AcDbMText
 10
-3080.833034312661
 20
-1138.043862918762
 30
0.0
 40
77.724
 41
255.0
 46
0.0
 71
     7
 72
     1
  1
{\fＭＳ ゴシック|b0|i0|c128|p49;102.5}
 73
     1
 44
1.0
  0
MTEXT
  5
439
330
1F
100
AcDbEntity
  8
F-A_文字
  6
Continuous
 62
     7
370
     0
100
AcDbMText
 10
4778.749126529666
 20
-3938.07117252235
 30
0.0
 40
78.86699999999999
 41
517.5
 46
0.0
 71
     7
 72
     1
  1
{\fＭＳ ゴシック|b0|i0|c128|p49;2022.04.01}
 73
     1
 44
1.0
  0
ENDSEC
  0
SECTION
  2
OBJECTS
  0
DICTIONARY
  5
C
330
0
100
AcDbDictionary
281
     1
  3
ACAD_GROUP
350
D
  3
ACAD_LAYOUT
350
1A
  3
ACAD_MATERIAL
350
3B
  3
ACAD_MLEADERSTYLE
350
43B
  3
ACAD_MLINESTYLE
350
17
  3
ACAD_PLOTSETTINGS
350
19
  3
ACAD_PLOTSTYLENAME
350
E
  3
ACAD_TABLESTYLE
350
43A
  3
ACAD_VISUALSTYLE
350
2A
  0
DICTIONARY
  5
D
102
{ACAD_REACTORS
330
C
102
}
330
C
100
AcDbDictionary
281
     1
  0
DICTIONARY
  5
1A
102
{ACAD_REACTORS
330
C
102
}
330
C
100
AcDbDictionary
281
     1
  3
Layout1
350
1E
  3
Layout2
350
26
  3
Model
350
22
  0
DICTIONARY
  5
3B
102
{ACAD_REACTORS
330
C
102
}
330
C
100
AcDbDictionary
281
     1
  3
ByBlock
350
3D
  3
ByLayer
350
3C
  3
Global
350
3E
  0
DICTIONARY
  5
43B
102
{ACAD_REACTORS
330
C
102
}
330
C
100
AcDbDictionary
281
     1
  0
DICTIONARY
  5
17
102
{ACAD_REACTORS
330
C
102
}
330
C
100
AcDbDictionary
281
     1
  3
Standard
350
18
  0
DICTIONARY
  5
19
102
{ACAD_REACTORS
330
C
102
}
330
C
100
AcDbDictionary
281
     1
  0
ACDBDICTIONARYWDFLT
  5
E
102
{ACAD_REACTORS
330
C
102
}
330
C
100
AcDbDictionary
281
     1
  3
Normal
350
F
100
AcDbDictionaryWithDefault
340
F
  0
DICTIONARY
  5
43A
102
{ACAD_REACTORS
330
C
102
}
330
C
100
AcDbDictionary
281
     1
  0
DICTIONARY
  5
2A
102
{ACAD_REACTORS
330
C
102
}
330
C
100
AcDbDictionary
281
     1
  3
2dWireframe
350
2F
  3
3D Hidden
350
31
  3
3dWireframe
350
30
  3
Basic
350
32
  3
Brighten
350
36
  3
ColorChange
350
3A
  3
Conceptual
350
34
  3
Dim
350
35
  3
Facepattern
350
39
  3
Flat
350
2B
  3
FlatWithEdges
350
2C
  3
Gouraud
350
2D
  3
GouraudWithEdges
350
2E
  3
Linepattern
350
38
  3
Realistic
350
33
  3
Thicken
350
37
  0
LAYOUT
  5
1E
102
{ACAD_REACTORS
330
1A
102
}
330
1A
100
AcDbPlotSettings
  1

  2
none_device
  4

  6

 40
0.0
 41
0.0
 42
0.0
 43
0.0
 44
0.0
 45
0.0
 46
0.0
 47
0.0
 48
0.0
 49
0.0
140
0.0
141
0.0
142
1.0
143
1.0
 70
   688
 72
     0
 73
     0
 74
     5
  7

 75
    16
 76
     0
 77
     5
 78
   300
147
1.0
148
0.0
149
0.0
100
AcDbLayout
  1
Layout1
 70
     1
 71
     1
 10
0.0
 20
0.0
 11
420.0
 21
297.0
 12
0.0
 22
0.0
 32
0.0
 14
1.000000000000000E+20
 24
1.000000000000000E+20
 34
1.000000000000000E+20
 15
-1.000000000000000E+20
 25
-1.000000000000000E+20
 35
-1.000000000000000E+20
146
0.0
 13
0.0
 23
0.0
 33
0.0
 16
1.0
 26
0.0
 36
0.0
 17
0.0
 27
1.0
 37
0.0
 76
     0
330
1B
  0
LAYOUT
  5
26
102
{ACAD_REACTORS
330
1A
102
}
330
1A
100
AcDbPlotSettings
  1

  2
none_device
  4

  6

 40
0.0
 41
0.0
 42
0.0
 43
0.0
 44
0.0
 45
0.0
 46
0.0
 47
0.0
 48
0.0
 49
0.0
140
0.0
141
0.0
142
1.0
143
1.0
 70
   688
 72
     0
 73
     0
 74
     5
  7

 75
    16
 76
     0
 77
     5
 78
   300
147
1.0
148
0.0
149
0.0
100
AcDbLayout
  1
Layout2
 70
     1
 71
     2
 10
0.0
 20
0.0
 11
0.0
 21
0.0
 12
0.0
 22
0.0
 32
0.0
 14
0.0
 24
0.0
 34
0.0
 15
0.0
 25
0.0
 35
0.0
146
0.0
 13
0.0
 23
0.0
 33
0.0
 16
1.0
 26
0.0
 36
0.0
 17
0.0
 27
1.0
 37
0.0
 76
     0
330
23
  0
LAYOUT
  5
22
102
{ACAD_REACTORS
330
1A
102
}
330
1A
100
AcDbPlotSettings
  1

  2
none_device
  4

  6

 40
0.0
 41
0.0
 42
0.0
 43
0.0
 44
0.0
 45
0.0
 46
0.0
 47
0.0
 48
0.0
 49
0.0
140
0.0
141
0.0
142
1.0
143
1.0
 70
  1712
 72
     0
 73
     0
 74
     0
  7

 75
     0
 76
     0
 77
     5
 78
   300
147
1.0
148
0.0
149
0.0
100
AcDbLayout
  1
Model
 70
     1
 71
     0
 10
-8910.0
 20
-6300.0
 11
8910.0
 21
6300.0
 12
0.0
 22
0.0
 32
0.0
 14
-8910.0
 24
-6300.0
 34
0.0
 15
8910.0
 25
6300.0
 35
0.0
146
0.0
 13
0.0
 23
0.0
 33
0.0
 16
1.0
 26
0.0
 36
0.0
 17
0.0
 27
1.0
 37
0.0
 76
     0
330
1F
331
29
  0
MATERIAL
  5
3D
102
{ACAD_REACTORS
330
3B
102
}
330
3B
100
AcDbMaterial
  1
ByBlock
 72
     1
 94
      127
  0
MATERIAL
  5
3C
102
{ACAD_REACTORS
330
3B
102
}
330
3B
100
AcDbMaterial
  1
ByLayer
 72
     1
 94
      127
  0
MATERIAL
  5
3E
102
{ACAD_REACTORS
330
3B
102
}
330
3B
100
AcDbMaterial
  1
Global
 72
     1
 94
      127
  0
MLINESTYLE
  5
18
102
{ACAD_REACTORS
330
17
102
}
330
17
100
AcDbMlineStyle
  2
Standard
 70
     0
  3

 62
   256
 51
90.0
 52
90.0
 71
     2
 49
0.5
 62
   256
  6
BYLAYER
 49
-0.5
 62
   256
  6
BYLAYER
  0
ACDBPLACEHOLDER
  5
F
102
{ACAD_REACTORS
330
E
102
}
330
E
  0
VISUALSTYLE
  5
2F
102
{ACAD_REACTORS
330
2A
102
}
330
2A
100
AcDbVisualStyle
  2
2dWireframe
 70
     4
177
     2
291
     0
 71
     0
176
     1
 72
     2
176
     1
 73
     0
176
     1
 90
        0
176
     1
 40
-0.6
176
     1
 41
-30.0
176
     1
 62
     5
 63
     7
421
 16777215
176
     1
 74
     1
176
     1
 91
        4
176
     1
 64
     7
176
     1
 65
   257
176
     1
 75
     1
176
     1
175
     1
176
     1
 42
1.0
176
     1
 92
        0
176
     1
 66
   257
176
     1
 43
1.0
176
     1
 76
     1
176
     1
 77
     6
176
     1
 78
     2
176
     1
 67
     7
176
     1
 79
     5
176
     1
170
     0
176
     1
171
     0
176
     1
290
     0
176
     1
 93
        1
176
     1
 44
0.0
176
     1
173
     0
176
     1
  0
VISUALSTYLE
  5
31
102
{ACAD_REACTORS
330
2A
102
}
330
2A
100
AcDbVisualStyle
  2
3D Hidden
 70
     6
177
     2
291
     0
 71
     1
176
     1
 72
     2
176
     1
 73
     2
176
     1
 90
        0
176
     1
 40
-0.6
176
     1
 41
-30.0
176
     1
 62
     5
 63
     7
421
 16777215
176
     1
 74
     2
176
     1
 91
        2
176
     1
 64
     7
176
     1
 65
   257
176
     1
 75
     2
176
     1
175
     1
176
     1
 42
40.0
176
     1
 92
        0
176
     1
 66
   257
176
     1
 43
1.0
176
     1
 76
     1
176
     1
 77
     6
176
     1
 78
     2
176
     1
 67
     7
176
     1
 79
     3
176
     1
170
     0
176
     1
171
     0
176
     1
290
     0
176
     1
 93
        1
176
     1
 44
0.0
176
     1
173
     0
176
     1
  0
VISUALSTYLE
  5
30
102
{ACAD_REACTORS
330
2A
102
}
330
2A
100
AcDbVisualStyle
  2
3dWireframe
 70
     5
177
     2
291
     0
 71
     0
176
     1
 72
     2
176
     1
 73
     0
176
     1
 90
        0
176
     1
 40
-0.6
176
     1
 41
-30.0
176
     1
 62
     5
 63
     7
421
 16777215
176
     1
 74
     1
176
     1
 91
        4
176
     1
 64
     7
176
     1
 65
   257
176
     1
 75
     1
176
     1
175
     1
176
     1
 42
1.0
176
     1
 92
        0
176
     1
 66
   257
176
     1
 43
1.0
176
     1
 76
     1
176
     1
 77
     6
176
     1
 78
     2
176
     1
 67
     7
176
     1
 79
     5
176
     1
170
     0
176
     1
171
     0
176
     1
290
     0
176
     1
 93
        1
176
     1
 44
0.0
176
     1
173
     0
176
     1
  0
VISUALSTYLE
  5
32
102
{ACAD_REACTORS
330
2A
102
}
330
2A
100
AcDbVisualStyle
  2
Basic
 70
     7
177
     2
291
     1
 71
     1
176
     1
 72
     0
176
     1
 73
     1
176
     1
 90
        0
176
     1
 40
-0.6
176
     1
 41
-30.0
176
     1
 62
     5
 63
     7
421
 16777215
176
     1
 74
     0
176
     1
 91
        4
176
     1
 64
     7
176
     1
 65
   257
176
     1
 75
     1
176
     1
175
     1
176
     1
 42
1.0
176
     1
 92
        8
176
     1
 66
     7
176
     1
 43
1.0
176
     1
 76
     1
176
     1
 77
     6
176
     1
 78
     2
176
     1
 67
     7
176
     1
 79
     5
176
     1
170
     0
176
     1
171
     0
176
     1
290
     0
176
     1
 93
        1
176
     1
 44
0.0
176
     1
173
     0
176
     1
  0
VISUALSTYLE
  5
36
102
{ACAD_REACTORS
330
2A
102
}
330
2A
100
AcDbVisualStyle
  2
Brighten
 70
    12
177
     2
291
     1
 71
     2
176
     1
 72
     2
176
     1
 73
     0
176
     1
 90
        0
176
     1
 40
-0.6
176
     1
 41
-30.0
176
     1
 62
     5
 63
     7
421
 16777215
176
     1
 74
     1
176
     1
 91
        4
176
     1
 64
     7
176
     1
 65
   257
176
     1
 75
     1
176
     1
175
     1
176
     1
 42
1.0
176
     1
 92
        8
176
     1
 66
     7
176
     1
 43
1.0
176
     1
 76
     1
176
     1
 77
     6
176
     1
 78
     2
176
     1
 67
     7
176
     1
 79
     5
176
     1
170
     0
176
     1
171
     0
176
     1
290
     0
176
     1
 93
        1
176
     1
 44
50.0
176
     1
173
     0
176
     1
  0
VISUALSTYLE
  5
3A
102
{ACAD_REACTORS
330
2A
102
}
330
2A
100
AcDbVisualStyle
  2
ColorChange
 70
    16
177
     2
291
     1
 71
     2
176
     1
 72
     2
176
     1
 73
     3
176
     1
 90
        0
176
     1
 40
-0.6
176
     1
 41
-30.0
176
     1
 62
     5
 63
     8
421
  8421504
176
     1
 74
     1
176
     1
 91
        4
176
     1
 64
     7
176
     1
 65
   257
176
     1
 75
     1
176
     1
175
     1
176
     1
 42
1.0
176
     1
 92
        8
176
     1
 66
     8
424
  8421504
176
     1
 43
1.0
176
     1
 76
     1
176
     1
 77
     6
176
     1
 78
     2
176
     1
 67
     7
176
     1
 79
     5
176
     1
170
     0
176
     1
171
     0
176
     1
290
     0
176
     1
 93
        1
176
     1
 44
0.0
176
     1
173
     0
176
     1
  0
VISUALSTYLE
  5
34
102
{ACAD_REACTORS
330
2A
102
}
330
2A
100
AcDbVisualStyle
  2
Conceptual
 70
     9
177
     2
291
     0
 71
     3
176
     1
 72
     2
176
     1
 73
     0
176
     1
 90
        0
176
     1
 40
-0.6
176
     1
 41
-30.0
176
     1
 62
     5
 63
     7
421
 16777215
176
     1
 74
     2
176
     1
 91
        2
176
     1
 64
     7
176
     1
 65
   257
176
     1
 75
     1
176
     1
175
     1
176
     1
 42
40.0
176
     1
 92
        8
176
     1
 66
     7
176
     1
 43
1.0
176
     1
 76
     1
176
     1
 77
     6
176
     1
 78
     2
176
     1
 67
     7
176
     1
 79
     3
176
     1
170
     0
176
     1
171
     0
176
     1
290
     0
176
     1
 93
        1
176
     1
 44
0.0
176
     1
173
     0
176
     1
  0
VISUALSTYLE
  5
35
102
{ACAD_REACTORS
330
2A
102
}
330
2A
100
AcDbVisualStyle
  2
Dim
 70
    11
177
     2
291
     1
 71
     2
176
     1
 72
     2
176
     1
 73
     0
176
     1
 90
        0
176
     1
 40
-0.6
176
     1
 41
-30.0
176
     1
 62
     5
 63
     7
421
 16777215
176
     1
 74
     1
176
     1
 91
        4
176
     1
 64
     7
176
     1
 65
   257
176
     1
 75
     1
176
     1
175
     1
176
     1
 42
1.0
176
     1
 92
        8
176
     1
 66
     7
176
     1
 43
1.0
176
     1
 76
     1
176
     1
 77
     6
176
     1
 78
     2
176
     1
 67
     7
176
     1
 79
     5
176
     1
170
     0
176
     1
171
     0
176
     1
290
     0
176
     1
 93
        1
176
     1
 44
-50.0
176
     1
173
     0
176
     1
  0
VISUALSTYLE
  5
39
102
{ACAD_REACTORS
330
2A
102
}
330
2A
100
AcDbVisualStyle
  2
Facepattern
 70
    15
177
     2
291
     1
 71
     2
176
     1
 72
     2
176
     1
 73
     0
176
     1
 90
        0
176
     1
 40
-0.6
176
     1
 41
-30.0
176
     1
 62
     5
 63
     7
421
 16777215
176
     1
 74
     1
176
     1
 91
        4
176
     1
 64
     7
176
     1
 65
   257
176
     1
 75
     1
176
     1
175
     1
176
     1
 42
1.0
176
     1
 92
        8
176
     1
 66
     7
176
     1
 43
1.0
176
     1
 76
     1
176
     1
 77
     6
176
     1
 78
     2
176
     1
 67
     7
176
     1
 79
     5
176
     1
170
     0
176
     1
171
     0
176
     1
290
     0
176
     1
 93
        1
176
     1
 44
0.0
176
     1
173
     0
176
     1
  0
VISUALSTYLE
  5
2B
102
{ACAD_REACTORS
330
2A
102
}
330
2A
100
AcDbVisualStyle
  2
Flat
 70
     0
177
     2
291
     1
 71
     2
176
     1
 72
     1
176
     1
 73
     1
176
     1
 90
        2
176
     1
 40
-0.6
176
     1
 41
30.0
176
     1
 62
     5
 63
     7
421
 16777215
176
     1
 74
     0
176
     1
 91
        4
176
     1
 64
     7
176
     1
 65
   257
176
     1
 75
     1
176
     1
175
     1
176
     1
 42
1.0
176
     1
 92
        8
176
     1
 66
     7
176
     1
 43
1.0
176
     1
 76
     1
176
     1
 77
     6
176
     1
 78
     2
176
     1
 67
     7
176
     1
 79
     5
176
     1
170
     0
176
     1
171
     0
176
     1
290
     0
176
     1
 93
       13
176
     1
 44
0.0
176
     1
173
     0
176
     1
  0
VISUALSTYLE
  5
2C
102
{ACAD_REACTORS
330
2A
102
}
330
2A
100
AcDbVisualStyle
  2
FlatWithEdges
 70
     1
177
     2
291
     1
 71
     2
176
     1
 72
     1
176
     1
 73
     1
176
     1
 90
        2
176
     1
 40
-0.6
176
     1
 41
30.0
176
     1
 62
     5
 63
     7
421
 16777215
176
     1
 74
     1
176
     1
 91
        4
176
     1
 64
     7
176
     1
 65
   257
176
     1
 75
     1
176
     1
175
     1
176
     1
 42
1.0
176
     1
 92
        0
176
     1
 66
   257
176
     1
 43
1.0
176
     1
 76
     1
176
     1
 77
     6
176
     1
 78
     2
176
     1
 67
     7
176
     1
 79
     5
176
     1
170
     0
176
     1
171
     0
176
     1
290
     0
176
     1
 93
       13
176
     1
 44
0.0
176
     1
173
     0
176
     1
  0
VISUALSTYLE
  5
2D
102
{ACAD_REACTORS
330
2A
102
}
330
2A
100
AcDbVisualStyle
  2
Gouraud
 70
     2
177
     2
291
     1
 71
     2
176
     1
 72
     2
176
     1
 73
     1
176
     1
 90
        2
176
     1
 40
-0.6
176
     1
 41
30.0
176
     1
 62
     5
 63
     7
421
 16777215
176
     1
 74
     0
176
     1
 91
        4
176
     1
 64
     7
176
     1
 65
   257
176
     1
 75
     1
176
     1
175
     1
176
     1
 42
1.0
176
     1
 92
        0
176
     1
 66
     7
176
     1
 43
1.0
176
     1
 76
     1
176
     1
 77
     6
176
     1
 78
     2
176
     1
 67
     7
176
     1
 79
     5
176
     1
170
     0
176
     1
171
     0
176
     1
290
     0
176
     1
 93
       13
176
     1
 44
0.0
176
     1
173
     0
176
     1
  0
VISUALSTYLE
  5
2E
102
{ACAD_REACTORS
330
2A
102
}
330
2A
100
AcDbVisualStyle
  2
GouraudWithEdges
 70
     3
177
     2
291
     1
 71
     2
176
     1
 72
     2
176
     1
 73
     1
176
     1
 90
        2
176
     1
 40
-0.6
176
     1
 41
30.0
176
     1
 62
     5
 63
     7
421
 16777215
176
     1
 74
     1
176
     1
 91
        4
176
     1
 64
     7
176
     1
 65
   257
176
     1
 75
     1
176
     1
175
     1
176
     1
 42
1.0
176
     1
 92
        0
176
     1
 66
   257
176
     1
 43
1.0
176
     1
 76
     1
176
     1
 77
     6
176
     1
 78
     2
176
     1
 67
     7
176
     1
 79
     5
176
     1
170
     0
176
     1
171
     0
176
     1
290
     0
176
     1
 93
       13
176
     1
 44
0.0
176
     1
173
     0
176
     1
  0
VISUALSTYLE
  5
38
102
{ACAD_REACTORS
330
2A
102
}
330
2A
100
AcDbVisualStyle
  2
Linepattern
 70
    14
177
     2
291
     1
 71
     2
176
     1
 72
     2
176
     1
 73
     0
176
     1
 90
        0
176
     1
 40
-0.6
176
     1
 41
-30.0
176
     1
 62
     5
 63
     7
421
 16777215
176
     1
 74
     1
176
     1
 91
        4
176
     1
 64
     7
176
     1
 65
   257
176
     1
 75
     7
176
     1
175
     7
176
     1
 42
1.0
176
     1
 92
        8
176
     1
 66
     7
176
     1
 43
1.0
176
     1
 76
     1
176
     1
 77
     6
176
     1
 78
     2
176
     1
 67
     7
176
     1
 79
     5
176
     1
170
     0
176
     1
171
     0
176
     1
290
     0
176
     1
 93
        1
176
     1
 44
0.0
176
     1
173
     0
176
     1
  0
VISUALSTYLE
  5
33
102
{ACAD_REACTORS
330
2A
102
}
330
2A
100
AcDbVisualStyle
  2
Realistic
 70
     8
177
     2
291
     0
 71
     2
176
     1
 72
     2
176
     1
 73
     0
176
     1
 90
        0
176
     1
 40
-0.6
176
     1
 41
-30.0
176
     1
 62
     5
 63
     7
421
 16777215
176
     1
 74
     1
176
     1
 91
        0
176
     1
 64
     7
176
     1
 65
   257
176
     1
 75
     1
176
     1
175
     1
176
     1
 42
1.0
176
     1
 92
        8
176
     1
 66
     8
424
  7895160
176
     1
 43
1.0
176
     1
 76
     1
176
     1
 77
     6
176
     1
 78
     2
176
     1
 67
     7
176
     1
 79
     5
176
     1
170
     0
176
     1
171
     0
176
     1
290
     0
176
     1
 93
       13
176
     1
 44
0.0
176
     1
173
     0
176
     1
  0
VISUALSTYLE
  5
37
102
{ACAD_REACTORS
330
2A
102
}
330
2A
100
AcDbVisualStyle
  2
Thicken
 70
    13
177
     2
291
     1
 71
     2
176
     1
 72
     2
176
     1
 73
     0
176
     1
 90
        0
176
     1
 40
-0.6
176
     1
 41
-30.0
176
     1
 62
     5
 63
     7
421
 16777215
176
     1
 74
     1
176
     1
 91
        4
176
     1
 64
     7
176
     1
 65
   257
176
     1
 75
     1
176
     1
175
     1
176
     1
 42
1.0
176
     1
 92
       12
176
     1
 66
     7
176
     1
 43
1.0
176
     1
 76
     1
176
     1
 77
     6
176
     1
 78
     2
176
     1
 67
     7
176
     1
 79
     5
176
     1
170
     0
176
     1
171
     0
176
     1
290
     0
176
     1
 93
        1
176
     1
 44
0.0
176
     1
173
     0
176
     1
  0
ENDSEC
  0
EOF
