  0
SECTION
  2
HEADER
  9
$ACADVER
  1
AC1024
  9
$ACADMAINTVER
 70
     6
  9
$DWGCODEPAGE
  3
ANSI_932
  9
$INSBASE
 10
0.0
 20
0.0
 30
0.0
  9
$EXTMIN
 10
-8910.0
 20
-6300.0
 30
0.0
  9
$EXTMAX
 10
8910.0
 20
6300.0
 30
0.0
  9
$LIMMIN
 10
-8910.0
 20
-6300.0
  9
$LIMMAX
 10
8910.0
 20
6300.0
  9
$ORTHOMODE
 70
     0
  9
$REGENMODE
 70
     1
  9
$FILLMODE
 70
     1
  9
$QTEXTMODE
 70
     0
  9
$MIRRTEXT
 70
     1
  9
$LTSCALE
 40
30.0
  9
$ATTMODE
 70
     1
  9
$TEXTSIZE
 40
2.5
  9
$TRACEWID
 40
1.0
  9
$TEXTSTYLE
  7
Standard
  9
$CLAYER
  8
0
  9
$CELTYPE
  6
ByLayer
  9
$CECOLOR
 62
   256
  9
$CELTSCALE
 40
1.0
  9
$DISPSILH
 70
     0
  9
$DIMSCALE
 40
1.0
  9
$DIMASZ
 40
2.5
  9
$DIMEXO
 40
0.625
  9
$DIMDLI
 40
3.75
  9
$DIMRND
 40
0.0
  9
$DIMDLE
 40
0.0
  9
$DIMEXE
 40
1.25
  9
$DIMTP
 40
0.0
  9
$DIMTM
 40
0.0
  9
$DIMTXT
 40
2.5
  9
$DIMCEN
 40
2.5
  9
$DIMTSZ
 40
0.0
  9
$DIMTOL
 70
     0
  9
$DIMLIM
 70
     0
  9
$DIMTIH
 70
     0
  9
$DIMTOH
 70
     0
  9
$DIMSE1
 70
     0
  9
$DIMSE2
 70
     0
  9
$DIMTAD
 70
     1
  9
$DIMZIN
 70
     8
  9
$DIMBLK
  1

  9
$DIMASO
 70
     1
  9
$DIMSHO
 70
     1
  9
$DIMPOST
  1

  9
$DIMAPOST
  1

  9
$DIMALT
 70
     0
  9
$DIMALTD
 70
     3
  9
$DIMALTF
 40
0.03937007874016
  9
$DIMLFAC
 40
1.0
  9
$DIMTOFL
 70
     1
  9
$DIMTVP
 40
0.0
  9
$DIMTIX
 70
     0
  9
$DIMSOXD
 70
     0
  9
$DIMSAH
 70
     0
  9
$DIMBLK1
  1

  9
$DIMBLK2
  1

  9
$DIMSTYLE
  2
ISO-25
  9
$DIMCLRD
 70
     0
  9
$DIMCLRE
 70
     0
  9
$DIMCLRT
 70
     0
  9
$DIMTFAC
 40
1.0
  9
$DIMGAP
 40
0.625
  9
$DIMJUST
 70
     0
  9
$DIMSD1
 70
     0
  9
$DIMSD2
 70
     0
  9
$DIMTOLJ
 70
     0
  9
$DIMTZIN
 70
     8
  9
$DIMALTZ
 70
     0
  9
$DIMALTTZ
 70
     0
  9
$DIMUPT
 70
     0
  9
$DIMDEC
 70
     2
  9
$DIMTDEC
 70
     2
  9
$DIMALTU
 70
     2
  9
$DIMALTTD
 70
     3
  9
$DIMTXSTY
  7
Standard
  9
$DIMAUNIT
 70
     0
  9
$DIMADEC
 70
     0
  9
$DIMALTRND
 40
0.0
  9
$DIMAZIN
 70
     0
  9
$DIMDSEP
 70
    44
  9
$DIMATFIT
 70
     3
  9
$DIMFRAC
 70
     0
  9
$DIMLDRBLK
  1

  9
$DIMLUNIT
 70
     2
  9
$DIMLWD
 70
    -2
  9
$DIMLWE
 70
    -2
  9
$DIMTMOVE
 70
     0
  9
$DIMFXL
 40
1.0
  9
$DIMFXLON
 70
     0
  9
$DIMJOGANG
 40
0.7853981633974483
  9
$DIMTFILL
 70
     0
  9
$DIMTFILLCLR
 70
     0
  9
$DIMARCSYM
 70
     0
  9
$DIMLTYPE
  6

  9
$DIMLTEX1
  6

  9
$DIMLTEX2
  6

  9
$DIMTXTDIRECTION
 70
     0
  9
$LUNITS
 70
     2
  9
$LUPREC
 70
     4
  9
$SKETCHINC
 40
1.0
  9
$FILLETRAD
 40
10.0
  9
$AUNITS
 70
     0
  9
$AUPREC
 70
     0
  9
$MENU
  1
.
  9
$ELEVATION
 40
0.0
  9
$PELEVATION
 40
0.0
  9
$THICKNESS
 40
0.0
  9
$LIMCHECK
 70
     0
  9
$CHAMFERA
 40
10.0
  9
$CHAMFERB
 40
10.0
  9
$CHAMFERC
 40
20.0
  9
$CHAMFERD
 40
0.0
  9
$SKPOLY
 70
     0
  9
$TDCREATE
 40
2459682.481636424
  9
$TDUCREATE
 40
2459682.106636424
  9
$TDUPDATE
 40
2459682.481636435
  9
$TDUUPDATE
 40
2459682.106636435
  9
$TDINDWG
 40
0.0000000116
  9
$TDUSRTIMER
 40
0.0000000116
  9
$USRTIMER
 70
     1
  9
$ANGBASE
 50
0.0
  9
$ANGDIR
 70
     0
  9
$PDMODE
 70
     0
  9
$PDSIZE
 40
0.0
  9
$PLINEWID
 40
0.0
  9
$SPLFRAME
 70
     0
  9
$SPLINETYPE
 70
     6
  9
$SPLINESEGS
 70
     8
  9
$HANDSEED
  5
440
  9
$SURFTAB1
 70
     6
  9
$SURFTAB2
 70
     6
  9
$SURFTYPE
 70
     6
  9
$SURFU
 70
     6
  9
$SURFV
 70
     6
  9
$UCSBASE
  2

  9
$UCSNAME
  2

  9
$UCSORG
 10
0.0
 20
0.0
 30
0.0
  9
$UCSXDIR
 10
1.0
 20
0.0
 30
0.0
  9
$UCSYDIR
 10
0.0
 20
1.0
 30
0.0
  9
$UCSORTHOREF
  2

  9
$UCSORTHOVIEW
 70
     0
  9
$UCSORGTOP
 10
0.0
 20
0.0
 30
0.0
  9
$UCSORGBOTTOM
 10
0.0
 20
0.0
 30
0.0
  9
$UCSORGLEFT
 10
0.0
 20
0.0
 30
0.0
  9
$UCSORGRIGHT
 10
0.0
 20
0.0
 30
0.0
  9
$UCSORGFRONT
 10
0.0
 20
0.0
 30
0.0
  9
$UCSORGBACK
 10
0.0
 20
0.0
 30
0.0
  9
$PUCSBASE
  2

  9
$PUCSNAME
  2

  9
$PUCSORG
 10
0.0
 20
0.0
 30
0.0
  9
$PUCSXDIR
 10
1.0
 20
0.0
 30
0.0
  9
$PUCSYDIR
 10
0.0
 20
1.0
 30
0.0
  9
$PUCSORTHOREF
  2

  9
$PUCSORTHOVIEW
 70
     0
  9
$PUCSORGTOP
 10
0.0
 20
0.0
 30
0.0
  9
$PUCSORGBOTTOM
 10
0.0
 20
0.0
 30
0.0
  9
$PUCSORGLEFT
 10
0.0
 20
0.0
 30
0.0
  9
$PUCSORGRIGHT
 10
0.0
 20
0.0
 30
0.0
  9
$PUCSORGFRONT
 10
0.0
 20
0.0
 30
0.0
  9
$PUCSORGBACK
 10
0.0
 20
0.0
 30
0.0
  9
$USERI1
 70
     0
  9
$USERI2
 70
     0
  9
$USERI3
 70
     0
  9
$USERI4
 70
     0
  9
$USERI5
 70
     0
  9
$USERR1
 40
0.0
  9
$USERR2
 40
0.0
  9
$USERR3
 40
0.0
  9
$USERR4
 40
0.0
  9
$USERR5
 40
0.0
  9
$WORLDVIEW
 70
     1
  9
$SHADEDGE
 70
     3
  9
$SHADEDIF
 70
    70
  9
$TILEMODE
 70
     1
  9
$MAXACTVP
 70
    64
  9
$PINSBASE
 10
0.0
 20
0.0
 30
0.0
  9
$PLIMCHECK
 70
     0
  9
$PEXTMIN
 10
1.000000000000000E+20
 20
1.000000000000000E+20
 30
1.000000000000000E+20
  9
$PEXTMAX
 10
-1.000000000000000E+20
 20
-1.000000000000000E+20
 30
-1.000000000000000E+20
  9
$PLIMMIN
 10
0.0
 20
0.0
  9
$PLIMMAX
 10
420.0
 20
297.0
  9
$UNITMODE
 70
     0
  9
$VISRETAIN
 70
     1
  9
$PLINEGEN
 70
     0
  9
$PSLTSCALE
 70
     1
  9
$TREEDEPTH
 70
  3020
  9
$CMLSTYLE
  2
Standard
  9
$CMLJUST
 70
     0
  9
$CMLSCALE
 40
20.0
  9
$PROXYGRAPHICS
 70
     1
  9
$MEASUREMENT
 70
     1
  9
$CELWEIGHT
370
    -1
  9
$ENDCAPS
280
     0
  9
$JOINSTYLE
280
     0
  9
$LWDISPLAY
290
     0
  9
$INSUNITS
 70
     4
  9
$HYPERLINKBASE
  1

  9
$STYLESHEET
  1

  9
$XEDIT
290
     1
  9
$CEPSNTYPE
380
     0
  9
$PSTYLEMODE
290
     1
  9
$FINGERPRINTGUID
  2
{40FB6F04-07F7-458E-B846-66456B87CC63}
  9
$VERSIONGUID
  2
{FAEB1C32-E019-11D5-929B-00C0DF256EC4}
  9
$EXTNAMES
290
     1
  9
$PSVPSCALE
 40
0.0
  9
$OLESTARTUP
290
     0
  9
$SORTENTS
280
   127
  9
$INDEXCTL
280
     0
  9
$HIDETEXT
280
     1
  9
$XCLIPFRAME
280
     2
  9
$HALOGAP
280
     0
  9
$OBSCOLOR
 70
   257
  9
$OBSLTYPE
280
     0
  9
$INTERSECTIONDISPLAY
280
     0
  9
$INTERSECTIONCOLOR
 70
   257
  9
$DIMASSOC
280
     2
  9
$PROJECTNAME
  1

  9
$CAMERADISPLAY
290
     0
  9
$LENSLENGTH
 40
50.0
  9
$CAMERAHEIGHT
 40
0.0
  9
$STEPSPERSEC
 40
2.0
  9
$STEPSIZE
 40
6.0
  9
$3DDWFPREC
 40
2.0
  9
$PSOLWIDTH
 40
5.0
  9
$PSOLHEIGHT
 40
80.0
  9
$LOFTANG1
 40
1.570796326794897
  9
$LOFTANG2
 40
1.570796326794897
  9
$LOFTMAG1
 40
0.0
  9
$LOFTMAG2
 40
0.0
  9
$LOFTPARAM
 70
     7
  9
$LOFTNORMALS
280
     1
  9
$LATITUDE
 40
37.795
  9
$LONGITUDE
 40
-122.394
  9
$NORTHDIRECTION
 40
0.0
  9
$TIMEZONE
 70
 -8000
  9
$LIGHTGLYPHDISPLAY
280
     1
  9
$TILEMODELIGHTSYNCH
280
     1
  9
$SOLIDHIST
280
     1
  9
$SHOWHIST
280
     1
  9
$DWFFRAME
280
     2
  9
$DGNFRAME
280
     2
  9
$REALWORLDSCALE
290
     1
  9
$INTERFERECOLOR
 62
   256
  9
$CSHADOW
280
     0
  9
$SHADOWPLANELOCATION
 40
0.0
  0
ENDSEC
  0
SECTION
  2
CLASSES
  0
CLASS
  1
ACDBDICTIONARYWDFLT
  2
AcDbDictionaryWithDefault
  3
ObjectDBX Classes
 90
        0
 91
        4
280
     0
281
     0
  0
CLASS
  1
VISUALSTYLE
  2
AcDbVisualStyle
  3
ObjectDBX Classes
 90
     4095
 91
        4
280
     0
281
     0
  0
CLASS
  1
MATERIAL
  2
AcDbMaterial
  3
ObjectDBX Classes
 90
     1153
 91
        4
280
     0
281
     0
  0
ENDSEC
  0
SECTION
  2
TABLES
  0
TABLE
  2
VPORT
  5
8
330
0
100
AcDbSymbolTable
 70
     1
  0
VPORT
  5
29
330
8
100
AcDbSymbolTableRecord
100
AcDbViewportTableRecord
  2
*Active
 70
     0
 10
0.0
 20
0.0
 11
1.0
 21
1.0
 12
0.0
 22
0.0
 13
0.0
 23
0.0
 14
10.0
 24
10.0
 15
10.0
 25
10.0
 16
0.0
 26
0.0
 36
1.0
 17
0.0
 27
0.0
 37
0.0
 40
13860.0
 41
1.414285714285714
 42
50.0
 43
0.0
 44
0.0
 50
0.0
 51
0.0
 71
     0
 72
 10000
 73
     1
 74
     3
 75
     0
 76
     0
 77
     0
 78
     0
281
     0
 65
     1
110
0.0
120
0.0
130
0.0
111
1.0
121
0.0
131
0.0
112
0.0
122
1.0
132
0.0
 79
     0
146
0.0
 60
     3
 61
     5
292
     1
282
     1
141
0.0
142
0.0
 63
   250
  0
ENDTAB
  0
TABLE
  2
LTYPE
  5
5
330
0
100
AcDbSymbolTable
 70
     5
  0
LTYPE
  5
14
330
5
100
AcDbSymbolTableRecord
100
AcDbLinetypeTableRecord
  2
ByBlock
 70
     0
  3

 72
    65
 73
     0
 40
0.0
  0
LTYPE
  5
15
330
5
100
AcDbSymbolTableRecord
100
AcDbLinetypeTableRecord
  2
ByLayer
 70
     0
  3

 72
    65
 73
     0
 40
0.0
  0
LTYPE
  5
16
330
5
100
AcDbSymbolTableRecord
100
AcDbLinetypeTableRecord
  2
Continuous
 70
     0
  3
Solid line
 72
    65
 73
     0
 40
0.0
  0
LTYPE
  5
3F
330
5
100
AcDbSymbolTableRecord
100
AcDbLinetypeTableRecord
  2
JWW_HOJO
 70
     0
  3
  -   -   -   -   -   -   -   - 
 72
    65
 73
     2
 40
1.693333333333333
 49
-1.27
 74
     0
 49
0.4233333333333333
 74
     0
  0
LTYPE
  5
40
330
5
100
AcDbSymbolTableRecord
100
AcDbLinetypeTableRecord
  2
JWW_DASHED1
 70
     0
  3
-  --  --  --  --  --  --  --  -
 72
    65
 73
     2
 40
1.693333333333333
 49
0.8466666666666667
 74
     0
 49
-0.8466666666666667
 74
     0
  0
LTYPE
  5
41
330
5
100
AcDbSymbolTableRecord
100
AcDbLinetypeTableRecord
  2
JWW_CENTER1
 70
     0
  3
-----  --  ----------  --  -----
 72
    65
 73
     4
 40
6.773333333333333
 49
4.233333333333333
 74
     0
 49
-0.8466666666666667
 74
     0
 49
0.8466666666666667
 74
     0
 49
-0.8466666666666667
 74
     0
  0
LTYPE
  5
42
330
5
100
AcDbSymbolTableRecord
100
AcDbLinetypeTableRecord
  2
JWW_DASHED2
 70
     0
  3
--    ----    ----    ----    --
 72
    65
 73
     2
 40
3.386666666666667
 49
1.693333333333333
 74
     0
 49
-1.693333333333333
 74
     0
  0
ENDTAB
  0
TABLE
  2
LAYER
  5
2
330
0
100
AcDbSymbolTable
 70
    22
  0
LAYER
  5
10
330
2
100
AcDbSymbolTableRecord
100
AcDbLayerTableRecord
  2
0
 70
     0
 62
     7
  6
Continuous
370
    -3
390
F
347
3E
  0
LAYER
  5
43
330
2
100
AcDbSymbolTableRecord
100
AcDbLayerTableRecord
  2
F-0_補助線
 70
     0
 62
     7
  6
Continuous
370
    -3
390
F
347
3E
  0
LAYER
  5
44
330
2
100
AcDbSymbolTableRecord
100
AcDbLayerTableRecord
  2
F-1_枠
 70
     0
 62
     7
  6
Continuous
370
    -3
390
F
347
3E
  0
LAYER
  5
45
330
2
100
AcDbSymbolTableRecord
100
AcDbLayerTableRecord
  2
F-A_文字
 70
     0
 62
     7
  6
Continuous
370
    -3
390
F
347
3E
  0
LAYER
  5
46
330
2
100
AcDbSymbolTableRecord
100
AcDbLayerTableRecord
  2
0-B_寸法
 70
     0
 62
     7
  6
Continuous
370
    -3
390
F
347
3E
  0
LAYER
  5
47
330
2
100
AcDbSymbolTableRecord
100
AcDbLayerTableRecord
  2
1-A_文字
 70
     0
 62
     7
  6
Continuous
370
    -3
390
F
347
3E
  0
LAYER
  5
48
330
2
100
AcDbSymbolTableRecord
100
AcDbLayerTableRecord
  2
0-3_仕上げ
 70
     0
 62
     7
  6
Continuous
370
    -3
390
F
347
3E
  0
LAYER
  5
49
330
2
100
AcDbSymbolTableRecord
100
AcDbLayerTableRecord
  2
0-0_補助線
 70
     0
 62
     7
  6
Continuous
370
    -3
390
F
347
3E
  0
LAYER
  5
4A
330
2
100
AcDbSymbolTableRecord
100
AcDbLayerTableRecord
  2
0-2_柱
 70
     0
 62
     7
  6
Continuous
370
    -3
390
F
347
3E
  0
LAYER
  5
4B
330
2
100
AcDbSymbolTableRecord
100
AcDbLayerTableRecord
  2
0-6_扉
 70
     0
 62
     7
  6
Continuous
370
    -3
390
F
347
3E
  0
LAYER
  5
4C
330
2
100
AcDbSymbolTableRecord
100
AcDbLayerTableRecord
  2
0-4_枠
 70
     0
 62
     7
  6
Continuous
370
    -3
390
F
347
3E
  0
LAYER
  5
4D
330
2
100
AcDbSymbolTableRecord
100
AcDbLayerTableRecord
  2
0-7_金物
 70
     0
 62
     7
  6
Continuous
370
    -3
390
F
347
3E
  0
LAYER
  5
4E
330
2
100
AcDbSymbolTableRecord
100
AcDbLayerTableRecord
  2
0-C_ハッチ
 70
     0
 62
     7
  6
Continuous
370
    -3
390
F
347
3E
  0
LAYER
  5
4F
330
2
100
AcDbSymbolTableRecord
100
AcDbLayerTableRecord
  2
0-5_ケーシング
 70
     0
 62
     7
  6
Continuous
370
    -3
390
F
347
3E
  0
LAYER
  5
50
330
2
100
AcDbSymbolTableRecord
100
AcDbLayerTableRecord
  2
0-A_文字
 70
     0
 62
     7
  6
Continuous
370
    -3
390
F
347
3E
  0
LAYER
  5
51
330
2
100
AcDbSymbolTableRecord
100
AcDbLayerTableRecord
  2
0-1_通り芯
 70
     0
 62
     7
  6
Continuous
370
    -3
390
F
347
3E
  0
LAYER
  5
52
330
2
100
AcDbSymbolTableRecord
100
AcDbLayerTableRecord
  2
その他構成部品
 70
     0
 62
     7
  6
Continuous
370
    -3
390
F
347
3E
  0
LAYER
  5
53
330
2
100
AcDbSymbolTableRecord
100
AcDbLayerTableRecord
  2
1-B_寸法
 70
     0
 62
     7
  6
Continuous
370
    -3
390
F
347
3E
  0
LAYER
  5
54
330
2
100
AcDbSymbolTableRecord
100
AcDbLayerTableRecord
  2
1-7_金物
 70
     0
 62
     7
  6
Continuous
370
    -3
390
F
347
3E
  0
LAYER
  5
55
330
2
100
AcDbSymbolTableRecord
100
AcDbLayerTableRecord
  2
1-1_通り芯
 70
     0
 62
     7
  6
Continuous
370
    -3
390
F
347
3E
  0
LAYER
  5
56
330
2
100
AcDbSymbolTableRecord
100
AcDbLayerTableRecord
  2
1-4_枠
 70
     0
 62
     7
  6
Continuous
370
    -3
390
F
347
3E
  0
LAYER
  5
57
330
2
100
AcDbSymbolTableRecord
100
AcDbLayerTableRecord
  2
1-C_ハッチ
 70
     0
 62
     7
  6
Continuous
370
    -3
390
F
347
3E
  0
ENDTAB
  0
TABLE
  2
STYLE
  5
3
330
0
100
AcDbSymbolTable
 70
     1
  0
STYLE
  5
11
330
3
100
AcDbSymbolTableRecord
100
AcDbTextStyleTableRecord
  2
Standard
 70
     0
 40
0.0
 41
1.0
 50
0.0
 71
     0
 42
2.5
  3
txt
  4

  0
ENDTAB
  0
TABLE
  2
VIEW
  5
6
330
0
100
AcDbSymbolTable
 70
     0
  0
ENDTAB
  0
TABLE
  2
UCS
  5
7
330
0
100
AcDbSymbolTable
 70
     0
  0
ENDTAB
  0
TABLE
  2
APPID
  5
9
330
0
100
AcDbSymbolTable
 70
     1
  0
APPID
  5
12
330
9
100
AcDbSymbolTableRecord
100
AcDbRegAppTableRecord
  2
ACAD
 70
     0
  0
ENDTAB
  0
TABLE
  2
DIMSTYLE
  5
A
330
0
100
AcDbSymbolTable
 70
     1
100
AcDbDimStyleTable
  0
DIMSTYLE
105
27
330
A
100
AcDbSymbolTableRecord
100
AcDbDimStyleTableRecord
  2
ISO-25
 70
     0
 41
2.5
 42
0.625
 43
3.75
 44
1.25
 73
     0
 74
     0
 77
     1
 78
     8
140
2.5
141
2.5
143
0.03937007874016
147
0.625
171
     3
172
     1
178
     0
271
     2
272
     2
274
     3
278
    44
283
     0
284
     8
340
11
  0
ENDTAB
  0
TABLE
  2
BLOCK_RECORD
  5
1
330
0
100
AcDbSymbolTable
 70
     1
  0
BLOCK_RECORD
  5
1F
330
1
100
AcDbSymbolTableRecord
100
AcDbBlockTableRecord
  2
*Model_Space
340
22
 70
     0
280
     1
281
     0
  0
BLOCK_RECORD
  5
1B
330
1
100
AcDbSymbolTableRecord
100
AcDbBlockTableRecord
  2
*Paper_Space
340
1E
 70
     0
280
     1
281
     0
  0
BLOCK_RECORD
  5
23
330
1
100
AcDbSymbolTableRecord
100
AcDbBlockTableRecord
  2
*Paper_Space0
340
26
 70
     0
280
     1
281
     0
  0
ENDTAB
  0
ENDSEC
  0
SECTION
  2
BLOCKS
  0
BLOCK
  5
20
330
1F
100
AcDbEntity
  8
0
100
AcDbBlockBegin
  2
*Model_Space
 70
     0
 10
0.0
 20
0.0
 30
0.0
  3
*Model_Space
  1

  0
ENDBLK
  5
21
330
1F
100
AcDbEntity
  8
0
100
AcDbBlockEnd
  0
BLOCK
  5
1C
330
1B
100
AcDbEntity
 67
     1
  8
0
100
AcDbBlockBegin
  2
*Paper_Space
 70
     0
 10
0.0
 20
0.0
 30
0.0
  3
*Paper_Space
  1

  0
ENDBLK
  5
1D
330
1B
100
AcDbEntity
 67
     1
  8
0
100
AcDbBlockEnd
  0
BLOCK
  5
24
330
23
100
AcDbEntity
  8
0
100
AcDbBlockBegin
  2
*Paper_Space0
 70
     0
 10
0.0
 20
0.0
 30
0.0
  3
*Paper_Space0
  1

  0
ENDBLK
  5
25
330
23
100
AcDbEntity
  8
0
100
AcDbBlockEnd
  0
ENDSEC
  0
SECTION
  2
ENTITIES
  0
LINE
  5
58
330
1F
100
AcDbEntity
  8
F-0_補助線
  6
JWW_HOJO
 62
   120
370
     5
100
AcDbLine
 10
-6300.0
 20
-4455.0
 30
0.0
 11
-6300.0
 21
4424.999604096284
 31
0.0
  0
LINE
  5
59
330
1F
100
AcDbEntity
  8
F-0_補助線
  6
JWW_HOJO
 62
   120
370
     5
100
AcDbLine
 10
5999.999010240709
 20
4424.999604096284
 30
0.0
 11
5999.999010240709
 21
-4455.0
 31
0.0
  0
LINE
  5
5A
330
1F
100
AcDbEntity
  8
F-0_補助線
  6
JWW_HOJO
 62
   120
370
     5
100
AcDbLine
 10
5999.999010240709
 20
-4455.0
 30
0.0
 11
-6300.0
 21
-4455.0
 31
0.0
  0
LINE
  5
5B
330
1F
100
AcDbEntity
  8
F-1_枠
  6
JWW_HOJO
 62
   120
370
     5
100
AcDbLine
 10
-6300.0
 20
4424.999604096284
 30
0.0
 11
5999.999010240709
 21
4424.999604096284
 31
0.0
  0
LINE
  5
5C
330
1F
100
AcDbEntity
  8
F-1_枠
  6
Continuous
 62
   200
370
    20
100
AcDbLine
 10
-5999.999752560175
 20
4164.999983504013
 30
0.0
 11
5699.998762800888
 21
4164.999983504013
 31
0.0
  0
LINE
  5
5D
330
1F
100
AcDbEntity
  8
F-1_枠
  6
Continuous
 62
   200
370
    20
100
AcDbLine
 10
-5999.999752560175
 20
4169.999505120355
 30
0.0
 11
5699.998762800888
 21
4169.999505120355
 31
0.0
  0
LINE
  5
5E
330
1F
100
AcDbEntity
  8
F-1_枠
  6
Continuous
 62
   200
370
    20
100
AcDbLine
 10
-5999.999984535007
 20
4174.999769056166
 30
0.0
 11
-5999.999984535007
 21
-4205.000164959882
 31
0.0
  0
LINE
  5
5F
330
1F
100
AcDbEntity
  8
F-1_枠
  6
Continuous
 62
   200
370
    20
100
AcDbLine
 10
-5999.999984535007
 20
4174.999769056166
 30
0.0
 11
5699.998762800888
 21
4174.999769056166
 31
0.0
  0
LINE
  5
60
330
1F
100
AcDbEntity
  8
F-1_枠
  6
Continuous
 62
   200
370
    20
100
AcDbLine
 10
-5994.999975771516
 20
4174.999769056166
 30
0.0
 11
-5994.999975771516
 21
-4205.000164959882
 31
0.0
  0
LINE
  5
61
330
1F
100
AcDbEntity
  8
F-1_枠
  6
Continuous
 62
   200
370
    20
100
AcDbLine
 10
-5989.999990205508
 20
4174.999769056166
 30
0.0
 11
-5989.999990205508
 21
-4205.000164959882
 31
0.0
  0
LINE
  5
62
330
1F
100
AcDbEntity
  8
F-1_枠
  6
Continuous
 62
   200
370
    20
100
AcDbLine
 10
5689.998977248734
 20
4174.999769056166
 30
0.0
 11
5689.998977248734
 21
-4205.000164959882
 31
0.0
  0
LINE
  5
63
330
1F
100
AcDbEntity
  8
F-1_枠
  6
Continuous
 62
   200
370
    20
100
AcDbLine
 10
5694.998498865075
 20
4174.999769056166
 30
0.0
 11
5694.998498865075
 21
-4205.000164959882
 31
0.0
  0
LINE
  5
64
330
1F
100
AcDbEntity
  8
F-1_枠
  6
Continuous
 62
   200
370
    20
100
AcDbLine
 10
5699.998762800888
 20
4174.999769056166
 30
0.0
 11
5699.998762800888
 21
-4205.000164959882
 31
0.0
  0
LINE
  5
65
330
1F
100
AcDbEntity
  8
F-0_補助線
  6
JWW_HOJO
 62
     7
370
     9
100
AcDbLine
 10
849.999587600297
 20
-3795.000165475381
 30
0.0
 11
849.999587600297
 21
-4195.000170630377
 31
0.0
  0
LINE
  5
66
330
1F
100
AcDbEntity
  8
F-0_補助線
  6
JWW_HOJO
 62
     7
370
     9
100
AcDbLine
 10
349.9999175200594
 20
-3795.000165475381
 30
0.0
 11
349.9999175200594
 21
-4195.000170630377
 31
0.0
  0
LINE
  5
67
330
1F
100
AcDbEntity
  8
F-1_枠
  6
Continuous
 62
   200
370
    20
100
AcDbLine
 10
5699.998762800888
 20
-4205.000164959882
 30
0.0
 11
-5999.999752560175
 21
-4205.000164959882
 31
0.0
  0
LINE
  5
68
330
1F
100
AcDbEntity
  8
F-1_枠
  6
Continuous
 62
   200
370
    20
100
AcDbLine
 10
5699.998762800888
 20
-4200.000156196389
 30
0.0
 11
-5999.999752560175
 21
-4200.000156196389
 31
0.0
  0
LINE
  5
69
330
1F
100
AcDbEntity
  8
F-1_枠
  6
Continuous
 62
   200
370
    20
100
AcDbLine
 10
5699.998762800888
 20
-4195.000170630377
 30
0.0
 11
-5999.999752560175
 21
-4195.000170630377
 31
0.0
  0
LINE
  5
6A
330
1F
100
AcDbEntity
  8
F-1_枠
  6
Continuous
 62
   200
370
    20
100
AcDbLine
 10
4189.999224688556
 20
-3795.000165475381
 30
0.0
 11
4189.999224688556
 21
-4195.000170630377
 31
0.0
  0
LINE
  5
6B
330
1F
100
AcDbEntity
  8
F-1_枠
  6
Continuous
 62
   200
370
    20
100
AcDbLine
 10
2689.998729808913
 20
-3795.000165475381
 30
0.0
 11
2689.998729808913
 21
-4195.000170630377
 31
0.0
  0
LINE
  5
6C
330
1F
100
AcDbEntity
  8
F-1_枠
  6
Continuous
 62
   200
370
    20
100
AcDbLine
 10
-150.0001237199126
 20
-3795.000165475381
 30
0.0
 11
-150.0001237199126
 21
-4195.000170630377
 31
0.0
  0
LINE
  5
6D
330
1F
100
AcDbEntity
  8
F-1_枠
  6
Continuous
 62
   200
370
    20
100
AcDbLine
 10
-150.0001237199126
 20
-3995.00009846043
 30
0.0
 11
5689.998977248734
 21
-3995.005526671539
 31
0.0
  0
LINE
  5
6E
330
1F
100
AcDbEntity
  8
F-0_補助線
  6
JWW_HOJO
 62
     7
370
     9
100
AcDbLine
 10
-5989.999990205508
 20
-3995.000098460775
 30
0.0
 11
-150.0001237199126
 21
-3995.000098460775
 31
0.0
  0
LINE
  5
6F
330
1F
100
AcDbEntity
  8
F-0_補助線
  6
JWW_HOJO
 62
     7
370
     9
100
AcDbLine
 10
-5989.999990205508
 20
-3905.000098460775
 30
0.0
 11
-150.0001237199126
 21
-3905.000098460775
 31
0.0
  0
LINE
  5
70
330
1F
100
AcDbEntity
  8
F-0_補助線
  6
JWW_HOJO
 62
     7
370
     9
100
AcDbLine
 10
-5989.999990205508
 20
-4085.000098460775
 30
0.0
 11
-150.0001237199126
 21
-4085.000098460775
 31
0.0
  0
LINE
  5
71
330
1F
100
AcDbEntity
  8
F-0_補助線
  6
JWW_HOJO
 62
     7
370
     9
100
AcDbLine
 10
-150.0002584955405
 20
-4139.999902160367
 30
0.0
 11
5689.998842473104
 21
-4140.005330371476
 31
0.0
  0
LINE
  5
72
330
1F
100
AcDbEntity
  8
F-0_補助線
  6
JWW_HOJO
 62
     7
370
     9
100
AcDbLine
 10
-150.0001748415889
 20
-4049.999902160406
 30
0.0
 11
5689.998926127055
 21
-4050.005330371515
 31
0.0
  0
LINE
  5
73
330
1F
100
AcDbEntity
  8
F-0_補助線
  6
JWW_HOJO
 62
     7
370
     9
100
AcDbLine
 10
-150.000072597868
 20
-3939.999899600454
 30
0.0
 11
5689.999028370776
 21
-3940.005327811563
 31
0.0
  0
LINE
  5
74
330
1F
100
AcDbEntity
  8
F-0_補助線
  6
JWW_HOJO
 62
     7
370
     9
100
AcDbLine
 10
-149.9999889439164
 20
-3849.999899600493
 30
0.0
 11
5689.999112024727
 21
-3850.005327811602
 31
0.0
  0
LINE
  5
75
330
1F
100
AcDbEntity
  8
F-0_補助線
  6
JWW_HOJO
 62
     7
370
     9
100
AcDbLine
 10
2779.998729808913
 20
-3795.000165475381
 30
0.0
 11
2779.998729808913
 21
-4195.000170630377
 31
0.0
  0
LINE
  5
76
330
1F
100
AcDbEntity
  8
F-0_補助線
  6
JWW_HOJO
 62
     7
370
     9
100
AcDbLine
 10
-60.00012371991261
 20
-3795.000165475381
 30
0.0
 11
-60.00012371991261
 21
-4195.000170630377
 31
0.0
  0
LINE
  5
77
330
1F
100
AcDbEntity
  8
F-0_補助線
  6
JWW_HOJO
 62
     7
370
     9
100
AcDbLine
 10
4279.999224688556
 20
-3795.000165475381
 30
0.0
 11
4279.999224688556
 21
-4195.000170630377
 31
0.0
  0
MTEXT
  5
78
330
1F
100
AcDbEntity
  8
F-A_文字
  6
Continuous
 62
     7
370
     0
100
AcDbMText
 10
4279.999224688556
 20
-3887.144017233137
 30
0.0
 40
45.72
 41
240.0
 46
0.0
 71
     7
 72
     1
  1
{\fＭＳ ゴシック|b0|i0|c128|p49;ＤＡＴＥ}
 73
     1
 44
1.0
  0
MTEXT
  5
79
330
1F
100
AcDbEntity
  8
F-A_文字
  6
Continuous
 62
     7
370
     0
100
AcDbMText
 10
4279.999224688556
 20
-4087.144019793223
 30
0.0
 40
45.72
 41
180.0
 46
0.0
 71
     7
 72
     1
  1
{\fＭＳ ゴシック|b0|i0|c128|p49;ＮＯ．}
 73
     1
 44
1.0
  0
MTEXT
  5
7A
330
1F
100
AcDbEntity
  8
F-A_文字
  6
Continuous
 62
     7
370
     0
100
AcDbMText
 10
2779.998729808913
 20
-3887.142623000158
 30
0.0
 40
45.72
 41
300.0
 46
0.0
 71
     7
 72
     1
  1
{\fＭＳ ゴシック|b0|i0|c128|p49;ＳＣＡＬＥ}
 73
     1
 44
1.0
  0
MTEXT
  5
7B
330
1F
100
AcDbEntity
  8
F-A_文字
  6
Continuous
 62
     7
370
     0
100
AcDbMText
 10
2779.998729808913
 20
-4087.142625560244
 30
0.0
 40
45.72
 41
240.0
 46
0.0
 71
     7
 72
     1
  1
{\fＭＳ ゴシック|b0|i0|c128|p49;ＦＩＬＥ}
 73
     1
 44
1.0
  0
MTEXT
  5
7C
330
1F
100
AcDbEntity
  8
F-A_文字
  6
Continuous
 62
     7
370
     0
100
AcDbMText
 10
-60.00012371991261
 20
-3887.139983254319
 30
0.0
 40
45.72
 41
180.0
 46
0.0
 71
     7
 72
     1
  1
{\fＭＳ ゴシック|b0|i0|c128|p49;図面名}
 73
     1
 44
1.0
  0
MTEXT
  5
7D
330
1F
100
AcDbEntity
  8
F-A_文字
  6
Continuous
 62
     7
370
     0
100
AcDbMText
 10
1444.998729808913
 20
-4164.281916906312
 30
0.0
 40
101.44125
 41
1065.0
 46
0.0
 71
     7
 72
     1
  1
{\fＭＳ ゴシック|b0|i0|c128|p49;ウッドワン・・・}
 73
     1
 44
1.0
  0
MTEXT
  5
7E
330
1F
100
AcDbEntity
  8
F-A_文字
  6
Continuous
 62
     7
370
     0
100
AcDbMText
 10
1234.998729808913
 20
-4096.140831648532
 30
0.0
 40
45.72
 41
120.0
 46
0.0
 71
     7
 72
     1
  1
{\fＭＳ ゴシック|b0|i0|c128|p49;株式}
 73
     1
 44
1.0
  0
MTEXT
  5
7F
330
1F
100
AcDbEntity
  8
F-A_文字
  6
Continuous
 62
     7
370
     0
100
AcDbMText
 10
1234.998729808913
 20
-4168.140831648571
 30
0.0
 40
45.72
 41
120.0
 46
0.0
 71
     7
 72
     1
  1
{\fＭＳ ゴシック|b0|i0|c128|p49;会社}
 73
     1
 44
1.0
  0
LINE
  5
80
330
1F
100
AcDbEntity
  8
F-1_枠
  6
Continuous
 62
   200
370
    20
100
AcDbLine
 10
5699.998762800888
 20
-3795.000165475381
 30
0.0
 11
-5999.999752560175
 21
-3795.000165475381
 31
0.0
  0
LINE
  5
81
330
1F
100
AcDbEntity
  8
F-1_枠
  6
Continuous
 62
   200
370
    20
100
AcDbLine
 10
5699.998762800888
 20
-3790.000179909372
 30
0.0
 11
-5999.999752560175
 21
-3790.000179909372
 31
0.0
  0
LINE
  5
82
330
1F
100
AcDbEntity
  8
F-0_補助線
  6
JWW_HOJO
 62
     7
370
     9
100
AcDbLine
 10
-5247.547376752836
 20
-3795.000165475382
 30
0.0
 11
-5247.547376752836
 21
-4205.000327342266
 31
0.0
  0
LINE
  5
83
330
1F
100
AcDbEntity
  8
F-0_補助線
  6
JWW_HOJO
 62
     7
370
     9
100
AcDbLine
 10
-210.0001237199126
 20
-3795.000165475381
 30
0.0
 11
-210.0001237199126
 21
-4195.000170630377
 31
0.0
  0
MTEXT
  5
84
330
1F
100
AcDbEntity
  8
F-A_文字
  6
Continuous
 62
     7
370
     0
100
AcDbMText
 10
5608.403311109712
 20
-4314.841581403302
 30
0.0
 40
68.58
 41
90.0
 46
0.0
 71
     7
 72
     1
  1
{\fＭＳ ゴシック|b0|i0|c128|p49;）}
 73
     1
 44
1.0
  0
MTEXT
  5
85
330
1F
100
AcDbEntity
  8
F-A_文字
  6
Continuous
 62
     7
370
     0
100
AcDbMText
 10
5190.195950842071
 20
-4316.23560625224
 30
0.0
 40
68.58
 41
45.0
 46
0.0
 71
     7
 72
     1
  1
{\fＭＳ ゴシック|b0|i0|c128|p49;,}
 73
     1
 44
1.0
  0
MTEXT
  5
86
330
1F
100
AcDbEntity
  8
F-A_文字
  6
Continuous
 62
     7
370
     0
100
AcDbMText
 10
4923.937261915373
 20
-4314.772129670666
 30
0.0
 40
74.295
 41
97.5
 46
0.0
 71
     7
 72
     1
  1
{\fＭＳ ゴシック|b0|i0|c128|p49;$y}
 73
     1
 44
1.0
  0
MTEXT
  5
87
330
1F
100
AcDbEntity
  8
F-A_文字
  6
Continuous
 62
     7
370
     0
100
AcDbMText
 10
5078.673982954195
 20
-4314.772129670666
 30
0.0
 40
74.295
 41
97.5
 46
0.0
 71
     7
 72
     1
  1
{\fＭＳ ゴシック|b0|i0|c128|p49;$m}
 73
     1
 44
1.0
  0
MTEXT
  5
88
330
1F
100
AcDbEntity
  8
F-A_文字
  6
Continuous
 62
     7
370
     0
100
AcDbMText
 10
5233.410715437103
 20
-4314.772129670666
 30
0.0
 40
74.295
 41
97.5
 46
0.0
 71
     7
 72
     1
  1
{\fＭＳ ゴシック|b0|i0|c128|p49;$d}
 73
     1
 44
1.0
  0
MTEXT
  5
89
330
1F
100
AcDbEntity
  8
F-A_文字
  6
Continuous
 62
     7
370
     0
100
AcDbMText
 10
5388.147447920011
 20
-4314.772129670666
 30
0.0
 40
74.295
 41
195.0
 46
0.0
 71
     7
 72
     1
  1
{\fＭＳ ゴシック|b0|i0|c128|p49;印刷}
 73
     1
 44
1.0
  0
MTEXT
  5
8A
330
1F
100
AcDbEntity
  8
F-A_文字
  6
Continuous
 62
     7
370
     0
100
AcDbMText
 10
4784.033374252999
 20
-4319.023655950115
 30
0.0
 40
68.58
 41
90.0
 46
0.0
 71
     7
 72
     1
  1
{\fＭＳ ゴシック|b0|i0|c128|p49;（}
 73
     1
 44
1.0
  0
MTEXT
  5
8B
330
1F
100
AcDbEntity
  8
F-A_文字
  6
Continuous
 62
     7
370
     0
100
AcDbMText
 10
5031.277143812345
 20
-4319.023655950115
 30
0.0
 40
68.58
 41
45.0
 46
0.0
 71
     7
 72
     1
  1
{\fＭＳ ゴシック|b0|i0|c128|p49;,}
 73
     1
 44
1.0
  0
LINE
  5
8C
330
1F
100
AcDbEntity
  8
F-0_補助線
  6
Continuous
 62
   200
370
    20
100
AcDbLine
 10
3561.017955216862
 20
4174.999769056165
 30
0.0
 11
3561.017955216862
 21
-3795.000003092998
 31
0.0
  0
MTEXT
  5
8D
330
1F
100
AcDbEntity
  8
F-1_枠
  6
Continuous
 62
     7
370
     0
100
AcDbMText
 10
349.9999175200594
 20
-3946.496829254887
 30
0.0
 40
78.58125
 41
412.5
 46
0.0
 71
     7
 72
     1
  1
{\fＭＳ ゴシック|b0|i0|c128|p49;DOORETUS}
 73
     1
 44
1.0
  0
MTEXT
  5
8E
330
1F
100
AcDbEntity
  8
F-1_枠
  6
Continuous
 62
     7
370
     0
100
AcDbMText
 10
950.2907610420846
 20
-3946.734954254888
 30
0.0
 40
78.105
 41
615.0
 46
0.0
 71
     7
 72
     1
  1
{\fＭＳ ゴシック|b0|i0|c128|p49;建具納まり図}
 73
     1
 44
1.0
  0
LINE
  5
8F
330
1F
100
AcDbEntity
  8
F-0_補助線
  6
JWW_HOJO
 62
     7
370
     9
100
AcDbLine
 10
3604.998977248734
 20
-3795.000165475381
 30
0.0
 11
3604.998977248734
 21
-4195.000170630377
 31
0.0
  0
MTEXT
  5
90
330
1F
100
AcDbEntity
  8
F-A_文字
  6
Continuous
 62
     7
370
     0
100
AcDbMText
 10
3529.998977248734
 20
-3946.903278289692
 30
0.0
 40
76.19999999999999
 41
150.0
 46
0.0
 71
     7
 72
     1
  1
{\fＭＳ ゴシック|b0|i0|c128|p49;1/5}
 73
     1
 44
1.0
  0
LINE
  5
91
330
1F
100
AcDbEntity
  8
0-B_寸法
  6
Continuous
 62
   200
370
    20
100
AcDbLine
 10
3561.017955216862
 20
3832.641856629238
 30
0.0
 11
5694.998498865079
 21
3832.641856629238
 31
0.0
  0
MTEXT
  5
92
330
1F
100
AcDbEntity
  8
1-A_文字
  6
Continuous
 62
     7
370
     9
100
AcDbMText
 10
3688.008466232798
 20
3895.055765714996
 30
0.0
 40
79.375
 41
1875.0
 46
0.0
 71
     7
 72
     1
  1
{\fＭＳ ゴシック|b0|i0|c128|p49;寸法を参考に加工をお願いいたします。}
 73
     1
 44
1.0
  0
MTEXT
  5
93
330
1F
100
AcDbEntity
  8
1-A_文字
  6
Continuous
 62
     7
370
     9
100
AcDbMText
 10
3688.008466232798
 20
4017.440084582498
 30
0.0
 40
79.2725806451613
 41
1612.5
 46
0.0
 71
     7
 72
     1
  1
{\fＭＳ ゴシック|b0|i0|c128|p49;※縦枠はＨ2,047あります。下記の}
 73
     1
 44
1.0
  0
LWPOLYLINE
  5
94
330
1F
100
AcDbEntity
  8
0-B_寸法
  6
Continuous
 62
     7
370
     9
100
AcDbPolyline
 90
        4
 70
     1
 43
3.0
 10
2080.79857011568
 20
-3677.7905861888
 42
0.4142135623731
 10
2079.29857011568
 20
-3676.290586188801
 42
0.4142135623731
 10
2077.79857011568
 20
-3677.7905861888
 42
0.4142135623731
 10
2079.29857011568
 20
-3679.2905861888
 42
0.4142135623731
  0
LINE
  5
95
330
1F
100
AcDbEntity
  8
0-B_寸法
  6
Continuous
 62
   120
370
     5
100
AcDbLine
 10
2079.29857011568
 20
-3677.7905861888
 30
0.0
 11
2079.29857011568
 21
-3554.017204137593
 31
0.0
  0
LWPOLYLINE
  5
96
330
1F
100
AcDbEntity
  8
0-B_寸法
  6
Continuous
 62
     7
370
     9
100
AcDbPolyline
 90
        4
 70
     1
 43
3.0
 10
-240.1493064596275
 20
-3677.7905861888
 42
0.4142135623731
 10
-241.6493064596276
 20
-3676.290586188801
 42
0.4142135623731
 10
-243.1493064596276
 20
-3677.7905861888
 42
0.4142135623731
 10
-241.6493064596276
 20
-3679.2905861888
 42
0.4142135623731
  0
LINE
  5
97
330
1F
100
AcDbEntity
  8
0-B_寸法
  6
Continuous
 62
   120
370
     5
100
AcDbLine
 10
-241.6493064596276
 20
-3677.7905861888
 30
0.0
 11
-241.6493064596276
 21
-3554.017204137593
 31
0.0
  0
LINE
  5
98
330
1F
100
AcDbEntity
  8
0-B_寸法
  6
Continuous
 62
   120
370
     5
100
AcDbLine
 10
-241.6493064596276
 20
-3677.7905861888
 30
0.0
 11
2079.29857011568
 21
-3677.7905861888
 31
0.0
  0
LWPOLYLINE
  5
99
330
1F
100
AcDbEntity
  8
0-B_寸法
  6
Continuous
 62
     7
370
     9
100
AcDbPolyline
 90
        4
 70
     1
 43
3.0
 10
-408.1493064596112
 20
-3677.7905861888
 42
0.4142135623731
 10
-409.6493064596112
 20
-3676.290586188801
 42
0.4142135623731
 10
-411.1493064596112
 20
-3677.7905861888
 42
0.4142135623731
 10
-409.6493064596112
 20
-3679.2905861888
 42
0.4142135623731
  0
LINE
  5
9A
330
1F
100
AcDbEntity
  8
0-B_寸法
  6
Continuous
 62
   120
370
     5
100
AcDbLine
 10
-409.6493064596112
 20
-3677.7905861888
 30
0.0
 11
-409.6493064596112
 21
-3554.017204137593
 31
0.0
  0
LINE
  5
9B
330
1F
100
AcDbEntity
  8
0-B_寸法
  6
Continuous
 62
   120
370
     5
100
AcDbLine
 10
-409.6493064596112
 20
-3677.7905861888
 30
0.0
 11
-241.6493064596276
 21
-3677.7905861888
 31
0.0
  0
MTEXT
  5
9C
330
1F
100
AcDbEntity
  8
0-B_寸法
  6
Continuous
 62
     7
370
   211
100
AcDbMText
 10
-374.3993064596194
 20
-3670.6430861888
 30
0.0
 40
74.295
 41
97.5
 46
0.0
 71
     7
 72
     1
  1
{\fＭＳ ゴシック|b0|i0|c128|p49;28}
 73
     1
 44
1.0
  0
LINE
  5
9D
330
1F
100
AcDbEntity
  8
0-B_寸法
  6
Continuous
 62
   120
370
     5
100
AcDbLine
 10
-799.6493064596111
 20
-3677.7905861888
 30
0.0
 11
-619.6493064596111
 21
-3677.7905861888
 31
0.0
  0
LWPOLYLINE
  5
9E
330
1F
100
AcDbEntity
  8
0-B_寸法
  6
Continuous
 62
     7
370
     9
100
AcDbPolyline
 90
        4
 70
     1
 43
3.0
 10
-798.1493064596111
 20
-3677.7905861888
 42
0.4142135623731
 10
-799.6493064596111
 20
-3676.290586188801
 42
0.4142135623731
 10
-801.1493064596112
 20
-3677.7905861888
 42
0.4142135623731
 10
-799.6493064596111
 20
-3679.2905861888
 42
0.4142135623731
  0
LWPOLYLINE
  5
9F
330
1F
100
AcDbEntity
  8
0-B_寸法
  6
Continuous
 62
     7
370
     9
100
AcDbPolyline
 90
        4
 70
     1
 43
3.0
 10
-618.1493064596111
 20
-3677.7905861888
 42
0.4142135623731
 10
-619.6493064596111
 20
-3676.290586188801
 42
0.4142135623731
 10
-621.1493064596112
 20
-3677.7905861888
 42
0.4142135623731
 10
-619.6493064596111
 20
-3679.2905861888
 42
0.4142135623731
  0
LINE
  5
A0
330
1F
100
AcDbEntity
  8
0-B_寸法
  6
Continuous
 62
   120
370
     5
100
AcDbLine
 10
-799.6493064596111
 20
-3677.7905861888
 30
0.0
 11
-799.6493064596111
 21
-3554.017204137593
 31
0.0
  0
LINE
  5
A1
330
1F
100
AcDbEntity
  8
0-B_寸法
  6
Continuous
 62
   120
370
     5
100
AcDbLine
 10
-619.6493064596111
 20
-3677.7905861888
 30
0.0
 11
-619.6493064596111
 21
-3554.017204137593
 31
0.0
  0
MTEXT
  5
A2
330
1F
100
AcDbEntity
  8
0-B_寸法
  6
Continuous
 62
     7
370
   211
100
AcDbMText
 10
-758.3993064596111
 20
-3670.6430861888
 30
0.0
 40
74.295
 41
97.5
 46
0.0
 71
     7
 72
     1
  1
{\fＭＳ ゴシック|b0|i0|c128|p49;30}
 73
     1
 44
1.0
  0
LINE
  5
A3
330
1F
100
AcDbEntity
  8
0-B_寸法
  6
Continuous
 62
   120
370
     5
100
AcDbLine
 10
-619.6493064596111
 20
-3677.7905861888
 30
0.0
 11
-409.6493064596112
 21
-3677.7905861888
 31
0.0
  0
MTEXT
  5
A4
330
1F
100
AcDbEntity
  8
0-B_寸法
  6
Continuous
 62
     7
370
   211
100
AcDbMText
 10
-563.3993064596111
 20
-3670.6430861888
 30
0.0
 40
74.295
 41
97.5
 46
0.0
 71
     7
 72
     1
  1
{\fＭＳ ゴシック|b0|i0|c128|p49;35}
 73
     1
 44
1.0
  0
LWPOLYLINE
  5
A5
330
1F
100
AcDbEntity
  8
0-B_寸法
  6
Continuous
 62
     7
370
     9
100
AcDbPolyline
 90
        4
 70
     1
 43
3.0
 10
-3954.18926754228
 20
-3392.785432060151
 42
0.4142135623731
 10
-3955.68926754228
 20
-3391.285432060151
 42
0.4142135623731
 10
-3957.18926754228
 20
-3392.785432060151
 42
0.4142135623731
 10
-3955.68926754228
 20
-3394.285432060151
 42
0.4142135623731
  0
LINE
  5
A6
330
1F
100
AcDbEntity
  8
0-B_寸法
  6
Continuous
 62
   120
370
     5
100
AcDbLine
 10
-3955.68926754228
 20
-3392.785432060151
 30
0.0
 11
-3742.28688469537
 21
-3392.785432060151
 31
0.0
  0
LWPOLYLINE
  5
A7
330
1F
100
AcDbEntity
  8
0-B_寸法
  6
Continuous
 62
     7
370
     9
100
AcDbPolyline
 90
        4
 70
     1
 43
3.0
 10
-3954.18926754228
 20
-563.7854320601546
 42
0.4142135623731
 10
-3955.68926754228
 20
-562.2854320601544
 42
0.4142135623731
 10
-3957.18926754228
 20
-563.7854320601546
 42
0.4142135623731
 10
-3955.68926754228
 20
-565.2854320601546
 42
0.4142135623731
  0
LINE
  5
A8
330
1F
100
AcDbEntity
  8
0-B_寸法
  6
Continuous
 62
   120
370
     5
100
AcDbLine
 10
-3955.68926754228
 20
-563.7854320601546
 30
0.0
 11
-3955.68926754228
 21
-491.7854320601518
 31
0.0
  0
LWPOLYLINE
  5
A9
330
1F
100
AcDbEntity
  8
0-B_寸法
  6
Continuous
 62
     7
370
     9
100
AcDbPolyline
 90
        4
 70
     1
 43
3.0
 10
-3954.18926754228
 20
-491.7854320601518
 42
0.4142135623731
 10
-3955.68926754228
 20
-490.2854320601518
 42
0.4142135623731
 10
-3957.18926754228
 20
-491.7854320601518
 42
0.4142135623731
 10
-3955.68926754228
 20
-493.2854320601518
 42
0.4142135623731
  0
LINE
  5
AA
330
1F
100
AcDbEntity
  8
0-B_寸法
  6
Continuous
 62
   120
370
     5
100
AcDbLine
 10
-3955.68926754228
 20
-491.7854320601518
 30
0.0
 11
-3742.28688469537
 21
-491.7854320601518
 31
0.0
  0
LINE
  5
AB
330
1F
100
AcDbEntity
  8
0-B_寸法
  6
Continuous
 62
   120
370
     5
100
AcDbLine
 10
-3955.68926754228
 20
-3392.785432060151
 30
0.0
 11
-3955.68926754228
 21
-563.7854320601546
 31
0.0
  0
LINE
  5
AC
330
1F
100
AcDbEntity
  8
0-B_寸法
  6
Continuous
 62
   120
370
     5
100
AcDbLine
 10
-4131.252067947021
 20
27.21456793984856
 30
0.0
 11
-4131.252067947021
 21
-416.7854320601518
 31
0.0
  0
LWPOLYLINE
  5
AD
330
1F
100
AcDbEntity
  8
0-B_寸法
  6
Continuous
 62
     7
370
     9
100
AcDbPolyline
 90
        4
 70
     1
 43
3.0
 10
-4129.75206794702
 20
27.21456793984856
 42
0.4142135623731
 10
-4131.252067947021
 20
28.71456793984856
 42
0.4142135623731
 10
-4132.752067947021
 20
27.21456793984856
 42
0.4142135623731
 10
-4131.252067947021
 20
25.71456793984856
 42
0.4142135623731
  0
LWPOLYLINE
  5
AE
330
1F
100
AcDbEntity
  8
0-B_寸法
  6
Continuous
 62
     7
370
     9
100
AcDbPolyline
 90
        4
 70
     1
 43
3.0
 10
-4129.75206794702
 20
-416.7854320601518
 42
0.4142135623731
 10
-4131.252067947021
 20
-415.2854320601518
 42
0.4142135623731
 10
-4132.752067947021
 20
-416.7854320601518
 42
0.4142135623731
 10
-4131.252067947021
 20
-418.2854320601518
 42
0.4142135623731
  0
LINE
  5
AF
330
1F
100
AcDbEntity
  8
0-B_寸法
  6
Continuous
 62
   120
370
     5
100
AcDbLine
 10
-4131.252067947021
 20
-416.7854320601518
 30
0.0
 11
-4131.252067947021
 21
-491.7854320601518
 31
0.0
  0
LWPOLYLINE
  5
B0
330
1F
100
AcDbEntity
  8
0-B_寸法
  6
Continuous
 62
     7
370
     9
100
AcDbPolyline
 90
        4
 70
     1
 43
3.0
 10
-4129.75206794702
 20
-491.7854320601518
 42
0.4142135623731
 10
-4131.252067947021
 20
-490.2854320601518
 42
0.4142135623731
 10
-4132.752067947021
 20
-491.7854320601518
 42
0.4142135623731
 10
-4131.252067947021
 20
-493.2854320601518
 42
0.4142135623731
  0
LINE
  5
B1
330
1F
100
AcDbEntity
  8
0-B_寸法
  6
Continuous
 62
   120
370
     5
100
AcDbLine
 10
-4131.252067947021
 20
-491.7854320601518
 30
0.0
 11
-3955.68926754228
 21
-491.7854320601518
 31
0.0
  0
LINE
  5
B2
330
1F
100
AcDbEntity
  8
0-B_寸法
  6
Continuous
 62
   120
370
     5
100
AcDbLine
 10
-4131.252067947021
 20
-491.7854320601518
 30
0.0
 11
-4131.252067947021
 21
-3392.785432060151
 31
0.0
  0
LWPOLYLINE
  5
B3
330
1F
100
AcDbEntity
  8
0-B_寸法
  6
Continuous
 62
     7
370
     9
100
AcDbPolyline
 90
        4
 70
     1
 43
3.0
 10
-4129.75206794702
 20
-3392.785432060151
 42
0.4142135623731
 10
-4131.252067947021
 20
-3391.285432060151
 42
0.4142135623731
 10
-4132.752067947021
 20
-3392.785432060151
 42
0.4142135623731
 10
-4131.252067947021
 20
-3394.285432060151
 42
0.4142135623731
  0
LINE
  5
B4
330
1F
100
AcDbEntity
  8
0-B_寸法
  6
Continuous
 62
   120
370
     5
100
AcDbLine
 10
-4131.252067947021
 20
-3392.785432060151
 30
0.0
 11
-3955.68926754228
 21
-3392.785432060151
 31
0.0
  0
LINE
  5
B5
330
1F
100
AcDbEntity
  8
0-B_寸法
  6
Continuous
 62
   120
370
     5
100
AcDbLine
 10
-4131.252067947021
 20
-416.7854320601518
 30
0.0
 11
-3742.28688469537
 21
-416.7854320601518
 31
0.0
  0
LINE
  5
B6
330
1F
100
AcDbEntity
  8
0-B_寸法
  6
Continuous
 62
   120
370
     5
100
AcDbLine
 10
-4131.252067947021
 20
27.21456793984856
 30
0.0
 11
-3742.28688469537
 21
27.21456793984856
 31
0.0
  0
LINE
  5
B7
330
1F
100
AcDbEntity
  8
0-B_寸法
  6
Continuous
 62
   120
370
     5
100
AcDbLine
 10
-2126.559320600847
 20
-275.7856399096005
 30
0.0
 11
-2126.559320600847
 21
-305.7853627769992
 31
0.0
  0
LWPOLYLINE
  5
B8
330
1F
100
AcDbEntity
  8
0-B_寸法
  6
Continuous
 62
     7
370
     9
100
AcDbPolyline
 90
        4
 70
     1
 43
3.0
 10
-2125.059320600848
 20
-275.7856399096005
 42
0.4142135623731
 10
-2126.559320600847
 20
-274.2856399096005
 42
0.4142135623731
 10
-2128.059320600847
 20
-275.7856399096005
 42
0.4142135623731
 10
-2126.559320600847
 20
-277.2856399096005
 42
0.4142135623731
  0
LWPOLYLINE
  5
B9
330
1F
100
AcDbEntity
  8
0-B_寸法
  6
Continuous
 62
     7
370
     9
100
AcDbPolyline
 90
        4
 70
     1
 43
3.0
 10
-2125.059320600848
 20
-305.7853627769992
 42
0.4142135623731
 10
-2126.559320600847
 20
-304.2853627769992
 42
0.4142135623731
 10
-2128.059320600847
 20
-305.7853627769992
 42
0.4142135623731
 10
-2126.559320600847
 20
-307.2853627769992
 42
0.4142135623731
  0
LINE
  5
BA
330
1F
100
AcDbEntity
  8
0-B_寸法
  6
Continuous
 62
   120
370
     5
100
AcDbLine
 10
-2126.559320600847
 20
-275.7856399096005
 30
0.0
 11
-2290.423881503877
 21
-275.7856399096005
 31
0.0
  0
LINE
  5
BB
330
1F
100
AcDbEntity
  8
0-B_寸法
  6
Continuous
 62
   120
370
     5
100
AcDbLine
 10
-2126.559320600847
 20
-305.7853627769992
 30
0.0
 11
-2290.423881503877
 21
-305.7853627769992
 31
0.0
  0
LINE
  5
BC
330
1F
100
AcDbEntity
  8
0-B_寸法
  6
Continuous
 62
   120
370
     5
100
AcDbLine
 10
-2126.559320600847
 20
-305.7853627769992
 30
0.0
 11
-2126.559320600847
 21
-3341.785060900416
 31
0.0
  0
LWPOLYLINE
  5
BD
330
1F
100
AcDbEntity
  8
0-B_寸法
  6
Continuous
 62
     7
370
     9
100
AcDbPolyline
 90
        4
 70
     1
 43
3.0
 10
-2125.059320600848
 20
-3341.785060900416
 42
0.4142135623731
 10
-2126.559320600847
 20
-3340.285060900416
 42
0.4142135623731
 10
-2128.059320600847
 20
-3341.785060900416
 42
0.4142135623731
 10
-2126.559320600847
 20
-3343.285060900416
 42
0.4142135623731
  0
LINE
  5
BE
330
1F
100
AcDbEntity
  8
0-B_寸法
  6
Continuous
 62
   120
370
     5
100
AcDbLine
 10
-2126.559320600847
 20
-3341.785060900416
 30
0.0
 11
-2290.423881503877
 21
-3341.785060900416
 31
0.0
  0
LINE
  5
BF
330
1F
100
AcDbEntity
  8
0-B_寸法
  6
Continuous
 62
   120
370
     5
100
AcDbLine
 10
-2126.559320600847
 20
-3341.785060900416
 30
0.0
 11
-2126.559320600847
 21
-3392.785432060152
 31
0.0
  0
LWPOLYLINE
  5
C0
330
1F
100
AcDbEntity
  8
0-B_寸法
  6
Continuous
 62
     7
370
     9
100
AcDbPolyline
 90
        4
 70
     1
 43
3.0
 10
-2125.059320600848
 20
-3392.785432060152
 42
0.4142135623731
 10
-2126.559320600847
 20
-3391.285432060152
 42
0.4142135623731
 10
-2128.059320600847
 20
-3392.785432060152
 42
0.4142135623731
 10
-2126.559320600847
 20
-3394.285432060152
 42
0.4142135623731
  0
LINE
  5
C1
330
1F
100
AcDbEntity
  8
0-B_寸法
  6
Continuous
 62
   120
370
     5
100
AcDbLine
 10
-2126.559320600847
 20
-3392.785432060152
 30
0.0
 11
-2290.423881503877
 21
-3392.785432060152
 31
0.0
  0
LINE
  5
C2
330
1F
100
AcDbEntity
  8
0-B_寸法
  6
Continuous
 62
   120
370
     5
100
AcDbLine
 10
-1967.932196353804
 20
-5.785432060150413
 30
0.0
 11
-1967.932196353804
 21
-275.7856399096005
 31
0.0
  0
LWPOLYLINE
  5
C3
330
1F
100
AcDbEntity
  8
0-B_寸法
  6
Continuous
 62
     7
370
     9
100
AcDbPolyline
 90
        4
 70
     1
 43
3.0
 10
-1966.432196353805
 20
-5.785432060150413
 42
0.4142135623731
 10
-1967.932196353804
 20
-4.285432060150413
 42
0.4142135623731
 10
-1969.432196353804
 20
-5.785432060150413
 42
0.4142135623731
 10
-1967.932196353804
 20
-7.285432060150413
 42
0.4142135623731
  0
LWPOLYLINE
  5
C4
330
1F
100
AcDbEntity
  8
0-B_寸法
  6
Continuous
 62
     7
370
     9
100
AcDbPolyline
 90
        4
 70
     1
 43
3.0
 10
-1966.432196353805
 20
-275.7856399096005
 42
0.4142135623731
 10
-1967.932196353804
 20
-274.2856399096005
 42
0.4142135623731
 10
-1969.432196353804
 20
-275.7856399096005
 42
0.4142135623731
 10
-1967.932196353804
 20
-277.2856399096005
 42
0.4142135623731
  0
LINE
  5
C5
330
1F
100
AcDbEntity
  8
0-B_寸法
  6
Continuous
 62
   120
370
     5
100
AcDbLine
 10
-1967.932196353804
 20
-275.7856399096005
 30
0.0
 11
-2126.559320600847
 21
-275.7856399096005
 31
0.0
  0
LINE
  5
C6
330
1F
100
AcDbEntity
  8
0-B_寸法
  6
Continuous
 62
   120
370
     5
100
AcDbLine
 10
-1967.932196353804
 20
-275.7856399096005
 30
0.0
 11
-1967.932196353804
 21
-3392.785432060152
 31
0.0
  0
LWPOLYLINE
  5
C7
330
1F
100
AcDbEntity
  8
0-B_寸法
  6
Continuous
 62
     7
370
     9
100
AcDbPolyline
 90
        4
 70
     1
 43
3.0
 10
-1966.432196353805
 20
-3392.785432060152
 42
0.4142135623731
 10
-1967.932196353804
 20
-3391.285432060152
 42
0.4142135623731
 10
-1969.432196353804
 20
-3392.785432060152
 42
0.4142135623731
 10
-1967.932196353804
 20
-3394.285432060152
 42
0.4142135623731
  0
LINE
  5
C8
330
1F
100
AcDbEntity
  8
0-B_寸法
  6
Continuous
 62
   120
370
     5
100
AcDbLine
 10
-1967.932196353804
 20
-3392.785432060152
 30
0.0
 11
-2126.559320600847
 21
-3392.785432060152
 31
0.0
  0
LWPOLYLINE
  5
C9
330
1F
100
AcDbEntity
  8
0-B_寸法
  6
Continuous
 62
     7
370
     9
100
AcDbPolyline
 90
        4
 70
     1
 43
3.0
 10
-1966.432196353805
 20
27.21456793984856
 42
0.4142135623731
 10
-1967.932196353804
 20
28.71456793984856
 42
0.4142135623731
 10
-1969.432196353804
 20
27.21456793984856
 42
0.4142135623731
 10
-1967.932196353804
 20
25.71456793984856
 42
0.4142135623731
  0
LINE
  5
CA
330
1F
100
AcDbEntity
  8
0-B_寸法
  6
Continuous
 62
   120
370
     5
100
AcDbLine
 10
-1967.932196353804
 20
-5.785432060150413
 30
0.0
 11
-2290.423881503877
 21
-5.785432060150413
 31
0.0
  0
LINE
  5
CB
330
1F
100
AcDbEntity
  8
0-B_寸法
  6
Continuous
 62
   120
370
     5
100
AcDbLine
 10
-1967.932196353804
 20
27.21456793984856
 30
0.0
 11
-2290.423881503877
 21
27.21456793984856
 31
0.0
  0
LINE
  5
CC
330
1F
100
AcDbEntity
  8
0-B_寸法
  6
Continuous
 62
   120
370
     5
100
AcDbLine
 10
-1967.932196353804
 20
-5.785432060150413
 30
0.0
 11
-1967.932196353804
 21
200.3191882129022
 31
0.0
  0
LINE
  5
CD
330
1F
100
AcDbEntity
  8
0-B_寸法
  6
Continuous
 62
   120
370
     5
100
AcDbLine
 10
-1799.405928421137
 20
27.21456793984856
 30
0.0
 11
-1799.405928421137
 21
-3392.785432060151
 31
0.0
  0
LWPOLYLINE
  5
CE
330
1F
100
AcDbEntity
  8
0-B_寸法
  6
Continuous
 62
     7
370
     9
100
AcDbPolyline
 90
        4
 70
     1
 43
3.0
 10
-1797.905928421137
 20
27.21456793984856
 42
0.4142135623731
 10
-1799.405928421137
 20
28.71456793984856
 42
0.4142135623731
 10
-1800.905928421137
 20
27.21456793984856
 42
0.4142135623731
 10
-1799.405928421137
 20
25.71456793984856
 42
0.4142135623731
  0
LWPOLYLINE
  5
CF
330
1F
100
AcDbEntity
  8
0-B_寸法
  6
Continuous
 62
     7
370
     9
100
AcDbPolyline
 90
        4
 70
     1
 43
3.0
 10
-1797.905928421137
 20
-3392.785432060151
 42
0.4142135623731
 10
-1799.405928421137
 20
-3391.285432060151
 42
0.4142135623731
 10
-1800.905928421137
 20
-3392.785432060151
 42
0.4142135623731
 10
-1799.405928421137
 20
-3394.285432060151
 42
0.4142135623731
  0
LINE
  5
D0
330
1F
100
AcDbEntity
  8
0-B_寸法
  6
Continuous
 62
   120
370
     5
100
AcDbLine
 10
-1799.405928421137
 20
27.21456793984856
 30
0.0
 11
-1967.932196353804
 21
27.21456793984856
 31
0.0
  0
LINE
  5
D1
330
1F
100
AcDbEntity
  8
0-B_寸法
  6
Continuous
 62
   120
370
     5
100
AcDbLine
 10
-1799.405928421137
 20
-3392.785432060151
 30
0.0
 11
-1967.932196353804
 21
-3392.785432060151
 31
0.0
  0
LINE
  5
D2
330
1F
100
AcDbEntity
  8
0-B_寸法
  6
Continuous
 62
   120
370
     5
100
AcDbLine
 10
-2495.786940429495
 20
-347.7854320601506
 30
0.0
 11
-2495.786940429495
 21
-491.785432060156
 31
0.0
  0
LWPOLYLINE
  5
D3
330
1F
100
AcDbEntity
  8
0-B_寸法
  6
Continuous
 62
     7
370
     9
100
AcDbPolyline
 90
        4
 70
     1
 43
3.0
 10
-2494.286940429496
 20
-347.7854320601506
 42
0.4142135623731
 10
-2495.786940429495
 20
-346.2854320601506
 42
0.4142135623731
 10
-2497.286940429495
 20
-347.7854320601506
 42
0.4142135623731
 10
-2495.786940429495
 20
-349.2854320601506
 42
0.4142135623731
  0
LWPOLYLINE
  5
D4
330
1F
100
AcDbEntity
  8
0-B_寸法
  6
Continuous
 62
     7
370
     9
100
AcDbPolyline
 90
        4
 70
     1
 43
3.0
 10
-2494.286940429496
 20
-491.785432060156
 42
0.4142135623731
 10
-2495.786940429495
 20
-490.285432060156
 42
0.4142135623731
 10
-2497.286940429495
 20
-491.785432060156
 42
0.4142135623731
 10
-2495.786940429495
 20
-493.285432060156
 42
0.4142135623731
  0
LINE
  5
D5
330
1F
100
AcDbEntity
  8
0-B_寸法
  6
Continuous
 62
   120
370
     5
100
AcDbLine
 10
-2495.786940429495
 20
-491.785432060156
 30
0.0
 11
-2495.786940429495
 21
-563.7854320601546
 31
0.0
  0
LWPOLYLINE
  5
D6
330
1F
100
AcDbEntity
  8
0-B_寸法
  6
Continuous
 62
     7
370
     9
100
AcDbPolyline
 90
        4
 70
     1
 43
3.0
 10
-2494.286940429496
 20
-563.7854320601546
 42
0.4142135623731
 10
-2495.786940429495
 20
-562.2854320601544
 42
0.4142135623731
 10
-2497.286940429495
 20
-563.7854320601546
 42
0.4142135623731
 10
-2495.786940429495
 20
-565.2854320601546
 42
0.4142135623731
  0
LINE
  5
D7
330
1F
100
AcDbEntity
  8
0-B_寸法
  6
Continuous
 62
   120
370
     5
100
AcDbLine
 10
-2495.786940429495
 20
-347.7854320601506
 30
0.0
 11
-2749.299997653482
 21
-347.7854320601506
 31
0.0
  0
LINE
  5
D8
330
1F
100
AcDbEntity
  8
0-B_寸法
  6
Continuous
 62
   120
370
     5
100
AcDbLine
 10
-2495.786940429495
 20
-491.785432060156
 30
0.0
 11
-2749.299997653482
 21
-491.785432060156
 31
0.0
  0
LINE
  5
D9
330
1F
100
AcDbEntity
  8
0-B_寸法
  6
Continuous
 62
   120
370
     5
100
AcDbLine
 10
-2495.786940429495
 20
-563.7854320601546
 30
0.0
 11
-2749.299997653482
 21
-563.7854320601546
 31
0.0
  0
LINE
  5
DA
330
1F
100
AcDbEntity
  8
0-B_寸法
  6
Continuous
 62
   120
370
     5
100
AcDbLine
 10
-2318.122718307154
 20
-347.7854320601506
 30
0.0
 11
-2318.122718307154
 21
-563.7854320601546
 31
0.0
  0
LWPOLYLINE
  5
DB
330
1F
100
AcDbEntity
  8
0-B_寸法
  6
Continuous
 62
     7
370
     9
100
AcDbPolyline
 90
        4
 70
     1
 43
3.0
 10
-2316.622718307154
 20
-347.7854320601506
 42
0.4142135623731
 10
-2318.122718307154
 20
-346.2854320601506
 42
0.4142135623731
 10
-2319.622718307154
 20
-347.7854320601506
 42
0.4142135623731
 10
-2318.122718307154
 20
-349.2854320601506
 42
0.4142135623731
  0
LWPOLYLINE
  5
DC
330
1F
100
AcDbEntity
  8
0-B_寸法
  6
Continuous
 62
     7
370
     9
100
AcDbPolyline
 90
        4
 70
     1
 43
3.0
 10
-2316.622718307154
 20
-563.7854320601546
 42
0.4142135623731
 10
-2318.122718307154
 20
-562.2854320601544
 42
0.4142135623731
 10
-2319.622718307154
 20
-563.7854320601546
 42
0.4142135623731
 10
-2318.122718307154
 20
-565.2854320601546
 42
0.4142135623731
  0
LINE
  5
DD
330
1F
100
AcDbEntity
  8
0-B_寸法
  6
Continuous
 62
   120
370
     5
100
AcDbLine
 10
-2318.122718307154
 20
-347.7854320601506
 30
0.0
 11
-2495.786940429495
 21
-347.7854320601506
 31
0.0
  0
LINE
  5
DE
330
1F
100
AcDbEntity
  8
0-B_寸法
  6
Continuous
 62
   120
370
     5
100
AcDbLine
 10
-2318.122718307154
 20
-563.7854320601546
 30
0.0
 11
-2495.786940429495
 21
-563.7854320601546
 31
0.0
  0
LINE
  5
DF
330
1F
100
AcDbEntity
  8
0-B_寸法
  6
Continuous
 62
   120
370
     5
100
AcDbLine
 10
-2989.483009801445
 20
-730.4806961634631
 30
0.0
 11
-2899.483009801445
 21
-730.4806961634631
 31
0.0
  0
LWPOLYLINE
  5
E0
330
1F
100
AcDbEntity
  8
0-B_寸法
  6
Continuous
 62
     7
370
     9
100
AcDbPolyline
 90
        4
 70
     1
 43
3.0
 10
-2987.983009801445
 20
-730.4806961634631
 42
0.4142135623731
 10
-2989.483009801445
 20
-728.9806961634631
 42
0.4142135623731
 10
-2990.983009801445
 20
-730.4806961634631
 42
0.4142135623731
 10
-2989.483009801445
 20
-731.9806961634631
 42
0.4142135623731
  0
LWPOLYLINE
  5
E1
330
1F
100
AcDbEntity
  8
0-B_寸法
  6
Continuous
 62
     7
370
     9
100
AcDbPolyline
 90
        4
 70
     1
 43
3.0
 10
-2897.983009801445
 20
-730.4806961634631
 42
0.4142135623731
 10
-2899.483009801445
 20
-728.9806961634631
 42
0.4142135623731
 10
-2900.983009801445
 20
-730.4806961634631
 42
0.4142135623731
 10
-2899.483009801445
 20
-731.9806961634631
 42
0.4142135623731
  0
MTEXT
  5
E2
330
1F
100
AcDbEntity
  8
0-B_寸法
  6
Continuous
 62
     7
370
   211
100
AcDbMText
 10
-2993.233009801445
 20
-723.3331961634631
 30
0.0
 40
74.295
 41
97.5
 46
0.0
 71
     7
 72
     1
  1
{\fＭＳ ゴシック|b0|i0|c128|p49;15}
 73
     1
 44
1.0
  0
LINE
  5
E3
330
1F
100
AcDbEntity
  8
0-B_寸法
  6
Continuous
 62
   120
370
     5
100
AcDbLine
 10
-2899.483009801445
 20
-730.4806961634631
 30
0.0
 11
-2851.483009801448
 21
-730.4806961634631
 31
0.0
  0
LWPOLYLINE
  5
E4
330
1F
100
AcDbEntity
  8
0-B_寸法
  6
Continuous
 62
     7
370
     9
100
AcDbPolyline
 90
        4
 70
     1
 43
3.0
 10
-2849.983009801448
 20
-730.4806961634631
 42
0.4142135623731
 10
-2851.483009801448
 20
-728.9806961634631
 42
0.4142135623731
 10
-2852.983009801448
 20
-730.4806961634631
 42
0.4142135623731
 10
-2851.483009801448
 20
-731.9806961634631
 42
0.4142135623731
  0
MTEXT
  5
E5
330
1F
100
AcDbEntity
  8
0-B_寸法
  6
Continuous
 62
     7
370
   211
100
AcDbMText
 10
-2897.983009801447
 20
-726.1906961634631
 30
0.0
 40
68.58
 41
45.0
 46
0.0
 71
     7
 72
     1
  1
{\fＭＳ ゴシック|b0|i0|c128|p49;8}
 73
     1
 44
1.0
  0
LINE
  5
E6
330
1F
100
AcDbEntity
  8
0-B_寸法
  6
Continuous
 62
   120
370
     5
100
AcDbLine
 10
-2851.483009801448
 20
-876.9062588221327
 30
0.0
 11
-2989.483009801445
 21
-876.9062588221327
 31
0.0
  0
LWPOLYLINE
  5
E7
330
1F
100
AcDbEntity
  8
0-B_寸法
  6
Continuous
 62
     7
370
     9
100
AcDbPolyline
 90
        4
 70
     1
 43
3.0
 10
-2849.983009801448
 20
-876.9062588221327
 42
0.4142135623731
 10
-2851.483009801448
 20
-875.4062588221327
 42
0.4142135623731
 10
-2852.983009801448
 20
-876.9062588221327
 42
0.4142135623731
 10
-2851.483009801448
 20
-878.4062588221327
 42
0.4142135623731
  0
LWPOLYLINE
  5
E8
330
1F
100
AcDbEntity
  8
0-B_寸法
  6
Continuous
 62
     7
370
     9
100
AcDbPolyline
 90
        4
 70
     1
 43
3.0
 10
-2987.983009801445
 20
-876.9062588221327
 42
0.4142135623731
 10
-2989.483009801445
 20
-875.4062588221327
 42
0.4142135623731
 10
-2990.983009801445
 20
-876.9062588221327
 42
0.4142135623731
 10
-2989.483009801445
 20
-878.4062588221327
 42
0.4142135623731
  0
LINE
  5
E9
330
1F
100
AcDbEntity
  8
0-B_寸法
  6
Continuous
 62
   120
370
     5
100
AcDbLine
 10
-2851.483009801448
 20
-876.9062588221327
 30
0.0
 11
-2851.483009801448
 21
-730.4806961634631
 31
0.0
  0
LINE
  5
EA
330
1F
100
AcDbEntity
  8
0-B_寸法
  6
Continuous
 62
   120
370
     5
100
AcDbLine
 10
-2989.483009801445
 20
-876.9062588221327
 30
0.0
 11
-2989.483009801445
 21
-730.4806961634631
 31
0.0
  0
MTEXT
  5
EB
330
1F
100
AcDbEntity
  8
0-B_寸法
  6
Continuous
 62
     7
370
   211
100
AcDbMText
 10
-2969.233009801447
 20
-869.7587588221327
 30
0.0
 40
74.295
 41
97.5
 46
0.0
 71
     7
 72
     1
  1
{\fＭＳ ゴシック|b0|i0|c128|p49;23}
 73
     1
 44
1.0
  0
LINE
  5
EC
330
1F
100
AcDbEntity
  8
0-B_寸法
  6
Continuous
 62
   120
370
     5
100
AcDbLine
 10
-2989.483009801445
 20
-730.4806961634631
 30
0.0
 11
-2989.483009801445
 21
-591.3922721352571
 31
0.0
  0
LINE
  5
ED
330
1F
100
AcDbEntity
  8
0-B_寸法
  6
Continuous
 62
   120
370
     5
100
AcDbLine
 10
-2899.483009801445
 20
-730.4806961634631
 30
0.0
 11
-2899.483009801445
 21
-591.3922721352571
 31
0.0
  0
LINE
  5
EE
330
1F
100
AcDbEntity
  8
0-B_寸法
  6
Continuous
 62
   120
370
     5
100
AcDbLine
 10
-2851.483009801448
 20
-730.4806961634631
 30
0.0
 11
-2851.483009801448
 21
-591.3922721352571
 31
0.0
  0
LWPOLYLINE
  5
EF
330
1F
100
AcDbEntity
  8
0-B_寸法
  6
Continuous
 62
     7
370
     9
100
AcDbPolyline
 90
        4
 70
     1
 43
3.0
 10
-2786.983009801444
 20
-3619.613694665692
 42
0.4142135623731
 10
-2788.483009801444
 20
-3618.113694665692
 42
0.4142135623731
 10
-2789.983009801444
 20
-3619.613694665692
 42
0.4142135623731
 10
-2788.483009801444
 20
-3621.113694665692
 42
0.4142135623731
  0
LINE
  5
F0
330
1F
100
AcDbEntity
  8
0-B_寸法
  6
Continuous
 62
   120
370
     5
100
AcDbLine
 10
-2788.483009801444
 20
-3619.613694665692
 30
0.0
 11
-2788.483009801444
 21
-3495.361226060436
 31
0.0
  0
LINE
  5
F1
330
1F
100
AcDbEntity
  8
0-B_寸法
  6
Continuous
 62
   120
370
     5
100
AcDbLine
 10
-2788.483009801444
 20
-3619.613694665692
 30
0.0
 11
-2680.483009801445
 21
-3619.613694665692
 31
0.0
  0
LWPOLYLINE
  5
F2
330
1F
100
AcDbEntity
  8
0-B_寸法
  6
Continuous
 62
     7
370
     9
100
AcDbPolyline
 90
        4
 70
     1
 43
3.0
 10
-2678.983009801445
 20
-3619.613694665692
 42
0.4142135623731
 10
-2680.483009801445
 20
-3618.113694665692
 42
0.4142135623731
 10
-2681.983009801445
 20
-3619.613694665692
 42
0.4142135623731
 10
-2680.483009801445
 20
-3621.113694665692
 42
0.4142135623731
  0
LINE
  5
F3
330
1F
100
AcDbEntity
  8
0-B_寸法
  6
Continuous
 62
   120
370
     5
100
AcDbLine
 10
-2680.483009801445
 20
-3619.613694665692
 30
0.0
 11
-2680.483009801445
 21
-3495.361226060436
 31
0.0
  0
MTEXT
  5
F4
330
1F
100
AcDbEntity
  8
0-B_寸法
  6
Continuous
 62
     7
370
   211
100
AcDbMText
 10
-2783.233009801445
 20
-3612.466194665692
 30
0.0
 40
74.295
 41
97.5
 46
0.0
 71
     7
 72
     1
  1
{\fＭＳ ゴシック|b0|i0|c128|p49;18}
 73
     1
 44
1.0
  0
LINE
  5
F5
330
1F
100
AcDbEntity
  8
0-B_寸法
  6
Continuous
 62
   120
370
     5
100
AcDbLine
 10
-2788.483009801444
 20
-3619.613694665692
 30
0.0
 11
-3119.613246815155
 21
-3619.613694665692
 31
0.0
  0
LWPOLYLINE
  5
F6
330
1F
100
AcDbEntity
  8
0-B_寸法
  6
Continuous
 62
     7
370
     9
100
AcDbPolyline
 90
        4
 70
     1
 43
3.0
 10
-2825.983009801446
 20
-3619.613694665692
 42
0.4142135623731
 10
-2827.483009801446
 20
-3618.113694665692
 42
0.4142135623731
 10
-2828.983009801446
 20
-3619.613694665692
 42
0.4142135623731
 10
-2827.483009801446
 20
-3621.113694665692
 42
0.4142135623731
  0
LINE
  5
F7
330
1F
100
AcDbEntity
  8
0-B_寸法
  6
Continuous
 62
   120
370
     5
100
AcDbLine
 10
-2827.483009801446
 20
-3619.613694665692
 30
0.0
 11
-2827.483009801446
 21
-3495.361226060436
 31
0.0
  0
MTEXT
  5
F8
330
1F
100
AcDbEntity
  8
0-B_寸法
  6
Continuous
 62
     7
370
   211
100
AcDbMText
 10
-2996.385984395716
 20
-3611.513694665692
 30
0.0
 40
76.19999999999999
 41
150.0
 46
0.0
 71
     7
 72
     1
  1
{\fＭＳ ゴシック|b0|i0|c128|p49;6.5}
 73
     1
 44
1.0
  0
MTEXT
  5
F9
330
1F
100
AcDbEntity
  8
0-B_寸法
  6
Continuous
 62
     7
370
     9
100
AcDbMText
 10
-3167.636362944721
 20
-3724.802688834934
 30
0.0
 40
57.15
 41
375.0
 46
0.0
 71
     7
 72
     1
  1
{\fＭＳ ゴシック|b0|i0|c128|p49;(見切から)}
 73
     1
 44
1.0
  0
MTEXT
  5
FA
330
1F
100
AcDbEntity
  8
0-B_寸法
  6
Continuous
 62
     7
370
   211
100
AcDbMText
 10
-4155.419868619734
 20
-251.3879320601516
 30
0.0
 40
74.295
 41
97.5
 46
0.0
 71
     7
 72
     1
  1
{\fＭＳ ゴシック|b0|i0|c128|p49;74}
 11
6.123031769111886E-17
 21
1.0
 31
0.0
 73
     1
 44
1.0
  0
MTEXT
  5
FB
330
1F
100
AcDbEntity
  8
0-B_寸法
  6
Continuous
 62
     7
370
   211
100
AcDbMText
 10
-4155.419868619734
 20
-712.2397431140055
 30
0.0
 40
77.15250000000016
 41
202.5000000000004
 46
0.0
 71
     7
 72
     1
  1
{\fＭＳ ゴシック|b0|i0|c128|p49;12.5}
 11
6.123031769111886E-17
 21
1.0
 31
0.0
 73
     1
 44
1.0
  0
MTEXT
  5
FC
330
1F
100
AcDbEntity
  8
0-B_寸法
  6
Continuous
 62
     7
370
   211
100
AcDbMText
 10
-3979.857068214993
 20
-685.2478220503054
 30
0.0
 40
74.29500000000031
 41
97.50000000000043
 46
0.0
 71
     7
 72
     1
  1
{\fＭＳ ゴシック|b0|i0|c128|p49;12}
 11
6.123031769111886E-17
 21
1.0
 31
0.0
 73
     1
 44
1.0
  0
MTEXT
  5
FD
330
1F
100
AcDbEntity
  8
0-B_寸法
  6
Continuous
 62
     7
370
   211
100
AcDbMText
 10
-2504.225768239866
 20
-476.3879320601533
 30
0.0
 40
74.295
 41
97.5
 46
0.0
 71
     7
 72
     1
  1
{\fＭＳ ゴシック|b0|i0|c128|p49;24}
 11
6.123031769111886E-17
 21
1.0
 31
0.0
 73
     1
 44
1.0
  0
MTEXT
  5
FE
330
1F
100
AcDbEntity
  8
0-B_寸法
  6
Continuous
 62
     7
370
   211
100
AcDbMText
 10
-2504.225768239866
 20
-678.9735176420488
 30
0.0
 40
74.29499999999967
 41
97.49999999999957
 46
0.0
 71
     7
 72
     1
  1
{\fＭＳ ゴシック|b0|i0|c128|p49;12}
 11
6.123031769111886E-17
 21
1.0
 31
0.0
 73
     1
 44
1.0
  0
MTEXT
  5
FF
330
1F
100
AcDbEntity
  8
0-B_寸法
  6
Continuous
 62
     7
370
   211
100
AcDbMText
 10
-2326.561546117525
 20
-512.3879320601529
 30
0.0
 40
74.295
 41
97.5
 46
0.0
 71
     7
 72
     1
  1
{\fＭＳ ゴシック|b0|i0|c128|p49;36}
 11
6.123031769111886E-17
 21
1.0
 31
0.0
 73
     1
 44
1.0
  0
MTEXT
  5
100
330
1F
100
AcDbEntity
  8
0-B_寸法
  6
Continuous
 62
     7
370
   211
100
AcDbMText
 10
-1976.371024164175
 20
-197.3880359848759
 30
0.0
 40
74.295
 41
97.5
 46
0.0
 71
     7
 72
     1
  1
{\fＭＳ ゴシック|b0|i0|c128|p49;45}
 11
6.123031769111886E-17
 21
1.0
 31
0.0
 73
     1
 44
1.0
  0
MTEXT
  5
101
330
1F
100
AcDbEntity
  8
0-B_寸法
  6
Continuous
 62
     7
370
   211
100
AcDbMText
 10
-2140.252775989913
 20
-3333.734403180572
 30
0.0
 40
76.19999999999999
 41
150.0
 46
0.0
 71
     7
 72
     1
  1
{\fＭＳ ゴシック|b0|i0|c128|p49;8.5}
 11
6.123031769111886E-17
 21
1.0
 31
0.0
 73
     1
 44
1.0
  0
LINE
  5
102
330
1F
100
AcDbEntity
  8
0-B_寸法
  6
Continuous
 62
   120
370
     5
100
AcDbLine
 10
-3955.68926754228
 20
-563.7854320601546
 30
0.0
 11
-3089.025708220437
 21
-563.7854320601546
 31
0.0
  0
LINE
  5
103
330
1F
100
AcDbEntity
  8
0-B_寸法
  6
Continuous
 62
   120
370
     5
100
AcDbLine
 10
-2476.483009801444
 20
444.1216375914598
 30
0.0
 11
-2974.483009801445
 21
444.1216375914598
 31
0.0
  0
LWPOLYLINE
  5
104
330
1F
100
AcDbEntity
  8
0-B_寸法
  6
Continuous
 62
     7
370
     9
100
AcDbPolyline
 90
        4
 70
     1
 43
3.0
 10
-2474.983009801444
 20
444.1216375914598
 42
0.4142135623731
 10
-2476.483009801444
 20
445.6216375914598
 42
0.4142135623731
 10
-2477.983009801444
 20
444.1216375914598
 42
0.4142135623731
 10
-2476.483009801444
 20
442.6216375914598
 42
0.4142135623731
  0
LWPOLYLINE
  5
105
330
1F
100
AcDbEntity
  8
0-B_寸法
  6
Continuous
 62
     7
370
     9
100
AcDbPolyline
 90
        4
 70
     1
 43
3.0
 10
-2972.983009801445
 20
444.1216375914598
 42
0.4142135623731
 10
-2974.483009801445
 20
445.6216375914598
 42
0.4142135623731
 10
-2975.983009801445
 20
444.1216375914598
 42
0.4142135623731
 10
-2974.483009801445
 20
442.6216375914598
 42
0.4142135623731
  0
LINE
  5
106
330
1F
100
AcDbEntity
  8
0-B_寸法
  6
Continuous
 62
   120
370
     5
100
AcDbLine
 10
-2476.483009801444
 20
444.1216375914598
 30
0.0
 11
-2476.483009801444
 21
296.9045892106638
 31
0.0
  0
LINE
  5
107
330
1F
100
AcDbEntity
  8
0-B_寸法
  6
Continuous
 62
   120
370
     5
100
AcDbLine
 10
-2974.483009801445
 20
444.1216375914598
 30
0.0
 11
-2974.483009801445
 21
296.9045892106638
 31
0.0
  0
MTEXT
  5
108
330
1F
100
AcDbEntity
  8
0-B_寸法
  6
Continuous
 62
     7
370
   211
100
AcDbMText
 10
-2774.233009801445
 20
451.2691375914598
 30
0.0
 40
74.295
 41
97.5
 46
0.0
 71
     7
 72
     1
  1
{\fＭＳ ゴシック|b0|i0|c128|p49;83}
 73
     1
 44
1.0
  0
LINE
  5
109
330
1F
100
AcDbEntity
  8
0-B_寸法
  6
Continuous
 62
   120
370
     5
100
AcDbLine
 10
-2974.483009801445
 20
444.1216375914598
 30
0.0
 11
-3496.483009801444
 21
444.1216375914598
 31
0.0
  0
LWPOLYLINE
  5
10A
330
1F
100
AcDbEntity
  8
0-B_寸法
  6
Continuous
 62
     7
370
     9
100
AcDbPolyline
 90
        4
 70
     1
 43
3.0
 10
-3494.983009801444
 20
444.1216375914598
 42
0.4142135623731
 10
-3496.483009801444
 20
445.6216375914598
 42
0.4142135623731
 10
-3497.983009801444
 20
444.1216375914598
 42
0.4142135623731
 10
-3496.483009801444
 20
442.6216375914598
 42
0.4142135623731
  0
LINE
  5
10B
330
1F
100
AcDbEntity
  8
0-B_寸法
  6
Continuous
 62
   120
370
     5
100
AcDbLine
 10
-3496.483009801444
 20
444.1216375914598
 30
0.0
 11
-3496.483009801444
 21
296.9045892106638
 31
0.0
  0
MTEXT
  5
10C
330
1F
100
AcDbEntity
  8
0-B_寸法
  6
Continuous
 62
     7
370
   211
100
AcDbMText
 10
-3284.233009801445
 20
451.2691375914598
 30
0.0
 40
74.295
 41
97.5
 46
0.0
 71
     7
 72
     1
  1
{\fＭＳ ゴシック|b0|i0|c128|p49;87}
 73
     1
 44
1.0
  0
LINE
  5
10D
330
1F
100
AcDbEntity
  8
0-B_寸法
  6
Continuous
 62
   120
370
     5
100
AcDbLine
 10
-2476.483009801444
 20
581.2920630403408
 30
0.0
 11
-3496.483009801444
 21
581.2920630403408
 31
0.0
  0
LWPOLYLINE
  5
10E
330
1F
100
AcDbEntity
  8
0-B_寸法
  6
Continuous
 62
     7
370
     9
100
AcDbPolyline
 90
        4
 70
     1
 43
3.0
 10
-2474.983009801444
 20
581.2920630403408
 42
0.4142135623731
 10
-2476.483009801444
 20
582.7920630403408
 42
0.4142135623731
 10
-2477.983009801444
 20
581.2920630403408
 42
0.4142135623731
 10
-2476.483009801444
 20
579.7920630403408
 42
0.4142135623731
  0
LWPOLYLINE
  5
10F
330
1F
100
AcDbEntity
  8
0-B_寸法
  6
Continuous
 62
     7
370
     9
100
AcDbPolyline
 90
        4
 70
     1
 43
3.0
 10
-3494.983009801444
 20
581.2920630403408
 42
0.4142135623731
 10
-3496.483009801444
 20
582.7920630403408
 42
0.4142135623731
 10
-3497.983009801444
 20
581.2920630403408
 42
0.4142135623731
 10
-3496.483009801444
 20
579.7920630403408
 42
0.4142135623731
  0
LINE
  5
110
330
1F
100
AcDbEntity
  8
0-B_寸法
  6
Continuous
 62
   120
370
     5
100
AcDbLine
 10
-2476.483009801444
 20
581.2920630403408
 30
0.0
 11
-2476.483009801444
 21
444.1216375914598
 31
0.0
  0
LINE
  5
111
330
1F
100
AcDbEntity
  8
0-B_寸法
  6
Continuous
 62
   120
370
     5
100
AcDbLine
 10
-3496.483009801444
 20
581.2920630403408
 30
0.0
 11
-3496.483009801444
 21
444.1216375914598
 31
0.0
  0
MTEXT
  5
112
330
1F
100
AcDbEntity
  8
0-B_寸法
  6
Continuous
 62
     7
370
   211
100
AcDbMText
 10
-3061.483009801444
 20
589.3920630403409
 30
0.0
 40
76.19999999999999
 41
150.0
 46
0.0
 71
     7
 72
     1
  1
{\fＭＳ ゴシック|b0|i0|c128|p49;170}
 73
     1
 44
1.0
  0
MTEXT
  5
113
330
1F
100
AcDbEntity
  8
0-B_寸法
  6
Continuous
 62
     7
370
   211
100
AcDbMText
 10
-2134.998148411218
 20
-394.0627921537228
 30
0.0
 40
68.58
 41
45.0
 46
0.0
 71
     7
 72
     1
  1
{\fＭＳ ゴシック|b0|i0|c128|p49;5}
 11
6.123031769111886E-17
 21
1.0
 31
0.0
 73
     1
 44
1.0
  0
MTEXT
  5
114
330
1F
100
AcDbEntity
  8
0-B_寸法
  6
Continuous
 62
     7
370
   211
100
AcDbMText
 10
-1976.371024164175
 20
35.65183198471655
 30
0.0
 40
76.19999999999999
 41
150.0
 46
0.0
 71
     7
 72
     1
  1
{\fＭＳ ゴシック|b0|i0|c128|p49;5.5}
 11
6.123031769111886E-17
 21
1.0
 31
0.0
 73
     1
 44
1.0
  0
LINE
  5
115
330
1F
100
AcDbEntity
  8
0-3_仕上げ
  6
Continuous
 62
    40
370
    15
100
AcDbLine
 10
-3604.483009801444
 20
-416.7854320601518
 30
0.0
 11
-2974.483009801445
 21
-416.7854320601518
 31
0.0
  0
LINE
  5
116
330
1F
100
AcDbEntity
  8
0-3_仕上げ
  6
Continuous
 62
    40
370
    15
100
AcDbLine
 10
-3604.483009801444
 20
-416.7854320601518
 30
0.0
 11
-3604.483009801444
 21
227.9277914357476
 31
0.0
  0
LINE
  5
117
330
1F
100
AcDbEntity
  8
0-3_仕上げ
  6
Continuous
 62
    40
370
    15
100
AcDbLine
 10
-2974.483009801445
 20
227.9277914357476
 30
0.0
 11
-2974.483009801445
 21
-416.7854320601518
 31
0.0
  0
LINE
  5
118
330
1F
100
AcDbEntity
  8
0-3_仕上げ
  6
Continuous
 62
    40
370
    15
100
AcDbLine
 10
-3679.483009801444
 20
-491.7854320601518
 30
0.0
 11
-2899.483009801445
 21
-491.7854320601518
 31
0.0
  0
LINE
  5
119
330
1F
100
AcDbEntity
  8
0-3_仕上げ
  6
Continuous
 62
    40
370
    15
100
AcDbLine
 10
-3679.483009801444
 20
-491.7854320601518
 30
0.0
 11
-3679.483009801444
 21
227.9277914357476
 31
0.0
  0
LINE
  5
11A
330
1F
100
AcDbEntity
  8
0-3_仕上げ
  6
Continuous
 62
    40
370
    15
100
AcDbLine
 10
-2899.483009801445
 20
227.9277914357476
 30
0.0
 11
-2899.483009801445
 21
-347.7854320601506
 31
0.0
  0
LINE
  5
11B
330
1F
100
AcDbEntity
  8
0-0_補助線
  6
JWW_HOJO
 62
     7
370
     9
100
AcDbLine
 10
910.35069354037
 20
-5.785432060147002
 30
0.0
 11
910.35069354037
 21
-1772.785432060151
 31
0.0
  0
LINE
  5
11C
330
1F
100
AcDbEntity
  8
0-0_補助線
  6
JWW_HOJO
 62
     7
370
     9
100
AcDbLine
 10
910.35069354037
 20
-1862.785432060151
 30
0.0
 11
910.35069354037
 21
-3464.785595370433
 31
0.0
  0
LINE
  5
11D
330
1F
100
AcDbEntity
  8
0-0_補助線
  6
JWW_HOJO
 62
     7
370
     9
100
AcDbLine
 10
790.35069354037
 20
-5.785432060147002
 30
0.0
 11
790.35069354037
 21
-1772.785432060151
 31
0.0
  0
LINE
  5
11E
330
1F
100
AcDbEntity
  8
0-0_補助線
  6
JWW_HOJO
 62
     7
370
     9
100
AcDbLine
 10
790.35069354037
 20
-1862.785432060151
 30
0.0
 11
790.35069354037
 21
-3464.785595370433
 31
0.0
  0
LINE
  5
11F
330
1F
100
AcDbEntity
  8
0-0_補助線
  6
JWW_HOJO
 62
     7
370
     9
100
AcDbLine
 10
-1274.406935849494
 20
-1772.785432060151
 30
0.0
 11
790.35069354037
 21
-1772.785432060151
 31
0.0
  0
LINE
  5
120
330
1F
100
AcDbEntity
  8
0-0_補助線
  6
JWW_HOJO
 62
     7
370
     9
100
AcDbLine
 10
910.35069354037
 20
-1772.785432060151
 30
0.0
 11
2062.350693540366
 21
-1772.785432060151
 31
0.0
  0
LINE
  5
121
330
1F
100
AcDbEntity
  8
0-0_補助線
  6
JWW_HOJO
 62
     7
370
     9
100
AcDbLine
 10
-1274.406935849494
 20
-1862.785432060151
 30
0.0
 11
790.35069354037
 21
-1862.785432060151
 31
0.0
  0
LINE
  5
122
330
1F
100
AcDbEntity
  8
0-0_補助線
  6
JWW_HOJO
 62
     7
370
     9
100
AcDbLine
 10
910.35069354037
 20
-1862.785432060151
 30
0.0
 11
2062.350693540366
 21
-1862.785432060151
 31
0.0
  0
LINE
  5
123
330
1F
100
AcDbEntity
  8
0-0_補助線
  6
JWW_HOJO
 62
     7
370
     9
100
AcDbLine
 10
-3496.483009801444
 20
-1772.785432060151
 30
0.0
 11
-2476.483009801444
 21
-1772.785432060151
 31
0.0
  0
LINE
  5
124
330
1F
100
AcDbEntity
  8
0-0_補助線
  6
JWW_HOJO
 62
     7
370
     9
100
AcDbLine
 10
-3496.483009801444
 20
-1862.785432060151
 30
0.0
 11
-2476.483009801444
 21
-1862.785432060151
 31
0.0
  0
LINE
  5
125
330
1F
100
AcDbEntity
  8
0-2_柱
  6
Continuous
 62
     7
370
     9
100
AcDbLine
 10
-3604.483009801444
 20
69.21456793984959
 30
0.0
 11
-2974.483009801445
 21
69.21456793984959
 31
0.0
  0
LINE
  5
126
330
1F
100
AcDbEntity
  8
0-2_柱
  6
Continuous
 62
     7
370
     9
100
AcDbLine
 10
-3604.483009801444
 20
-254.7854320601508
 30
0.0
 11
-2974.483009801445
 21
-254.7854320601508
 31
0.0
  0
LINE
  5
127
330
1F
100
AcDbEntity
  8
0-2_柱
  6
Continuous
 62
     7
370
     9
100
AcDbLine
 10
-3604.483009801444
 20
-92.78543206015058
 30
0.0
 11
-2974.483009801445
 21
-92.78543206015058
 31
0.0
  0
LINE
  5
128
330
1F
100
AcDbEntity
  8
0-2_柱
  6
Continuous
 62
     7
370
     9
100
AcDbLine
 10
-2974.483009801445
 20
69.21456793984959
 30
0.0
 11
-3604.483009801444
 21
-92.78543206015058
 31
0.0
  0
LINE
  5
129
330
1F
100
AcDbEntity
  8
0-2_柱
  6
Continuous
 62
     7
370
     9
100
AcDbLine
 10
-3604.483009801444
 20
-254.7854320601508
 30
0.0
 11
-2974.483009801445
 21
-92.78543206015058
 31
0.0
  0
LINE
  5
12A
330
1F
100
AcDbEntity
  8
0-2_柱
  6
Continuous
 62
     7
370
     9
100
AcDbLine
 10
-2974.483009801445
 20
-254.7854320601508
 30
0.0
 11
-3604.483009801444
 21
-416.7854320601518
 31
0.0
  0
LINE
  5
12B
330
1F
100
AcDbEntity
  8
0-6_扉
  6
JWW_DASHED1
 62
   200
370
    20
100
AcDbLine
 10
2062.350693540366
 20
-1862.785432060149
 30
0.0
 11
2062.350693540366
 21
-3341.785060900416
 31
0.0
  0
LINE
  5
12C
330
1F
100
AcDbEntity
  8
0-6_扉
  6
JWW_DASHED1
 62
   200
370
    20
100
AcDbLine
 10
2062.350693540366
 20
-1772.785432060149
 30
0.0
 11
2062.350693540366
 21
-305.7853627769967
 31
0.0
  0
LINE
  5
12D
330
1F
100
AcDbEntity
  8
0-6_扉
  6
JWW_DASHED1
 62
   200
370
    20
100
AcDbLine
 10
-1009.649306459611
 20
-305.7853627769967
 30
0.0
 11
-1009.649306459611
 21
-1772.785432060151
 31
0.0
  0
LINE
  5
12E
330
1F
100
AcDbEntity
  8
0-6_扉
  6
JWW_DASHED1
 62
   200
370
    20
100
AcDbLine
 10
-1009.649306459611
 20
-1862.785432060151
 30
0.0
 11
-1009.649306459611
 21
-3341.785060900416
 31
0.0
  0
LINE
  5
12F
330
1F
100
AcDbEntity
  8
0-6_扉
  6
JWW_DASHED1
 62
   200
370
    20
100
AcDbLine
 10
-247.6493064596221
 20
-305.7853627769967
 30
0.0
 11
-247.6493064596221
 21
-1772.785432060151
 31
0.0
  0
LINE
  5
130
330
1F
100
AcDbEntity
  8
0-6_扉
  6
JWW_DASHED1
 62
   200
370
    20
100
AcDbLine
 10
-247.6493064596221
 20
-1862.785432060151
 30
0.0
 11
-247.6493064596221
 21
-3341.785060900416
 31
0.0
  0
LINE
  5
131
330
1F
100
AcDbEntity
  8
0-6_扉
  6
JWW_DASHED1
 62
   200
370
    20
100
AcDbLine
 10
2062.350693540366
 20
-305.7853627769967
 30
0.0
 11
910.35069354037
 21
-305.7853627769967
 31
0.0
  0
LINE
  5
132
330
1F
100
AcDbEntity
  8
0-6_扉
  6
JWW_DASHED1
 62
   200
370
    20
100
AcDbLine
 10
790.35069354037
 20
-305.7853627769967
 30
0.0
 11
-1274.406935849494
 21
-305.7853627769967
 31
0.0
  0
LINE
  5
133
330
1F
100
AcDbEntity
  8
0-6_扉
  6
JWW_DASHED1
 62
   200
370
    20
100
AcDbLine
 10
2062.350693540366
 20
-3341.785060900416
 30
0.0
 11
910.35069354037
 21
-3341.785060900416
 31
0.0
  0
LINE
  5
134
330
1F
100
AcDbEntity
  8
0-6_扉
  6
JWW_DASHED1
 62
   200
370
    20
100
AcDbLine
 10
790.35069354037
 20
-3341.785060900416
 30
0.0
 11
-1274.406935849494
 21
-3341.785060900416
 31
0.0
  0
LINE
  5
135
330
1F
100
AcDbEntity
  8
0-4_枠
  6
Continuous
 62
    92
370
    13
100
AcDbLine
 10
-409.6493064596112
 20
-563.7854320601512
 30
0.0
 11
-1274.406935849494
 21
-563.7854320601512
 31
0.0
  0
LINE
  5
136
330
1F
100
AcDbEntity
  8
0-4_枠
  6
Continuous
 62
    92
370
    13
100
AcDbLine
 10
-409.6493064596112
 20
-3392.785432060152
 30
0.0
 11
-409.6493064596112
 21
-1862.785432060151
 31
0.0
  0
LINE
  5
137
330
1F
100
AcDbEntity
  8
0-4_枠
  6
Continuous
 62
    92
370
    13
100
AcDbLine
 10
-409.6493064596112
 20
-1772.785432060151
 30
0.0
 11
-409.6493064596112
 21
-347.785432060148
 31
0.0
  0
LINE
  5
138
330
1F
100
AcDbEntity
  8
0-4_枠
  6
Continuous
 62
    92
370
    13
100
AcDbLine
 10
-241.6493064596276
 20
-3392.785432060152
 30
0.0
 11
-241.6493064596276
 21
-1862.785432060151
 31
0.0
  0
LINE
  5
139
330
1F
100
AcDbEntity
  8
0-4_枠
  6
Continuous
 62
    92
370
    13
100
AcDbLine
 10
-241.6493064596276
 20
-1772.785432060151
 30
0.0
 11
-241.6493064596276
 21
-347.785432060148
 31
0.0
  0
LINE
  5
13A
330
1F
100
AcDbEntity
  8
0-7_金物
  6
Continuous
 62
     7
370
     9
100
AcDbLine
 10
-2675.983484885908
 20
-3239.785169773942
 30
0.0
 11
-2675.983484885908
 21
-3347.785229159495
 31
0.0
  0
LINE
  5
13B
330
1F
100
AcDbEntity
  8
0-7_金物
  6
Continuous
 62
     7
370
     9
100
AcDbLine
 10
-2675.983484885908
 20
-3239.785169773942
 30
0.0
 11
-2702.983128572558
 21
-3239.785169773942
 31
0.0
  0
LINE
  5
13C
330
1F
100
AcDbEntity
  8
0-7_金物
  6
Continuous
 62
     7
370
     9
100
AcDbLine
 10
-2702.983128572558
 20
-3239.785169773942
 30
0.0
 11
-2702.983128572558
 21
-3347.785229159495
 31
0.0
  0
LINE
  5
13D
330
1F
100
AcDbEntity
  8
0-7_金物
  6
Continuous
 62
     7
370
     9
100
AcDbLine
 10
-2657.983722428133
 20
-3347.785229159495
 30
0.0
 11
-2657.983722428133
 21
-3341.785060900416
 31
0.0
  0
LINE
  5
13E
330
1F
100
AcDbEntity
  8
0-7_金物
  6
Continuous
 62
     7
370
     9
100
AcDbLine
 10
-2675.983484885908
 20
-3347.785229159495
 30
0.0
 11
-2657.983722428133
 21
-3347.785229159495
 31
0.0
  0
LINE
  5
13F
330
1F
100
AcDbEntity
  8
0-7_金物
  6
Continuous
 62
     7
370
     9
100
AcDbLine
 10
-2720.982891030333
 20
-3341.785060900416
 30
0.0
 11
-2720.982891030333
 21
-3347.785229159495
 31
0.0
  0
LINE
  5
140
330
1F
100
AcDbEntity
  8
0-7_金物
  6
Continuous
 62
     7
370
     9
100
AcDbLine
 10
-2720.982891030333
 20
-3347.785229159495
 30
0.0
 11
-2702.983128572558
 21
-3347.785229159495
 31
0.0
  0
LINE
  5
141
330
1F
100
AcDbEntity
  8
0-7_金物
  6
Continuous
 62
     7
370
     9
100
AcDbLine
 10
-2890.483009801447
 20
-275.7856399096005
 30
0.0
 11
-2733.687688723533
 21
-275.7856399096005
 31
0.0
  0
LINE
  5
142
330
1F
100
AcDbEntity
  8
0-7_金物
  6
Continuous
 62
     7
370
     9
100
AcDbLine
 10
-2668.483088982189
 20
-275.7856399096005
 30
0.0
 11
-2668.483088982189
 21
-185.785342981813
 31
0.0
  0
LINE
  5
143
330
1F
100
AcDbEntity
  8
0-7_金物
  6
Continuous
 62
     7
370
     9
100
AcDbLine
 10
-2668.483088982189
 20
-185.785342981813
 30
0.0
 11
-2710.483524476283
 21
-185.785342981813
 31
0.0
  0
LINE
  5
144
330
1F
100
AcDbEntity
  8
0-7_金物
  6
Continuous
 62
     7
370
     9
100
AcDbLine
 10
-2710.483524476283
 20
-185.785342981813
 30
0.0
 11
-2710.483524476283
 21
-275.7856399096005
 31
0.0
  0
LINE
  5
145
330
1F
100
AcDbEntity
  8
0-7_金物
  6
Continuous
 62
     7
370
     9
100
AcDbLine
 10
-2710.483524476283
 20
-275.7856399096005
 30
0.0
 11
-2668.483088982189
 21
-275.7856399096005
 31
0.0
  0
LINE
  5
146
330
1F
100
AcDbEntity
  8
0-7_金物
  6
Continuous
 62
     7
370
     9
100
AcDbLine
 10
-2659.468361363945
 20
-218.8809141389092
 30
0.0
 11
-2668.483088982189
 21
-218.8809141389092
 31
0.0
  0
LINE
  5
147
330
1F
100
AcDbEntity
  8
0-7_金物
  6
Continuous
 62
     7
370
     9
100
AcDbLine
 10
-2710.483524476283
 20
-218.8809141389092
 30
0.0
 11
-2719.496767455583
 21
-218.8809141389092
 31
0.0
  0
LINE
  5
148
330
1F
100
AcDbEntity
  8
0-7_金物
  6
Continuous
 62
     7
370
     9
100
AcDbLine
 10
-2656.730687166308
 20
-243.9935817381465
 30
0.0
 11
-2668.483088982189
 21
-243.9935817381465
 31
0.0
  0
LINE
  5
149
330
1F
100
AcDbEntity
  8
0-7_金物
  6
Continuous
 62
     7
370
     9
100
AcDbLine
 10
-2710.483524476283
 20
-243.9935817381465
 30
0.0
 11
-2722.510584495283
 21
-243.9935817381465
 31
0.0
  0
LINE
  5
14A
330
1F
100
AcDbEntity
  8
0-7_金物
  6
Continuous
 62
     7
370
     9
100
AcDbLine
 10
-2655.754537066021
 20
-173.7850064636527
 30
0.0
 11
-2667.754131264708
 21
-173.7850064636527
 31
0.0
  0
LINE
  5
14B
330
1F
100
AcDbEntity
  8
0-7_金物
  6
Continuous
 62
     7
370
     9
100
AcDbLine
 10
-2710.811629681096
 20
-173.7850064636527
 30
0.0
 11
-2722.811966199252
 21
-173.7850064636527
 31
0.0
  0
LINE
  5
14C
330
1F
100
AcDbEntity
  8
0-7_金物
  6
Continuous
 62
     7
370
     9
100
AcDbLine
 10
-2645.278182415471
 20
-275.7856399096005
 30
0.0
 11
-2645.388045696721
 21
-275.7856399096005
 31
0.0
  0
LINE
  5
14D
330
1F
100
AcDbEntity
  8
0-7_金物
  6
Continuous
 62
     7
370
     9
100
AcDbLine
 10
-2733.687688723533
 20
-275.7856399096005
 30
0.0
 11
-2733.577083122814
 21
-275.7856399096005
 31
0.0
  0
LINE
  5
14E
330
1F
100
AcDbEntity
  8
0-7_金物
  6
Continuous
 62
     7
370
     9
100
AcDbLine
 10
-2657.977783872396
 20
-263.2612258471005
 30
0.0
 11
-2657.859012757533
 21
-264.455617870959
 31
0.0
  0
LINE
  5
14F
330
1F
100
AcDbEntity
  8
0-7_金物
  6
Continuous
 62
     7
370
     9
100
AcDbLine
 10
-2657.859012757533
 20
-264.455617870959
 30
0.0
 11
-2657.588808471208
 21
-266.4643343511131
 31
0.0
  0
LINE
  5
150
330
1F
100
AcDbEntity
  8
0-7_金物
  6
Continuous
 62
     7
370
     9
100
AcDbLine
 10
-2657.588808471208
 20
-266.4643343511131
 30
0.0
 11
-2657.13747823472
 21
-268.3305254934254
 31
0.0
  0
LINE
  5
151
330
1F
100
AcDbEntity
  8
0-7_金物
  6
Continuous
 62
     7
370
     9
100
AcDbLine
 10
-2657.13747823472
 20
-268.3305254934254
 30
0.0
 11
-2656.392189488945
 21
-269.9643706422881
 31
0.0
  0
LINE
  5
152
330
1F
100
AcDbEntity
  8
0-7_金物
  6
Continuous
 62
     7
370
     9
100
AcDbLine
 10
-2656.392189488945
 20
-269.9643706422881
 30
0.0
 11
-2655.780518247396
 21
-270.7697872649629
 31
0.0
  0
LINE
  5
153
330
1F
100
AcDbEntity
  8
0-7_金物
  6
Continuous
 62
     7
370
     9
100
AcDbLine
 10
-2655.780518247396
 20
-270.7697872649629
 30
0.0
 11
-2655.197055145621
 21
-271.3153920738756
 31
0.0
  0
LINE
  5
154
330
1F
100
AcDbEntity
  8
0-7_金物
  6
Continuous
 62
     7
370
     9
100
AcDbLine
 10
-2655.197055145621
 20
-271.3153920738756
 30
0.0
 11
-2654.007859358033
 21
-272.1089315850654
 31
0.0
  0
LINE
  5
155
330
1F
100
AcDbEntity
  8
0-7_金物
  6
Continuous
 62
     7
370
     9
100
AcDbLine
 10
-2654.007859358033
 20
-272.1089315850654
 30
0.0
 11
-2652.658322565383
 21
-272.7658843141631
 31
0.0
  0
LINE
  5
156
330
1F
100
AcDbEntity
  8
0-7_金物
  6
Continuous
 62
     7
370
     9
100
AcDbLine
 10
-2652.658322565383
 20
-272.7658843141631
 30
0.0
 11
-2651.230099909133
 21
-273.3448934991279
 31
0.0
  0
LINE
  5
157
330
1F
100
AcDbEntity
  8
0-7_金物
  6
Continuous
 62
     7
370
     9
100
AcDbLine
 10
-2651.230099909133
 20
-273.3448934991279
 30
0.0
 11
-2650.398702105083
 21
-273.6678024676652
 31
0.0
  0
LINE
  5
158
330
1F
100
AcDbEntity
  8
0-7_金物
  6
Continuous
 62
     7
370
     9
100
AcDbLine
 10
-2650.398702105083
 20
-273.6678024676652
 30
0.0
 11
-2649.555427189539
 21
-274.0040731866279
 31
0.0
  0
LINE
  5
159
330
1F
100
AcDbEntity
  8
0-7_金物
  6
Continuous
 62
     7
370
     9
100
AcDbLine
 10
-2649.555427189539
 20
-274.0040731866279
 30
0.0
 11
-2648.13685468637
 21
-274.5942171636131
 31
0.0
  0
LINE
  5
15A
330
1F
100
AcDbEntity
  8
0-7_金物
  6
Continuous
 62
     7
370
     9
100
AcDbLine
 10
-2648.13685468637
 20
-274.5942171636131
 30
0.0
 11
-2646.752428878727
 21
-275.1940112936819
 31
0.0
  0
LINE
  5
15B
330
1F
100
AcDbEntity
  8
0-7_金物
  6
Continuous
 62
     7
370
     9
100
AcDbLine
 10
-2646.752428878727
 20
-275.1940112936819
 30
0.0
 11
-2645.393984252458
 21
-275.7975170210881
 31
0.0
  0
LINE
  5
15C
330
1F
100
AcDbEntity
  8
0-7_金物
  6
Continuous
 62
     7
370
     9
100
AcDbLine
 10
-2720.988087266608
 20
-263.2612258471005
 30
0.0
 11
-2721.107600700939
 21
-264.455617870959
 31
0.0
  0
LINE
  5
15D
330
1F
100
AcDbEntity
  8
0-7_金物
  6
Continuous
 62
     7
370
     9
100
AcDbLine
 10
-2721.107600700939
 20
-264.455617870959
 30
0.0
 11
-2721.377804987258
 21
-266.4643343511131
 31
0.0
  0
LINE
  5
15E
330
1F
100
AcDbEntity
  8
0-7_金物
  6
Continuous
 62
     7
370
     9
100
AcDbLine
 10
-2721.377804987258
 20
-266.4643343511131
 30
0.0
 11
-2721.827650584808
 21
-268.3305254934254
 31
0.0
  0
LINE
  5
15F
330
1F
100
AcDbEntity
  8
0-7_金物
  6
Continuous
 62
     7
370
     9
100
AcDbLine
 10
-2721.827650584808
 20
-268.3305254934254
 30
0.0
 11
-2722.572939330583
 21
-269.9643706422881
 31
0.0
  0
LINE
  5
160
330
1F
100
AcDbEntity
  8
0-7_金物
  6
Continuous
 62
     7
370
     9
100
AcDbLine
 10
-2722.572939330583
 20
-269.9643706422881
 30
0.0
 11
-2723.185352891608
 21
-270.7697872649629
 31
0.0
  0
LINE
  5
161
330
1F
100
AcDbEntity
  8
0-7_金物
  6
Continuous
 62
     7
370
     9
100
AcDbLine
 10
-2723.185352891608
 20
-270.7697872649629
 30
0.0
 11
-2723.769558312845
 21
-271.3153920738756
 31
0.0
  0
LINE
  5
162
330
1F
100
AcDbEntity
  8
0-7_金物
  6
Continuous
 62
     7
370
     9
100
AcDbLine
 10
-2723.769558312845
 20
-271.3153920738756
 30
0.0
 11
-2724.958754100433
 21
-272.1089315850654
 31
0.0
  0
LINE
  5
163
330
1F
100
AcDbEntity
  8
0-7_金物
  6
Continuous
 62
     7
370
     9
100
AcDbLine
 10
-2724.958754100433
 20
-272.1089315850654
 30
0.0
 11
-2726.308290893083
 21
-272.7658843141631
 31
0.0
  0
LINE
  5
164
330
1F
100
AcDbEntity
  8
0-7_金物
  6
Continuous
 62
     7
370
     9
100
AcDbLine
 10
-2726.308290893083
 20
-272.7658843141631
 30
0.0
 11
-2727.735771229871
 21
-273.3448934991279
 31
0.0
  0
LINE
  5
165
330
1F
100
AcDbEntity
  8
0-7_金物
  6
Continuous
 62
     7
370
     9
100
AcDbLine
 10
-2727.735771229871
 20
-273.3448934991279
 30
0.0
 11
-2728.567911353389
 21
-273.6678024676652
 31
0.0
  0
LINE
  5
166
330
1F
100
AcDbEntity
  8
0-7_金物
  6
Continuous
 62
     7
370
     9
100
AcDbLine
 10
-2728.567911353389
 20
-273.6678024676652
 30
0.0
 11
-2729.411186268933
 21
-274.0040731866279
 31
0.0
  0
LINE
  5
167
330
1F
100
AcDbEntity
  8
0-7_金物
  6
Continuous
 62
     7
370
     9
100
AcDbLine
 10
-2729.411186268933
 20
-274.0040731866279
 30
0.0
 11
-2730.829016452633
 21
-274.5942171636131
 31
0.0
  0
LINE
  5
168
330
1F
100
AcDbEntity
  8
0-7_金物
  6
Continuous
 62
     7
370
     9
100
AcDbLine
 10
-2730.829016452633
 20
-274.5942171636131
 30
0.0
 11
-2732.21344226027
 21
-275.1940112936819
 31
0.0
  0
LINE
  5
169
330
1F
100
AcDbEntity
  8
0-7_金物
  6
Continuous
 62
     7
370
     9
100
AcDbLine
 10
-2732.21344226027
 20
-275.1940112936819
 30
0.0
 11
-2733.572629206008
 21
-275.7975170210881
 31
0.0
  0
ELLIPSE
  5
16A
330
1F
100
AcDbEntity
  8
0-7_金物
  6
Continuous
 62
     7
370
     9
100
AcDbEllipse
 10
-2638.482990006258
 20
-214.2852143131068
 30
0.0
 11
3.306436842834778E-15
 21
-53.99999489655366
 31
0.0
210
0.0
220
0.0
230
1.0
 40
0.3888
 41
0.0
 42
6.283185307179586
  0
ELLIPSE
  5
16B
330
1F
100
AcDbEntity
  8
0-7_金物
  6
Continuous
 62
     7
370
     9
100
AcDbEllipse
 10
-2740.483623452208
 20
-214.2852143131068
 30
0.0
 11
3.306436842834778E-15
 21
-53.99999489655366
 31
0.0
210
0.0
220
0.0
230
1.0
 40
0.3888
 41
0.0
 42
6.283185307179586
  0
ARC
  5
16C
330
1F
100
AcDbEntity
  8
0-7_金物
  6
Continuous
 62
     7
370
     9
100
AcDbCircle
 10
-2637.44077347332
 20
-218.2618197026756
 30
0.0
 40
49.46393580050083
100
AcDbArc
 50
245.4683380126953
 51
297.6539306640625
  0
ARC
  5
16D
330
1F
100
AcDbEntity
  8
0-7_金物
  6
Continuous
 62
     7
370
     9
100
AcDbCircle
 10
-2741.525839985145
 20
-218.2618197026756
 30
0.0
 40
49.46393580050083
100
AcDbArc
 50
242.3460693359375
 51
294.5316619873047
  0
LINE
  5
16E
330
1F
100
AcDbEntity
  8
0-7_金物
  6
Continuous
 62
     7
370
     9
100
AcDbLine
 10
-2890.483009801447
 20
-275.7856399096005
 30
0.0
 11
-2890.483009801447
 21
-347.7854320601506
 31
0.0
  0
LINE
  5
16F
330
1F
100
AcDbEntity
  8
0-7_金物
  6
Continuous
 62
     7
370
     9
100
AcDbLine
 10
-2899.483009801445
 20
-5.785432060150413
 30
0.0
 11
-2890.483009801447
 21
-5.785432060150413
 31
0.0
  0
LINE
  5
170
330
1F
100
AcDbEntity
  8
0-7_金物
  6
Continuous
 62
     7
370
     9
100
AcDbLine
 10
-2890.483009801447
 20
-83.78563990960032
 30
0.0
 11
-2890.483009801447
 21
-5.785432060150413
 31
0.0
  0
LINE
  5
171
330
1F
100
AcDbEntity
  8
0-7_金物
  6
Continuous
 62
     7
370
     9
100
AcDbLine
 10
-2773.48269307847
 20
-137.785362777002
 30
0.0
 11
-2773.48269307847
 21
-146.7853627770006
 31
0.0
  0
LINE
  5
172
330
1F
100
AcDbEntity
  8
0-7_金物
  6
Continuous
 62
     7
370
     9
100
AcDbLine
 10
-2563.483009801452
 20
-83.78563990960032
 30
0.0
 11
-2572.483009801451
 21
-83.78563990960032
 31
0.0
  0
LINE
  5
173
330
1F
100
AcDbEntity
  8
0-7_金物
  6
Continuous
 62
     7
370
     9
100
AcDbLine
 10
-2572.483009801451
 20
-146.7853627770006
 30
0.0
 11
-2655.754537066021
 21
-146.7853627770006
 31
0.0
  0
LINE
  5
174
330
1F
100
AcDbEntity
  8
0-7_金物
  6
Continuous
 62
     7
370
     9
100
AcDbLine
 10
-2572.483009801451
 20
-83.78563990960032
 30
0.0
 11
-2572.483009801451
 21
-146.7853627770006
 31
0.0
  0
LINE
  5
175
330
1F
100
AcDbEntity
  8
0-7_金物
  6
Continuous
 62
     7
370
     9
100
AcDbLine
 10
-2655.754537066021
 20
-137.785362777002
 30
0.0
 11
-2890.483009801447
 21
-83.78563990960032
 31
0.0
  0
LINE
  5
176
330
1F
100
AcDbEntity
  8
0-7_金物
  6
Continuous
 62
     7
370
     9
100
AcDbLine
 10
-2655.754537066021
 20
-137.785362777002
 30
0.0
 11
-2655.754537066021
 21
-146.7853627770006
 31
0.0
  0
ARC
  5
177
330
1F
100
AcDbEntity
  8
0-7_金物
  6
Continuous
 62
     7
370
     9
100
AcDbCircle
 10
-2578.483009801452
 20
-161.7852440058854
 30
0.0
 40
6.0
100
AcDbArc
 50
0.0
 51
90.0
  0
LINE
  5
178
330
1F
100
AcDbEntity
  8
0-7_金物
  6
Continuous
 62
     7
370
     9
100
AcDbLine
 10
-2599.482435741063
 20
-155.7852440058841
 30
0.0
 11
-2578.483009801452
 21
-155.7852440058841
 31
0.0
  0
ARC
  5
179
330
1F
100
AcDbEntity
  8
0-7_金物
  6
Continuous
 62
     7
370
     9
100
AcDbCircle
 10
-2599.482435741063
 20
-161.7852440058854
 30
0.0
 40
6.0
100
AcDbArc
 50
90.0
 51
180.0
  0
LINE
  5
17A
330
1F
100
AcDbEntity
  8
0-7_金物
  6
Continuous
 62
     7
370
     9
100
AcDbLine
 10
-2572.483009801451
 20
-260.785758680714
 30
0.0
 11
-2572.483009801451
 21
-161.7852440058854
 31
0.0
  0
ARC
  5
17B
330
1F
100
AcDbEntity
  8
0-7_金物
  6
Continuous
 62
     7
370
     9
100
AcDbCircle
 10
-2578.483009801452
 20
-260.785758680714
 30
0.0
 40
6.0
100
AcDbArc
 50
270.0
 51
0.0
  0
LINE
  5
17C
330
1F
100
AcDbEntity
  8
0-7_金物
  6
Continuous
 62
     7
370
     9
100
AcDbLine
 10
-2605.482435741058
 20
-260.785758680714
 30
0.0
 11
-2605.482435741058
 21
-161.7852440058854
 31
0.0
  0
LINE
  5
17D
330
1F
100
AcDbEntity
  8
0-7_金物
  6
Continuous
 62
     7
370
     9
100
AcDbLine
 10
-2599.482435741063
 20
-266.7857586807153
 30
0.0
 11
-2578.483009801452
 21
-266.7857586807153
 31
0.0
  0
ARC
  5
17E
330
1F
100
AcDbEntity
  8
0-7_金物
  6
Continuous
 62
     7
370
     9
100
AcDbCircle
 10
-2599.482435741063
 20
-260.785758680714
 30
0.0
 40
6.0
100
AcDbArc
 50
180.0
 51
270.0
  0
LINE
  5
17F
330
1F
100
AcDbEntity
  8
0-7_金物
  6
Continuous
 62
     7
370
     9
100
AcDbLine
 10
-2614.482316969946
 20
-161.7852440058854
 30
0.0
 11
-2614.482316969946
 21
-262.074999337388
 31
0.0
  0
ARC
  5
180
330
1F
100
AcDbEntity
  8
0-7_金物
  6
Continuous
 62
     7
370
     9
100
AcDbCircle
 10
-2620.48231696994
 20
-161.7852440058854
 30
0.0
 40
6.0
100
AcDbArc
 50
0.0
 51
90.0
  0
LINE
  5
181
330
1F
100
AcDbEntity
  8
0-7_金物
  6
Continuous
 62
     7
370
     9
100
AcDbLine
 10
-2649.754537066013
 20
-155.7852440058841
 30
0.0
 11
-2620.48231696994
 21
-155.7852440058841
 31
0.0
  0
LINE
  5
182
330
1F
100
AcDbEntity
  8
0-7_金物
  6
Continuous
 62
     7
370
     9
100
AcDbLine
 10
-2655.754537066021
 20
-161.7852440058854
 30
0.0
 11
-2655.754537066021
 21
-173.7850064636527
 31
0.0
  0
ARC
  5
183
330
1F
100
AcDbEntity
  8
0-7_金物
  6
Continuous
 62
     7
370
     9
100
AcDbCircle
 10
-2649.754537066013
 20
-161.7852440058854
 30
0.0
 40
6.0
100
AcDbArc
 50
90.0
 51
180.0
  0
LINE
  5
184
330
1F
100
AcDbEntity
  8
0-7_金物
  6
Continuous
 62
     7
370
     9
100
AcDbLine
 10
-2667.754131264708
 20
-161.7852440058854
 30
0.0
 11
-2667.754131264708
 21
-173.7850064636527
 31
0.0
  0
ARC
  5
185
330
1F
100
AcDbEntity
  8
0-7_金物
  6
Continuous
 62
     7
370
     9
100
AcDbCircle
 10
-2673.754131264703
 20
-161.7852440058854
 30
0.0
 40
6.0
100
AcDbArc
 50
0.0
 51
90.0
  0
LINE
  5
186
330
1F
100
AcDbEntity
  8
0-7_金物
  6
Continuous
 62
     7
370
     9
100
AcDbLine
 10
-2704.811629681094
 20
-155.7852440058841
 30
0.0
 11
-2673.754131264703
 21
-155.7852440058841
 31
0.0
  0
LINE
  5
187
330
1F
100
AcDbEntity
  8
0-7_金物
  6
Continuous
 62
     7
370
     9
100
AcDbLine
 10
-2710.811629681096
 20
-161.7852440058854
 30
0.0
 11
-2710.811629681096
 21
-173.7850064636527
 31
0.0
  0
ARC
  5
188
330
1F
100
AcDbEntity
  8
0-7_金物
  6
Continuous
 62
     7
370
     9
100
AcDbCircle
 10
-2704.811629681094
 20
-161.7852440058854
 30
0.0
 40
6.0
100
AcDbArc
 50
90.0
 51
180.0
  0
LINE
  5
189
330
1F
100
AcDbEntity
  8
0-7_金物
  6
Continuous
 62
     7
370
     9
100
AcDbLine
 10
-2748.741445737208
 20
-137.785362777002
 30
0.0
 11
-2773.48269307847
 21
-137.785362777002
 31
0.0
  0
ARC
  5
18A
330
1F
100
AcDbEntity
  8
0-7_金物
  6
Continuous
 62
     7
370
     9
100
AcDbCircle
 10
-2748.741445737208
 20
-131.7853627770006
 30
0.0
 40
6.0
100
AcDbArc
 50
270.0
 51
77.04441318749183
  0
LINE
  5
18B
330
1F
100
AcDbEntity
  8
0-7_金物
  6
Continuous
 62
     7
370
     9
100
AcDbLine
 10
-2883.137835615305
 20
-94.7104979715877
 30
0.0
 11
-2747.396271551061
 21
-125.9380979113607
 31
0.0
  0
ARC
  5
18C
330
1F
100
AcDbEntity
  8
0-7_金物
  6
Continuous
 62
     7
370
     9
100
AcDbCircle
 10
-2884.483009801445
 20
-100.5577628372234
 30
0.0
 40
6.0
100
AcDbArc
 50
77.04441318749183
 51
180.0
  0
LINE
  5
18D
330
1F
100
AcDbEntity
  8
0-7_金物
  6
Continuous
 62
     7
370
     9
100
AcDbLine
 10
-2884.483009801445
 20
-146.7853627770006
 30
0.0
 11
-2773.48269307847
 21
-146.7853627770006
 31
0.0
  0
LINE
  5
18E
330
1F
100
AcDbEntity
  8
0-7_金物
  6
Continuous
 62
     7
370
     9
100
AcDbLine
 10
-2890.483009801447
 20
-140.7853627769992
 30
0.0
 11
-2890.483009801447
 21
-100.5577628372234
 31
0.0
  0
ARC
  5
18F
330
1F
100
AcDbEntity
  8
0-7_金物
  6
Continuous
 62
     7
370
     9
100
AcDbCircle
 10
-2884.483009801445
 20
-140.7853627769992
 30
0.0
 40
6.0
100
AcDbArc
 50
180.0
 51
270.0
  0
LINE
  5
190
330
1F
100
AcDbEntity
  8
0-7_金物
  6
Continuous
 62
     7
370
     9
100
AcDbLine
 10
-2779.482693078478
 20
-155.7852440058841
 30
0.0
 11
-2899.483009801445
 21
-155.7852440058841
 31
0.0
  0
ARC
  5
191
330
1F
100
AcDbEntity
  8
0-7_金物
  6
Continuous
 62
     7
370
     9
100
AcDbCircle
 10
-2779.482693078478
 20
-161.7852440058854
 30
0.0
 40
6.0
100
AcDbArc
 50
0.0
 51
90.0
  0
LINE
  5
192
330
1F
100
AcDbEntity
  8
0-7_金物
  6
Continuous
 62
     7
370
     9
100
AcDbLine
 10
-2773.48269307847
 20
-260.785758680714
 30
0.0
 11
-2773.48269307847
 21
-161.7852440058854
 31
0.0
  0
LINE
  5
193
330
1F
100
AcDbEntity
  8
0-7_金物
  6
Continuous
 62
     7
370
     9
100
AcDbLine
 10
-2779.482693078478
 20
-266.7857586807153
 30
0.0
 11
-2899.483009801445
 21
-266.7857586807153
 31
0.0
  0
ARC
  5
194
330
1F
100
AcDbEntity
  8
0-7_金物
  6
Continuous
 62
     7
370
     9
100
AcDbCircle
 10
-2779.482693078478
 20
-260.785758680714
 30
0.0
 40
6.0
100
AcDbArc
 50
270.0
 51
0.0
  0
LINE
  5
195
330
1F
100
AcDbEntity
  8
0-7_金物
  6
Continuous
 62
     7
370
     9
100
AcDbLine
 10
-2722.811966199252
 20
-161.7852440058854
 30
0.0
 11
-2722.811966199252
 21
-173.7850064636527
 31
0.0
  0
ARC
  5
196
330
1F
100
AcDbEntity
  8
0-7_金物
  6
Continuous
 62
     7
370
     9
100
AcDbCircle
 10
-2728.811966199253
 20
-161.7852440058854
 30
0.0
 40
6.0
100
AcDbArc
 50
0.0
 51
90.0
  0
LINE
  5
197
330
1F
100
AcDbEntity
  8
0-7_金物
  6
Continuous
 62
     7
370
     9
100
AcDbLine
 10
-2758.482811849588
 20
-155.7852440058841
 30
0.0
 11
-2728.811966199253
 21
-155.7852440058841
 31
0.0
  0
LINE
  5
198
330
1F
100
AcDbEntity
  8
0-7_金物
  6
Continuous
 62
     7
370
     9
100
AcDbLine
 10
-2764.482811849589
 20
-161.7852440058854
 30
0.0
 11
-2764.482811849589
 21
-262.074999337388
 31
0.0
  0
ARC
  5
199
330
1F
100
AcDbEntity
  8
0-7_金物
  6
Continuous
 62
     7
370
     9
100
AcDbCircle
 10
-2758.482811849588
 20
-161.7852440058854
 30
0.0
 40
6.0
100
AcDbArc
 50
90.0
 51
180.0
  0
LINE
  5
19A
330
1F
100
AcDbEntity
  8
0-7_金物
  6
Continuous
 62
     7
370
     9
100
AcDbLine
 10
-2563.483009801452
 20
-269.7856399096017
 30
0.0
 11
-2563.483009801452
 21
-83.78563990960032
 31
0.0
  0
LINE
  5
19B
330
1F
100
AcDbEntity
  8
0-7_金物
  6
Continuous
 62
     7
370
     9
100
AcDbLine
 10
-2569.483009801447
 20
-275.7856399096005
 30
0.0
 11
-2645.278182415471
 21
-275.7856399096005
 31
0.0
  0
ARC
  5
19C
330
1F
100
AcDbEntity
  8
0-7_金物
  6
Continuous
 62
     7
370
     9
100
AcDbCircle
 10
-2569.483009801447
 20
-269.7856399096017
 30
0.0
 40
6.0
100
AcDbArc
 50
270.0
 51
0.0
  0
LINE
  5
19D
330
1F
100
AcDbEntity
  8
0-7_金物
  6
Continuous
 62
     7
370
     9
100
AcDbLine
 10
-2677.482970211077
 20
-275.7856399096005
 30
0.0
 11
-2677.482970211077
 21
-305.7853627769992
 31
0.0
  0
LINE
  5
19E
330
1F
100
AcDbEntity
  8
0-7_金物
  6
Continuous
 62
     7
370
     9
100
AcDbLine
 10
-2701.482158608458
 20
-275.7856399096005
 30
0.0
 11
-2701.482158608458
 21
-305.7853627769992
 31
0.0
  0
LINE
  5
19F
330
1F
100
AcDbEntity
  8
0-C_ハッチ
  6
Continuous
 62
   120
370
     5
100
AcDbLine
 10
-2964.767854544096
 20
-563.7854320601546
 30
0.0
 11
-2989.483009801445
 21
-539.0702768027982
 31
0.0
  0
LINE
  5
1A0
330
1F
100
AcDbEntity
  8
0-C_ハッチ
  6
Continuous
 62
   120
370
     5
100
AcDbLine
 10
-2879.915040801682
 20
-563.7854320601588
 30
0.0
 11
-2951.915040801685
 21
-491.785432060156
 31
0.0
  0
LINE
  5
1A1
330
1F
100
AcDbEntity
  8
0-C_ハッチ
  6
Continuous
 62
   120
370
     5
100
AcDbLine
 10
-2851.483009801448
 20
-380.0854287044473
 30
0.0
 11
-2883.783006445745
 21
-347.7854320601531
 31
0.0
  0
LINE
  5
1A2
330
1F
100
AcDbEntity
  8
0-C_ハッチ
  6
Continuous
 62
   120
370
     5
100
AcDbLine
 10
-2851.483009801448
 20
-422.5118355756473
 30
0.0
 11
-2899.483009801445
 21
-374.5118355756526
 31
0.0
  0
LINE
  5
1A3
330
1F
100
AcDbEntity
  8
0-C_ハッチ
  6
Continuous
 62
   120
370
     5
100
AcDbLine
 10
-2851.483009801448
 20
-464.9382424468499
 30
0.0
 11
-2899.483009801445
 21
-416.9382424468526
 31
0.0
  0
LINE
  5
1A4
330
1F
100
AcDbEntity
  8
0-C_ハッチ
  6
Continuous
 62
   120
370
     5
100
AcDbLine
 10
-2851.483009801448
 20
-507.3646493179928
 30
0.0
 11
-2899.483009801452
 21
-459.3646493179912
 31
0.0
  0
LINE
  5
1A5
330
1F
100
AcDbEntity
  8
0-C_ハッチ
  6
Continuous
 62
   120
370
     5
100
AcDbLine
 10
-2856.485821865975
 20
-544.788244124673
 30
0.0
 11
-2909.488633930485
 21
-491.785432060156
 31
0.0
  0
LINE
  5
1A6
330
1F
100
AcDbEntity
  8
0-C_ハッチ
  6
Continuous
 62
   120
370
     5
100
AcDbLine
 10
-2922.341447672889
 20
-563.7854320601546
 30
0.0
 11
-2989.483009801445
 21
-496.6438699315913
 31
0.0
  0
LINE
  5
1A7
330
1F
100
AcDbEntity
  8
0-C_ハッチ
  6
Continuous
 62
   120
370
     5
100
AcDbLine
 10
-2700.086598008796
 20
-3392.785432060152
 30
0.0
 11
-2718.086103136226
 21
-3374.785432060152
 31
0.0
  0
LINE
  5
1A8
330
1F
100
AcDbEntity
  8
0-C_ハッチ
  6
Continuous
 62
   120
370
     5
100
AcDbLine
 10
-2721.300603762596
 20
-3392.785432060152
 30
0.0
 11
-2739.300108890026
 21
-3374.785432060152
 31
0.0
  0
LINE
  5
1A9
330
1F
100
AcDbEntity
  8
0-C_ハッチ
  6
Continuous
 62
   120
370
     5
100
AcDbLine
 10
-2742.513124877458
 20
-3392.785432060152
 30
0.0
 11
-2760.512630004888
 21
-3374.785432060152
 31
0.0
  0
LINE
  5
1AA
330
1F
100
AcDbEntity
  8
0-C_ハッチ
  6
Continuous
 62
   120
370
     5
100
AcDbLine
 10
-2763.725645992327
 20
-3392.785432060152
 30
0.0
 11
-2781.726140864901
 21
-3374.785432060152
 31
0.0
  0
LINE
  5
1AB
330
1F
100
AcDbEntity
  8
0-C_ハッチ
  6
Continuous
 62
   120
370
     5
100
AcDbLine
 10
-2680.483009801445
 20
-3369.962493398838
 30
0.0
 11
-2698.483009801445
 21
-3351.962493398831
 31
0.0
  0
LINE
  5
1AC
330
1F
100
AcDbEntity
  8
0-C_ハッチ
  6
Continuous
 62
   120
370
     5
100
AcDbLine
 10
-2680.483009801445
 20
-3348.748611353516
 30
0.0
 11
-2698.483009801445
 21
-3330.749106239688
 31
0.0
  0
LINE
  5
1AD
330
1F
100
AcDbEntity
  8
0-C_ハッチ
  6
Continuous
 62
   120
370
     5
100
AcDbLine
 10
-2680.483009801445
 20
-3327.535966530172
 30
0.0
 11
-2698.483009801445
 21
-3309.535966530168
 31
0.0
  0
LINE
  5
1AE
330
1F
100
AcDbEntity
  8
0-C_ハッチ
  6
Continuous
 62
   120
370
     5
100
AcDbLine
 10
-2680.483009801445
 20
-3306.322084484849
 30
0.0
 11
-2698.483009801445
 21
-3288.322579371021
 31
0.0
  0
LINE
  5
1AF
330
1F
100
AcDbEntity
  8
0-C_ハッチ
  6
Continuous
 62
   120
370
     5
100
AcDbLine
 10
-2680.483009801445
 20
-3285.109439661505
 30
0.0
 11
-2692.807413306514
 21
-3272.785036156434
 31
0.0
  0
LINE
  5
1B0
330
1F
100
AcDbEntity
  8
0-C_ハッチ
  6
Continuous
 62
   120
370
     5
100
AcDbLine
 10
-2684.975453107255
 20
-3386.682738988748
 30
0.0
 11
-2698.483009801445
 21
-3373.17555364653
 31
0.0
  0
LINE
  5
1B1
330
1F
100
AcDbEntity
  8
0-7_金物
  6
Continuous
 62
    92
370
    13
100
AcDbLine
 10
-2698.483009801445
 20
-3374.785432060152
 30
0.0
 11
-2788.483009801444
 21
-3374.785432060152
 31
0.0
  0
LINE
  5
1B2
330
1F
100
AcDbEntity
  8
0-7_金物
  6
Continuous
 62
    92
370
    13
100
AcDbLine
 10
-2698.483009801445
 20
-3374.785432060152
 30
0.0
 11
-2698.483009801445
 21
-3272.785036156434
 31
0.0
  0
LINE
  5
1B3
330
1F
100
AcDbEntity
  8
0-7_金物
  6
Continuous
 62
    92
370
    13
100
AcDbLine
 10
-2680.483009801445
 20
-3272.785036156434
 30
0.0
 11
-2698.483009801445
 21
-3272.785036156434
 31
0.0
  0
LINE
  5
1B4
330
1F
100
AcDbEntity
  8
0-7_金物
  6
Continuous
 62
    92
370
    13
100
AcDbLine
 10
-2788.483009801444
 20
-3392.785432060152
 30
0.0
 11
-2788.483009801444
 21
-3374.785432060152
 31
0.0
  0
ARC
  5
1B5
330
1F
100
AcDbEntity
  8
0-7_金物
  6
Continuous
 62
    92
370
    13
100
AcDbCircle
 10
-2698.483009801444
 20
-3374.785432060152
 30
0.0
 40
18.0
100
AcDbArc
 50
270.0
 51
0.0
  0
LINE
  5
1B6
330
1F
100
AcDbEntity
  8
0-7_金物
  6
Continuous
 62
    92
370
    13
100
AcDbLine
 10
-2680.483009801445
 20
-3374.785432060152
 30
0.0
 11
-2680.483009801445
 21
-3272.785036156434
 31
0.0
  0
LINE
  5
1B7
330
1F
100
AcDbEntity
  8
0-6_扉
  6
Continuous
 62
   200
370
    20
100
AcDbLine
 10
-2708.984039151108
 20
-3341.785060900416
 30
0.0
 11
-2708.984039151108
 21
-3233.785001514858
 31
0.0
  0
LINE
  5
1B8
330
1F
100
AcDbEntity
  8
0-6_扉
  6
Continuous
 62
   200
370
    20
100
AcDbLine
 10
-2669.984058946296
 20
-3341.785060900416
 30
0.0
 11
-2669.984058946296
 21
-3233.785001514858
 31
0.0
  0
LINE
  5
1B9
330
1F
100
AcDbEntity
  8
0-6_扉
  6
Continuous
 62
   200
370
    20
100
AcDbLine
 10
-2708.984039151108
 20
-3233.785001514858
 30
0.0
 11
-2669.984058946296
 21
-3233.785001514858
 31
0.0
  0
LINE
  5
1BA
330
1F
100
AcDbEntity
  8
0-6_扉
  6
Continuous
 62
   200
370
    20
100
AcDbLine
 10
-2669.984058946296
 20
-3341.785060900416
 30
0.0
 11
-2599.483009801445
 21
-3341.785060900416
 31
0.0
  0
LINE
  5
1BB
330
1F
100
AcDbEntity
  8
0-6_扉
  6
Continuous
 62
   200
370
    20
100
AcDbLine
 10
-2708.984039151108
 20
-3341.785060900416
 30
0.0
 11
-2779.48360365702
 21
-3341.785060900416
 31
0.0
  0
LINE
  5
1BC
330
1F
100
AcDbEntity
  8
0-6_扉
  6
Continuous
 62
   200
370
    20
100
AcDbLine
 10
-2779.48360365702
 20
-305.7853627769992
 30
0.0
 11
-2599.483009801445
 21
-305.7853627769992
 31
0.0
  0
LINE
  5
1BD
330
1F
100
AcDbEntity
  8
0-6_扉
  6
Continuous
 62
   200
370
    20
100
AcDbLine
 10
-2779.48360365702
 20
-305.7853627769992
 30
0.0
 11
-2779.48360365702
 21
-1772.785432060151
 31
0.0
  0
LINE
  5
1BE
330
1F
100
AcDbEntity
  8
0-6_扉
  6
Continuous
 62
   200
370
    20
100
AcDbLine
 10
-2779.48360365702
 20
-1862.785432060151
 30
0.0
 11
-2779.48360365702
 21
-3341.785060900416
 31
0.0
  0
LINE
  5
1BF
330
1F
100
AcDbEntity
  8
0-6_扉
  6
Continuous
 62
   200
370
    20
100
AcDbLine
 10
-2599.483009801445
 20
-305.7853627769992
 30
0.0
 11
-2599.483009801445
 21
-1772.785432060151
 31
0.0
  0
LINE
  5
1C0
330
1F
100
AcDbEntity
  8
0-6_扉
  6
Continuous
 62
   200
370
    20
100
AcDbLine
 10
-2599.483009801445
 20
-1862.785432060151
 30
0.0
 11
-2599.483009801445
 21
-3341.785060900416
 31
0.0
  0
LINE
  5
1C1
330
1F
100
AcDbEntity
  8
0-5_ケーシング
  6
Continuous
 62
    92
370
    13
100
AcDbLine
 10
-2875.483009801454
 20
-563.785432060152
 30
0.0
 11
-2851.483009801448
 21
-539.7854320601491
 31
0.0
  0
LINE
  5
1C2
330
1F
100
AcDbEntity
  8
0-5_ケーシング
  6
Continuous
 62
    92
370
    13
100
AcDbLine
 10
-2875.483009801454
 20
-563.785432060152
 30
0.0
 11
-2989.483009801445
 21
-563.785432060152
 31
0.0
  0
LINE
  5
1C3
330
1F
100
AcDbEntity
  8
0-5_ケーシング
  6
Continuous
 62
    92
370
    13
100
AcDbLine
 10
-2899.483009801445
 20
-491.7854320601518
 30
0.0
 11
-2899.483009801445
 21
-347.7854320601506
 31
0.0
  0
LINE
  5
1C4
330
1F
100
AcDbEntity
  8
0-5_ケーシング
  6
Continuous
 62
    92
370
    13
100
AcDbLine
 10
-2899.483009801445
 20
-491.7854320601518
 30
0.0
 11
-2989.483009801445
 21
-491.7854320601518
 31
0.0
  0
LINE
  5
1C5
330
1F
100
AcDbEntity
  8
0-5_ケーシング
  6
Continuous
 62
    92
370
    13
100
AcDbLine
 10
-2989.483009801445
 20
-563.785432060152
 30
0.0
 11
-2989.483009801445
 21
-491.7854320601518
 31
0.0
  0
LINE
  5
1C6
330
1F
100
AcDbEntity
  8
0-5_ケーシング
  6
Continuous
 62
    92
370
    13
100
AcDbLine
 10
-2851.483009801448
 20
-539.7854320601491
 30
0.0
 11
-2851.483009801448
 21
-347.7854320601506
 31
0.0
  0
LINE
  5
1C7
330
1F
100
AcDbEntity
  8
0-5_ケーシング
  6
Continuous
 62
    92
370
    13
100
AcDbLine
 10
-2899.483009801445
 20
-347.7854320601506
 30
0.0
 11
-2851.483009801448
 21
-347.7854320601506
 31
0.0
  0
LINE
  5
1C8
330
1F
100
AcDbEntity
  8
0-4_枠
  6
JWW_DASHED1
 62
    92
370
    13
100
AcDbLine
 10
-2899.483009801445
 20
27.21456793984856
 30
0.0
 11
-2974.483009801445
 21
27.21456793984856
 31
0.0
  0
LINE
  5
1C9
330
1F
100
AcDbEntity
  8
0-4_枠
  6
Continuous
 62
    92
370
    13
100
AcDbLine
 10
-2899.483009801445
 20
-347.7854320601506
 30
0.0
 11
-2827.483009801446
 21
-347.7854320601506
 31
0.0
  0
LINE
  5
1CA
330
1F
100
AcDbEntity
  8
0-4_枠
  6
Continuous
 62
    92
370
    13
100
AcDbLine
 10
-2827.483009801446
 20
-1772.785432060151
 30
0.0
 11
-2827.483009801446
 21
-347.7854320601506
 31
0.0
  0
LINE
  5
1CB
330
1F
100
AcDbEntity
  8
0-4_枠
  6
Continuous
 62
    92
370
    13
100
AcDbLine
 10
-2827.483009801446
 20
-1862.785432060151
 30
0.0
 11
-2827.483009801446
 21
-3392.785432060152
 31
0.0
  0
LINE
  5
1CC
330
1F
100
AcDbEntity
  8
0-4_枠
  6
Continuous
 62
    92
370
    13
100
AcDbLine
 10
-2989.483009801445
 20
-1862.785432060151
 30
0.0
 11
-2989.483009801445
 21
-3392.785432060152
 31
0.0
  0
LINE
  5
1CD
330
1F
100
AcDbEntity
  8
0-4_枠
  6
Continuous
 62
    92
370
    13
100
AcDbLine
 10
-2989.483009801445
 20
-1772.785432060151
 30
0.0
 11
-2989.483009801445
 21
-563.785432060152
 31
0.0
  0
LINE
  5
1CE
330
1F
100
AcDbEntity
  8
0-4_枠
  6
JWW_DASHED1
 62
    92
370
    13
100
AcDbLine
 10
-3496.483009801444
 20
-491.7854320601518
 30
0.0
 11
-3496.483009801444
 21
-416.7854320601518
 31
0.0
  0
LINE
  5
1CF
330
1F
100
AcDbEntity
  8
0-4_枠
  6
Continuous
 62
    92
370
    13
100
AcDbLine
 10
-2899.483009801445
 20
27.21456793984856
 30
0.0
 11
-2476.483009801444
 21
27.21456793984856
 31
0.0
  0
LINE
  5
1D0
330
1F
100
AcDbEntity
  8
0-4_枠
  6
Continuous
 62
    92
370
    13
100
AcDbLine
 10
-3496.483009801444
 20
-491.7854320601518
 30
0.0
 11
-3496.483009801444
 21
-1772.785432060151
 31
0.0
  0
LINE
  5
1D1
330
1F
100
AcDbEntity
  8
0-4_枠
  6
Continuous
 62
    92
370
    13
100
AcDbLine
 10
-2476.483009801444
 20
27.21456793984856
 30
0.0
 11
-2476.483009801444
 21
-1772.785432060151
 31
0.0
  0
LINE
  5
1D2
330
1F
100
AcDbEntity
  8
0-4_枠
  6
Continuous
 62
    92
370
    13
100
AcDbLine
 10
-3496.483009801444
 20
-1862.785432060151
 30
0.0
 11
-3496.483009801444
 21
-3392.785432060152
 31
0.0
  0
LINE
  5
1D3
330
1F
100
AcDbEntity
  8
0-4_枠
  6
Continuous
 62
    92
370
    13
100
AcDbLine
 10
-2476.483009801444
 20
-1862.785432060151
 30
0.0
 11
-2476.483009801444
 21
-3392.785432060152
 31
0.0
  0
LINE
  5
1D4
330
1F
100
AcDbEntity
  8
0-7_金物
  6
Continuous
 62
     7
370
     9
100
AcDbLine
 10
2110.35069354037
 20
-347.785432060148
 30
0.0
 11
2110.35069354037
 21
-5.785432060147002
 31
0.0
  0
LINE
  5
1D5
330
1F
100
AcDbEntity
  8
0-7_金物
  6
Continuous
 62
     7
370
     9
100
AcDbLine
 10
2128.350693540373
 20
-347.785432060148
 30
0.0
 11
2128.350693540373
 21
-5.785432060147002
 31
0.0
  0
LINE
  5
1D6
330
1F
100
AcDbEntity
  8
0-7_金物
  6
Continuous
 62
     7
370
     9
100
AcDbLine
 10
-1274.406935849494
 20
-347.785432060148
 30
0.0
 11
790.35069354037
 21
-347.785432060148
 31
0.0
  0
LINE
  5
1D7
330
1F
100
AcDbEntity
  8
0-7_金物
  6
Continuous
 62
     7
370
     9
100
AcDbLine
 10
910.35069354037
 20
-347.785432060148
 30
0.0
 11
2128.350693540373
 21
-347.785432060148
 31
0.0
  0
LINE
  5
1D8
330
1F
100
AcDbEntity
  8
0-7_金物
  6
Continuous
 62
     7
370
     9
100
AcDbLine
 10
2110.35069354037
 20
-275.7856399095979
 30
0.0
 11
910.35069354037
 21
-275.7856399095979
 31
0.0
  0
LINE
  5
1D9
330
1F
100
AcDbEntity
  8
0-7_金物
  6
Continuous
 62
     7
370
     9
100
AcDbLine
 10
790.35069354037
 20
-275.7856399095979
 30
0.0
 11
-1274.406935849494
 21
-275.7856399095979
 31
0.0
  0
LINE
  5
1DA
330
1F
100
AcDbEntity
  8
0-7_金物
  6
Continuous
 62
     7
370
     9
100
AcDbLine
 10
2110.35069354037
 20
-83.78563990959861
 30
0.0
 11
910.35069354037
 21
-83.78563990959861
 31
0.0
  0
LINE
  5
1DB
330
1F
100
AcDbEntity
  8
0-7_金物
  6
Continuous
 62
     7
370
     9
100
AcDbLine
 10
790.35069354037
 20
-83.78563990959861
 30
0.0
 11
-1274.406935849494
 21
-83.78563990959861
 31
0.0
  0
LINE
  5
1DC
330
1F
100
AcDbEntity
  8
0-7_金物
  6
Continuous
 62
     7
370
     9
100
AcDbLine
 10
2128.350693540373
 20
-5.785432060147002
 30
0.0
 11
910.35069354037
 21
-5.785432060147002
 31
0.0
  0
LINE
  5
1DD
330
1F
100
AcDbEntity
  8
0-7_金物
  6
Continuous
 62
     7
370
     9
100
AcDbLine
 10
790.35069354037
 20
-5.785432060147002
 30
0.0
 11
-1274.406935849494
 21
-5.785432060147002
 31
0.0
  0
MTEXT
  5
1DE
330
1F
100
AcDbEntity
  8
0-2_柱
  6
Continuous
 62
     7
370
     9
100
AcDbMText
 10
-3707.877332294467
 20
-3268.073408002399
 30
0.0
 40
74.295
 41
195.0
 46
0.0
 71
     7
 72
     1
  1
{\fＭＳ ゴシック|b0|i0|c128|p49;ＦＬ}
 73
     1
 44
1.0
  0
LINE
  5
1DF
330
1F
100
AcDbEntity
  8
0-2_柱
  6
Continuous
 62
   120
370
     5
100
AcDbLine
 10
-3677.723594207758
 20
-3292.726706342242
 30
0.0
 11
-3564.90291219762
 21
-3292.726706342242
 31
0.0
  0
LINE
  5
1E0
330
1F
100
AcDbEntity
  8
0-2_柱
  6
Continuous
 62
   120
370
     5
100
AcDbLine
 10
-3621.313253202696
 20
-3390.432279346893
 30
0.0
 11
-3677.723594207758
 21
-3292.726706342242
 31
0.0
  0
LINE
  5
1E1
330
1F
100
AcDbEntity
  8
0-2_柱
  6
Continuous
 62
   120
370
     5
100
AcDbLine
 10
-3564.90291219762
 20
-3292.726706342242
 30
0.0
 11
-3621.313253202696
 21
-3390.432279346893
 31
0.0
  0
MTEXT
  5
1E2
330
1F
100
AcDbEntity
  8
0-A_文字
  6
Continuous
 62
     7
370
     9
100
AcDbMText
 10
513.47202717511
 20
-3015.256509776379
 30
0.0
 40
78.97090909090909
 41
1140.0
 46
0.0
 71
     7
 72
     1
  1
{\fＭＳ ゴシック|b0|i0|c128|p49;床付　戸当りストッパー}
 73
     1
 44
1.0
  0
LINE
  5
1E3
330
1F
100
AcDbEntity
  8
0-A_文字
  6
Continuous
 62
     7
370
     9
100
AcDbLine
 10
455.5014257694265
 20
-3047.136243845089
 30
0.0
 11
455.5014257694265
 21
-2880.050693034108
 31
0.0
  0
LINE
  5
1E4
330
1F
100
AcDbEntity
  8
0-A_文字
  6
Continuous
 62
     7
370
     9
100
AcDbLine
 10
455.5014257694265
 20
-3047.136243845089
 30
0.0
 11
1702.809882208731
 21
-3047.136243845089
 31
0.0
  0
LINE
  5
1E5
330
1F
100
AcDbEntity
  8
0-A_文字
  6
Continuous
 62
     7
370
     9
100
AcDbLine
 10
1702.809882208731
 20
-2880.050693034108
 30
0.0
 11
1702.809882208731
 21
-3047.136243845089
 31
0.0
  0
LINE
  5
1E6
330
1F
100
AcDbEntity
  8
0-A_文字
  6
Continuous
 62
     7
370
     9
100
AcDbLine
 10
455.5014257694265
 20
-2880.050693034108
 30
0.0
 11
1702.809882208731
 21
-2880.050693034108
 31
0.0
  0
LINE
  5
1E7
330
1F
100
AcDbEntity
  8
0-A_文字
  6
Continuous
 62
     7
370
     9
100
AcDbLine
 10
1702.809882208731
 20
-2944.345514290687
 30
0.0
 11
1830.425617444069
 21
-2944.345514290687
 31
0.0
  0
LINE
  5
1E8
330
1F
100
AcDbEntity
  8
0-A_文字
  6
Continuous
 62
     7
370
     9
100
AcDbLine
 10
1830.425617444069
 20
-2944.345514290687
 30
0.0
 11
2126.074882740223
 21
-3277.051474584951
 31
0.0
  0
MTEXT
  5
1E9
330
1F
100
AcDbEntity
  8
0-A_文字
  6
Continuous
 62
     7
370
     9
100
AcDbMText
 10
-470.3767036964669
 20
-3022.604686778592
 30
0.0
 40
78.105
 41
615.0
 46
0.0
 71
     7
 72
     1
  1
{\fＭＳ ゴシック|b0|i0|c128|p49;振れ止め金具}
 73
     1
 44
1.0
  0
LINE
  5
1EA
330
1F
100
AcDbEntity
  8
0-A_文字
  6
Continuous
 62
     7
370
     9
100
AcDbLine
 10
-527.5102418542199
 20
-3047.136243845089
 30
0.0
 11
-527.5102418542199
 21
-2880.050693034108
 31
0.0
  0
LINE
  5
1EB
330
1F
100
AcDbEntity
  8
0-A_文字
  6
Continuous
 62
     7
370
     9
100
AcDbLine
 10
-709.6493064596111
 20
-3341.78468974068
 30
0.0
 11
-513.3317540673286
 21
-3047.136243845089
 31
0.0
  0
LINE
  5
1EC
330
1F
100
AcDbEntity
  8
0-A_文字
  6
Continuous
 62
     7
370
     9
100
AcDbLine
 10
-527.5102418542199
 20
-2880.050693034108
 30
0.0
 11
184.7971350120858
 21
-2880.050693034108
 31
0.0
  0
LINE
  5
1ED
330
1F
100
AcDbEntity
  8
0-A_文字
  6
Continuous
 62
     7
370
     9
100
AcDbLine
 10
184.7971350120858
 20
-3047.136243845089
 30
0.0
 11
184.7971350120858
 21
-2880.050693034108
 31
0.0
  0
LINE
  5
1EE
330
1F
100
AcDbEntity
  8
0-A_文字
  6
Continuous
 62
     7
370
     9
100
AcDbLine
 10
-527.5102418542199
 20
-3047.136243845089
 30
0.0
 11
184.7971350120858
 21
-3047.136243845089
 31
0.0
  0
MTEXT
  5
1EF
330
1F
100
AcDbEntity
  8
0-A_文字
  6
Continuous
 62
     7
370
     9
100
AcDbMText
 10
482.1613494320397
 20
-3160.178082438636
 30
0.0
 40
57.15000000000002
 41
1200.0
 46
0.0
 71
     7
 72
     1
  1
{\fＭＳ ゴシック|b0|i0|c128|p49;※ソフトクローズを付ける場合は、}
 73
     1
 44
1.0
  0
MTEXT
  5
1F0
330
1F
100
AcDbEntity
  8
0-A_文字
  6
Continuous
 62
     7
370
     9
100
AcDbMText
 10
482.1613494320397
 20
-3260.81733278956
 30
0.0
 40
57.15
 41
600.0
 46
0.0
 71
     7
 72
     1
  1
{\fＭＳ ゴシック|b0|i0|c128|p49;　必要ありません}
 73
     1
 44
1.0
  0
MTEXT
  5
1F1
330
1F
100
AcDbEntity
  8
0-A_文字
  6
Continuous
 62
     7
370
     9
100
AcDbMText
 10
-4013.547002534897
 20
289.7396101604703
 30
0.0
 40
77.15249999999999
 41
405.0
 46
0.0
 71
     7
 72
     1
  1
{\fＭＳ ゴシック|b0|i0|c128|p49;補強桟木}
 73
     1
 44
1.0
  0
LINE
  5
1F2
330
1F
100
AcDbEntity
  8
0-A_文字
  6
Continuous
 62
     7
370
     9
100
AcDbLine
 10
-4029.910999287992
 20
288.2205428645227
 30
0.0
 11
-3556.54918376364
 21
288.2205428645227
 31
0.0
  0
LINE
  5
1F3
330
1F
100
AcDbEntity
  8
0-A_文字
  6
Continuous
 62
     7
370
     9
100
AcDbLine
 10
-3556.54918376364
 20
288.2205428645227
 30
0.0
 11
-3266.279013000885
 21
-41.39262148941185
 31
0.0
  0
LINE
  5
1F4
330
1F
100
AcDbEntity
  8
0-7_金物
  6
Continuous
 62
     7
370
     9
100
AcDbLine
 10
-673.6493064596166
 20
-3272.785036156437
 30
0.0
 11
-745.6493064596125
 21
-3272.785036156437
 31
0.0
  0
LINE
  5
1F5
330
1F
100
AcDbEntity
  8
0-7_金物
  6
Continuous
 62
     7
370
     9
100
AcDbLine
 10
-619.6493064596111
 20
-3374.785432060152
 30
0.0
 11
-619.6493064596111
 21
-3392.785432060152
 31
0.0
  0
LINE
  5
1F6
330
1F
100
AcDbEntity
  8
0-7_金物
  6
Continuous
 62
     7
370
     9
100
AcDbLine
 10
-619.6493064596111
 20
-3374.785432060152
 30
0.0
 11
-799.6493064596111
 21
-3374.785432060152
 31
0.0
  0
LINE
  5
1F7
330
1F
100
AcDbEntity
  8
0-7_金物
  6
Continuous
 62
     7
370
     9
100
AcDbLine
 10
-799.6493064596111
 20
-3374.785432060152
 30
0.0
 11
-799.6493064596111
 21
-3392.785432060152
 31
0.0
  0
LINE
  5
1F8
330
1F
100
AcDbEntity
  8
0-7_金物
  6
Continuous
 62
     7
370
     9
100
AcDbLine
 10
-745.6493064596125
 20
-3272.785036156437
 30
0.0
 11
-745.6493064596125
 21
-3374.785432060152
 31
0.0
  0
LINE
  5
1F9
330
1F
100
AcDbEntity
  8
0-7_金物
  6
Continuous
 62
     7
370
     9
100
AcDbLine
 10
-673.6493064596166
 20
-3272.785036156437
 30
0.0
 11
-673.6493064596166
 21
-3374.785432060152
 31
0.0
  0
LINE
  5
1FA
330
1F
100
AcDbEntity
  8
0-1_通り芯
  6
JWW_CENTER1
 62
   120
370
     5
100
AcDbLine
 10
-709.6493064596111
 20
-3197.108238175674
 30
0.0
 11
-709.6493064596111
 21
-3486.298957985312
 31
0.0
  0
LINE
  5
1FB
330
1F
100
AcDbEntity
  8
0-3_仕上げ
  6
Continuous
 62
     7
370
     9
100
AcDbLine
 10
-1274.406935849494
 20
-3392.785432060152
 30
0.0
 11
790.35069354037
 21
-3392.785432060152
 31
0.0
  0
LINE
  5
1FC
330
1F
100
AcDbEntity
  8
0-3_仕上げ
  6
Continuous
 62
     7
370
     9
100
AcDbLine
 10
910.35069354037
 20
-3392.785432060152
 30
0.0
 11
2461.403717465358
 21
-3392.785432060152
 31
0.0
  0
LINE
  5
1FD
330
1F
100
AcDbEntity
  8
0-3_仕上げ
  6
Continuous
 62
     7
370
     9
100
AcDbLine
 10
-1274.406935849494
 20
-3410.785565677656
 30
0.0
 11
790.35069354037
 21
-3410.785565677656
 31
0.0
  0
LINE
  5
1FE
330
1F
100
AcDbEntity
  8
0-3_仕上げ
  6
Continuous
 62
     7
370
     9
100
AcDbLine
 10
910.35069354037
 20
-3410.785565677656
 30
0.0
 11
2461.403717465358
 21
-3410.785565677656
 31
0.0
  0
LINE
  5
1FF
330
1F
100
AcDbEntity
  8
0-3_仕上げ
  6
Continuous
 62
     7
370
     9
100
AcDbLine
 10
-1274.406935849494
 20
-3428.785699295158
 30
0.0
 11
790.35069354037
 21
-3428.785699295158
 31
0.0
  0
LINE
  5
200
330
1F
100
AcDbEntity
  8
0-3_仕上げ
  6
Continuous
 62
     7
370
     9
100
AcDbLine
 10
910.35069354037
 20
-3428.785699295158
 30
0.0
 11
2461.403717465358
 21
-3428.785699295158
 31
0.0
  0
LINE
  5
201
330
1F
100
AcDbEntity
  8
0-3_仕上げ
  6
Continuous
 62
     7
370
     9
100
AcDbLine
 10
-1274.406935849494
 20
-3446.78546175293
 30
0.0
 11
790.35069354037
 21
-3446.78546175293
 31
0.0
  0
LINE
  5
202
330
1F
100
AcDbEntity
  8
0-3_仕上げ
  6
Continuous
 62
     7
370
     9
100
AcDbLine
 10
910.35069354037
 20
-3446.78546175293
 30
0.0
 11
2461.403717465358
 21
-3446.78546175293
 31
0.0
  0
LINE
  5
203
330
1F
100
AcDbEntity
  8
0-3_仕上げ
  6
Continuous
 62
     7
370
     9
100
AcDbLine
 10
-1274.406935849494
 20
-3464.785595370433
 30
0.0
 11
790.35069354037
 21
-3464.785595370433
 31
0.0
  0
LINE
  5
204
330
1F
100
AcDbEntity
  8
0-3_仕上げ
  6
Continuous
 62
     7
370
     9
100
AcDbLine
 10
910.35069354037
 20
-3464.785595370433
 30
0.0
 11
2461.403717465358
 21
-3464.785595370433
 31
0.0
  0
LINE
  5
205
330
1F
100
AcDbEntity
  8
0-3_仕上げ
  6
Continuous
 62
     7
370
     9
100
AcDbLine
 10
-2348.488429968842
 20
-3410.785565677658
 30
0.0
 11
-3658.018634808863
 21
-3410.785565677658
 31
0.0
  0
LINE
  5
206
330
1F
100
AcDbEntity
  8
0-3_仕上げ
  6
Continuous
 62
     7
370
     9
100
AcDbLine
 10
-2348.488429968842
 20
-3428.785699295159
 30
0.0
 11
-3658.018634808863
 21
-3428.785699295159
 31
0.0
  0
LINE
  5
207
330
1F
100
AcDbEntity
  8
0-3_仕上げ
  6
Continuous
 62
     7
370
     9
100
AcDbLine
 10
-2348.488429968842
 20
-3446.78546175293
 30
0.0
 11
-3658.018634808863
 21
-3446.78546175293
 31
0.0
  0
LINE
  5
208
330
1F
100
AcDbEntity
  8
0-3_仕上げ
  6
Continuous
 62
     7
370
     9
100
AcDbLine
 10
-2348.488429968842
 20
-3392.785432060152
 30
0.0
 11
-3658.018634808863
 21
-3392.785432060152
 31
0.0
  0
LINE
  5
209
330
1F
100
AcDbEntity
  8
0-3_仕上げ
  6
Continuous
 62
     7
370
     9
100
AcDbLine
 10
-2348.488429968842
 20
-3464.785595370437
 30
0.0
 11
-3658.018634808863
 21
-3464.785595370437
 31
0.0
  0
MTEXT
  5
20A
330
1F
100
AcDbEntity
  8
0-A_文字
  6
Continuous
 62
     7
370
     9
100
AcDbMText
 10
-4131.252067947021
 20
588.3669488832811
 30
0.0
 40
91.44
 41
600.0
 46
0.0
 71
     7
 72
     1
  1
{\fＭＳ ゴシック|b0|i0|c128|p49;■縦断面図}
 73
     1
 44
1.0
  0
LINE
  5
20B
330
1F
100
AcDbEntity
  8
0-7_金物
  6
Continuous
 62
     7
370
     9
100
AcDbLine
 10
2062.350693540364
 20
-3392.785060900414
 30
0.0
 11
2062.350693540364
 21
-3182.785060900414
 31
0.0
  0
LINE
  5
20C
330
1F
100
AcDbEntity
  8
0-7_金物
  6
Continuous
 62
     7
370
     9
100
AcDbLine
 10
2116.350693540365
 20
-3182.785060900414
 30
0.0
 11
2062.350693540364
 21
-3182.785060900414
 31
0.0
  0
ARC
  5
20D
330
1F
100
AcDbEntity
  8
0-7_金物
  6
Continuous
 62
     7
370
     9
100
AcDbCircle
 10
2116.350693540365
 20
-3272.785060900414
 30
0.0
 40
90.0
100
AcDbArc
 50
0.0
 51
90.0
  0
LINE
  5
20E
330
1F
100
AcDbEntity
  8
0-7_金物
  6
Continuous
 62
     7
370
     9
100
AcDbLine
 10
2206.350693540365
 20
-3272.785060900414
 30
0.0
 11
2206.350693540365
 21
-3392.785060900414
 31
0.0
  0
LINE
  5
20F
330
1F
100
AcDbEntity
  8
0-1_通り芯
  6
JWW_CENTER1
 62
   120
370
     5
100
AcDbLine
 10
-2689.483009801445
 20
-3497.685517043273
 30
0.0
 11
-2689.483009801445
 21
-97.86513348119257
 31
0.0
  0
LINE
  5
210
330
1F
100
AcDbEntity
  8
0-1_通り芯
  6
JWW_DASHED1
 62
    92
370
    13
100
AcDbLine
 10
-2899.483009801445
 20
-563.785432060152
 30
0.0
 11
-2899.483009801445
 21
-1772.785432060151
 31
0.0
  0
LINE
  5
211
330
1F
100
AcDbEntity
  8
0-1_通り芯
  6
JWW_DASHED1
 62
    92
370
    13
100
AcDbLine
 10
-2899.483009801445
 20
-1862.785432060151
 30
0.0
 11
-2899.483009801445
 21
-3392.785432060152
 31
0.0
  0
LWPOLYLINE
  5
212
330
1F
100
AcDbEntity
  8
0-B_寸法
  6
Continuous
 62
     7
370
     9
100
AcDbPolyline
 90
        4
 70
     1
 43
3.0
 10
-3841.188665700462
 20
2353.156869501939
 42
0.4142135623731
 10
-3842.688665700463
 20
2354.656869501939
 42
0.4142135623731
 10
-3844.188665700463
 20
2353.156869501939
 42
0.4142135623731
 10
-3842.688665700463
 20
2351.656869501939
 42
0.4142135623731
  0
LINE
  5
213
330
1F
100
AcDbEntity
  8
0-B_寸法
  6
Continuous
 62
   120
370
     5
100
AcDbLine
 10
174.7033480334542
 20
2278.156869501939
 30
0.0
 11
174.7033480334542
 21
2206.15686950194
 31
0.0
  0
LWPOLYLINE
  5
214
330
1F
100
AcDbEntity
  8
0-B_寸法
  6
Continuous
 62
     7
370
     9
100
AcDbPolyline
 90
        4
 70
     1
 43
3.0
 10
176.2033480334542
 20
2278.156869501939
 42
0.4142135623731
 10
174.7033480334542
 20
2279.656869501939
 42
0.4142135623731
 10
173.2033480334542
 20
2278.156869501939
 42
0.4142135623731
 10
174.7033480334542
 20
2276.656869501939
 42
0.4142135623731
  0
LWPOLYLINE
  5
215
330
1F
100
AcDbEntity
  8
0-B_寸法
  6
Continuous
 62
     7
370
     9
100
AcDbPolyline
 90
        4
 70
     1
 43
3.0
 10
176.2033480334542
 20
2206.15686950194
 42
0.4142135623731
 10
174.7033480334542
 20
2207.65686950194
 42
0.4142135623731
 10
173.2033480334542
 20
2206.15686950194
 42
0.4142135623731
 10
174.7033480334542
 20
2204.65686950194
 42
0.4142135623731
  0
LINE
  5
216
330
1F
100
AcDbEntity
  8
0-B_寸法
  6
Continuous
 62
   120
370
     5
100
AcDbLine
 10
174.7033480334542
 20
2278.156869501939
 30
0.0
 11
-54.15456448870742
 21
2278.156869501939
 31
0.0
  0
MTEXT
  5
217
330
1F
100
AcDbEntity
  8
0-B_寸法
  6
Continuous
 62
     7
370
   211
100
AcDbMText
 10
159.7033480334542
 20
2185.55436950194
 30
0.0
 40
74.295
 41
97.5
 46
0.0
 71
     7
 72
     1
  1
{\fＭＳ ゴシック|b0|i0|c128|p49;12}
 11
6.123031769111886E-17
 21
1.0
 31
0.0
 73
     1
 44
1.0
  0
LINE
  5
218
330
1F
100
AcDbEntity
  8
0-B_寸法
  6
Continuous
 62
   120
370
     5
100
AcDbLine
 10
174.7033480334542
 20
2206.15686950194
 30
0.0
 11
174.7033480334542
 21
2158.156869501939
 31
0.0
  0
LWPOLYLINE
  5
219
330
1F
100
AcDbEntity
  8
0-B_寸法
  6
Continuous
 62
     7
370
     9
100
AcDbPolyline
 90
        4
 70
     1
 43
3.0
 10
176.2033480334542
 20
2158.156869501939
 42
0.4142135623731
 10
174.7033480334542
 20
2159.656869501939
 42
0.4142135623731
 10
173.2033480334542
 20
2158.156869501939
 42
0.4142135623731
 10
174.7033480334542
 20
2156.656869501939
 42
0.4142135623731
  0
LINE
  5
21A
330
1F
100
AcDbEntity
  8
0-B_寸法
  6
Continuous
 62
   120
370
     5
100
AcDbLine
 10
174.7033480334542
 20
2158.156869501939
 30
0.0
 11
174.7033480334542
 21
1978.156869501939
 31
0.0
  0
LWPOLYLINE
  5
21B
330
1F
100
AcDbEntity
  8
0-B_寸法
  6
Continuous
 62
     7
370
     9
100
AcDbPolyline
 90
        4
 70
     1
 43
3.0
 10
176.2033480334542
 20
1978.156869501939
 42
0.4142135623731
 10
174.7033480334542
 20
1979.656869501939
 42
0.4142135623731
 10
173.2033480334542
 20
1978.156869501939
 42
0.4142135623731
 10
174.7033480334542
 20
1976.656869501939
 42
0.4142135623731
  0
MTEXT
  5
21C
330
1F
100
AcDbEntity
  8
0-B_寸法
  6
Continuous
 62
     7
370
   211
100
AcDbMText
 10
159.7033480334542
 20
2011.554369501938
 30
0.0
 40
74.295
 41
97.5
 46
0.0
 71
     7
 72
     1
  1
{\fＭＳ ゴシック|b0|i0|c128|p49;30}
 11
6.123031769111886E-17
 21
1.0
 31
0.0
 73
     1
 44
1.0
  0
MTEXT
  5
21D
330
1F
100
AcDbEntity
  8
0-B_寸法
  6
Continuous
 62
     7
370
   211
100
AcDbMText
 10
27.51608773078118
 20
2283.713536061393
 30
0.0
 40
68.58
 41
45.0
 46
0.0
 71
     7
 72
     1
  1
{\fＭＳ ゴシック|b0|i0|c128|p49;8}
 11
6.123031769111886E-17
 21
1.0
 31
0.0
 73
     1
 44
1.0
  0
LINE
  5
21E
330
1F
100
AcDbEntity
  8
0-B_寸法
  6
Continuous
 62
     7
370
     9
100
AcDbLine
 10
24.80086147420337
 20
2210.661689993691
 30
0.0
 11
174.7033480334542
 21
2169.09209288062
 31
0.0
  0
LINE
  5
21F
330
1F
100
AcDbEntity
  8
0-B_寸法
  6
Continuous
 62
     7
370
     9
100
AcDbLine
 10
24.80086147420337
 20
2365.392198172372
 30
0.0
 11
24.80086147420337
 21
2210.661689993691
 31
0.0
  0
LINE
  5
220
330
1F
100
AcDbEntity
  8
0-B_寸法
  6
Continuous
 62
   120
370
     5
100
AcDbLine
 10
174.7033480334542
 20
2206.15686950194
 30
0.0
 11
-213.7507807930618
 21
2206.15686950194
 31
0.0
  0
LINE
  5
221
330
1F
100
AcDbEntity
  8
0-B_寸法
  6
Continuous
 62
   120
370
     5
100
AcDbLine
 10
174.7033480334542
 20
2158.156869501939
 30
0.0
 11
-213.7507807930618
 21
2158.156869501939
 31
0.0
  0
LINE
  5
222
330
1F
100
AcDbEntity
  8
0-B_寸法
  6
Continuous
 62
   120
370
     5
100
AcDbLine
 10
174.7033480334542
 20
1978.156869501939
 30
0.0
 11
-213.7507807930618
 21
1978.156869501939
 31
0.0
  0
LWPOLYLINE
  5
223
330
1F
100
AcDbEntity
  8
0-B_寸法
  6
Continuous
 62
     7
370
     9
100
AcDbPolyline
 90
        4
 70
     1
 43
3.0
 10
-1148.485063170231
 20
2374.15686950194
 42
0.4142135623731
 10
-1149.985063170231
 20
2375.65686950194
 42
0.4142135623731
 10
-1151.485063170231
 20
2374.15686950194
 42
0.4142135623731
 10
-1149.985063170231
 20
2372.65686950194
 42
0.4142135623731
  0
LWPOLYLINE
  5
224
330
1F
100
AcDbEntity
  8
0-B_寸法
  6
Continuous
 62
     7
370
     9
100
AcDbPolyline
 90
        4
 70
     1
 43
3.0
 10
-1148.485063170231
 20
2278.156869501939
 42
0.4142135623731
 10
-1149.985063170231
 20
2279.656869501939
 42
0.4142135623731
 10
-1151.485063170231
 20
2278.156869501939
 42
0.4142135623731
 10
-1149.985063170231
 20
2276.656869501939
 42
0.4142135623731
  0
LINE
  5
225
330
1F
100
AcDbEntity
  8
0-B_寸法
  6
Continuous
 62
   120
370
     5
100
AcDbLine
 10
-1149.985063170231
 20
2278.156869501939
 30
0.0
 11
-1023.677347740201
 21
2278.156869501939
 31
0.0
  0
LINE
  5
226
330
1F
100
AcDbEntity
  8
0-B_寸法
  6
Continuous
 62
   120
370
     5
100
AcDbLine
 10
-1149.985063170231
 20
2278.156869501939
 30
0.0
 11
-1149.985063170231
 21
2206.15686950194
 31
0.0
  0
LWPOLYLINE
  5
227
330
1F
100
AcDbEntity
  8
0-B_寸法
  6
Continuous
 62
     7
370
     9
100
AcDbPolyline
 90
        4
 70
     1
 43
3.0
 10
-1148.485063170231
 20
2206.15686950194
 42
0.4142135623731
 10
-1149.985063170231
 20
2207.65686950194
 42
0.4142135623731
 10
-1151.485063170231
 20
2206.15686950194
 42
0.4142135623731
 10
-1149.985063170231
 20
2204.65686950194
 42
0.4142135623731
  0
MTEXT
  5
228
330
1F
100
AcDbEntity
  8
0-B_寸法
  6
Continuous
 62
     7
370
   211
100
AcDbMText
 10
-1164.985063170231
 20
2185.55436950194
 30
0.0
 40
74.295
 41
97.5
 46
0.0
 71
     7
 72
     1
  1
{\fＭＳ ゴシック|b0|i0|c128|p49;12}
 11
6.123031769111886E-17
 21
1.0
 31
0.0
 73
     1
 44
1.0
  0
LINE
  5
229
330
1F
100
AcDbEntity
  8
0-B_寸法
  6
Continuous
 62
   120
370
     5
100
AcDbLine
 10
-1291.804252425002
 20
2374.15686950194
 30
0.0
 11
-1291.804252425002
 21
2206.15686950194
 31
0.0
  0
LWPOLYLINE
  5
22A
330
1F
100
AcDbEntity
  8
0-B_寸法
  6
Continuous
 62
     7
370
     9
100
AcDbPolyline
 90
        4
 70
     1
 43
3.0
 10
-1290.304252425002
 20
2374.15686950194
 42
0.4142135623731
 10
-1291.804252425002
 20
2375.65686950194
 42
0.4142135623731
 10
-1293.304252425002
 20
2374.15686950194
 42
0.4142135623731
 10
-1291.804252425002
 20
2372.65686950194
 42
0.4142135623731
  0
LWPOLYLINE
  5
22B
330
1F
100
AcDbEntity
  8
0-B_寸法
  6
Continuous
 62
     7
370
     9
100
AcDbPolyline
 90
        4
 70
     1
 43
3.0
 10
-1290.304252425002
 20
2206.15686950194
 42
0.4142135623731
 10
-1291.804252425002
 20
2207.65686950194
 42
0.4142135623731
 10
-1293.304252425002
 20
2206.15686950194
 42
0.4142135623731
 10
-1291.804252425002
 20
2204.65686950194
 42
0.4142135623731
  0
LINE
  5
22C
330
1F
100
AcDbEntity
  8
0-B_寸法
  6
Continuous
 62
   120
370
     5
100
AcDbLine
 10
-1291.804252425002
 20
2374.15686950194
 30
0.0
 11
-1149.985063170231
 21
2374.15686950194
 31
0.0
  0
LINE
  5
22D
330
1F
100
AcDbEntity
  8
0-B_寸法
  6
Continuous
 62
   120
370
     5
100
AcDbLine
 10
-1291.804252425002
 20
2206.15686950194
 30
0.0
 11
-483.4509983739022
 21
2206.15686950194
 31
0.0
  0
MTEXT
  5
22E
330
1F
100
AcDbEntity
  8
0-B_寸法
  6
Continuous
 62
     7
370
   211
100
AcDbMText
 10
-1306.804252425002
 20
2233.554369501941
 30
0.0
 40
74.295
 41
97.5
 46
0.0
 71
     7
 72
     1
  1
{\fＭＳ ゴシック|b0|i0|c128|p49;28}
 11
6.123031769111886E-17
 21
1.0
 31
0.0
 73
     1
 44
1.0
  0
MTEXT
  5
22F
330
1F
100
AcDbEntity
  8
0-B_寸法
  6
Continuous
 62
     7
370
   211
100
AcDbMText
 10
-1164.985063170231
 20
2377.998547856768
 30
0.0
 40
74.295
 41
97.5
 46
0.0
 71
     7
 72
     1
  1
{\fＭＳ ゴシック|b0|i0|c128|p49;16}
 11
6.123031769111886E-17
 21
1.0
 31
0.0
 73
     1
 44
1.0
  0
LINE
  5
230
330
1F
100
AcDbEntity
  8
0-B_寸法
  6
Continuous
 62
   120
370
     5
100
AcDbLine
 10
-1149.985063170231
 20
2501.078792819943
 30
0.0
 11
-1149.985063170231
 21
2278.156869501939
 31
0.0
  0
LINE
  5
231
330
1F
100
AcDbEntity
  8
0-B_寸法
  6
Continuous
 62
   120
370
     5
100
AcDbLine
 10
-1149.985063170231
 20
2374.15686950194
 30
0.0
 11
-483.4509983739022
 21
2374.15686950194
 31
0.0
  0
LINE
  5
232
330
1F
100
AcDbEntity
  8
0-B_寸法
  6
Continuous
 62
   120
370
     5
100
AcDbLine
 10
-1291.804252425002
 20
2206.15686950194
 30
0.0
 11
-1291.804252425002
 21
2167.156869501937
 31
0.0
  0
LWPOLYLINE
  5
233
330
1F
100
AcDbEntity
  8
0-B_寸法
  6
Continuous
 62
     7
370
     9
100
AcDbPolyline
 90
        4
 70
     1
 43
3.0
 10
-1290.304252425002
 20
2167.156869501937
 42
0.4142135623731
 10
-1291.804252425002
 20
2168.656869501937
 42
0.4142135623731
 10
-1293.304252425002
 20
2167.156869501937
 42
0.4142135623731
 10
-1291.804252425002
 20
2165.656869501937
 42
0.4142135623731
  0
LINE
  5
234
330
1F
100
AcDbEntity
  8
0-B_寸法
  6
Continuous
 62
   120
370
     5
100
AcDbLine
 10
-1291.804252425002
 20
2167.156869501937
 30
0.0
 11
-828.6289525808061
 21
2167.156869501937
 31
0.0
  0
LINE
  5
235
330
1F
100
AcDbEntity
  8
0-B_寸法
  6
Continuous
 62
     7
370
     9
100
AcDbLine
 10
-1448.671610594514
 20
2492.425192588822
 30
0.0
 11
-1448.671610594514
 21
2247.046608779141
 31
0.0
  0
LINE
  5
236
330
1F
100
AcDbEntity
  8
0-B_寸法
  6
Continuous
 62
     7
370
     9
100
AcDbLine
 10
-1448.671610594514
 20
2247.046608779141
 30
0.0
 11
-1291.804252425002
 21
2186.042636157663
 31
0.0
  0
MTEXT
  5
237
330
1F
100
AcDbEntity
  8
0-B_寸法
  6
Continuous
 62
     7
370
   211
100
AcDbMText
 10
-1463.06946904851
 20
2318.178413735715
 30
0.0
 40
76.19999999999999
 41
150.0
 46
0.0
 71
     7
 72
     1
  1
{\fＭＳ ゴシック|b0|i0|c128|p49;6.5}
 11
6.123031769111886E-17
 21
1.0
 31
0.0
 73
     1
 44
1.0
  0
LINE
  5
238
330
1F
100
AcDbEntity
  8
0-B_寸法
  6
Continuous
 62
   120
370
     5
100
AcDbLine
 10
-2929.649306459632
 20
2639.659593716952
 30
0.0
 11
-2929.649306459632
 21
2408.621727540993
 31
0.0
  0
LINE
  5
239
330
1F
100
AcDbEntity
  8
0-B_寸法
  6
Continuous
 62
   120
370
     5
100
AcDbLine
 10
-3842.688665700463
 20
1855.156869501939
 30
0.0
 11
-3842.688665700463
 21
2353.156869501939
 31
0.0
  0
LWPOLYLINE
  5
23A
330
1F
100
AcDbEntity
  8
0-B_寸法
  6
Continuous
 62
     7
370
     9
100
AcDbPolyline
 90
        4
 70
     1
 43
3.0
 10
-3841.188665700462
 20
1855.156869501939
 42
0.4142135623731
 10
-3842.688665700463
 20
1856.656869501939
 42
0.4142135623731
 10
-3844.188665700463
 20
1855.156869501939
 42
0.4142135623731
 10
-3842.688665700463
 20
1853.656869501939
 42
0.4142135623731
  0
MTEXT
  5
23B
330
1F
100
AcDbEntity
  8
0-B_寸法
  6
Continuous
 62
     7
370
   211
100
AcDbMText
 10
-3857.688665700463
 20
2047.554369501939
 30
0.0
 40
74.295
 41
97.5
 46
0.0
 71
     7
 72
     1
  1
{\fＭＳ ゴシック|b0|i0|c128|p49;83}
 11
6.123031769111886E-17
 21
1.0
 31
0.0
 73
     1
 44
1.0
  0
LINE
  5
23C
330
1F
100
AcDbEntity
  8
0-B_寸法
  6
Continuous
 62
   120
370
     5
100
AcDbLine
 10
-3842.688665700463
 20
2353.156869501939
 30
0.0
 11
-3842.688665700463
 21
2875.156869501939
 31
0.0
  0
LWPOLYLINE
  5
23D
330
1F
100
AcDbEntity
  8
0-B_寸法
  6
Continuous
 62
     7
370
     9
100
AcDbPolyline
 90
        4
 70
     1
 43
3.0
 10
-3841.188665700462
 20
2875.156869501939
 42
0.4142135623731
 10
-3842.688665700463
 20
2876.656869501939
 42
0.4142135623731
 10
-3844.188665700463
 20
2875.156869501939
 42
0.4142135623731
 10
-3842.688665700463
 20
2873.656869501939
 42
0.4142135623731
  0
MTEXT
  5
23E
330
1F
100
AcDbEntity
  8
0-B_寸法
  6
Continuous
 62
     7
370
   211
100
AcDbMText
 10
-3857.688665700463
 20
2557.554369501939
 30
0.0
 40
74.295
 41
97.5
 46
0.0
 71
     7
 72
     1
  1
{\fＭＳ ゴシック|b0|i0|c128|p49;87}
 11
6.123031769111886E-17
 21
1.0
 31
0.0
 73
     1
 44
1.0
  0
LINE
  5
23F
330
1F
100
AcDbEntity
  8
0-B_寸法
  6
Continuous
 62
   120
370
     5
100
AcDbLine
 10
-4004.002008846025
 20
1855.156869501939
 30
0.0
 11
-4004.002008846025
 21
2875.156869501939
 31
0.0
  0
LWPOLYLINE
  5
240
330
1F
100
AcDbEntity
  8
0-B_寸法
  6
Continuous
 62
     7
370
     9
100
AcDbPolyline
 90
        4
 70
     1
 43
3.0
 10
-4002.502008846025
 20
1855.156869501939
 42
0.4142135623731
 10
-4004.002008846025
 20
1856.656869501939
 42
0.4142135623731
 10
-4005.502008846026
 20
1855.156869501939
 42
0.4142135623731
 10
-4004.002008846025
 20
1853.656869501939
 42
0.4142135623731
  0
LWPOLYLINE
  5
241
330
1F
100
AcDbEntity
  8
0-B_寸法
  6
Continuous
 62
     7
370
     9
100
AcDbPolyline
 90
        4
 70
     1
 43
3.0
 10
-4002.502008846025
 20
2875.156869501939
 42
0.4142135623731
 10
-4004.002008846025
 20
2876.656869501939
 42
0.4142135623731
 10
-4005.502008846026
 20
2875.156869501939
 42
0.4142135623731
 10
-4004.002008846025
 20
2873.656869501939
 42
0.4142135623731
  0
LINE
  5
242
330
1F
100
AcDbEntity
  8
0-B_寸法
  6
Continuous
 62
   120
370
     5
100
AcDbLine
 10
-4004.002008846025
 20
1855.156869501939
 30
0.0
 11
-3842.688665700463
 21
1855.156869501939
 31
0.0
  0
LINE
  5
243
330
1F
100
AcDbEntity
  8
0-B_寸法
  6
Continuous
 62
   120
370
     5
100
AcDbLine
 10
-4004.002008846025
 20
2875.156869501939
 30
0.0
 11
-3842.688665700463
 21
2875.156869501939
 31
0.0
  0
MTEXT
  5
244
330
1F
100
AcDbEntity
  8
0-B_寸法
  6
Continuous
 62
     7
370
   211
100
AcDbMText
 10
-4019.002008846025
 20
2283.256869501939
 30
0.0
 40
76.19999999999999
 41
150.0
 46
0.0
 71
     7
 72
     1
  1
{\fＭＳ ゴシック|b0|i0|c128|p49;170}
 11
6.123031769111886E-17
 21
1.0
 31
0.0
 73
     1
 44
1.0
  0
LINE
  5
245
330
1F
100
AcDbEntity
  8
0-B_寸法
  6
Continuous
 62
   120
370
     5
100
AcDbLine
 10
-3842.688665700463
 20
2875.156869501939
 30
0.0
 11
-3159.879809093356
 21
2875.156869501939
 31
0.0
  0
LWPOLYLINE
  5
246
330
1F
100
AcDbEntity
  8
0-B_寸法
  6
Continuous
 62
     7
370
     9
100
AcDbPolyline
 90
        4
 70
     1
 43
3.0
 10
-2928.14930645963
 20
3333.138515755867
 42
0.4142135623731
 10
-2929.64930645963
 20
3334.638515755867
 42
0.4142135623731
 10
-2931.14930645963
 20
3333.138515755867
 42
0.4142135623731
 10
-2929.64930645963
 20
3331.638515755867
 42
0.4142135623731
  0
LINE
  5
247
330
1F
100
AcDbEntity
  8
0-B_寸法
  6
Continuous
 62
   120
370
     5
100
AcDbLine
 10
-3034.649157995736
 20
3485.949056416598
 30
0.0
 11
-2929.64930645963
 21
3485.949056416598
 31
0.0
  0
LWPOLYLINE
  5
248
330
1F
100
AcDbEntity
  8
0-B_寸法
  6
Continuous
 62
     7
370
     9
100
AcDbPolyline
 90
        4
 70
     1
 43
3.0
 10
-3033.149157995736
 20
3485.949056416598
 42
0.4142135623731
 10
-3034.649157995736
 20
3487.449056416598
 42
0.4142135623731
 10
-3036.149157995736
 20
3485.949056416598
 42
0.4142135623731
 10
-3034.649157995736
 20
3484.449056416598
 42
0.4142135623731
  0
LWPOLYLINE
  5
249
330
1F
100
AcDbEntity
  8
0-B_寸法
  6
Continuous
 62
     7
370
     9
100
AcDbPolyline
 90
        4
 70
     1
 43
3.0
 10
-2928.14930645963
 20
3485.949056416598
 42
0.4142135623731
 10
-2929.64930645963
 20
3487.449056416598
 42
0.4142135623731
 10
-2931.14930645963
 20
3485.949056416598
 42
0.4142135623731
 10
-2929.64930645963
 20
3484.449056416598
 42
0.4142135623731
  0
MTEXT
  5
24A
330
1F
100
AcDbEntity
  8
0-B_寸法
  6
Continuous
 62
     7
370
   211
100
AcDbMText
 10
-3020.807070724192
 20
3494.525306416598
 30
0.0
 40
77.15249999999999
 41
202.5
 46
0.0
 71
     7
 72
     1
  1
{\fＭＳ ゴシック|b0|i0|c128|p49;17.5}
 73
     1
 44
1.0
  0
LWPOLYLINE
  5
24B
330
1F
100
AcDbEntity
  8
0-B_寸法
  6
Continuous
 62
     7
370
     9
100
AcDbPolyline
 90
        4
 70
     1
 43
3.0
 10
-3033.149157995736
 20
3662.260891949906
 42
0.4142135623731
 10
-3034.649157995736
 20
3663.760891949906
 42
0.4142135623731
 10
-3036.149157995736
 20
3662.260891949906
 42
0.4142135623731
 10
-3034.649157995736
 20
3660.760891949907
 42
0.4142135623731
  0
LINE
  5
24C
330
1F
100
AcDbEntity
  8
0-B_寸法
  6
Continuous
 62
   120
370
     5
100
AcDbLine
 10
-2929.64930645963
 20
3485.949056416598
 30
0.0
 11
-2929.64930645963
 21
3333.138515755867
 31
0.0
  0
LINE
  5
24D
330
1F
100
AcDbEntity
  8
0-B_寸法
  6
Continuous
 62
   120
370
     5
100
AcDbLine
 10
-3034.649157995736
 20
3662.260891949906
 30
0.0
 11
-3034.649157995736
 21
3143.494387937417
 31
0.0
  0
LWPOLYLINE
  5
24E
330
1F
100
AcDbEntity
  8
0-B_寸法
  6
Continuous
 62
     7
370
     9
100
AcDbPolyline
 90
        4
 70
     1
 43
3.0
 10
-408.1493064596299
 20
3333.138515755867
 42
0.4142135623731
 10
-409.6493064596299
 20
3334.638515755867
 42
0.4142135623731
 10
-411.1493064596299
 20
3333.138515755867
 42
0.4142135623731
 10
-409.6493064596299
 20
3331.638515755867
 42
0.4142135623731
  0
LINE
  5
24F
330
1F
100
AcDbEntity
  8
0-B_寸法
  6
Continuous
 62
   120
370
     5
100
AcDbLine
 10
-409.6493064596299
 20
3333.138515755867
 30
0.0
 11
-409.649306459618
 21
2589.04338328015
 31
0.0
  0
LWPOLYLINE
  5
250
330
1F
100
AcDbEntity
  8
0-B_寸法
  6
Continuous
 62
     7
370
     9
100
AcDbPolyline
 90
        4
 70
     1
 43
3.0
 10
-408.1493064596299
 20
3485.949056416598
 42
0.4142135623731
 10
-409.6493064596299
 20
3487.449056416598
 42
0.4142135623731
 10
-411.1493064596299
 20
3485.949056416598
 42
0.4142135623731
 10
-409.6493064596299
 20
3484.449056416598
 42
0.4142135623731
  0
LINE
  5
251
330
1F
100
AcDbEntity
  8
0-B_寸法
  6
Continuous
 62
   120
370
     5
100
AcDbLine
 10
-409.6493064596299
 20
3485.949056416598
 30
0.0
 11
-337.6493064596221
 21
3485.949056416598
 31
0.0
  0
LWPOLYLINE
  5
252
330
1F
100
AcDbEntity
  8
0-B_寸法
  6
Continuous
 62
     7
370
     9
100
AcDbPolyline
 90
        4
 70
     1
 43
3.0
 10
-336.1493064596221
 20
3485.949056416598
 42
0.4142135623731
 10
-337.6493064596221
 20
3487.449056416598
 42
0.4142135623731
 10
-339.1493064596221
 20
3485.949056416598
 42
0.4142135623731
 10
-337.6493064596221
 20
3484.449056416598
 42
0.4142135623731
  0
LWPOLYLINE
  5
253
330
1F
100
AcDbEntity
  8
0-B_寸法
  6
Continuous
 62
     7
370
     9
100
AcDbPolyline
 90
        4
 70
     1
 43
3.0
 10
-336.1493064596221
 20
3662.260891949906
 42
0.4142135623731
 10
-337.6493064596221
 20
3663.760891949906
 42
0.4142135623731
 10
-339.1493064596221
 20
3662.260891949906
 42
0.4142135623731
 10
-337.6493064596221
 20
3660.760891949907
 42
0.4142135623731
  0
LINE
  5
254
330
1F
100
AcDbEntity
  8
0-B_寸法
  6
Continuous
 62
   120
370
     5
100
AcDbLine
 10
-409.6493064596299
 20
3485.949056416598
 30
0.0
 11
-409.6493064596299
 21
3333.138515755867
 31
0.0
  0
LINE
  5
255
330
1F
100
AcDbEntity
  8
0-B_寸法
  6
Continuous
 62
   120
370
     5
100
AcDbLine
 10
-337.6493064596221
 20
3662.260891949906
 30
0.0
 11
-337.6493064596221
 21
3143.494387937417
 31
0.0
  0
MTEXT
  5
256
330
1F
100
AcDbEntity
  8
0-B_寸法
  6
Continuous
 62
     7
370
   211
100
AcDbMText
 10
-448.5286738404076
 20
3493.096556416598
 30
0.0
 40
74.295
 41
97.5
 46
0.0
 71
     7
 72
     1
  1
{\fＭＳ ゴシック|b0|i0|c128|p49;12}
 73
     1
 44
1.0
  0
LINE
  5
257
330
1F
100
AcDbEntity
  8
0-B_寸法
  6
Continuous
 62
   120
370
     5
100
AcDbLine
 10
-2929.64930645963
 20
3485.949056416598
 30
0.0
 11
-409.6493064596299
 21
3485.949056416598
 31
0.0
  0
LINE
  5
258
330
1F
100
AcDbEntity
  8
0-B_寸法
  6
Continuous
 62
   120
370
     5
100
AcDbLine
 10
-3034.649157995736
 20
3662.260891949906
 30
0.0
 11
-337.6493064596221
 21
3662.260891949906
 31
0.0
  0
LWPOLYLINE
  5
259
330
1F
100
AcDbEntity
  8
0-B_寸法
  6
Continuous
 62
     7
370
     9
100
AcDbPolyline
 90
        4
 70
     1
 43
3.0
 10
-1158.149306459616
 20
3333.138515755867
 42
0.4142135623731
 10
-1159.649306459616
 20
3334.638515755867
 42
0.4142135623731
 10
-1161.149306459616
 20
3333.138515755867
 42
0.4142135623731
 10
-1159.649306459616
 20
3331.638515755867
 42
0.4142135623731
  0
LINE
  5
25A
330
1F
100
AcDbEntity
  8
0-B_寸法
  6
Continuous
 62
   120
370
     5
100
AcDbLine
 10
-2929.64930645963
 20
3333.138515755867
 30
0.0
 11
-1159.649306459616
 21
3333.138515755867
 31
0.0
  0
LINE
  5
25B
330
1F
100
AcDbEntity
  8
0-B_寸法
  6
Continuous
 62
   120
370
     5
100
AcDbLine
 10
-1159.649306459616
 20
3333.138515755867
 30
0.0
 11
-409.6493064596299
 21
3333.138515755867
 31
0.0
  0
LINE
  5
25C
330
1F
100
AcDbEntity
  8
0-B_寸法
  6
Continuous
 62
   120
370
     5
100
AcDbLine
 10
-2929.64930645963
 20
3333.138515755867
 30
0.0
 11
-2929.64930645963
 21
3010.081865812157
 31
0.0
  0
LINE
  5
25D
330
1F
100
AcDbEntity
  8
0-B_寸法
  6
Continuous
 62
   120
370
     5
100
AcDbLine
 10
-1159.649306459616
 20
3333.138515755867
 30
0.0
 11
-1159.649306459616
 21
2636.526803861429
 31
0.0
  0
LINE
  5
25E
330
1F
100
AcDbEntity
  8
0-B_寸法
  6
Continuous
 62
   120
370
     5
100
AcDbLine
 10
-2929.64930645963
 20
3160.584916763028
 30
0.0
 11
-2716.691247509563
 21
3160.584916763028
 31
0.0
  0
LWPOLYLINE
  5
25F
330
1F
100
AcDbEntity
  8
0-B_寸法
  6
Continuous
 62
     7
370
     9
100
AcDbPolyline
 90
        4
 70
     1
 43
3.0
 10
-2928.14930645963
 20
3160.584916763028
 42
0.4142135623731
 10
-2929.64930645963
 20
3162.084916763028
 42
0.4142135623731
 10
-2931.14930645963
 20
3160.584916763028
 42
0.4142135623731
 10
-2929.64930645963
 20
3159.084916763028
 42
0.4142135623731
  0
LWPOLYLINE
  5
260
330
1F
100
AcDbEntity
  8
0-B_寸法
  6
Continuous
 62
     7
370
     9
100
AcDbPolyline
 90
        4
 70
     1
 43
3.0
 10
-2715.191247509564
 20
3160.584916763028
 42
0.4142135623731
 10
-2716.691247509563
 20
3162.084916763028
 42
0.4142135623731
 10
-2718.191247509563
 20
3160.584916763028
 42
0.4142135623731
 10
-2716.691247509563
 20
3159.084916763028
 42
0.4142135623731
  0
LINE
  5
261
330
1F
100
AcDbEntity
  8
0-B_寸法
  6
Continuous
 62
   120
370
     5
100
AcDbLine
 10
-2716.691247509563
 20
3160.584916763028
 30
0.0
 11
-2716.691247509563
 21
2636.526803861429
 31
0.0
  0
LINE
  5
262
330
1F
100
AcDbEntity
  8
0-B_寸法
  6
Continuous
 62
   120
370
     5
100
AcDbLine
 10
-799.6493064596077
 20
3160.584916763028
 30
0.0
 11
-619.6493064596164
 21
3160.584916763028
 31
0.0
  0
LWPOLYLINE
  5
263
330
1F
100
AcDbEntity
  8
0-B_寸法
  6
Continuous
 62
     7
370
     9
100
AcDbPolyline
 90
        4
 70
     1
 43
3.0
 10
-798.1493064596077
 20
3160.584916763028
 42
0.4142135623731
 10
-799.6493064596077
 20
3162.084916763028
 42
0.4142135623731
 10
-801.1493064596078
 20
3160.584916763028
 42
0.4142135623731
 10
-799.6493064596077
 20
3159.084916763028
 42
0.4142135623731
  0
LWPOLYLINE
  5
264
330
1F
100
AcDbEntity
  8
0-B_寸法
  6
Continuous
 62
     7
370
     9
100
AcDbPolyline
 90
        4
 70
     1
 43
3.0
 10
-618.1493064596162
 20
3160.584916763028
 42
0.4142135623731
 10
-619.6493064596164
 20
3162.084916763028
 42
0.4142135623731
 10
-621.1493064596164
 20
3160.584916763028
 42
0.4142135623731
 10
-619.6493064596164
 20
3159.084916763028
 42
0.4142135623731
  0
LINE
  5
265
330
1F
100
AcDbEntity
  8
0-B_寸法
  6
Continuous
 62
   120
370
     5
100
AcDbLine
 10
-619.6493064596164
 20
3160.584916763028
 30
0.0
 11
-409.649306459618
 21
3160.584916763028
 31
0.0
  0
LWPOLYLINE
  5
266
330
1F
100
AcDbEntity
  8
0-B_寸法
  6
Continuous
 62
     7
370
     9
100
AcDbPolyline
 90
        4
 70
     1
 43
3.0
 10
-408.149306459618
 20
3160.584916763028
 42
0.4142135623731
 10
-409.649306459618
 20
3162.084916763028
 42
0.4142135623731
 10
-411.149306459618
 20
3160.584916763028
 42
0.4142135623731
 10
-409.649306459618
 20
3159.084916763028
 42
0.4142135623731
  0
LINE
  5
267
330
1F
100
AcDbEntity
  8
0-B_寸法
  6
Continuous
 62
   120
370
     5
100
AcDbLine
 10
-619.6493064596164
 20
3160.584916763028
 30
0.0
 11
-619.6493064596164
 21
2589.04338328015
 31
0.0
  0
LINE
  5
268
330
1F
100
AcDbEntity
  8
0-B_寸法
  6
Continuous
 62
   120
370
     5
100
AcDbLine
 10
-799.6493064596077
 20
3160.584916763028
 30
0.0
 11
-799.6493064596077
 21
2589.04338328015
 31
0.0
  0
LWPOLYLINE
  5
269
330
1F
100
AcDbEntity
  8
0-B_寸法
  6
Continuous
 62
     7
370
     9
100
AcDbPolyline
 90
        4
 70
     1
 43
3.0
 10
-2928.14930645963
 20
1234.708349661547
 42
0.4142135623731
 10
-2929.64930645963
 20
1236.208349661547
 42
0.4142135623731
 10
-2931.14930645963
 20
1234.708349661547
 42
0.4142135623731
 10
-2929.64930645963
 20
1233.208349661547
 42
0.4142135623731
  0
LINE
  5
26A
330
1F
100
AcDbEntity
  8
0-B_寸法
  6
Continuous
 62
   120
370
     5
100
AcDbLine
 10
-2929.64930645963
 20
1234.708349661547
 30
0.0
 11
-3109.649157995736
 21
1234.708349661547
 31
0.0
  0
LWPOLYLINE
  5
26B
330
1F
100
AcDbEntity
  8
0-B_寸法
  6
Continuous
 62
     7
370
     9
100
AcDbPolyline
 90
        4
 70
     1
 43
3.0
 10
-3108.149157995736
 20
1234.708349661547
 42
0.4142135623731
 10
-3109.649157995736
 20
1236.208349661547
 42
0.4142135623731
 10
-3111.149157995736
 20
1234.708349661547
 42
0.4142135623731
 10
-3109.649157995736
 20
1233.208349661547
 42
0.4142135623731
  0
LWPOLYLINE
  5
26C
330
1F
100
AcDbEntity
  8
0-B_寸法
  6
Continuous
 62
     7
370
     9
100
AcDbPolyline
 90
        4
 70
     1
 43
3.0
 10
2111.85069354037
 20
1234.708349661547
 42
0.4142135623731
 10
2110.35069354037
 20
1236.208349661547
 42
0.4142135623731
 10
2108.85069354037
 20
1234.708349661547
 42
0.4142135623731
 10
2110.35069354037
 20
1233.208349661547
 42
0.4142135623731
  0
LINE
  5
26D
330
1F
100
AcDbEntity
  8
0-B_寸法
  6
Continuous
 62
   120
370
     5
100
AcDbLine
 10
2110.35069354037
 20
1234.708349661547
 30
0.0
 11
2128.350693540373
 21
1234.708349661547
 31
0.0
  0
LWPOLYLINE
  5
26E
330
1F
100
AcDbEntity
  8
0-B_寸法
  6
Continuous
 62
     7
370
     9
100
AcDbPolyline
 90
        4
 70
     1
 43
3.0
 10
2129.850693540373
 20
1234.708349661547
 42
0.4142135623731
 10
2128.350693540373
 20
1236.208349661547
 42
0.4142135623731
 10
2126.850693540373
 20
1234.708349661547
 42
0.4142135623731
 10
2128.350693540373
 20
1233.208349661547
 42
0.4142135623731
  0
MTEXT
  5
26F
330
1F
100
AcDbEntity
  8
0-B_寸法
  6
Continuous
 62
     7
370
   211
100
AcDbMText
 10
2050.941423624678
 20
1227.873726477942
 30
0.0
 40
68.58
 41
45.0
 46
0.0
 71
     7
 72
     1
  1
{\fＭＳ ゴシック|b0|i0|c128|p49;3}
 73
     1
 44
1.0
  0
LINE
  5
270
330
1F
100
AcDbEntity
  8
0-B_寸法
  6
Continuous
 62
   120
370
     5
100
AcDbLine
 10
-2929.64930645963
 20
1234.708349661547
 30
0.0
 11
2110.35069354037
 21
1234.708349661547
 31
0.0
  0
LINE
  5
271
330
1F
100
AcDbEntity
  8
0-B_寸法
  6
Continuous
 62
   120
370
     5
100
AcDbLine
 10
-2929.64930645963
 20
1234.708349661547
 30
0.0
 11
-2929.64930645963
 21
1767.619805179901
 31
0.0
  0
LINE
  5
272
330
1F
100
AcDbEntity
  8
0-B_寸法
  6
Continuous
 62
   120
370
     5
100
AcDbLine
 10
2110.35069354037
 20
1234.708349661547
 30
0.0
 11
2110.35069354037
 21
1767.619805179901
 31
0.0
  0
LINE
  5
273
330
1F
100
AcDbEntity
  8
0-B_寸法
  6
Continuous
 62
   120
370
     5
100
AcDbLine
 10
2128.350693540373
 20
1234.708349661547
 30
0.0
 11
2128.350693540373
 21
1767.619805179901
 31
0.0
  0
LINE
  5
274
330
1F
100
AcDbEntity
  8
0-B_寸法
  6
Continuous
 62
   120
370
     5
100
AcDbLine
 10
-3109.649157995736
 20
1234.708349661547
 30
0.0
 11
-3109.649157995736
 21
1767.619805179901
 31
0.0
  0
LWPOLYLINE
  5
275
330
1F
100
AcDbEntity
  8
0-B_寸法
  6
Continuous
 62
     7
370
     9
100
AcDbPolyline
 90
        4
 70
     1
 43
3.0
 10
-408.1493064596316
 20
1586.065334386667
 42
0.4142135623731
 10
-409.6493064596316
 20
1587.565334386667
 42
0.4142135623731
 10
-411.1493064596316
 20
1586.065334386667
 42
0.4142135623731
 10
-409.6493064596316
 20
1584.565334386667
 42
0.4142135623731
  0
LWPOLYLINE
  5
276
330
1F
100
AcDbEntity
  8
0-B_寸法
  6
Continuous
 62
     7
370
     9
100
AcDbPolyline
 90
        4
 70
     1
 43
3.0
 10
-336.1493064596221
 20
1586.065334386667
 42
0.4142135623731
 10
-337.6493064596221
 20
1587.565334386667
 42
0.4142135623731
 10
-339.1493064596221
 20
1586.065334386667
 42
0.4142135623731
 10
-337.6493064596221
 20
1584.565334386667
 42
0.4142135623731
  0
LINE
  5
277
330
1F
100
AcDbEntity
  8
0-B_寸法
  6
Continuous
 62
   120
370
     5
100
AcDbLine
 10
-337.6493064596221
 20
1586.065334386667
 30
0.0
 11
-241.6493064596276
 21
1586.065334386667
 31
0.0
  0
LWPOLYLINE
  5
278
330
1F
100
AcDbEntity
  8
0-B_寸法
  6
Continuous
 62
     7
370
     9
100
AcDbPolyline
 90
        4
 70
     1
 43
3.0
 10
-240.1493064596275
 20
1586.065334386667
 42
0.4142135623731
 10
-241.6493064596276
 20
1587.565334386667
 42
0.4142135623731
 10
-243.1493064596276
 20
1586.065334386667
 42
0.4142135623731
 10
-241.6493064596276
 20
1584.565334386667
 42
0.4142135623731
  0
LINE
  5
279
330
1F
100
AcDbEntity
  8
0-B_寸法
  6
Continuous
 62
   120
370
     5
100
AcDbLine
 10
-409.6493064596316
 20
1424.970246713124
 30
0.0
 11
-241.6493064596276
 21
1424.970246713124
 31
0.0
  0
LWPOLYLINE
  5
27A
330
1F
100
AcDbEntity
  8
0-B_寸法
  6
Continuous
 62
     7
370
     9
100
AcDbPolyline
 90
        4
 70
     1
 43
3.0
 10
-408.1493064596316
 20
1424.970246713124
 42
0.4142135623731
 10
-409.6493064596316
 20
1426.470246713124
 42
0.4142135623731
 10
-411.1493064596316
 20
1424.970246713124
 42
0.4142135623731
 10
-409.6493064596316
 20
1423.470246713124
 42
0.4142135623731
  0
LWPOLYLINE
  5
27B
330
1F
100
AcDbEntity
  8
0-B_寸法
  6
Continuous
 62
     7
370
     9
100
AcDbPolyline
 90
        4
 70
     1
 43
3.0
 10
-240.1493064596275
 20
1424.970246713124
 42
0.4142135623731
 10
-241.6493064596276
 20
1426.470246713124
 42
0.4142135623731
 10
-243.1493064596276
 20
1424.970246713124
 42
0.4142135623731
 10
-241.6493064596276
 20
1423.470246713124
 42
0.4142135623731
  0
LINE
  5
27C
330
1F
100
AcDbEntity
  8
0-B_寸法
  6
Continuous
 62
   120
370
     5
100
AcDbLine
 10
-409.6493064596316
 20
1424.970246713124
 30
0.0
 11
-409.6493064596316
 21
1586.065334386667
 31
0.0
  0
LINE
  5
27D
330
1F
100
AcDbEntity
  8
0-B_寸法
  6
Continuous
 62
   120
370
     5
100
AcDbLine
 10
-241.6493064596276
 20
1424.970246713124
 30
0.0
 11
-241.6493064596276
 21
1586.065334386667
 31
0.0
  0
LINE
  5
27E
330
1F
100
AcDbEntity
  8
0-B_寸法
  6
Continuous
 62
   120
370
     5
100
AcDbLine
 10
-498.0568530299249
 20
1586.065334386667
 30
0.0
 11
-337.6493064596221
 21
1586.065334386667
 31
0.0
  0
LINE
  5
27F
330
1F
100
AcDbEntity
  8
0-B_寸法
  6
Continuous
 62
   120
370
     5
100
AcDbLine
 10
-409.6493064596316
 20
1586.065334386667
 30
0.0
 11
-409.6493064596316
 21
2095.012734294358
 31
0.0
  0
LINE
  5
280
330
1F
100
AcDbEntity
  8
0-B_寸法
  6
Continuous
 62
   120
370
     5
100
AcDbLine
 10
-241.6493064596276
 20
1586.065334386667
 30
0.0
 11
-241.6493064596276
 21
2095.012734294358
 31
0.0
  0
LINE
  5
281
330
1F
100
AcDbEntity
  8
0-B_寸法
  6
Continuous
 62
   120
370
     5
100
AcDbLine
 10
-337.6493064596221
 20
1586.065334386667
 30
0.0
 11
-337.6493064596221
 21
2095.012734294358
 31
0.0
  0
MTEXT
  5
282
330
1F
100
AcDbEntity
  8
0-B_寸法
  6
Continuous
 62
     7
370
   211
100
AcDbMText
 10
-859.8459442002982
 20
3355.831348259199
 30
0.0
 40
76.19999999999999
 41
150.0
 46
0.0
 71
     7
 72
     1
  1
{\fＭＳ ゴシック|b0|i0|c128|p49;125}
 73
     1
 44
1.0
  0
MTEXT
  5
283
330
1F
100
AcDbEntity
  8
0-B_寸法
  6
Continuous
 62
     7
370
   211
100
AcDbMText
 10
-758.3993064596111
 20
3172.973875109368
 30
0.0
 40
74.295
 41
97.5
 46
0.0
 71
     7
 72
     1
  1
{\fＭＳ ゴシック|b0|i0|c128|p49;30}
 73
     1
 44
1.0
  0
MTEXT
  5
284
330
1F
100
AcDbEntity
  8
0-B_寸法
  6
Continuous
 62
     7
370
   211
100
AcDbMText
 10
-563.3993064596164
 20
3172.973875109368
 30
0.0
 40
74.295
 41
97.5
 46
0.0
 71
     7
 72
     1
  1
{\fＭＳ ゴシック|b0|i0|c128|p49;35}
 73
     1
 44
1.0
  0
MTEXT
  5
285
330
1F
100
AcDbEntity
  8
0-B_寸法
  6
Continuous
 62
     7
370
   211
100
AcDbMText
 10
-2924.420276984597
 20
3174.402625109368
 30
0.0
 40
77.15249999999999
 41
202.5
 46
0.0
 71
     7
 72
     1
  1
{\fＭＳ ゴシック|b0|i0|c128|p49;35.5}
 73
     1
 44
1.0
  0
MTEXT
  5
286
330
1F
100
AcDbEntity
  8
0-B_寸法
  6
Continuous
 62
     7
370
   211
100
AcDbMText
 10
-3068.399232227683
 20
1235.920383403807
 30
0.0
 40
74.295
 41
97.5
 46
0.0
 71
     7
 72
     1
  1
{\fＭＳ ゴシック|b0|i0|c128|p49;30}
 73
     1
 44
1.0
  0
MTEXT
  5
287
330
1F
100
AcDbEntity
  8
0-B_寸法
  6
Continuous
 62
     7
370
   211
100
AcDbMText
 10
-374.3993064596296
 20
1437.359205059465
 30
0.0
 40
74.295
 41
97.5
 46
0.0
 71
     7
 72
     1
  1
{\fＭＳ ゴシック|b0|i0|c128|p49;28}
 73
     1
 44
1.0
  0
MTEXT
  5
288
330
1F
100
AcDbEntity
  8
0-B_寸法
  6
Continuous
 62
     7
370
   211
100
AcDbMText
 10
-516.8356739278695
 20
1598.454292733008
 30
0.0
 40
74.295
 41
97.5
 46
0.0
 71
     7
 72
     1
  1
{\fＭＳ ゴシック|b0|i0|c128|p49;12}
 73
     1
 44
1.0
  0
MTEXT
  5
289
330
1F
100
AcDbEntity
  8
0-B_寸法
  6
Continuous
 62
     7
370
   211
100
AcDbMText
 10
-338.3993064596248
 20
1598.454292733008
 30
0.0
 40
74.295
 41
97.5
 46
0.0
 71
     7
 72
     1
  1
{\fＭＳ ゴシック|b0|i0|c128|p49;16}
 73
     1
 44
1.0
  0
LINE
  5
28A
330
1F
100
AcDbEntity
  8
0-B_寸法
  6
Continuous
 62
   120
370
     5
100
AcDbLine
 10
-3842.688665700463
 20
1855.156869501939
 30
0.0
 11
-3688.073232330406
 21
1855.156869501939
 31
0.0
  0
LINE
  5
28B
330
1F
100
AcDbEntity
  8
0-B_寸法
  6
Continuous
 62
   120
370
     5
100
AcDbLine
 10
-3647.115606552718
 20
2353.156869501939
 30
0.0
 11
-3647.115606552718
 21
1843.156869501939
 31
0.0
  0
LWPOLYLINE
  5
28C
330
1F
100
AcDbEntity
  8
0-B_寸法
  6
Continuous
 62
     7
370
     9
100
AcDbPolyline
 90
        4
 70
     1
 43
3.0
 10
-3645.615606552718
 20
2353.156869501939
 42
0.4142135623731
 10
-3647.115606552718
 20
2354.656869501939
 42
0.4142135623731
 10
-3648.615606552718
 20
2353.156869501939
 42
0.4142135623731
 10
-3647.115606552718
 20
2351.656869501939
 42
0.4142135623731
  0
LWPOLYLINE
  5
28D
330
1F
100
AcDbEntity
  8
0-B_寸法
  6
Continuous
 62
     7
370
     9
100
AcDbPolyline
 90
        4
 70
     1
 43
3.0
 10
-3645.615606552718
 20
1843.156869501939
 42
0.4142135623731
 10
-3647.115606552718
 20
1844.656869501939
 42
0.4142135623731
 10
-3648.615606552718
 20
1843.156869501939
 42
0.4142135623731
 10
-3647.115606552718
 20
1841.656869501939
 42
0.4142135623731
  0
LINE
  5
28E
330
1F
100
AcDbEntity
  8
0-B_寸法
  6
Continuous
 62
   120
370
     5
100
AcDbLine
 10
-3647.115606552718
 20
2353.156869501939
 30
0.0
 11
-3489.554549747605
 21
2353.156869501939
 31
0.0
  0
LINE
  5
28F
330
1F
100
AcDbEntity
  8
0-B_寸法
  6
Continuous
 62
   120
370
     5
100
AcDbLine
 10
-3647.115606552718
 20
1843.156869501939
 30
0.0
 11
-3489.554549747605
 21
1843.156869501939
 31
0.0
  0
MTEXT
  5
290
330
1F
100
AcDbEntity
  8
0-B_寸法
  6
Continuous
 62
     7
370
   211
100
AcDbMText
 10
-3662.115606552718
 20
2041.554369501938
 30
0.0
 40
74.295
 41
97.5
 46
0.0
 71
     7
 72
     1
  1
{\fＭＳ ゴシック|b0|i0|c128|p49;85}
 11
6.123031769111886E-17
 21
1.0
 31
0.0
 73
     1
 44
1.0
  0
LINE
  5
291
330
1F
100
AcDbEntity
  8
0-B_寸法
  6
Continuous
 62
   120
370
     5
100
AcDbLine
 10
-3842.688665700463
 20
2353.156869501939
 30
0.0
 11
-3647.115606552718
 21
2353.156869501939
 31
0.0
  0
LINE
  5
292
330
1F
100
AcDbEntity
  8
0-3_仕上げ
  6
Continuous
 62
    40
370
    15
100
AcDbLine
 10
-262.6493064596221
 20
2983.156869501939
 30
0.0
 11
-262.6493064596221
 21
2353.156869501939
 31
0.0
  0
LINE
  5
293
330
1F
100
AcDbEntity
  8
0-3_仕上げ
  6
Continuous
 62
    40
370
    15
100
AcDbLine
 10
-337.6493064596221
 20
3058.156869501939
 30
0.0
 11
-337.6493064596221
 21
2278.156869501939
 31
0.0
  0
LINE
  5
294
330
1F
100
AcDbEntity
  8
0-3_仕上げ
  6
Continuous
 62
    40
370
    15
100
AcDbLine
 10
-262.6493064596221
 20
2353.156869501939
 30
0.0
 11
790.35069354037
 21
2353.156869501939
 31
0.0
  0
LINE
  5
295
330
1F
100
AcDbEntity
  8
0-3_仕上げ
  6
Continuous
 62
    40
370
    15
100
AcDbLine
 10
-337.6493064596221
 20
2278.156869501939
 30
0.0
 11
790.35069354037
 21
2278.156869501939
 31
0.0
  0
LINE
  5
296
330
1F
100
AcDbEntity
  8
0-3_仕上げ
  6
Continuous
 62
    40
370
    15
100
AcDbLine
 10
2317.472587310051
 20
2983.156869501939
 30
0.0
 11
910.35069354037
 21
2983.156869501939
 31
0.0
  0
LINE
  5
297
330
1F
100
AcDbEntity
  8
0-3_仕上げ
  6
Continuous
 62
    40
370
    15
100
AcDbLine
 10
2317.472587310051
 20
3058.156869501939
 30
0.0
 11
910.35069354037
 21
3058.156869501939
 31
0.0
  0
LINE
  5
298
330
1F
100
AcDbEntity
  8
0-3_仕上げ
  6
Continuous
 62
    40
370
    15
100
AcDbLine
 10
910.35069354037
 20
2353.156869501939
 30
0.0
 11
2317.472587310051
 21
2353.156869501939
 31
0.0
  0
LINE
  5
299
330
1F
100
AcDbEntity
  8
0-3_仕上げ
  6
Continuous
 62
    40
370
    15
100
AcDbLine
 10
910.35069354037
 20
2278.156869501939
 30
0.0
 11
2317.472587310051
 21
2278.156869501939
 31
0.0
  0
LINE
  5
29A
330
1F
100
AcDbEntity
  8
0-3_仕上げ
  6
Continuous
 62
    40
370
    15
100
AcDbLine
 10
-3109.649157995736
 20
2983.156869501939
 30
0.0
 11
-3657.500439535201
 21
2983.156869501939
 31
0.0
  0
LINE
  5
29B
330
1F
100
AcDbEntity
  8
0-3_仕上げ
  6
Continuous
 62
    40
370
    15
100
AcDbLine
 10
-3034.649157995736
 20
3058.156869501939
 30
0.0
 11
-3657.500439535201
 21
3058.156869501939
 31
0.0
  0
LINE
  5
29C
330
1F
100
AcDbEntity
  8
0-3_仕上げ
  6
Continuous
 62
    40
370
    15
100
AcDbLine
 10
790.35069354037
 20
2983.156869501939
 30
0.0
 11
-262.6493064596221
 21
2983.156869501939
 31
0.0
  0
LINE
  5
29D
330
1F
100
AcDbEntity
  8
0-3_仕上げ
  6
Continuous
 62
    40
370
    15
100
AcDbLine
 10
790.35069354037
 20
3058.156869501939
 30
0.0
 11
-337.6493064596221
 21
3058.156869501939
 31
0.0
  0
LINE
  5
29E
330
1F
100
AcDbEntity
  8
0-3_仕上げ
  6
Continuous
 62
    40
370
    15
100
AcDbLine
 10
-3034.649157995736
 20
2875.156869501939
 30
0.0
 11
-3034.649157995736
 21
3058.156869501939
 31
0.0
  0
LINE
  5
29F
330
1F
100
AcDbEntity
  8
0-3_仕上げ
  6
Continuous
 62
    40
370
    15
100
AcDbLine
 10
-3109.649157995736
 20
2875.156869501939
 30
0.0
 11
-3109.649157995736
 21
2983.156869501939
 31
0.0
  0
LINE
  5
2A0
330
1F
100
AcDbEntity
  8
0-3_仕上げ
  6
Continuous
 62
    40
370
    15
100
AcDbLine
 10
-3109.649157995736
 20
2353.156869501939
 30
0.0
 11
-3430.489142390621
 21
2353.156869501939
 31
0.0
  0
LINE
  5
2A1
330
1F
100
AcDbEntity
  8
0-3_仕上げ
  6
Continuous
 62
    40
370
    15
100
AcDbLine
 10
-3229.649157995735
 20
2278.156869501939
 30
0.0
 11
-3430.489142390621
 21
2278.156869501939
 31
0.0
  0
LINE
  5
2A2
330
1F
100
AcDbEntity
  8
0-1_通り芯
  6
JWW_CENTER1
 62
   120
370
     5
100
AcDbLine
 10
2317.472587310051
 20
2068.156869501939
 30
0.0
 11
-3180.155251549787
 21
2068.156869501939
 31
0.0
  0
LINE
  5
2A3
330
1F
100
AcDbEntity
  8
その他構成部品
  6
JWW_CENTER1
 62
   120
370
     5
100
AcDbLine
 10
-2716.691247509563
 20
2458.157017965832
 30
0.0
 11
-2566.691247509563
 21
2458.157017965832
 31
0.0
  0
LINE
  5
2A4
330
1F
100
AcDbEntity
  8
その他構成部品
  6
JWW_CENTER1
 62
   120
370
     5
100
AcDbLine
 10
-2641.691247509563
 20
2533.157017965832
 30
0.0
 11
-2641.691247509563
 21
1633.157017965833
 31
0.0
  0
LINE
  5
2A5
330
1F
100
AcDbEntity
  8
その他構成部品
  6
JWW_CENTER1
 62
   120
370
     5
100
AcDbLine
 10
-2716.691247509563
 20
1693.157017965832
 30
0.0
 11
-2566.691247509563
 21
1693.157017965832
 31
0.0
  0
LINE
  5
2A6
330
1F
100
AcDbEntity
  8
その他構成部品
  6
JWW_CENTER1
 62
   120
370
     5
100
AcDbLine
 10
-778.6493064596166
 20
2443.15686981124
 30
0.0
 11
-928.6493064596166
 21
2443.15686981124
 31
0.0
  0
LINE
  5
2A7
330
1F
100
AcDbEntity
  8
その他構成部品
  6
JWW_CENTER1
 62
   120
370
     5
100
AcDbLine
 10
-778.6493064596166
 20
1693.15686981124
 30
0.0
 11
-928.6493064596166
 21
1693.15686981124
 31
0.0
  0
LINE
  5
2A8
330
1F
100
AcDbEntity
  8
その他構成部品
  6
JWW_CENTER1
 62
   120
370
     5
100
AcDbLine
 10
-853.6493064596166
 20
1618.156869811241
 30
0.0
 11
-853.6493064596166
 21
2518.15686981124
 31
0.0
  0
LINE
  5
2A9
330
1F
100
AcDbEntity
  8
その他構成部品
  6
JWW_DASHED1
 62
   120
370
     5
100
AcDbLine
 10
-982.6493064596186
 20
1978.156869501932
 30
0.0
 11
-943.64930645962
 21
1858.156869501932
 31
0.0
  0
LINE
  5
2AA
330
1F
100
AcDbEntity
  8
その他構成部品
  6
JWW_DASHED1
 62
   120
370
     5
100
AcDbLine
 10
-763.64930645962
 20
1858.156869501932
 30
0.0
 11
-724.6493064596164
 21
1978.156869501932
 31
0.0
  0
LINE
  5
2AB
330
1F
100
AcDbEntity
  8
その他構成部品
  6
JWW_DASHED1
 62
   120
370
     5
100
AcDbLine
 10
-943.64930645962
 20
1858.156869501932
 30
0.0
 11
-763.64930645962
 21
1858.156869501932
 31
0.0
  0
CIRCLE
  5
2AC
330
1F
100
AcDbEntity
  8
その他構成部品
  6
JWW_DASHED1
 62
   120
370
     5
100
AcDbCircle
 10
-853.6493064596166
 20
1693.15686981124
 30
0.0
 40
74.99999999999999
  0
CIRCLE
  5
2AD
330
1F
100
AcDbEntity
  8
その他構成部品
  6
JWW_DASHED1
 62
   120
370
     5
100
AcDbCircle
 10
-853.6493064596166
 20
2443.15686981124
 30
0.0
 40
74.99999999999999
  0
LINE
  5
2AE
330
1F
100
AcDbEntity
  8
その他構成部品
  6
JWW_DASHED1
 62
   120
370
     5
100
AcDbLine
 10
-1024.649306459621
 20
2167.156869501937
 30
0.0
 11
-682.6493064596186
 21
2167.156869501937
 31
0.0
  0
LINE
  5
2AF
330
1F
100
AcDbEntity
  8
その他構成部品
  6
JWW_DASHED1
 62
   120
370
     5
100
AcDbLine
 10
-1024.649306459621
 20
2167.156869501937
 30
0.0
 11
-1024.649306459621
 21
2158.156869501939
 31
0.0
  0
LINE
  5
2B0
330
1F
100
AcDbEntity
  8
その他構成部品
  6
JWW_DASHED1
 62
   120
370
     5
100
AcDbLine
 10
-682.6493064596186
 20
2167.156869501937
 30
0.0
 11
-682.6493064596186
 21
2158.156869501939
 31
0.0
  0
LINE
  5
2B1
330
1F
100
AcDbEntity
  8
その他構成部品
  6
JWW_DASHED1
 62
   120
370
     5
100
AcDbLine
 10
-763.64930645962
 20
2185.156869501941
 30
0.0
 11
-763.64930645962
 21
2167.156869501937
 31
0.0
  0
LINE
  5
2B2
330
1F
100
AcDbEntity
  8
その他構成部品
  6
JWW_DASHED1
 62
   120
370
     5
100
AcDbLine
 10
-763.64930645962
 20
2185.156869501941
 30
0.0
 11
-565.6493064596193
 21
2185.156869501941
 31
0.0
  0
ARC
  5
2B3
330
1F
100
AcDbEntity
  8
その他構成部品
  6
JWW_DASHED1
 62
   120
370
     5
100
AcDbCircle
 10
-673.6913959734445
 20
1883.762085084991
 30
0.0
 40
391.394784416947
100
AcDbArc
 50
90.0
 51
133.6089795745495
  0
LINE
  5
2B4
330
1F
100
AcDbEntity
  8
その他構成部品
  6
JWW_DASHED1
 62
   120
370
     5
100
AcDbLine
 10
-601.6493064596173
 20
2275.156869501941
 30
0.0
 11
-673.6913959734445
 21
2275.156869501941
 31
0.0
  0
LINE
  5
2B5
330
1F
100
AcDbEntity
  8
その他構成部品
  6
JWW_DASHED1
 62
   120
370
     5
100
AcDbLine
 10
-565.6493064596193
 20
2239.15686950194
 30
0.0
 11
-565.6493064596193
 21
2185.156869501941
 31
0.0
  0
ARC
  5
2B6
330
1F
100
AcDbEntity
  8
その他構成部品
  6
JWW_DASHED1
 62
   120
370
     5
100
AcDbCircle
 10
-601.6493064596173
 20
2239.15686950194
 30
0.0
 40
36.00000000000001
100
AcDbArc
 50
0.0
 51
90.0
  0
LINE
  5
2B7
330
1F
100
AcDbEntity
  8
その他構成部品
  6
Continuous
 62
   120
370
     5
100
AcDbLine
 10
-2770.649306459628
 20
1978.156869501932
 30
0.0
 11
-2731.649306459629
 21
1858.156869501932
 31
0.0
  0
LINE
  5
2B8
330
1F
100
AcDbEntity
  8
その他構成部品
  6
Continuous
 62
   120
370
     5
100
AcDbLine
 10
-2551.649306459629
 20
1858.156869501932
 30
0.0
 11
-2512.649306459627
 21
1978.156869501932
 31
0.0
  0
LINE
  5
2B9
330
1F
100
AcDbEntity
  8
その他構成部品
  6
Continuous
 62
   120
370
     5
100
AcDbLine
 10
-2731.649306459629
 20
1858.156869501932
 30
0.0
 11
-2551.649306459629
 21
1858.156869501932
 31
0.0
  0
LINE
  5
2BA
330
1F
100
AcDbEntity
  8
その他構成部品
  6
Continuous
 62
   120
370
     5
100
AcDbLine
 10
-2812.649306459631
 20
2167.156869501937
 30
0.0
 11
-2470.649306459628
 21
2167.156869501937
 31
0.0
  0
LINE
  5
2BB
330
1F
100
AcDbEntity
  8
その他構成部品
  6
Continuous
 62
   120
370
     5
100
AcDbLine
 10
-2812.649306459631
 20
2167.156869501937
 30
0.0
 11
-2812.649306459631
 21
2158.156869501939
 31
0.0
  0
LINE
  5
2BC
330
1F
100
AcDbEntity
  8
その他構成部品
  6
Continuous
 62
   120
370
     5
100
AcDbLine
 10
-2470.649306459628
 20
2167.156869501937
 30
0.0
 11
-2470.649306459628
 21
2158.156869501939
 31
0.0
  0
LINE
  5
2BD
330
1F
100
AcDbEntity
  8
その他構成部品
  6
Continuous
 62
   120
370
     5
100
AcDbLine
 10
-2551.649306459629
 20
2185.156869501941
 30
0.0
 11
-2551.649306459629
 21
2167.156869501937
 31
0.0
  0
LINE
  5
2BE
330
1F
100
AcDbEntity
  8
その他構成部品
  6
Continuous
 62
   120
370
     5
100
AcDbLine
 10
-2551.649306459629
 20
2185.156869501941
 30
0.0
 11
-2353.649306459628
 21
2185.156869501941
 31
0.0
  0
ARC
  5
2BF
330
1F
100
AcDbEntity
  8
その他構成部品
  6
Continuous
 62
   120
370
     5
100
AcDbCircle
 10
-2461.691395973454
 20
1883.762085084991
 30
0.0
 40
391.394784416947
100
AcDbArc
 50
90.0
 51
133.6089795745495
  0
LINE
  5
2C0
330
1F
100
AcDbEntity
  8
その他構成部品
  6
Continuous
 62
   120
370
     5
100
AcDbLine
 10
-2389.649306459627
 20
2275.156869501941
 30
0.0
 11
-2461.691395973454
 21
2275.156869501941
 31
0.0
  0
LINE
  5
2C1
330
1F
100
AcDbEntity
  8
その他構成部品
  6
Continuous
 62
   120
370
     5
100
AcDbLine
 10
-2353.649306459628
 20
2239.15686950194
 30
0.0
 11
-2353.649306459628
 21
2185.156869501941
 31
0.0
  0
ARC
  5
2C2
330
1F
100
AcDbEntity
  8
その他構成部品
  6
Continuous
 62
   120
370
     5
100
AcDbCircle
 10
-2389.649306459627
 20
2239.15686950194
 30
0.0
 40
36.00000000000001
100
AcDbArc
 50
0.0
 51
90.0
  0
CIRCLE
  5
2C3
330
1F
100
AcDbEntity
  8
その他構成部品
  6
Continuous
 62
   120
370
     5
100
AcDbCircle
 10
-2641.691247509563
 20
1693.157017965832
 30
0.0
 40
75.0
  0
CIRCLE
  5
2C4
330
1F
100
AcDbEntity
  8
その他構成部品
  6
Continuous
 62
   120
370
     5
100
AcDbCircle
 10
-2641.691247509563
 20
2458.157017965832
 30
0.0
 40
75.0
  0
LINE
  5
2C5
330
1F
100
AcDbEntity
  8
0-2_柱
  6
Continuous
 62
     7
370
     9
100
AcDbLine
 10
-262.6493064596221
 20
2983.156869501939
 30
0.0
 11
-82.6493064596221
 21
2353.156869501939
 31
0.0
  0
LINE
  5
2C6
330
1F
100
AcDbEntity
  8
0-2_柱
  6
Continuous
 62
     7
370
     9
100
AcDbLine
 10
-82.6493064596221
 20
2983.156869501939
 30
0.0
 11
-82.6493064596221
 21
2353.156869501939
 31
0.0
  0
LINE
  5
2C7
330
1F
100
AcDbEntity
  8
0-2_柱
  6
Continuous
 62
     7
370
     9
100
AcDbLine
 10
-3109.649157995736
 20
2353.156869501939
 30
0.0
 11
-3271.649157995736
 21
2983.156869501939
 31
0.0
  0
LINE
  5
2C8
330
1F
100
AcDbEntity
  8
0-2_柱
  6
Continuous
 62
     7
370
     9
100
AcDbLine
 10
-3271.649157995736
 20
2353.156869501939
 30
0.0
 11
-3271.649157995736
 21
2983.156869501939
 31
0.0
  0
LINE
  5
2C9
330
1F
100
AcDbEntity
  8
0-6_扉
  6
Continuous
 62
   200
370
    20
100
AcDbLine
 10
-2947.649306459627
 20
2158.156869501939
 30
0.0
 11
-1729.64930645963
 21
2158.156869501939
 31
0.0
  0
LINE
  5
2CA
330
1F
100
AcDbEntity
  8
0-6_扉
  6
Continuous
 62
   200
370
    20
100
AcDbLine
 10
-2947.649306459627
 20
2158.156869501939
 30
0.0
 11
-2947.649306459627
 21
1978.156869501939
 31
0.0
  0
LINE
  5
2CB
330
1F
100
AcDbEntity
  8
0-6_扉
  6
Continuous
 62
   200
370
    20
100
AcDbLine
 10
-2947.649306459627
 20
1978.156869501939
 30
0.0
 11
-1729.64930645963
 21
1978.156869501939
 31
0.0
  0
LINE
  5
2CC
330
1F
100
AcDbEntity
  8
0-6_扉
  6
Continuous
 62
   200
370
    20
100
AcDbLine
 10
-1609.64930645963
 20
2158.156869501939
 30
0.0
 11
-247.6493064596221
 21
2158.156869501939
 31
0.0
  0
LINE
  5
2CD
330
1F
100
AcDbEntity
  8
0-6_扉
  6
JWW_DASHED2
 62
   200
370
    20
100
AcDbLine
 10
-1159.649306459618
 20
2158.156869501939
 30
0.0
 11
-1159.649306459618
 21
1978.156869501939
 31
0.0
  0
LINE
  5
2CE
330
1F
100
AcDbEntity
  8
0-6_扉
  6
Continuous
 62
   200
370
    20
100
AcDbLine
 10
-1609.64930645963
 20
1978.156869501939
 30
0.0
 11
-247.6493064596221
 21
1978.156869501939
 31
0.0
  0
LINE
  5
2CF
330
1F
100
AcDbEntity
  8
0-6_扉
  6
JWW_DASHED2
 62
   200
370
    20
100
AcDbLine
 10
910.35069354037
 20
2158.156869501939
 30
0.0
 11
2062.350693540366
 21
2158.156869501939
 31
0.0
  0
LINE
  5
2D0
330
1F
100
AcDbEntity
  8
0-6_扉
  6
JWW_DASHED2
 62
   200
370
    20
100
AcDbLine
 10
910.35069354037
 20
1978.156869501939
 30
0.0
 11
2062.350693540366
 21
1978.156869501939
 31
0.0
  0
LINE
  5
2D1
330
1F
100
AcDbEntity
  8
0-6_扉
  6
Continuous
 62
   200
370
    20
100
AcDbLine
 10
-247.6493064596221
 20
1978.156869501939
 30
0.0
 11
-247.6493064596221
 21
2158.156869501939
 31
0.0
  0
LINE
  5
2D2
330
1F
100
AcDbEntity
  8
0-6_扉
  6
JWW_DASHED2
 62
   200
370
    20
100
AcDbLine
 10
-247.6493064596221
 20
2158.156869501939
 30
0.0
 11
790.35069354037
 21
2158.156869501939
 31
0.0
  0
LINE
  5
2D3
330
1F
100
AcDbEntity
  8
0-6_扉
  6
JWW_DASHED2
 62
   200
370
    20
100
AcDbLine
 10
-247.6493064596221
 20
1978.156869501939
 30
0.0
 11
790.35069354037
 21
1978.156869501939
 31
0.0
  0
LINE
  5
2D4
330
1F
100
AcDbEntity
  8
0-6_扉
  6
JWW_DASHED2
 62
   200
370
    20
100
AcDbLine
 10
2062.350693540366
 20
2158.156869501939
 30
0.0
 11
2062.350693540366
 21
1978.156869501939
 31
0.0
  0
LINE
  5
2D5
330
1F
100
AcDbEntity
  8
0-1_通り芯
  6
JWW_CENTER1
 62
   120
370
     5
100
AcDbLine
 10
-2869.918526427429
 20
2509.157656051275
 30
0.0
 11
-3180.155251549787
 21
2509.157656051275
 31
0.0
  0
LINE
  5
2D6
330
1F
100
AcDbEntity
  8
0-1_通り芯
  6
JWW_CENTER1
 62
   120
370
     5
100
AcDbLine
 10
-2881.649306459612
 20
2012.014068629049
 30
0.0
 11
-2881.649306459612
 21
2110.879871099894
 31
0.0
  0
CIRCLE
  5
2D7
330
1F
100
AcDbEntity
  8
0-1_通り芯
  6
Continuous
 62
   120
370
     5
100
AcDbCircle
 10
-2881.691247509546
 20
2068.156869501936
 30
0.0
 40
12.00000000000001
  0
CIRCLE
  5
2D8
330
1F
100
AcDbEntity
  8
0-1_通り芯
  6
Continuous
 62
   120
370
     5
100
AcDbCircle
 10
2062.350693540366
 20
2068.156869501939
 30
0.0
 40
12.0
  0
LINE
  5
2D9
330
1F
100
AcDbEntity
  8
0-7_金物
  6
Continuous
 62
     7
370
     9
100
AcDbLine
 10
-745.6493064596057
 20
2077.156869501937
 30
0.0
 11
-745.6493064596057
 21
2059.15686950194
 31
0.0
  0
LINE
  5
2DA
330
1F
100
AcDbEntity
  8
0-7_金物
  6
Continuous
 62
     7
370
     9
100
AcDbLine
 10
-799.6493064596077
 20
2167.156869501937
 30
0.0
 11
-799.6493064596077
 21
2077.156869501937
 31
0.0
  0
LINE
  5
2DB
330
1F
100
AcDbEntity
  8
0-7_金物
  6
Continuous
 62
     7
370
     9
100
AcDbLine
 10
-673.6493064596166
 20
2059.15686950194
 30
0.0
 11
-745.6493064596057
 21
2059.15686950194
 31
0.0
  0
LINE
  5
2DC
330
1F
100
AcDbEntity
  8
0-7_金物
  6
Continuous
 62
     7
370
     9
100
AcDbLine
 10
-673.6493064596166
 20
2077.156869501937
 30
0.0
 11
-673.6493064596166
 21
2059.15686950194
 31
0.0
  0
LINE
  5
2DD
330
1F
100
AcDbEntity
  8
0-7_金物
  6
Continuous
 62
     7
370
     9
100
AcDbLine
 10
-619.6493064596164
 20
2077.156869501937
 30
0.0
 11
-799.6493064596077
 21
2077.156869501937
 31
0.0
  0
LINE
  5
2DE
330
1F
100
AcDbEntity
  8
0-7_金物
  6
Continuous
 62
     7
370
     9
100
AcDbLine
 10
-619.6493064596164
 20
2167.156869501937
 30
0.0
 11
-619.6493064596164
 21
2077.156869501937
 31
0.0
  0
LINE
  5
2DF
330
1F
100
AcDbEntity
  8
0-7_金物
  6
Continuous
 62
     7
370
     9
100
AcDbLine
 10
-619.6493064596164
 20
2167.156869501937
 30
0.0
 11
-799.6493064596077
 21
2167.156869501937
 31
0.0
  0
LINE
  5
2E0
330
1F
100
AcDbEntity
  8
0-A_文字
  6
Continuous
 62
     7
370
     9
100
AcDbLine
 10
-1180.284120079001
 20
1676.620968234281
 30
0.0
 11
-744.9432515483604
 21
2124.400147294366
 31
0.0
  0
LINE
  5
2E1
330
1F
100
AcDbEntity
  8
0-A_文字
  6
Continuous
 62
     7
370
     9
100
AcDbLine
 10
-1510.178385884072
 20
1676.620968234281
 30
0.0
 11
-1180.284120079001
 21
1676.620968234281
 31
0.0
  0
MTEXT
  5
2E2
330
1F
100
AcDbEntity
  8
0-A_文字
  6
Continuous
 62
     7
370
     9
100
AcDbMText
 10
-1489.948553318084
 20
1681.618654201065
 30
0.0
 40
57.15
 41
300.0
 46
0.0
 71
     7
 72
     1
  1
{\fＭＳ ゴシック|b0|i0|c128|p49;振止金具}
 73
     1
 44
1.0
  0
LINE
  5
2E3
330
1F
100
AcDbEntity
  8
0-C_ハッチ
  6
Continuous
 62
   120
370
     5
100
AcDbLine
 10
-3109.649157995736
 20
2477.454032872432
 30
0.0
 11
-2929.64930645963
 21
2297.454181336325
 31
0.0
  0
LINE
  5
2E4
330
1F
100
AcDbEntity
  8
0-C_ハッチ
  6
Continuous
 62
   120
370
     5
100
AcDbLine
 10
-3109.649157995736
 20
2435.027506003769
 30
0.0
 11
-2929.64930645963
 21
2255.027654467663
 31
0.0
  0
LINE
  5
2E5
330
1F
100
AcDbEntity
  8
0-C_ハッチ
  6
Continuous
 62
   120
370
     5
100
AcDbLine
 10
-3109.649157995736
 20
2053.190991144182
 30
0.0
 11
-2929.64930645963
 21
1873.191139608075
 31
0.0
  0
LINE
  5
2E6
330
1F
100
AcDbEntity
  8
0-C_ハッチ
  6
Continuous
 62
   120
370
     5
100
AcDbLine
 10
-3109.649157995736
 20
2519.879817421632
 30
0.0
 11
-2929.64930645963
 21
2339.879965885526
 31
0.0
  0
LINE
  5
2E7
330
1F
100
AcDbEntity
  8
0-C_ハッチ
  6
Continuous
 62
   120
370
     5
100
AcDbLine
 10
-3109.649157995736
 20
2562.306344290294
 30
0.0
 11
-2929.64930645963
 21
2382.306492754188
 31
0.0
  0
LINE
  5
2E8
330
1F
100
AcDbEntity
  8
0-C_ハッチ
  6
Continuous
 62
   120
370
     5
100
AcDbLine
 10
-3109.649157995736
 20
2604.732871158961
 30
0.0
 11
-2929.64930645963
 21
2424.733019622857
 31
0.0
  0
LINE
  5
2E9
330
1F
100
AcDbEntity
  8
0-C_ハッチ
  6
Continuous
 62
   120
370
     5
100
AcDbLine
 10
-3109.649157995736
 20
2392.6009791351
 30
0.0
 11
-2929.64930645963
 21
2212.601127598994
 31
0.0
  0
LINE
  5
2EA
330
1F
100
AcDbEntity
  8
0-C_ハッチ
  6
Continuous
 62
   120
370
     5
100
AcDbLine
 10
-3109.649157995736
 20
2647.158655708156
 30
0.0
 11
-2929.64930645963
 21
2467.158804172055
 31
0.0
  0
LINE
  5
2EB
330
1F
100
AcDbEntity
  8
0-C_ハッチ
  6
Continuous
 62
   120
370
     5
100
AcDbLine
 10
-3109.649157995736
 20
2689.584440257354
 30
0.0
 11
-2929.64930645963
 21
2509.58458872125
 31
0.0
  0
LINE
  5
2EC
330
1F
100
AcDbEntity
  8
0-C_ハッチ
  6
Continuous
 62
   120
370
     5
100
AcDbLine
 10
-3109.649157995736
 20
2732.01022480655
 30
0.0
 11
-2929.64930645963
 21
2552.010373270451
 31
0.0
  0
LINE
  5
2ED
330
1F
100
AcDbEntity
  8
0-C_ハッチ
  6
Continuous
 62
     7
370
     9
100
AcDbLine
 10
-2966.913422615904
 20
2053.160507097228
 30
0.0
 11
-2965.649306459628
 21
2051.896390940952
 31
0.0
  0
LINE
  5
2EE
330
1F
100
AcDbEntity
  8
0-C_ハッチ
  6
Continuous
 62
   120
370
     5
100
AcDbLine
 10
-3109.649157995736
 20
2138.043302562044
 30
0.0
 11
-2965.649306459628
 21
1994.043451025937
 31
0.0
  0
LINE
  5
2EF
330
1F
100
AcDbEntity
  8
0-C_ハッチ
  6
Continuous
 62
   120
370
     5
100
AcDbLine
 10
-3109.649157995736
 20
2180.469829430711
 30
0.0
 11
-2965.649306459628
 21
2036.469977894601
 31
0.0
  0
LINE
  5
2F0
330
1F
100
AcDbEntity
  8
0-C_ハッチ
  6
Continuous
 62
   120
370
     5
100
AcDbLine
 10
-3109.649157995736
 20
2222.896356299375
 30
0.0
 11
-2965.649306459628
 21
2078.896504763268
 31
0.0
  0
LINE
  5
2F1
330
1F
100
AcDbEntity
  8
0-C_ハッチ
  6
Continuous
 62
   120
370
     5
100
AcDbLine
 10
-3109.649157995736
 20
2265.322140848576
 30
0.0
 11
-2965.649306459628
 21
2121.322289312464
 31
0.0
  0
LINE
  5
2F2
330
1F
100
AcDbEntity
  8
0-C_ハッチ
  6
Continuous
 62
   120
370
     5
100
AcDbLine
 10
-3109.649157995736
 20
2307.748667717238
 30
0.0
 11
-2965.649306459628
 21
2163.748816181131
 31
0.0
  0
LINE
  5
2F3
330
1F
100
AcDbEntity
  8
0-C_ハッチ
  6
Continuous
 62
   120
370
     5
100
AcDbLine
 10
-3109.649157995736
 20
2350.175194585907
 30
0.0
 11
-2950.630961271178
 21
2191.156997861349
 31
0.0
  0
LINE
  5
2F4
330
1F
100
AcDbEntity
  8
0-C_ハッチ
  6
Continuous
 62
   120
370
     5
100
AcDbLine
 10
-3109.649157995736
 20
2095.617518012848
 30
0.0
 11
-2965.649306459628
 21
1951.617666476739
 31
0.0
  0
LINE
  5
2F5
330
1F
100
AcDbEntity
  8
0-C_ハッチ
  6
Continuous
 62
   120
370
     5
100
AcDbLine
 10
-2959.188637844237
 20
1945.156997861348
 30
0.0
 11
-2929.64930645963
 21
1915.617666476742
 31
0.0
  0
LINE
  5
2F6
330
1F
100
AcDbEntity
  8
0-C_ハッチ
  6
Continuous
 62
   120
370
     5
100
AcDbLine
 10
-337.6493064596289
 20
2347.876116952544
 30
0.0
 11
-363.930059009023
 21
2374.156869501938
 31
0.0
  0
LINE
  5
2F7
330
1F
100
AcDbEntity
  8
0-C_ハッチ
  6
Continuous
 62
   120
370
     5
100
AcDbLine
 10
-241.6493064596276
 20
2251.876116952542
 30
0.0
 11
-267.9300590090216
 21
2278.156869501936
 31
0.0
  0
LINE
  5
2F8
330
1F
100
AcDbEntity
  8
0-C_ハッチ
  6
Continuous
 62
   120
370
     5
100
AcDbLine
 10
-337.6493064596221
 20
2305.449710081332
 30
0.0
 11
-406.356465880223
 21
2374.156869501933
 31
0.0
  0
LINE
  5
2F9
330
1F
100
AcDbEntity
  8
0-C_ハッチ
  6
Continuous
 62
   120
370
     5
100
AcDbLine
 10
-241.649306459631
 20
2209.449710081345
 30
0.0
 11
-310.3564658802352
 21
2278.15686950195
 31
0.0
  0
LINE
  5
2FA
330
1F
100
AcDbEntity
  8
0-C_ハッチ
  6
Continuous
 62
   120
370
     5
100
AcDbLine
 10
-280.7828727513575
 20
2206.156869501929
 30
0.0
 11
-409.649306459618
 21
2335.023303210176
 31
0.0
  0
LINE
  5
2FB
330
1F
100
AcDbEntity
  8
0-C_ハッチ
  6
Continuous
 62
   120
370
     5
100
AcDbLine
 10
-323.2092796225575
 20
2206.156869501927
 30
0.0
 11
-409.649306459618
 21
2292.596896338983
 31
0.0
  0
LINE
  5
2FC
330
1F
100
AcDbEntity
  8
0-C_ハッチ
  6
Continuous
 62
   120
370
     5
100
AcDbLine
 10
-365.6356864937575
 20
2206.156869501927
 30
0.0
 11
-409.6493064596248
 21
2250.17048946779
 31
0.0
  0
LINE
  5
2FD
330
1F
100
AcDbEntity
  8
0-C_ハッチ
  6
Continuous
 62
   120
370
     5
100
AcDbLine
 10
-3109.649157995736
 20
1883.484883669519
 30
0.0
 11
-3081.321143828157
 21
1855.156869501939
 31
0.0
  0
LINE
  5
2FE
330
1F
100
AcDbEntity
  8
0-C_ハッチ
  6
Continuous
 62
   120
370
     5
100
AcDbLine
 10
-3109.649157995736
 20
1925.911410538186
 30
0.0
 11
-3038.894616959493
 21
1855.156869501939
 31
0.0
  0
LINE
  5
2FF
330
1F
100
AcDbEntity
  8
0-C_ハッチ
  6
Continuous
 62
   120
370
     5
100
AcDbLine
 10
-3109.649157995736
 20
1968.33793740685
 30
0.0
 11
-2996.468090090826
 21
1855.156869501939
 31
0.0
  0
LINE
  5
300
330
1F
100
AcDbEntity
  8
0-C_ハッチ
  6
Continuous
 62
   120
370
     5
100
AcDbLine
 10
-3109.649157995736
 20
2010.764464275517
 30
0.0
 11
-2954.04156322216
 21
1855.156869501939
 31
0.0
  0
LINE
  5
301
330
1F
100
AcDbEntity
  8
0-C_ハッチ
  6
Continuous
 62
   120
370
     5
100
AcDbLine
 10
-2929.64930645963
 20
2594.436157819644
 30
0.0
 11
-3109.649157995736
 21
2774.43600935575
 31
0.0
  0
LINE
  5
302
330
1F
100
AcDbEntity
  8
0-C_ハッチ
  6
Continuous
 62
   120
370
     5
100
AcDbLine
 10
-3109.649157995736
 20
2816.86179390495
 30
0.0
 11
-2929.64930645963
 21
2636.861942368844
 31
0.0
  0
LINE
  5
303
330
1F
100
AcDbEntity
  8
0-C_ハッチ
  6
Continuous
 62
   120
370
     5
100
AcDbLine
 10
-3109.649157995736
 20
2859.287578454148
 30
0.0
 11
-2929.64930645963
 21
2679.287726918042
 31
0.0
  0
LINE
  5
304
330
1F
100
AcDbEntity
  8
0-C_ハッチ
  6
Continuous
 62
   120
370
     5
100
AcDbLine
 10
-3083.09266449433
 20
2875.156869501939
 30
0.0
 11
-2929.64930645963
 21
2721.713511467245
 31
0.0
  0
LINE
  5
305
330
1F
100
AcDbEntity
  8
0-C_ハッチ
  6
Continuous
 62
   120
370
     5
100
AcDbLine
 10
-2929.64930645963
 20
2764.139296016438
 30
0.0
 11
-3040.666879945132
 21
2875.156869501939
 31
0.0
  0
LINE
  5
306
330
1F
100
AcDbEntity
  8
0-C_ハッチ
  6
Continuous
 62
   120
370
     5
100
AcDbLine
 10
-2955.815310846735
 20
2875.156869501939
 30
0.0
 11
-2929.64930645963
 21
2848.990865114836
 31
0.0
  0
LINE
  5
307
330
1F
100
AcDbEntity
  8
0-C_ハッチ
  6
Continuous
 62
   120
370
     5
100
AcDbLine
 10
-2998.241095395932
 20
2875.156869501939
 30
0.0
 11
-2929.64930645963
 21
2806.565080565638
 31
0.0
  0
LINE
  5
308
330
1F
100
AcDbEntity
  8
0-C_ハッチ
  6
Continuous
 62
   120
370
     5
100
AcDbLine
 10
-3109.649157995736
 20
1863.883046654521
 30
0.0
 11
-3130.37533514832
 21
1843.156869501939
 31
0.0
  0
LINE
  5
309
330
1F
100
AcDbEntity
  8
0-C_ハッチ
  6
Continuous
 62
   120
370
     5
100
AcDbLine
 10
-3109.649157995736
 20
1906.309573523187
 30
0.0
 11
-3172.801862016983
 21
1843.156869501939
 31
0.0
  0
LINE
  5
30A
330
1F
100
AcDbEntity
  8
0-C_ハッチ
  6
Continuous
 62
   120
370
     5
100
AcDbLine
 10
-3109.649157995736
 20
1948.736100391853
 30
0.0
 11
-3211.832171722894
 21
1846.553086664694
 31
0.0
  0
LINE
  5
30B
330
1F
100
AcDbEntity
  8
0-C_ハッチ
  6
Continuous
 62
   120
370
     5
100
AcDbLine
 10
-3109.649157995736
 20
1991.162627260518
 30
0.0
 11
-3229.649157995735
 21
1871.16262726052
 31
0.0
  0
LINE
  5
30C
330
1F
100
AcDbEntity
  8
0-C_ハッチ
  6
Continuous
 62
   120
370
     5
100
AcDbLine
 10
-3109.649157995736
 20
2033.589154129185
 30
0.0
 11
-3229.649157995735
 21
1913.589154129185
 31
0.0
  0
LINE
  5
30D
330
1F
100
AcDbEntity
  8
0-C_ハッチ
  6
Continuous
 62
   120
370
     5
100
AcDbLine
 10
-3109.649157995736
 20
2076.015680997849
 30
0.0
 11
-3229.649157995735
 21
1956.015680997851
 31
0.0
  0
LINE
  5
30E
330
1F
100
AcDbEntity
  8
0-C_ハッチ
  6
Continuous
 62
   120
370
     5
100
AcDbLine
 10
-3109.649157995736
 20
2118.442207866515
 30
0.0
 11
-3229.649157995735
 21
1998.442207866516
 31
0.0
  0
LINE
  5
30F
330
1F
100
AcDbEntity
  8
0-C_ハッチ
  6
Continuous
 62
   120
370
     5
100
AcDbLine
 10
-3109.649157995736
 20
2160.867992415714
 30
0.0
 11
-3229.649157995735
 21
2040.867992415714
 31
0.0
  0
LINE
  5
310
330
1F
100
AcDbEntity
  8
0-C_ハッチ
  6
Continuous
 62
   120
370
     5
100
AcDbLine
 10
-3109.649157995736
 20
2203.29451928438
 30
0.0
 11
-3229.649157995735
 21
2083.29451928438
 31
0.0
  0
LINE
  5
311
330
1F
100
AcDbEntity
  8
0-C_ハッチ
  6
Continuous
 62
   120
370
     5
100
AcDbLine
 10
-3109.649157995736
 20
2245.721046153045
 30
0.0
 11
-3229.649157995735
 21
2125.721046153045
 31
0.0
  0
LINE
  5
312
330
1F
100
AcDbEntity
  8
0-C_ハッチ
  6
Continuous
 62
   120
370
     5
100
AcDbLine
 10
-3109.649157995736
 20
2288.146830702242
 30
0.0
 11
-3229.649157995735
 21
2168.146830702242
 31
0.0
  0
LINE
  5
313
330
1F
100
AcDbEntity
  8
0-C_ハッチ
  6
Continuous
 62
   120
370
     5
100
AcDbLine
 10
-3214.344484351233
 20
2353.156869501939
 30
0.0
 11
-3229.649157995735
 21
2337.852195857437
 31
0.0
  0
LINE
  5
314
330
1F
100
AcDbEntity
  8
0-C_ハッチ
  6
Continuous
 62
   120
370
     5
100
AcDbLine
 10
-3171.917957482568
 20
2353.156869501939
 30
0.0
 11
-3229.649157995735
 21
2295.425668988772
 31
0.0
  0
LINE
  5
315
330
1F
100
AcDbEntity
  8
0-C_ハッチ
  6
Continuous
 62
   120
370
     5
100
AcDbLine
 10
-3109.649157995736
 20
2330.573357570907
 30
0.0
 11
-3229.649157995735
 21
2210.573357570907
 31
0.0
  0
LINE
  5
316
330
1F
100
AcDbEntity
  8
0-C_ハッチ
  6
Continuous
 62
   120
370
     5
100
AcDbLine
 10
-3129.492172933371
 20
2353.156869501939
 30
0.0
 11
-3229.649157995735
 21
2252.999884439574
 31
0.0
  0
LINE
  5
317
330
1F
100
AcDbEntity
  8
0-7_金物
  6
Continuous
 62
     7
370
     9
100
AcDbLine
 10
-2947.51486413022
 20
2113.10278456946
 30
0.0
 11
-2965.514783675127
 21
2113.156594689081
 31
0.0
  0
LINE
  5
318
330
1F
100
AcDbEntity
  8
0-7_金物
  6
Continuous
 62
     7
370
     9
100
AcDbLine
 10
-2965.514783675127
 20
2113.156594689081
 30
0.0
 11
-2965.783829244129
 21
2023.156995232294
 31
0.0
  0
LINE
  5
319
330
1F
100
AcDbEntity
  8
0-7_金物
  6
Continuous
 62
     7
370
     9
100
AcDbLine
 10
-2965.604465532391
 20
2083.156727726651
 30
0.0
 11
-2995.604331178866
 21
2083.246409352014
 31
0.0
  0
LINE
  5
31A
330
1F
100
AcDbEntity
  8
0-7_金物
  6
Continuous
 62
     7
370
     9
100
AcDbLine
 10
-2995.604331178866
 20
2083.246409352014
 30
0.0
 11
-2995.694012804233
 21
2053.246543820101
 31
0.0
  0
LINE
  5
31B
330
1F
100
AcDbEntity
  8
0-7_金物
  6
Continuous
 62
     7
370
     9
100
AcDbLine
 10
-2965.694147386861
 20
2053.156862194731
 30
0.0
 11
-2995.694012804233
 21
2053.246543820101
 31
0.0
  0
ARC
  5
31C
330
1F
100
AcDbEntity
  8
0-7_金物
  6
Continuous
 62
     7
370
     9
100
AcDbCircle
 10
-3130.355914278233
 20
2068.649170304725
 30
0.0
 40
188.1674079895021
100
AcDbArc
 50
345.9924011230469
 51
13.66500854492187
  0
LINE
  5
31D
330
1F
100
AcDbEntity
  8
0-7_金物
  6
Continuous
 62
     7
370
     9
100
AcDbLine
 10
-2947.78390900632
 20
2023.103187973693
 30
0.0
 11
-2965.783829244129
 21
2023.156995232294
 31
0.0
  0
ARC
  5
31E
330
1F
100
AcDbEntity
  8
0-7_金物
  6
Continuous
 62
     7
370
     9
100
AcDbCircle
 10
-3112.355914278232
 20
2509.649956854067
 30
0.0
 40
188.1674079895021
100
AcDbArc
 50
345.9924011230469
 51
13.66500854492187
  0
LINE
  5
31F
330
1F
100
AcDbEntity
  8
0-4_枠
  6
Continuous
 62
    92
370
    13
100
AcDbLine
 10
-3109.649157995736
 20
2875.156869501939
 30
0.0
 11
-2946.619869208104
 21
2875.156869501939
 31
0.0
  0
LINE
  5
320
330
1F
100
AcDbEntity
  8
0-4_枠
  6
Continuous
 62
    92
370
    13
100
AcDbLine
 10
-3103.649157995736
 20
1855.156869501939
 30
0.0
 11
-2946.619869208104
 21
1855.156869501939
 31
0.0
  0
LINE
  5
321
330
1F
100
AcDbEntity
  8
0-4_枠
  6
Continuous
 62
    92
370
    13
100
AcDbLine
 10
-2965.649306459628
 20
1945.156997861348
 30
0.0
 11
-2929.64930645963
 21
1945.156997861348
 31
0.0
  0
LINE
  5
322
330
1F
100
AcDbEntity
  8
0-4_枠
  6
Continuous
 62
    92
370
    13
100
AcDbLine
 10
-2965.649306459628
 20
2191.156997861349
 30
0.0
 11
-2965.649306459628
 21
1945.156997861348
 31
0.0
  0
LINE
  5
323
330
1F
100
AcDbEntity
  8
0-4_枠
  6
Continuous
 62
    92
370
    13
100
AcDbLine
 10
-2965.649306459628
 20
2191.156997861349
 30
0.0
 11
-2929.64930645963
 21
2191.156997861349
 31
0.0
  0
LINE
  5
324
330
1F
100
AcDbEntity
  8
0-4_枠
  6
Continuous
 62
    92
370
    13
100
AcDbLine
 10
-2946.619869208104
 20
1855.156869501939
 30
0.0
 11
-2929.64930645963
 21
1872.127432250417
 31
0.0
  0
ARC
  5
325
330
1F
100
AcDbEntity
  8
0-4_枠
  6
Continuous
 62
    92
370
    13
100
AcDbCircle
 10
-3103.649157995736
 20
1861.156869501939
 30
0.0
 40
6.0
100
AcDbArc
 50
180.0
 51
270.0
  0
LINE
  5
326
330
1F
100
AcDbEntity
  8
0-4_枠
  6
Continuous
 62
    92
370
    13
100
AcDbLine
 10
-2929.64930645963
 20
1945.156997861348
 30
0.0
 11
-2929.64930645963
 21
1872.127432250417
 31
0.0
  0
LINE
  5
327
330
1F
100
AcDbEntity
  8
0-4_枠
  6
Continuous
 62
    92
370
    13
100
AcDbLine
 10
-2929.64930645963
 20
2858.186306753465
 30
0.0
 11
-2946.619869208104
 21
2875.156869501939
 31
0.0
  0
LINE
  5
328
330
1F
100
AcDbEntity
  8
0-4_枠
  6
Continuous
 62
    92
370
    13
100
AcDbLine
 10
-2929.64930645963
 20
2858.186306753465
 30
0.0
 11
-2929.64930645963
 21
2191.156997861349
 31
0.0
  0
LINE
  5
329
330
1F
100
AcDbEntity
  8
0-4_枠
  6
Continuous
 62
    92
370
    13
100
AcDbLine
 10
-3229.649157995735
 20
1864.370072937535
 30
0.0
 11
-3229.649157995735
 21
2353.156869501939
 31
0.0
  0
LINE
  5
32A
330
1F
100
AcDbEntity
  8
0-4_枠
  6
Continuous
 62
    92
370
    13
100
AcDbLine
 10
-3208.435954560138
 20
1843.156869501939
 30
0.0
 11
-3229.649157995735
 21
1864.370072937535
 31
0.0
  0
LINE
  5
32B
330
1F
100
AcDbEntity
  8
0-4_枠
  6
Continuous
 62
    92
370
    13
100
AcDbLine
 10
-3115.649157995736
 20
1843.156869501939
 30
0.0
 11
-3208.435954560138
 21
1843.156869501939
 31
0.0
  0
LINE
  5
32C
330
1F
100
AcDbEntity
  8
0-4_枠
  6
Continuous
 62
    92
370
    13
100
AcDbLine
 10
-3109.649157995736
 20
1849.156869501938
 30
0.0
 11
-3109.649157995736
 21
2875.156869501939
 31
0.0
  0
ARC
  5
32D
330
1F
100
AcDbEntity
  8
0-4_枠
  6
Continuous
 62
    92
370
    13
100
AcDbCircle
 10
-3115.649157995736
 20
1849.156869501938
 30
0.0
 40
6.0
100
AcDbArc
 50
270.0
 51
0.0
  0
LINE
  5
32E
330
1F
100
AcDbEntity
  8
0-5_ケーシング
  6
Continuous
 62
    92
370
    13
100
AcDbLine
 10
-385.6493064596262
 20
2206.15686950194
 30
0.0
 11
-409.6493064596316
 21
2230.156869501941
 31
0.0
  0
LINE
  5
32F
330
1F
100
AcDbEntity
  8
0-5_ケーシング
  6
Continuous
 62
    92
370
    13
100
AcDbLine
 10
-409.6493064596316
 20
2230.156869501941
 30
0.0
 11
-409.6493064596316
 21
2374.15686950194
 31
0.0
  0
LINE
  5
330
330
1F
100
AcDbEntity
  8
0-5_ケーシング
  6
Continuous
 62
    92
370
    13
100
AcDbLine
 10
-385.6493064596262
 20
2206.15686950194
 30
0.0
 11
-241.6493064596276
 21
2206.15686950194
 31
0.0
  0
LINE
  5
331
330
1F
100
AcDbEntity
  8
0-5_ケーシング
  6
Continuous
 62
    92
370
    13
100
AcDbLine
 10
-241.6493064596276
 20
2206.15686950194
 30
0.0
 11
-241.6493064596276
 21
2278.156869501939
 31
0.0
  0
LINE
  5
332
330
1F
100
AcDbEntity
  8
0-5_ケーシング
  6
Continuous
 62
    92
370
    13
100
AcDbLine
 10
-337.6493064596221
 20
2278.156869501939
 30
0.0
 11
-337.6493064596221
 21
2374.15686950194
 31
0.0
  0
LINE
  5
333
330
1F
100
AcDbEntity
  8
0-5_ケーシング
  6
Continuous
 62
    92
370
    13
100
AcDbLine
 10
-337.6493064596221
 20
2374.15686950194
 30
0.0
 11
-409.6493064596316
 21
2374.15686950194
 31
0.0
  0
LINE
  5
334
330
1F
100
AcDbEntity
  8
0-5_ケーシング
  6
Continuous
 62
    92
370
    13
100
AcDbLine
 10
-241.6493064596276
 20
2278.156869501939
 30
0.0
 11
-337.6493064596221
 21
2278.156869501939
 31
0.0
  0
LINE
  5
335
330
1F
100
AcDbEntity
  8
0-4_枠
  6
Continuous
 62
    92
370
    13
100
AcDbLine
 10
2110.35069354037
 20
2278.156869501939
 30
0.0
 11
2110.35069354037
 21
1942.156869501937
 31
0.0
  0
LINE
  5
336
330
1F
100
AcDbEntity
  8
0-4_枠
  6
Continuous
 62
    92
370
    13
100
AcDbLine
 10
2128.350693540373
 20
2278.156869501939
 30
0.0
 11
2128.350693540373
 21
1942.156869501937
 31
0.0
  0
LINE
  5
337
330
1F
100
AcDbEntity
  8
0-4_枠
  6
Continuous
 62
    92
370
    13
100
AcDbLine
 10
-2929.64930645963
 20
2278.156869501939
 30
0.0
 11
-1729.64930645963
 21
2278.156869501939
 31
0.0
  0
LINE
  5
338
330
1F
100
AcDbEntity
  8
0-4_枠
  6
Continuous
 62
    92
370
    13
100
AcDbLine
 10
-1729.64930645963
 20
1942.156869501937
 30
0.0
 11
-2929.64930645963
 21
1942.156869501937
 31
0.0
  0
LINE
  5
339
330
1F
100
AcDbEntity
  8
0-4_枠
  6
Continuous
 62
    92
370
    13
100
AcDbLine
 10
-1609.64930645963
 20
2278.156869501939
 30
0.0
 11
-409.6493064596316
 21
2278.156869501939
 31
0.0
  0
LINE
  5
33A
330
1F
100
AcDbEntity
  8
0-4_枠
  6
Continuous
 62
    92
370
    13
100
AcDbLine
 10
790.35069354037
 20
1942.156869501937
 30
0.0
 11
-1609.64930645963
 21
1942.156869501937
 31
0.0
  0
LINE
  5
33B
330
1F
100
AcDbEntity
  8
0-4_枠
  6
Continuous
 62
    92
370
    13
100
AcDbLine
 10
2128.350693540373
 20
1942.156869501937
 30
0.0
 11
910.35069354037
 21
1942.156869501937
 31
0.0
  0
LINE
  5
33C
330
1F
100
AcDbEntity
  8
0-0_補助線
  6
JWW_HOJO
 62
     7
370
     9
100
AcDbLine
 10
790.35069354037
 20
3058.156869501939
 30
0.0
 11
790.35069354037
 21
1942.156869501937
 31
0.0
  0
LINE
  5
33D
330
1F
100
AcDbEntity
  8
0-0_補助線
  6
JWW_HOJO
 62
     7
370
     9
100
AcDbLine
 10
910.35069354037
 20
3058.156869501939
 30
0.0
 11
910.35069354037
 21
1942.156869501937
 31
0.0
  0
LINE
  5
33E
330
1F
100
AcDbEntity
  8
0-0_補助線
  6
JWW_HOJO
 62
     7
370
     9
100
AcDbLine
 10
-1609.64930645963
 20
2278.156869501939
 30
0.0
 11
-1609.64930645963
 21
1942.156869501937
 31
0.0
  0
LINE
  5
33F
330
1F
100
AcDbEntity
  8
0-0_補助線
  6
JWW_HOJO
 62
     7
370
     9
100
AcDbLine
 10
-1729.64930645963
 20
2278.156869501939
 30
0.0
 11
-1729.64930645963
 21
1942.156869501937
 31
0.0
  0
MTEXT
  5
340
330
1F
100
AcDbEntity
  8
0-A_文字
  6
Continuous
 62
     7
370
     9
100
AcDbMText
 10
-4131.252067947022
 20
3340.927843221911
 30
0.0
 40
91.44
 41
600.0
 46
0.0
 71
     7
 72
     1
  1
{\fＭＳ ゴシック|b0|i0|c128|p49;■横断面図}
 73
     1
 44
1.0
  0
LWPOLYLINE
  5
341
330
1F
100
AcDbEntity
  8
0-A_文字
  6
Continuous
 62
     7
370
     9
100
AcDbPolyline
 90
        4
 70
     1
 43
3.0
 10
-3173.430712738101
 20
2203.118216634155
 42
0.4142135623731
 10
-3174.930712738101
 20
2204.618216634155
 42
0.4142135623731
 10
-3176.430712738101
 20
2203.118216634155
 42
0.4142135623731
 10
-3174.930712738101
 20
2201.618216634155
 42
0.4142135623731
  0
MTEXT
  5
342
330
1F
100
AcDbEntity
  8
0-A_文字
  6
Continuous
 62
     7
370
     9
100
AcDbMText
 10
-2362.560291936856
 20
2699.842253125491
 30
0.0
 40
78.105
 41
615.0
 46
0.0
 71
     7
 72
     1
  1
{\fＭＳ ゴシック|b0|i0|c128|p49;※入隅の場合}
 73
     1
 44
1.0
  0
LINE
  5
343
330
1F
100
AcDbEntity
  8
0-A_文字
  6
Continuous
 62
     7
370
     9
100
AcDbLine
 10
-1647.545895744114
 20
2373.34763533846
 30
0.0
 11
-2431.724836850598
 21
2373.34763533846
 31
0.0
  0
LINE
  5
344
330
1F
100
AcDbEntity
  8
0-A_文字
  6
Continuous
 62
     7
370
     9
100
AcDbLine
 10
-1692.399197350299
 20
2415.5625074384
 30
0.0
 11
-1692.399197350299
 21
2843.03520226291
 31
0.0
  0
MTEXT
  5
345
330
1F
100
AcDbEntity
  8
0-A_文字
  6
Continuous
 62
     7
370
     9
100
AcDbMText
 10
-2362.560291936856
 20
2567.920777813178
 30
0.0
 40
78.105
 41
615.0
 46
0.0
 71
     7
 72
     1
  1
{\fＭＳ ゴシック|b0|i0|c128|p49;　不要になり}
 73
     1
 44
1.0
  0
MTEXT
  5
346
330
1F
100
AcDbEntity
  8
0-A_文字
  6
Continuous
 62
     7
370
     9
100
AcDbMText
 10
-2362.560291936856
 20
2456.630488550834
 30
0.0
 40
77.15249999999999
 41
405.0
 46
0.0
 71
     7
 72
     1
  1
{\fＭＳ ゴシック|b0|i0|c128|p49;　ます。}
 73
     1
 44
1.0
  0
LINE
  5
347
330
1F
100
AcDbEntity
  8
0-A_文字
  6
Continuous
 62
     7
370
     9
100
AcDbLine
 10
-1692.399197350299
 20
2843.03520226291
 30
0.0
 11
-2390.17215104989
 21
2843.03520226291
 31
0.0
  0
LINE
  5
348
330
1F
100
AcDbEntity
  8
0-A_文字
  6
Continuous
 62
     7
370
     9
100
AcDbLine
 10
-2390.17215104989
 20
2415.5625074384
 30
0.0
 11
-2390.17215104989
 21
2843.03520226291
 31
0.0
  0
LINE
  5
349
330
1F
100
AcDbEntity
  8
0-A_文字
  6
Continuous
 62
     7
370
     9
100
AcDbLine
 10
-1692.399197350299
 20
2415.5625074384
 30
0.0
 11
-2390.17215104989
 21
2415.5625074384
 31
0.0
  0
MTEXT
  5
34A
330
1F
100
AcDbEntity
  8
0-A_文字
  6
Continuous
 62
     7
370
     9
100
AcDbMText
 10
-2341.976294316391
 20
2853.425634503611
 30
0.0
 40
79.0575
 41
622.5
 46
0.0
 71
     7
 72
     1
  1
{\fＭＳ ゴシック|b0|i0|c128|p49;2100×85×20}
 73
     1
 44
1.0
  0
MTEXT
  5
34B
330
1F
100
AcDbEntity
  8
0-A_文字
  6
Continuous
 62
     7
370
     9
100
AcDbMText
 10
-2183.567014126028
 20
3132.976045991878
 30
0.0
 40
76.19999999999999
 41
300.0
 46
0.0
 71
     7
 72
     1
  1
{\fＭＳ ゴシック|b0|i0|c128|p49;竪枠裏}
 73
     1
 44
1.0
  0
LINE
  5
34C
330
1F
100
AcDbEntity
  8
0-A_文字
  6
Continuous
 62
     7
370
     9
100
AcDbLine
 10
-2256.397736572307
 20
3275.986116453164
 30
0.0
 11
-1832.018464245956
 21
3275.986116453164
 31
0.0
  0
LINE
  5
34D
330
1F
100
AcDbEntity
  8
0-A_文字
  6
Continuous
 62
     7
370
     9
100
AcDbLine
 10
-1832.018464245956
 20
3275.986116453164
 30
0.0
 11
-1832.018464245956
 21
3118.808608184146
 31
0.0
  0
LINE
  5
34E
330
1F
100
AcDbEntity
  8
0-A_文字
  6
Continuous
 62
     7
370
     9
100
AcDbLine
 10
-1832.018464245956
 20
3118.808608184146
 30
0.0
 11
-2256.397736572307
 21
3118.808608184146
 31
0.0
  0
LINE
  5
34F
330
1F
100
AcDbEntity
  8
0-A_文字
  6
Continuous
 62
     7
370
     9
100
AcDbLine
 10
-2256.397736572307
 20
3118.808608184146
 30
0.0
 11
-2256.397736572307
 21
3275.986116453164
 31
0.0
  0
LINE
  5
350
330
1F
100
AcDbEntity
  8
0-A_文字
  6
Continuous
 62
     7
370
     9
100
AcDbLine
 10
-2431.724836850598
 20
3194.482113808654
 30
0.0
 11
-2256.397736572307
 21
3194.482113808654
 31
0.0
  0
LINE
  5
351
330
1F
100
AcDbEntity
  8
0-A_文字
  6
Continuous
 62
     7
370
     9
100
AcDbLine
 10
-2431.724836850598
 20
2373.34763533846
 30
0.0
 11
-2431.724836850598
 21
3194.482113808654
 31
0.0
  0
LINE
  5
352
330
1F
100
AcDbEntity
  8
0-A_文字
  6
Continuous
 62
     7
370
     9
100
AcDbLine
 10
-1832.018464245956
 20
3194.482113808654
 30
0.0
 11
-1647.545895744114
 21
3194.482113808654
 31
0.0
  0
LINE
  5
353
330
1F
100
AcDbEntity
  8
0-A_文字
  6
Continuous
 62
     7
370
     9
100
AcDbLine
 10
-1647.545895744114
 20
2373.34763533846
 30
0.0
 11
-1647.545895744114
 21
3194.482113808654
 31
0.0
  0
LINE
  5
354
330
1F
100
AcDbEntity
  8
0-A_文字
  6
Continuous
 62
     7
370
     9
100
AcDbLine
 10
-3174.930712738101
 20
2203.118216634155
 30
0.0
 11
-2431.724836850598
 21
2837.939902288064
 31
0.0
  0
MTEXT
  5
355
330
1F
100
AcDbEntity
  8
0-B_寸法
  6
Continuous
 62
     7
370
   211
100
AcDbMText
 10
-4156.637908688666
 20
-2265.61660853074
 30
0.0
 40
79.33764705882353
 41
885.0
 46
0.0
 71
     7
 72
     1
  1
{\fＭＳ ゴシック|b0|i0|c128|p49;開口寸法：1,960.5}
 11
6.123031769111886E-17
 21
1.0
 31
0.0
 73
     1
 44
1.0
  0
MTEXT
  5
356
330
1F
100
AcDbEntity
  8
0-B_寸法
  6
Continuous
 62
     7
370
   211
100
AcDbMText
 10
-3974.747657581729
 20
-2265.61660853074
 30
0.0
 40
79.33764705882353
 41
885.0
 46
0.0
 71
     7
 72
     1
  1
{\fＭＳ ゴシック|b0|i0|c128|p49;枠内寸法：1,948.5}
 11
6.123031769111886E-17
 21
1.0
 31
0.0
 73
     1
 44
1.0
  0
MTEXT
  5
357
330
1F
100
AcDbEntity
  8
0-B_寸法
  6
Continuous
 62
     7
370
   211
100
AcDbMText
 10
-2142.792643732931
 20
-2108.299977514697
 30
0.0
 40
78.97090909090909
 41
570.0
 46
0.0
 71
     7
 72
     1
  1
{\fＭＳ ゴシック|b0|i0|c128|p49;ＤＨ：1,983}
 11
6.123031769111886E-17
 21
1.0
 31
0.0
 73
     1
 44
1.0
  0
MTEXT
  5
358
330
1F
100
AcDbEntity
  8
0-B_寸法
  6
Continuous
 62
     7
370
   211
100
AcDbMText
 10
-1986.214282518161
 20
-2318.081221533836
 30
0.0
 40
79.40842105263158
 41
990.0
 46
0.0
 71
     7
 72
     1
  1
{\fＭＳ ゴシック|b0|i0|c128|p49;鴨居内寸法：1,996.5}
 11
6.123031769111886E-17
 21
1.0
 31
0.0
 73
     1
 44
1.0
  0
MTEXT
  5
359
330
1F
100
AcDbEntity
  8
0-B_寸法
  6
Continuous
 62
     7
370
   211
100
AcDbMText
 10
-1815.160443598831
 20
-2213.161432060152
 30
0.0
 40
79.248
 41
780.0
 46
0.0
 71
     7
 72
     1
  1
{\fＭＳ ゴシック|b0|i0|c128|p49;竪枠寸法：2,047}
 11
6.123031769111886E-17
 21
1.0
 31
0.0
 73
     1
 44
1.0
  0
MTEXT
  5
35A
330
1F
100
AcDbEntity
  8
0-A_文字
  6
Continuous
 62
     7
370
     9
100
AcDbMText
 10
-2341.976294316391
 20
2988.103474013965
 30
0.0
 40
77.724
 41
510.0
 46
0.0
 71
     7
 72
     1
  1
{\fＭＳ ゴシック|b0|i0|c128|p49;戸先裏部材}
 73
     1
 44
1.0
  0
LINE
  5
35B
330
1F
100
AcDbEntity
  8
0-B_寸法
  6
Continuous
 62
     7
370
     9
100
AcDbLine
 10
-5819.918393863917
 20
3404.579311737762
 30
0.0
 11
-5819.918393863917
 21
4000.00018145587
 31
0.0
  0
MTEXT
  5
35C
330
1F
100
AcDbEntity
  8
0-B_寸法
  6
Continuous
 62
     7
370
     9
100
AcDbMText
 10
-5714.500920638385
 20
3629.885860004807
 30
0.0
 40
101.44125
 41
1065.0
 46
0.0
 71
     7
 72
     1
  1
{\fＭＳ ゴシック|b0|i0|c128|p49;竪枠裏側に枠材を}
 73
     1
 44
1.0
  0
MTEXT
  5
35D
330
1F
100
AcDbEntity
  8
0-B_寸法
  6
Continuous
 62
     7
370
     9
100
AcDbMText
 10
-5714.500920638385
 20
3479.783806433378
 30
0.0
 40
101.2371428571429
 41
930.0
 46
0.0
 71
     7
 72
     1
  1
{\fＭＳ ゴシック|b0|i0|c128|p49;取り付ける場合}
 73
     1
 44
1.0
  0
LINE
  5
35E
330
1F
100
AcDbEntity
  8
0-B_寸法
  6
Continuous
 62
     7
370
     9
100
AcDbLine
 10
-4544.083447412853
 20
3404.579311737762
 30
0.0
 11
-5819.918393863917
 21
3404.579311737762
 31
0.0
  0
LINE
  5
35F
330
1F
100
AcDbEntity
  8
0-B_寸法
  6
Continuous
 62
     7
370
     9
100
AcDbLine
 10
-4544.083447412853
 20
4000.00018145587
 30
0.0
 11
-4544.083447412853
 21
3404.579311737762
 31
0.0
  0
LINE
  5
360
330
1F
100
AcDbEntity
  8
0-B_寸法
  6
Continuous
 62
     7
370
     9
100
AcDbLine
 10
-5819.918393863917
 20
4000.00018145587
 30
0.0
 11
-4544.083447412853
 21
4000.00018145587
 31
0.0
  0
MTEXT
  5
361
330
1F
100
AcDbEntity
  8
0-B_寸法
  6
Continuous
 62
     7
370
   211
100
AcDbMText
 10
676.798570115677
 20
-3669.6905861888
 30
0.0
 40
76.19999999999999
 41
150.0
 46
0.0
 71
     7
 72
     1
  1
{\fＭＳ ゴシック|b0|i0|c128|p49;855}
 73
     1
 44
1.0
  0
MTEXT
  5
362
330
1F
100
AcDbEntity
  8
0-B_寸法
  6
Continuous
 62
     7
370
   211
100
AcDbMText
 10
-1094.892244746442
 20
1250.167313496755
 30
0.0
 40
79.33764705882353
 41
885.0
 46
0.0
 71
     7
 72
     1
  1
{\fＭＳ ゴシック|b0|i0|c128|p49;上吊レール：1,869}
 73
     1
 44
1.0
  0
MTEXT
  5
363
330
1F
100
AcDbEntity
  8
0-A_文字
  6
Continuous
 62
     7
370
     9
100
AcDbMText
 10
-2029.245602818479
 20
2017.426710654805
 30
0.0
 40
78.97090909090909
 41
570.0
 46
0.0
 71
     7
 72
     1
  1
{\fＭＳ ゴシック|b0|i0|c128|p49;ＤＷ：1,008}
 73
     1
 44
1.0
  0
MTEXT
  5
364
330
1F
100
AcDbEntity
  8
0-B_寸法
  6
Continuous
 62
     7
370
   211
100
AcDbMText
 10
-2280.360911782406
 20
3351.925898605701
 30
0.0
 40
79.13076923076923
 41
675.0
 46
0.0
 71
     7
 72
     1
  1
{\fＭＳ ゴシック|b0|i0|c128|p49;有効開口：853}
 73
     1
 44
1.0
  0
MTEXT
  5
365
330
1F
100
AcDbEntity
  8
0-B_寸法
  6
Continuous
 62
     7
370
   211
100
AcDbMText
 10
-1856.005360903158
 20
3504.680484438419
 30
0.0
 40
76.19999999999999
 41
150.0
 46
0.0
 71
     7
 72
     1
  1
{\fＭＳ ゴシック|b0|i0|c128|p49;978}
 73
     1
 44
1.0
  0
MTEXT
  5
366
330
1F
100
AcDbEntity
  8
0-B_寸法
  6
Continuous
 62
     7
370
   211
100
AcDbMText
 10
-1830.505323787183
 20
3671.868681308125
 30
0.0
 40
78.37714285714286
 41
360.0
 46
0.0
 71
     7
 72
     1
  1
{\fＭＳ ゴシック|b0|i0|c128|p49;1,007.5}
 73
     1
 44
1.0
  0
LINE
  5
367
330
1F
100
AcDbEntity
  8
1-B_寸法
  6
Continuous
 62
   120
370
     5
100
AcDbLine
 10
4312.260047576402
 20
2710.472591334747
 30
0.0
 11
4312.260047576402
 21
2488.472591334746
 31
0.0
  0
LWPOLYLINE
  5
368
330
1F
100
AcDbEntity
  8
1-B_寸法
  6
Continuous
 62
     7
370
     9
100
AcDbPolyline
 90
        4
 70
     1
 43
3.0
 10
4313.760047576403
 20
2710.472591334747
 42
0.4142135623731
 10
4312.260047576402
 20
2711.972591334747
 42
0.4142135623731
 10
4310.760047576402
 20
2710.472591334747
 42
0.4142135623731
 10
4312.260047576402
 20
2708.972591334747
 42
0.4142135623731
  0
LWPOLYLINE
  5
369
330
1F
100
AcDbEntity
  8
1-B_寸法
  6
Continuous
 62
     7
370
     9
100
AcDbPolyline
 90
        4
 70
     1
 43
3.0
 10
4313.760047576403
 20
2488.472591334746
 42
0.4142135623731
 10
4312.260047576402
 20
2489.972591334746
 42
0.4142135623731
 10
4310.760047576402
 20
2488.472591334746
 42
0.4142135623731
 10
4312.260047576402
 20
2486.972591334746
 42
0.4142135623731
  0
LINE
  5
36A
330
1F
100
AcDbEntity
  8
1-B_寸法
  6
Continuous
 62
   120
370
     5
100
AcDbLine
 10
4312.260047576402
 20
2488.472591334746
 30
0.0
 11
4390.822019048628
 21
2488.472591334746
 31
0.0
  0
MTEXT
  5
36B
330
1F
100
AcDbEntity
  8
1-A_文字
  6
Continuous
 62
     7
370
     9
100
AcDbMText
 10
4314.519986891589
 20
3640.765773483335
 30
0.0
 40
77.72399999999948
 41
509.9999999999966
 46
0.0
 71
     7
 72
     1
  1
{\fＭＳ ゴシック|b0|i0|c128|p49;枠現場加工}
 73
     1
 44
1.0
  0
LWPOLYLINE
  5
36C
330
1F
100
AcDbEntity
  8
1-B_寸法
  6
Continuous
 62
     7
370
     9
100
AcDbPolyline
 90
        4
 70
     1
 43
3.0
 10
4314.113082865728
 20
-3430.527408665256
 42
0.4142135623731
 10
4312.613082865728
 20
-3429.027408665256
 42
0.4142135623731
 10
4311.113082865728
 20
-3430.527408665256
 42
0.4142135623731
 10
4312.613082865728
 20
-3432.027408665256
 42
0.4142135623731
  0
CIRCLE
  5
36D
330
1F
100
AcDbEntity
  8
1-7_金物
  6
Continuous
 62
     7
370
     9
100
AcDbCircle
 10
4829.351616394062
 20
2200.472591334747
 30
0.0
 40
12.0
  0
CIRCLE
  5
36E
330
1F
100
AcDbEntity
  8
1-7_金物
  6
Continuous
 62
     7
370
     9
100
AcDbCircle
 10
4829.351616394062
 20
2200.472591334747
 30
0.0
 40
22.5
  0
CIRCLE
  5
36F
330
1F
100
AcDbEntity
  8
1-7_金物
  6
Continuous
 62
     7
370
     9
100
AcDbCircle
 10
4829.351616394062
 20
-2920.527408665256
 30
0.0
 40
12.0
  0
CIRCLE
  5
370
330
1F
100
AcDbEntity
  8
1-7_金物
  6
Continuous
 62
     7
370
     9
100
AcDbCircle
 10
4829.351616394062
 20
-2920.527408665256
 30
0.0
 40
22.5
  0
CIRCLE
  5
371
330
1F
100
AcDbEntity
  8
1-7_金物
  6
Continuous
 62
     7
370
     9
100
AcDbCircle
 10
4829.351616394062
 20
580.4725913347424
 30
0.0
 40
12.0
  0
CIRCLE
  5
372
330
1F
100
AcDbEntity
  8
1-7_金物
  6
Continuous
 62
     7
370
     9
100
AcDbCircle
 10
4829.351616394062
 20
580.4725913347424
 30
0.0
 40
22.5
  0
CIRCLE
  5
373
330
1F
100
AcDbEntity
  8
1-7_金物
  6
Continuous
 62
     7
370
     9
100
AcDbCircle
 10
4550.351287299096
 20
-1300.527408665258
 30
0.0
 40
12.0
  0
CIRCLE
  5
374
330
1F
100
AcDbEntity
  8
1-7_金物
  6
Continuous
 62
     7
370
     9
100
AcDbCircle
 10
4550.351287299096
 20
2200.472591334747
 30
0.0
 40
12.0
  0
CIRCLE
  5
375
330
1F
100
AcDbEntity
  8
1-7_金物
  6
Continuous
 62
     7
370
     9
100
AcDbCircle
 10
4550.351287299096
 20
-2920.527408665256
 30
0.0
 40
12.0
  0
CIRCLE
  5
376
330
1F
100
AcDbEntity
  8
1-7_金物
  6
Continuous
 62
     7
370
     9
100
AcDbCircle
 10
4550.351287299096
 20
580.4725913347424
 30
0.0
 40
12.0
  0
LINE
  5
377
330
1F
100
AcDbEntity
  8
1-7_金物
  6
Continuous
 62
     7
370
     9
100
AcDbLine
 10
4806.878723040003
 20
3133.859035312347
 30
0.0
 11
4806.851817980193
 21
3142.8589950848
 31
0.0
  0
LINE
  5
378
330
1F
100
AcDbEntity
  8
1-7_金物
  6
Continuous
 62
     7
370
     9
100
AcDbLine
 10
4806.851817980193
 20
3142.8589950848
 30
0.0
 11
4851.851617708587
 21
3142.993517869302
 31
0.0
  0
LINE
  5
379
330
1F
100
AcDbEntity
  8
1-7_金物
  6
Continuous
 62
     7
370
     9
100
AcDbLine
 10
4821.851751461408
 20
3142.903836013433
 30
0.0
 11
4821.806910648726
 21
3157.90376883667
 31
0.0
  0
LINE
  5
37A
330
1F
100
AcDbEntity
  8
1-7_金物
  6
Continuous
 62
     7
370
     9
100
AcDbLine
 10
4821.806910648726
 20
3157.90376883667
 30
0.0
 11
4836.806843414683
 21
3157.948609649355
 31
0.0
  0
LINE
  5
37B
330
1F
100
AcDbEntity
  8
1-7_金物
  6
Continuous
 62
     7
370
     9
100
AcDbLine
 10
4836.851684227368
 20
3142.948676940669
 30
0.0
 11
4836.806843414683
 21
3157.948609649355
 31
0.0
  0
ARC
  5
37C
330
1F
100
AcDbEntity
  8
1-7_金物
  6
Continuous
 62
     7
370
     9
100
AcDbCircle
 10
4829.105530172371
 20
3225.279560386353
 30
0.0
 40
94.083703994751
100
AcDbArc
 50
256.3349914550782
 51
284.0075988769531
  0
LINE
  5
37D
330
1F
100
AcDbEntity
  8
1-7_金物
  6
Continuous
 62
     7
370
     9
100
AcDbLine
 10
4851.878521337887
 20
3133.993557750398
 30
0.0
 11
4851.851617708587
 21
3142.993517869302
 31
0.0
  0
ARC
  5
37E
330
1F
100
AcDbEntity
  8
1-7_金物
  6
Continuous
 62
     7
370
     9
100
AcDbCircle
 10
4550.105136897701
 20
3216.279560386352
 30
0.0
 40
94.083703994751
100
AcDbArc
 50
256.3349914550782
 51
284.0075988769531
  0
LINE
  5
37F
330
1F
100
AcDbEntity
  8
1-1_通り芯
  6
JWW_CENTER1
 62
   120
370
     5
100
AcDbLine
 10
4874.664562301092
 20
2200.472591334747
 30
0.0
 11
4787.145925020726
 21
2200.472591334747
 31
0.0
  0
LINE
  5
380
330
1F
100
AcDbEntity
  8
1-1_通り芯
  6
JWW_CENTER1
 62
   120
370
     5
100
AcDbLine
 10
4874.664562301092
 20
-2920.527408665256
 30
0.0
 11
4787.145925020726
 21
-2920.527408665256
 31
0.0
  0
LINE
  5
381
330
1F
100
AcDbEntity
  8
1-1_通り芯
  6
JWW_CENTER1
 62
   120
370
     5
100
AcDbLine
 10
4874.664562301092
 20
580.4725913347424
 30
0.0
 11
4787.145925020726
 21
580.4725913347424
 31
0.0
  0
LINE
  5
382
330
1F
100
AcDbEntity
  8
1-1_通り芯
  6
JWW_CENTER1
 62
   120
370
     5
100
AcDbLine
 10
4595.664233206126
 20
-1300.527408665258
 30
0.0
 11
4508.145595925761
 21
-1300.527408665258
 31
0.0
  0
LINE
  5
383
330
1F
100
AcDbEntity
  8
1-1_通り芯
  6
JWW_CENTER1
 62
   120
370
     5
100
AcDbLine
 10
4550.351287299096
 20
-1141.004777508074
 30
0.0
 11
4550.351287299096
 21
-1394.0687783206
 31
0.0
  0
LINE
  5
384
330
1F
100
AcDbEntity
  8
1-1_通り芯
  6
JWW_CENTER1
 62
   120
370
     5
100
AcDbLine
 10
4595.664233206126
 20
2200.472591334747
 30
0.0
 11
4508.145595925761
 21
2200.472591334747
 31
0.0
  0
LINE
  5
385
330
1F
100
AcDbEntity
  8
1-1_通り芯
  6
JWW_CENTER1
 62
   120
370
     5
100
AcDbLine
 10
4550.351287299096
 20
2354.972591334747
 30
0.0
 11
4550.351287299096
 21
2072.346752794736
 31
0.0
  0
LINE
  5
386
330
1F
100
AcDbEntity
  8
1-1_通り芯
  6
JWW_CENTER1
 62
   120
370
     5
100
AcDbLine
 10
4595.664233206126
 20
-2920.527408665256
 30
0.0
 11
4508.145595925761
 21
-2920.527408665256
 31
0.0
  0
LINE
  5
387
330
1F
100
AcDbEntity
  8
1-1_通り芯
  6
JWW_CENTER1
 62
   120
370
     5
100
AcDbLine
 10
4550.351287299096
 20
-2772.575343228248
 30
0.0
 11
4550.351287299096
 21
-3035.761904073271
 31
0.0
  0
LINE
  5
388
330
1F
100
AcDbEntity
  8
1-1_通り芯
  6
JWW_CENTER1
 62
   120
370
     5
100
AcDbLine
 10
4595.664233206126
 20
580.4725913347424
 30
0.0
 11
4508.145595925761
 21
580.4725913347424
 31
0.0
  0
LINE
  5
389
330
1F
100
AcDbEntity
  8
1-1_通り芯
  6
JWW_CENTER1
 62
   120
370
     5
100
AcDbLine
 10
4550.351287299096
 20
693.8401878870866
 30
0.0
 11
4550.351287299096
 21
491.3889872370662
 31
0.0
  0
LINE
  5
38A
330
1F
100
AcDbEntity
  8
1-4_枠
  6
Continuous
 62
    92
370
    13
100
AcDbLine
 10
4686.851287299098
 20
2488.472591334746
 30
0.0
 11
4425.851287299097
 21
2488.472591334746
 31
0.0
  0
LINE
  5
38B
330
1F
100
AcDbEntity
  8
1-4_枠
  6
Continuous
 62
    92
370
    13
100
AcDbLine
 10
4686.851287299098
 20
2488.472591334746
 30
0.0
 11
4686.851287299098
 21
2710.472591334747
 31
0.0
  0
LINE
  5
38C
330
1F
100
AcDbEntity
  8
1-4_枠
  6
Continuous
 62
    92
370
    13
100
AcDbLine
 10
4686.851287299098
 20
2710.472591334747
 30
0.0
 11
4935.851287299097
 21
2710.472591334747
 31
0.0
  0
LINE
  5
38D
330
1F
100
AcDbEntity
  8
1-4_枠
  6
Continuous
 62
    92
370
    13
100
AcDbLine
 10
4935.851287299097
 20
2710.472591334747
 30
0.0
 11
4935.851287299097
 21
-3430.527408665256
 31
0.0
  0
LINE
  5
38E
330
1F
100
AcDbEntity
  8
1-4_枠
  6
Continuous
 62
    92
370
    13
100
AcDbLine
 10
4425.851287299097
 20
2488.472591334746
 30
0.0
 11
4425.851287299097
 21
-3430.527408665256
 31
0.0
  0
LINE
  5
38F
330
1F
100
AcDbEntity
  8
1-4_枠
  6
Continuous
 62
    92
370
    13
100
AcDbLine
 10
4935.851287299097
 20
-3430.527408665256
 30
0.0
 11
4425.851287299097
 21
-3430.527408665256
 31
0.0
  0
LINE
  5
390
330
1F
100
AcDbEntity
  8
1-4_枠
  6
JWW_DASHED1
 62
   120
370
     5
100
AcDbLine
 10
4724.351287299098
 20
2450.972591334746
 30
0.0
 11
4724.351287299098
 21
2710.472591334747
 31
0.0
  0
LINE
  5
391
330
1F
100
AcDbEntity
  8
1-4_枠
  6
JWW_DASHED1
 62
   120
370
     5
100
AcDbLine
 10
4724.351287299098
 20
2450.972591334746
 30
0.0
 11
4425.851287299097
 21
2450.972591334746
 31
0.0
  0
LINE
  5
392
330
1F
100
AcDbEntity
  8
1-4_枠
  6
Continuous
 62
    92
370
    13
100
AcDbLine
 10
4935.851287299097
 20
3214.926182245104
 30
0.0
 11
4425.851287299097
 21
3214.926182245104
 31
0.0
  0
LINE
  5
393
330
1F
100
AcDbEntity
  8
1-4_枠
  6
Continuous
 62
    92
370
    13
100
AcDbLine
 10
4425.851287299097
 20
3133.411537851288
 30
0.0
 11
4425.851287299097
 21
3214.926182245104
 31
0.0
  0
LINE
  5
394
330
1F
100
AcDbEntity
  8
1-4_枠
  6
Continuous
 62
    92
370
    13
100
AcDbLine
 10
4434.336568673334
 20
3124.926256477051
 30
0.0
 11
4425.851287299097
 21
3133.411537851288
 31
0.0
  0
LINE
  5
395
330
1F
100
AcDbEntity
  8
1-4_枠
  6
Continuous
 62
    92
370
    13
100
AcDbLine
 10
4434.336568673334
 20
3124.926256477051
 30
0.0
 11
4767.851287299096
 21
3124.926256477051
 31
0.0
  0
LINE
  5
396
330
1F
100
AcDbEntity
  8
1-4_枠
  6
Continuous
 62
    92
370
    13
100
AcDbLine
 10
4767.851287299096
 20
3124.926256477051
 30
0.0
 11
4767.851287299096
 21
3142.926256477051
 31
0.0
  0
LINE
  5
397
330
1F
100
AcDbEntity
  8
1-4_枠
  6
Continuous
 62
    92
370
    13
100
AcDbLine
 10
4767.851287299096
 20
3142.926256477051
 30
0.0
 11
4890.851287299097
 21
3142.926256477051
 31
0.0
  0
LINE
  5
398
330
1F
100
AcDbEntity
  8
1-4_枠
  6
Continuous
 62
    92
370
    13
100
AcDbLine
 10
4890.851287299097
 20
3124.926256477051
 30
0.0
 11
4890.851287299097
 21
3142.926256477051
 31
0.0
  0
LINE
  5
399
330
1F
100
AcDbEntity
  8
1-4_枠
  6
Continuous
 62
    92
370
    13
100
AcDbLine
 10
4927.36600592486
 20
3124.926256477051
 30
0.0
 11
4890.851287299097
 21
3124.926256477051
 31
0.0
  0
LINE
  5
39A
330
1F
100
AcDbEntity
  8
1-4_枠
  6
Continuous
 62
    92
370
    13
100
AcDbLine
 10
4935.851287299097
 20
3133.411537851288
 30
0.0
 11
4927.36600592486
 21
3124.926256477051
 31
0.0
  0
LINE
  5
39B
330
1F
100
AcDbEntity
  8
1-4_枠
  6
Continuous
 62
    92
370
    13
100
AcDbLine
 10
4935.851287299097
 20
3133.411537851288
 30
0.0
 11
4935.851287299097
 21
3214.926182245104
 31
0.0
  0
LINE
  5
39C
330
1F
100
AcDbEntity
  8
1-1_通り芯
  6
JWW_CENTER1
 62
   120
370
     5
100
AcDbLine
 10
4829.351616394061
 20
3098.240120273445
 30
0.0
 11
4829.351616394061
 21
3247.217157751136
 31
0.0
  0
LINE
  5
39D
330
1F
100
AcDbEntity
  8
1-1_通り芯
  6
JWW_CENTER1
 62
   120
370
     5
100
AcDbLine
 10
4550.351287299096
 20
3098.240120273445
 30
0.0
 11
4550.351287299096
 21
3247.217157751136
 31
0.0
  0
LINE
  5
39E
330
1F
100
AcDbEntity
  8
1-C_ハッチ
  6
Continuous
 62
   120
370
     5
100
AcDbLine
 10
4624.703098888518
 20
3214.926182245104
 30
0.0
 11
4714.703024656571
 21
3124.926256477051
 31
0.0
  0
LINE
  5
39F
330
1F
100
AcDbEntity
  8
1-C_ハッチ
  6
Continuous
 62
   120
370
     5
100
AcDbLine
 10
4645.916362322852
 20
3214.926182245104
 30
0.0
 11
4735.916288090902
 21
3124.926256477051
 31
0.0
  0
LINE
  5
3A0
330
1F
100
AcDbEntity
  8
1-C_ハッチ
  6
Continuous
 62
   120
370
     5
100
AcDbLine
 10
4836.834619752643
 20
3214.926182245104
 30
0.0
 11
4926.834545520695
 21
3124.926256477051
 31
0.0
  0
LINE
  5
3A1
330
1F
100
AcDbEntity
  8
1-C_ハッチ
  6
Continuous
 62
   120
370
     5
100
AcDbLine
 10
4773.195200609377
 20
3214.926182245104
 30
0.0
 11
4845.195126377433
 21
3142.926256477051
 31
0.0
  0
LINE
  5
3A2
330
1F
100
AcDbEntity
  8
1-C_ハッチ
  6
Continuous
 62
   120
370
     5
100
AcDbLine
 10
4730.769044900446
 20
3214.926182245104
 30
0.0
 11
4802.768970668501
 21
3142.926256477051
 31
0.0
  0
LINE
  5
3A3
330
1F
100
AcDbEntity
  8
1-C_ハッチ
  6
Continuous
 62
   120
370
     5
100
AcDbLine
 10
4709.555781466114
 20
3214.926182245104
 30
0.0
 11
4781.555707234167
 21
3142.926256477051
 31
0.0
  0
LINE
  5
3A4
330
1F
100
AcDbEntity
  8
1-C_ハッチ
  6
Continuous
 62
   120
370
     5
100
AcDbLine
 10
4794.408464043711
 20
3214.926182245104
 30
0.0
 11
4866.408389811767
 21
3142.926256477051
 31
0.0
  0
LINE
  5
3A5
330
1F
100
AcDbEntity
  8
1-C_ハッチ
  6
Continuous
 62
   120
370
     5
100
AcDbLine
 10
4603.490206613921
 20
3214.926182245104
 30
0.0
 11
4693.49013238197
 21
3124.926256477051
 31
0.0
  0
LINE
  5
3A6
330
1F
100
AcDbEntity
  8
1-C_ハッチ
  6
Continuous
 62
   120
370
     5
100
AcDbLine
 10
4582.276943179587
 20
3214.926182245104
 30
0.0
 11
4672.27686894764
 21
3124.926256477051
 31
0.0
  0
LINE
  5
3A7
330
1F
100
AcDbEntity
  8
1-C_ハッチ
  6
Continuous
 62
   120
370
     5
100
AcDbLine
 10
4561.063679745255
 20
3214.926182245104
 30
0.0
 11
4651.063605513308
 21
3124.926256477051
 31
0.0
  0
LINE
  5
3A8
330
1F
100
AcDbEntity
  8
1-C_ハッチ
  6
Continuous
 62
   120
370
     5
100
AcDbLine
 10
4751.981937175045
 20
3214.926182245104
 30
0.0
 11
4823.981862943098
 21
3142.926256477051
 31
0.0
  0
LINE
  5
3A9
330
1F
100
AcDbEntity
  8
1-C_ハッチ
  6
Continuous
 62
   120
370
     5
100
AcDbLine
 10
4667.129625757183
 20
3214.926182245104
 30
0.0
 11
4757.129551525237
 21
3124.926256477051
 31
0.0
  0
LINE
  5
3AA
330
1F
100
AcDbEntity
  8
1-C_ハッチ
  6
Continuous
 62
   120
370
     5
100
AcDbLine
 10
4539.850787470656
 20
3214.926182245104
 30
0.0
 11
4629.850713238709
 21
3124.926256477051
 31
0.0
  0
LINE
  5
3AB
330
1F
100
AcDbEntity
  8
1-C_ハッチ
  6
Continuous
 62
   120
370
     5
100
AcDbLine
 10
4518.637895196059
 20
3214.926182245104
 30
0.0
 11
4608.637820964108
 21
3124.926256477051
 31
0.0
  0
LINE
  5
3AC
330
1F
100
AcDbEntity
  8
1-C_ハッチ
  6
Continuous
 62
   120
370
     5
100
AcDbLine
 10
4497.425002921458
 20
3214.926182245104
 30
0.0
 11
4587.424928689508
 21
3124.926256477051
 31
0.0
  0
LINE
  5
3AD
330
1F
100
AcDbEntity
  8
1-C_ハッチ
  6
Continuous
 62
   120
370
     5
100
AcDbLine
 10
4815.621356318312
 20
3214.926182245104
 30
0.0
 11
4887.621282086366
 21
3142.926256477051
 31
0.0
  0
LINE
  5
3AE
330
1F
100
AcDbEntity
  8
1-C_ハッチ
  6
Continuous
 62
   120
370
     5
100
AcDbLine
 10
4890.851287299097
 20
3139.69625126432
 30
0.0
 11
4905.621282086365
 21
3124.926256477051
 31
0.0
  0
LINE
  5
3AF
330
1F
100
AcDbEntity
  8
1-C_ハッチ
  6
Continuous
 62
   120
370
     5
100
AcDbLine
 10
4688.342518031784
 20
3214.926182245104
 30
0.0
 11
4767.851287299096
 21
3135.417412977789
 31
0.0
  0
LINE
  5
3B0
330
1F
100
AcDbEntity
  8
1-C_ハッチ
  6
Continuous
 62
   120
370
     5
100
AcDbLine
 10
4921.687673489977
 20
3214.926182245104
 30
0.0
 11
4935.851287299097
 21
3200.762568435982
 31
0.0
  0
LINE
  5
3B1
330
1F
100
AcDbEntity
  8
1-C_ハッチ
  6
Continuous
 62
   120
370
     5
100
AcDbLine
 10
4900.474410055643
 20
3214.926182245104
 30
0.0
 11
4935.851287299097
 21
3179.549305001649
 31
0.0
  0
LINE
  5
3B2
330
1F
100
AcDbEntity
  8
1-C_ハッチ
  6
Continuous
 62
   120
370
     5
100
AcDbLine
 10
4879.261146621308
 20
3214.926182245104
 30
0.0
 11
4935.851287299097
 21
3158.336041567317
 31
0.0
  0
LINE
  5
3B3
330
1F
100
AcDbEntity
  8
1-C_ハッチ
  6
Continuous
 62
   120
370
     5
100
AcDbLine
 10
4858.047883186977
 20
3214.926182245104
 30
0.0
 11
4935.851287299097
 21
3137.122778132985
 31
0.0
  0
LINE
  5
3B4
330
1F
100
AcDbEntity
  8
1-C_ハッチ
  6
Continuous
 62
   120
370
     5
100
AcDbLine
 10
4566.212036414911
 20
3124.926256477051
 30
0.0
 11
4476.212110646858
 21
3214.926182245104
 31
0.0
  0
LINE
  5
3B5
330
1F
100
AcDbEntity
  8
1-C_ハッチ
  6
Continuous
 62
   120
370
     5
100
AcDbLine
 10
4454.99921837226
 20
3214.926182245104
 30
0.0
 11
4544.999144140312
 21
3124.926256477051
 31
0.0
  0
LINE
  5
3B6
330
1F
100
AcDbEntity
  8
1-C_ハッチ
  6
Continuous
 62
   120
370
     5
100
AcDbLine
 10
4433.786326097658
 20
3214.926182245104
 30
0.0
 11
4523.786251865715
 21
3124.926256477051
 31
0.0
  0
LINE
  5
3B7
330
1F
100
AcDbEntity
  8
1-C_ハッチ
  6
Continuous
 62
   120
370
     5
100
AcDbLine
 10
4425.851287299097
 20
3201.648328769068
 30
0.0
 11
4502.573359591112
 21
3124.926256477051
 31
0.0
  0
LINE
  5
3B8
330
1F
100
AcDbEntity
  8
1-C_ハッチ
  6
Continuous
 62
   120
370
     5
100
AcDbLine
 10
4425.851287299097
 20
3180.435436494467
 30
0.0
 11
4481.360467316511
 21
3124.926256477051
 31
0.0
  0
LINE
  5
3B9
330
1F
100
AcDbEntity
  8
1-C_ハッチ
  6
Continuous
 62
   120
370
     5
100
AcDbLine
 10
4460.147575041914
 20
3124.926256477051
 30
0.0
 11
4425.851287299097
 21
3159.222544219868
 31
0.0
  0
LINE
  5
3BA
330
1F
100
AcDbEntity
  8
1-C_ハッチ
  6
Continuous
 62
   120
370
     5
100
AcDbLine
 10
4836.84986177612
 20
3143.55831455519
 30
0.0
 11
4837.481919854257
 21
3142.926256477051
 31
0.0
  0
MTEXT
  5
3BB
330
1F
100
AcDbEntity
  8
1-A_文字
  6
Continuous
 62
     7
370
     9
100
AcDbMText
 10
4160.803270651253
 20
3460.692959682026
 30
0.0
 40
77.724
 41
510.0
 46
0.0
 71
     7
 72
     1
  1
{\fＭＳ ゴシック|b0|i0|c128|p49;12.5㎜PBの}
 73
     1
 44
1.0
  0
MTEXT
  5
3BC
330
1F
100
AcDbEntity
  8
1-A_文字
  6
Continuous
 62
     7
370
     9
100
AcDbMText
 10
4160.803270651253
 20
3351.194902913096
 30
0.0
 40
78.37714285714286
 41
720.0
 46
0.0
 71
     7
 72
     1
  1
{\fＭＳ ゴシック|b0|i0|c128|p49;場合のカキコミ}
 73
     1
 44
1.0
  0
MTEXT
  5
3BD
330
1F
100
AcDbEntity
  8
1-A_文字
  6
Continuous
 62
     7
370
     9
100
AcDbMText
 10
4160.803270651253
 20
3249.733020870096
 30
0.0
 40
77.724
 41
510.0
 46
0.0
 71
     7
 72
     1
  1
{\fＭＳ ゴシック|b0|i0|c128|p49;寸法です。}
 73
     1
 44
1.0
  0
MTEXT
  5
3BE
330
1F
100
AcDbEntity
  8
1-B_寸法
  6
Continuous
 62
     7
370
   211
100
AcDbMText
 10
4605.851287299097
 20
2973.958441136498
 30
0.0
 40
76.19999999999999
 41
150.0
 46
0.0
 71
     7
 72
     1
  1
{\fＭＳ ゴシック|b0|i0|c128|p49;170}
 73
     1
 44
1.0
  0
MTEXT
  5
3BF
330
1F
100
AcDbEntity
  8
1-B_寸法
  6
Continuous
 62
     7
370
   211
100
AcDbMText
 10
4507.601287299098
 20
2845.706250143007
 30
0.0
 40
74.295
 41
97.5
 46
0.0
 71
     7
 72
     1
  1
{\fＭＳ ゴシック|b0|i0|c128|p49;87}
 73
     1
 44
1.0
  0
MTEXT
  5
3C0
330
1F
100
AcDbEntity
  8
1-B_寸法
  6
Continuous
 62
     7
370
   211
100
AcDbMText
 10
4762.601287299098
 20
2845.706250143007
 30
0.0
 40
74.295
 41
97.5
 46
0.0
 71
     7
 72
     1
  1
{\fＭＳ ゴシック|b0|i0|c128|p49;83}
 73
     1
 44
1.0
  0
MTEXT
  5
3C1
330
1F
100
AcDbEntity
  8
1-B_寸法
  6
Continuous
 62
     7
370
   211
100
AcDbMText
 10
4297.260047576402
 20
2542.870091334746
 30
0.0
 40
74.295
 41
97.5
 46
0.0
 71
     7
 72
     1
  1
{\fＭＳ ゴシック|b0|i0|c128|p49;74}
 11
6.123031769111886E-17
 21
1.0
 31
0.0
 73
     1
 44
1.0
  0
MTEXT
  5
3C2
330
1F
100
AcDbEntity
  8
1-B_寸法
  6
Continuous
 62
     7
370
   211
100
AcDbMText
 10
5080.623358604103
 20
2364.572591334748
 30
0.0
 40
76.19999999999999
 41
150.0
 46
0.0
 71
     7
 72
     1
  1
{\fＭＳ ゴシック|b0|i0|c128|p49;170}
 11
6.123031769111886E-17
 21
1.0
 31
0.0
 73
     1
 44
1.0
  0
MTEXT
  5
3C3
330
1F
100
AcDbEntity
  8
1-B_寸法
  6
Continuous
 62
     7
370
   211
100
AcDbMText
 10
4641.101451846578
 20
1844.695625496879
 30
0.0
 40
74.295
 41
97.5
 46
0.0
 71
     7
 72
     1
  1
{\fＭＳ ゴシック|b0|i0|c128|p49;93}
 73
     1
 44
1.0
  0
MTEXT
  5
3C4
330
1F
100
AcDbEntity
  8
1-B_寸法
  6
Continuous
 62
     7
370
   211
100
AcDbMText
 10
4781.351451846582
 20
1721.492652777938
 30
0.0
 40
77.1524999999987
 41
202.4999999999966
 46
0.0
 71
     7
 72
     1
  1
{\fＭＳ ゴシック|b0|i0|c128|p49;35.5}
 73
     1
 44
1.0
  0
MTEXT
  5
3C5
330
1F
100
AcDbEntity
  8
1-B_寸法
  6
Continuous
 62
     7
370
   211
100
AcDbMText
 10
4431.851287299095
 20
1713.960043875615
 30
0.0
 40
77.15249999999999
 41
202.5
 46
0.0
 71
     7
 72
     1
  1
{\fＭＳ ゴシック|b0|i0|c128|p49;41.5}
 73
     1
 44
1.0
  0
MTEXT
  5
3C6
330
1F
100
AcDbEntity
  8
1-B_寸法
  6
Continuous
 62
     7
370
   211
100
AcDbMText
 10
5080.623358604103
 20
1342.68074353716
 30
0.0
 40
76.19999999999999
 41
150.0
 46
0.0
 71
     7
 72
     1
  1
{\fＭＳ ゴシック|b0|i0|c128|p49;540}
 11
6.123031769111886E-17
 21
1.0
 31
0.0
 73
     1
 44
1.0
  0
LINE
  5
3C7
330
1F
100
AcDbEntity
  8
1-B_寸法
  6
Continuous
 62
   120
370
     5
100
AcDbLine
 10
4425.851287299097
 20
2838.558750143007
 30
0.0
 11
4686.851287299098
 21
2838.558750143007
 31
0.0
  0
LWPOLYLINE
  5
3C8
330
1F
100
AcDbEntity
  8
1-B_寸法
  6
Continuous
 62
     7
370
     9
100
AcDbPolyline
 90
        4
 70
     1
 43
3.0
 10
4427.351287299097
 20
2838.558750143007
 42
0.4142135623731
 10
4425.851287299097
 20
2840.058750143007
 42
0.4142135623731
 10
4424.351287299097
 20
2838.558750143007
 42
0.4142135623731
 10
4425.851287299097
 20
2837.058750143007
 42
0.4142135623731
  0
LWPOLYLINE
  5
3C9
330
1F
100
AcDbEntity
  8
1-B_寸法
  6
Continuous
 62
     7
370
     9
100
AcDbPolyline
 90
        4
 70
     1
 43
3.0
 10
4688.351287299099
 20
2838.558750143007
 42
0.4142135623731
 10
4686.851287299098
 20
2840.058750143007
 42
0.4142135623731
 10
4685.351287299098
 20
2838.558750143007
 42
0.4142135623731
 10
4686.851287299098
 20
2837.058750143007
 42
0.4142135623731
  0
LINE
  5
3CA
330
1F
100
AcDbEntity
  8
1-B_寸法
  6
Continuous
 62
   120
370
     5
100
AcDbLine
 10
4425.851287299097
 20
2838.558750143007
 30
0.0
 11
4425.851287299097
 21
2592.967632134058
 31
0.0
  0
LINE
  5
3CB
330
1F
100
AcDbEntity
  8
1-B_寸法
  6
Continuous
 62
   120
370
     5
100
AcDbLine
 10
4686.851287299098
 20
2838.558750143007
 30
0.0
 11
4686.851287299098
 21
2784.494502671262
 31
0.0
  0
MTEXT
  5
3CC
330
1F
100
AcDbEntity
  8
1-B_寸法
  6
Continuous
 62
     7
370
   211
100
AcDbMText
 10
5080.623358604103
 20
-516.9274086652553
 30
0.0
 40
76.19999999999999
 41
150.0
 46
0.0
 71
     7
 72
     1
  1
{\fＭＳ ゴシック|b0|i0|c128|p49;627}
 11
6.123031769111886E-17
 21
1.0
 31
0.0
 73
     1
 44
1.0
  0
LINE
  5
3CD
330
1F
100
AcDbEntity
  8
1-B_寸法
  6
Continuous
 62
   120
370
     5
100
AcDbLine
 10
4686.851287299098
 20
2838.558750143007
 30
0.0
 11
4935.851287299097
 21
2838.558750143007
 31
0.0
  0
LWPOLYLINE
  5
3CE
330
1F
100
AcDbEntity
  8
1-B_寸法
  6
Continuous
 62
     7
370
     9
100
AcDbPolyline
 90
        4
 70
     1
 43
3.0
 10
4937.351287299097
 20
2838.558750143007
 42
0.4142135623731
 10
4935.851287299097
 20
2840.058750143007
 42
0.4142135623731
 10
4934.351287299097
 20
2838.558750143007
 42
0.4142135623731
 10
4935.851287299097
 20
2837.058750143007
 42
0.4142135623731
  0
LINE
  5
3CF
330
1F
100
AcDbEntity
  8
1-B_寸法
  6
Continuous
 62
   120
370
     5
100
AcDbLine
 10
4935.851287299097
 20
2838.558750143007
 30
0.0
 11
4935.851287299097
 21
2784.494502671262
 31
0.0
  0
MTEXT
  5
3D0
330
1F
100
AcDbEntity
  8
1-B_寸法
  6
Continuous
 62
     7
370
   211
100
AcDbMText
 10
3993.173108089949
 20
-782.2215919239125
 30
0.0
 40
79.24799999999996
 41
779.9999999999995
 46
0.0
 71
     7
 72
     1
  1
{\fＭＳ ゴシック|b0|i0|c128|p49;竪枠寸法：2,047}
 11
6.123031769111886E-17
 21
1.0
 31
0.0
 73
     1
 44
1.0
  0
LINE
  5
3D1
330
1F
100
AcDbEntity
  8
1-B_寸法
  6
Continuous
 62
   120
370
     5
100
AcDbLine
 10
5095.623358604103
 20
-1300.527408665258
 30
0.0
 11
4994.498882754943
 21
-1300.527408665258
 31
0.0
  0
LINE
  5
3D2
330
1F
100
AcDbEntity
  8
1-B_寸法
  6
Continuous
 62
   120
370
     5
100
AcDbLine
 10
5095.623358604103
 20
-3430.527408665256
 30
0.0
 11
4994.498882754943
 21
-3430.527408665256
 31
0.0
  0
LINE
  5
3D3
330
1F
100
AcDbEntity
  8
1-B_寸法
  6
Continuous
 62
   120
370
     5
100
AcDbLine
 10
5095.623358604103
 20
2200.472591334747
 30
0.0
 11
4994.498882754943
 21
2200.472591334747
 31
0.0
  0
LINE
  5
3D4
330
1F
100
AcDbEntity
  8
1-B_寸法
  6
Continuous
 62
   120
370
     5
100
AcDbLine
 10
5095.623358604103
 20
2710.472591334747
 30
0.0
 11
4994.498882754943
 21
2710.472591334747
 31
0.0
  0
LINE
  5
3D5
330
1F
100
AcDbEntity
  8
1-B_寸法
  6
Continuous
 62
   120
370
     5
100
AcDbLine
 10
5095.623358604103
 20
2710.472591334747
 30
0.0
 11
5095.623358604103
 21
2200.472591334747
 31
0.0
  0
LINE
  5
3D6
330
1F
100
AcDbEntity
  8
1-B_寸法
  6
Continuous
 62
   120
370
     5
100
AcDbLine
 10
5095.623358604103
 20
-2920.527408665256
 30
0.0
 11
4994.498882754943
 21
-2920.527408665256
 31
0.0
  0
LINE
  5
3D7
330
1F
100
AcDbEntity
  8
1-B_寸法
  6
Continuous
 62
   120
370
     5
100
AcDbLine
 10
5095.623358604103
 20
-2920.527408665256
 30
0.0
 11
5095.623358604103
 21
-3430.527408665256
 31
0.0
  0
LINE
  5
3D8
330
1F
100
AcDbEntity
  8
1-B_寸法
  6
Continuous
 62
   120
370
     5
100
AcDbLine
 10
5095.623358604103
 20
-1300.527408665258
 30
0.0
 11
5095.623358604103
 21
-2920.527408665256
 31
0.0
  0
LINE
  5
3D9
330
1F
100
AcDbEntity
  8
1-B_寸法
  6
Continuous
 62
   120
370
     5
100
AcDbLine
 10
5095.623358604103
 20
580.4725913347424
 30
0.0
 11
4994.498882754943
 21
580.4725913347424
 31
0.0
  0
LINE
  5
3DA
330
1F
100
AcDbEntity
  8
1-B_寸法
  6
Continuous
 62
   120
370
     5
100
AcDbLine
 10
5095.623358604103
 20
580.4725913347424
 30
0.0
 11
5095.623358604103
 21
-1300.527408665258
 31
0.0
  0
LINE
  5
3DB
330
1F
100
AcDbEntity
  8
1-B_寸法
  6
Continuous
 62
   120
370
     5
100
AcDbLine
 10
5095.623358604103
 20
2200.472591334747
 30
0.0
 11
5095.623358604103
 21
580.4725913347424
 31
0.0
  0
LINE
  5
3DC
330
1F
100
AcDbEntity
  8
1-B_寸法
  6
Continuous
 62
   120
370
     5
100
AcDbLine
 10
4829.351616394062
 20
1837.548125496879
 30
0.0
 11
4829.351616394062
 21
1952.108805304338
 31
0.0
  0
LINE
  5
3DD
330
1F
100
AcDbEntity
  8
1-B_寸法
  6
Continuous
 62
   120
370
     5
100
AcDbLine
 10
4425.851287299097
 20
1837.548125496879
 30
0.0
 11
4550.351287299096
 21
1837.548125496879
 31
0.0
  0
LINE
  5
3DE
330
1F
100
AcDbEntity
  8
1-B_寸法
  6
Continuous
 62
   120
370
     5
100
AcDbLine
 10
4425.851287299097
 20
1837.548125496879
 30
0.0
 11
4425.851287299097
 21
1952.108805304338
 31
0.0
  0
LINE
  5
3DF
330
1F
100
AcDbEntity
  8
1-B_寸法
  6
Continuous
 62
   120
370
     5
100
AcDbLine
 10
4550.351287299096
 20
1837.548125496879
 30
0.0
 11
4550.351287299096
 21
1952.108805304338
 31
0.0
  0
LINE
  5
3E0
330
1F
100
AcDbEntity
  8
1-B_寸法
  6
Continuous
 62
   120
370
     5
100
AcDbLine
 10
4829.351616394062
 20
1837.548125496879
 30
0.0
 11
4935.851287299097
 21
1837.548125496879
 31
0.0
  0
LINE
  5
3E1
330
1F
100
AcDbEntity
  8
1-B_寸法
  6
Continuous
 62
   120
370
     5
100
AcDbLine
 10
4935.851287299097
 20
1837.548125496879
 30
0.0
 11
4935.851287299097
 21
1952.108805304338
 31
0.0
  0
LINE
  5
3E2
330
1F
100
AcDbEntity
  8
1-B_寸法
  6
Continuous
 62
   120
370
     5
100
AcDbLine
 10
4550.351287299096
 20
1837.548125496879
 30
0.0
 11
4829.351616394062
 21
1837.548125496879
 31
0.0
  0
LINE
  5
3E3
330
1F
100
AcDbEntity
  8
1-B_寸法
  6
Continuous
 62
   120
370
     5
100
AcDbLine
 10
4935.851287299097
 20
2965.858441136498
 30
0.0
 11
4425.851287299097
 21
2965.858441136498
 31
0.0
  0
LINE
  5
3E4
330
1F
100
AcDbEntity
  8
1-B_寸法
  6
Continuous
 62
   120
370
     5
100
AcDbLine
 10
4935.851287299097
 20
2965.858441136498
 30
0.0
 11
4935.851287299097
 21
2838.558750143007
 31
0.0
  0
LINE
  5
3E5
330
1F
100
AcDbEntity
  8
1-B_寸法
  6
Continuous
 62
   120
370
     5
100
AcDbLine
 10
4425.851287299097
 20
2965.858441136498
 30
0.0
 11
4425.851287299097
 21
2838.558750143007
 31
0.0
  0
LINE
  5
3E6
330
1F
100
AcDbEntity
  8
1-B_寸法
  6
Continuous
 62
   120
370
     5
100
AcDbLine
 10
4425.851287299097
 20
-3601.982270617596
 30
0.0
 11
4767.851287299096
 21
-3601.982270617596
 31
0.0
  0
LINE
  5
3E7
330
1F
100
AcDbEntity
  8
1-B_寸法
  6
Continuous
 62
   120
370
     5
100
AcDbLine
 10
4425.851287299097
 20
-3601.982270617596
 30
0.0
 11
4425.851287299097
 21
-3491.63854834906
 31
0.0
  0
LINE
  5
3E8
330
1F
100
AcDbEntity
  8
1-B_寸法
  6
Continuous
 62
   120
370
     5
100
AcDbLine
 10
4767.851287299096
 20
-3601.982270617596
 30
0.0
 11
4767.851287299096
 21
-3491.63854834906
 31
0.0
  0
LINE
  5
3E9
330
1F
100
AcDbEntity
  8
1-B_寸法
  6
Continuous
 62
   120
370
     5
100
AcDbLine
 10
4767.851287299096
 20
-3601.982270617596
 30
0.0
 11
4890.851287299097
 21
-3601.982270617596
 31
0.0
  0
LINE
  5
3EA
330
1F
100
AcDbEntity
  8
1-B_寸法
  6
Continuous
 62
   120
370
     5
100
AcDbLine
 10
4890.851287299097
 20
-3601.982270617596
 30
0.0
 11
4890.851287299097
 21
-3491.63854834906
 31
0.0
  0
LINE
  5
3EB
330
1F
100
AcDbEntity
  8
1-B_寸法
  6
Continuous
 62
   120
370
     5
100
AcDbLine
 10
4890.851287299097
 20
-3601.982270617596
 30
0.0
 11
4935.851287299097
 21
-3601.982270617596
 31
0.0
  0
LINE
  5
3EC
330
1F
100
AcDbEntity
  8
1-B_寸法
  6
Continuous
 62
   120
370
     5
100
AcDbLine
 10
4935.851287299097
 20
-3601.982270617596
 30
0.0
 11
4935.851287299097
 21
-3491.63854834906
 31
0.0
  0
LWPOLYLINE
  5
3ED
330
1F
100
AcDbEntity
  8
1-B_寸法
  6
Continuous
 62
     7
370
     9
100
AcDbPolyline
 90
        4
 70
     1
 43
3.0
 10
5097.123358604104
 20
-1300.527408665258
 42
0.4142135623731
 10
5095.623358604103
 20
-1299.027408665258
 42
0.4142135623731
 10
5094.123358604103
 20
-1300.527408665258
 42
0.4142135623731
 10
5095.623358604103
 20
-1302.027408665258
 42
0.4142135623731
  0
LWPOLYLINE
  5
3EE
330
1F
100
AcDbEntity
  8
1-B_寸法
  6
Continuous
 62
     7
370
     9
100
AcDbPolyline
 90
        4
 70
     1
 43
3.0
 10
5097.123358604104
 20
-3430.527408665256
 42
0.4142135623731
 10
5095.623358604103
 20
-3429.027408665256
 42
0.4142135623731
 10
5094.123358604103
 20
-3430.527408665256
 42
0.4142135623731
 10
5095.623358604103
 20
-3432.027408665256
 42
0.4142135623731
  0
LWPOLYLINE
  5
3EF
330
1F
100
AcDbEntity
  8
1-B_寸法
  6
Continuous
 62
     7
370
     9
100
AcDbPolyline
 90
        4
 70
     1
 43
3.0
 10
5097.123358604104
 20
2200.472591334747
 42
0.4142135623731
 10
5095.623358604103
 20
2201.972591334747
 42
0.4142135623731
 10
5094.123358604103
 20
2200.472591334747
 42
0.4142135623731
 10
5095.623358604103
 20
2198.972591334747
 42
0.4142135623731
  0
LWPOLYLINE
  5
3F0
330
1F
100
AcDbEntity
  8
1-B_寸法
  6
Continuous
 62
     7
370
     9
100
AcDbPolyline
 90
        4
 70
     1
 43
3.0
 10
5097.123358604104
 20
2710.472591334747
 42
0.4142135623731
 10
5095.623358604103
 20
2711.972591334747
 42
0.4142135623731
 10
5094.123358604103
 20
2710.472591334747
 42
0.4142135623731
 10
5095.623358604103
 20
2708.972591334747
 42
0.4142135623731
  0
LWPOLYLINE
  5
3F1
330
1F
100
AcDbEntity
  8
1-B_寸法
  6
Continuous
 62
     7
370
     9
100
AcDbPolyline
 90
        4
 70
     1
 43
3.0
 10
5097.123358604104
 20
-2920.527408665256
 42
0.4142135623731
 10
5095.623358604103
 20
-2919.027408665256
 42
0.4142135623731
 10
5094.123358604103
 20
-2920.527408665256
 42
0.4142135623731
 10
5095.623358604103
 20
-2922.027408665256
 42
0.4142135623731
  0
LWPOLYLINE
  5
3F2
330
1F
100
AcDbEntity
  8
1-B_寸法
  6
Continuous
 62
     7
370
     9
100
AcDbPolyline
 90
        4
 70
     1
 43
3.0
 10
5097.123358604104
 20
580.4725913347424
 42
0.4142135623731
 10
5095.623358604103
 20
581.9725913347424
 42
0.4142135623731
 10
5094.123358604103
 20
580.4725913347424
 42
0.4142135623731
 10
5095.623358604103
 20
578.9725913347424
 42
0.4142135623731
  0
LWPOLYLINE
  5
3F3
330
1F
100
AcDbEntity
  8
1-B_寸法
  6
Continuous
 62
     7
370
     9
100
AcDbPolyline
 90
        4
 70
     1
 43
3.0
 10
4830.851616394063
 20
1837.548125496879
 42
0.4142135623731
 10
4829.351616394062
 20
1839.048125496879
 42
0.4142135623731
 10
4827.851616394062
 20
1837.548125496879
 42
0.4142135623731
 10
4829.351616394062
 20
1836.048125496879
 42
0.4142135623731
  0
LWPOLYLINE
  5
3F4
330
1F
100
AcDbEntity
  8
1-B_寸法
  6
Continuous
 62
     7
370
     9
100
AcDbPolyline
 90
        4
 70
     1
 43
3.0
 10
4427.351287299097
 20
1837.548125496879
 42
0.4142135623731
 10
4425.851287299097
 20
1839.048125496879
 42
0.4142135623731
 10
4424.351287299097
 20
1837.548125496879
 42
0.4142135623731
 10
4425.851287299097
 20
1836.048125496879
 42
0.4142135623731
  0
LWPOLYLINE
  5
3F5
330
1F
100
AcDbEntity
  8
1-B_寸法
  6
Continuous
 62
     7
370
     9
100
AcDbPolyline
 90
        4
 70
     1
 43
3.0
 10
4551.851287299097
 20
1837.548125496879
 42
0.4142135623731
 10
4550.351287299096
 20
1839.048125496879
 42
0.4142135623731
 10
4548.851287299096
 20
1837.548125496879
 42
0.4142135623731
 10
4550.351287299096
 20
1836.048125496879
 42
0.4142135623731
  0
LWPOLYLINE
  5
3F6
330
1F
100
AcDbEntity
  8
1-B_寸法
  6
Continuous
 62
     7
370
     9
100
AcDbPolyline
 90
        4
 70
     1
 43
3.0
 10
4937.351287299097
 20
1837.548125496879
 42
0.4142135623731
 10
4935.851287299097
 20
1839.048125496879
 42
0.4142135623731
 10
4934.351287299097
 20
1837.548125496879
 42
0.4142135623731
 10
4935.851287299097
 20
1836.048125496879
 42
0.4142135623731
  0
LWPOLYLINE
  5
3F7
330
1F
100
AcDbEntity
  8
1-B_寸法
  6
Continuous
 62
     7
370
     9
100
AcDbPolyline
 90
        4
 70
     1
 43
3.0
 10
4937.351287299097
 20
2965.858441136498
 42
0.4142135623731
 10
4935.851287299097
 20
2967.358441136498
 42
0.4142135623731
 10
4934.351287299097
 20
2965.858441136498
 42
0.4142135623731
 10
4935.851287299097
 20
2964.358441136499
 42
0.4142135623731
  0
LWPOLYLINE
  5
3F8
330
1F
100
AcDbEntity
  8
1-B_寸法
  6
Continuous
 62
     7
370
     9
100
AcDbPolyline
 90
        4
 70
     1
 43
3.0
 10
4427.351287299097
 20
2965.858441136498
 42
0.4142135623731
 10
4425.851287299097
 20
2967.358441136498
 42
0.4142135623731
 10
4424.351287299097
 20
2965.858441136498
 42
0.4142135623731
 10
4425.851287299097
 20
2964.358441136499
 42
0.4142135623731
  0
LWPOLYLINE
  5
3F9
330
1F
100
AcDbEntity
  8
1-B_寸法
  6
Continuous
 62
     7
370
     9
100
AcDbPolyline
 90
        4
 70
     1
 43
3.0
 10
4427.351287299097
 20
-3601.982270617596
 42
0.4142135623731
 10
4425.851287299097
 20
-3600.482270617596
 42
0.4142135623731
 10
4424.351287299097
 20
-3601.982270617596
 42
0.4142135623731
 10
4425.851287299097
 20
-3603.482270617596
 42
0.4142135623731
  0
LWPOLYLINE
  5
3FA
330
1F
100
AcDbEntity
  8
1-B_寸法
  6
Continuous
 62
     7
370
     9
100
AcDbPolyline
 90
        4
 70
     1
 43
3.0
 10
4769.351287299097
 20
-3601.982270617596
 42
0.4142135623731
 10
4767.851287299096
 20
-3600.482270617596
 42
0.4142135623731
 10
4766.351287299096
 20
-3601.982270617596
 42
0.4142135623731
 10
4767.851287299096
 20
-3603.482270617596
 42
0.4142135623731
  0
LWPOLYLINE
  5
3FB
330
1F
100
AcDbEntity
  8
1-B_寸法
  6
Continuous
 62
     7
370
     9
100
AcDbPolyline
 90
        4
 70
     1
 43
3.0
 10
4892.351287299097
 20
-3601.982270617596
 42
0.4142135623731
 10
4890.851287299097
 20
-3600.482270617596
 42
0.4142135623731
 10
4889.351287299097
 20
-3601.982270617596
 42
0.4142135623731
 10
4890.851287299097
 20
-3603.482270617596
 42
0.4142135623731
  0
LWPOLYLINE
  5
3FC
330
1F
100
AcDbEntity
  8
1-B_寸法
  6
Continuous
 62
     7
370
     9
100
AcDbPolyline
 90
        4
 70
     1
 43
3.0
 10
4937.351287299097
 20
-3601.982270617596
 42
0.4142135623731
 10
4935.851287299097
 20
-3600.482270617596
 42
0.4142135623731
 10
4934.351287299097
 20
-3601.982270617596
 42
0.4142135623731
 10
4935.851287299097
 20
-3603.482270617596
 42
0.4142135623731
  0
LINE
  5
3FD
330
1F
100
AcDbEntity
  8
1-4_枠
  6
Continuous
 62
    92
370
    13
100
AcDbLine
 10
4767.851287299096
 20
2710.472591334747
 30
0.0
 11
4767.851287299096
 21
-3430.527408665256
 31
0.0
  0
LINE
  5
3FE
330
1F
100
AcDbEntity
  8
1-4_枠
  6
Continuous
 62
    92
370
    13
100
AcDbLine
 10
4890.851287299097
 20
2710.472591334747
 30
0.0
 11
4890.851287299097
 21
-3430.527408665256
 31
0.0
  0
LINE
  5
3FF
330
1F
100
AcDbEntity
  8
1-1_通り芯
  6
JWW_CENTER1
 62
   120
370
     5
100
AcDbLine
 10
4829.351616394061
 20
-3430.527408665258
 30
0.0
 11
4829.351616394062
 21
2761.204308256788
 31
0.0
  0
LINE
  5
400
330
1F
100
AcDbEntity
  8
1-A_文字
  6
Continuous
 62
     7
370
     9
100
AcDbLine
 10
4192.88657234759
 20
3604.971590259069
 30
0.0
 11
4192.88657234759
 21
3781.086759801006
 31
0.0
  0
LINE
  5
401
330
1F
100
AcDbEntity
  8
1-A_文字
  6
Continuous
 62
     7
370
     9
100
AcDbLine
 10
4192.88657234759
 20
3604.971590259069
 30
0.0
 11
4928.230652124104
 21
3604.971590259069
 31
0.0
  0
LINE
  5
402
330
1F
100
AcDbEntity
  8
1-A_文字
  6
Continuous
 62
     7
370
     9
100
AcDbLine
 10
4192.88657234759
 20
3781.086759801006
 30
0.0
 11
4928.230652124104
 21
3781.086759801006
 31
0.0
  0
LINE
  5
403
330
1F
100
AcDbEntity
  8
1-A_文字
  6
Continuous
 62
     7
370
     9
100
AcDbLine
 10
4928.230652124104
 20
3604.971590259069
 30
0.0
 11
4928.230652124104
 21
3781.086759801006
 31
0.0
  0
MTEXT
  5
404
330
1F
100
AcDbEntity
  8
1-B_寸法
  6
Continuous
 62
     7
370
   211
100
AcDbMText
 10
5080.623358604103
 20
-2196.285303821382
 30
0.0
 40
76.19999999999999
 41
150.0
 46
0.0
 71
     7
 72
     1
  1
{\fＭＳ ゴシック|b0|i0|c128|p49;540}
 11
6.123031769111886E-17
 21
1.0
 31
0.0
 73
     1
 44
1.0
  0
MTEXT
  5
405
330
1F
100
AcDbEntity
  8
1-B_寸法
  6
Continuous
 62
     7
370
   211
100
AcDbMText
 10
4145.393095477838
 20
-2323.462908665256
 30
0.0
 40
79.629
 41
1567.5
 46
0.0
 71
     7
 72
     1
  1
{\fＭＳ ゴシック|b0|i0|c128|p49;ｽﾄﾗｲｸｾﾝﾀｰ(鍵加工上部時)：1,264}
 11
6.123031769111886E-17
 21
1.0
 31
0.0
 73
     1
 44
1.0
  0
MTEXT
  5
406
330
1F
100
AcDbEntity
  8
1-B_寸法
  6
Continuous
 62
     7
370
   211
100
AcDbMText
 10
5080.623358604103
 20
-3244.233271854933
 30
0.0
 40
76.19999999999999
 41
150.0
 46
0.0
 71
     7
 72
     1
  1
{\fＭＳ ゴシック|b0|i0|c128|p49;170}
 11
6.123031769111886E-17
 21
1.0
 31
0.0
 73
     1
 44
1.0
  0
MTEXT
  5
407
330
1F
100
AcDbEntity
  8
1-B_寸法
  6
Continuous
 62
     7
370
   211
100
AcDbMText
 10
4297.61308286573
 20
-3260.976515808113
 30
0.0
 40
79.60178571428573
 41
1462.5
 46
0.0
 71
     7
 72
     1
  1
{\fＭＳ ゴシック|b0|i0|c128|p49;ｽﾄﾗｲｸｾﾝﾀｰ(鍵加工下部時)：604}
 11
6.123031769111886E-17
 21
1.0
 31
0.0
 73
     1
 44
1.0
  0
MTEXT
  5
408
330
1F
100
AcDbEntity
  8
1-B_寸法
  6
Continuous
 62
     7
370
   211
100
AcDbMText
 10
4521.851287299097
 20
-3593.882270617596
 30
0.0
 40
76.19999999999999
 41
150.0
 46
0.0
 71
     7
 72
     1
  1
{\fＭＳ ゴシック|b0|i0|c128|p49;114}
 73
     1
 44
1.0
  0
LINE
  5
409
330
1F
100
AcDbEntity
  8
1-B_寸法
  6
Continuous
 62
   120
370
     5
100
AcDbLine
 10
4008.173108089945
 20
2710.472591334747
 30
0.0
 11
4605.740192165312
 21
2710.472591334747
 31
0.0
  0
LINE
  5
40A
330
1F
100
AcDbEntity
  8
1-B_寸法
  6
Continuous
 62
   120
370
     5
100
AcDbLine
 10
4008.173108089945
 20
2710.472591334747
 30
0.0
 11
4008.173108089945
 21
-3430.527408665256
 31
0.0
  0
LWPOLYLINE
  5
40B
330
1F
100
AcDbEntity
  8
1-B_寸法
  6
Continuous
 62
     7
370
     9
100
AcDbPolyline
 90
        4
 70
     1
 43
3.0
 10
4009.673108089946
 20
-3430.527408665256
 42
0.4142135623731
 10
4008.173108089945
 20
-3429.027408665256
 42
0.4142135623731
 10
4006.673108089945
 20
-3430.527408665256
 42
0.4142135623731
 10
4008.173108089945
 20
-3432.027408665256
 42
0.4142135623731
  0
LWPOLYLINE
  5
40C
330
1F
100
AcDbEntity
  8
1-B_寸法
  6
Continuous
 62
     7
370
     9
100
AcDbPolyline
 90
        4
 70
     1
 43
3.0
 10
4009.673108089946
 20
2710.472591334747
 42
0.4142135623731
 10
4008.173108089945
 20
2711.972591334747
 42
0.4142135623731
 10
4006.673108089945
 20
2710.472591334747
 42
0.4142135623731
 10
4008.173108089945
 20
2708.972591334747
 42
0.4142135623731
  0
LINE
  5
40D
330
1F
100
AcDbEntity
  8
1-B_寸法
  6
Continuous
 62
   120
370
     5
100
AcDbLine
 10
4008.173108089945
 20
-3430.527408665256
 30
0.0
 11
4390.822019048628
 21
-3430.527408665256
 31
0.0
  0
LINE
  5
40E
330
1F
100
AcDbEntity
  8
1-B_寸法
  6
Continuous
 62
   120
370
     5
100
AcDbLine
 10
4312.613082865728
 20
-3430.527408665256
 30
0.0
 11
4312.613082865728
 21
-1618.527408665257
 31
0.0
  0
LINE
  5
40F
330
1F
100
AcDbEntity
  8
1-B_寸法
  6
Continuous
 62
   120
370
     5
100
AcDbLine
 10
4312.613082865728
 20
-1618.527408665257
 30
0.0
 11
4693.317046837577
 21
-1618.527408665257
 31
0.0
  0
LWPOLYLINE
  5
410
330
1F
100
AcDbEntity
  8
1-B_寸法
  6
Continuous
 62
     7
370
     9
100
AcDbPolyline
 90
        4
 70
     1
 43
3.0
 10
4314.113082865728
 20
-1618.527408665257
 42
0.4142135623731
 10
4312.613082865728
 20
-1617.027408665257
 42
0.4142135623731
 10
4311.113082865728
 20
-1618.527408665257
 42
0.4142135623731
 10
4312.613082865728
 20
-1620.027408665257
 42
0.4142135623731
  0
LINE
  5
411
330
1F
100
AcDbEntity
  8
1-7_金物
  6
Continuous
 62
     7
370
     9
100
AcDbLine
 10
4856.288111373115
 20
-1462.457579838443
 30
0.0
 11
4856.288111373115
 21
-1775.101081703594
 31
0.0
  0
ARC
  5
412
330
1F
100
AcDbEntity
  8
1-7_金物
  6
Continuous
 62
     7
370
     9
100
AcDbCircle
 10
4829.288111373116
 20
-1774.527408665256
 30
0.0
 40
27.0
100
AcDbArc
 50
269.9999999999999
 51
359.9999999999999
  0
ARC
  5
413
330
1F
100
AcDbEntity
  8
1-7_金物
  6
Continuous
 62
     7
370
     9
100
AcDbCircle
 10
4829.288111373116
 20
-1774.527408665256
 30
0.0
 40
27.0
100
AcDbArc
 50
180.0
 51
270.0
  0
LINE
  5
414
330
1F
100
AcDbEntity
  8
1-7_金物
  6
Continuous
 62
     7
370
     9
100
AcDbLine
 10
4802.288111373114
 20
-1460.339650299709
 30
0.0
 11
4802.288111373114
 21
-1775.277302713714
 31
0.0
  0
ARC
  5
415
330
1F
100
AcDbEntity
  8
1-7_金物
  6
Continuous
 62
     7
370
     9
100
AcDbCircle
 10
4829.288111373116
 20
-1720.527408665257
 30
0.0
 40
27.0
100
AcDbArc
 50
180.0
 51
270.0
  0
ARC
  5
416
330
1F
100
AcDbEntity
  8
1-7_金物
  6
Continuous
 62
     7
370
     9
100
AcDbCircle
 10
4829.288111373116
 20
-1720.527408665257
 30
0.0
 40
27.0
100
AcDbArc
 50
269.9999999999999
 51
359.9999999999999
  0
ARC
  5
417
330
1F
100
AcDbEntity
  8
1-7_金物
  6
Continuous
 62
     7
370
     9
100
AcDbCircle
 10
4829.288111373116
 20
-1516.527408665257
 30
0.0
 40
27.0
100
AcDbArc
 50
90.0
 51
180.0
  0
ARC
  5
418
330
1F
100
AcDbEntity
  8
1-7_金物
  6
Continuous
 62
     7
370
     9
100
AcDbCircle
 10
4829.288111373116
 20
-1516.527408665257
 30
0.0
 40
27.0
100
AcDbArc
 50
359.9999999999999
 51
89.99999999999994
  0
ARC
  5
419
330
1F
100
AcDbEntity
  8
1-7_金物
  6
Continuous
 62
     7
370
     9
100
AcDbCircle
 10
4829.288111373116
 20
-1462.527408665259
 30
0.0
 40
27.0
100
AcDbArc
 50
359.9999999999999
 51
89.99999999999994
  0
ARC
  5
41A
330
1F
100
AcDbEntity
  8
1-7_金物
  6
Continuous
 62
     7
370
     9
100
AcDbCircle
 10
4829.288111373116
 20
-1462.527408665259
 30
0.0
 40
27.0
100
AcDbArc
 50
90.0
 51
180.0
  0
LINE
  5
41B
330
1F
100
AcDbEntity
  8
1-1_通り芯
  6
JWW_CENTER1
 62
   120
370
     5
100
AcDbLine
 10
4882.595125278523
 20
-1618.527408665257
 30
0.0
 11
4784.391791689543
 21
-1618.527408665257
 31
0.0
  0
LWPOLYLINE
  5
41C
330
1F
100
AcDbEntity
  8
1-B_寸法
  6
Continuous
 62
     7
370
     9
100
AcDbPolyline
 90
        4
 70
     1
 43
3.0
 10
4161.893095477837
 20
-3430.527408665256
 42
0.4142135623731
 10
4160.393095477837
 20
-3429.027408665256
 42
0.4142135623731
 10
4158.893095477836
 20
-3430.527408665256
 42
0.4142135623731
 10
4160.393095477837
 20
-3432.027408665256
 42
0.4142135623731
  0
MTEXT
  5
41D
330
1F
100
AcDbEntity
  8
1-B_寸法
  6
Continuous
 62
     7
370
   211
100
AcDbMText
 10
4780.601287299095
 20
-3594.834770617596
 30
0.0
 40
74.295
 41
97.5
 46
0.0
 71
     7
 72
     1
  1
{\fＭＳ ゴシック|b0|i0|c128|p49;41}
 73
     1
 44
1.0
  0
MTEXT
  5
41E
330
1F
100
AcDbEntity
  8
1-B_寸法
  6
Continuous
 62
     7
370
   211
100
AcDbMText
 10
4951.928922489164
 20
-3594.834770617597
 30
0.0
 40
74.2949999999974
 41
97.49999999999659
 46
0.0
 71
     7
 72
     1
  1
{\fＭＳ ゴシック|b0|i0|c128|p49;15}
 73
     1
 44
1.0
  0
LINE
  5
41F
330
1F
100
AcDbEntity
  8
1-7_金物
  6
Continuous
 62
     7
370
     9
100
AcDbLine
 10
4856.288111373115
 20
517.542420161556
 30
0.0
 11
4856.288111373115
 21
204.8989182964046
 31
0.0
  0
ARC
  5
420
330
1F
100
AcDbEntity
  8
1-7_金物
  6
Continuous
 62
     7
370
     9
100
AcDbCircle
 10
4829.288111373116
 20
205.4725913347424
 30
0.0
 40
27.0
100
AcDbArc
 50
269.9999999999999
 51
359.9999999999999
  0
ARC
  5
421
330
1F
100
AcDbEntity
  8
1-7_金物
  6
Continuous
 62
     7
370
     9
100
AcDbCircle
 10
4829.288111373116
 20
205.4725913347424
 30
0.0
 40
27.0
100
AcDbArc
 50
180.0
 51
270.0
  0
LINE
  5
422
330
1F
100
AcDbEntity
  8
1-7_金物
  6
Continuous
 62
     7
370
     9
100
AcDbLine
 10
4802.288111373114
 20
519.6603497002901
 30
0.0
 11
4802.288111373114
 21
204.722697286285
 31
0.0
  0
ARC
  5
423
330
1F
100
AcDbEntity
  8
1-7_金物
  6
Continuous
 62
     7
370
     9
100
AcDbCircle
 10
4829.288111373116
 20
259.4725913347419
 30
0.0
 40
27.0
100
AcDbArc
 50
180.0
 51
270.0
  0
ARC
  5
424
330
1F
100
AcDbEntity
  8
1-7_金物
  6
Continuous
 62
     7
370
     9
100
AcDbCircle
 10
4829.288111373116
 20
259.4725913347419
 30
0.0
 40
27.0
100
AcDbArc
 50
269.9999999999999
 51
359.9999999999999
  0
ARC
  5
425
330
1F
100
AcDbEntity
  8
1-7_金物
  6
Continuous
 62
     7
370
     9
100
AcDbCircle
 10
4829.288111373116
 20
463.4725913347418
 30
0.0
 40
27.0
100
AcDbArc
 50
90.0
 51
180.0
  0
ARC
  5
426
330
1F
100
AcDbEntity
  8
1-7_金物
  6
Continuous
 62
     7
370
     9
100
AcDbCircle
 10
4829.288111373116
 20
463.4725913347418
 30
0.0
 40
27.0
100
AcDbArc
 50
359.9999999999999
 51
89.99999999999994
  0
ARC
  5
427
330
1F
100
AcDbEntity
  8
1-7_金物
  6
Continuous
 62
     7
370
     9
100
AcDbCircle
 10
4829.288111373116
 20
517.4725913347418
 30
0.0
 40
27.0
100
AcDbArc
 50
359.9999999999999
 51
89.99999999999994
  0
ARC
  5
428
330
1F
100
AcDbEntity
  8
1-7_金物
  6
Continuous
 62
     7
370
     9
100
AcDbCircle
 10
4829.288111373116
 20
517.4725913347418
 30
0.0
 40
27.0
100
AcDbArc
 50
90.0
 51
180.0
  0
LINE
  5
429
330
1F
100
AcDbEntity
  8
1-1_通り芯
  6
JWW_CENTER1
 62
   120
370
     5
100
AcDbLine
 10
4882.595125278523
 20
361.4725913347425
 30
0.0
 11
4784.391791689543
 21
361.4725913347425
 31
0.0
  0
LINE
  5
42A
330
1F
100
AcDbEntity
  8
1-B_寸法
  6
Continuous
 62
   120
370
     5
100
AcDbLine
 10
4160.393095477837
 20
-3430.527408665256
 30
0.0
 11
4160.393095477837
 21
361.4725913347425
 31
0.0
  0
LWPOLYLINE
  5
42B
330
1F
100
AcDbEntity
  8
1-B_寸法
  6
Continuous
 62
     7
370
     9
100
AcDbPolyline
 90
        4
 70
     1
 43
3.0
 10
4161.893095477837
 20
361.4725913347425
 42
0.4142135623731
 10
4160.393095477837
 20
362.9725913347425
 42
0.4142135623731
 10
4158.893095477836
 20
361.4725913347425
 42
0.4142135623731
 10
4160.393095477837
 20
359.9725913347425
 42
0.4142135623731
  0
LINE
  5
42C
330
1F
100
AcDbEntity
  8
1-B_寸法
  6
Continuous
 62
   120
370
     5
100
AcDbLine
 10
4160.393095477837
 20
361.4725913347425
 30
0.0
 11
4693.317046837577
 21
361.4725913347425
 31
0.0
  0
MTEXT
  5
42D
330
1F
100
AcDbEntity
  8
1-A_文字
  6
Continuous
 62
     7
370
     9
100
AcDbMText
 10
3621.017955216862
 20
-3740.947503092998
 30
0.0
 40
78.105
 41
307.5
 46
0.0
 71
     7
 72
     1
  1
{\fＭＳ ゴシック|b0|i0|c128|p49;S=1/10}
 73
     1
 44
1.0
  0
MTEXT
  5
42E
330
1F
100
AcDbEntity
  8
0-B_寸法
  6
Continuous
 62
     7
370
     9
100
AcDbMText
 10
-5779.3032097347
 20
3779.783806433378
 30
0.0
 40
101.2371428571429
 41
930.0
 46
0.0
 71
     7
 72
     1
  1
{\fＭＳ ゴシック|b0|i0|c128|p49;【PB：12.5mm】}
 73
     1
 44
1.0
  0
MTEXT
  5
42F
330
1F
100
AcDbEntity
  8
F-A_文字
  6
Continuous
 62
     7
370
     9
100
AcDbMText
 10
4936.24903358083
 20
-4147.857175082368
 30
0.0
 40
74.295
 41
97.5
 46
0.0
 71
     7
 72
     1
  1
{\fＭＳ ゴシック|b0|i0|c128|p49;02}
 73
     1
 44
1.0
  0
MTEXT
  5
430
330
1F
100
AcDbEntity
  8
F-A_文字
  6
Continuous
 62
     7
370
     0
100
AcDbMText
 10
-5247.547376752836
 20
-4045.116694205456
 30
0.0
 40
79.7668085106382
 41
4920.0
 46
0.0
 71
     7
 72
     1
  1
{\fＭＳ ゴシック|b0|i0|c128|p49;ドレタス　幅広アウトセット片引き戸　上吊りタイプ　枠外W1,869　【PB：12.5㎜／竪枠裏：枠材納め】}
 73
     1
 44
1.0
  0
LINE
  5
431
330
1F
100
AcDbEntity
  8
0-1_通り芯
  6
JWW_CENTER1
 62
   120
370
     5
100
AcDbLine
 10
-3289.483009801444
 20
-3619.613694665692
 30
0.0
 11
-3289.483009801444
 21
227.9277914357476
 31
0.0
  0
LINE
  5
432
330
1F
100
AcDbEntity
  8
0-1_通り芯
  6
JWW_CENTER1
 62
   120
370
     5
100
AcDbLine
 10
-3657.500439535201
 20
2668.156869501939
 30
0.0
 11
2317.472587310051
 21
2668.156869501939
 31
0.0
  0
LINE
  5
433
330
1F
100
AcDbEntity
  8
0-B_寸法
  6
Continuous
 62
   120
370
     5
100
AcDbLine
 10
2617.472587310051
 20
2668.156869501939
 30
0.0
 11
2617.472587310051
 21
2068.156869501939
 31
0.0
  0
LWPOLYLINE
  5
434
330
1F
100
AcDbEntity
  8
0-B_寸法
  6
Continuous
 62
     7
370
     9
100
AcDbPolyline
 90
        4
 70
     1
 43
3.0
 10
2618.972587310051
 20
2668.156869501939
 42
0.4142135623731
 10
2617.472587310051
 20
2669.656869501939
 42
0.4142135623731
 10
2615.972587310051
 20
2668.156869501939
 42
0.4142135623731
 10
2617.472587310051
 20
2666.656869501939
 42
0.4142135623731
  0
LWPOLYLINE
  5
435
330
1F
100
AcDbEntity
  8
0-B_寸法
  6
Continuous
 62
     7
370
     9
100
AcDbPolyline
 90
        4
 70
     1
 43
3.0
 10
2618.972587310051
 20
2068.156869501939
 42
0.4142135623731
 10
2617.472587310051
 20
2069.656869501939
 42
0.4142135623731
 10
2615.972587310051
 20
2068.156869501939
 42
0.4142135623731
 10
2617.472587310051
 20
2066.656869501939
 42
0.4142135623731
  0
LINE
  5
436
330
1F
100
AcDbEntity
  8
0-B_寸法
  6
Continuous
 62
   120
370
     5
100
AcDbLine
 10
2617.472587310051
 20
2668.156869501939
 30
0.0
 11
2407.472587310051
 21
2668.156869501939
 31
0.0
  0
LINE
  5
437
330
1F
100
AcDbEntity
  8
0-B_寸法
  6
Continuous
 62
   120
370
     5
100
AcDbLine
 10
2617.472587310051
 20
2068.156869501939
 30
0.0
 11
2407.472587310051
 21
2068.156869501939
 31
0.0
  0
LINE
  5
438
330
1F
100
AcDbEntity
  8
0-B_寸法
  6
Continuous
 62
   120
370
     5
100
AcDbLine
 10
-3289.483009801444
 20
-1176.906258822133
 30
0.0
 11
-2689.483009801445
 21
-1176.906258822133
 31
0.0
  0
LWPOLYLINE
  5
439
330
1F
100
AcDbEntity
  8
0-B_寸法
  6
Continuous
 62
     7
370
     9
100
AcDbPolyline
 90
        4
 70
     1
 43
3.0
 10
-3287.983009801444
 20
-1176.906258822133
 42
0.4142135623731
 10
-3289.483009801444
 20
-1175.406258822133
 42
0.4142135623731
 10
-3290.983009801444
 20
-1176.906258822133
 42
0.4142135623731
 10
-3289.483009801444
 20
-1178.406258822133
 42
0.4142135623731
  0
LWPOLYLINE
  5
43A
330
1F
100
AcDbEntity
  8
0-B_寸法
  6
Continuous
 62
     7
370
     9
100
AcDbPolyline
 90
        4
 70
     1
 43
3.0
 10
-2687.983009801445
 20
-1176.906258822133
 42
0.4142135623731
 10
-2689.483009801445
 20
-1175.406258822133
 42
0.4142135623731
 10
-2690.983009801445
 20
-1176.906258822133
 42
0.4142135623731
 10
-2689.483009801445
 20
-1178.406258822133
 42
0.4142135623731
  0
MTEXT
  5
43B
330
1F
100
AcDbEntity
  8
0-B_寸法
  6
Continuous
 62
     7
370
   211
100
AcDbMText
 10
-3056.147045137273
 20
-1168.806258822133
 30
0.0
 40
76.19999999999999
 41
150.0
 46
0.0
 71
     7
 72
     1
  1
{\fＭＳ ゴシック|b0|i0|c128|p49;100}
 73
     1
 44
1.0
  0
MTEXT
  5
43C
330
1F
100
AcDbEntity
  8
0-B_寸法
  6
Continuous
 62
     7
370
   211
100
AcDbMText
 10
2602.472587310051
 20
2288.622698875469
 30
0.0
 40
76.19999999999999
 41
150.0
 46
0.0
 71
     7
 72
     1
  1
{\fＭＳ ゴシック|b0|i0|c128|p49;100}
 11
6.123031769111886E-17
 21
1.0
 31
0.0
 73
     1
 44
1.0
  0
MTEXT
  5
43D
330
1F
100
AcDbEntity
  8
F-A_文字
  6
Continuous
 62
     7
370
     0
100
AcDbMText
 10
4778.749126529666
 20
-3938.07117252235
 30
0.0
 40
78.86699999999999
 41
517.5
 46
0.0
 71
     7
 72
     1
  1
{\fＭＳ ゴシック|b0|i0|c128|p49;2022.04.01}
 73
     1
 44
1.0
  0
ENDSEC
  0
SECTION
  2
OBJECTS
  0
DICTIONARY
  5
C
330
0
100
AcDbDictionary
281
     1
  3
ACAD_GROUP
350
D
  3
ACAD_LAYOUT
350
1A
  3
ACAD_MATERIAL
350
3B
  3
ACAD_MLEADERSTYLE
350
43F
  3
ACAD_MLINESTYLE
350
17
  3
ACAD_PLOTSETTINGS
350
19
  3
ACAD_PLOTSTYLENAME
350
E
  3
ACAD_TABLESTYLE
350
43E
  3
ACAD_VISUALSTYLE
350
2A
  0
DICTIONARY
  5
D
102
{ACAD_REACTORS
330
C
102
}
330
C
100
AcDbDictionary
281
     1
  0
DICTIONARY
  5
1A
102
{ACAD_REACTORS
330
C
102
}
330
C
100
AcDbDictionary
281
     1
  3
Layout1
350
1E
  3
Layout2
350
26
  3
Model
350
22
  0
DICTIONARY
  5
3B
102
{ACAD_REACTORS
330
C
102
}
330
C
100
AcDbDictionary
281
     1
  3
ByBlock
350
3D
  3
ByLayer
350
3C
  3
Global
350
3E
  0
DICTIONARY
  5
43F
102
{ACAD_REACTORS
330
C
102
}
330
C
100
AcDbDictionary
281
     1
  0
DICTIONARY
  5
17
102
{ACAD_REACTORS
330
C
102
}
330
C
100
AcDbDictionary
281
     1
  3
Standard
350
18
  0
DICTIONARY
  5
19
102
{ACAD_REACTORS
330
C
102
}
330
C
100
AcDbDictionary
281
     1
  0
ACDBDICTIONARYWDFLT
  5
E
102
{ACAD_REACTORS
330
C
102
}
330
C
100
AcDbDictionary
281
     1
  3
Normal
350
F
100
AcDbDictionaryWithDefault
340
F
  0
DICTIONARY
  5
43E
102
{ACAD_REACTORS
330
C
102
}
330
C
100
AcDbDictionary
281
     1
  0
DICTIONARY
  5
2A
102
{ACAD_REACTORS
330
C
102
}
330
C
100
AcDbDictionary
281
     1
  3
2dWireframe
350
2F
  3
3D Hidden
350
31
  3
3dWireframe
350
30
  3
Basic
350
32
  3
Brighten
350
36
  3
ColorChange
350
3A
  3
Conceptual
350
34
  3
Dim
350
35
  3
Facepattern
350
39
  3
Flat
350
2B
  3
FlatWithEdges
350
2C
  3
Gouraud
350
2D
  3
GouraudWithEdges
350
2E
  3
Linepattern
350
38
  3
Realistic
350
33
  3
Thicken
350
37
  0
LAYOUT
  5
1E
102
{ACAD_REACTORS
330
1A
102
}
330
1A
100
AcDbPlotSettings
  1

  2
none_device
  4

  6

 40
0.0
 41
0.0
 42
0.0
 43
0.0
 44
0.0
 45
0.0
 46
0.0
 47
0.0
 48
0.0
 49
0.0
140
0.0
141
0.0
142
1.0
143
1.0
 70
   688
 72
     0
 73
     0
 74
     5
  7

 75
    16
 76
     0
 77
     5
 78
   300
147
1.0
148
0.0
149
0.0
100
AcDbLayout
  1
Layout1
 70
     1
 71
     1
 10
0.0
 20
0.0
 11
420.0
 21
297.0
 12
0.0
 22
0.0
 32
0.0
 14
1.000000000000000E+20
 24
1.000000000000000E+20
 34
1.000000000000000E+20
 15
-1.000000000000000E+20
 25
-1.000000000000000E+20
 35
-1.000000000000000E+20
146
0.0
 13
0.0
 23
0.0
 33
0.0
 16
1.0
 26
0.0
 36
0.0
 17
0.0
 27
1.0
 37
0.0
 76
     0
330
1B
  0
LAYOUT
  5
26
102
{ACAD_REACTORS
330
1A
102
}
330
1A
100
AcDbPlotSettings
  1

  2
none_device
  4

  6

 40
0.0
 41
0.0
 42
0.0
 43
0.0
 44
0.0
 45
0.0
 46
0.0
 47
0.0
 48
0.0
 49
0.0
140
0.0
141
0.0
142
1.0
143
1.0
 70
   688
 72
     0
 73
     0
 74
     5
  7

 75
    16
 76
     0
 77
     5
 78
   300
147
1.0
148
0.0
149
0.0
100
AcDbLayout
  1
Layout2
 70
     1
 71
     2
 10
0.0
 20
0.0
 11
0.0
 21
0.0
 12
0.0
 22
0.0
 32
0.0
 14
0.0
 24
0.0
 34
0.0
 15
0.0
 25
0.0
 35
0.0
146
0.0
 13
0.0
 23
0.0
 33
0.0
 16
1.0
 26
0.0
 36
0.0
 17
0.0
 27
1.0
 37
0.0
 76
     0
330
23
  0
LAYOUT
  5
22
102
{ACAD_REACTORS
330
1A
102
}
330
1A
100
AcDbPlotSettings
  1

  2
none_device
  4

  6

 40
0.0
 41
0.0
 42
0.0
 43
0.0
 44
0.0
 45
0.0
 46
0.0
 47
0.0
 48
0.0
 49
0.0
140
0.0
141
0.0
142
1.0
143
1.0
 70
  1712
 72
     0
 73
     0
 74
     0
  7

 75
     0
 76
     0
 77
     5
 78
   300
147
1.0
148
0.0
149
0.0
100
AcDbLayout
  1
Model
 70
     1
 71
     0
 10
-8910.0
 20
-6300.0
 11
8910.0
 21
6300.0
 12
0.0
 22
0.0
 32
0.0
 14
-8910.0
 24
-6300.0
 34
0.0
 15
8910.0
 25
6300.0
 35
0.0
146
0.0
 13
0.0
 23
0.0
 33
0.0
 16
1.0
 26
0.0
 36
0.0
 17
0.0
 27
1.0
 37
0.0
 76
     0
330
1F
331
29
  0
MATERIAL
  5
3D
102
{ACAD_REACTORS
330
3B
102
}
330
3B
100
AcDbMaterial
  1
ByBlock
 72
     1
 94
      127
  0
MATERIAL
  5
3C
102
{ACAD_REACTORS
330
3B
102
}
330
3B
100
AcDbMaterial
  1
ByLayer
 72
     1
 94
      127
  0
MATERIAL
  5
3E
102
{ACAD_REACTORS
330
3B
102
}
330
3B
100
AcDbMaterial
  1
Global
 72
     1
 94
      127
  0
MLINESTYLE
  5
18
102
{ACAD_REACTORS
330
17
102
}
330
17
100
AcDbMlineStyle
  2
Standard
 70
     0
  3

 62
   256
 51
90.0
 52
90.0
 71
     2
 49
0.5
 62
   256
  6
BYLAYER
 49
-0.5
 62
   256
  6
BYLAYER
  0
ACDBPLACEHOLDER
  5
F
102
{ACAD_REACTORS
330
E
102
}
330
E
  0
VISUALSTYLE
  5
2F
102
{ACAD_REACTORS
330
2A
102
}
330
2A
100
AcDbVisualStyle
  2
2dWireframe
 70
     4
177
     2
291
     0
 71
     0
176
     1
 72
     2
176
     1
 73
     0
176
     1
 90
        0
176
     1
 40
-0.6
176
     1
 41
-30.0
176
     1
 62
     5
 63
     7
421
 16777215
176
     1
 74
     1
176
     1
 91
        4
176
     1
 64
     7
176
     1
 65
   257
176
     1
 75
     1
176
     1
175
     1
176
     1
 42
1.0
176
     1
 92
        0
176
     1
 66
   257
176
     1
 43
1.0
176
     1
 76
     1
176
     1
 77
     6
176
     1
 78
     2
176
     1
 67
     7
176
     1
 79
     5
176
     1
170
     0
176
     1
171
     0
176
     1
290
     0
176
     1
 93
        1
176
     1
 44
0.0
176
     1
173
     0
176
     1
  0
VISUALSTYLE
  5
31
102
{ACAD_REACTORS
330
2A
102
}
330
2A
100
AcDbVisualStyle
  2
3D Hidden
 70
     6
177
     2
291
     0
 71
     1
176
     1
 72
     2
176
     1
 73
     2
176
     1
 90
        0
176
     1
 40
-0.6
176
     1
 41
-30.0
176
     1
 62
     5
 63
     7
421
 16777215
176
     1
 74
     2
176
     1
 91
        2
176
     1
 64
     7
176
     1
 65
   257
176
     1
 75
     2
176
     1
175
     1
176
     1
 42
40.0
176
     1
 92
        0
176
     1
 66
   257
176
     1
 43
1.0
176
     1
 76
     1
176
     1
 77
     6
176
     1
 78
     2
176
     1
 67
     7
176
     1
 79
     3
176
     1
170
     0
176
     1
171
     0
176
     1
290
     0
176
     1
 93
        1
176
     1
 44
0.0
176
     1
173
     0
176
     1
  0
VISUALSTYLE
  5
30
102
{ACAD_REACTORS
330
2A
102
}
330
2A
100
AcDbVisualStyle
  2
3dWireframe
 70
     5
177
     2
291
     0
 71
     0
176
     1
 72
     2
176
     1
 73
     0
176
     1
 90
        0
176
     1
 40
-0.6
176
     1
 41
-30.0
176
     1
 62
     5
 63
     7
421
 16777215
176
     1
 74
     1
176
     1
 91
        4
176
     1
 64
     7
176
     1
 65
   257
176
     1
 75
     1
176
     1
175
     1
176
     1
 42
1.0
176
     1
 92
        0
176
     1
 66
   257
176
     1
 43
1.0
176
     1
 76
     1
176
     1
 77
     6
176
     1
 78
     2
176
     1
 67
     7
176
     1
 79
     5
176
     1
170
     0
176
     1
171
     0
176
     1
290
     0
176
     1
 93
        1
176
     1
 44
0.0
176
     1
173
     0
176
     1
  0
VISUALSTYLE
  5
32
102
{ACAD_REACTORS
330
2A
102
}
330
2A
100
AcDbVisualStyle
  2
Basic
 70
     7
177
     2
291
     1
 71
     1
176
     1
 72
     0
176
     1
 73
     1
176
     1
 90
        0
176
     1
 40
-0.6
176
     1
 41
-30.0
176
     1
 62
     5
 63
     7
421
 16777215
176
     1
 74
     0
176
     1
 91
        4
176
     1
 64
     7
176
     1
 65
   257
176
     1
 75
     1
176
     1
175
     1
176
     1
 42
1.0
176
     1
 92
        8
176
     1
 66
     7
176
     1
 43
1.0
176
     1
 76
     1
176
     1
 77
     6
176
     1
 78
     2
176
     1
 67
     7
176
     1
 79
     5
176
     1
170
     0
176
     1
171
     0
176
     1
290
     0
176
     1
 93
        1
176
     1
 44
0.0
176
     1
173
     0
176
     1
  0
VISUALSTYLE
  5
36
102
{ACAD_REACTORS
330
2A
102
}
330
2A
100
AcDbVisualStyle
  2
Brighten
 70
    12
177
     2
291
     1
 71
     2
176
     1
 72
     2
176
     1
 73
     0
176
     1
 90
        0
176
     1
 40
-0.6
176
     1
 41
-30.0
176
     1
 62
     5
 63
     7
421
 16777215
176
     1
 74
     1
176
     1
 91
        4
176
     1
 64
     7
176
     1
 65
   257
176
     1
 75
     1
176
     1
175
     1
176
     1
 42
1.0
176
     1
 92
        8
176
     1
 66
     7
176
     1
 43
1.0
176
     1
 76
     1
176
     1
 77
     6
176
     1
 78
     2
176
     1
 67
     7
176
     1
 79
     5
176
     1
170
     0
176
     1
171
     0
176
     1
290
     0
176
     1
 93
        1
176
     1
 44
50.0
176
     1
173
     0
176
     1
  0
VISUALSTYLE
  5
3A
102
{ACAD_REACTORS
330
2A
102
}
330
2A
100
AcDbVisualStyle
  2
ColorChange
 70
    16
177
     2
291
     1
 71
     2
176
     1
 72
     2
176
     1
 73
     3
176
     1
 90
        0
176
     1
 40
-0.6
176
     1
 41
-30.0
176
     1
 62
     5
 63
     8
421
  8421504
176
     1
 74
     1
176
     1
 91
        4
176
     1
 64
     7
176
     1
 65
   257
176
     1
 75
     1
176
     1
175
     1
176
     1
 42
1.0
176
     1
 92
        8
176
     1
 66
     8
424
  8421504
176
     1
 43
1.0
176
     1
 76
     1
176
     1
 77
     6
176
     1
 78
     2
176
     1
 67
     7
176
     1
 79
     5
176
     1
170
     0
176
     1
171
     0
176
     1
290
     0
176
     1
 93
        1
176
     1
 44
0.0
176
     1
173
     0
176
     1
  0
VISUALSTYLE
  5
34
102
{ACAD_REACTORS
330
2A
102
}
330
2A
100
AcDbVisualStyle
  2
Conceptual
 70
     9
177
     2
291
     0
 71
     3
176
     1
 72
     2
176
     1
 73
     0
176
     1
 90
        0
176
     1
 40
-0.6
176
     1
 41
-30.0
176
     1
 62
     5
 63
     7
421
 16777215
176
     1
 74
     2
176
     1
 91
        2
176
     1
 64
     7
176
     1
 65
   257
176
     1
 75
     1
176
     1
175
     1
176
     1
 42
40.0
176
     1
 92
        8
176
     1
 66
     7
176
     1
 43
1.0
176
     1
 76
     1
176
     1
 77
     6
176
     1
 78
     2
176
     1
 67
     7
176
     1
 79
     3
176
     1
170
     0
176
     1
171
     0
176
     1
290
     0
176
     1
 93
        1
176
     1
 44
0.0
176
     1
173
     0
176
     1
  0
VISUALSTYLE
  5
35
102
{ACAD_REACTORS
330
2A
102
}
330
2A
100
AcDbVisualStyle
  2
Dim
 70
    11
177
     2
291
     1
 71
     2
176
     1
 72
     2
176
     1
 73
     0
176
     1
 90
        0
176
     1
 40
-0.6
176
     1
 41
-30.0
176
     1
 62
     5
 63
     7
421
 16777215
176
     1
 74
     1
176
     1
 91
        4
176
     1
 64
     7
176
     1
 65
   257
176
     1
 75
     1
176
     1
175
     1
176
     1
 42
1.0
176
     1
 92
        8
176
     1
 66
     7
176
     1
 43
1.0
176
     1
 76
     1
176
     1
 77
     6
176
     1
 78
     2
176
     1
 67
     7
176
     1
 79
     5
176
     1
170
     0
176
     1
171
     0
176
     1
290
     0
176
     1
 93
        1
176
     1
 44
-50.0
176
     1
173
     0
176
     1
  0
VISUALSTYLE
  5
39
102
{ACAD_REACTORS
330
2A
102
}
330
2A
100
AcDbVisualStyle
  2
Facepattern
 70
    15
177
     2
291
     1
 71
     2
176
     1
 72
     2
176
     1
 73
     0
176
     1
 90
        0
176
     1
 40
-0.6
176
     1
 41
-30.0
176
     1
 62
     5
 63
     7
421
 16777215
176
     1
 74
     1
176
     1
 91
        4
176
     1
 64
     7
176
     1
 65
   257
176
     1
 75
     1
176
     1
175
     1
176
     1
 42
1.0
176
     1
 92
        8
176
     1
 66
     7
176
     1
 43
1.0
176
     1
 76
     1
176
     1
 77
     6
176
     1
 78
     2
176
     1
 67
     7
176
     1
 79
     5
176
     1
170
     0
176
     1
171
     0
176
     1
290
     0
176
     1
 93
        1
176
     1
 44
0.0
176
     1
173
     0
176
     1
  0
VISUALSTYLE
  5
2B
102
{ACAD_REACTORS
330
2A
102
}
330
2A
100
AcDbVisualStyle
  2
Flat
 70
     0
177
     2
291
     1
 71
     2
176
     1
 72
     1
176
     1
 73
     1
176
     1
 90
        2
176
     1
 40
-0.6
176
     1
 41
30.0
176
     1
 62
     5
 63
     7
421
 16777215
176
     1
 74
     0
176
     1
 91
        4
176
     1
 64
     7
176
     1
 65
   257
176
     1
 75
     1
176
     1
175
     1
176
     1
 42
1.0
176
     1
 92
        8
176
     1
 66
     7
176
     1
 43
1.0
176
     1
 76
     1
176
     1
 77
     6
176
     1
 78
     2
176
     1
 67
     7
176
     1
 79
     5
176
     1
170
     0
176
     1
171
     0
176
     1
290
     0
176
     1
 93
       13
176
     1
 44
0.0
176
     1
173
     0
176
     1
  0
VISUALSTYLE
  5
2C
102
{ACAD_REACTORS
330
2A
102
}
330
2A
100
AcDbVisualStyle
  2
FlatWithEdges
 70
     1
177
     2
291
     1
 71
     2
176
     1
 72
     1
176
     1
 73
     1
176
     1
 90
        2
176
     1
 40
-0.6
176
     1
 41
30.0
176
     1
 62
     5
 63
     7
421
 16777215
176
     1
 74
     1
176
     1
 91
        4
176
     1
 64
     7
176
     1
 65
   257
176
     1
 75
     1
176
     1
175
     1
176
     1
 42
1.0
176
     1
 92
        0
176
     1
 66
   257
176
     1
 43
1.0
176
     1
 76
     1
176
     1
 77
     6
176
     1
 78
     2
176
     1
 67
     7
176
     1
 79
     5
176
     1
170
     0
176
     1
171
     0
176
     1
290
     0
176
     1
 93
       13
176
     1
 44
0.0
176
     1
173
     0
176
     1
  0
VISUALSTYLE
  5
2D
102
{ACAD_REACTORS
330
2A
102
}
330
2A
100
AcDbVisualStyle
  2
Gouraud
 70
     2
177
     2
291
     1
 71
     2
176
     1
 72
     2
176
     1
 73
     1
176
     1
 90
        2
176
     1
 40
-0.6
176
     1
 41
30.0
176
     1
 62
     5
 63
     7
421
 16777215
176
     1
 74
     0
176
     1
 91
        4
176
     1
 64
     7
176
     1
 65
   257
176
     1
 75
     1
176
     1
175
     1
176
     1
 42
1.0
176
     1
 92
        0
176
     1
 66
     7
176
     1
 43
1.0
176
     1
 76
     1
176
     1
 77
     6
176
     1
 78
     2
176
     1
 67
     7
176
     1
 79
     5
176
     1
170
     0
176
     1
171
     0
176
     1
290
     0
176
     1
 93
       13
176
     1
 44
0.0
176
     1
173
     0
176
     1
  0
VISUALSTYLE
  5
2E
102
{ACAD_REACTORS
330
2A
102
}
330
2A
100
AcDbVisualStyle
  2
GouraudWithEdges
 70
     3
177
     2
291
     1
 71
     2
176
     1
 72
     2
176
     1
 73
     1
176
     1
 90
        2
176
     1
 40
-0.6
176
     1
 41
30.0
176
     1
 62
     5
 63
     7
421
 16777215
176
     1
 74
     1
176
     1
 91
        4
176
     1
 64
     7
176
     1
 65
   257
176
     1
 75
     1
176
     1
175
     1
176
     1
 42
1.0
176
     1
 92
        0
176
     1
 66
   257
176
     1
 43
1.0
176
     1
 76
     1
176
     1
 77
     6
176
     1
 78
     2
176
     1
 67
     7
176
     1
 79
     5
176
     1
170
     0
176
     1
171
     0
176
     1
290
     0
176
     1
 93
       13
176
     1
 44
0.0
176
     1
173
     0
176
     1
  0
VISUALSTYLE
  5
38
102
{ACAD_REACTORS
330
2A
102
}
330
2A
100
AcDbVisualStyle
  2
Linepattern
 70
    14
177
     2
291
     1
 71
     2
176
     1
 72
     2
176
     1
 73
     0
176
     1
 90
        0
176
     1
 40
-0.6
176
     1
 41
-30.0
176
     1
 62
     5
 63
     7
421
 16777215
176
     1
 74
     1
176
     1
 91
        4
176
     1
 64
     7
176
     1
 65
   257
176
     1
 75
     7
176
     1
175
     7
176
     1
 42
1.0
176
     1
 92
        8
176
     1
 66
     7
176
     1
 43
1.0
176
     1
 76
     1
176
     1
 77
     6
176
     1
 78
     2
176
     1
 67
     7
176
     1
 79
     5
176
     1
170
     0
176
     1
171
     0
176
     1
290
     0
176
     1
 93
        1
176
     1
 44
0.0
176
     1
173
     0
176
     1
  0
VISUALSTYLE
  5
33
102
{ACAD_REACTORS
330
2A
102
}
330
2A
100
AcDbVisualStyle
  2
Realistic
 70
     8
177
     2
291
     0
 71
     2
176
     1
 72
     2
176
     1
 73
     0
176
     1
 90
        0
176
     1
 40
-0.6
176
     1
 41
-30.0
176
     1
 62
     5
 63
     7
421
 16777215
176
     1
 74
     1
176
     1
 91
        0
176
     1
 64
     7
176
     1
 65
   257
176
     1
 75
     1
176
     1
175
     1
176
     1
 42
1.0
176
     1
 92
        8
176
     1
 66
     8
424
  7895160
176
     1
 43
1.0
176
     1
 76
     1
176
     1
 77
     6
176
     1
 78
     2
176
     1
 67
     7
176
     1
 79
     5
176
     1
170
     0
176
     1
171
     0
176
     1
290
     0
176
     1
 93
       13
176
     1
 44
0.0
176
     1
173
     0
176
     1
  0
VISUALSTYLE
  5
37
102
{ACAD_REACTORS
330
2A
102
}
330
2A
100
AcDbVisualStyle
  2
Thicken
 70
    13
177
     2
291
     1
 71
     2
176
     1
 72
     2
176
     1
 73
     0
176
     1
 90
        0
176
     1
 40
-0.6
176
     1
 41
-30.0
176
     1
 62
     5
 63
     7
421
 16777215
176
     1
 74
     1
176
     1
 91
        4
176
     1
 64
     7
176
     1
 65
   257
176
     1
 75
     1
176
     1
175
     1
176
     1
 42
1.0
176
     1
 92
       12
176
     1
 66
     7
176
     1
 43
1.0
176
     1
 76
     1
176
     1
 77
     6
176
     1
 78
     2
176
     1
 67
     7
176
     1
 79
     5
176
     1
170
     0
176
     1
171
     0
176
     1
290
     0
176
     1
 93
        1
176
     1
 44
0.0
176
     1
173
     0
176
     1
  0
ENDSEC
  0
EOF
