  0
SECTION
  2
HEADER
  9
$ACADVER
  1
AC1024
  9
$ACADMAINTVER
 70
     6
  9
$DWGCODEPAGE
  3
ANSI_932
  9
$INSBASE
 10
0.0
 20
0.0
 30
0.0
  9
$EXTMIN
 10
-4200.0
 20
-2970.0
 30
0.0
  9
$EXTMAX
 10
4200.0
 20
2970.0
 30
0.0
  9
$LIMMIN
 10
-4200.0
 20
-2970.0
  9
$LIMMAX
 10
4200.0
 20
2970.0
  9
$ORTHOMODE
 70
     0
  9
$REGENMODE
 70
     1
  9
$FILLMODE
 70
     1
  9
$QTEXTMODE
 70
     0
  9
$MIRRTEXT
 70
     1
  9
$LTSCALE
 40
20.0
  9
$ATTMODE
 70
     1
  9
$TEXTSIZE
 40
2.5
  9
$TRACEWID
 40
1.0
  9
$TEXTSTYLE
  7
Standard
  9
$CLAYER
  8
0
  9
$CELTYPE
  6
ByLayer
  9
$CECOLOR
 62
   256
  9
$CELTSCALE
 40
1.0
  9
$DISPSILH
 70
     0
  9
$DIMSCALE
 40
1.0
  9
$DIMASZ
 40
2.5
  9
$DIMEXO
 40
0.625
  9
$DIMDLI
 40
3.75
  9
$DIMRND
 40
0.0
  9
$DIMDLE
 40
0.0
  9
$DIMEXE
 40
1.25
  9
$DIMTP
 40
0.0
  9
$DIMTM
 40
0.0
  9
$DIMTXT
 40
2.5
  9
$DIMCEN
 40
2.5
  9
$DIMTSZ
 40
0.0
  9
$DIMTOL
 70
     0
  9
$DIMLIM
 70
     0
  9
$DIMTIH
 70
     0
  9
$DIMTOH
 70
     0
  9
$DIMSE1
 70
     0
  9
$DIMSE2
 70
     0
  9
$DIMTAD
 70
     1
  9
$DIMZIN
 70
     8
  9
$DIMBLK
  1

  9
$DIMASO
 70
     1
  9
$DIMSHO
 70
     1
  9
$DIMPOST
  1

  9
$DIMAPOST
  1

  9
$DIMALT
 70
     0
  9
$DIMALTD
 70
     3
  9
$DIMALTF
 40
0.03937007874016
  9
$DIMLFAC
 40
1.0
  9
$DIMTOFL
 70
     1
  9
$DIMTVP
 40
0.0
  9
$DIMTIX
 70
     0
  9
$DIMSOXD
 70
     0
  9
$DIMSAH
 70
     0
  9
$DIMBLK1
  1

  9
$DIMBLK2
  1

  9
$DIMSTYLE
  2
ISO-25
  9
$DIMCLRD
 70
     0
  9
$DIMCLRE
 70
     0
  9
$DIMCLRT
 70
     0
  9
$DIMTFAC
 40
1.0
  9
$DIMGAP
 40
0.625
  9
$DIMJUST
 70
     0
  9
$DIMSD1
 70
     0
  9
$DIMSD2
 70
     0
  9
$DIMTOLJ
 70
     0
  9
$DIMTZIN
 70
     8
  9
$DIMALTZ
 70
     0
  9
$DIMALTTZ
 70
     0
  9
$DIMUPT
 70
     0
  9
$DIMDEC
 70
     2
  9
$DIMTDEC
 70
     2
  9
$DIMALTU
 70
     2
  9
$DIMALTTD
 70
     3
  9
$DIMTXSTY
  7
Standard
  9
$DIMAUNIT
 70
     0
  9
$DIMADEC
 70
     0
  9
$DIMALTRND
 40
0.0
  9
$DIMAZIN
 70
     0
  9
$DIMDSEP
 70
    44
  9
$DIMATFIT
 70
     3
  9
$DIMFRAC
 70
     0
  9
$DIMLDRBLK
  1

  9
$DIMLUNIT
 70
     2
  9
$DIMLWD
 70
    -2
  9
$DIMLWE
 70
    -2
  9
$DIMTMOVE
 70
     0
  9
$DIMFXL
 40
1.0
  9
$DIMFXLON
 70
     0
  9
$DIMJOGANG
 40
0.7853981633974483
  9
$DIMTFILL
 70
     0
  9
$DIMTFILLCLR
 70
     0
  9
$DIMARCSYM
 70
     0
  9
$DIMLTYPE
  6

  9
$DIMLTEX1
  6

  9
$DIMLTEX2
  6

  9
$DIMTXTDIRECTION
 70
     0
  9
$LUNITS
 70
     2
  9
$LUPREC
 70
     4
  9
$SKETCHINC
 40
1.0
  9
$FILLETRAD
 40
10.0
  9
$AUNITS
 70
     0
  9
$AUPREC
 70
     0
  9
$MENU
  1
.
  9
$ELEVATION
 40
0.0
  9
$PELEVATION
 40
0.0
  9
$THICKNESS
 40
0.0
  9
$LIMCHECK
 70
     0
  9
$CHAMFERA
 40
10.0
  9
$CHAMFERB
 40
10.0
  9
$CHAMFERC
 40
20.0
  9
$CHAMFERD
 40
0.0
  9
$SKPOLY
 70
     0
  9
$TDCREATE
 40
2459432.54405228
  9
$TDUCREATE
 40
2459432.16905228
  9
$TDUPDATE
 40
2459432.544052292
  9
$TDUUPDATE
 40
2459432.169052292
  9
$TDINDWG
 40
0.0000000116
  9
$TDUSRTIMER
 40
0.0000000116
  9
$USRTIMER
 70
     1
  9
$ANGBASE
 50
0.0
  9
$ANGDIR
 70
     0
  9
$PDMODE
 70
     0
  9
$PDSIZE
 40
0.0
  9
$PLINEWID
 40
0.0
  9
$SPLFRAME
 70
     0
  9
$SPLINETYPE
 70
     6
  9
$SPLINESEGS
 70
     8
  9
$HANDSEED
  5
502
  9
$SURFTAB1
 70
     6
  9
$SURFTAB2
 70
     6
  9
$SURFTYPE
 70
     6
  9
$SURFU
 70
     6
  9
$SURFV
 70
     6
  9
$UCSBASE
  2

  9
$UCSNAME
  2

  9
$UCSORG
 10
0.0
 20
0.0
 30
0.0
  9
$UCSXDIR
 10
1.0
 20
0.0
 30
0.0
  9
$UCSYDIR
 10
0.0
 20
1.0
 30
0.0
  9
$UCSORTHOREF
  2

  9
$UCSORTHOVIEW
 70
     0
  9
$UCSORGTOP
 10
0.0
 20
0.0
 30
0.0
  9
$UCSORGBOTTOM
 10
0.0
 20
0.0
 30
0.0
  9
$UCSORGLEFT
 10
0.0
 20
0.0
 30
0.0
  9
$UCSORGRIGHT
 10
0.0
 20
0.0
 30
0.0
  9
$UCSORGFRONT
 10
0.0
 20
0.0
 30
0.0
  9
$UCSORGBACK
 10
0.0
 20
0.0
 30
0.0
  9
$PUCSBASE
  2

  9
$PUCSNAME
  2

  9
$PUCSORG
 10
0.0
 20
0.0
 30
0.0
  9
$PUCSXDIR
 10
1.0
 20
0.0
 30
0.0
  9
$PUCSYDIR
 10
0.0
 20
1.0
 30
0.0
  9
$PUCSORTHOREF
  2

  9
$PUCSORTHOVIEW
 70
     0
  9
$PUCSORGTOP
 10
0.0
 20
0.0
 30
0.0
  9
$PUCSORGBOTTOM
 10
0.0
 20
0.0
 30
0.0
  9
$PUCSORGLEFT
 10
0.0
 20
0.0
 30
0.0
  9
$PUCSORGRIGHT
 10
0.0
 20
0.0
 30
0.0
  9
$PUCSORGFRONT
 10
0.0
 20
0.0
 30
0.0
  9
$PUCSORGBACK
 10
0.0
 20
0.0
 30
0.0
  9
$USERI1
 70
     0
  9
$USERI2
 70
     0
  9
$USERI3
 70
     0
  9
$USERI4
 70
     0
  9
$USERI5
 70
     0
  9
$USERR1
 40
0.0
  9
$USERR2
 40
0.0
  9
$USERR3
 40
0.0
  9
$USERR4
 40
0.0
  9
$USERR5
 40
0.0
  9
$WORLDVIEW
 70
     1
  9
$SHADEDGE
 70
     3
  9
$SHADEDIF
 70
    70
  9
$TILEMODE
 70
     1
  9
$MAXACTVP
 70
    64
  9
$PINSBASE
 10
0.0
 20
0.0
 30
0.0
  9
$PLIMCHECK
 70
     0
  9
$PEXTMIN
 10
1.000000000000000E+20
 20
1.000000000000000E+20
 30
1.000000000000000E+20
  9
$PEXTMAX
 10
-1.000000000000000E+20
 20
-1.000000000000000E+20
 30
-1.000000000000000E+20
  9
$PLIMMIN
 10
0.0
 20
0.0
  9
$PLIMMAX
 10
420.0
 20
297.0
  9
$UNITMODE
 70
     0
  9
$VISRETAIN
 70
     1
  9
$PLINEGEN
 70
     0
  9
$PSLTSCALE
 70
     1
  9
$TREEDEPTH
 70
  3020
  9
$CMLSTYLE
  2
Standard
  9
$CMLJUST
 70
     0
  9
$CMLSCALE
 40
20.0
  9
$PROXYGRAPHICS
 70
     1
  9
$MEASUREMENT
 70
     1
  9
$CELWEIGHT
370
    -1
  9
$ENDCAPS
280
     0
  9
$JOINSTYLE
280
     0
  9
$LWDISPLAY
290
     0
  9
$INSUNITS
 70
     4
  9
$HYPERLINKBASE
  1

  9
$STYLESHEET
  1

  9
$XEDIT
290
     1
  9
$CEPSNTYPE
380
     0
  9
$PSTYLEMODE
290
     1
  9
$FINGERPRINTGUID
  2
{34C5EF23-5F61-415D-8548-FDC3EFC8AD5B}
  9
$VERSIONGUID
  2
{FAEB1C32-E019-11D5-929B-00C0DF256EC4}
  9
$EXTNAMES
290
     1
  9
$PSVPSCALE
 40
0.0
  9
$OLESTARTUP
290
     0
  9
$SORTENTS
280
   127
  9
$INDEXCTL
280
     0
  9
$HIDETEXT
280
     1
  9
$XCLIPFRAME
280
     2
  9
$HALOGAP
280
     0
  9
$OBSCOLOR
 70
   257
  9
$OBSLTYPE
280
     0
  9
$INTERSECTIONDISPLAY
280
     0
  9
$INTERSECTIONCOLOR
 70
   257
  9
$DIMASSOC
280
     2
  9
$PROJECTNAME
  1

  9
$CAMERADISPLAY
290
     0
  9
$LENSLENGTH
 40
50.0
  9
$CAMERAHEIGHT
 40
0.0
  9
$STEPSPERSEC
 40
2.0
  9
$STEPSIZE
 40
6.0
  9
$3DDWFPREC
 40
2.0
  9
$PSOLWIDTH
 40
5.0
  9
$PSOLHEIGHT
 40
80.0
  9
$LOFTANG1
 40
1.570796326794897
  9
$LOFTANG2
 40
1.570796326794897
  9
$LOFTMAG1
 40
0.0
  9
$LOFTMAG2
 40
0.0
  9
$LOFTPARAM
 70
     7
  9
$LOFTNORMALS
280
     1
  9
$LATITUDE
 40
37.795
  9
$LONGITUDE
 40
-122.394
  9
$NORTHDIRECTION
 40
0.0
  9
$TIMEZONE
 70
 -8000
  9
$LIGHTGLYPHDISPLAY
280
     1
  9
$TILEMODELIGHTSYNCH
280
     1
  9
$SOLIDHIST
280
     1
  9
$SHOWHIST
280
     1
  9
$DWFFRAME
280
     2
  9
$DGNFRAME
280
     2
  9
$REALWORLDSCALE
290
     1
  9
$INTERFERECOLOR
 62
   256
  9
$CSHADOW
280
     0
  9
$SHADOWPLANELOCATION
 40
0.0
  0
ENDSEC
  0
SECTION
  2
CLASSES
  0
CLASS
  1
ACDBDICTIONARYWDFLT
  2
AcDbDictionaryWithDefault
  3
ObjectDBX Classes
 90
        0
 91
        4
280
     0
281
     0
  0
CLASS
  1
VISUALSTYLE
  2
AcDbVisualStyle
  3
ObjectDBX Classes
 90
     4095
 91
        4
280
     0
281
     0
  0
CLASS
  1
MATERIAL
  2
AcDbMaterial
  3
ObjectDBX Classes
 90
     1153
 91
        4
280
     0
281
     0
  0
ENDSEC
  0
SECTION
  2
TABLES
  0
TABLE
  2
VPORT
  5
8
330
0
100
AcDbSymbolTable
 70
     1
  0
VPORT
  5
29
330
8
100
AcDbSymbolTableRecord
100
AcDbViewportTableRecord
  2
*Active
 70
     0
 10
0.0
 20
0.0
 11
1.0
 21
1.0
 12
0.0
 22
0.0
 13
0.0
 23
0.0
 14
10.0
 24
10.0
 15
10.0
 25
10.0
 16
0.0
 26
0.0
 36
1.0
 17
0.0
 27
0.0
 37
0.0
 40
6534.000000000001
 41
1.414141414141414
 42
50.0
 43
0.0
 44
0.0
 50
0.0
 51
0.0
 71
     0
 72
 10000
 73
     1
 74
     3
 75
     0
 76
     0
 77
     0
 78
     0
281
     0
 65
     1
110
0.0
120
0.0
130
0.0
111
1.0
121
0.0
131
0.0
112
0.0
122
1.0
132
0.0
 79
     0
146
0.0
 60
     3
 61
     5
292
     1
282
     1
141
0.0
142
0.0
 63
   250
  0
ENDTAB
  0
TABLE
  2
LTYPE
  5
5
330
0
100
AcDbSymbolTable
 70
     3
  0
LTYPE
  5
14
330
5
100
AcDbSymbolTableRecord
100
AcDbLinetypeTableRecord
  2
ByBlock
 70
     0
  3

 72
    65
 73
     0
 40
0.0
  0
LTYPE
  5
15
330
5
100
AcDbSymbolTableRecord
100
AcDbLinetypeTableRecord
  2
ByLayer
 70
     0
  3

 72
    65
 73
     0
 40
0.0
  0
LTYPE
  5
16
330
5
100
AcDbSymbolTableRecord
100
AcDbLinetypeTableRecord
  2
Continuous
 70
     0
  3
Solid line
 72
    65
 73
     0
 40
0.0
  0
LTYPE
  5
3F
330
5
100
AcDbSymbolTableRecord
100
AcDbLinetypeTableRecord
  2
JWW_HOJO
 70
     0
  3
  -   -   -   -   -   -   -   - 
 72
    65
 73
     2
 40
1.693333333333333
 49
-1.27
 74
     0
 49
0.4233333333333333
 74
     0
  0
LTYPE
  5
40
330
5
100
AcDbSymbolTableRecord
100
AcDbLinetypeTableRecord
  2
JWW_DASHED1
 70
     0
  3
-  --  --  --  --  --  --  --  -
 72
    65
 73
     2
 40
1.693333333333333
 49
0.8466666666666667
 74
     0
 49
-0.8466666666666667
 74
     0
  0
ENDTAB
  0
TABLE
  2
LAYER
  5
2
330
0
100
AcDbSymbolTable
 70
     9
  0
LAYER
  5
10
330
2
100
AcDbSymbolTableRecord
100
AcDbLayerTableRecord
  2
0
 70
     0
 62
     7
  6
Continuous
370
    -3
390
F
347
3E
  0
LAYER
  5
41
330
2
100
AcDbSymbolTableRecord
100
AcDbLayerTableRecord
  2
0-B
 70
     0
 62
     7
  6
Continuous
370
    -3
390
F
347
3E
  0
LAYER
  5
42
330
2
100
AcDbSymbolTableRecord
100
AcDbLayerTableRecord
  2
F-1
 70
     0
 62
     7
  6
Continuous
370
    -3
390
F
347
3E
  0
LAYER
  5
43
330
2
100
AcDbSymbolTableRecord
100
AcDbLayerTableRecord
  2
F-0
 70
     0
 62
     7
  6
Continuous
370
    -3
390
F
347
3E
  0
LAYER
  5
44
330
2
100
AcDbSymbolTableRecord
100
AcDbLayerTableRecord
  2
F-A
 70
     0
 62
     7
  6
Continuous
370
    -3
390
F
347
3E
  0
LAYER
  5
45
330
2
100
AcDbSymbolTableRecord
100
AcDbLayerTableRecord
  2
0-4
 70
     0
 62
     7
  6
Continuous
370
    -3
390
F
347
3E
  0
LAYER
  5
46
330
2
100
AcDbSymbolTableRecord
100
AcDbLayerTableRecord
  2
0-0
 70
     0
 62
     7
  6
Continuous
370
    -3
390
F
347
3E
  0
LAYER
  5
47
330
2
100
AcDbSymbolTableRecord
100
AcDbLayerTableRecord
  2
0-A
 70
     0
 62
     7
  6
Continuous
370
    -3
390
F
347
3E
  0
LAYER
  5
48
330
2
100
AcDbSymbolTableRecord
100
AcDbLayerTableRecord
  2
1-B
 70
     0
 62
     7
  6
Continuous
370
    -3
390
F
347
3E
  0
ENDTAB
  0
TABLE
  2
STYLE
  5
3
330
0
100
AcDbSymbolTable
 70
     1
  0
STYLE
  5
11
330
3
100
AcDbSymbolTableRecord
100
AcDbTextStyleTableRecord
  2
Standard
 70
     0
 40
0.0
 41
1.0
 50
0.0
 71
     0
 42
2.5
  3
txt
  4

  0
ENDTAB
  0
TABLE
  2
VIEW
  5
6
330
0
100
AcDbSymbolTable
 70
     0
  0
ENDTAB
  0
TABLE
  2
UCS
  5
7
330
0
100
AcDbSymbolTable
 70
     0
  0
ENDTAB
  0
TABLE
  2
APPID
  5
9
330
0
100
AcDbSymbolTable
 70
     1
  0
APPID
  5
12
330
9
100
AcDbSymbolTableRecord
100
AcDbRegAppTableRecord
  2
ACAD
 70
     0
  0
ENDTAB
  0
TABLE
  2
DIMSTYLE
  5
A
330
0
100
AcDbSymbolTable
 70
     1
100
AcDbDimStyleTable
  0
DIMSTYLE
105
27
330
A
100
AcDbSymbolTableRecord
100
AcDbDimStyleTableRecord
  2
ISO-25
 70
     0
 41
2.5
 42
0.625
 43
3.75
 44
1.25
 73
     0
 74
     0
 77
     1
 78
     8
140
2.5
141
2.5
143
0.03937007874016
147
0.625
171
     3
172
     1
178
     0
271
     2
272
     2
274
     3
278
    44
283
     0
284
     8
340
11
  0
ENDTAB
  0
TABLE
  2
BLOCK_RECORD
  5
1
330
0
100
AcDbSymbolTable
 70
     1
  0
BLOCK_RECORD
  5
1F
330
1
100
AcDbSymbolTableRecord
100
AcDbBlockTableRecord
  2
*Model_Space
340
22
 70
     0
280
     1
281
     0
  0
BLOCK_RECORD
  5
1B
330
1
100
AcDbSymbolTableRecord
100
AcDbBlockTableRecord
  2
*Paper_Space
340
1E
 70
     0
280
     1
281
     0
  0
BLOCK_RECORD
  5
23
330
1
100
AcDbSymbolTableRecord
100
AcDbBlockTableRecord
  2
*Paper_Space0
340
26
 70
     0
280
     1
281
     0
  0
ENDTAB
  0
ENDSEC
  0
SECTION
  2
BLOCKS
  0
BLOCK
  5
20
330
1F
100
AcDbEntity
  8
0
100
AcDbBlockBegin
  2
*Model_Space
 70
     0
 10
0.0
 20
0.0
 30
0.0
  3
*Model_Space
  1

  0
ENDBLK
  5
21
330
1F
100
AcDbEntity
  8
0
100
AcDbBlockEnd
  0
BLOCK
  5
1C
330
1B
100
AcDbEntity
 67
     1
  8
0
100
AcDbBlockBegin
  2
*Paper_Space
 70
     0
 10
0.0
 20
0.0
 30
0.0
  3
*Paper_Space
  1

  0
ENDBLK
  5
1D
330
1B
100
AcDbEntity
 67
     1
  8
0
100
AcDbBlockEnd
  0
BLOCK
  5
24
330
23
100
AcDbEntity
  8
0
100
AcDbBlockBegin
  2
*Paper_Space0
 70
     0
 10
0.0
 20
0.0
 30
0.0
  3
*Paper_Space0
  1

  0
ENDBLK
  5
25
330
23
100
AcDbEntity
  8
0
100
AcDbBlockEnd
  0
ENDSEC
  0
SECTION
  2
ENTITIES
  0
MTEXT
  5
49
330
1F
100
AcDbEntity
  8
0-B
  6
Continuous
 62
     7
370
   211
100
AcDbMText
 10
1763.263636147388
 20
412.2262464059717
 30
0.0
 40
45.72
 41
120.0
 46
0.0
 71
     7
 72
     1
  1
{\fＭＳ ゴシック|b0|i0|c128|p49;61.5}
 73
     1
 44
1.0
  0
LINE
  5
4A
330
1F
100
AcDbEntity
  8
F-1
  6
Continuous
 62
     7
370
     9
100
AcDbLine
 10
-96.66731550886823
 20
-1693.333292074889
 30
0.0
 11
3793.332651499156
 21
-1693.333292074889
 31
0.0
  0
LINE
  5
4B
330
1F
100
AcDbEntity
  8
F-1
  6
Continuous
 62
   200
370
    20
100
AcDbLine
 10
-3999.999989690007
 20
2783.333179370777
 30
0.0
 11
-3999.999989690007
 21
-2803.333443306588
 31
0.0
  0
LINE
  5
4C
330
1F
100
AcDbEntity
  8
F-1
  6
Continuous
 62
     7
370
     9
100
AcDbLine
 10
603.3330144108953
 20
2783.36534654772
 30
0.0
 11
603.3330144108953
 21
-2530.000032991976
 31
0.0
  0
LINE
  5
4D
330
1F
100
AcDbEntity
  8
F-0
  6
JWW_HOJO
 62
   120
370
     5
100
AcDbLine
 10
-4200.0
 20
-2970.0
 30
0.0
 11
-4200.0
 21
2949.99973606419
 31
0.0
  0
LINE
  5
4E
330
1F
100
AcDbEntity
  8
F-0
  6
JWW_HOJO
 62
   120
370
     5
100
AcDbLine
 10
-2448.333595894478
 20
2473.333641258446
 30
0.0
 11
-2448.333595894478
 21
-2526.666678351325
 31
0.0
  0
LINE
  5
4F
330
1F
100
AcDbEntity
  8
F-1
  6
Continuous
 62
   200
370
    20
100
AcDbLine
 10
-3993.333326803671
 20
2783.333179370777
 30
0.0
 11
-3993.333326803671
 21
-2803.333443306588
 31
0.0
  0
LINE
  5
50
330
1F
100
AcDbEntity
  8
F-0
  6
JWW_HOJO
 62
   120
370
     5
100
AcDbLine
 10
-3993.33306389886
 20
2631.666919605152
 30
0.0
 11
3793.558316617399
 21
2631.666919605152
 31
0.0
  0
LINE
  5
51
330
1F
100
AcDbEntity
  8
F-0
  6
JWW_HOJO
 62
   120
370
     5
100
AcDbLine
 10
-4200.0
 20
2949.99973606419
 30
0.0
 11
3999.999340160473
 21
2949.99973606419
 31
0.0
  0
LINE
  5
52
330
1F
100
AcDbEntity
  8
F-0
  6
JWW_HOJO
 62
   120
370
     5
100
AcDbLine
 10
3999.999340160473
 20
2949.99973606419
 30
0.0
 11
3999.999340160473
 21
-2970.0
 31
0.0
  0
LINE
  5
53
330
1F
100
AcDbEntity
  8
F-0
  6
JWW_HOJO
 62
   120
370
     5
100
AcDbLine
 10
3999.999340160473
 20
-2970.0
 30
0.0
 11
-4200.0
 21
-2970.0
 31
0.0
  0
LINE
  5
54
330
1F
100
AcDbEntity
  8
F-1
  6
Continuous
 62
   200
370
    20
100
AcDbLine
 10
-3999.999835040119
 20
2783.333179370777
 30
0.0
 11
3799.999175200592
 21
2783.333179370777
 31
0.0
  0
LINE
  5
55
330
1F
100
AcDbEntity
  8
F-1
  6
Continuous
 62
   200
370
    20
100
AcDbLine
 10
3799.999175200592
 20
2783.333179370777
 30
0.0
 11
3799.999175200592
 21
-2803.333443306588
 31
0.0
  0
LINE
  5
56
330
1F
100
AcDbEntity
  8
F-1
  6
Continuous
 62
   200
370
    20
100
AcDbLine
 10
-3999.999835040119
 20
2776.666655669342
 30
0.0
 11
3799.999175200592
 21
2776.666655669342
 31
0.0
  0
LINE
  5
57
330
1F
100
AcDbEntity
  8
F-1
  6
Continuous
 62
   200
370
    20
100
AcDbLine
 10
-3999.999835040119
 20
2779.999670080237
 30
0.0
 11
3799.999175200592
 21
2779.999670080237
 31
0.0
  0
LINE
  5
58
330
1F
100
AcDbEntity
  8
F-1
  6
Continuous
 62
   200
370
    20
100
AcDbLine
 10
-3996.666650514345
 20
2783.333179370777
 30
0.0
 11
-3996.666650514345
 21
-2803.333443306588
 31
0.0
  0
LINE
  5
59
330
1F
100
AcDbEntity
  8
F-1
  6
Continuous
 62
   200
370
    20
100
AcDbLine
 10
3796.665665910051
 20
2783.333179370777
 30
0.0
 11
3796.665665910051
 21
-2803.333443306588
 31
0.0
  0
LINE
  5
5A
330
1F
100
AcDbEntity
  8
F-1
  6
Continuous
 62
   200
370
    20
100
AcDbLine
 10
3793.332651499156
 20
2783.333179370777
 30
0.0
 11
3793.332651499156
 21
-2803.333443306588
 31
0.0
  0
LINE
  5
5B
330
1F
100
AcDbEntity
  8
F-1
  6
Continuous
 62
   200
370
    20
100
AcDbLine
 10
-100.0005773595859
 20
2783.333179370777
 30
0.0
 11
-100.0005773595859
 21
-2530.000032991976
 31
0.0
  0
LINE
  5
5C
330
1F
100
AcDbEntity
  8
F-1
  6
Continuous
 62
   200
370
    20
100
AcDbLine
 10
-96.66731550886823
 20
2783.36534654772
 30
0.0
 11
-96.66731550886823
 21
-2530.000032991976
 31
0.0
  0
LINE
  5
5D
330
1F
100
AcDbEntity
  8
F-1
  6
Continuous
 62
   200
370
    20
100
AcDbLine
 10
-103.3338392103036
 20
2783.36534654772
 30
0.0
 11
-103.3338392103036
 21
-2530.000032991976
 31
0.0
  0
LINE
  5
5E
330
1F
100
AcDbEntity
  8
F-1
  6
Continuous
 62
     7
370
     9
100
AcDbLine
 10
-1603.333839210304
 20
2783.36534654772
 30
0.0
 11
-1603.333839210304
 21
-2530.000032991976
 31
0.0
  0
LINE
  5
5F
330
1F
100
AcDbEntity
  8
F-1
  6
Continuous
 62
     7
370
     9
100
AcDbLine
 10
-3293.333352578653
 20
2783.333179370777
 30
0.0
 11
-3293.333352578653
 21
-2526.666678351325
 31
0.0
  0
LINE
  5
60
330
1F
100
AcDbEntity
  8
F-1
  6
Continuous
 62
     7
370
     9
100
AcDbLine
 10
2293.333146378801
 20
2783.333179370777
 30
0.0
 11
2293.333146378801
 21
-2526.666678351325
 31
0.0
  0
LINE
  5
61
330
1F
100
AcDbEntity
  8
F-1
  6
Continuous
 62
   200
370
    20
100
AcDbLine
 10
3799.999175200592
 20
2473.333641258446
 30
0.0
 11
-3999.999835040119
 21
2473.333641258446
 31
0.0
  0
LINE
  5
62
330
1F
100
AcDbEntity
  8
F-1
  6
Continuous
 62
     7
370
     9
100
AcDbLine
 10
-1603.333839210304
 20
2631.666919605152
 30
0.0
 11
-1003.333839210304
 21
2631.666919605152
 31
0.0
  0
LINE
  5
63
330
1F
100
AcDbEntity
  8
F-1
  6
Continuous
 62
     7
370
     9
100
AcDbLine
 10
-1003.333839210304
 20
2783.365346547719
 30
0.0
 11
-1003.333839210304
 21
-2530.000032991977
 31
0.0
  0
LINE
  5
64
330
1F
100
AcDbEntity
  8
F-1
  6
JWW_HOJO
 62
     7
370
     9
100
AcDbLine
 10
-963.3338392103042
 20
2783.365346547719
 30
0.0
 11
-963.3338392103042
 21
-2530.000032991977
 31
0.0
  0
LINE
  5
65
330
1F
100
AcDbEntity
  8
F-1
  6
Continuous
 62
     7
370
     9
100
AcDbLine
 10
-423.3338392103036
 20
2783.365346547719
 30
0.0
 11
-423.3338392103036
 21
-2530.000032991977
 31
0.0
  0
LINE
  5
66
330
1F
100
AcDbEntity
  8
F-1
  6
Continuous
 62
     7
370
     9
100
AcDbLine
 10
2293.333146378801
 20
2631.634752428209
 30
0.0
 11
2893.333146378801
 21
2631.634752428209
 31
0.0
  0
LINE
  5
67
330
1F
100
AcDbEntity
  8
F-1
  6
Continuous
 62
     7
370
     9
100
AcDbLine
 10
2893.333146378801
 20
2783.333179370776
 30
0.0
 11
2893.333146378801
 21
-2530.03220016892
 31
0.0
  0
LINE
  5
68
330
1F
100
AcDbEntity
  8
F-1
  6
JWW_HOJO
 62
     7
370
     9
100
AcDbLine
 10
2933.333146378801
 20
2783.333179370776
 30
0.0
 11
2933.333146378801
 21
-2530.03220016892
 31
0.0
  0
LINE
  5
69
330
1F
100
AcDbEntity
  8
F-1
  6
Continuous
 62
     7
370
     9
100
AcDbLine
 10
3473.333146378802
 20
2783.333179370776
 30
0.0
 11
3473.333146378802
 21
-2530.03220016892
 31
0.0
  0
MTEXT
  5
6A
330
1F
100
AcDbEntity
  8
F-A
  6
Continuous
 62
     7
370
     0
100
AcDbMText
 10
-3773.333208238756
 20
2584.686919605152
 30
0.0
 40
66.04
 41
260.0
 46
0.0
 71
     7
 72
     1
  1
{\fＭＳ ゴシック|b0|i0|c128|p49;部材名}
 73
     1
 44
1.0
  0
MTEXT
  5
6B
330
1F
100
AcDbEntity
  8
F-A
  6
Continuous
 62
     7
370
     0
100
AcDbMText
 10
119.9995876002959
 20
2584.686919605152
 30
0.0
 40
66.04
 41
260.0
 46
0.0
 71
     7
 72
     1
  1
{\fＭＳ ゴシック|b0|i0|c128|p49;部材名}
 73
     1
 44
1.0
  0
MTEXT
  5
6C
330
1F
100
AcDbEntity
  8
F-A
  6
Continuous
 62
     7
370
     0
100
AcDbMText
 10
3548.333146378802
 20
2656.519620460303
 30
0.0
 40
64.77
 41
170.0
 46
0.0
 71
     7
 72
     1
  1
{\fＭＳ ゴシック|b0|i0|c128|p49;梱包}
 73
     1
 44
1.0
  0
MTEXT
  5
6D
330
1F
100
AcDbEntity
  8
F-A
  6
Continuous
 62
     7
370
     0
100
AcDbMText
 10
3548.333146378802
 20
2511.487717219171
 30
0.0
 40
64.77
 41
170.0
 46
0.0
 71
     7
 72
     1
  1
{\fＭＳ ゴシック|b0|i0|c128|p49;入数}
 73
     1
 44
1.0
  0
LINE
  5
6E
330
1F
100
AcDbEntity
  8
F-0
  6
JWW_HOJO
 62
     7
370
     9
100
AcDbLine
 10
1448.33277109507
 20
2473.333641258446
 30
0.0
 11
1448.33277109507
 21
-2526.666678351325
 31
0.0
  0
LINE
  5
6F
330
1F
100
AcDbEntity
  8
F-1
  6
Continuous
 62
   200
370
    20
100
AcDbLine
 10
3799.999175200592
 20
2480.000164960446
 30
0.0
 11
-3999.999835040119
 21
2480.000164960446
 31
0.0
  0
LINE
  5
70
330
1F
100
AcDbEntity
  8
F-1
  6
JWW_DASHED1
 62
     7
370
     9
100
AcDbLine
 10
-103.333591769586
 20
2369.166967925112
 30
0.0
 11
-1603.333839210304
 21
2369.166967925112
 31
0.0
  0
LINE
  5
71
330
1F
100
AcDbEntity
  8
F-1
  6
JWW_DASHED1
 62
     7
370
     9
100
AcDbLine
 10
-103.333591769586
 20
-2422.500005408223
 30
0.0
 11
-1603.333839210304
 21
-2422.500005408223
 31
0.0
  0
LINE
  5
72
330
1F
100
AcDbEntity
  8
F-1
  6
JWW_DASHED1
 62
     7
370
     9
100
AcDbLine
 10
-103.333591769586
 20
2265.000294591779
 30
0.0
 11
-1603.333839210304
 21
2265.000294591779
 31
0.0
  0
LINE
  5
73
330
1F
100
AcDbEntity
  8
F-1
  6
JWW_DASHED1
 62
     7
370
     9
100
AcDbLine
 10
-103.333591769586
 20
1744.166927925111
 30
0.0
 11
-1603.333839210304
 21
1744.166927925111
 31
0.0
  0
LINE
  5
74
330
1F
100
AcDbEntity
  8
F-1
  6
JWW_DASHED1
 62
     7
370
     9
100
AcDbLine
 10
-103.333591769586
 20
2160.833621258446
 30
0.0
 11
-1603.333839210304
 21
2160.833621258446
 31
0.0
  0
LINE
  5
75
330
1F
100
AcDbEntity
  8
F-1
  6
JWW_DASHED1
 62
     7
370
     9
100
AcDbLine
 10
-103.333591769586
 20
2056.666947925112
 30
0.0
 11
-1603.333839210304
 21
2056.666947925112
 31
0.0
  0
LINE
  5
76
330
1F
100
AcDbEntity
  8
F-1
  6
JWW_DASHED1
 62
     7
370
     9
100
AcDbLine
 10
-103.333591769586
 20
1952.500274591778
 30
0.0
 11
-1603.333839210304
 21
1952.500274591778
 31
0.0
  0
LINE
  5
77
330
1F
100
AcDbEntity
  8
F-1
  6
JWW_DASHED1
 62
     7
370
     9
100
AcDbLine
 10
-103.333591769586
 20
1848.333601258445
 30
0.0
 11
-1603.333839210304
 21
1848.333601258445
 31
0.0
  0
LINE
  5
78
330
1F
100
AcDbEntity
  8
F-1
  6
JWW_DASHED1
 62
     7
370
     9
100
AcDbLine
 10
-103.333591769586
 20
1431.666907925112
 30
0.0
 11
-1603.333839210304
 21
1431.666907925112
 31
0.0
  0
LINE
  5
79
330
1F
100
AcDbEntity
  8
F-1
  6
JWW_DASHED1
 62
     7
370
     9
100
AcDbLine
 10
-103.333591769586
 20
910.8335412584444
 30
0.0
 11
-1603.333839210304
 21
910.8335412584444
 31
0.0
  0
LINE
  5
7A
330
1F
100
AcDbEntity
  8
F-1
  6
JWW_DASHED1
 62
     7
370
     9
100
AcDbLine
 10
-103.333591769586
 20
1327.500234591778
 30
0.0
 11
-1603.333839210304
 21
1327.500234591778
 31
0.0
  0
LINE
  5
7B
330
1F
100
AcDbEntity
  8
F-1
  6
JWW_DASHED1
 62
     7
370
     9
100
AcDbLine
 10
-103.333591769586
 20
1223.333561258445
 30
0.0
 11
-1603.333839210304
 21
1223.333561258445
 31
0.0
  0
LINE
  5
7C
330
1F
100
AcDbEntity
  8
F-1
  6
JWW_DASHED1
 62
     7
370
     9
100
AcDbLine
 10
-103.333591769586
 20
1119.166887925111
 30
0.0
 11
-1603.333839210304
 21
1119.166887925111
 31
0.0
  0
LINE
  5
7D
330
1F
100
AcDbEntity
  8
F-1
  6
JWW_DASHED1
 62
     7
370
     9
100
AcDbLine
 10
-103.333591769586
 20
1015.000214591778
 30
0.0
 11
-1603.333839210304
 21
1015.000214591778
 31
0.0
  0
LINE
  5
7E
330
1F
100
AcDbEntity
  8
F-1
  6
JWW_DASHED1
 62
     7
370
     9
100
AcDbLine
 10
-103.333591769586
 20
1535.833581258446
 30
0.0
 11
-1603.333839210304
 21
1535.833581258446
 31
0.0
  0
LINE
  5
7F
330
1F
100
AcDbEntity
  8
F-1
  6
JWW_DASHED1
 62
     7
370
     9
100
AcDbLine
 10
-103.333591769586
 20
598.333521258445
 30
0.0
 11
-1603.333839210304
 21
598.333521258445
 31
0.0
  0
LINE
  5
80
330
1F
100
AcDbEntity
  8
F-1
  6
JWW_DASHED1
 62
     7
370
     9
100
AcDbLine
 10
-103.333591769586
 20
77.50015459177746
 30
0.0
 11
-1603.333839210304
 21
77.50015459177746
 31
0.0
  0
LINE
  5
81
330
1F
100
AcDbEntity
  8
F-1
  6
JWW_DASHED1
 62
     7
370
     9
100
AcDbLine
 10
-103.333591769586
 20
494.1668479251115
 30
0.0
 11
-1603.333839210304
 21
494.1668479251115
 31
0.0
  0
LINE
  5
82
330
1F
100
AcDbEntity
  8
F-1
  6
JWW_DASHED1
 62
     7
370
     9
100
AcDbLine
 10
-103.333591769586
 20
390.000174591778
 30
0.0
 11
-1603.333839210304
 21
390.000174591778
 31
0.0
  0
LINE
  5
83
330
1F
100
AcDbEntity
  8
F-1
  6
JWW_DASHED1
 62
     7
370
     9
100
AcDbLine
 10
-103.333591769586
 20
285.8335012584445
 30
0.0
 11
-1603.333839210304
 21
285.8335012584445
 31
0.0
  0
LINE
  5
84
330
1F
100
AcDbEntity
  8
F-1
  6
JWW_DASHED1
 62
     7
370
     9
100
AcDbLine
 10
-103.333591769586
 20
181.666827925111
 30
0.0
 11
-1603.333839210304
 21
181.666827925111
 31
0.0
  0
LINE
  5
85
330
1F
100
AcDbEntity
  8
F-1
  6
JWW_DASHED1
 62
     7
370
     9
100
AcDbLine
 10
-103.333591769586
 20
702.5001945917785
 30
0.0
 11
-1603.333839210304
 21
702.5001945917785
 31
0.0
  0
LINE
  5
86
330
1F
100
AcDbEntity
  8
F-1
  6
JWW_DASHED1
 62
     7
370
     9
100
AcDbLine
 10
-103.333591769586
 20
-234.9998654082219
 30
0.0
 11
-1603.333839210304
 21
-234.9998654082219
 31
0.0
  0
LINE
  5
87
330
1F
100
AcDbEntity
  8
F-1
  6
JWW_DASHED1
 62
     7
370
     9
100
AcDbLine
 10
-103.333591769586
 20
-755.8332320748895
 30
0.0
 11
-1603.333839210304
 21
-755.8332320748895
 31
0.0
  0
LINE
  5
88
330
1F
100
AcDbEntity
  8
F-1
  6
JWW_DASHED1
 62
     7
370
     9
100
AcDbLine
 10
-103.333591769586
 20
-339.1665387415554
 30
0.0
 11
-1603.333839210304
 21
-339.1665387415554
 31
0.0
  0
LINE
  5
89
330
1F
100
AcDbEntity
  8
F-1
  6
JWW_DASHED1
 62
     7
370
     9
100
AcDbLine
 10
-103.333591769586
 20
-443.3332120748889
 30
0.0
 11
-1603.333839210304
 21
-443.3332120748889
 31
0.0
  0
LINE
  5
8A
330
1F
100
AcDbEntity
  8
F-1
  6
JWW_DASHED1
 62
     7
370
     9
100
AcDbLine
 10
-103.333591769586
 20
-547.4998854082224
 30
0.0
 11
-1603.333839210304
 21
-547.4998854082224
 31
0.0
  0
LINE
  5
8B
330
1F
100
AcDbEntity
  8
F-1
  6
JWW_DASHED1
 62
     7
370
     9
100
AcDbLine
 10
-103.333591769586
 20
-651.666558741556
 30
0.0
 11
-1603.333839210304
 21
-651.666558741556
 31
0.0
  0
LINE
  5
8C
330
1F
100
AcDbEntity
  8
F-1
  6
JWW_DASHED1
 62
     7
370
     9
100
AcDbLine
 10
-103.333591769586
 20
-130.8331920748884
 30
0.0
 11
-1603.333839210304
 21
-130.8331920748884
 31
0.0
  0
LINE
  5
8D
330
1F
100
AcDbEntity
  8
F-1
  6
JWW_DASHED1
 62
     7
370
     9
100
AcDbLine
 10
-103.333591769586
 20
-1068.333252074889
 30
0.0
 11
-1603.333839210304
 21
-1068.333252074889
 31
0.0
  0
LINE
  5
8E
330
1F
100
AcDbEntity
  8
F-1
  6
JWW_DASHED1
 62
     7
370
     9
100
AcDbLine
 10
-103.333591769586
 20
-1589.166618741556
 30
0.0
 11
-1603.333839210304
 21
-1589.166618741556
 31
0.0
  0
LINE
  5
8F
330
1F
100
AcDbEntity
  8
F-1
  6
JWW_DASHED1
 62
     7
370
     9
100
AcDbLine
 10
-103.333591769586
 20
-1172.499925408222
 30
0.0
 11
-1603.333839210304
 21
-1172.499925408222
 31
0.0
  0
LINE
  5
90
330
1F
100
AcDbEntity
  8
F-1
  6
JWW_DASHED1
 62
     7
370
     9
100
AcDbLine
 10
-103.333591769586
 20
-1276.666598741556
 30
0.0
 11
-1603.333839210304
 21
-1276.666598741556
 31
0.0
  0
LINE
  5
91
330
1F
100
AcDbEntity
  8
F-1
  6
JWW_DASHED1
 62
     7
370
     9
100
AcDbLine
 10
-103.333591769586
 20
-1380.833272074889
 30
0.0
 11
-1603.333839210304
 21
-1380.833272074889
 31
0.0
  0
LINE
  5
92
330
1F
100
AcDbEntity
  8
F-1
  6
JWW_DASHED1
 62
     7
370
     9
100
AcDbLine
 10
-103.333591769586
 20
-1484.999945408223
 30
0.0
 11
-1603.333839210304
 21
-1484.999945408223
 31
0.0
  0
LINE
  5
93
330
1F
100
AcDbEntity
  8
F-1
  6
JWW_DASHED1
 62
     7
370
     9
100
AcDbLine
 10
-103.333591769586
 20
-964.1665787415553
 30
0.0
 11
-1603.333839210304
 21
-964.1665787415553
 31
0.0
  0
LINE
  5
94
330
1F
100
AcDbEntity
  8
F-1
  6
JWW_DASHED1
 62
     7
370
     9
100
AcDbLine
 10
-103.333591769586
 20
-1901.666638741556
 30
0.0
 11
-1603.333839210304
 21
-1901.666638741556
 31
0.0
  0
LINE
  5
95
330
1F
100
AcDbEntity
  8
F-1
  6
JWW_DASHED1
 62
     7
370
     9
100
AcDbLine
 10
-103.333591769586
 20
-2005.833312074889
 30
0.0
 11
-1603.333839210304
 21
-2005.833312074889
 31
0.0
  0
LINE
  5
96
330
1F
100
AcDbEntity
  8
F-1
  6
JWW_DASHED1
 62
     7
370
     9
100
AcDbLine
 10
-103.333591769586
 20
-2109.999985408223
 30
0.0
 11
-1603.333839210304
 21
-2109.999985408223
 31
0.0
  0
LINE
  5
97
330
1F
100
AcDbEntity
  8
F-1
  6
JWW_DASHED1
 62
     7
370
     9
100
AcDbLine
 10
-103.333591769586
 20
-2214.166658741556
 30
0.0
 11
-1603.333839210304
 21
-2214.166658741556
 31
0.0
  0
LINE
  5
98
330
1F
100
AcDbEntity
  8
F-1
  6
JWW_DASHED1
 62
     7
370
     9
100
AcDbLine
 10
-103.333591769586
 20
-2318.33333207489
 30
0.0
 11
-1603.333839210304
 21
-2318.33333207489
 31
0.0
  0
LINE
  5
99
330
1F
100
AcDbEntity
  8
F-1
  6
JWW_DASHED1
 62
     7
370
     9
100
AcDbLine
 10
-103.333591769586
 20
-1797.499965408222
 30
0.0
 11
-1603.333839210304
 21
-1797.499965408222
 31
0.0
  0
LINE
  5
9A
330
1F
100
AcDbEntity
  8
F-1
  6
JWW_DASHED1
 62
     7
370
     9
100
AcDbLine
 10
3793.332898939874
 20
2369.166967925112
 30
0.0
 11
2293.332651499156
 21
2369.166967925112
 31
0.0
  0
LINE
  5
9B
330
1F
100
AcDbEntity
  8
F-1
  6
JWW_DASHED1
 62
     7
370
     9
100
AcDbLine
 10
3793.332898939874
 20
-2422.500005408223
 30
0.0
 11
2293.332651499156
 21
-2422.500005408223
 31
0.0
  0
LINE
  5
9C
330
1F
100
AcDbEntity
  8
F-1
  6
JWW_DASHED1
 62
     7
370
     9
100
AcDbLine
 10
3793.332898939874
 20
2265.000294591779
 30
0.0
 11
2293.332651499156
 21
2265.000294591779
 31
0.0
  0
LINE
  5
9D
330
1F
100
AcDbEntity
  8
F-1
  6
JWW_DASHED1
 62
     7
370
     9
100
AcDbLine
 10
3793.332898939874
 20
1744.166927925111
 30
0.0
 11
2293.332651499156
 21
1744.166927925111
 31
0.0
  0
LINE
  5
9E
330
1F
100
AcDbEntity
  8
F-1
  6
JWW_DASHED1
 62
     7
370
     9
100
AcDbLine
 10
3793.332898939874
 20
2160.833621258446
 30
0.0
 11
2293.332651499156
 21
2160.833621258446
 31
0.0
  0
LINE
  5
9F
330
1F
100
AcDbEntity
  8
F-1
  6
JWW_DASHED1
 62
     7
370
     9
100
AcDbLine
 10
3793.332898939874
 20
2056.666947925112
 30
0.0
 11
2293.332651499156
 21
2056.666947925112
 31
0.0
  0
LINE
  5
A0
330
1F
100
AcDbEntity
  8
F-1
  6
JWW_DASHED1
 62
     7
370
     9
100
AcDbLine
 10
3793.332898939874
 20
1952.500274591778
 30
0.0
 11
2293.332651499156
 21
1952.500274591778
 31
0.0
  0
LINE
  5
A1
330
1F
100
AcDbEntity
  8
F-1
  6
JWW_DASHED1
 62
     7
370
     9
100
AcDbLine
 10
3793.332898939874
 20
1848.333601258445
 30
0.0
 11
2293.332651499156
 21
1848.333601258445
 31
0.0
  0
LINE
  5
A2
330
1F
100
AcDbEntity
  8
F-1
  6
JWW_DASHED1
 62
     7
370
     9
100
AcDbLine
 10
3793.332898939874
 20
1431.666907925112
 30
0.0
 11
2293.332651499156
 21
1431.666907925112
 31
0.0
  0
LINE
  5
A3
330
1F
100
AcDbEntity
  8
F-1
  6
JWW_DASHED1
 62
     7
370
     9
100
AcDbLine
 10
3793.332898939874
 20
910.8335412584444
 30
0.0
 11
2293.332651499156
 21
910.8335412584444
 31
0.0
  0
LINE
  5
A4
330
1F
100
AcDbEntity
  8
F-1
  6
JWW_DASHED1
 62
     7
370
     9
100
AcDbLine
 10
3793.332898939874
 20
1327.500234591778
 30
0.0
 11
2293.332651499156
 21
1327.500234591778
 31
0.0
  0
LINE
  5
A5
330
1F
100
AcDbEntity
  8
F-1
  6
JWW_DASHED1
 62
     7
370
     9
100
AcDbLine
 10
3793.332898939874
 20
1223.333561258445
 30
0.0
 11
2293.332651499156
 21
1223.333561258445
 31
0.0
  0
LINE
  5
A6
330
1F
100
AcDbEntity
  8
F-1
  6
JWW_DASHED1
 62
     7
370
     9
100
AcDbLine
 10
3793.332898939874
 20
1119.166887925111
 30
0.0
 11
2293.332651499156
 21
1119.166887925111
 31
0.0
  0
LINE
  5
A7
330
1F
100
AcDbEntity
  8
F-1
  6
JWW_DASHED1
 62
     7
370
     9
100
AcDbLine
 10
3793.332898939874
 20
1015.000214591778
 30
0.0
 11
2293.332651499156
 21
1015.000214591778
 31
0.0
  0
LINE
  5
A8
330
1F
100
AcDbEntity
  8
F-1
  6
JWW_DASHED1
 62
     7
370
     9
100
AcDbLine
 10
3793.332898939874
 20
1535.833581258446
 30
0.0
 11
2293.332651499156
 21
1535.833581258446
 31
0.0
  0
LINE
  5
A9
330
1F
100
AcDbEntity
  8
F-1
  6
JWW_DASHED1
 62
     7
370
     9
100
AcDbLine
 10
3793.332898939874
 20
598.333521258445
 30
0.0
 11
2293.332651499156
 21
598.333521258445
 31
0.0
  0
LINE
  5
AA
330
1F
100
AcDbEntity
  8
F-1
  6
JWW_DASHED1
 62
     7
370
     9
100
AcDbLine
 10
3793.332898939874
 20
77.50015459177746
 30
0.0
 11
2293.332651499156
 21
77.50015459177746
 31
0.0
  0
LINE
  5
AB
330
1F
100
AcDbEntity
  8
F-1
  6
JWW_DASHED1
 62
     7
370
     9
100
AcDbLine
 10
3793.332898939874
 20
494.1668479251115
 30
0.0
 11
2293.332651499156
 21
494.1668479251115
 31
0.0
  0
LINE
  5
AC
330
1F
100
AcDbEntity
  8
F-1
  6
JWW_DASHED1
 62
     7
370
     9
100
AcDbLine
 10
3793.332898939874
 20
390.000174591778
 30
0.0
 11
2293.332651499156
 21
390.000174591778
 31
0.0
  0
LINE
  5
AD
330
1F
100
AcDbEntity
  8
F-1
  6
JWW_DASHED1
 62
     7
370
     9
100
AcDbLine
 10
3793.332898939874
 20
285.8335012584445
 30
0.0
 11
2293.332651499156
 21
285.8335012584445
 31
0.0
  0
LINE
  5
AE
330
1F
100
AcDbEntity
  8
F-1
  6
JWW_DASHED1
 62
     7
370
     9
100
AcDbLine
 10
3793.332898939874
 20
181.666827925111
 30
0.0
 11
2293.332651499156
 21
181.666827925111
 31
0.0
  0
LINE
  5
AF
330
1F
100
AcDbEntity
  8
F-1
  6
JWW_DASHED1
 62
     7
370
     9
100
AcDbLine
 10
3793.332898939874
 20
702.5001945917785
 30
0.0
 11
2293.332651499156
 21
702.5001945917785
 31
0.0
  0
LINE
  5
B0
330
1F
100
AcDbEntity
  8
F-1
  6
JWW_DASHED1
 62
     7
370
     9
100
AcDbLine
 10
3793.332898939874
 20
-234.9998654082219
 30
0.0
 11
2293.332651499156
 21
-234.9998654082219
 31
0.0
  0
LINE
  5
B1
330
1F
100
AcDbEntity
  8
F-1
  6
JWW_DASHED1
 62
     7
370
     9
100
AcDbLine
 10
3793.332898939874
 20
-755.8332320748895
 30
0.0
 11
2293.332651499156
 21
-755.8332320748895
 31
0.0
  0
LINE
  5
B2
330
1F
100
AcDbEntity
  8
F-1
  6
JWW_DASHED1
 62
     7
370
     9
100
AcDbLine
 10
3793.332898939874
 20
-339.1665387415554
 30
0.0
 11
2293.332651499156
 21
-339.1665387415554
 31
0.0
  0
LINE
  5
B3
330
1F
100
AcDbEntity
  8
F-1
  6
JWW_DASHED1
 62
     7
370
     9
100
AcDbLine
 10
3793.332898939874
 20
-443.3332120748889
 30
0.0
 11
2293.332651499156
 21
-443.3332120748889
 31
0.0
  0
LINE
  5
B4
330
1F
100
AcDbEntity
  8
F-1
  6
JWW_DASHED1
 62
     7
370
     9
100
AcDbLine
 10
3793.332898939874
 20
-547.4998854082224
 30
0.0
 11
2293.332651499156
 21
-547.4998854082224
 31
0.0
  0
LINE
  5
B5
330
1F
100
AcDbEntity
  8
F-1
  6
JWW_DASHED1
 62
     7
370
     9
100
AcDbLine
 10
3793.332898939874
 20
-651.666558741556
 30
0.0
 11
2293.332651499156
 21
-651.666558741556
 31
0.0
  0
LINE
  5
B6
330
1F
100
AcDbEntity
  8
F-1
  6
JWW_DASHED1
 62
     7
370
     9
100
AcDbLine
 10
3793.332898939874
 20
-130.8331920748884
 30
0.0
 11
2293.332651499156
 21
-130.8331920748884
 31
0.0
  0
LINE
  5
B7
330
1F
100
AcDbEntity
  8
F-1
  6
JWW_DASHED1
 62
     7
370
     9
100
AcDbLine
 10
3793.332898939874
 20
-1068.333252074889
 30
0.0
 11
2293.332651499156
 21
-1068.333252074889
 31
0.0
  0
LINE
  5
B8
330
1F
100
AcDbEntity
  8
F-1
  6
JWW_DASHED1
 62
     7
370
     9
100
AcDbLine
 10
3793.332898939874
 20
-1589.166618741556
 30
0.0
 11
2293.332651499156
 21
-1589.166618741556
 31
0.0
  0
LINE
  5
B9
330
1F
100
AcDbEntity
  8
F-1
  6
JWW_DASHED1
 62
     7
370
     9
100
AcDbLine
 10
3793.332898939874
 20
-1172.499925408222
 30
0.0
 11
2293.332651499156
 21
-1172.499925408222
 31
0.0
  0
LINE
  5
BA
330
1F
100
AcDbEntity
  8
F-1
  6
JWW_DASHED1
 62
     7
370
     9
100
AcDbLine
 10
3793.332898939874
 20
-1276.666598741556
 30
0.0
 11
2293.332651499156
 21
-1276.666598741556
 31
0.0
  0
LINE
  5
BB
330
1F
100
AcDbEntity
  8
F-1
  6
JWW_DASHED1
 62
     7
370
     9
100
AcDbLine
 10
3793.332898939874
 20
-1380.833272074889
 30
0.0
 11
2293.332651499156
 21
-1380.833272074889
 31
0.0
  0
LINE
  5
BC
330
1F
100
AcDbEntity
  8
F-1
  6
JWW_DASHED1
 62
     7
370
     9
100
AcDbLine
 10
3793.332898939874
 20
-1484.999945408223
 30
0.0
 11
2293.332651499156
 21
-1484.999945408223
 31
0.0
  0
LINE
  5
BD
330
1F
100
AcDbEntity
  8
F-1
  6
JWW_DASHED1
 62
     7
370
     9
100
AcDbLine
 10
3793.332898939874
 20
-964.1665787415553
 30
0.0
 11
2293.332651499156
 21
-964.1665787415553
 31
0.0
  0
LINE
  5
BE
330
1F
100
AcDbEntity
  8
F-1
  6
JWW_DASHED1
 62
     7
370
     9
100
AcDbLine
 10
3793.332898939874
 20
-1901.666638741556
 30
0.0
 11
2293.332651499156
 21
-1901.666638741556
 31
0.0
  0
LINE
  5
BF
330
1F
100
AcDbEntity
  8
F-1
  6
JWW_DASHED1
 62
     7
370
     9
100
AcDbLine
 10
3793.332898939874
 20
-2005.833312074889
 30
0.0
 11
2293.332651499156
 21
-2005.833312074889
 31
0.0
  0
LINE
  5
C0
330
1F
100
AcDbEntity
  8
F-1
  6
JWW_DASHED1
 62
     7
370
     9
100
AcDbLine
 10
3793.332898939874
 20
-2109.999985408223
 30
0.0
 11
2293.332651499156
 21
-2109.999985408223
 31
0.0
  0
LINE
  5
C1
330
1F
100
AcDbEntity
  8
F-1
  6
JWW_DASHED1
 62
     7
370
     9
100
AcDbLine
 10
3793.332898939874
 20
-2214.166658741556
 30
0.0
 11
2293.332651499156
 21
-2214.166658741556
 31
0.0
  0
LINE
  5
C2
330
1F
100
AcDbEntity
  8
F-1
  6
JWW_DASHED1
 62
     7
370
     9
100
AcDbLine
 10
3793.332898939874
 20
-2318.33333207489
 30
0.0
 11
2293.332651499156
 21
-2318.33333207489
 31
0.0
  0
LINE
  5
C3
330
1F
100
AcDbEntity
  8
F-1
  6
JWW_DASHED1
 62
     7
370
     9
100
AcDbLine
 10
3793.332898939874
 20
-1797.499965408222
 30
0.0
 11
2293.332651499156
 21
-1797.499965408222
 31
0.0
  0
LINE
  5
C4
330
1F
100
AcDbEntity
  8
F-1
  6
JWW_DASHED1
 62
     7
370
     9
100
AcDbLine
 10
3793.332898939874
 20
1640.000254585111
 30
0.0
 11
2293.332651499156
 21
1640.000254585111
 31
0.0
  0
LINE
  5
C5
330
1F
100
AcDbEntity
  8
F-1
  6
JWW_DASHED1
 62
     7
370
     9
100
AcDbLine
 10
3793.332898939874
 20
806.6668679184443
 30
0.0
 11
2293.332651499156
 21
806.6668679184443
 31
0.0
  0
LINE
  5
C6
330
1F
100
AcDbEntity
  8
F-1
  6
JWW_DASHED1
 62
     7
370
     9
100
AcDbLine
 10
3793.332898939874
 20
-26.66651874822264
 30
0.0
 11
2293.332651499156
 21
-26.66651874822264
 31
0.0
  0
LINE
  5
C7
330
1F
100
AcDbEntity
  8
F-1
  6
JWW_DASHED1
 62
     7
370
     9
100
AcDbLine
 10
3793.332898939874
 20
-1693.333292081556
 30
0.0
 11
2293.332651499156
 21
-1693.333292081556
 31
0.0
  0
LINE
  5
C8
330
1F
100
AcDbEntity
  8
F-1
  6
Continuous
 62
     7
370
     9
100
AcDbLine
 10
3793.332651499156
 20
806.666867925112
 30
0.0
 11
-3993.333326803671
 21
806.666867925112
 31
0.0
  0
LINE
  5
C9
330
1F
100
AcDbEntity
  8
F-1
  6
Continuous
 62
     7
370
     9
100
AcDbLine
 10
3793.332651499156
 20
-859.9999054082218
 30
0.0
 11
-3993.333326803671
 21
-859.9999054082218
 31
0.0
  0
LINE
  5
CA
330
1F
100
AcDbEntity
  8
F-1
  6
Continuous
 62
     7
370
     9
100
AcDbLine
 10
-3293.333352578653
 20
-1693.333292074889
 30
0.0
 11
-96.66731550886823
 21
-1693.333292074889
 31
0.0
  0
MTEXT
  5
CB
330
1F
100
AcDbEntity
  8
F-A
  6
Continuous
 62
     7
370
     0
100
AcDbMText
 10
3460.130633894714
 20
-2877.490295913237
 30
0.0
 40
45.72
 41
30.0
 46
0.0
 71
     7
 72
     1
  1
{\fＭＳ ゴシック|b0|i0|c128|p49;,}
 73
     1
 44
1.0
  0
MTEXT
  5
CC
330
1F
100
AcDbEntity
  8
F-A
  6
Continuous
 62
     7
370
     0
100
AcDbMText
 10
3282.624841276916
 20
-2876.514644858855
 30
0.0
 40
49.53
 41
65.0
 46
0.0
 71
     7
 72
     1
  1
{\fＭＳ ゴシック|b0|i0|c128|p49;$y}
 73
     1
 44
1.0
  0
MTEXT
  5
CD
330
1F
100
AcDbEntity
  8
F-A
  6
Continuous
 62
     7
370
     0
100
AcDbMText
 10
3385.782655302796
 20
-2876.514644858855
 30
0.0
 40
49.53
 41
65.0
 46
0.0
 71
     7
 72
     1
  1
{\fＭＳ ゴシック|b0|i0|c128|p49;$m}
 73
     1
 44
1.0
  0
MTEXT
  5
CE
330
1F
100
AcDbEntity
  8
F-A
  6
Continuous
 62
     7
370
     0
100
AcDbMText
 10
3488.940476958069
 20
-2876.514644858855
 30
0.0
 40
49.53
 41
65.0
 46
0.0
 71
     7
 72
     1
  1
{\fＭＳ ゴシック|b0|i0|c128|p49;$d}
 73
     1
 44
1.0
  0
MTEXT
  5
CF
330
1F
100
AcDbEntity
  8
F-A
  6
Continuous
 62
     7
370
     0
100
AcDbMText
 10
3592.098298613341
 20
-2876.514644858855
 30
0.0
 40
49.53
 41
130.0
 46
0.0
 71
     7
 72
     1
  1
{\fＭＳ ゴシック|b0|i0|c128|p49;印刷}
 73
     1
 44
1.0
  0
MTEXT
  5
D0
330
1F
100
AcDbEntity
  8
F-A
  6
Continuous
 62
     7
370
     0
100
AcDbMText
 10
3354.184762541563
 20
-2879.348995711821
 30
0.0
 40
45.72
 41
30.0
 46
0.0
 71
     7
 72
     1
  1
{\fＭＳ ゴシック|b0|i0|c128|p49;,}
 73
     1
 44
1.0
  0
MTEXT
  5
D1
330
1F
100
AcDbEntity
  8
F-A
  6
Continuous
 62
     7
370
     0
100
AcDbMText
 10
3738.935540739808
 20
-2876.560946013945
 30
0.0
 40
45.72
 41
60.0
 46
0.0
 71
     7
 72
     1
  1
{\fＭＳ ゴシック|b0|i0|c128|p49;）}
 73
     1
 44
1.0
  0
MTEXT
  5
D2
330
1F
100
AcDbEntity
  8
F-A
  6
Continuous
 62
     7
370
     0
100
AcDbMText
 10
3189.355582835333
 20
-2879.348995711821
 30
0.0
 40
45.72
 41
60.0
 46
0.0
 71
     7
 72
     1
  1
{\fＭＳ ゴシック|b0|i0|c128|p49;（}
 73
     1
 44
1.0
  0
LINE
  5
D3
330
1F
100
AcDbEntity
  8
F-0
  6
JWW_HOJO
 62
     7
370
     9
100
AcDbLine
 10
566.6663917335308
 20
-2530.000110316921
 30
0.0
 11
566.6663917335308
 21
-2796.666780420252
 31
0.0
  0
LINE
  5
D4
330
1F
100
AcDbEntity
  8
F-0
  6
JWW_HOJO
 62
     7
370
     9
100
AcDbLine
 10
233.3332783467063
 20
-2530.000110316921
 30
0.0
 11
233.3332783467063
 21
-2796.666780420252
 31
0.0
  0
LINE
  5
D5
330
1F
100
AcDbEntity
  8
F-1
  6
Continuous
 62
   200
370
    20
100
AcDbLine
 10
3799.999175200592
 20
-2803.333443306588
 30
0.0
 11
-3999.999835040119
 21
-2803.333443306588
 31
0.0
  0
LINE
  5
D6
330
1F
100
AcDbEntity
  8
F-1
  6
Continuous
 62
   200
370
    20
100
AcDbLine
 10
3799.999175200592
 20
-2800.000104130926
 30
0.0
 11
-3999.999835040119
 21
-2800.000104130926
 31
0.0
  0
LINE
  5
D7
330
1F
100
AcDbEntity
  8
F-1
  6
Continuous
 62
   200
370
    20
100
AcDbLine
 10
3799.999175200592
 20
-2796.666780420252
 30
0.0
 11
-3999.999835040119
 21
-2796.666780420252
 31
0.0
  0
LINE
  5
D8
330
1F
100
AcDbEntity
  8
F-1
  6
Continuous
 62
   200
370
    20
100
AcDbLine
 10
2793.332816459038
 20
-2530.000110316921
 30
0.0
 11
2793.332816459038
 21
-2796.666780420252
 31
0.0
  0
LINE
  5
D9
330
1F
100
AcDbEntity
  8
F-1
  6
Continuous
 62
   200
370
    20
100
AcDbLine
 10
1793.332486539274
 20
-2530.000110316921
 30
0.0
 11
1793.332486539274
 21
-2796.666780420252
 31
0.0
  0
LINE
  5
DA
330
1F
100
AcDbEntity
  8
F-1
  6
Continuous
 62
   200
370
    20
100
AcDbLine
 10
-100.0000824799406
 20
-2530.000110316921
 30
0.0
 11
-100.0000824799406
 21
-2796.666780420252
 31
0.0
  0
LINE
  5
DB
330
1F
100
AcDbEntity
  8
F-1
  6
Continuous
 62
   200
370
    20
100
AcDbLine
 10
-100.0000824799406
 20
-2663.33339897362
 30
0.0
 11
3793.332651499156
 21
-2663.337017781026
 31
0.0
  0
LINE
  5
DC
330
1F
100
AcDbEntity
  8
F-0
  6
JWW_HOJO
 62
     7
370
     9
100
AcDbLine
 10
-3993.333326803671
 20
-2663.33339897385
 30
0.0
 11
-100.0000824799406
 21
-2663.33339897385
 31
0.0
  0
LINE
  5
DD
330
1F
100
AcDbEntity
  8
F-0
  6
JWW_HOJO
 62
     7
370
     9
100
AcDbLine
 10
-3993.333326803671
 20
-2603.33339897385
 30
0.0
 11
-100.0000824799406
 21
-2603.33339897385
 31
0.0
  0
LINE
  5
DE
330
1F
100
AcDbEntity
  8
F-0
  6
JWW_HOJO
 62
     7
370
     9
100
AcDbLine
 10
-3993.333326803671
 20
-2723.33339897385
 30
0.0
 11
-100.0000824799406
 21
-2723.33339897385
 31
0.0
  0
LINE
  5
DF
330
1F
100
AcDbEntity
  8
F-0
  6
JWW_HOJO
 62
     7
370
     9
100
AcDbLine
 10
-100.0001723303592
 20
-2759.999934773578
 30
0.0
 11
3793.332561648736
 21
-2760.003553580984
 31
0.0
  0
LINE
  5
E0
330
1F
100
AcDbEntity
  8
F-0
  6
JWW_HOJO
 62
     7
370
     9
100
AcDbLine
 10
-100.0001165610581
 20
-2699.999934773604
 30
0.0
 11
3793.332617418037
 21
-2700.00355358101
 31
0.0
  0
LINE
  5
E1
330
1F
100
AcDbEntity
  8
F-0
  6
JWW_HOJO
 62
     7
370
     9
100
AcDbLine
 10
-100.0000483985781
 20
-2626.666599733636
 30
0.0
 11
3793.332685580518
 21
-2626.670218541042
 31
0.0
  0
LINE
  5
E2
330
1F
100
AcDbEntity
  8
F-0
  6
JWW_HOJO
 62
     7
370
     9
100
AcDbLine
 10
-99.99999262927702
 20
-2566.666599733662
 30
0.0
 11
3793.332741349819
 21
-2566.670218541068
 31
0.0
  0
LINE
  5
E3
330
1F
100
AcDbEntity
  8
F-0
  6
JWW_HOJO
 62
     7
370
     9
100
AcDbLine
 10
1853.332486539274
 20
-2530.000110316921
 30
0.0
 11
1853.332486539274
 21
-2796.666780420252
 31
0.0
  0
LINE
  5
E4
330
1F
100
AcDbEntity
  8
F-0
  6
JWW_HOJO
 62
     7
370
     9
100
AcDbLine
 10
-40.0000824799406
 20
-2530.000110316921
 30
0.0
 11
-40.0000824799406
 21
-2796.666780420252
 31
0.0
  0
LINE
  5
E5
330
1F
100
AcDbEntity
  8
F-0
  6
JWW_HOJO
 62
     7
370
     9
100
AcDbLine
 10
2853.332816459038
 20
-2530.000110316921
 30
0.0
 11
2853.332816459038
 21
-2796.666780420252
 31
0.0
  0
MTEXT
  5
E6
330
1F
100
AcDbEntity
  8
F-A
  6
Continuous
 62
     7
370
     0
100
AcDbMText
 10
2853.332816459038
 20
-2591.429344822092
 30
0.0
 40
30.48
 41
160.0
 46
0.0
 71
     7
 72
     1
  1
{\fＭＳ ゴシック|b0|i0|c128|p49;ＤＡＴＥ}
 73
     1
 44
1.0
  0
MTEXT
  5
E7
330
1F
100
AcDbEntity
  8
F-A
  6
Continuous
 62
     7
370
     0
100
AcDbMText
 10
2853.332816459038
 20
-2724.76267986215
 30
0.0
 40
30.48
 41
120.0
 46
0.0
 71
     7
 72
     1
  1
{\fＭＳ ゴシック|b0|i0|c128|p49;ＮＯ．}
 73
     1
 44
1.0
  0
MTEXT
  5
E8
330
1F
100
AcDbEntity
  8
F-A
  6
Continuous
 62
     7
370
     0
100
AcDbMText
 10
1853.332486539274
 20
-2591.428415333439
 30
0.0
 40
30.48
 41
200.0
 46
0.0
 71
     7
 72
     1
  1
{\fＭＳ ゴシック|b0|i0|c128|p49;ＳＣＡＬＥ}
 73
     1
 44
1.0
  0
MTEXT
  5
E9
330
1F
100
AcDbEntity
  8
F-A
  6
Continuous
 62
     7
370
     0
100
AcDbMText
 10
1853.332486539274
 20
-2724.761750373496
 30
0.0
 40
30.48
 41
160.0
 46
0.0
 71
     7
 72
     1
  1
{\fＭＳ ゴシック|b0|i0|c128|p49;ＦＩＬＥ}
 73
     1
 44
1.0
  0
MTEXT
  5
EA
330
1F
100
AcDbEntity
  8
F-A
  6
Continuous
 62
     7
370
     0
100
AcDbMText
 10
-40.0000824799406
 20
-2591.42665550288
 30
0.0
 40
30.48
 41
120.0
 46
0.0
 71
     7
 72
     1
  1
{\fＭＳ ゴシック|b0|i0|c128|p49;図面名}
 73
     1
 44
1.0
  0
MTEXT
  5
EB
330
1F
100
AcDbEntity
  8
F-A
  6
Continuous
 62
     7
370
     0
100
AcDbMText
 10
963.332486539274
 20
-2776.187944604208
 30
0.0
 40
67.62750000000003
 41
710.0000000000002
 46
0.0
 71
     7
 72
     1
  1
{\fＭＳ ゴシック|b0|i0|c128|p49;ウッドワン・・・}
 73
     1
 44
1.0
  0
MTEXT
  5
EC
330
1F
100
AcDbEntity
  8
F-A
  6
Continuous
 62
     7
370
     0
100
AcDbMText
 10
823.332486539274
 20
-2730.760554432355
 30
0.0
 40
30.48
 41
80.0
 46
0.0
 71
     7
 72
     1
  1
{\fＭＳ ゴシック|b0|i0|c128|p49;株式}
 73
     1
 44
1.0
  0
MTEXT
  5
ED
330
1F
100
AcDbEntity
  8
F-A
  6
Continuous
 62
     7
370
     0
100
AcDbMText
 10
823.332486539274
 20
-2778.760554432381
 30
0.0
 40
30.48
 41
80.0
 46
0.0
 71
     7
 72
     1
  1
{\fＭＳ ゴシック|b0|i0|c128|p49;会社}
 73
     1
 44
1.0
  0
LINE
  5
EE
330
1F
100
AcDbEntity
  8
F-1
  6
Continuous
 62
   200
370
    20
100
AcDbLine
 10
3799.999175200592
 20
-2530.000110316921
 30
0.0
 11
-3999.999835040119
 21
-2530.000110316921
 31
0.0
  0
LINE
  5
EF
330
1F
100
AcDbEntity
  8
F-1
  6
Continuous
 62
   200
370
    20
100
AcDbLine
 10
3799.999175200592
 20
-2526.666786606248
 30
0.0
 11
-3999.999835040119
 21
-2526.666786606248
 31
0.0
  0
LINE
  5
F0
330
1F
100
AcDbEntity
  8
F-0
  6
JWW_HOJO
 62
     7
370
     9
100
AcDbLine
 10
-3498.364917835225
 20
-2530.000110316922
 30
0.0
 11
-3498.364917835225
 21
-2803.333551561511
 31
0.0
  0
LINE
  5
F1
330
1F
100
AcDbEntity
  8
F-0
  6
JWW_HOJO
 62
     7
370
     9
100
AcDbLine
 10
-140.0000824799406
 20
-2530.000110316921
 30
0.0
 11
-140.0000824799406
 21
-2796.666780420252
 31
0.0
  0
MTEXT
  5
F2
330
1F
100
AcDbEntity
  8
F-A
  6
Continuous
 62
     7
370
     0
100
AcDbMText
 10
233.3332783467063
 20
-2634.331636169924
 30
0.0
 40
45.72
 41
240.0
 46
0.0
 71
     7
 72
     1
  1
{\fＭＳ ゴシック|b0|i0|c128|p49;DOORETUS}
 73
     1
 44
1.0
  0
MTEXT
  5
F3
330
1F
100
AcDbEntity
  8
F-A
  6
Continuous
 62
     7
370
     0
100
AcDbMText
 10
2185.832651499156
 20
-2630.475102193128
 30
0.0
 40
52.3875
 41
275.0
 46
0.0
 71
     7
 72
     1
  1
{\fＭＳ ゴシック|b0|i0|c128|p49;1/2・1/3}
 73
     1
 44
1.0
  0
MTEXT
  5
F4
330
1F
100
AcDbEntity
  8
F-A
  6
Continuous
 62
     7
370
     0
100
AcDbMText
 10
786.9451346024795
 20
-2630.758882654815
 30
0.0
 40
51.816
 41
340.0
 46
0.0
 71
     7
 72
     1
  1
{\fＭＳ ゴシック|b0|i0|c128|p49;洋風造作材}
 73
     1
 44
1.0
  0
MTEXT
  5
F5
330
1F
100
AcDbEntity
  8
F-A
  6
Continuous
 62
     7
370
     0
100
AcDbMText
 10
-1388.333839210304
 20
2656.551787637246
 30
0.0
 40
64.77
 41
170.0
 46
0.0
 71
     7
 72
     1
  1
{\fＭＳ ゴシック|b0|i0|c128|p49;寸法}
 73
     1
 44
1.0
  0
MTEXT
  5
F6
330
1F
100
AcDbEntity
  8
F-A
  6
Continuous
 62
     7
370
     0
100
AcDbMText
 10
-348.3338392103036
 20
2656.551787637246
 30
0.0
 40
64.77
 41
170.0
 46
0.0
 71
     7
 72
     1
  1
{\fＭＳ ゴシック|b0|i0|c128|p49;梱包}
 73
     1
 44
1.0
  0
MTEXT
  5
F7
330
1F
100
AcDbEntity
  8
F-A
  6
Continuous
 62
     7
370
     0
100
AcDbMText
 10
2508.333146378801
 20
2656.519620460303
 30
0.0
 40
64.77
 41
170.0
 46
0.0
 71
     7
 72
     1
  1
{\fＭＳ ゴシック|b0|i0|c128|p49;寸法}
 73
     1
 44
1.0
  0
MTEXT
  5
F8
330
1F
100
AcDbEntity
  8
F-A
  6
Continuous
 62
     7
370
     0
100
AcDbMText
 10
-798.3338392103042
 20
2584.051919605152
 30
0.0
 40
64.77
 41
170.0
 46
0.0
 71
     7
 72
     1
  1
{\fＭＳ ゴシック|b0|i0|c128|p49;品番}
 73
     1
 44
1.0
  0
MTEXT
  5
F9
330
1F
100
AcDbEntity
  8
F-A
  6
Continuous
 62
     7
370
     0
100
AcDbMText
 10
-2623.333719614389
 20
2585.004287637247
 30
0.0
 40
66.675
 41
350.0
 46
0.0
 71
     7
 72
     1
  1
{\fＭＳ ゴシック|b0|i0|c128|p49;断面形状}
 73
     1
 44
1.0
  0
MTEXT
  5
FA
330
1F
100
AcDbEntity
  8
F-A
  6
Continuous
 62
     7
370
     0
100
AcDbMText
 10
1273.333327834671
 20
2585.004287637247
 30
0.0
 40
66.675
 41
350.0
 46
0.0
 71
     7
 72
     1
  1
{\fＭＳ ゴシック|b0|i0|c128|p49;断面形状}
 73
     1
 44
1.0
  0
MTEXT
  5
FB
330
1F
100
AcDbEntity
  8
F-A
  6
Continuous
 62
     7
370
     0
100
AcDbMText
 10
3098.333146378801
 20
2584.019752428209
 30
0.0
 40
64.77
 41
170.0
 46
0.0
 71
     7
 72
     1
  1
{\fＭＳ ゴシック|b0|i0|c128|p49;品番}
 73
     1
 44
1.0
  0
MTEXT
  5
FC
330
1F
100
AcDbEntity
  8
F-A
  6
Continuous
 62
     7
370
     0
100
AcDbMText
 10
-1573.333839210304
 20
2502.027051573056
 30
0.0
 40
45.72
 41
540.0
 46
0.0
 71
     7
 72
     1
  1
{\fＭＳ ゴシック|b0|i0|c128|p49;長さ×幅×厚さ(㎜)}
 73
     1
 44
1.0
  0
MTEXT
  5
FD
330
1F
100
AcDbEntity
  8
F-A
  6
Continuous
 62
     7
370
     0
100
AcDbMText
 10
-348.3338392103036
 20
2511.519884396113
 30
0.0
 40
64.77
 41
170.0
 46
0.0
 71
     7
 72
     1
  1
{\fＭＳ ゴシック|b0|i0|c128|p49;入数}
 73
     1
 44
1.0
  0
MTEXT
  5
FE
330
1F
100
AcDbEntity
  8
F-A
  6
Continuous
 62
     7
370
     0
100
AcDbMText
 10
2323.333146378801
 20
2501.994884396113
 30
0.0
 40
45.72
 41
540.0
 46
0.0
 71
     7
 72
     1
  1
{\fＭＳ ゴシック|b0|i0|c128|p49;長さ×幅×厚さ(㎜)}
 73
     1
 44
1.0
  0
LINE
  5
FF
330
1F
100
AcDbEntity
  8
0-4
  6
Continuous
 62
    92
370
    13
100
AcDbLine
 10
-2448.334006517603
 20
2150.843782034988
 30
0.0
 11
-2581.667339850935
 21
2186.570341025804
 31
0.0
  0
LINE
  5
100
330
1F
100
AcDbEntity
  8
0-4
  6
Continuous
 62
    92
370
    13
100
AcDbLine
 10
-2448.33400652333
 20
2205.843782035042
 30
0.0
 11
-2315.000673189995
 21
2241.570341025858
 31
0.0
  0
LINE
  5
101
330
1F
100
AcDbEntity
  8
0-4
  6
Continuous
 62
    92
370
    13
100
AcDbLine
 10
-2448.33400652333
 20
2240.843781973545
 30
0.0
 11
-2342.604302852312
 21
2269.173970688175
 31
0.0
  0
LINE
  5
102
330
1F
100
AcDbEntity
  8
0-4
  6
Continuous
 62
    92
370
    13
100
AcDbLine
 10
-2315.000673189995
 20
2241.570341025858
 30
0.0
 11
-2342.604302852312
 21
2269.173970688175
 31
0.0
  0
LINE
  5
103
330
1F
100
AcDbEntity
  8
0-4
  6
Continuous
 62
    92
370
    13
100
AcDbLine
 10
-2342.604302852312
 20
2269.173970688175
 30
0.0
 11
-2366.26455696291
 21
2282.834224768023
 31
0.0
  0
LINE
  5
104
330
1F
100
AcDbEntity
  8
0-4
  6
Continuous
 62
    92
370
    13
100
AcDbLine
 10
-2448.33400652333
 20
2260.843782035042
 30
0.0
 11
-2366.26455696291
 21
2282.834224768023
 31
0.0
  0
LINE
  5
105
330
1F
100
AcDbEntity
  8
0-4
  6
Continuous
 62
    92
370
    13
100
AcDbLine
 10
-2315.00067318427
 20
2186.570341025804
 30
0.0
 11
-2315.00067318427
 21
2241.570341025858
 31
0.0
  0
LINE
  5
106
330
1F
100
AcDbEntity
  8
0-4
  6
Continuous
 62
    92
370
    13
100
AcDbLine
 10
-2448.333595894478
 20
2117.510448701708
 30
0.0
 11
-2315.00067318427
 21
2153.236897666391
 31
0.0
  0
LINE
  5
107
330
1F
100
AcDbEntity
  8
0-4
  6
Continuous
 62
    92
370
    13
100
AcDbLine
 10
-2315.00067318427
 20
1886.570341025859
 30
0.0
 11
-2315.00067318427
 21
2153.236897666391
 31
0.0
  0
LINE
  5
108
330
1F
100
AcDbEntity
  8
0-4
  6
Continuous
 62
    92
370
    13
100
AcDbLine
 10
-2448.334417140727
 20
2117.510448701708
 30
0.0
 11
-2581.667339850935
 21
2153.236897666391
 31
0.0
  0
LINE
  5
109
330
1F
100
AcDbEntity
  8
0-4
  6
Continuous
 62
    92
370
    13
100
AcDbLine
 10
-2581.667339850935
 20
1886.570341025859
 30
0.0
 11
-2581.667339850935
 21
2153.236897666391
 31
0.0
  0
LINE
  5
10A
330
1F
100
AcDbEntity
  8
0-4
  6
Continuous
 62
    92
370
    13
100
AcDbLine
 10
-2581.667339850935
 20
2153.236897666391
 30
0.0
 11
-2555.378081922943
 21
2179.526155594383
 31
0.0
  0
LINE
  5
10B
330
1F
100
AcDbEntity
  8
0-4
  6
Continuous
 62
    92
370
    13
100
AcDbLine
 10
-2315.00067318427
 20
2153.236897666391
 30
0.0
 11
-2341.289931112262
 21
2179.526155594383
 31
0.0
  0
LINE
  5
10C
330
1F
100
AcDbEntity
  8
0-4
  6
Continuous
 62
    92
370
    13
100
AcDbLine
 10
-2448.334006517603
 20
2150.843782034988
 30
0.0
 11
-2315.00067318427
 21
2186.570341025804
 31
0.0
  0
LINE
  5
10D
330
1F
100
AcDbEntity
  8
0-4
  6
Continuous
 62
    92
370
    13
100
AcDbLine
 10
-2581.66733984521
 20
2241.570341025858
 30
0.0
 11
-2554.063710182895
 21
2269.173970688175
 31
0.0
  0
LINE
  5
10E
330
1F
100
AcDbEntity
  8
0-4
  6
Continuous
 62
    92
370
    13
100
AcDbLine
 10
-2554.063710182895
 20
2269.173970688175
 30
0.0
 11
-2530.403456072297
 21
2282.834224768023
 31
0.0
  0
LINE
  5
10F
330
1F
100
AcDbEntity
  8
0-4
  6
Continuous
 62
    92
370
    13
100
AcDbLine
 10
-2448.334006511877
 20
2205.843782035042
 30
0.0
 11
-2581.66733984521
 21
2241.570341025858
 31
0.0
  0
LINE
  5
110
330
1F
100
AcDbEntity
  8
0-4
  6
Continuous
 62
    92
370
    13
100
AcDbLine
 10
-2448.334006517603
 20
2240.843781973545
 30
0.0
 11
-2554.063710184105
 21
2269.173970686963
 31
0.0
  0
LINE
  5
111
330
1F
100
AcDbEntity
  8
0-4
  6
Continuous
 62
    92
370
    13
100
AcDbLine
 10
-2448.334006511877
 20
2260.843782035042
 30
0.0
 11
-2530.403456072297
 21
2282.834224768023
 31
0.0
  0
LINE
  5
112
330
1F
100
AcDbEntity
  8
0-4
  6
Continuous
 62
    92
370
    13
100
AcDbLine
 10
-2581.667339850935
 20
2186.570341025804
 30
0.0
 11
-2581.667339850935
 21
2241.570341025858
 31
0.0
  0
LINE
  5
113
330
1F
100
AcDbEntity
  8
0-4
  6
Continuous
 62
    92
370
    13
100
AcDbLine
 10
-2448.334006517603
 20
2150.843782034988
 30
0.0
 11
-2448.334006517603
 21
2260.843782035042
 31
0.0
  0
LINE
  5
114
330
1F
100
AcDbEntity
  8
0-4
  6
JWW_DASHED1
 62
    92
370
    13
100
AcDbLine
 10
-2448.334006517603
 20
2150.843782034988
 30
0.0
 11
-2448.334006517603
 21
2117.510448701708
 31
0.0
  0
LINE
  5
115
330
1F
100
AcDbEntity
  8
0-4
  6
Continuous
 62
    92
370
    13
100
AcDbLine
 10
-2460.412228622388
 20
1854.080131894023
 30
0.0
 11
-2581.667339850935
 21
1886.570341025859
 31
0.0
  0
LINE
  5
116
330
1F
100
AcDbEntity
  8
0-4
  6
Continuous
 62
    92
370
    13
100
AcDbLine
 10
-2436.255784412817
 20
1854.080131894023
 30
0.0
 11
-2315.00067318427
 21
1886.570341025859
 31
0.0
  0
ARC
  5
117
330
1F
100
AcDbEntity
  8
0-4
  6
Continuous
 62
    92
370
    13
100
AcDbCircle
 10
-2448.334006517603
 20
1899.156670454179
 30
0.0
 40
46.66666666666666
100
AcDbArc
 50
255.0
 51
285.0
  0
LINE
  5
118
330
1F
100
AcDbEntity
  8
0-4
  6
Continuous
 62
    92
370
    13
100
AcDbLine
 10
-2448.334006517603
 20
1852.490003787512
 30
0.0
 11
-2448.334006517603
 21
2117.510448701708
 31
0.0
  0
LINE
  5
119
330
1F
100
AcDbEntity
  8
0-0
  6
JWW_HOJO
 62
     7
370
     9
100
AcDbLine
 10
-2581.667339850935
 20
2268.63301484711
 30
0.0
 11
-2537.070122738962
 21
2294.381230151816
 31
0.0
  0
LINE
  5
11A
330
1F
100
AcDbEntity
  8
0-0
  6
JWW_HOJO
 62
     7
370
     9
100
AcDbLine
 10
-2448.334006517603
 20
1837.040099629574
 30
0.0
 11
-2581.667339850935
 21
1872.766658620391
 31
0.0
  0
LINE
  5
11B
330
1F
100
AcDbEntity
  8
0-0
  6
JWW_HOJO
 62
     7
370
     9
100
AcDbLine
 10
-2448.334006517603
 20
1837.040099629574
 30
0.0
 11
-2281.667339850935
 21
1881.698298368095
 31
0.0
  0
LINE
  5
11C
330
1F
100
AcDbEntity
  8
0-0
  6
JWW_HOJO
 62
     7
370
     9
100
AcDbLine
 10
-2281.667339850935
 20
1881.698298368095
 30
0.0
 11
-2281.667339850935
 21
2227.09318851844
 31
0.0
  0
LINE
  5
11D
330
1F
100
AcDbEntity
  8
0-0
  6
JWW_HOJO
 62
     7
370
     9
100
AcDbLine
 10
-2366.26455696291
 20
2282.834224768023
 30
0.0
 11
-2318.084622280085
 21
2310.650923026692
 31
0.0
  0
LINE
  5
11E
330
1F
100
AcDbEntity
  8
0-0
  6
JWW_HOJO
 62
     7
370
     9
100
AcDbLine
 10
-2248.334006517603
 20
2240.90030726421
 30
0.0
 11
-2318.084622280085
 21
2310.650923026692
 31
0.0
  0
LINE
  5
11F
330
1F
100
AcDbEntity
  8
0-0
  6
JWW_HOJO
 62
     7
370
     9
100
AcDbLine
 10
-2281.667339850935
 20
2227.09318851844
 30
0.0
 11
-2341.654848319636
 21
2287.080696987141
 31
0.0
  0
LINE
  5
120
330
1F
100
AcDbEntity
  8
0-B
  6
Continuous
 62
   120
370
     5
100
AcDbLine
 10
-2309.605986396939
 20
2302.172287143546
 30
0.0
 11
-2282.002356734624
 21
2274.568657481232
 31
0.0
  0
LWPOLYLINE
  5
121
330
1F
100
AcDbEntity
  8
0-B
  6
Continuous
 62
     7
370
     9
100
AcDbPolyline
 90
        4
 70
     1
 43
2.0
 10
-2308.605986396939
 20
2302.172287143546
 42
0.4142135623731
 10
-2309.605986396939
 20
2303.172287143546
 42
0.4142135623731
 10
-2310.605986396939
 20
2302.172287143546
 42
0.4142135623731
 10
-2309.605986396939
 20
2301.172287143546
 42
0.4142135623731
  0
LWPOLYLINE
  5
122
330
1F
100
AcDbEntity
  8
0-B
  6
Continuous
 62
     7
370
     9
100
AcDbPolyline
 90
        4
 70
     1
 43
2.0
 10
-2281.002356734624
 20
2274.568657481232
 42
0.4142135623731
 10
-2282.002356734624
 20
2275.568657481232
 42
0.4142135623731
 10
-2283.002356734624
 20
2274.568657481232
 42
0.4142135623731
 10
-2282.002356734624
 20
2273.568657481232
 42
0.4142135623731
  0
LINE
  5
123
330
1F
100
AcDbEntity
  8
0-B
  6
Continuous
 62
   120
370
     5
100
AcDbLine
 10
-2309.605986396939
 20
2302.172287143546
 30
0.0
 11
-2333.17621243649
 21
2278.602061103995
 31
0.0
  0
LINE
  5
124
330
1F
100
AcDbEntity
  8
0-B
  6
Continuous
 62
   120
370
     5
100
AcDbLine
 10
-2282.002356734624
 20
2274.568657481232
 30
0.0
 11
-2305.572582774175
 21
2250.998431441678
 31
0.0
  0
LWPOLYLINE
  5
125
330
1F
100
AcDbEntity
  8
0-B
  6
Continuous
 62
     7
370
     9
100
AcDbPolyline
 90
        4
 70
     1
 43
2.0
 10
-2202.164538760873
 20
1886.570341025859
 42
0.4142135623731
 10
-2203.164538760873
 20
1887.570341025859
 42
0.4142135623731
 10
-2204.164538760873
 20
1886.570341025859
 42
0.4142135623731
 10
-2203.164538760873
 20
1885.570341025859
 42
0.4142135623731
  0
LWPOLYLINE
  5
126
330
1F
100
AcDbEntity
  8
0-B
  6
Continuous
 62
     7
370
     9
100
AcDbPolyline
 90
        4
 70
     1
 43
2.0
 10
-2202.164538760873
 20
2269.173970688175
 42
0.4142135623731
 10
-2203.164538760873
 20
2270.173970688175
 42
0.4142135623731
 10
-2204.164538760873
 20
2269.173970688175
 42
0.4142135623731
 10
-2203.164538760873
 20
2268.173970688175
 42
0.4142135623731
  0
LINE
  5
127
330
1F
100
AcDbEntity
  8
0-0
  6
JWW_HOJO
 62
     7
370
     9
100
AcDbLine
 10
-2203.164538760873
 20
1856.120732102129
 30
0.0
 11
-2203.164538760873
 21
2240.90030726421
 31
0.0
  0
LINE
  5
128
330
1F
100
AcDbEntity
  8
0-B
  6
Continuous
 62
   120
370
     5
100
AcDbLine
 10
-2203.164538760873
 20
1886.570341025859
 30
0.0
 11
-2281.667339850935
 21
1886.570341025859
 31
0.0
  0
LINE
  5
129
330
1F
100
AcDbEntity
  8
0-B
  6
Continuous
 62
   120
370
     5
100
AcDbLine
 10
-2203.164538760873
 20
2269.173970688175
 30
0.0
 11
-2203.164538760873
 21
1886.570341025859
 31
0.0
  0
LINE
  5
12A
330
1F
100
AcDbEntity
  8
0-B
  6
Continuous
 62
   120
370
     5
100
AcDbLine
 10
-2203.164538760873
 20
2269.173970688175
 30
0.0
 11
-2263.523284114995
 21
2269.173970688175
 31
0.0
  0
LINE
  5
12B
330
1F
100
AcDbEntity
  8
0-0
  6
JWW_HOJO
 62
     7
370
     9
100
AcDbLine
 10
-2591.456640424565
 20
2324.078598757171
 30
0.0
 11
-2563.526089979259
 21
2340.204309575386
 31
0.0
  0
LINE
  5
12C
330
1F
100
AcDbEntity
  8
0-B
  6
Continuous
 62
   120
370
     5
100
AcDbLine
 10
-2563.526089979259
 20
2340.204309575386
 30
0.0
 11
-2619.841788602999
 21
2307.690425815365
 31
0.0
  0
LWPOLYLINE
  5
12D
330
1F
100
AcDbEntity
  8
0-B
  6
Continuous
 62
     7
370
     9
100
AcDbPolyline
 90
        4
 70
     1
 43
2.0
 10
-2562.526089979259
 20
2340.204309575386
 42
0.4142135623731
 10
-2563.526089979259
 20
2341.204309575386
 42
0.4142135623731
 10
-2564.526089979259
 20
2340.204309575386
 42
0.4142135623731
 10
-2563.526089979259
 20
2339.204309575386
 42
0.4142135623731
  0
LWPOLYLINE
  5
12E
330
1F
100
AcDbEntity
  8
0-B
  6
Continuous
 62
     7
370
     9
100
AcDbPolyline
 90
        4
 70
     1
 43
2.0
 10
-2618.841788602999
 20
2307.690425815365
 42
0.4142135623731
 10
-2619.841788602999
 20
2308.690425815365
 42
0.4142135623731
 10
-2620.841788603
 20
2307.690425815365
 42
0.4142135623731
 10
-2619.841788602999
 20
2306.690425815365
 42
0.4142135623731
  0
LINE
  5
12F
330
1F
100
AcDbEntity
  8
0-B
  6
Continuous
 62
   120
370
     5
100
AcDbLine
 10
-2563.526089979259
 20
2340.204309575386
 30
0.0
 11
-2537.070122738962
 21
2294.381230151816
 31
0.0
  0
LINE
  5
130
330
1F
100
AcDbEntity
  8
0-B
  6
Continuous
 62
   120
370
     5
100
AcDbLine
 10
-2619.841788602999
 20
2307.690425815365
 30
0.0
 11
-2593.385821362704
 21
2261.867346391798
 31
0.0
  0
LINE
  5
131
330
1F
100
AcDbEntity
  8
0-B
  6
Continuous
 62
   120
370
     5
100
AcDbLine
 10
-2295.245634038897
 20
1812.843531229812
 30
0.0
 11
-2428.16702881707
 21
1777.227350842182
 31
0.0
  0
LWPOLYLINE
  5
132
330
1F
100
AcDbEntity
  8
0-B
  6
Continuous
 62
     7
370
     9
100
AcDbPolyline
 90
        4
 70
     1
 43
2.0
 10
-2294.245634038897
 20
1812.843531229812
 42
0.4142135623731
 10
-2295.245634038897
 20
1813.843531229812
 42
0.4142135623731
 10
-2296.245634038897
 20
1812.843531229812
 42
0.4142135623731
 10
-2295.245634038897
 20
1811.843531229813
 42
0.4142135623731
  0
LWPOLYLINE
  5
133
330
1F
100
AcDbEntity
  8
0-B
  6
Continuous
 62
     7
370
     9
100
AcDbPolyline
 90
        4
 70
     1
 43
2.0
 10
-2427.16702881707
 20
1777.227350842182
 42
0.4142135623731
 10
-2428.16702881707
 20
1778.227350842182
 42
0.4142135623731
 10
-2429.16702881707
 20
1777.227350842182
 42
0.4142135623731
 10
-2428.16702881707
 20
1776.227350842182
 42
0.4142135623731
  0
LINE
  5
134
330
1F
100
AcDbEntity
  8
0-B
  6
Continuous
 62
   120
370
     5
100
AcDbLine
 10
-2295.245634038897
 20
1812.843531229812
 30
0.0
 11
-2311.549752582903
 21
1873.691330008671
 31
0.0
  0
LINE
  5
135
330
1F
100
AcDbEntity
  8
0-B
  6
Continuous
 62
   120
370
     5
100
AcDbLine
 10
-2428.16702881707
 20
1777.227350842182
 30
0.0
 11
-2444.471147361076
 21
1838.075149621041
 31
0.0
  0
LINE
  5
136
330
1F
100
AcDbEntity
  8
0-B
  6
Continuous
 62
   120
370
     5
100
AcDbLine
 10
-2601.261523539379
 20
1813.44385196776
 30
0.0
 11
-2467.927807089454
 21
1777.717190321162
 31
0.0
  0
LWPOLYLINE
  5
137
330
1F
100
AcDbEntity
  8
0-B
  6
Continuous
 62
     7
370
     9
100
AcDbPolyline
 90
        4
 70
     1
 43
2.0
 10
-2600.261523539379
 20
1813.44385196776
 42
0.4142135623731
 10
-2601.261523539379
 20
1814.44385196776
 42
0.4142135623731
 10
-2602.261523539379
 20
1813.44385196776
 42
0.4142135623731
 10
-2601.261523539379
 20
1812.44385196776
 42
0.4142135623731
  0
LWPOLYLINE
  5
138
330
1F
100
AcDbEntity
  8
0-B
  6
Continuous
 62
     7
370
     9
100
AcDbPolyline
 90
        4
 70
     1
 43
2.0
 10
-2466.927807089454
 20
1777.717190321162
 42
0.4142135623731
 10
-2467.927807089454
 20
1778.717190321162
 42
0.4142135623731
 10
-2468.927807089454
 20
1777.717190321162
 42
0.4142135623731
 10
-2467.927807089454
 20
1776.717190321162
 42
0.4142135623731
  0
LINE
  5
139
330
1F
100
AcDbEntity
  8
0-B
  6
Continuous
 62
   120
370
     5
100
AcDbLine
 10
-2601.261523539379
 20
1813.44385196776
 30
0.0
 11
-2585.118260452302
 21
1873.691330008671
 31
0.0
  0
LINE
  5
13A
330
1F
100
AcDbEntity
  8
0-B
  6
Continuous
 62
   120
370
     5
100
AcDbLine
 10
-2467.927807089454
 20
1777.717190321162
 30
0.0
 11
-2451.784544002378
 21
1837.964668362074
 31
0.0
  0
LINE
  5
13B
330
1F
100
AcDbEntity
  8
0-0
  6
JWW_HOJO
 62
     7
370
     9
100
AcDbLine
 10
-2589.183301434593
 20
1810.207502108778
 30
0.0
 11
-2591.456640424565
 21
2324.078598757171
 31
0.0
  0
LINE
  5
13C
330
1F
100
AcDbEntity
  8
0-B
  6
Continuous
 62
   120
370
     5
100
AcDbLine
 10
-2446.820630916379
 20
1989.046985400798
 30
0.0
 11
-2238.365215400654
 21
1780.591569885071
 31
0.0
  0
LINE
  5
13D
330
1F
100
AcDbEntity
  8
0-B
  6
Continuous
 62
   120
370
     5
100
AcDbLine
 10
-2238.365215400654
 20
1780.591569885071
 30
0.0
 11
-2160.61451353999
 21
1780.591569885071
 31
0.0
  0
LINE
  5
13E
330
1F
100
AcDbEntity
  8
0-4
  6
Continuous
 62
    92
370
    13
100
AcDbLine
 10
-2622.827183307661
 20
1337.057510689488
 30
0.0
 11
-2622.827183307661
 21
1331.432751777562
 31
0.0
  0
LINE
  5
13F
330
1F
100
AcDbEntity
  8
0-4
  6
Continuous
 62
    92
370
    13
100
AcDbLine
 10
-2581.666929227813
 20
950.3199860298133
 30
0.0
 11
-2588.333595894478
 21
954.1689878244108
 31
0.0
  0
LINE
  5
140
330
1F
100
AcDbEntity
  8
0-4
  6
Continuous
 62
    92
370
    13
100
AcDbLine
 10
-2315.000262561146
 20
950.3199860298133
 30
0.0
 11
-2308.333595894478
 21
954.1689878244108
 31
0.0
  0
LINE
  5
141
330
1F
100
AcDbEntity
  8
0-4
  6
Continuous
 62
    92
370
    13
100
AcDbLine
 10
-2448.333595894478
 20
1252.713211689575
 30
0.0
 11
-2581.666929227813
 21
1216.986652698759
 31
0.0
  0
LINE
  5
142
330
1F
100
AcDbEntity
  8
0-4
  6
Continuous
 62
    92
370
    13
100
AcDbLine
 10
-2588.333595894478
 20
954.1689878244108
 30
0.0
 11
-2588.333595894478
 21
1213.137650891277
 31
0.0
  0
LINE
  5
143
330
1F
100
AcDbEntity
  8
0-4
  6
Continuous
 62
    92
370
    13
100
AcDbLine
 10
-2588.333595894478
 20
1213.137650891277
 30
0.0
 11
-2608.333595894478
 21
1224.68465627507
 31
0.0
  0
LINE
  5
144
330
1F
100
AcDbEntity
  8
0-4
  6
Continuous
 62
    92
370
    13
100
AcDbLine
 10
-2601.666929227813
 20
1228.533658069667
 30
0.0
 11
-2581.666929227813
 21
1216.986652685875
 31
0.0
  0
LINE
  5
145
330
1F
100
AcDbEntity
  8
0-4
  6
Continuous
 62
    92
370
    13
100
AcDbLine
 10
-2581.666929227813
 20
954.1689878244108
 30
0.0
 11
-2581.666929227813
 21
1216.986652698759
 31
0.0
  0
LINE
  5
146
330
1F
100
AcDbEntity
  8
0-4
  6
Continuous
 62
    92
370
    13
100
AcDbLine
 10
-2448.333595894478
 20
1280.411215278562
 30
0.0
 11
-2581.666929227813
 21
1244.684656287747
 31
0.0
  0
LINE
  5
147
330
1F
100
AcDbEntity
  8
0-4
  6
Continuous
 62
    92
370
    13
100
AcDbLine
 10
-2601.666929227813
 20
1228.533658069667
 30
0.0
 11
-2447.449279372322
 21
1269.856152807072
 31
0.0
  0
LINE
  5
148
330
1F
100
AcDbEntity
  8
0-4
  6
Continuous
 62
    92
370
    13
100
AcDbLine
 10
-2601.666929227813
 20
1228.533658069667
 30
0.0
 11
-2601.666929227813
 21
1256.231661671539
 31
0.0
  0
LINE
  5
149
330
1F
100
AcDbEntity
  8
0-4
  6
Continuous
 62
    92
370
    13
100
AcDbLine
 10
-2581.666929227813
 20
1244.684656287747
 30
0.0
 11
-2601.666929227813
 21
1256.231661671539
 31
0.0
  0
LINE
  5
14A
330
1F
100
AcDbEntity
  8
0-4
  6
Continuous
 62
    92
370
    13
100
AcDbLine
 10
-2588.333595894478
 20
1256.231661671539
 30
0.0
 11
-2608.333595894478
 21
1267.778667055331
 31
0.0
  0
LINE
  5
14B
330
1F
100
AcDbEntity
  8
0-4
  6
Continuous
 62
    92
370
    13
100
AcDbLine
 10
-2608.333595894478
 20
1224.68465627507
 30
0.0
 11
-2608.333595894478
 21
1267.778667055331
 31
0.0
  0
LINE
  5
14C
330
1F
100
AcDbEntity
  8
0-4
  6
Continuous
 62
    92
370
    13
100
AcDbLine
 10
-2608.333595894478
 20
1267.778667055331
 30
0.0
 11
-2588.333595894478
 21
1273.137650903953
 31
0.0
  0
LINE
  5
14D
330
1F
100
AcDbEntity
  8
0-4
  6
Continuous
 62
    92
370
    13
100
AcDbLine
 10
-2448.333595894478
 20
1341.046545020629
 30
0.0
 11
-2581.666929227813
 21
1305.319986029814
 31
0.0
  0
LINE
  5
14E
330
1F
100
AcDbEntity
  8
0-4
  6
Continuous
 62
    92
370
    13
100
AcDbLine
 10
-2588.333595894478
 20
1256.231661671539
 30
0.0
 11
-2588.333595894478
 21
1303.533658080273
 31
0.0
  0
LINE
  5
14F
330
1F
100
AcDbEntity
  8
0-4
  6
Continuous
 62
    92
370
    13
100
AcDbLine
 10
-2581.666929227813
 20
1244.684656287747
 30
0.0
 11
-2581.666929227813
 21
1305.319986029814
 31
0.0
  0
LINE
  5
150
330
1F
100
AcDbEntity
  8
0-4
  6
Continuous
 62
    92
370
    13
100
AcDbLine
 10
-2588.333595894478
 20
1303.533658080273
 30
0.0
 11
-2595.248126072304
 21
1315.509975658731
 31
0.0
  0
LINE
  5
151
330
1F
100
AcDbEntity
  8
0-4
  6
Continuous
 62
    92
370
    13
100
AcDbLine
 10
-2581.666929227813
 20
1305.319986029814
 30
0.0
 11
-2588.581459405636
 21
1317.296303608273
 31
0.0
  0
LINE
  5
152
330
1F
100
AcDbEntity
  8
0-4
  6
Continuous
 62
    92
370
    13
100
AcDbLine
 10
-2448.333595894478
 20
1354.875605376278
 30
0.0
 11
-2588.581459405636
 21
1317.296303608273
 31
0.0
  0
LINE
  5
153
330
1F
100
AcDbEntity
  8
0-4
  6
Continuous
 62
    92
370
    13
100
AcDbLine
 10
-2588.581459405636
 20
1317.296303608273
 30
0.0
 11
-2622.822606003042
 21
1337.065438813648
 31
0.0
  0
LINE
  5
154
330
1F
100
AcDbEntity
  8
0-4
  6
Continuous
 62
    92
370
    13
100
AcDbLine
 10
-2595.248126072304
 20
1315.509975658731
 30
0.0
 11
-2622.827183307661
 21
1331.432751777562
 31
0.0
  0
LINE
  5
155
330
1F
100
AcDbEntity
  8
0-4
  6
Continuous
 62
    92
370
    13
100
AcDbLine
 10
-2460.411817999263
 20
982.8101951616492
 30
0.0
 11
-2581.666929227813
 21
950.3199860298133
 31
0.0
  0
LINE
  5
156
330
1F
100
AcDbEntity
  8
0-4
  6
Continuous
 62
    92
370
    13
100
AcDbLine
 10
-2436.255373789695
 20
982.8101951616492
 30
0.0
 11
-2315.000262561146
 21
950.3199860298133
 31
0.0
  0
ARC
  5
157
330
1F
100
AcDbEntity
  8
0-4
  6
Continuous
 62
    92
370
    13
100
AcDbCircle
 10
-2448.333595894478
 20
937.7336566014924
 30
0.0
 40
46.66666666666666
100
AcDbArc
 50
74.99999999999996
 51
105.0
  0
LINE
  5
158
330
1F
100
AcDbEntity
  8
0-4
  6
Continuous
 62
    92
370
    13
100
AcDbLine
 10
-2273.840008481297
 20
1337.057510689488
 30
0.0
 11
-2273.840008481297
 21
1331.432751777562
 31
0.0
  0
LINE
  5
159
330
1F
100
AcDbEntity
  8
0-4
  6
Continuous
 62
    92
370
    13
100
AcDbLine
 10
-2448.333595894478
 20
1252.713211689575
 30
0.0
 11
-2315.000262561146
 21
1216.986652698759
 31
0.0
  0
LINE
  5
15A
330
1F
100
AcDbEntity
  8
0-4
  6
Continuous
 62
    92
370
    13
100
AcDbLine
 10
-2295.000262561146
 20
1228.533658069667
 30
0.0
 11
-2315.000262561146
 21
1216.986652685875
 31
0.0
  0
LINE
  5
15B
330
1F
100
AcDbEntity
  8
0-4
  6
Continuous
 62
    92
370
    13
100
AcDbLine
 10
-2448.333595894478
 20
1280.411215278562
 30
0.0
 11
-2315.000262561146
 21
1244.684656287747
 31
0.0
  0
LINE
  5
15C
330
1F
100
AcDbEntity
  8
0-4
  6
Continuous
 62
    92
370
    13
100
AcDbLine
 10
-2295.000262561146
 20
1228.533658069667
 30
0.0
 11
-2449.217912416634
 21
1269.856152807072
 31
0.0
  0
LINE
  5
15D
330
1F
100
AcDbEntity
  8
0-4
  6
Continuous
 62
    92
370
    13
100
AcDbLine
 10
-2295.000262561146
 20
1228.533658069667
 30
0.0
 11
-2295.000262561146
 21
1256.231661671539
 31
0.0
  0
LINE
  5
15E
330
1F
100
AcDbEntity
  8
0-4
  6
Continuous
 62
    92
370
    13
100
AcDbLine
 10
-2315.000262561146
 20
1244.684656287747
 30
0.0
 11
-2295.000262561146
 21
1256.231661671539
 31
0.0
  0
LINE
  5
15F
330
1F
100
AcDbEntity
  8
0-4
  6
Continuous
 62
    92
370
    13
100
AcDbLine
 10
-2308.333595894478
 20
1256.231661671539
 30
0.0
 11
-2288.333595894478
 21
1267.778667055331
 31
0.0
  0
LINE
  5
160
330
1F
100
AcDbEntity
  8
0-4
  6
Continuous
 62
    92
370
    13
100
AcDbLine
 10
-2288.333595894478
 20
1224.68465627507
 30
0.0
 11
-2288.333595894478
 21
1267.778667055331
 31
0.0
  0
LINE
  5
161
330
1F
100
AcDbEntity
  8
0-4
  6
Continuous
 62
    92
370
    13
100
AcDbLine
 10
-2288.333595894478
 20
1267.778667055331
 30
0.0
 11
-2308.333595894478
 21
1273.137650903953
 31
0.0
  0
LINE
  5
162
330
1F
100
AcDbEntity
  8
0-4
  6
Continuous
 62
    92
370
    13
100
AcDbLine
 10
-2448.333595894478
 20
1341.046545020629
 30
0.0
 11
-2315.000262561146
 21
1305.319986029814
 31
0.0
  0
LINE
  5
163
330
1F
100
AcDbEntity
  8
0-4
  6
Continuous
 62
    92
370
    13
100
AcDbLine
 10
-2308.333595894478
 20
1256.231661671539
 30
0.0
 11
-2308.333595894478
 21
1303.533658080273
 31
0.0
  0
LINE
  5
164
330
1F
100
AcDbEntity
  8
0-4
  6
Continuous
 62
    92
370
    13
100
AcDbLine
 10
-2315.000262561146
 20
1244.684656287747
 30
0.0
 11
-2315.000262561146
 21
1305.319986029814
 31
0.0
  0
LINE
  5
165
330
1F
100
AcDbEntity
  8
0-4
  6
Continuous
 62
    92
370
    13
100
AcDbLine
 10
-2308.333595894478
 20
1303.533658080273
 30
0.0
 11
-2301.419065716655
 21
1315.509975658731
 31
0.0
  0
LINE
  5
166
330
1F
100
AcDbEntity
  8
0-4
  6
Continuous
 62
    92
370
    13
100
AcDbLine
 10
-2315.000262561146
 20
1305.319986029814
 30
0.0
 11
-2308.085732383322
 21
1317.296303608273
 31
0.0
  0
LINE
  5
167
330
1F
100
AcDbEntity
  8
0-4
  6
Continuous
 62
    92
370
    13
100
AcDbLine
 10
-2448.333595894478
 20
1354.875605376278
 30
0.0
 11
-2308.085732383322
 21
1317.296303608273
 31
0.0
  0
LINE
  5
168
330
1F
100
AcDbEntity
  8
0-4
  6
Continuous
 62
    92
370
    13
100
AcDbLine
 10
-2308.085732383322
 20
1317.296303608273
 30
0.0
 11
-2273.844585785914
 21
1337.065438813648
 31
0.0
  0
LINE
  5
169
330
1F
100
AcDbEntity
  8
0-4
  6
Continuous
 62
    92
370
    13
100
AcDbLine
 10
-2301.419065716655
 20
1315.509975658731
 30
0.0
 11
-2273.840008481297
 21
1331.432751777562
 31
0.0
  0
LINE
  5
16A
330
1F
100
AcDbEntity
  8
0-4
  6
Continuous
 62
    92
370
    13
100
AcDbLine
 10
-2308.333595894478
 20
1213.137650891277
 30
0.0
 11
-2308.333595894478
 21
954.1689878244108
 31
0.0
  0
LINE
  5
16B
330
1F
100
AcDbEntity
  8
0-4
  6
Continuous
 62
    92
370
    13
100
AcDbLine
 10
-2308.333595894478
 20
1213.137650891277
 30
0.0
 11
-2288.333595894478
 21
1224.68465627507
 31
0.0
  0
LINE
  5
16C
330
1F
100
AcDbEntity
  8
0-4
  6
Continuous
 62
    92
370
    13
100
AcDbLine
 10
-2315.000262561146
 20
1216.986652698759
 30
0.0
 11
-2315.000262561146
 21
950.3199860298133
 31
0.0
  0
LINE
  5
16D
330
1F
100
AcDbEntity
  8
0-4
  6
Continuous
 62
    92
370
    13
100
AcDbLine
 10
-2478.52915115644
 20
1375.722051873807
 30
0.0
 11
-2622.827183307661
 21
1337.057510689488
 31
0.0
  0
LINE
  5
16E
330
1F
100
AcDbEntity
  8
0-4
  6
Continuous
 62
    92
370
    13
100
AcDbLine
 10
-2418.138040632518
 20
1375.722051873807
 30
0.0
 11
-2273.840008481297
 21
1337.057510689488
 31
0.0
  0
ARC
  5
16F
330
1F
100
AcDbEntity
  8
0-4
  6
Continuous
 62
    92
370
    13
100
AcDbCircle
 10
-2448.333595894478
 20
1263.030705473416
 30
0.0
 40
116.6666666666667
100
AcDbArc
 50
75.00000000000006
 51
104.9999999999999
  0
LINE
  5
170
330
1F
100
AcDbEntity
  8
0-4
  6
Continuous
 62
    92
370
    13
100
AcDbLine
 10
-2448.333595894478
 20
984.4003232681581
 30
0.0
 11
-2448.333595894478
 21
1379.697372140083
 31
0.0
  0
LINE
  5
171
330
1F
100
AcDbEntity
  8
0-0
  6
JWW_HOJO
 62
     7
370
     9
100
AcDbLine
 10
-2273.840008481297
 20
1331.432751777562
 30
0.0
 11
-2273.840008481297
 21
960.1360803825588
 31
0.0
  0
LINE
  5
172
330
1F
100
AcDbEntity
  8
0-0
  6
JWW_HOJO
 62
     7
370
     9
100
AcDbLine
 10
-2599.880601278271
 20
1296.866991413606
 30
0.0
 11
-2606.795131456097
 21
1308.843308992066
 31
0.0
  0
LINE
  5
173
330
1F
100
AcDbEntity
  8
0-0
  6
JWW_HOJO
 62
     7
370
     9
100
AcDbLine
 10
-2448.333595894478
 20
1418.322132534929
 30
0.0
 11
-2631.454484811079
 21
1369.255038232457
 31
0.0
  0
LINE
  5
174
330
1F
100
AcDbEntity
  8
0-0
  6
JWW_HOJO
 62
     7
370
     9
100
AcDbLine
 10
-2240.506675147963
 20
1362.635076955453
 30
0.0
 11
-2240.506675147963
 21
960.1360803825588
 31
0.0
  0
LINE
  5
175
330
1F
100
AcDbEntity
  8
0-0
  6
JWW_HOJO
 62
     7
370
     9
100
AcDbLine
 10
-2448.333595894478
 20
1418.322132534929
 30
0.0
 11
-2240.506675147963
 21
1362.635076955453
 31
0.0
  0
LINE
  5
176
330
1F
100
AcDbEntity
  8
0-0
  6
JWW_HOJO
 62
     7
370
     9
100
AcDbLine
 10
-2185.909346796864
 20
1388.212643221419
 30
0.0
 11
-2185.909346796864
 21
960.1360803825588
 31
0.0
  0
LINE
  5
177
330
1F
100
AcDbEntity
  8
0-B
  6
Continuous
 62
   120
370
     5
100
AcDbLine
 10
-2185.909346796864
 20
954.1689878244108
 30
0.0
 11
-2185.909346796864
 21
1337.060861509029
 31
0.0
  0
LWPOLYLINE
  5
178
330
1F
100
AcDbEntity
  8
0-B
  6
Continuous
 62
     7
370
     9
100
AcDbPolyline
 90
        4
 70
     1
 43
2.0
 10
-2184.909346796864
 20
954.1689878244108
 42
0.4142135623731
 10
-2185.909346796864
 20
955.1689878244108
 42
0.4142135623731
 10
-2186.909346796864
 20
954.1689878244108
 42
0.4142135623731
 10
-2185.909346796864
 20
953.1689878244108
 42
0.4142135623731
  0
LWPOLYLINE
  5
179
330
1F
100
AcDbEntity
  8
0-B
  6
Continuous
 62
     7
370
     9
100
AcDbPolyline
 90
        4
 70
     1
 43
2.0
 10
-2184.909346796864
 20
1337.060861509029
 42
0.4142135623731
 10
-2185.909346796864
 20
1338.060861509029
 42
0.4142135623731
 10
-2186.909346796864
 20
1337.060861509029
 42
0.4142135623731
 10
-2185.909346796864
 20
1336.060861509029
 42
0.4142135623731
  0
LINE
  5
17A
330
1F
100
AcDbEntity
  8
0-B
  6
Continuous
 62
   120
370
     5
100
AcDbLine
 10
-2185.909346796864
 20
954.1689878244108
 30
0.0
 11
-2240.506675147963
 21
954.1689878244108
 31
0.0
  0
LINE
  5
17B
330
1F
100
AcDbEntity
  8
0-B
  6
Continuous
 62
   120
370
     5
100
AcDbLine
 10
-2185.909346796864
 20
1337.060861509029
 30
0.0
 11
-2240.506675147963
 21
1337.060861509029
 31
0.0
  0
LINE
  5
17C
330
1F
100
AcDbEntity
  8
0-B
  6
Continuous
 62
   120
370
     5
100
AcDbLine
 10
-2649.04653109676
 20
1434.934459637278
 30
0.0
 11
-2475.58808499326
 21
1481.412510191068
 31
0.0
  0
LWPOLYLINE
  5
17D
330
1F
100
AcDbEntity
  8
0-B
  6
Continuous
 62
     7
370
     9
100
AcDbPolyline
 90
        4
 70
     1
 43
2.0
 10
-2648.04653109676
 20
1434.934459637278
 42
0.4142135623731
 10
-2649.04653109676
 20
1435.934459637278
 42
0.4142135623731
 10
-2650.04653109676
 20
1434.934459637278
 42
0.4142135623731
 10
-2649.04653109676
 20
1433.934459637278
 42
0.4142135623731
  0
LWPOLYLINE
  5
17E
330
1F
100
AcDbEntity
  8
0-B
  6
Continuous
 62
     7
370
     9
100
AcDbPolyline
 90
        4
 70
     1
 43
2.0
 10
-2474.58808499326
 20
1481.412510191068
 42
0.4142135623731
 10
-2475.58808499326
 20
1482.412510191068
 42
0.4142135623731
 10
-2476.58808499326
 20
1481.412510191068
 42
0.4142135623731
 10
-2475.58808499326
 20
1480.412510191068
 42
0.4142135623731
  0
LINE
  5
17F
330
1F
100
AcDbEntity
  8
0-B
  6
Continuous
 62
   120
370
     5
100
AcDbLine
 10
-2649.04653109676
 20
1434.934459637278
 30
0.0
 11
-2631.448232096691
 21
1369.256713642228
 31
0.0
  0
LINE
  5
180
330
1F
100
AcDbEntity
  8
0-B
  6
Continuous
 62
   120
370
     5
100
AcDbLine
 10
-2475.58808499326
 20
1481.412510191068
 30
0.0
 11
-2457.989785993191
 21
1415.734764196018
 31
0.0
  0
LINE
  5
181
330
1F
100
AcDbEntity
  8
0-B
  6
Continuous
 62
   120
370
     5
100
AcDbLine
 10
-2420.651187999936
 20
1483.009524878365
 30
0.0
 11
-2247.198994610824
 21
1436.533149734347
 31
0.0
  0
LWPOLYLINE
  5
182
330
1F
100
AcDbEntity
  8
0-B
  6
Continuous
 62
     7
370
     9
100
AcDbPolyline
 90
        4
 70
     1
 43
2.0
 10
-2419.651187999936
 20
1483.009524878365
 42
0.4142135623731
 10
-2420.651187999936
 20
1484.009524878365
 42
0.4142135623731
 10
-2421.651187999936
 20
1483.009524878365
 42
0.4142135623731
 10
-2420.651187999936
 20
1482.009524878365
 42
0.4142135623731
  0
LWPOLYLINE
  5
183
330
1F
100
AcDbEntity
  8
0-B
  6
Continuous
 62
     7
370
     9
100
AcDbPolyline
 90
        4
 70
     1
 43
2.0
 10
-2246.198994610824
 20
1436.533149734347
 42
0.4142135623731
 10
-2247.198994610824
 20
1437.533149734347
 42
0.4142135623731
 10
-2248.198994610824
 20
1436.533149734347
 42
0.4142135623731
 10
-2247.198994610824
 20
1435.533149734347
 42
0.4142135623731
  0
LINE
  5
184
330
1F
100
AcDbEntity
  8
0-B
  6
Continuous
 62
   120
370
     5
100
AcDbLine
 10
-2420.651187999936
 20
1483.009524878365
 30
0.0
 11
-2438.677405795768
 21
1415.734764196018
 31
0.0
  0
LINE
  5
185
330
1F
100
AcDbEntity
  8
0-B
  6
Continuous
 62
   120
370
     5
100
AcDbLine
 10
-2247.198994610824
 20
1436.533149734347
 30
0.0
 11
-2265.225212406658
 21
1369.258389051998
 31
0.0
  0
LINE
  5
186
330
1F
100
AcDbEntity
  8
0-0
  6
JWW_HOJO
 62
     7
370
     9
100
AcDbLine
 10
-2627.227186537486
 20
1281.721512060354
 30
0.0
 11
-2634.141716715309
 21
1293.697829638813
 31
0.0
  0
LINE
  5
187
330
1F
100
AcDbEntity
  8
0-B
  6
Continuous
 62
   120
370
     5
100
AcDbLine
 10
-2634.14171671531
 20
1293.697829638813
 30
0.0
 11
-2627.227186537486
 21
1281.721512060354
 31
0.0
  0
LWPOLYLINE
  5
188
330
1F
100
AcDbEntity
  8
0-B
  6
Continuous
 62
     7
370
     9
100
AcDbPolyline
 90
        4
 70
     1
 43
2.0
 10
-2633.141716715309
 20
1293.697829638813
 42
0.4142135623731
 10
-2634.14171671531
 20
1294.697829638813
 42
0.4142135623731
 10
-2635.14171671531
 20
1293.697829638813
 42
0.4142135623731
 10
-2634.14171671531
 20
1292.697829638813
 42
0.4142135623731
  0
LWPOLYLINE
  5
189
330
1F
100
AcDbEntity
  8
0-B
  6
Continuous
 62
     7
370
     9
100
AcDbPolyline
 90
        4
 70
     1
 43
2.0
 10
-2626.227186537486
 20
1281.721512060354
 42
0.4142135623731
 10
-2627.227186537486
 20
1282.721512060354
 42
0.4142135623731
 10
-2628.227186537487
 20
1281.721512060354
 42
0.4142135623731
 10
-2627.227186537486
 20
1280.721512060354
 42
0.4142135623731
  0
LINE
  5
18A
330
1F
100
AcDbEntity
  8
0-B
  6
Continuous
 62
   120
370
     5
100
AcDbLine
 10
-2634.14171671531
 20
1293.697829638813
 30
0.0
 11
-2606.795131456097
 21
1308.843308992066
 31
0.0
  0
LINE
  5
18B
330
1F
100
AcDbEntity
  8
0-B
  6
Continuous
 62
   120
370
     5
100
AcDbLine
 10
-2627.227186537486
 20
1281.721512060354
 30
0.0
 11
-2599.880601278271
 21
1296.866991413606
 31
0.0
  0
LINE
  5
18C
330
1F
100
AcDbEntity
  8
0-B
  6
Continuous
 62
   120
370
     5
100
AcDbLine
 10
-2446.99318283602
 20
1172.831600742758
 30
0.0
 11
-2538.589633467304
 21
1081.235150111472
 31
0.0
  0
LINE
  5
18D
330
1F
100
AcDbEntity
  8
0-B
  6
Continuous
 62
   120
370
     5
100
AcDbLine
 10
-2538.589633467304
 20
1081.235150111472
 30
0.0
 11
-2669.700193784849
 21
1081.235150111472
 31
0.0
  0
MTEXT
  5
18E
330
1F
100
AcDbEntity
  8
0-A
  6
Continuous
 62
     7
370
     9
100
AcDbMText
 10
-293.3334680505692
 20
2384.110304591779
 30
0.0
 40
45.72
 41
60.0
 46
0.0
 71
     7
 72
     1
  1
{\fＭＳ ゴシック|b0|i0|c128|p49;10}
 73
     1
 44
1.0
  0
MTEXT
  5
18F
330
1F
100
AcDbEntity
  8
0-A
  6
Continuous
 62
     7
370
     9
100
AcDbMText
 10
-293.3334680505692
 20
1550.776917925111
 30
0.0
 40
45.72
 41
60.0
 46
0.0
 71
     7
 72
     1
  1
{\fＭＳ ゴシック|b0|i0|c128|p49;20}
 73
     1
 44
1.0
  0
LINE
  5
190
330
1F
100
AcDbEntity
  8
0-A
  6
JWW_HOJO
 62
   120
370
     5
100
AcDbLine
 10
-3293.333352578653
 20
1506.666921258445
 30
0.0
 11
-3999.999835040119
 21
1506.666921258445
 31
0.0
  0
LINE
  5
191
330
1F
100
AcDbEntity
  8
0-A
  6
JWW_HOJO
 62
   120
370
     5
100
AcDbLine
 10
-3293.333352578653
 20
1640.000254591779
 30
0.0
 11
-3999.999835040119
 21
1640.000254591779
 31
0.0
  0
LINE
  5
192
330
1F
100
AcDbEntity
  8
0-A
  6
JWW_HOJO
 62
   120
370
     5
100
AcDbLine
 10
-3293.333352578653
 20
1773.333587925113
 30
0.0
 11
-3999.999835040119
 21
1773.333587925113
 31
0.0
  0
MTEXT
  5
193
330
1F
100
AcDbEntity
  8
0-A
  6
Continuous
 62
     7
370
     9
100
AcDbMText
 10
-3966.666593809384
 20
1590.480254591779
 30
0.0
 40
60.96
 41
640.0
 46
0.0
 71
     7
 72
     1
  1
{\fＭＳ ゴシック|b0|i0|c128|p49;コーナーキャップ}
 73
     1
 44
1.0
  0
MTEXT
  5
194
330
1F
100
AcDbEntity
  8
0-A
  6
Continuous
 62
     7
370
     9
100
AcDbMText
 10
-3806.666593809384
 20
1457.146921258445
 30
0.0
 40
60.96
 41
320.0
 46
0.0
 71
     7
 72
     1
  1
{\fＭＳ ゴシック|b0|i0|c128|p49;Ａ型対応}
 73
     1
 44
1.0
  0
MTEXT
  5
195
330
1F
100
AcDbEntity
  8
0-A
  6
Continuous
 62
     7
370
     9
100
AcDbMText
 10
-3766.666593809384
 20
1723.813587925113
 30
0.0
 40
60.96
 41
240.0
 46
0.0
 71
     7
 72
     1
  1
{\fＭＳ ゴシック|b0|i0|c128|p49;巾木・}
 73
     1
 44
1.0
  0
MTEXT
  5
196
330
1F
100
AcDbEntity
  8
0-A
  6
Continuous
 62
     7
370
     9
100
AcDbMText
 10
-1483.333220610748
 20
2384.110304591779
 30
0.0
 40
45.71999999999998
 41
360.0
 46
0.0
 71
     7
 72
     1
  1
{\fＭＳ ゴシック|b0|i0|c128|p49;25×25×10.5}
 73
     1
 44
1.0
  0
MTEXT
  5
197
330
1F
100
AcDbEntity
  8
0-A
  6
Continuous
 62
     7
370
     9
100
AcDbMText
 10
-1820.336352523387
 20
1662.040994631898
 30
0.0
 40
45.72
 41
150.0
 46
0.0
 71
     7
 72
     1
  1
{\fＭＳ ゴシック|b0|i0|c128|p49;S=1/3}
 73
     1
 44
1.0
  0
MTEXT
  5
198
330
1F
100
AcDbEntity
  8
0-A
  6
Continuous
 62
     7
370
     9
100
AcDbMText
 10
-1543.333220610748
 20
1550.776917925111
 30
0.0
 40
45.71999999999998
 41
480.0
 46
0.0
 71
     7
 72
     1
  1
{\fＭＳ ゴシック|b0|i0|c128|p49;30.5×30.5×10.5}
 73
     1
 44
1.0
  0
MTEXT
  5
199
330
1F
100
AcDbEntity
  8
0-A
  6
Continuous
 62
     7
370
     9
100
AcDbMText
 10
-1820.336352523387
 20
828.7076079652303
 30
0.0
 40
45.72
 41
150.0
 46
0.0
 71
     7
 72
     1
  1
{\fＭＳ ゴシック|b0|i0|c128|p49;S=1/3}
 73
     1
 44
1.0
  0
MTEXT
  5
19A
330
1F
100
AcDbEntity
  8
0-B
  6
Continuous
 62
     7
370
   211
100
AcDbMText
 10
-2690.097780932057
 20
2313.297092739276
 30
0.0
 40
45.72
 41
120.0
 46
0.0
 71
     7
 72
     1
  1
{\fＭＳ ゴシック|b0|i0|c128|p49;10.5}
 73
     1
 44
1.0
  0
MTEXT
  5
19B
330
1F
100
AcDbEntity
  8
0-B
  6
Continuous
 62
     7
370
   211
100
AcDbMText
 10
-2291.947990734141
 20
2270.08665314403
 30
0.0
 40
45.72
 41
30.0
 46
0.0
 71
     7
 72
     1
  1
{\fＭＳ ゴシック|b0|i0|c128|p49;4}
 73
     1
 44
1.0
  0
MTEXT
  5
19C
330
1F
100
AcDbEntity
  8
0-B
  6
Continuous
 62
     7
370
     9
100
AcDbMText
 10
-2221.903928301397
 20
1774.662680641241
 30
0.0
 40
45.72
 41
60.0
 46
0.0
 71
     7
 72
     1
  1
{\fＭＳ ゴシック|b0|i0|c128|p49;3R}
 73
     1
 44
1.0
  0
MTEXT
  5
19D
330
1F
100
AcDbEntity
  8
0-B
  6
Continuous
 62
     7
370
   211
100
AcDbMText
 10
-2579.10158280924
 20
1738.249542920193
 30
0.0
 40
45.71999999999972
 41
59.99999999999964
 46
0.0
 71
     7
 72
     1
  1
{\fＭＳ ゴシック|b0|i0|c128|p49;25}
 11
0.9659258262890623
 21
-0.258819045102543
 31
0.0
 73
     1
 44
1.0
  0
MTEXT
  5
19E
330
1F
100
AcDbEntity
  8
0-B
  6
Continuous
 62
     7
370
   211
100
AcDbMText
 10
-2375.154963510503
 20
1722.175320105579
 30
0.0
 40
45.7199999999995
 41
59.99999999999935
 46
0.0
 71
     7
 72
     1
  1
{\fＭＳ ゴシック|b0|i0|c128|p49;25}
 11
0.9659258262890671
 21
0.2588190451025251
 31
0.0
 73
     1
 44
1.0
  0
MTEXT
  5
19F
330
1F
100
AcDbEntity
  8
0-B
  6
Continuous
 62
     7
370
   211
100
AcDbMText
 10
-2396.394402524221
 20
1470.889615706471
 30
0.0
 40
45.7199999999995
 41
119.9999999999987
 46
0.0
 71
     7
 72
     1
  1
{\fＭＳ ゴシック|b0|i0|c128|p49;30.5}
 11
0.9659258262890672
 21
-0.258819045102525
 31
0.0
 73
     1
 44
1.0
  0
MTEXT
  5
1A0
330
1F
100
AcDbEntity
  8
0-B
  6
Continuous
 62
     7
370
   211
100
AcDbMText
 10
-2626.463628711028
 20
1435.229945770431
 30
0.0
 40
45.7199999999995
 41
119.9999999999987
 46
0.0
 71
     7
 72
     1
  1
{\fＭＳ ゴシック|b0|i0|c128|p49;30.5}
 11
0.9659258262890671
 21
0.2588190451025251
 31
0.0
 73
     1
 44
1.0
  0
MTEXT
  5
1A1
330
1F
100
AcDbEntity
  8
0-B
  6
Continuous
 62
     7
370
   211
100
AcDbMText
 10
-2664.210075360876
 20
1243.444765941404
 30
0.0
 40
45.72
 41
30.0
 46
0.0
 71
     7
 72
     1
  1
{\fＭＳ ゴシック|b0|i0|c128|p49;4}
 73
     1
 44
1.0
  0
MTEXT
  5
1A2
330
1F
100
AcDbEntity
  8
0-B
  6
Continuous
 62
     7
370
     9
100
AcDbMText
 10
-2668.410779023444
 20
1075.322462886099
 30
0.0
 40
45.72
 41
60.0
 46
0.0
 71
     7
 72
     1
  1
{\fＭＳ ゴシック|b0|i0|c128|p49;3R}
 73
     1
 44
1.0
  0
LINE
  5
1A3
330
1F
100
AcDbEntity
  8
F-1
  6
Continuous
 62
     7
370
     9
100
AcDbLine
 10
-3293.333352578653
 20
1640.000254591779
 30
0.0
 11
-103.3338392103036
 21
1640.000254591779
 31
0.0
  0
MTEXT
  5
1A4
330
1F
100
AcDbEntity
  8
0-B
  6
Continuous
 62
     7
370
   211
100
AcDbMText
 10
-2193.553502425027
 20
2040.324697174955
 30
0.0
 40
45.72
 41
120.0
 46
0.0
 71
     7
 72
     1
  1
{\fＭＳ ゴシック|b0|i0|c128|p49;64.5}
 73
     1
 44
1.0
  0
MTEXT
  5
1A5
330
1F
100
AcDbEntity
  8
0-B
  6
Continuous
 62
     7
370
   211
100
AcDbMText
 10
-2169.505564182293
 20
1129.112724049666
 30
0.0
 40
45.72
 41
120.0
 46
0.0
 71
     7
 72
     1
  1
{\fＭＳ ゴシック|b0|i0|c128|p49;64.5}
 73
     1
 44
1.0
  0
MTEXT
  5
1A6
330
1F
100
AcDbEntity
  8
0-A
  6
Continuous
 62
     7
370
     9
100
AcDbMText
 10
3603.332898938979
 20
2384.110304591779
 30
0.0
 40
45.72
 41
60.0
 46
0.0
 71
     7
 72
     1
  1
{\fＭＳ ゴシック|b0|i0|c128|p49;10}
 73
     1
 44
1.0
  0
MTEXT
  5
1A7
330
1F
100
AcDbEntity
  8
0-A
  6
Continuous
 62
     7
370
     9
100
AcDbMText
 10
3603.332898938979
 20
1550.776917925112
 30
0.0
 40
45.72
 41
60.0
 46
0.0
 71
     7
 72
     1
  1
{\fＭＳ ゴシック|b0|i0|c128|p49;20}
 73
     1
 44
1.0
  0
LINE
  5
1A8
330
1F
100
AcDbEntity
  8
0-A
  6
JWW_HOJO
 62
   120
370
     5
100
AcDbLine
 10
603.3330144108953
 20
1506.666921258445
 30
0.0
 11
-103.3334680505703
 21
1506.666921258445
 31
0.0
  0
LINE
  5
1A9
330
1F
100
AcDbEntity
  8
0-A
  6
JWW_HOJO
 62
   120
370
     5
100
AcDbLine
 10
603.3330144108953
 20
1640.000254591779
 30
0.0
 11
-103.3334680505703
 21
1640.000254591779
 31
0.0
  0
LINE
  5
1AA
330
1F
100
AcDbEntity
  8
0-A
  6
JWW_HOJO
 62
   120
370
     5
100
AcDbLine
 10
603.3330144108953
 20
1773.333587925112
 30
0.0
 11
-103.3334680505703
 21
1773.333587925112
 31
0.0
  0
MTEXT
  5
1AB
330
1F
100
AcDbEntity
  8
0-A
  6
Continuous
 62
     7
370
     9
100
AcDbMText
 10
-70.0002268198358
 20
1590.480254591779
 30
0.0
 40
60.96
 41
640.0
 46
0.0
 71
     7
 72
     1
  1
{\fＭＳ ゴシック|b0|i0|c128|p49;コーナーキャップ}
 73
     1
 44
1.0
  0
MTEXT
  5
1AC
330
1F
100
AcDbEntity
  8
0-A
  6
Continuous
 62
     7
370
     9
100
AcDbMText
 10
129.9997731801642
 20
1723.813587925112
 30
0.0
 40
60.96
 41
240.0
 46
0.0
 71
     7
 72
     1
  1
{\fＭＳ ゴシック|b0|i0|c128|p49;巾木・}
 73
     1
 44
1.0
  0
LINE
  5
1AD
330
1F
100
AcDbEntity
  8
1-B
  6
Continuous
 62
    92
370
    13
100
AcDbLine
 10
1480.152576248463
 20
2022.901951959586
 30
0.0
 11
1494.294711872195
 21
2014.736986150308
 31
0.0
  0
LINE
  5
1AE
330
1F
100
AcDbEntity
  8
1-B
  6
Continuous
 62
    92
370
    13
100
AcDbLine
 10
1416.512965941675
 20
2022.901951959586
 30
0.0
 11
1402.370830317944
 21
2014.736986150309
 31
0.0
  0
LINE
  5
1AF
330
1F
100
AcDbEntity
  8
1-B
  6
Continuous
 62
    92
370
    13
100
AcDbLine
 10
1335.195686105222
 20
2069.850505362931
 30
0.0
 11
1437.726169377272
 21
2010.65450324567
 31
0.0
  0
LINE
  5
1B0
330
1F
100
AcDbEntity
  8
1-B
  6
Continuous
 62
    92
370
    13
100
AcDbLine
 10
1437.726169377272
 20
2010.65450324567
 30
0.0
 11
1458.939372812868
 21
2010.65450324567
 31
0.0
  0
LINE
  5
1B1
330
1F
100
AcDbEntity
  8
1-B
  6
Continuous
 62
    92
370
    13
100
AcDbLine
 10
1561.469856084918
 20
2069.850505362931
 30
0.0
 11
1458.939372812868
 21
2010.65450324567
 31
0.0
  0
LINE
  5
1B2
330
1F
100
AcDbEntity
  8
1-B
  6
Continuous
 62
    92
370
    13
100
AcDbLine
 10
1579.147525614581
 20
2075.974229719889
 30
0.0
 11
1561.469856084918
 21
2086.180436981485
 31
0.0
  0
LINE
  5
1B3
330
1F
100
AcDbEntity
  8
1-B
  6
Continuous
 62
    92
370
    13
100
AcDbLine
 10
1335.195686105222
 20
2086.180436981484
 30
0.0
 11
1317.518016575559
 21
2075.974229719888
 31
0.0
  0
LINE
  5
1B4
330
1F
100
AcDbEntity
  8
1-B
  6
Continuous
 62
    92
370
    13
100
AcDbLine
 10
1561.469856084918
 20
2091.079416467052
 30
0.0
 11
1561.469856084918
 21
2069.850505362931
 31
0.0
  0
LINE
  5
1B5
330
1F
100
AcDbEntity
  8
1-B
  6
Continuous
 62
    92
370
    13
100
AcDbLine
 10
1335.195686105222
 20
2069.850505362931
 30
0.0
 11
1335.195686105222
 21
2091.079416467051
 31
0.0
  0
LINE
  5
1B6
330
1F
100
AcDbEntity
  8
1-B
  6
Continuous
 62
    92
370
    13
100
AcDbLine
 10
1450.832771095069
 20
2110.485716920436
 30
0.0
 11
1575.61199170865
 21
2182.527033530957
 31
0.0
  0
LINE
  5
1B7
330
1F
100
AcDbEntity
  8
1-B
  6
Continuous
 62
    92
370
    13
100
AcDbLine
 10
1321.053550481491
 20
1925.330610538724
 30
0.0
 11
1321.053550481491
 21
2061.685539553653
 31
0.0
  0
LINE
  5
1B8
330
1F
100
AcDbEntity
  8
1-B
  6
Continuous
 62
    92
370
    13
100
AcDbLine
 10
1575.61199170865
 20
1925.330610538724
 30
0.0
 11
1575.61199170865
 21
2061.685539553653
 31
0.0
  0
LINE
  5
1B9
330
1F
100
AcDbEntity
  8
1-B
  6
Continuous
 62
    92
370
    13
100
AcDbLine
 10
1575.61199170865
 20
2060.052546391799
 30
0.0
 11
1459.96346689208
 21
1993.282839457568
 31
0.0
  0
LINE
  5
1BA
330
1F
100
AcDbEntity
  8
1-B
  6
Continuous
 62
    92
370
    13
100
AcDbLine
 10
1455.83277109507
 20
2031.722810173611
 30
0.0
 11
1579.147525614581
 21
2102.918616890504
 31
0.0
  0
LINE
  5
1BB
330
1F
100
AcDbEntity
  8
1-B
  6
Continuous
 62
    92
370
    13
100
AcDbLine
 10
1455.832771095068
 20
2030.089817011756
 30
0.0
 11
1578.518986253526
 21
2100.922736359348
 31
0.0
  0
LINE
  5
1BC
330
1F
100
AcDbEntity
  8
1-B
  6
Continuous
 62
    92
370
    13
100
AcDbLine
 10
1579.147525614581
 20
2102.918616890504
 30
0.0
 11
1578.518986253526
 21
2100.922736359348
 31
0.0
  0
LINE
  5
1BD
330
1F
100
AcDbEntity
  8
1-B
  6
Continuous
 62
    92
370
    13
100
AcDbLine
 10
1579.147525614581
 20
2181.506412804798
 30
0.0
 11
1579.147525614581
 21
2102.918616890504
 31
0.0
  0
LINE
  5
1BE
330
1F
100
AcDbEntity
  8
1-B
  6
Continuous
 62
    92
370
    13
100
AcDbLine
 10
1579.147525614581
 20
2181.506412804798
 30
0.0
 11
1575.61199170865
 21
2170.279584817042
 31
0.0
  0
LINE
  5
1BF
330
1F
100
AcDbEntity
  8
1-B
  6
Continuous
 62
    92
370
    13
100
AcDbLine
 10
1524.700303463217
 20
2211.920910444356
 30
0.0
 11
1448.33277109507
 21
2167.830095074258
 31
0.0
  0
LINE
  5
1C0
330
1F
100
AcDbEntity
  8
1-B
  6
Continuous
 62
    92
370
    13
100
AcDbLine
 10
1321.053550481491
 20
2060.052546391799
 30
0.0
 11
1436.702075298061
 21
1993.282839457568
 31
0.0
  0
LINE
  5
1C1
330
1F
100
AcDbEntity
  8
1-B
  6
Continuous
 62
    92
370
    13
100
AcDbLine
 10
1437.726169377272
 20
1994.324571627116
 30
0.0
 11
1321.053550481492
 21
2061.685539553652
 31
0.0
  0
LINE
  5
1C2
330
1F
100
AcDbEntity
  8
1-B
  6
Continuous
 62
    92
370
    13
100
AcDbLine
 10
1440.832771095068
 20
2030.089817011756
 30
0.0
 11
1318.146555936612
 21
2100.922736359348
 31
0.0
  0
LINE
  5
1C3
330
1F
100
AcDbEntity
  8
1-B
  6
Continuous
 62
    92
370
    13
100
AcDbLine
 10
1440.83277109507
 20
2031.722810173612
 30
0.0
 11
1317.518016575559
 21
2102.918616890504
 31
0.0
  0
LINE
  5
1C4
330
1F
100
AcDbEntity
  8
1-B
  6
Continuous
 62
    92
370
    13
100
AcDbLine
 10
1448.33277109507
 20
2167.830095074258
 30
0.0
 11
1371.965238726921
 21
2211.920910444356
 31
0.0
  0
LINE
  5
1C5
330
1F
100
AcDbEntity
  8
1-B
  6
Continuous
 62
    92
370
    13
100
AcDbLine
 10
1317.518016575557
 20
2102.918616890503
 30
0.0
 11
1318.146555936612
 21
2100.922736359348
 31
0.0
  0
LINE
  5
1C6
330
1F
100
AcDbEntity
  8
1-B
  6
Continuous
 62
    92
370
    13
100
AcDbLine
 10
1321.053550481491
 20
2182.527033530957
 30
0.0
 11
1317.518016575559
 21
2181.506412804798
 31
0.0
  0
LINE
  5
1C7
330
1F
100
AcDbEntity
  8
1-B
  6
Continuous
 62
    92
370
    13
100
AcDbLine
 10
1317.518016575559
 20
2102.918616890504
 30
0.0
 11
1317.518016575559
 21
2181.506412804798
 31
0.0
  0
LINE
  5
1C8
330
1F
100
AcDbEntity
  8
1-B
  6
Continuous
 62
    92
370
    13
100
AcDbLine
 10
1445.83277109507
 20
2110.485716920436
 30
0.0
 11
1321.053550481491
 21
2182.527033530957
 31
0.0
  0
LINE
  5
1C9
330
1F
100
AcDbEntity
  8
1-B
  6
Continuous
 62
    92
370
    13
100
AcDbLine
 10
1317.518016575559
 20
2181.506412804798
 30
0.0
 11
1321.053550481491
 21
2170.279584817041
 31
0.0
  0
LINE
  5
1CA
330
1F
100
AcDbEntity
  8
1-B
  6
Continuous
 62
    92
370
    13
100
AcDbLine
 10
1528.235837369148
 20
2210.900289718196
 30
0.0
 11
1524.700303463217
 21
2211.920910444355
 31
0.0
  0
LINE
  5
1CB
330
1F
100
AcDbEntity
  8
1-B
  6
Continuous
 62
    92
370
    13
100
AcDbLine
 10
1579.147525614581
 20
2181.506412804798
 30
0.0
 11
1528.235837369148
 21
2210.900289718196
 31
0.0
  0
LINE
  5
1CC
330
1F
100
AcDbEntity
  8
1-B
  6
Continuous
 62
    92
370
    13
100
AcDbLine
 10
1368.429704820989
 20
2210.900289718196
 30
0.0
 11
1371.965238726921
 21
2211.920910444356
 31
0.0
  0
LINE
  5
1CD
330
1F
100
AcDbEntity
  8
1-B
  6
Continuous
 62
    92
370
    13
100
AcDbLine
 10
1368.429704820989
 20
2210.900289718196
 30
0.0
 11
1317.518016575559
 21
2181.506412804797
 31
0.0
  0
LINE
  5
1CE
330
1F
100
AcDbEntity
  8
1-B
  6
Continuous
 62
    92
370
    13
100
AcDbLine
 10
1575.61199170865
 20
2182.527033530957
 30
0.0
 11
1524.700303463217
 21
2211.920910444355
 31
0.0
  0
LINE
  5
1CF
330
1F
100
AcDbEntity
  8
1-B
  6
Continuous
 62
    92
370
    13
100
AcDbLine
 10
1371.965238726921
 20
2211.920910444355
 30
0.0
 11
1321.053550481491
 21
2182.527033530957
 31
0.0
  0
LINE
  5
1D0
330
1F
100
AcDbEntity
  8
1-B
  6
Continuous
 62
    92
370
    13
100
AcDbLine
 10
1450.832771095069
 20
2110.485716920436
 30
0.0
 11
1458.939372812868
 21
2102.918616890504
 31
0.0
  0
LINE
  5
1D1
330
1F
100
AcDbEntity
  8
1-B
  6
Continuous
 62
    92
370
    13
100
AcDbLine
 10
1445.83277109507
 20
2110.485716920436
 30
0.0
 11
1437.726169377272
 21
2102.918616890504
 31
0.0
  0
ARC
  5
1D2
330
1F
100
AcDbEntity
  8
1-B
  6
Continuous
 62
    92
370
    13
100
AcDbCircle
 10
1448.33277109507
 20
2114.815843939358
 30
0.0
 40
5.0
100
AcDbArc
 50
240.0
 51
300.0000000000001
  0
LINE
  5
1D3
330
1F
100
AcDbEntity
  8
1-B
  6
Continuous
 62
    92
370
    13
100
AcDbLine
 10
1458.939372812868
 20
2033.516407511647
 30
0.0
 11
1458.939372812868
 21
2102.918616890504
 31
0.0
  0
LINE
  5
1D4
330
1F
100
AcDbEntity
  8
1-B
  6
Continuous
 62
    92
370
    13
100
AcDbLine
 10
1437.726169377272
 20
2033.516407511647
 30
0.0
 11
1437.726169377272
 21
2102.918616890503
 31
0.0
  0
ARC
  5
1D5
330
1F
100
AcDbEntity
  8
1-B
  6
Continuous
 62
    92
370
    13
100
AcDbCircle
 10
1448.332771095068
 20
2043.080198068523
 30
0.0
 40
15.0
100
AcDbArc
 50
239.9999999999997
 51
299.9999999999998
  0
ARC
  5
1D6
330
1F
100
AcDbEntity
  8
1-B
  6
Continuous
 62
    92
370
    13
100
AcDbCircle
 10
1448.33277109507
 20
2044.713191230378
 30
0.0
 40
15.0
100
AcDbArc
 50
240.0
 51
300.0000000000001
  0
ELLIPSE
  5
1D7
330
1F
100
AcDbEntity
  8
1-B
  6
Continuous
 62
    92
370
    13
100
AcDbEllipse
 10
1448.33277109507
 20
2039.568013509238
 30
0.0
 11
-15.0
 21
1.836909530733566E-15
 31
0.0
210
0.0
220
0.0
230
1.0
 40
0.5773502691896258
 41
2.244724117838078
 42
2.356194490192344
  0
LINE
  5
1D8
330
1F
100
AcDbEntity
  8
1-B
  6
Continuous
 62
    92
370
    13
100
AcDbLine
 10
1437.726169377272
 20
1857.969642612186
 30
0.0
 11
1437.726169377272
 21
1992.759646892223
 31
0.0
  0
LINE
  5
1D9
330
1F
100
AcDbEntity
  8
1-B
  6
Continuous
 62
    92
370
    13
100
AcDbLine
 10
1458.939372812868
 20
1857.969642612186
 30
0.0
 11
1458.939372812868
 21
1992.759646892223
 31
0.0
  0
ELLIPSE
  5
1DA
330
1F
100
AcDbEntity
  8
1-B
  6
Continuous
 62
    92
370
    13
100
AcDbEllipse
 10
1448.33277109507
 20
2000.448295984073
 30
0.0
 11
-16.414213562
 21
2.010095022102264E-15
 31
0.0
210
0.0
220
0.0
230
1.0
 40
0.6137648667595902
 41
0.7853981633974483
 42
2.356194490192345
  0
ELLIPSE
  5
1DB
330
1F
100
AcDbEntity
  8
1-B
  6
Continuous
 62
    92
370
    13
100
AcDbEllipse
 10
1448.33277109507
 20
2000.448295984073
 30
0.0
 11
-15.0
 21
1.836909530733566E-15
 31
0.0
210
0.0
220
0.0
230
1.0
 40
0.5773502691896258
 41
0.7853981633974483
 42
2.356194490192344
  0
LINE
  5
1DC
330
1F
100
AcDbEntity
  8
1-B
  6
Continuous
 62
    92
370
    13
100
AcDbLine
 10
1575.61199170865
 20
2060.052546391799
 30
0.0
 11
1579.147525614581
 21
2074.341236555908
 31
0.0
  0
LINE
  5
1DD
330
1F
100
AcDbEntity
  8
1-B
  6
Continuous
 62
    92
370
    13
100
AcDbLine
 10
1321.053550481491
 20
2060.052546391798
 30
0.0
 11
1317.518016575559
 21
2074.341236555906
 31
0.0
  0
ELLIPSE
  5
1DE
330
1F
100
AcDbEntity
  8
1-B
  6
Continuous
 62
    92
370
    13
100
AcDbEllipse
 10
1448.33277109507
 20
2109.042341247462
 30
0.0
 11
-15.0
 21
1.836909530733566E-15
 31
0.0
210
0.0
220
0.0
230
1.0
 40
0.5773502691896258
 41
0.7853981633974483
 42
2.356194490192344
  0
LINE
  5
1DF
330
1F
100
AcDbEntity
  8
1-B
  6
Continuous
 62
    92
370
    13
100
AcDbLine
 10
1437.726169377272
 20
2102.918616890504
 30
0.0
 11
1321.053550481491
 21
2170.279584817041
 31
0.0
  0
LINE
  5
1E0
330
1F
100
AcDbEntity
  8
1-B
  6
Continuous
 62
    92
370
    13
100
AcDbLine
 10
1458.939372812868
 20
2102.918616890504
 30
0.0
 11
1575.61199170865
 21
2170.279584817042
 31
0.0
  0
LINE
  5
1E1
330
1F
100
AcDbEntity
  8
1-B
  6
Continuous
 62
    92
370
    13
100
AcDbLine
 10
1579.147525614581
 20
2075.974229719889
 30
0.0
 11
1579.147525614581
 21
1939.619300704959
 31
0.0
  0
LINE
  5
1E2
330
1F
100
AcDbEntity
  8
1-B
  6
Continuous
 62
    92
370
    13
100
AcDbLine
 10
1317.518016575559
 20
2075.974229719888
 30
0.0
 11
1317.518016575559
 21
1939.619300704959
 31
0.0
  0
LINE
  5
1E3
330
1F
100
AcDbEntity
  8
1-B
  6
Continuous
 62
    92
370
    13
100
AcDbLine
 10
1458.939372812868
 20
1994.324571627116
 30
0.0
 11
1575.61199170865
 21
2061.685539553654
 31
0.0
  0
LINE
  5
1E4
330
1F
100
AcDbEntity
  8
1-B
  6
Continuous
 62
    92
370
    13
100
AcDbLine
 10
1317.518016575559
 20
2075.974229719888
 30
0.0
 11
1321.053550481491
 21
2061.685539553653
 31
0.0
  0
LINE
  5
1E5
330
1F
100
AcDbEntity
  8
1-B
  6
Continuous
 62
    92
370
    13
100
AcDbLine
 10
1579.147525614581
 20
2075.974229719889
 30
0.0
 11
1575.61199170865
 21
2061.685539553654
 31
0.0
  0
LINE
  5
1E6
330
1F
100
AcDbEntity
  8
1-B
  6
Continuous
 62
    92
370
    13
100
AcDbLine
 10
1321.053550481491
 20
2100.877375438185
 30
0.0
 11
1321.053550481491
 21
2182.527033530957
 31
0.0
  0
ELLIPSE
  5
1E7
330
1F
100
AcDbEntity
  8
1-B
  6
Continuous
 62
    92
370
    13
100
AcDbEllipse
 10
1448.33277109507
 20
1864.093366969144
 30
0.0
 11
-15.0
 21
1.836909530733566E-15
 31
0.0
210
0.0
220
0.0
230
1.0
 40
0.5773502691896258
 41
0.7853981633974483
 42
2.356194490192344
  0
LINE
  5
1E8
330
1F
100
AcDbEntity
  8
1-B
  6
Continuous
 62
    92
370
    13
100
AcDbLine
 10
1437.726169377272
 20
1857.969642612186
 30
0.0
 11
1321.053550481491
 21
1925.330610538724
 31
0.0
  0
LINE
  5
1E9
330
1F
100
AcDbEntity
  8
1-B
  6
Continuous
 62
    92
370
    13
100
AcDbLine
 10
1458.939372812868
 20
1857.969642612186
 30
0.0
 11
1575.61199170865
 21
1925.330610538724
 31
0.0
  0
LINE
  5
1EA
330
1F
100
AcDbEntity
  8
1-B
  6
Continuous
 62
    92
370
    13
100
AcDbLine
 10
1317.518016575559
 20
1939.619300704959
 30
0.0
 11
1321.053550481491
 21
1925.330610538724
 31
0.0
  0
LINE
  5
1EB
330
1F
100
AcDbEntity
  8
1-B
  6
Continuous
 62
    92
370
    13
100
AcDbLine
 10
1579.147525614581
 20
1939.619300704959
 30
0.0
 11
1575.61199170865
 21
1925.330610538724
 31
0.0
  0
LINE
  5
1EC
330
1F
100
AcDbEntity
  8
1-B
  6
Continuous
 62
    92
370
    13
100
AcDbLine
 10
1575.61199170865
 20
2100.877375438185
 30
0.0
 11
1575.61199170865
 21
2182.527033530957
 31
0.0
  0
LINE
  5
1ED
330
1F
100
AcDbEntity
  8
1-B
  6
Continuous
 62
    92
370
    13
100
AcDbLine
 10
1364.894170915057
 20
1001.783681597939
 30
0.0
 11
1354.287569197256
 21
1007.907405954899
 31
0.0
  0
LINE
  5
1EE
330
1F
100
AcDbEntity
  8
1-B
  6
Continuous
 62
    92
370
    13
100
AcDbLine
 10
1542.377972992884
 20
1007.907405954897
 30
0.0
 11
1531.771371275084
 21
1001.783681597938
 31
0.0
  0
ARC
  5
1EF
330
1F
100
AcDbEntity
  8
1-B
  6
Continuous
 62
    92
370
    13
100
AcDbCircle
 10
1448.332771095072
 20
1266.951940057999
 30
0.0
 40
25.0
100
AcDbArc
 50
61.28860348437212
 51
118.7113965156265
  0
LINE
  5
1F0
330
1F
100
AcDbEntity
  8
1-B
  6
Continuous
 62
    92
370
    13
100
AcDbLine
 10
1460.342720050309
 20
1288.878205724832
 30
0.0
 11
1531.771371275084
 21
1249.753693225258
 31
0.0
  0
LINE
  5
1F1
330
1F
100
AcDbEntity
  8
1-B
  6
Continuous
 62
    92
370
    13
100
AcDbLine
 10
1436.322822139834
 20
1288.878205724833
 30
0.0
 11
1364.894170915056
 21
1249.753693225259
 31
0.0
  0
ARC
  5
1F2
330
1F
100
AcDbEntity
  8
1-B
  6
Continuous
 62
    92
370
    13
100
AcDbCircle
 10
1448.33277109507
 20
1279.673933593005
 30
0.0
 40
25.0
100
AcDbArc
 50
60.00000000000023
 51
120.0000000000004
  0
LINE
  5
1F3
330
1F
100
AcDbEntity
  8
1-B
  6
Continuous
 62
    92
370
    13
100
AcDbLine
 10
1435.832771095069
 20
1301.324568687616
 30
0.0
 11
1379.036306538783
 21
1268.533114587025
 31
0.0
  0
LINE
  5
1F4
330
1F
100
AcDbEntity
  8
1-B
  6
Continuous
 62
    92
370
    13
100
AcDbLine
 10
1460.83277109507
 20
1301.324568687616
 30
0.0
 11
1517.629235651355
 21
1268.533114587025
 31
0.0
  0
LINE
  5
1F5
330
1F
100
AcDbEntity
  8
1-B
  6
Continuous
 62
    92
370
    13
100
AcDbLine
 10
1507.022633933554
 20
1003.824923050258
 30
0.0
 11
1507.022633933554
 21
1155.133058794306
 31
0.0
  0
LINE
  5
1F6
330
1F
100
AcDbEntity
  8
1-B
  6
Continuous
 62
    92
370
    13
100
AcDbLine
 10
1476.617042342531
 20
1021.379599540204
 30
0.0
 11
1476.617042342531
 21
1172.687735284253
 31
0.0
  0
LINE
  5
1F7
330
1F
100
AcDbEntity
  8
1-B
  6
Continuous
 62
    92
370
    13
100
AcDbLine
 10
1420.048499847608
 20
1021.379599540204
 30
0.0
 11
1420.048499847608
 21
1172.687735284253
 31
0.0
  0
LINE
  5
1F8
330
1F
100
AcDbEntity
  8
1-B
  6
Continuous
 62
    92
370
    13
100
AcDbLine
 10
1389.642908256586
 20
1003.824923050258
 30
0.0
 11
1389.642908256586
 21
1155.133058794306
 31
0.0
  0
LINE
  5
1F9
330
1F
100
AcDbEntity
  8
1-B
  6
Continuous
 62
    92
370
    13
100
AcDbLine
 10
1428.332771095069
 20
1184.8842423507
 30
0.0
 11
1361.958181013093
 21
1146.56285489952
 31
0.0
  0
LINE
  5
1FA
330
1F
100
AcDbEntity
  8
1-B
  6
Continuous
 62
    92
370
    13
100
AcDbLine
 10
1531.771371275084
 20
1172.991695320344
 30
0.0
 11
1531.771371275084
 21
1245.671210321051
 31
0.0
  0
LINE
  5
1FB
330
1F
100
AcDbEntity
  8
1-B
  6
Continuous
 62
    92
370
    13
100
AcDbLine
 10
1531.771371275084
 20
1140.844368628071
 30
0.0
 11
1531.771371275084
 21
1001.783681597939
 31
0.0
  0
LINE
  5
1FC
330
1F
100
AcDbEntity
  8
1-B
  6
Continuous
 62
    92
370
    13
100
AcDbLine
 10
1468.33277109507
 20
1184.8842423507
 30
0.0
 11
1534.701432783952
 21
1146.566277658868
 31
0.0
  0
ARC
  5
1FD
330
1F
100
AcDbEntity
  8
1-B
  6
Continuous
 62
    92
370
    13
100
AcDbCircle
 10
1448.33277109507
 20
1150.243226199322
 30
0.0
 40
40.0
100
AcDbArc
 50
59.99999999999999
 51
120.0
  0
LINE
  5
1FE
330
1F
100
AcDbEntity
  8
1-B
  6
Continuous
 62
    92
370
    13
100
AcDbLine
 10
1468.33277109507
 20
1177.470661519015
 30
0.0
 11
1531.771371275084
 21
1140.844368628071
 31
0.0
  0
ARC
  5
1FF
330
1F
100
AcDbEntity
  8
1-B
  6
Continuous
 62
    92
370
    13
100
AcDbCircle
 10
1448.33277109507
 20
1142.829645367637
 30
0.0
 40
40.0
100
AcDbArc
 50
60.00000000000014
 51
119.9999999999998
  0
LINE
  5
200
330
1F
100
AcDbEntity
  8
1-B
  6
Continuous
 62
    92
370
    13
100
AcDbLine
 10
1428.332771095069
 20
1177.470661519015
 30
0.0
 11
1364.894170915056
 21
1140.844368628071
 31
0.0
  0
LINE
  5
201
330
1F
100
AcDbEntity
  8
1-B
  6
Continuous
 62
    92
370
    13
100
AcDbLine
 10
1364.894170915056
 20
1140.844368628071
 30
0.0
 11
1364.894170915056
 21
1001.783681597939
 31
0.0
  0
LINE
  5
202
330
1F
100
AcDbEntity
  8
1-B
  6
Continuous
 62
    92
370
    13
100
AcDbLine
 10
1364.894170915056
 20
1172.991695320342
 30
0.0
 11
1364.894170915056
 21
1249.753693225259
 31
0.0
  0
LINE
  5
203
330
1F
100
AcDbEntity
  8
1-B
  6
Continuous
 62
    92
370
    13
100
AcDbLine
 10
1507.022633933554
 20
1187.280385486578
 30
0.0
 11
1507.022633933554
 21
1262.409390230069
 31
0.0
  0
LINE
  5
204
330
1F
100
AcDbEntity
  8
1-B
  6
Continuous
 62
    92
370
    13
100
AcDbLine
 10
1476.617042342531
 20
1204.835061976524
 30
0.0
 11
1476.617042342531
 21
1279.964066720016
 31
0.0
  0
LINE
  5
205
330
1F
100
AcDbEntity
  8
1-B
  6
Continuous
 62
    92
370
    13
100
AcDbLine
 10
1420.048499847608
 20
1204.835061976524
 30
0.0
 11
1420.048499847608
 21
1279.964066720016
 31
0.0
  0
LINE
  5
206
330
1F
100
AcDbEntity
  8
1-B
  6
Continuous
 62
    92
370
    13
100
AcDbLine
 10
1389.642908256586
 20
1187.280385486578
 30
0.0
 11
1389.642908256586
 21
1262.409390230069
 31
0.0
  0
LINE
  5
207
330
1F
100
AcDbEntity
  8
1-B
  6
Continuous
 62
    92
370
    13
100
AcDbLine
 10
1468.33277109507
 20
1207.98499504943
 30
0.0
 11
1532.478478056276
 21
1170.950453868019
 31
0.0
  0
LINE
  5
208
330
1F
100
AcDbEntity
  8
1-B
  6
Continuous
 62
    92
370
    13
100
AcDbLine
 10
1428.332771095069
 20
1207.98499504943
 30
0.0
 11
1364.187064133864
 21
1170.950453868019
 31
0.0
  0
ARC
  5
209
330
1F
100
AcDbEntity
  8
1-B
  6
Continuous
 62
    92
370
    13
100
AcDbCircle
 10
1448.33277109507
 20
1173.343978898052
 30
0.0
 40
40.0
100
AcDbArc
 50
60.00000000000038
 51
119.9999999999996
  0
ARC
  5
20A
330
1F
100
AcDbEntity
  8
1-B
  6
Continuous
 62
    92
370
    13
100
AcDbCircle
 10
1448.33277109507
 20
1174.976972059908
 30
0.0
 40
40.0
100
AcDbArc
 50
59.99999999999994
 51
120.0000000000001
  0
LINE
  5
20B
330
1F
100
AcDbEntity
  8
1-B
  6
Continuous
 62
    92
370
    13
100
AcDbLine
 10
1468.33277109507
 20
1209.617988211286
 30
0.0
 11
1531.771371275084
 21
1172.991695320342
 31
0.0
  0
LINE
  5
20C
330
1F
100
AcDbEntity
  8
1-B
  6
Continuous
 62
    92
370
    13
100
AcDbLine
 10
1428.332771095069
 20
1209.617988211286
 30
0.0
 11
1364.894170915056
 21
1172.991695320342
 31
0.0
  0
LINE
  5
20D
330
1F
100
AcDbEntity
  8
1-B
  6
Continuous
 62
    92
370
    13
100
AcDbLine
 10
1554.398788273054
 20
1161.940975882445
 30
0.0
 11
1537.489866141173
 21
1171.703346626994
 31
0.0
  0
LINE
  5
20E
330
1F
100
AcDbEntity
  8
1-B
  6
Continuous
 62
    92
370
    13
100
AcDbLine
 10
1556.520108616614
 20
1187.106735964304
 30
0.0
 11
1542.377972992884
 21
1195.271701773581
 31
0.0
  0
LINE
  5
20F
330
1F
100
AcDbEntity
  8
1-B
  6
Continuous
 62
    92
370
    13
100
AcDbLine
 10
1342.266753917085
 20
1161.940975882445
 30
0.0
 11
1359.175676048969
 21
1171.703346626994
 31
0.0
  0
LINE
  5
210
330
1F
100
AcDbEntity
  8
1-B
  6
Continuous
 62
    92
370
    13
100
AcDbLine
 10
1340.145433573526
 20
1187.106735964304
 30
0.0
 11
1354.287569197256
 21
1195.271701773581
 31
0.0
  0
LINE
  5
211
330
1F
100
AcDbEntity
  8
1-B
  6
Continuous
 62
    92
370
    13
100
AcDbLine
 10
1531.771371275084
 20
1249.753693225258
 30
0.0
 11
1593.289661238314
 21
1285.271294495614
 31
0.0
  0
LINE
  5
212
330
1F
100
AcDbEntity
  8
1-B
  6
Continuous
 62
    92
370
    13
100
AcDbLine
 10
1517.629235651355
 20
1268.533114587025
 30
0.0
 11
1531.771371275084
 21
1249.753693225258
 31
0.0
  0
LINE
  5
213
330
1F
100
AcDbEntity
  8
1-B
  6
Continuous
 62
    92
370
    13
100
AcDbLine
 10
1379.036306538783
 20
1268.533114587025
 30
0.0
 11
1364.894170915056
 21
1249.753693225259
 31
0.0
  0
LINE
  5
214
330
1F
100
AcDbEntity
  8
1-B
  6
Continuous
 62
    92
370
    13
100
AcDbLine
 10
1364.894170915056
 20
1249.753693225259
 30
0.0
 11
1303.375880951826
 21
1285.271294495614
 31
0.0
  0
LINE
  5
215
330
1F
100
AcDbEntity
  8
1-B
  6
Continuous
 62
    92
370
    13
100
AcDbLine
 10
1507.022633933554
 20
1262.409390230069
 30
0.0
 11
1517.629235651355
 21
1268.533114587025
 31
0.0
  0
LINE
  5
216
330
1F
100
AcDbEntity
  8
1-B
  6
Continuous
 62
    92
370
    13
100
AcDbLine
 10
1379.036306538783
 20
1268.533114587025
 30
0.0
 11
1389.642908256586
 21
1262.409390230069
 31
0.0
  0
LINE
  5
217
330
1F
100
AcDbEntity
  8
1-B
  6
Continuous
 62
    92
370
    13
100
AcDbLine
 10
1303.375880951826
 20
1285.271294495614
 30
0.0
 11
1303.375880951826
 21
1283.63830133419
 31
0.0
  0
LINE
  5
218
330
1F
100
AcDbEntity
  8
1-B
  6
Continuous
 62
    92
370
    13
100
AcDbLine
 10
1317.518016575555
 20
1304.050715857381
 30
0.0
 11
1448.33277109507
 21
1379.576649593198
 31
0.0
  0
LINE
  5
219
330
1F
100
AcDbEntity
  8
1-B
  6
Continuous
 62
    92
370
    13
100
AcDbLine
 10
1379.036306538783
 20
1268.533114587025
 30
0.0
 11
1317.518016575555
 21
1304.05071585738
 31
0.0
  0
LINE
  5
21A
330
1F
100
AcDbEntity
  8
1-B
  6
Continuous
 62
    92
370
    13
100
AcDbLine
 10
1517.629235651355
 20
1268.533114587025
 30
0.0
 11
1579.147525614585
 21
1304.050715857381
 31
0.0
  0
LINE
  5
21B
330
1F
100
AcDbEntity
  8
1-B
  6
Continuous
 62
    92
370
    13
100
AcDbLine
 10
1593.289661238314
 20
1285.271294495614
 30
0.0
 11
1593.289661238314
 21
1283.63830133419
 31
0.0
  0
LINE
  5
21C
330
1F
100
AcDbEntity
  8
1-B
  6
Continuous
 62
    92
370
    13
100
AcDbLine
 10
1579.147525614585
 20
1304.050715857381
 30
0.0
 11
1593.289661238314
 21
1285.271294495614
 31
0.0
  0
LINE
  5
21D
330
1F
100
AcDbEntity
  8
1-B
  6
Continuous
 62
    92
370
    13
100
AcDbLine
 10
1579.147525614585
 20
1304.050715857381
 30
0.0
 11
1448.33277109507
 21
1379.576649593198
 31
0.0
  0
LINE
  5
21E
330
1F
100
AcDbEntity
  8
1-B
  6
Continuous
 62
    92
370
    13
100
AcDbLine
 10
1317.518016575555
 20
1304.050715857381
 30
0.0
 11
1303.375880951826
 21
1285.271294495614
 31
0.0
  0
LINE
  5
21F
330
1F
100
AcDbEntity
  8
1-B
  6
Continuous
 62
    92
370
    13
100
AcDbLine
 10
1354.287569197256
 20
1144.262334969827
 30
0.0
 11
1354.287569197256
 21
1007.907405954897
 31
0.0
  0
LINE
  5
220
330
1F
100
AcDbEntity
  8
1-B
  6
Continuous
 62
    92
370
    13
100
AcDbLine
 10
1354.287569197256
 20
1251.794934678009
 30
0.0
 11
1354.287569197256
 21
1181.821177692503
 31
0.0
  0
ELLIPSE
  5
221
330
1F
100
AcDbEntity
  8
1-B
  6
Continuous
 62
    92
370
    13
100
AcDbEllipse
 10
1361.358637009123
 20
1142.88561008039
 30
0.0
 11
2.500000000000119
 21
-4.330127018922609
 31
0.0
210
0.0
220
0.0
230
1.0
 40
0.577350269189659
 41
0.7853981633974366
 42
2.181661564992904
  0
LINE
  5
222
330
1F
100
AcDbEntity
  8
1-B
  6
Continuous
 62
    92
370
    13
100
AcDbLine
 10
1361.972576028968
 20
1146.551613038044
 30
0.0
 11
1342.266753917085
 21
1161.940975882445
 31
0.0
  0
ELLIPSE
  5
223
330
1F
100
AcDbEntity
  8
1-B
  6
Continuous
 62
    92
370
    13
100
AcDbEllipse
 10
1361.358637009123
 20
1175.032936772664
 30
0.0
 11
2.500000000000119
 21
-4.330127018922609
 31
0.0
210
0.0
220
0.0
230
1.0
 40
0.577350269189659
 41
5.672320068981069
 42
7.068583470576534
  0
LINE
  5
224
330
1F
100
AcDbEntity
  8
1-B
  6
Continuous
 62
    92
370
    13
100
AcDbLine
 10
1361.972576028968
 20
1170.658018098261
 30
0.0
 11
1342.266753917085
 21
1178.022978655657
 31
0.0
  0
LINE
  5
225
330
1F
100
AcDbEntity
  8
1-B
  6
Continuous
 62
    92
370
    13
100
AcDbLine
 10
1342.266753917085
 20
1178.022978655657
 30
0.0
 11
1342.266753917085
 21
1161.940975882445
 31
0.0
  0
LINE
  5
226
330
1F
100
AcDbEntity
  8
1-B
  6
Continuous
 62
    92
370
    13
100
AcDbLine
 10
1340.145433573526
 20
1187.106735964304
 30
0.0
 11
1340.145433573526
 21
1155.30670831658
 31
0.0
  0
LINE
  5
227
330
1F
100
AcDbEntity
  8
1-B
  6
Continuous
 62
    92
370
    13
100
AcDbLine
 10
1354.287569197256
 20
1181.821177692503
 30
0.0
 11
1340.145433573526
 21
1187.106735964304
 31
0.0
  0
ELLIPSE
  5
228
330
1F
100
AcDbEntity
  8
1-B
  6
Continuous
 62
    92
370
    13
100
AcDbEllipse
 10
1352.166248853696
 20
1253.019679549401
 30
0.0
 11
1.500000000000373
 21
-2.598076211353897
 31
0.0
210
0.0
220
0.0
230
1.0
 40
0.5773502691897369
 41
0.7853981633974818
 42
2.356194490192378
  0
LINE
  5
229
330
1F
100
AcDbEntity
  8
1-B
  6
Continuous
 62
    92
370
    13
100
AcDbLine
 10
1354.287569197256
 20
1144.262334969827
 30
0.0
 11
1340.145433573526
 21
1155.30670831658
 31
0.0
  0
LINE
  5
22A
330
1F
100
AcDbEntity
  8
1-B
  6
Continuous
 62
    92
370
    13
100
AcDbLine
 10
1542.377972992884
 20
1144.262334969827
 30
0.0
 11
1542.377972992884
 21
1007.907405954897
 31
0.0
  0
LINE
  5
22B
330
1F
100
AcDbEntity
  8
1-B
  6
Continuous
 62
    92
370
    13
100
AcDbLine
 10
1542.377972992884
 20
1251.794934678009
 30
0.0
 11
1542.377972992884
 21
1181.821177692503
 31
0.0
  0
ELLIPSE
  5
22C
330
1F
100
AcDbEntity
  8
1-B
  6
Continuous
 62
    92
370
    13
100
AcDbEllipse
 10
1535.306905181017
 20
1142.88561008039
 30
0.0
 11
-2.500000000000118
 21
-4.330127018922609
 31
0.0
210
0.0
220
0.0
230
1.0
 40
0.577350269189659
 41
4.101523742186682
 42
5.497787143782149
  0
LINE
  5
22D
330
1F
100
AcDbEntity
  8
1-B
  6
Continuous
 62
    92
370
    13
100
AcDbLine
 10
1534.692966161172
 20
1146.551613038044
 30
0.0
 11
1554.398788273054
 21
1161.940975882445
 31
0.0
  0
ELLIPSE
  5
22E
330
1F
100
AcDbEntity
  8
1-B
  6
Continuous
 62
    92
370
    13
100
AcDbEllipse
 10
1535.306905181017
 20
1175.032936772664
 30
0.0
 11
-2.500000000000118
 21
-4.330127018922609
 31
0.0
210
0.0
220
0.0
230
1.0
 40
0.577350269189659
 41
5.497787143782638
 42
6.894050545378103
  0
LINE
  5
22F
330
1F
100
AcDbEntity
  8
1-B
  6
Continuous
 62
    92
370
    13
100
AcDbLine
 10
1534.692966161172
 20
1170.658018098261
 30
0.0
 11
1554.398788273054
 21
1178.022978655657
 31
0.0
  0
LINE
  5
230
330
1F
100
AcDbEntity
  8
1-B
  6
Continuous
 62
    92
370
    13
100
AcDbLine
 10
1554.398788273054
 20
1178.022978655657
 30
0.0
 11
1554.398788273054
 21
1161.940975882445
 31
0.0
  0
LINE
  5
231
330
1F
100
AcDbEntity
  8
1-B
  6
Continuous
 62
    92
370
    13
100
AcDbLine
 10
1556.520108616614
 20
1187.106735964304
 30
0.0
 11
1556.520108616614
 21
1155.30670831658
 31
0.0
  0
LINE
  5
232
330
1F
100
AcDbEntity
  8
1-B
  6
Continuous
 62
    92
370
    13
100
AcDbLine
 10
1542.377972992884
 20
1181.821177692503
 30
0.0
 11
1556.520108616614
 21
1187.106735964304
 31
0.0
  0
LINE
  5
233
330
1F
100
AcDbEntity
  8
1-B
  6
Continuous
 62
    92
370
    13
100
AcDbLine
 10
1544.499293336443
 20
1255.469169292184
 30
0.0
 11
1593.289661238314
 21
1283.63830133419
 31
0.0
  0
ELLIPSE
  5
234
330
1F
100
AcDbEntity
  8
1-B
  6
Continuous
 62
    92
370
    13
100
AcDbEllipse
 10
1544.499293336443
 20
1253.019679549401
 30
0.0
 11
-1.500000000000373
 21
-2.598076211353897
 31
0.0
210
0.0
220
0.0
230
1.0
 40
0.5773502691897369
 41
3.926990816987208
 42
5.497787143782104
  0
LINE
  5
235
330
1F
100
AcDbEntity
  8
1-B
  6
Continuous
 62
    92
370
    13
100
AcDbLine
 10
1542.377972992884
 20
1144.262334969827
 30
0.0
 11
1556.520108616614
 21
1155.30670831658
 31
0.0
  0
LINE
  5
236
330
1F
100
AcDbEntity
  8
1-B
  6
Continuous
 62
    92
370
    13
100
AcDbLine
 10
1352.166248853699
 20
1255.469169292184
 30
0.0
 11
1303.375880951826
 21
1283.63830133419
 31
0.0
  0
LINE
  5
237
330
1F
100
AcDbEntity
  8
1-B
  6
Continuous
 62
    92
370
    13
100
AcDbLine
 10
1507.022633933554
 20
1003.824923050258
 30
0.0
 11
1531.771371275084
 21
1001.783681597938
 31
0.0
  0
LINE
  5
238
330
1F
100
AcDbEntity
  8
1-B
  6
Continuous
 62
    92
370
    13
100
AcDbLine
 10
1476.617042342531
 20
1021.379599540205
 30
0.0
 11
1507.022633933554
 21
1003.824923050258
 31
0.0
  0
LINE
  5
239
330
1F
100
AcDbEntity
  8
1-B
  6
Continuous
 62
    92
370
    13
100
AcDbLine
 10
1420.048499847608
 20
1021.379599540204
 30
0.0
 11
1389.642908256586
 21
1003.824923050258
 31
0.0
  0
LINE
  5
23A
330
1F
100
AcDbEntity
  8
1-B
  6
Continuous
 62
    92
370
    13
100
AcDbLine
 10
1364.894170915057
 20
1001.783681597939
 30
0.0
 11
1389.642908256586
 21
1003.824923050258
 31
0.0
  0
ELLIPSE
  5
23B
330
1F
100
AcDbEntity
  8
1-B
  6
Continuous
 62
    92
370
    13
100
AcDbEllipse
 10
1448.33277109507
 20
1005.04966792165
 30
0.0
 11
40.00000000000013
 21
-1.507288760336424E-13
 31
0.0
210
0.0
220
0.0
230
1.0
 40
0.5773502691896292
 41
0.7853981633974482
 42
2.356194490192345
  0
LINE
  5
23C
330
1F
100
AcDbEntity
  8
0-0
  6
JWW_HOJO
 62
     7
370
     9
100
AcDbLine
 10
1612.480858947913
 20
2200.751421777785
 30
0.0
 11
1448.332771095068
 21
2295.522364486588
 31
0.0
  0
LINE
  5
23D
330
1F
100
AcDbEntity
  8
0-0
  6
JWW_HOJO
 62
     7
370
     9
100
AcDbLine
 10
1448.332771095068
 20
2295.522364486588
 30
0.0
 11
1300.851349908892
 21
2210.373926264279
 31
0.0
  0
LINE
  5
23E
330
1F
100
AcDbEntity
  8
0-0
  6
JWW_HOJO
 62
     7
370
     9
100
AcDbLine
 10
1626.622994571647
 20
1315.130759021093
 30
0.0
 11
1448.33277109507
 21
1418.066667539174
 31
0.0
  0
LINE
  5
23F
330
1F
100
AcDbEntity
  8
0-0
  6
JWW_HOJO
 62
     7
370
     9
100
AcDbLine
 10
1300.851349908888
 20
1332.918229316862
 30
0.0
 11
1448.33277109507
 21
1418.066667539174
 31
0.0
  0
LINE
  5
240
330
1F
100
AcDbEntity
  8
0-0
  6
JWW_HOJO
 62
     7
370
     9
100
AcDbLine
 10
1448.332771095066
 20
2334.012382432562
 30
0.0
 11
1284.184683242225
 21
2239.24143972376
 31
0.0
  0
LINE
  5
241
330
1F
100
AcDbEntity
  8
0-0
  6
JWW_HOJO
 62
     7
370
     9
100
AcDbLine
 10
1645.814192281248
 20
2219.996430750773
 30
0.0
 11
1448.332771095066
 21
2334.012382432562
 31
0.0
  0
LINE
  5
242
330
1F
100
AcDbEntity
  8
0-0
  6
JWW_HOJO
 62
     7
370
     9
100
AcDbLine
 10
1284.184683242222
 20
1361.785742776344
 30
0.0
 11
1448.33277109507
 21
1456.556685485149
 31
0.0
  0
LINE
  5
243
330
1F
100
AcDbEntity
  8
0-0
  6
JWW_HOJO
 62
     7
370
     9
100
AcDbLine
 10
1659.956327904982
 20
1334.375767994081
 30
0.0
 11
1448.33277109507
 21
1456.556685485149
 31
0.0
  0
LINE
  5
244
330
1F
100
AcDbEntity
  8
0-B
  6
Continuous
 62
   120
370
     5
100
AcDbLine
 10
1281.974974551017
 20
2237.96566381606
 30
0.0
 11
1338.189963655346
 21
2270.421402907937
 31
0.0
  0
LWPOLYLINE
  5
245
330
1F
100
AcDbEntity
  8
0-B
  6
Continuous
 62
     7
370
     9
100
AcDbPolyline
 90
        4
 70
     1
 43
2.0
 10
1282.974974551016
 20
2237.96566381606
 42
0.4142135623731
 10
1281.974974551017
 20
2238.96566381606
 42
0.4142135623731
 10
1280.974974551017
 20
2237.96566381606
 42
0.4142135623731
 10
1281.974974551017
 20
2236.96566381606
 42
0.4142135623731
  0
LWPOLYLINE
  5
246
330
1F
100
AcDbEntity
  8
0-B
  6
Continuous
 62
     7
370
     9
100
AcDbPolyline
 90
        4
 70
     1
 43
2.0
 10
1339.189963655346
 20
2270.421402907937
 42
0.4142135623731
 10
1338.189963655346
 20
2271.421402907937
 42
0.4142135623731
 10
1337.189963655346
 20
2270.421402907937
 42
0.4142135623731
 10
1338.189963655346
 20
2269.421402907937
 42
0.4142135623731
  0
LINE
  5
247
330
1F
100
AcDbEntity
  8
0-B
  6
Continuous
 62
   120
370
     5
100
AcDbLine
 10
1281.974974551017
 20
2237.96566381606
 30
0.0
 11
1298.641641217683
 21
2209.098150356579
 31
0.0
  0
LINE
  5
248
330
1F
100
AcDbEntity
  8
0-B
  6
Continuous
 62
   120
370
     5
100
AcDbLine
 10
1338.189963655346
 20
2270.421402907937
 30
0.0
 11
1354.856630322013
 21
2241.553889448456
 31
0.0
  0
LINE
  5
249
330
1F
100
AcDbEntity
  8
0-B
  6
Continuous
 62
   120
370
     5
100
AcDbLine
 10
1614.690567639123
 20
2237.96566381606
 30
0.0
 11
1558.475578534792
 21
2270.421402907938
 31
0.0
  0
LWPOLYLINE
  5
24A
330
1F
100
AcDbEntity
  8
0-B
  6
Continuous
 62
     7
370
     9
100
AcDbPolyline
 90
        4
 70
     1
 43
2.0
 10
1615.690567639123
 20
2237.96566381606
 42
0.4142135623731
 10
1614.690567639123
 20
2238.96566381606
 42
0.4142135623731
 10
1613.690567639123
 20
2237.96566381606
 42
0.4142135623731
 10
1614.690567639123
 20
2236.96566381606
 42
0.4142135623731
  0
LWPOLYLINE
  5
24B
330
1F
100
AcDbEntity
  8
0-B
  6
Continuous
 62
     7
370
     9
100
AcDbPolyline
 90
        4
 70
     1
 43
2.0
 10
1559.475578534792
 20
2270.421402907938
 42
0.4142135623731
 10
1558.475578534792
 20
2271.421402907938
 42
0.4142135623731
 10
1557.475578534793
 20
2270.421402907938
 42
0.4142135623731
 10
1558.475578534792
 20
2269.421402907938
 42
0.4142135623731
  0
LINE
  5
24C
330
1F
100
AcDbEntity
  8
0-B
  6
Continuous
 62
   120
370
     5
100
AcDbLine
 10
1614.690567639123
 20
2237.96566381606
 30
0.0
 11
1598.023900972456
 21
2209.098150356579
 31
0.0
  0
LINE
  5
24D
330
1F
100
AcDbEntity
  8
0-B
  6
Continuous
 62
   120
370
     5
100
AcDbLine
 10
1558.475578534792
 20
2270.421402907938
 30
0.0
 11
1541.808911868125
 21
2241.553889448457
 31
0.0
  0
LINE
  5
24E
330
1F
100
AcDbEntity
  8
0-0
  6
JWW_HOJO
 62
     7
370
     9
100
AcDbLine
 10
1448.33277109507
 20
1813.355900309253
 30
0.0
 11
1304.386883814823
 21
1896.463097079242
 31
0.0
  0
LINE
  5
24F
330
1F
100
AcDbEntity
  8
0-0
  6
JWW_HOJO
 62
     7
370
     9
100
AcDbLine
 10
1448.33277109507
 20
1813.355900309253
 30
0.0
 11
1612.480858947913
 21
1908.126843018055
 31
0.0
  0
LINE
  5
250
330
1F
100
AcDbEntity
  8
0-0
  6
JWW_HOJO
 62
     7
370
     9
100
AcDbLine
 10
1612.480858947913
 20
2200.751421777785
 30
0.0
 11
1612.480858947913
 21
1908.126843018055
 31
0.0
  0
LINE
  5
251
330
1F
100
AcDbEntity
  8
0-B
  6
Continuous
 62
   120
370
     5
100
AcDbLine
 10
1732.480858947915
 20
1925.330610538724
 30
0.0
 11
1732.480858947915
 21
2182.527033530957
 31
0.0
  0
LWPOLYLINE
  5
252
330
1F
100
AcDbEntity
  8
0-B
  6
Continuous
 62
     7
370
     9
100
AcDbPolyline
 90
        4
 70
     1
 43
2.0
 10
1733.480858947915
 20
1925.330610538724
 42
0.4142135623731
 10
1732.480858947915
 20
1926.330610538723
 42
0.4142135623731
 10
1731.480858947915
 20
1925.330610538724
 42
0.4142135623731
 10
1732.480858947915
 20
1924.330610538724
 42
0.4142135623731
  0
LWPOLYLINE
  5
253
330
1F
100
AcDbEntity
  8
0-B
  6
Continuous
 62
     7
370
     9
100
AcDbPolyline
 90
        4
 70
     1
 43
2.0
 10
1733.480858947915
 20
2182.527033530957
 42
0.4142135623731
 10
1732.480858947915
 20
2183.527033530957
 42
0.4142135623731
 10
1731.480858947915
 20
2182.527033530957
 42
0.4142135623731
 10
1732.480858947915
 20
2181.527033530957
 42
0.4142135623731
  0
LINE
  5
254
330
1F
100
AcDbEntity
  8
0-B
  6
Continuous
 62
   120
370
     5
100
AcDbLine
 10
1732.480858947915
 20
1925.330610538724
 30
0.0
 11
1612.480858947913
 21
1925.330610538724
 31
0.0
  0
LINE
  5
255
330
1F
100
AcDbEntity
  8
0-B
  6
Continuous
 62
   120
370
     5
100
AcDbLine
 10
1732.480858947915
 20
2182.527033530957
 30
0.0
 11
1612.480858947913
 21
2182.527033530957
 31
0.0
  0
LINE
  5
256
330
1F
100
AcDbEntity
  8
0-0
  6
JWW_HOJO
 62
     7
370
     9
100
AcDbLine
 10
1448.33277109507
 20
1745.613468724337
 30
0.0
 11
1275.053550481492
 21
1845.656273390555
 31
0.0
  0
LINE
  5
257
330
1F
100
AcDbEntity
  8
0-0
  6
JWW_HOJO
 62
     7
370
     9
100
AcDbLine
 10
1448.33277109507
 20
1745.613468724337
 30
0.0
 11
1645.814192281248
 21
1859.629420406126
 31
0.0
  0
LINE
  5
258
330
1F
100
AcDbEntity
  8
0-0
  6
JWW_HOJO
 62
     7
370
     9
100
AcDbLine
 10
1645.814192281248
 20
2219.996430750773
 30
0.0
 11
1645.814192281248
 21
1859.629420406126
 31
0.0
  0
LINE
  5
259
330
1F
100
AcDbEntity
  8
0-B
  6
Continuous
 62
   120
370
     5
100
AcDbLine
 10
1266.214715716658
 20
1850.759377021353
 30
0.0
 11
1407.636071953969
 21
1769.10971892858
 31
0.0
  0
LWPOLYLINE
  5
25A
330
1F
100
AcDbEntity
  8
0-B
  6
Continuous
 62
     7
370
     9
100
AcDbPolyline
 90
        4
 70
     1
 43
2.0
 10
1267.214715716658
 20
1850.759377021353
 42
0.4142135623731
 10
1266.214715716658
 20
1851.759377021353
 42
0.4142135623731
 10
1265.214715716658
 20
1850.759377021353
 42
0.4142135623731
 10
1266.214715716658
 20
1849.759377021353
 42
0.4142135623731
  0
LWPOLYLINE
  5
25B
330
1F
100
AcDbEntity
  8
0-B
  6
Continuous
 62
     7
370
     9
100
AcDbPolyline
 90
        4
 70
     1
 43
2.0
 10
1408.636071953969
 20
1769.10971892858
 42
0.4142135623731
 10
1407.636071953969
 20
1770.10971892858
 42
0.4142135623731
 10
1406.636071953969
 20
1769.10971892858
 42
0.4142135623731
 10
1407.636071953969
 20
1768.109718928581
 42
0.4142135623731
  0
LINE
  5
25C
330
1F
100
AcDbEntity
  8
0-B
  6
Continuous
 62
   120
370
     5
100
AcDbLine
 10
1266.214715716658
 20
1850.759377021353
 30
0.0
 11
1295.548049049992
 21
1901.56620071004
 31
0.0
  0
LINE
  5
25D
330
1F
100
AcDbEntity
  8
0-B
  6
Continuous
 62
   120
370
     5
100
AcDbLine
 10
1407.636071953969
 20
1769.10971892858
 30
0.0
 11
1436.969405287303
 21
1819.916542617268
 31
0.0
  0
LINE
  5
25E
330
1F
100
AcDbEntity
  8
0-B
  6
Continuous
 62
   120
370
     5
100
AcDbLine
 10
1489.029470236172
 20
1769.10971892858
 30
0.0
 11
1630.45082647348
 21
1850.759377021353
 31
0.0
  0
LWPOLYLINE
  5
25F
330
1F
100
AcDbEntity
  8
0-B
  6
Continuous
 62
     7
370
     9
100
AcDbPolyline
 90
        4
 70
     1
 43
2.0
 10
1490.029470236172
 20
1769.10971892858
 42
0.4142135623731
 10
1489.029470236172
 20
1770.10971892858
 42
0.4142135623731
 10
1488.029470236172
 20
1769.10971892858
 42
0.4142135623731
 10
1489.029470236172
 20
1768.109718928581
 42
0.4142135623731
  0
LWPOLYLINE
  5
260
330
1F
100
AcDbEntity
  8
0-B
  6
Continuous
 62
     7
370
     9
100
AcDbPolyline
 90
        4
 70
     1
 43
2.0
 10
1631.45082647348
 20
1850.759377021353
 42
0.4142135623731
 10
1630.45082647348
 20
1851.759377021353
 42
0.4142135623731
 10
1629.45082647348
 20
1850.759377021353
 42
0.4142135623731
 10
1630.45082647348
 20
1849.759377021353
 42
0.4142135623731
  0
LINE
  5
261
330
1F
100
AcDbEntity
  8
0-B
  6
Continuous
 62
   120
370
     5
100
AcDbLine
 10
1489.029470236172
 20
1769.10971892858
 30
0.0
 11
1459.696136902838
 21
1819.916542617268
 31
0.0
  0
LINE
  5
262
330
1F
100
AcDbEntity
  8
0-B
  6
Continuous
 62
   120
370
     5
100
AcDbLine
 10
1630.45082647348
 20
1850.759377021353
 30
0.0
 11
1601.117493140146
 21
1901.56620071004
 31
0.0
  0
LINE
  5
263
330
1F
100
AcDbEntity
  8
0-0
  6
JWW_HOJO
 62
     7
370
     9
100
AcDbLine
 10
1448.33277109507
 20
915.1203653772232
 30
0.0
 11
1337.620902530587
 21
979.0398924954184
 31
0.0
  0
LINE
  5
264
330
1F
100
AcDbEntity
  8
0-0
  6
JWW_HOJO
 62
     7
370
     9
100
AcDbLine
 10
1448.33277109507
 20
847.3779337923056
 30
0.0
 11
1308.287569197253
 21
928.2330688067321
 31
0.0
  0
LINE
  5
265
330
1F
100
AcDbEntity
  8
0-0
  6
JWW_HOJO
 62
     7
370
     9
100
AcDbLine
 10
1659.956327904982
 20
969.5588512833808
 30
0.0
 11
1448.33277109507
 21
847.3779337923056
 31
0.0
  0
LINE
  5
266
330
1F
100
AcDbEntity
  8
0-0
  6
JWW_HOJO
 62
     7
370
     9
100
AcDbLine
 10
1659.956327904982
 20
969.5588512833808
 30
0.0
 11
1659.956327904982
 21
1334.375767994081
 31
0.0
  0
LINE
  5
267
330
1F
100
AcDbEntity
  8
0-0
  6
JWW_HOJO
 62
     7
370
     9
100
AcDbLine
 10
1626.622994571647
 20
1018.056273895309
 30
0.0
 11
1448.33277109507
 21
915.1203653772232
 31
0.0
  0
LINE
  5
268
330
1F
100
AcDbEntity
  8
0-0
  6
JWW_HOJO
 62
     7
370
     9
100
AcDbLine
 10
1626.622994571647
 20
1018.056273895309
 30
0.0
 11
1626.622994571647
 21
1315.130759021093
 31
0.0
  0
LINE
  5
269
330
1F
100
AcDbEntity
  8
0-B
  6
Continuous
 62
   120
370
     5
100
AcDbLine
 10
1732.480858947915
 20
1304.050715857381
 30
0.0
 11
1732.480858947915
 21
1001.783681597938
 31
0.0
  0
LWPOLYLINE
  5
26A
330
1F
100
AcDbEntity
  8
0-B
  6
Continuous
 62
     7
370
     9
100
AcDbPolyline
 90
        4
 70
     1
 43
2.0
 10
1733.480858947915
 20
1304.050715857381
 42
0.4142135623731
 10
1732.480858947915
 20
1305.050715857381
 42
0.4142135623731
 10
1731.480858947915
 20
1304.050715857381
 42
0.4142135623731
 10
1732.480858947915
 20
1303.050715857381
 42
0.4142135623731
  0
LWPOLYLINE
  5
26B
330
1F
100
AcDbEntity
  8
0-B
  6
Continuous
 62
     7
370
     9
100
AcDbPolyline
 90
        4
 70
     1
 43
2.0
 10
1733.480858947915
 20
1001.783681597938
 42
0.4142135623731
 10
1732.480858947915
 20
1002.783681597938
 42
0.4142135623731
 10
1731.480858947915
 20
1001.783681597938
 42
0.4142135623731
 10
1732.480858947915
 20
1000.783681597938
 42
0.4142135623731
  0
LINE
  5
26C
330
1F
100
AcDbEntity
  8
0-B
  6
Continuous
 62
   120
370
     5
100
AcDbLine
 10
1732.480858947915
 20
1304.050715857381
 30
0.0
 11
1612.480858947913
 21
1304.050715857381
 31
0.0
  0
LINE
  5
26D
330
1F
100
AcDbEntity
  8
0-B
  6
Continuous
 62
   120
370
     5
100
AcDbLine
 10
1732.480858947915
 20
1001.783681597938
 30
0.0
 11
1612.480858947913
 21
1001.783681597938
 31
0.0
  0
LINE
  5
26E
330
1F
100
AcDbEntity
  8
0-B
  6
Continuous
 62
   120
370
     5
100
AcDbLine
 10
1481.666104428403
 20
1437.311676512161
 30
0.0
 11
1631.219188649547
 21
1350.967163078945
 31
0.0
  0
LWPOLYLINE
  5
26F
330
1F
100
AcDbEntity
  8
0-B
  6
Continuous
 62
     7
370
     9
100
AcDbPolyline
 90
        4
 70
     1
 43
2.0
 10
1482.666104428403
 20
1437.311676512161
 42
0.4142135623731
 10
1481.666104428403
 20
1438.311676512161
 42
0.4142135623731
 10
1480.666104428403
 20
1437.311676512161
 42
0.4142135623731
 10
1481.666104428403
 20
1436.311676512162
 42
0.4142135623731
  0
LWPOLYLINE
  5
270
330
1F
100
AcDbEntity
  8
0-B
  6
Continuous
 62
     7
370
     9
100
AcDbPolyline
 90
        4
 70
     1
 43
2.0
 10
1632.219188649547
 20
1350.967163078945
 42
0.4142135623731
 10
1631.219188649547
 20
1351.967163078945
 42
0.4142135623731
 10
1630.219188649547
 20
1350.967163078945
 42
0.4142135623731
 10
1631.219188649547
 20
1349.967163078945
 42
0.4142135623731
  0
LINE
  5
271
330
1F
100
AcDbEntity
  8
0-B
  6
Continuous
 62
   120
370
     5
100
AcDbLine
 10
1481.666104428403
 20
1437.311676512161
 30
0.0
 11
1464.999437761735
 21
1408.44416305268
 31
0.0
  0
LINE
  5
272
330
1F
100
AcDbEntity
  8
0-B
  6
Continuous
 62
   120
370
     5
100
AcDbLine
 10
1631.219188649547
 20
1350.967163078945
 30
0.0
 11
1614.552521982881
 21
1322.099649619463
 31
0.0
  0
LINE
  5
273
330
1F
100
AcDbEntity
  8
0-B
  6
Continuous
 62
   120
370
     5
100
AcDbLine
 10
1265.446353540596
 20
1350.967163078945
 30
0.0
 11
1414.999437761738
 21
1437.31167651216
 31
0.0
  0
LWPOLYLINE
  5
274
330
1F
100
AcDbEntity
  8
0-B
  6
Continuous
 62
     7
370
     9
100
AcDbPolyline
 90
        4
 70
     1
 43
2.0
 10
1266.446353540596
 20
1350.967163078945
 42
0.4142135623731
 10
1265.446353540596
 20
1351.967163078945
 42
0.4142135623731
 10
1264.446353540596
 20
1350.967163078945
 42
0.4142135623731
 10
1265.446353540596
 20
1349.967163078945
 42
0.4142135623731
  0
LWPOLYLINE
  5
275
330
1F
100
AcDbEntity
  8
0-B
  6
Continuous
 62
     7
370
     9
100
AcDbPolyline
 90
        4
 70
     1
 43
2.0
 10
1415.999437761738
 20
1437.31167651216
 42
0.4142135623731
 10
1414.999437761738
 20
1438.31167651216
 42
0.4142135623731
 10
1413.999437761738
 20
1437.31167651216
 42
0.4142135623731
 10
1414.999437761738
 20
1436.31167651216
 42
0.4142135623731
  0
LINE
  5
276
330
1F
100
AcDbEntity
  8
0-B
  6
Continuous
 62
   120
370
     5
100
AcDbLine
 10
1265.446353540596
 20
1350.967163078945
 30
0.0
 11
1282.11302020726
 21
1322.099649619464
 31
0.0
  0
LINE
  5
277
330
1F
100
AcDbEntity
  8
0-B
  6
Continuous
 62
   120
370
     5
100
AcDbLine
 10
1414.999437761738
 20
1437.31167651216
 30
0.0
 11
1431.666104428403
 21
1408.444163052679
 31
0.0
  0
MTEXT
  5
278
330
1F
100
AcDbEntity
  8
0-A
  6
Continuous
 62
     7
370
     9
100
AcDbMText
 10
89.9997731801642
 20
1457.146921258445
 30
0.0
 40
60.96
 41
320.0
 46
0.0
 71
     7
 72
     1
  1
{\fＭＳ ゴシック|b0|i0|c128|p49;Ｍ型対応}
 73
     1
 44
1.0
  0
MTEXT
  5
279
330
1F
100
AcDbEntity
  8
0-A
  6
Continuous
 62
     7
370
     9
100
AcDbMText
 10
2428.3331463788
 20
2384.110304591779
 30
0.0
 40
45.71999999999998
 41
330.0
 46
0.0
 71
     7
 72
     1
  1
{\fＭＳ ゴシック|b0|i0|c128|p49;25×25×8.5}
 73
     1
 44
1.0
  0
MTEXT
  5
27A
330
1F
100
AcDbEntity
  8
0-A
  6
Continuous
 62
     7
370
     9
100
AcDbMText
 10
2076.330509345807
 20
1662.040994638566
 30
0.0
 40
45.72
 41
150.0
 46
0.0
 71
     7
 72
     1
  1
{\fＭＳ ゴシック|b0|i0|c128|p49;S=1/2}
 73
     1
 44
1.0
  0
MTEXT
  5
27B
330
1F
100
AcDbEntity
  8
0-A
  6
Continuous
 62
     7
370
     9
100
AcDbMText
 10
2368.332898938977
 20
1550.776917921778
 30
0.0
 40
45.71999999999999
 41
450.0
 46
0.0
 71
     7
 72
     1
  1
{\fＭＳ ゴシック|b0|i0|c128|p49;28.5×28.5×8.5}
 73
     1
 44
1.0
  0
MTEXT
  5
27C
330
1F
100
AcDbEntity
  8
0-A
  6
Continuous
 62
     7
370
     9
100
AcDbMText
 10
2076.330509345807
 20
828.7076079718986
 30
0.0
 40
45.72
 41
150.0
 46
0.0
 71
     7
 72
     1
  1
{\fＭＳ ゴシック|b0|i0|c128|p49;S=1/2}
 73
     1
 44
1.0
  0
MTEXT
  5
27D
330
1F
100
AcDbEntity
  8
0-B
  6
Continuous
 62
     7
370
   211
100
AcDbMText
 10
1552.611929916658
 20
2278.213787399844
 30
0.0
 40
45.72000000000097
 41
90.00000000000192
 46
0.0
 71
     7
 72
     1
  1
{\fＭＳ ゴシック|b0|i0|c128|p49;8.5}
 11
0.8660254037844394
 21
-0.4999999999999989
 31
0.0
 73
     1
 44
1.0
  0
MTEXT
  5
27E
330
1F
100
AcDbEntity
  8
0-B
  6
Continuous
 62
     7
370
   211
100
AcDbMText
 10
1266.111325932882
 20
2233.213787399844
 30
0.0
 40
45.7199999999996
 41
89.99999999999922
 46
0.0
 71
     7
 72
     1
  1
{\fＭＳ ゴシック|b0|i0|c128|p49;8.5}
 11
0.8660254037844526
 21
0.4999999999999759
 31
0.0
 73
     1
 44
1.0
  0
MTEXT
  5
27F
330
1F
100
AcDbEntity
  8
0-B
  6
Continuous
 62
     7
370
   211
100
AcDbMText
 10
1275.944631721782
 20
1757.172769710055
 30
0.0
 40
45.71999999999925
 41
59.99999999999901
 46
0.0
 71
     7
 72
     1
  1
{\fＭＳ ゴシック|b0|i0|c128|p49;25}
 11
0.8660254037844335
 21
-0.5000000000000089
 31
0.0
 73
     1
 44
1.0
  0
MTEXT
  5
280
330
1F
100
AcDbEntity
  8
0-B
  6
Continuous
 62
     7
370
   211
100
AcDbMText
 10
1568.759386241291
 20
1727.172769710056
 30
0.0
 40
45.72000000000053
 41
60.0000000000007
 46
0.0
 71
     7
 72
     1
  1
{\fＭＳ ゴシック|b0|i0|c128|p49;25}
 11
0.8660254037844475
 21
0.4999999999999847
 31
0.0
 73
     1
 44
1.0
  0
MTEXT
  5
281
330
1F
100
AcDbEntity
  8
0-B
  6
Continuous
 62
     7
370
   211
100
AcDbMText
 10
1509.481122311909
 20
1425.659673833397
 30
0.0
 40
45.72000000000038
 41
120.000000000001
 46
0.0
 71
     7
 72
     1
  1
{\fＭＳ ゴシック|b0|i0|c128|p49;28.5}
 11
0.866025403784441
 21
-0.4999999999999958
 31
0.0
 73
     1
 44
1.0
  0
MTEXT
  5
282
330
1F
100
AcDbEntity
  8
0-B
  6
Continuous
 62
     7
370
   211
100
AcDbMText
 10
1283.2613714241
 20
1365.659673833397
 30
0.0
 40
45.72000000000043
 41
120.0000000000011
 46
0.0
 71
     7
 72
     1
  1
{\fＭＳ ゴシック|b0|i0|c128|p49;28.5}
 11
0.8660254037844395
 21
0.4999999999999986
 31
0.0
 73
     1
 44
1.0
  0
LINE
  5
283
330
1F
100
AcDbEntity
  8
F-1
  6
Continuous
 62
     7
370
     9
100
AcDbLine
 10
603.3330144108953
 20
1640.000254591779
 30
0.0
 11
3793.332651499156
 21
1640.000254591779
 31
0.0
  0
MTEXT
  5
284
330
1F
100
AcDbEntity
  8
0-B
  6
Continuous
 62
     7
370
   211
100
AcDbMText
 10
1763.263636147388
 20
2016.78882203484
 30
0.0
 40
45.72
 41
120.0
 46
0.0
 71
     7
 72
     1
  1
{\fＭＳ ゴシック|b0|i0|c128|p49;34.5}
 73
     1
 44
1.0
  0
MTEXT
  5
285
330
1F
100
AcDbEntity
  8
0-B
  6
Continuous
 62
     7
370
   211
100
AcDbMText
 10
1766.942799239685
 20
1115.777198727659
 30
0.0
 40
45.72
 41
120.0
 46
0.0
 71
     7
 72
     1
  1
{\fＭＳ ゴシック|b0|i0|c128|p49;34.5}
 73
     1
 44
1.0
  0
LINE
  5
286
330
1F
100
AcDbEntity
  8
0-4
  6
Continuous
 62
    92
370
    13
100
AcDbLine
 10
-2448.334006517603
 20
484.1770637121527
 30
0.0
 11
-2581.667339850935
 21
519.9036227029706
 31
0.0
  0
LINE
  5
287
330
1F
100
AcDbEntity
  8
0-4
  6
Continuous
 62
    92
370
    13
100
AcDbLine
 10
-2448.33400652333
 20
594.1770637122096
 30
0.0
 11
-2366.26455696291
 21
616.1675064451907
 31
0.0
  0
LINE
  5
288
330
1F
100
AcDbEntity
  8
0-4
  6
Continuous
 62
    92
370
    13
100
AcDbLine
 10
-2448.333595894478
 20
450.8437303788753
 30
0.0
 11
-2315.00067318427
 21
486.5701793435585
 31
0.0
  0
LINE
  5
289
330
1F
100
AcDbEntity
  8
0-4
  6
Continuous
 62
    92
370
    13
100
AcDbLine
 10
-2315.00067318427
 20
219.9036227030257
 30
0.0
 11
-2315.00067318427
 21
486.5701793435585
 31
0.0
  0
LINE
  5
28A
330
1F
100
AcDbEntity
  8
0-4
  6
Continuous
 62
    92
370
    13
100
AcDbLine
 10
-2448.334417140727
 20
450.8437303788753
 30
0.0
 11
-2581.667339850935
 21
486.5701793435585
 31
0.0
  0
LINE
  5
28B
330
1F
100
AcDbEntity
  8
0-4
  6
Continuous
 62
    92
370
    13
100
AcDbLine
 10
-2581.667339850935
 20
219.9036227030257
 30
0.0
 11
-2581.667339850935
 21
486.5701793435585
 31
0.0
  0
LINE
  5
28C
330
1F
100
AcDbEntity
  8
0-4
  6
Continuous
 62
    92
370
    13
100
AcDbLine
 10
-2581.667339850935
 20
486.5701793435585
 30
0.0
 11
-2555.378081922943
 21
512.8594372715509
 31
0.0
  0
LINE
  5
28D
330
1F
100
AcDbEntity
  8
0-4
  6
Continuous
 62
    92
370
    13
100
AcDbLine
 10
-2315.00067318427
 20
486.5701793435585
 30
0.0
 11
-2341.289931112262
 21
512.8594372715509
 31
0.0
  0
LINE
  5
28E
330
1F
100
AcDbEntity
  8
0-4
  6
Continuous
 62
    92
370
    13
100
AcDbLine
 10
-2448.334006517603
 20
484.1770637121527
 30
0.0
 11
-2315.00067318427
 21
519.9036227029694
 31
0.0
  0
LINE
  5
28F
330
1F
100
AcDbEntity
  8
0-4
  6
Continuous
 62
    92
370
    13
100
AcDbLine
 10
-2448.334006511877
 20
594.1770637122096
 30
0.0
 11
-2530.403456072297
 21
616.1675064451907
 31
0.0
  0
LINE
  5
290
330
1F
100
AcDbEntity
  8
0-4
  6
Continuous
 62
    92
370
    13
100
AcDbLine
 10
-2448.334006517603
 20
484.1770637121527
 30
0.0
 11
-2448.334006517603
 21
594.1770637122096
 31
0.0
  0
LINE
  5
291
330
1F
100
AcDbEntity
  8
0-4
  6
JWW_DASHED1
 62
    92
370
    13
100
AcDbLine
 10
-2448.334006517603
 20
484.1770637121527
 30
0.0
 11
-2448.334006517603
 21
450.8437303788753
 31
0.0
  0
LINE
  5
292
330
1F
100
AcDbEntity
  8
0-4
  6
Continuous
 62
    92
370
    13
100
AcDbLine
 10
-2460.412228622388
 20
187.4134135711904
 30
0.0
 11
-2581.667339850935
 21
219.9036227030257
 31
0.0
  0
LINE
  5
293
330
1F
100
AcDbEntity
  8
0-4
  6
Continuous
 62
    92
370
    13
100
AcDbLine
 10
-2436.255784412817
 20
187.4134135711904
 30
0.0
 11
-2315.00067318427
 21
219.9036227030257
 31
0.0
  0
ARC
  5
294
330
1F
100
AcDbEntity
  8
0-4
  6
Continuous
 62
    92
370
    13
100
AcDbCircle
 10
-2448.334006517603
 20
232.4899521313466
 30
0.0
 40
46.66666666666666
100
AcDbArc
 50
255.0
 51
285.0
  0
LINE
  5
295
330
1F
100
AcDbEntity
  8
0-4
  6
Continuous
 62
    92
370
    13
100
AcDbLine
 10
-2448.334006517603
 20
185.8232854646803
 30
0.0
 11
-2448.334006517603
 21
450.8437303788753
 31
0.0
  0
LINE
  5
296
330
1F
100
AcDbEntity
  8
0-0
  6
JWW_HOJO
 62
     7
370
     9
100
AcDbLine
 10
-2581.667339850935
 20
601.966296524277
 30
0.0
 11
-2537.070122738962
 21
627.714511828982
 31
0.0
  0
LINE
  5
297
330
1F
100
AcDbEntity
  8
0-0
  6
JWW_HOJO
 62
     7
370
     9
100
AcDbLine
 10
-2448.334006517603
 20
170.3733813067413
 30
0.0
 11
-2581.667339850935
 21
206.0999402975585
 31
0.0
  0
LINE
  5
298
330
1F
100
AcDbEntity
  8
0-0
  6
JWW_HOJO
 62
     7
370
     9
100
AcDbLine
 10
-2448.334006517603
 20
170.3733813067413
 30
0.0
 11
-2281.667339850935
 21
215.031580045262
 31
0.0
  0
LINE
  5
299
330
1F
100
AcDbEntity
  8
0-0
  6
JWW_HOJO
 62
     7
370
     9
100
AcDbLine
 10
-2281.667339850935
 20
215.031580045262
 30
0.0
 11
-2281.667339850935
 21
560.4264701956077
 31
0.0
  0
LINE
  5
29A
330
1F
100
AcDbEntity
  8
0-0
  6
JWW_HOJO
 62
     7
370
     9
100
AcDbLine
 10
-2281.667339850935
 20
560.4264701956077
 30
0.0
 11
-2341.654848319636
 21
620.4139786643066
 31
0.0
  0
LWPOLYLINE
  5
29B
330
1F
100
AcDbEntity
  8
0-B
  6
Continuous
 62
     7
370
     9
100
AcDbPolyline
 90
        4
 70
     1
 43
2.0
 10
-2184.909346796864
 20
219.9036227030257
 42
0.4142135623731
 10
-2185.909346796864
 20
220.9036227030257
 42
0.4142135623731
 10
-2186.909346796864
 20
219.9036227030257
 42
0.4142135623731
 10
-2185.909346796864
 20
218.9036227030257
 42
0.4142135623731
  0
LWPOLYLINE
  5
29C
330
1F
100
AcDbEntity
  8
0-B
  6
Continuous
 62
     7
370
     9
100
AcDbPolyline
 90
        4
 70
     1
 43
2.0
 10
-2184.909346796864
 20
602.507252365341
 42
0.4142135623731
 10
-2185.909346796864
 20
603.507252365341
 42
0.4142135623731
 10
-2186.909346796864
 20
602.507252365341
 42
0.4142135623731
 10
-2185.909346796864
 20
601.507252365341
 42
0.4142135623731
  0
LINE
  5
29D
330
1F
100
AcDbEntity
  8
0-0
  6
JWW_HOJO
 62
     7
370
     9
100
AcDbLine
 10
-2185.909346796864
 20
189.4540137792967
 30
0.0
 11
-2185.909346796864
 21
574.2335889413772
 31
0.0
  0
LINE
  5
29E
330
1F
100
AcDbEntity
  8
0-B
  6
Continuous
 62
   120
370
     5
100
AcDbLine
 10
-2185.909346796864
 20
219.9036227030257
 30
0.0
 11
-2281.667339850935
 21
219.9036227030257
 31
0.0
  0
LINE
  5
29F
330
1F
100
AcDbEntity
  8
0-B
  6
Continuous
 62
   120
370
     5
100
AcDbLine
 10
-2185.909346796864
 20
602.507252365341
 30
0.0
 11
-2185.909346796864
 21
219.9036227030257
 31
0.0
  0
LINE
  5
2A0
330
1F
100
AcDbEntity
  8
0-B
  6
Continuous
 62
   120
370
     5
100
AcDbLine
 10
-2185.909346796864
 20
602.507252365341
 30
0.0
 11
-2263.523284114995
 21
602.507252365341
 31
0.0
  0
LINE
  5
2A1
330
1F
100
AcDbEntity
  8
0-0
  6
JWW_HOJO
 62
     7
370
     9
100
AcDbLine
 10
-2594.025658110577
 20
661.8615495920562
 30
0.0
 11
-2566.095107665271
 21
677.9872604102684
 31
0.0
  0
LINE
  5
2A2
330
1F
100
AcDbEntity
  8
0-B
  6
Continuous
 62
   120
370
     5
100
AcDbLine
 10
-2566.095107665271
 20
677.9872604102684
 30
0.0
 11
-2622.41080628901
 21
645.47337665025
 31
0.0
  0
LWPOLYLINE
  5
2A3
330
1F
100
AcDbEntity
  8
0-B
  6
Continuous
 62
     7
370
     9
100
AcDbPolyline
 90
        4
 70
     1
 43
2.0
 10
-2565.095107665271
 20
677.9872604102684
 42
0.4142135623731
 10
-2566.095107665271
 20
678.9872604102684
 42
0.4142135623731
 10
-2567.095107665272
 20
677.9872604102684
 42
0.4142135623731
 10
-2566.095107665271
 20
676.9872604102684
 42
0.4142135623731
  0
LWPOLYLINE
  5
2A4
330
1F
100
AcDbEntity
  8
0-B
  6
Continuous
 62
     7
370
     9
100
AcDbPolyline
 90
        4
 70
     1
 43
2.0
 10
-2621.41080628901
 20
645.47337665025
 42
0.4142135623731
 10
-2622.41080628901
 20
646.47337665025
 42
0.4142135623731
 10
-2623.410806289011
 20
645.47337665025
 42
0.4142135623731
 10
-2622.41080628901
 20
644.47337665025
 42
0.4142135623731
  0
LINE
  5
2A5
330
1F
100
AcDbEntity
  8
0-B
  6
Continuous
 62
   120
370
     5
100
AcDbLine
 10
-2566.095107665271
 20
677.9872604102684
 30
0.0
 11
-2537.070122738962
 21
627.714511828982
 31
0.0
  0
LINE
  5
2A6
330
1F
100
AcDbEntity
  8
0-B
  6
Continuous
 62
   120
370
     5
100
AcDbLine
 10
-2622.41080628901
 20
645.47337665025
 30
0.0
 11
-2593.385821362704
 21
595.200628068963
 31
0.0
  0
LINE
  5
2A7
330
1F
100
AcDbEntity
  8
0-B
  6
Continuous
 62
   120
370
     5
100
AcDbLine
 10
-2296.438639875269
 20
150.6291713020448
 30
0.0
 11
-2429.360034653441
 21
115.0129909144152
 31
0.0
  0
LWPOLYLINE
  5
2A8
330
1F
100
AcDbEntity
  8
0-B
  6
Continuous
 62
     7
370
     9
100
AcDbPolyline
 90
        4
 70
     1
 43
2.0
 10
-2295.438639875269
 20
150.6291713020448
 42
0.4142135623731
 10
-2296.438639875269
 20
151.6291713020448
 42
0.4142135623731
 10
-2297.438639875269
 20
150.6291713020448
 42
0.4142135623731
 10
-2296.438639875269
 20
149.6291713020448
 42
0.4142135623731
  0
LINE
  5
2A9
330
1F
100
AcDbEntity
  8
0-B
  6
Continuous
 62
   120
370
     5
100
AcDbLine
 10
-2296.438639875269
 20
150.6291713020448
 30
0.0
 11
-2311.549752582903
 21
207.0246116858391
 31
0.0
  0
LWPOLYLINE
  5
2AA
330
1F
100
AcDbEntity
  8
0-B
  6
Continuous
 62
     7
370
     9
100
AcDbPolyline
 90
        4
 70
     1
 43
2.0
 10
-2428.360034653441
 20
115.0129909144152
 42
0.4142135623731
 10
-2429.360034653441
 20
116.0129909144152
 42
0.4142135623731
 10
-2430.360034653441
 20
115.0129909144152
 42
0.4142135623731
 10
-2429.360034653441
 20
114.0129909144152
 42
0.4142135623731
  0
LINE
  5
2AB
330
1F
100
AcDbEntity
  8
0-B
  6
Continuous
 62
   120
370
     5
100
AcDbLine
 10
-2429.360034653441
 20
115.0129909144152
 30
0.0
 11
-2444.471147361076
 21
171.4084312982095
 31
0.0
  0
LINE
  5
2AC
330
1F
100
AcDbEntity
  8
0-0
  6
JWW_HOJO
 62
     7
370
     9
100
AcDbLine
 10
-2366.26455696291
 20
616.1675064451907
 30
0.0
 11
-2289.924228854079
 21
673.9299070840912
 31
0.0
  0
LINE
  5
2AD
330
1F
100
AcDbEntity
  8
0-0
  6
JWW_HOJO
 62
     7
370
     9
100
AcDbLine
 10
-2220.173613091598
 20
604.1792913216096
 30
0.0
 11
-2289.924228854079
 21
673.9299070840912
 31
0.0
  0
LINE
  5
2AE
330
1F
100
AcDbEntity
  8
0-0
  6
JWW_HOJO
 62
     7
370
     9
100
AcDbLine
 10
-2455.020845783549
 20
110.9085514105175
 30
0.0
 11
-2588.354179116882
 21
146.6351104013347
 31
0.0
  0
LINE
  5
2AF
330
1F
100
AcDbEntity
  8
0-B
  6
Continuous
 62
   120
370
     5
100
AcDbLine
 10
-2600.432401221667
 20
149.871460260315
 30
0.0
 11
-2467.098684771743
 21
114.1447986137183
 31
0.0
  0
LWPOLYLINE
  5
2B0
330
1F
100
AcDbEntity
  8
0-B
  6
Continuous
 62
     7
370
     9
100
AcDbPolyline
 90
        4
 70
     1
 43
2.0
 10
-2599.432401221667
 20
149.871460260315
 42
0.4142135623731
 10
-2600.432401221667
 20
150.871460260315
 42
0.4142135623731
 10
-2601.432401221668
 20
149.871460260315
 42
0.4142135623731
 10
-2600.432401221667
 20
148.871460260315
 42
0.4142135623731
  0
LWPOLYLINE
  5
2B1
330
1F
100
AcDbEntity
  8
0-B
  6
Continuous
 62
     7
370
     9
100
AcDbPolyline
 90
        4
 70
     1
 43
2.0
 10
-2466.098684771743
 20
114.1447986137183
 42
0.4142135623731
 10
-2467.098684771743
 20
115.1447986137183
 42
0.4142135623731
 10
-2468.098684771743
 20
114.1447986137183
 42
0.4142135623731
 10
-2467.098684771743
 20
113.1447986137183
 42
0.4142135623731
  0
LINE
  5
2B2
330
1F
100
AcDbEntity
  8
0-B
  6
Continuous
 62
   120
370
     5
100
AcDbLine
 10
-2600.432401221667
 20
149.871460260315
 30
0.0
 11
-2585.118260452302
 21
207.0246116858391
 31
0.0
  0
LINE
  5
2B3
330
1F
100
AcDbEntity
  8
0-B
  6
Continuous
 62
   120
370
     5
100
AcDbLine
 10
-2467.098684771743
 20
114.1447986137183
 30
0.0
 11
-2451.784544002378
 21
171.2979500392413
 31
0.0
  0
LINE
  5
2B4
330
1F
100
AcDbEntity
  8
0-0
  6
JWW_HOJO
 62
     7
370
     9
100
AcDbLine
 10
-2588.354179116882
 20
146.6351104013347
 30
0.0
 11
-2594.025658110577
 21
661.8615495920562
 31
0.0
  0
LINE
  5
2B5
330
1F
100
AcDbEntity
  8
0-B
  6
Continuous
 62
   120
370
     5
100
AcDbLine
 10
-2445.382698252713
 20
326.6051018459541
 30
0.0
 11
-2222.921314438138
 21
104.143718031379
 31
0.0
  0
LINE
  5
2B6
330
1F
100
AcDbEntity
  8
0-B
  6
Continuous
 62
   120
370
     5
100
AcDbLine
 10
-2222.921314438138
 20
104.143718031379
 30
0.0
 11
-2159.483339844571
 21
104.143718031379
 31
0.0
  0
LINE
  5
2B7
330
1F
100
AcDbEntity
  8
0-0
  6
JWW_HOJO
 62
     7
370
     9
100
AcDbLine
 10
-2448.333595894478
 20
-249.4192439840288
 30
0.0
 11
-2273.840008481295
 21
-296.1746598158004
 31
0.0
  0
LINE
  5
2B8
330
1F
100
AcDbEntity
  8
0-0
  6
JWW_HOJO
 62
     7
370
     9
100
AcDbLine
 10
-2273.840008481295
 20
-296.1746598158004
 30
0.0
 11
-2273.840008481295
 21
-698.6736563886948
 31
0.0
  0
LINE
  5
2B9
330
1F
100
AcDbEntity
  8
0-0
  6
JWW_HOJO
 62
     7
370
     9
100
AcDbLine
 10
-2307.17334181463
 20
-327.3769849936906
 30
0.0
 11
-2307.17334181463
 21
-698.6736563886948
 31
0.0
  0
LINE
  5
2BA
330
1F
100
AcDbEntity
  8
0-4
  6
Continuous
 62
    92
370
    13
100
AcDbLine
 10
-2418.138040632518
 20
-292.0193246451493
 30
0.0
 11
-2307.17334181463
 21
-321.7522260817657
 31
0.0
  0
LINE
  5
2BB
330
1F
100
AcDbEntity
  8
0-4
  6
Continuous
 62
    92
370
    13
100
AcDbLine
 10
-2348.333595894478
 20
-441.8230840724945
 30
0.0
 11
-2348.333595894478
 21
-708.4897507414403
 31
0.0
  0
LINE
  5
2BC
330
1F
100
AcDbEntity
  8
0-4
  6
Continuous
 62
    92
370
    13
100
AcDbLine
 10
-2341.666929227811
 20
-445.6720858799753
 30
0.0
 11
-2321.666929227811
 21
-434.1250804961837
 31
0.0
  0
LINE
  5
2BD
330
1F
100
AcDbEntity
  8
0-4
  6
Continuous
 62
    92
370
    13
100
AcDbLine
 10
-2341.666929227811
 20
-445.6720858799753
 30
0.0
 11
-2341.666929227811
 21
-704.6407489468434
 31
0.0
  0
LINE
  5
2BE
330
1F
100
AcDbEntity
  8
0-4
  6
Continuous
 62
    92
370
    13
100
AcDbLine
 10
-2321.666929227811
 20
-391.0310697159218
 30
0.0
 11
-2341.666929227811
 21
-385.6720858672992
 31
0.0
  0
LINE
  5
2BF
330
1F
100
AcDbEntity
  8
0-4
  6
Continuous
 62
    92
370
    13
100
AcDbLine
 10
-2321.666929227811
 20
-434.1250804961837
 30
0.0
 11
-2321.666929227811
 21
-391.0310697159218
 31
0.0
  0
LINE
  5
2C0
330
1F
100
AcDbEntity
  8
0-4
  6
Continuous
 62
    92
370
    13
100
AcDbLine
 10
-2341.666929227811
 20
-402.5780750997149
 30
0.0
 11
-2321.666929227811
 21
-391.0310697159218
 31
0.0
  0
LINE
  5
2C1
330
1F
100
AcDbEntity
  8
0-4
  6
Continuous
 62
    92
370
    13
100
AcDbLine
 10
-2348.333595894478
 20
-414.1250804835076
 30
0.0
 11
-2328.333595894478
 21
-402.5780750997149
 31
0.0
  0
LINE
  5
2C2
330
1F
100
AcDbEntity
  8
0-4
  6
Continuous
 62
    92
370
    13
100
AcDbLine
 10
-2328.333595894478
 20
-430.2760787015853
 30
0.0
 11
-2328.333595894478
 21
-402.5780750997149
 31
0.0
  0
LINE
  5
2C3
330
1F
100
AcDbEntity
  8
0-4
  6
Continuous
 62
    92
370
    13
100
AcDbLine
 10
-2328.333595894478
 20
-430.2760787015853
 30
0.0
 11
-2449.217912416634
 21
-397.8852237118861
 31
0.0
  0
LINE
  5
2C4
330
1F
100
AcDbEntity
  8
0-4
  6
Continuous
 62
    92
370
    13
100
AcDbLine
 10
-2448.333595894478
 20
-387.3301612403947
 30
0.0
 11
-2348.333595894478
 21
-414.1250804835076
 31
0.0
  0
LINE
  5
2C5
330
1F
100
AcDbEntity
  8
0-4
  6
Continuous
 62
    92
370
    13
100
AcDbLine
 10
-2328.333595894478
 20
-430.2760787015853
 30
0.0
 11
-2348.333595894478
 21
-441.8230840853775
 31
0.0
  0
LINE
  5
2C6
330
1F
100
AcDbEntity
  8
0-4
  6
Continuous
 62
    92
370
    13
100
AcDbLine
 10
-2448.333595894478
 20
-415.0281648293816
 30
0.0
 11
-2348.333595894478
 21
-441.8230840724945
 31
0.0
  0
LINE
  5
2C7
330
1F
100
AcDbEntity
  8
0-4
  6
Continuous
 62
    92
370
    13
100
AcDbLine
 10
-2307.17334181463
 20
-321.7522260817657
 30
0.0
 11
-2307.17334181463
 21
-327.3769849936906
 31
0.0
  0
LINE
  5
2C8
330
1F
100
AcDbEntity
  8
0-4
  6
Continuous
 62
    92
370
    13
100
AcDbLine
 10
-2436.255373789693
 20
-684.931181357309
 30
0.0
 11
-2348.333595894478
 21
-708.4897507414403
 31
0.0
  0
LINE
  5
2C9
330
1F
100
AcDbEntity
  8
0-4
  6
Continuous
 62
    92
370
    13
100
AcDbLine
 10
-2348.333595894478
 20
-708.4897507414403
 30
0.0
 11
-2341.666929227811
 21
-704.6407489468434
 31
0.0
  0
ARC
  5
2CA
330
1F
100
AcDbEntity
  8
0-4
  6
Continuous
 62
    92
370
    13
100
AcDbCircle
 10
-2448.333595894478
 20
-730.0077199174652
 30
0.0
 40
46.66666666666666
100
AcDbArc
 50
74.99999999999996
 51
105.0
  0
ARC
  5
2CB
330
1F
100
AcDbEntity
  8
0-4
  6
Continuous
 62
    92
370
    13
100
AcDbCircle
 10
-2448.333595894478
 20
-404.7106710455409
 30
0.0
 40
116.6666666666667
100
AcDbArc
 50
75.00000000000006
 51
104.9999999999999
  0
LINE
  5
2CC
330
1F
100
AcDbEntity
  8
0-4
  6
Continuous
 62
    92
370
    13
100
AcDbLine
 10
-2448.333595894478
 20
-683.3410532507978
 30
0.0
 11
-2448.333595894478
 21
-288.0440043788747
 31
0.0
  0
LINE
  5
2CD
330
1F
100
AcDbEntity
  8
0-4
  6
Continuous
 62
    92
370
    13
100
AcDbLine
 10
-2589.493849974326
 20
-321.7522260817657
 30
0.0
 11
-2589.493849974326
 21
-327.3769849936906
 31
0.0
  0
LINE
  5
2CE
330
1F
100
AcDbEntity
  8
0-4
  6
Continuous
 62
    92
370
    13
100
AcDbLine
 10
-2548.333595894478
 20
-708.4897507414403
 30
0.0
 11
-2555.000262561146
 21
-704.6407489468434
 31
0.0
  0
LINE
  5
2CF
330
1F
100
AcDbEntity
  8
0-4
  6
Continuous
 62
    92
370
    13
100
AcDbLine
 10
-2448.333595894478
 20
-415.0281648293816
 30
0.0
 11
-2548.333595894478
 21
-441.8230840724945
 31
0.0
  0
LINE
  5
2D0
330
1F
100
AcDbEntity
  8
0-4
  6
Continuous
 62
    92
370
    13
100
AcDbLine
 10
-2555.000262561146
 20
-704.6407489468434
 30
0.0
 11
-2555.000262561146
 21
-445.6720858799753
 31
0.0
  0
LINE
  5
2D1
330
1F
100
AcDbEntity
  8
0-4
  6
Continuous
 62
    92
370
    13
100
AcDbLine
 10
-2555.000262561146
 20
-445.6720858799753
 30
0.0
 11
-2575.000262561146
 21
-434.1250804961837
 31
0.0
  0
LINE
  5
2D2
330
1F
100
AcDbEntity
  8
0-4
  6
Continuous
 62
    92
370
    13
100
AcDbLine
 10
-2568.333595894478
 20
-430.2760787015853
 30
0.0
 11
-2548.333595894478
 21
-441.8230840853784
 31
0.0
  0
LINE
  5
2D3
330
1F
100
AcDbEntity
  8
0-4
  6
Continuous
 62
    92
370
    13
100
AcDbLine
 10
-2548.333595894478
 20
-704.6407489468434
 30
0.0
 11
-2548.333595894478
 21
-441.8230840724945
 31
0.0
  0
LINE
  5
2D4
330
1F
100
AcDbEntity
  8
0-4
  6
Continuous
 62
    92
370
    13
100
AcDbLine
 10
-2448.333595894478
 20
-387.3301612403947
 30
0.0
 11
-2548.333595894478
 21
-414.1250804835076
 31
0.0
  0
LINE
  5
2D5
330
1F
100
AcDbEntity
  8
0-4
  6
Continuous
 62
    92
370
    13
100
AcDbLine
 10
-2568.333595894478
 20
-430.2760787015853
 30
0.0
 11
-2447.449279372322
 21
-397.8852237118861
 31
0.0
  0
LINE
  5
2D6
330
1F
100
AcDbEntity
  8
0-4
  6
Continuous
 62
    92
370
    13
100
AcDbLine
 10
-2568.333595894478
 20
-430.2760787015853
 30
0.0
 11
-2568.333595894478
 21
-402.5780750997149
 31
0.0
  0
LINE
  5
2D7
330
1F
100
AcDbEntity
  8
0-4
  6
Continuous
 62
    92
370
    13
100
AcDbLine
 10
-2548.333595894478
 20
-414.1250804835076
 30
0.0
 11
-2568.333595894478
 21
-402.5780750997149
 31
0.0
  0
LINE
  5
2D8
330
1F
100
AcDbEntity
  8
0-4
  6
Continuous
 62
    92
370
    13
100
AcDbLine
 10
-2555.000262561146
 20
-402.5780750997149
 30
0.0
 11
-2575.000262561146
 21
-391.0310697159218
 31
0.0
  0
LINE
  5
2D9
330
1F
100
AcDbEntity
  8
0-4
  6
Continuous
 62
    92
370
    13
100
AcDbLine
 10
-2575.000262561146
 20
-434.1250804961837
 30
0.0
 11
-2575.000262561146
 21
-391.0310697159218
 31
0.0
  0
LINE
  5
2DA
330
1F
100
AcDbEntity
  8
0-4
  6
Continuous
 62
    92
370
    13
100
AcDbLine
 10
-2575.000262561146
 20
-391.0310697159218
 30
0.0
 11
-2555.000262561146
 21
-385.6720858672992
 31
0.0
  0
LINE
  5
2DB
330
1F
100
AcDbEntity
  8
0-4
  6
Continuous
 62
    92
370
    13
100
AcDbLine
 10
-2460.411817999263
 20
-684.931181357309
 30
0.0
 11
-2548.333595894478
 21
-708.4897507414403
 31
0.0
  0
LINE
  5
2DC
330
1F
100
AcDbEntity
  8
0-4
  6
Continuous
 62
    92
370
    13
100
AcDbLine
 10
-2478.529151156438
 20
-292.0193246451493
 30
0.0
 11
-2589.493849974326
 21
-321.7522260817657
 31
0.0
  0
LINE
  5
2DD
330
1F
100
AcDbEntity
  8
0-0
  6
JWW_HOJO
 62
     7
370
     9
100
AcDbLine
 10
-2448.333595894478
 20
-249.4192439840288
 30
0.0
 11
-2598.121151477744
 21
-289.5546985387966
 31
0.0
  0
LINE
  5
2DE
330
1F
100
AcDbEntity
  8
0-B
  6
Continuous
 62
   120
370
     5
100
AcDbLine
 10
-2185.909346796864
 20
-321.7488752622234
 30
0.0
 11
-2273.840008481295
 21
-321.7488752622234
 31
0.0
  0
LINE
  5
2DF
330
1F
100
AcDbEntity
  8
0-B
  6
Continuous
 62
   120
370
     5
100
AcDbLine
 10
-2185.909346796864
 20
-704.6407489468434
 30
0.0
 11
-2273.840008481295
 21
-704.6407489468434
 31
0.0
  0
LWPOLYLINE
  5
2E0
330
1F
100
AcDbEntity
  8
0-B
  6
Continuous
 62
     7
370
     9
100
AcDbPolyline
 90
        4
 70
     1
 43
2.0
 10
-2184.909346796864
 20
-321.7488752622234
 42
0.4142135623731
 10
-2185.909346796864
 20
-320.7488752622234
 42
0.4142135623731
 10
-2186.909346796864
 20
-321.7488752622234
 42
0.4142135623731
 10
-2185.909346796864
 20
-322.7488752622234
 42
0.4142135623731
  0
LWPOLYLINE
  5
2E1
330
1F
100
AcDbEntity
  8
0-B
  6
Continuous
 62
     7
370
     9
100
AcDbPolyline
 90
        4
 70
     1
 43
2.0
 10
-2184.909346796864
 20
-704.6407489468434
 42
0.4142135623731
 10
-2185.909346796864
 20
-703.6407489468434
 42
0.4142135623731
 10
-2186.909346796864
 20
-704.6407489468434
 42
0.4142135623731
 10
-2185.909346796864
 20
-705.6407489468432
 42
0.4142135623731
  0
LINE
  5
2E2
330
1F
100
AcDbEntity
  8
0-B
  6
Continuous
 62
   120
370
     5
100
AcDbLine
 10
-2185.909346796864
 20
-704.6407489468434
 30
0.0
 11
-2185.909346796864
 21
-321.7488752622234
 31
0.0
  0
LINE
  5
2E3
330
1F
100
AcDbEntity
  8
0-0
  6
JWW_HOJO
 62
     7
370
     9
100
AcDbLine
 10
-2185.909346796864
 20
-270.597093549834
 30
0.0
 11
-2185.909346796864
 21
-698.6736563886948
 31
0.0
  0
LWPOLYLINE
  5
2E4
330
1F
100
AcDbEntity
  8
0-B
  6
Continuous
 62
     7
370
     9
100
AcDbPolyline
 90
        4
 70
     1
 43
2.0
 10
-2473.226072825165
 20
-191.4119649397401
 42
0.4142135623731
 10
-2474.226072825165
 20
-190.4119649397401
 42
0.4142135623731
 10
-2475.226072825165
 20
-191.4119649397401
 42
0.4142135623731
 10
-2474.226072825165
 20
-192.4119649397401
 42
0.4142135623731
  0
LINE
  5
2E5
330
1F
100
AcDbEntity
  8
0-B
  6
Continuous
 62
   120
370
     5
100
AcDbLine
 10
-2474.226072825165
 20
-191.4119649397401
 30
0.0
 11
-2457.989785993188
 21
-252.0066123229401
 31
0.0
  0
LINE
  5
2E6
330
1F
100
AcDbEntity
  8
0-B
  6
Continuous
 62
   120
370
     5
100
AcDbLine
 10
-2614.351185595333
 20
-228.9583757458274
 30
0.0
 11
-2474.226072825165
 21
-191.4119649397401
 31
0.0
  0
LWPOLYLINE
  5
2E7
330
1F
100
AcDbEntity
  8
0-B
  6
Continuous
 62
     7
370
     9
100
AcDbPolyline
 90
        4
 70
     1
 43
2.0
 10
-2613.351185595333
 20
-228.9583757458274
 42
0.4142135623731
 10
-2614.351185595333
 20
-227.9583757458274
 42
0.4142135623731
 10
-2615.351185595333
 20
-228.9583757458274
 42
0.4142135623731
 10
-2614.351185595333
 20
-229.9583757458274
 42
0.4142135623731
  0
LINE
  5
2E8
330
1F
100
AcDbEntity
  8
0-B
  6
Continuous
 62
   120
370
     5
100
AcDbLine
 10
-2614.351185595333
 20
-228.9583757458274
 30
0.0
 11
-2598.114898763356
 21
-289.5530231290257
 31
0.0
  0
LINE
  5
2E9
330
1F
100
AcDbEntity
  8
0-B
  6
Continuous
 62
   120
370
     5
100
AcDbLine
 10
-2282.175253176267
 20
-228.4080674761776
 30
0.0
 11
-2298.558545739991
 21
-289.5513477192543
 31
0.0
  0
LWPOLYLINE
  5
2EA
330
1F
100
AcDbEntity
  8
0-B
  6
Continuous
 62
     7
370
     9
100
AcDbPolyline
 90
        4
 70
     1
 43
2.0
 10
-2281.175253176267
 20
-228.4080674761776
 42
0.4142135623731
 10
-2282.175253176267
 20
-227.4080674761776
 42
0.4142135623731
 10
-2283.175253176267
 20
-228.4080674761776
 42
0.4142135623731
 10
-2282.175253176267
 20
-229.4080674761776
 42
0.4142135623731
  0
LINE
  5
2EB
330
1F
100
AcDbEntity
  8
0-B
  6
Continuous
 62
   120
370
     5
100
AcDbLine
 10
-2422.294113232044
 20
-190.8633320798629
 30
0.0
 11
-2282.175253176267
 21
-228.4080674761776
 31
0.0
  0
LWPOLYLINE
  5
2EC
330
1F
100
AcDbEntity
  8
0-B
  6
Continuous
 62
     7
370
     9
100
AcDbPolyline
 90
        4
 70
     1
 43
2.0
 10
-2421.294113232044
 20
-190.8633320798629
 42
0.4142135623731
 10
-2422.294113232044
 20
-189.8633320798629
 42
0.4142135623731
 10
-2423.294113232044
 20
-190.8633320798629
 42
0.4142135623731
 10
-2422.294113232044
 20
-191.8633320798629
 42
0.4142135623731
  0
LINE
  5
2ED
330
1F
100
AcDbEntity
  8
0-B
  6
Continuous
 62
   120
370
     5
100
AcDbLine
 10
-2422.294113232044
 20
-190.8633320798629
 30
0.0
 11
-2438.677405795768
 21
-252.0066123229401
 31
0.0
  0
LINE
  5
2EE
330
1F
100
AcDbEntity
  8
0-B
  6
Continuous
 62
   120
370
     5
100
AcDbLine
 10
-2448.948771258608
 20
-488.3522396766489
 30
0.0
 11
-2509.714927751779
 21
-549.1183961698207
 31
0.0
  0
LINE
  5
2EF
330
1F
100
AcDbEntity
  8
0-B
  6
Continuous
 62
   120
370
     5
100
AcDbLine
 10
-2509.714927751779
 20
-549.1183961698207
 30
0.0
 11
-2636.685259827042
 21
-549.1183961698207
 31
0.0
  0
MTEXT
  5
2F0
330
1F
100
AcDbEntity
  8
0-A
  6
Continuous
 62
     7
370
     9
100
AcDbMText
 10
-293.3334680505692
 20
717.443531258445
 30
0.0
 40
45.72
 41
60.0
 46
0.0
 71
     7
 72
     1
  1
{\fＭＳ ゴシック|b0|i0|c128|p49;10}
 73
     1
 44
1.0
  0
MTEXT
  5
2F1
330
1F
100
AcDbEntity
  8
0-A
  6
Continuous
 62
     7
370
     9
100
AcDbMText
 10
-293.3334680505692
 20
-115.8898554082219
 30
0.0
 40
45.72
 41
60.0
 46
0.0
 71
     7
 72
     1
  1
{\fＭＳ ゴシック|b0|i0|c128|p49;20}
 73
     1
 44
1.0
  0
LINE
  5
2F2
330
1F
100
AcDbEntity
  8
0-A
  6
JWW_HOJO
 62
   120
370
     5
100
AcDbLine
 10
-3293.333352578653
 20
-159.9998520748886
 30
0.0
 11
-3999.999835040119
 21
-159.9998520748886
 31
0.0
  0
LINE
  5
2F3
330
1F
100
AcDbEntity
  8
0-A
  6
JWW_HOJO
 62
   120
370
     5
100
AcDbLine
 10
-3293.333352578653
 20
-26.66651874155491
 30
0.0
 11
-3999.999835040119
 21
-26.66651874155491
 31
0.0
  0
LINE
  5
2F4
330
1F
100
AcDbEntity
  8
0-A
  6
JWW_HOJO
 62
   120
370
     5
100
AcDbLine
 10
-3293.333352578653
 20
106.6668145917788
 30
0.0
 11
-3999.999835040119
 21
106.6668145917788
 31
0.0
  0
MTEXT
  5
2F5
330
1F
100
AcDbEntity
  8
0-A
  6
Continuous
 62
     7
370
     9
100
AcDbMText
 10
-3966.666593809384
 20
-76.1865187415549
 30
0.0
 40
60.96
 41
640.0
 46
0.0
 71
     7
 72
     1
  1
{\fＭＳ ゴシック|b0|i0|c128|p49;コーナーキャップ}
 73
     1
 44
1.0
  0
MTEXT
  5
2F6
330
1F
100
AcDbEntity
  8
0-A
  6
Continuous
 62
     7
370
     9
100
AcDbMText
 10
-3766.666593809384
 20
57.14681459177881
 30
0.0
 40
60.96
 41
240.0
 46
0.0
 71
     7
 72
     1
  1
{\fＭＳ ゴシック|b0|i0|c128|p49;巾木・}
 73
     1
 44
1.0
  0
LINE
  5
2F7
330
1F
100
AcDbEntity
  8
0-4
  6
Continuous
 62
    92
370
    13
100
AcDbLine
 10
-2581.667339850935
 20
519.9036227029706
 30
0.0
 11
-2581.667339850935
 21
586.5702893458877
 31
0.0
  0
LINE
  5
2F8
330
1F
100
AcDbEntity
  8
0-4
  6
Continuous
 62
    92
370
    13
100
AcDbLine
 10
-2581.667339850935
 20
586.5702893458877
 30
0.0
 11
-2530.403456072297
 21
616.1675064451907
 31
0.0
  0
LINE
  5
2F9
330
1F
100
AcDbEntity
  8
0-4
  6
Continuous
 62
    92
370
    13
100
AcDbLine
 10
-2315.00067318427
 20
519.9036227029694
 30
0.0
 11
-2315.00067318427
 21
586.5702893458871
 31
0.0
  0
LINE
  5
2FA
330
1F
100
AcDbEntity
  8
0-4
  6
Continuous
 62
    92
370
    13
100
AcDbLine
 10
-2315.00067318427
 20
586.5702893458871
 30
0.0
 11
-2366.26455696291
 21
616.1675064451907
 31
0.0
  0
LINE
  5
2FB
330
1F
100
AcDbEntity
  8
0-4
  6
Continuous
 62
    92
370
    13
100
AcDbLine
 10
-2448.334006511877
 20
550.8437303535362
 30
0.0
 11
-2581.66733984521
 21
586.5702893443523
 31
0.0
  0
LINE
  5
2FC
330
1F
100
AcDbEntity
  8
0-4
  6
Continuous
 62
    92
370
    13
100
AcDbLine
 10
-2448.33400652333
 20
550.8437303535362
 30
0.0
 11
-2315.000673189995
 21
586.5702893443523
 31
0.0
  0
LINE
  5
2FD
330
1F
100
AcDbEntity
  8
0-B
  6
Continuous
 62
   120
370
     5
100
AcDbLine
 10
-2330.572084123687
 20
677.9872604102684
 30
0.0
 11
-2274.256385499946
 21
645.47337665025
 31
0.0
  0
LWPOLYLINE
  5
2FE
330
1F
100
AcDbEntity
  8
0-B
  6
Continuous
 62
     7
370
     9
100
AcDbPolyline
 90
        4
 70
     1
 43
2.0
 10
-2329.572084123687
 20
677.9872604102684
 42
0.4142135623731
 10
-2330.572084123687
 20
678.9872604102684
 42
0.4142135623731
 10
-2331.572084123687
 20
677.9872604102684
 42
0.4142135623731
 10
-2330.572084123687
 20
676.9872604102684
 42
0.4142135623731
  0
LWPOLYLINE
  5
2FF
330
1F
100
AcDbEntity
  8
0-B
  6
Continuous
 62
     7
370
     9
100
AcDbPolyline
 90
        4
 70
     1
 43
2.0
 10
-2273.256385499946
 20
645.47337665025
 42
0.4142135623731
 10
-2274.256385499946
 20
646.47337665025
 42
0.4142135623731
 10
-2275.256385499946
 20
645.47337665025
 42
0.4142135623731
 10
-2274.256385499946
 20
644.47337665025
 42
0.4142135623731
  0
LINE
  5
300
330
1F
100
AcDbEntity
  8
0-B
  6
Continuous
 62
   120
370
     5
100
AcDbLine
 10
-2330.572084123687
 20
677.9872604102684
 30
0.0
 11
-2359.597069049994
 21
627.7145118289832
 31
0.0
  0
LINE
  5
301
330
1F
100
AcDbEntity
  8
0-B
  6
Continuous
 62
   120
370
     5
100
AcDbLine
 10
-2274.256385499946
 20
645.47337665025
 30
0.0
 11
-2303.281370426253
 21
595.2006280689648
 31
0.0
  0
LINE
  5
302
330
1F
100
AcDbEntity
  8
0-4
  6
Continuous
 62
    92
370
    13
100
AcDbLine
 10
-2548.333595894478
 20
-345.5055390224663
 30
0.0
 11
-2589.489272669709
 21
-321.744297957606
 31
0.0
  0
LINE
  5
303
330
1F
100
AcDbEntity
  8
0-4
  6
Continuous
 62
    92
370
    13
100
AcDbLine
 10
-2548.333595894478
 20
-414.1250804835076
 30
0.0
 11
-2548.333595894478
 21
-345.5055390224663
 31
0.0
  0
LINE
  5
304
330
1F
100
AcDbEntity
  8
0-4
  6
Continuous
 62
    92
370
    13
100
AcDbLine
 10
-2555.000262561146
 20
-402.5780750997149
 30
0.0
 11
-2555.000262561146
 21
-347.2918669720082
 31
0.0
  0
LINE
  5
305
330
1F
100
AcDbEntity
  8
0-4
  6
Continuous
 62
    92
370
    13
100
AcDbLine
 10
-2555.000262561146
 20
-347.2918669720082
 30
0.0
 11
-2589.493849974326
 21
-327.3769849936906
 31
0.0
  0
LINE
  5
306
330
1F
100
AcDbEntity
  8
0-4
  6
Continuous
 62
    92
370
    13
100
AcDbLine
 10
-2341.666929227811
 20
-347.2918669720065
 30
0.0
 11
-2307.17334181463
 21
-327.3769849936906
 31
0.0
  0
LINE
  5
307
330
1F
100
AcDbEntity
  8
0-4
  6
Continuous
 62
    92
370
    13
100
AcDbLine
 10
-2341.666929227811
 20
-402.5780750997149
 30
0.0
 11
-2341.666929227811
 21
-347.2918669720065
 31
0.0
  0
LINE
  5
308
330
1F
100
AcDbEntity
  8
0-4
  6
Continuous
 62
    92
370
    13
100
AcDbLine
 10
-2348.333595894478
 20
-414.1250804835076
 30
0.0
 11
-2348.333595894478
 21
-345.5055390224652
 31
0.0
  0
LINE
  5
309
330
1F
100
AcDbEntity
  8
0-4
  6
Continuous
 62
    92
370
    13
100
AcDbLine
 10
-2348.333595894478
 20
-345.5055390224652
 30
0.0
 11
-2307.177919119247
 21
-321.744297957606
 31
0.0
  0
LINE
  5
30A
330
1F
100
AcDbEntity
  8
0-4
  6
Continuous
 62
    92
370
    13
100
AcDbLine
 10
-2448.333595894478
 20
-318.7106197793548
 30
0.0
 11
-2548.333595894478
 21
-345.5055390224663
 31
0.0
  0
LINE
  5
30B
330
1F
100
AcDbEntity
  8
0-4
  6
Continuous
 62
    92
370
    13
100
AcDbLine
 10
-2448.333595894478
 20
-318.7106197793548
 30
0.0
 11
-2348.333595894478
 21
-345.5055390224663
 31
0.0
  0
MTEXT
  5
30C
330
1F
100
AcDbEntity
  8
0-A
  6
Continuous
 62
     7
370
     9
100
AcDbMText
 10
-1468.333220610748
 20
717.443531258445
 30
0.0
 40
45.71999999999998
 41
330.0
 46
0.0
 71
     7
 72
     1
  1
{\fＭＳ ゴシック|b0|i0|c128|p49;25×25×8.5}
 73
     1
 44
1.0
  0
MTEXT
  5
30D
330
1F
100
AcDbEntity
  8
0-A
  6
Continuous
 62
     7
370
     9
100
AcDbMText
 10
-1820.335857643742
 20
-4.625778694768897
 30
0.0
 40
45.72
 41
150.0
 46
0.0
 71
     7
 72
     1
  1
{\fＭＳ ゴシック|b0|i0|c128|p49;S=1/3}
 73
     1
 44
1.0
  0
MTEXT
  5
30E
330
1F
100
AcDbEntity
  8
0-A
  6
Continuous
 62
     7
370
     9
100
AcDbMText
 10
-1528.333468050571
 20
-115.8898554115552
 30
0.0
 40
45.71999999999999
 41
450.0
 46
0.0
 71
     7
 72
     1
  1
{\fＭＳ ゴシック|b0|i0|c128|p49;28.5×28.5×8.5}
 73
     1
 44
1.0
  0
MTEXT
  5
30F
330
1F
100
AcDbEntity
  8
0-A
  6
Continuous
 62
     7
370
     9
100
AcDbMText
 10
-1820.335857643742
 20
-837.9591653614352
 30
0.0
 40
45.72
 41
150.0
 46
0.0
 71
     7
 72
     1
  1
{\fＭＳ ゴシック|b0|i0|c128|p49;S=1/3}
 73
     1
 44
1.0
  0
MTEXT
  5
310
330
1F
100
AcDbEntity
  8
0-B
  6
Continuous
 62
     7
370
   211
100
AcDbMText
 10
-2664.333465284735
 20
651.0800435741589
 30
0.0
 40
45.72
 41
90.0
 46
0.0
 71
     7
 72
     1
  1
{\fＭＳ ゴシック|b0|i0|c128|p49;8.5}
 73
     1
 44
1.0
  0
MTEXT
  5
311
330
1F
100
AcDbEntity
  8
0-B
  6
Continuous
 62
     7
370
   211
100
AcDbMText
 10
-2322.333726504221
 20
651.0800435741589
 30
0.0
 40
45.72
 41
90.0
 46
0.0
 71
     7
 72
     1
  1
{\fＭＳ ゴシック|b0|i0|c128|p49;8.5}
 73
     1
 44
1.0
  0
MTEXT
  5
312
330
1F
100
AcDbEntity
  8
0-B
  6
Continuous
 62
     7
370
     9
100
AcDbMText
 10
-2209.729431749011
 20
97.49636661044177
 30
0.0
 40
45.72
 41
60.0
 46
0.0
 71
     7
 72
     1
  1
{\fＭＳ ゴシック|b0|i0|c128|p49;3R}
 73
     1
 44
1.0
  0
MTEXT
  5
313
330
1F
100
AcDbEntity
  8
0-B
  6
Continuous
 62
     7
370
   211
100
AcDbMText
 10
-2578.272460491527
 20
74.67715121274854
 30
0.0
 40
45.71999999999984
 41
59.99999999999978
 46
0.0
 71
     7
 72
     1
  1
{\fＭＳ ゴシック|b0|i0|c128|p49;25}
 11
0.9659258262890601
 21
-0.2588190451025517
 31
0.0
 73
     1
 44
1.0
  0
MTEXT
  5
314
330
1F
100
AcDbEntity
  8
0-B
  6
Continuous
 62
     7
370
   211
100
AcDbMText
 10
-2376.347969346876
 20
59.96096017781036
 30
0.0
 40
45.72000000000106
 41
60.00000000000139
 46
0.0
 71
     7
 72
     1
  1
{\fＭＳ ゴシック|b0|i0|c128|p49;25}
 11
0.9659258262890721
 21
0.2588190451025068
 31
0.0
 73
     1
 44
1.0
  0
MTEXT
  5
315
330
1F
100
AcDbEntity
  8
0-B
  6
Continuous
 62
     7
370
   211
100
AcDbMText
 10
-2410.190232781501
 20
-201.2465570718693
 30
0.0
 40
45.72000000000028
 41
120.0000000000007
 46
0.0
 71
     7
 72
     1
  1
{\fＭＳ ゴシック|b0|i0|c128|p49;28.5}
 11
0.9659258262890694
 21
-0.2588190451025164
 31
0.0
 73
     1
 44
1.0
  0
MTEXT
  5
316
330
1F
100
AcDbEntity
  8
0-B
  6
Continuous
 62
     7
370
   211
100
AcDbMText
 10
-2602.244178787591
 20
-232.854313048935
 30
0.0
 40
45.71999999999902
 41
119.9999999999974
 46
0.0
 71
     7
 72
     1
  1
{\fＭＳ ゴシック|b0|i0|c128|p49;28.5}
 11
0.9659258262890678
 21
0.2588190451025231
 31
0.0
 73
     1
 44
1.0
  0
MTEXT
  5
317
330
1F
100
AcDbEntity
  8
0-B
  6
Continuous
 62
     7
370
     9
100
AcDbMText
 10
-2629.465171679487
 20
-555.0832277189833
 30
0.0
 40
45.72
 41
60.0
 46
0.0
 71
     7
 72
     1
  1
{\fＭＳ ゴシック|b0|i0|c128|p49;3R}
 73
     1
 44
1.0
  0
MTEXT
  5
318
330
1F
100
AcDbEntity
  8
0-A
  6
Continuous
 62
     7
370
     9
100
AcDbMText
 10
-3806.666593809386
 20
-209.5198520748886
 30
0.0
 40
60.96
 41
320.0
 46
0.0
 71
     7
 72
     1
  1
{\fＭＳ ゴシック|b0|i0|c128|p49;Ｔ型対応}
 73
     1
 44
1.0
  0
MTEXT
  5
319
330
1F
100
AcDbEntity
  8
0-B
  6
Continuous
 62
     7
370
   211
100
AcDbMText
 10
-2177.333621978858
 20
373.6579788521226
 30
0.0
 40
45.72
 41
120.0
 46
0.0
 71
     7
 72
     1
  1
{\fＭＳ ゴシック|b0|i0|c128|p49;64.5}
 73
     1
 44
1.0
  0
MTEXT
  5
31A
330
1F
100
AcDbEntity
  8
0-B
  6
Continuous
 62
     7
370
   211
100
AcDbMText
 10
-2171.113994576081
 20
-528.7402548018114
 30
0.0
 40
45.72
 41
120.0
 46
0.0
 71
     7
 72
     1
  1
{\fＭＳ ゴシック|b0|i0|c128|p49;64.5}
 73
     1
 44
1.0
  0
LINE
  5
31B
330
1F
100
AcDbEntity
  8
0-4
  6
Continuous
 62
    92
370
    13
100
AcDbLine
 10
-2448.334006517603
 20
-1182.489709621181
 30
0.0
 11
-2581.667339850935
 21
-1146.763150630363
 31
0.0
  0
LINE
  5
31C
330
1F
100
AcDbEntity
  8
0-4
  6
Continuous
 62
    92
370
    13
100
AcDbLine
 10
-2448.33400652333
 20
-1072.489709621124
 30
0.0
 11
-2366.26455696291
 21
-1050.499266888143
 31
0.0
  0
LINE
  5
31D
330
1F
100
AcDbEntity
  8
0-4
  6
Continuous
 62
    92
370
    13
100
AcDbLine
 10
-2448.333595894478
 20
-1215.823042954459
 30
0.0
 11
-2315.00067318427
 21
-1180.096593989775
 31
0.0
  0
LINE
  5
31E
330
1F
100
AcDbEntity
  8
0-4
  6
Continuous
 62
    92
370
    13
100
AcDbLine
 10
-2315.00067318427
 20
-1446.763150630308
 30
0.0
 11
-2315.00067318427
 21
-1180.096593989775
 31
0.0
  0
LINE
  5
31F
330
1F
100
AcDbEntity
  8
0-4
  6
Continuous
 62
    92
370
    13
100
AcDbLine
 10
-2448.334417140727
 20
-1215.823042954459
 30
0.0
 11
-2581.667339850935
 21
-1180.096593989775
 31
0.0
  0
LINE
  5
320
330
1F
100
AcDbEntity
  8
0-4
  6
Continuous
 62
    92
370
    13
100
AcDbLine
 10
-2581.667339850935
 20
-1446.763150630308
 30
0.0
 11
-2581.667339850935
 21
-1180.096593989775
 31
0.0
  0
LINE
  5
321
330
1F
100
AcDbEntity
  8
0-4
  6
Continuous
 62
    92
370
    13
100
AcDbLine
 10
-2581.667339850935
 20
-1180.096593989775
 30
0.0
 11
-2555.378081922943
 21
-1153.807336061783
 31
0.0
  0
LINE
  5
322
330
1F
100
AcDbEntity
  8
0-4
  6
Continuous
 62
    92
370
    13
100
AcDbLine
 10
-2315.00067318427
 20
-1180.096593989775
 30
0.0
 11
-2341.289931112262
 21
-1153.807336061783
 31
0.0
  0
LINE
  5
323
330
1F
100
AcDbEntity
  8
0-4
  6
Continuous
 62
    92
370
    13
100
AcDbLine
 10
-2448.334006517603
 20
-1182.489709621181
 30
0.0
 11
-2315.00067318427
 21
-1146.763150630364
 31
0.0
  0
LINE
  5
324
330
1F
100
AcDbEntity
  8
0-4
  6
Continuous
 62
    92
370
    13
100
AcDbLine
 10
-2448.334006511877
 20
-1072.489709621124
 30
0.0
 11
-2530.403456072297
 21
-1050.499266888143
 31
0.0
  0
LINE
  5
325
330
1F
100
AcDbEntity
  8
0-4
  6
Continuous
 62
    92
370
    13
100
AcDbLine
 10
-2448.334006517603
 20
-1182.489709621181
 30
0.0
 11
-2448.334006517603
 21
-1072.489709621124
 31
0.0
  0
LINE
  5
326
330
1F
100
AcDbEntity
  8
0-4
  6
JWW_DASHED1
 62
    92
370
    13
100
AcDbLine
 10
-2448.334006517603
 20
-1182.489709621181
 30
0.0
 11
-2448.334006517603
 21
-1215.823042954459
 31
0.0
  0
LINE
  5
327
330
1F
100
AcDbEntity
  8
0-4
  6
Continuous
 62
    92
370
    13
100
AcDbLine
 10
-2460.412228622388
 20
-1479.253359762143
 30
0.0
 11
-2581.667339850935
 21
-1446.763150630308
 31
0.0
  0
LINE
  5
328
330
1F
100
AcDbEntity
  8
0-4
  6
Continuous
 62
    92
370
    13
100
AcDbLine
 10
-2436.255784412817
 20
-1479.253359762143
 30
0.0
 11
-2315.00067318427
 21
-1446.763150630308
 31
0.0
  0
ARC
  5
329
330
1F
100
AcDbEntity
  8
0-4
  6
Continuous
 62
    92
370
    13
100
AcDbCircle
 10
-2448.334006517603
 20
-1434.176821201987
 30
0.0
 40
46.66666666666666
100
AcDbArc
 50
255.0
 51
285.0
  0
LINE
  5
32A
330
1F
100
AcDbEntity
  8
0-4
  6
Continuous
 62
    92
370
    13
100
AcDbLine
 10
-2448.334006517603
 20
-1480.843487868653
 30
0.0
 11
-2448.334006517603
 21
-1215.823042954459
 31
0.0
  0
LINE
  5
32B
330
1F
100
AcDbEntity
  8
0-0
  6
JWW_HOJO
 62
     7
370
     9
100
AcDbLine
 10
-2581.667339850935
 20
-1064.700476809057
 30
0.0
 11
-2537.070122738962
 21
-1038.952261504352
 31
0.0
  0
LINE
  5
32C
330
1F
100
AcDbEntity
  8
0-0
  6
JWW_HOJO
 62
     7
370
     9
100
AcDbLine
 10
-2448.334006517603
 20
-1496.293392026593
 30
0.0
 11
-2581.667339850935
 21
-1460.566833035775
 31
0.0
  0
LINE
  5
32D
330
1F
100
AcDbEntity
  8
0-0
  6
JWW_HOJO
 62
     7
370
     9
100
AcDbLine
 10
-2448.334006517603
 20
-1496.293392026593
 30
0.0
 11
-2281.667339850935
 21
-1451.635193288072
 31
0.0
  0
LINE
  5
32E
330
1F
100
AcDbEntity
  8
0-0
  6
JWW_HOJO
 62
     7
370
     9
100
AcDbLine
 10
-2281.667339850935
 20
-1451.635193288072
 30
0.0
 11
-2281.667339850935
 21
-1106.240303137726
 31
0.0
  0
LINE
  5
32F
330
1F
100
AcDbEntity
  8
0-0
  6
JWW_HOJO
 62
     7
370
     9
100
AcDbLine
 10
-2281.667339850935
 20
-1106.240303137726
 30
0.0
 11
-2341.654848319636
 21
-1046.252794669027
 31
0.0
  0
LWPOLYLINE
  5
330
330
1F
100
AcDbEntity
  8
0-B
  6
Continuous
 62
     7
370
     9
100
AcDbPolyline
 90
        4
 70
     1
 43
2.0
 10
-2184.909346796864
 20
-1446.763150630308
 42
0.4142135623731
 10
-2185.909346796864
 20
-1445.763150630308
 42
0.4142135623731
 10
-2186.909346796864
 20
-1446.763150630308
 42
0.4142135623731
 10
-2185.909346796864
 20
-1447.763150630308
 42
0.4142135623731
  0
LWPOLYLINE
  5
331
330
1F
100
AcDbEntity
  8
0-B
  6
Continuous
 62
     7
370
     9
100
AcDbPolyline
 90
        4
 70
     1
 43
2.0
 10
-2184.909346796864
 20
-1064.159520967993
 42
0.4142135623731
 10
-2185.909346796864
 20
-1063.159520967993
 42
0.4142135623731
 10
-2186.909346796864
 20
-1064.159520967993
 42
0.4142135623731
 10
-2185.909346796864
 20
-1065.159520967993
 42
0.4142135623731
  0
LINE
  5
332
330
1F
100
AcDbEntity
  8
0-0
  6
JWW_HOJO
 62
     7
370
     9
100
AcDbLine
 10
-2185.909346796864
 20
-1477.212759554037
 30
0.0
 11
-2185.909346796864
 21
-1092.433184391957
 31
0.0
  0
LINE
  5
333
330
1F
100
AcDbEntity
  8
0-B
  6
Continuous
 62
   120
370
     5
100
AcDbLine
 10
-2185.909346796864
 20
-1446.763150630308
 30
0.0
 11
-2281.667339850935
 21
-1446.763150630308
 31
0.0
  0
LINE
  5
334
330
1F
100
AcDbEntity
  8
0-B
  6
Continuous
 62
   120
370
     5
100
AcDbLine
 10
-2185.909346796864
 20
-1064.159520967993
 30
0.0
 11
-2185.909346796864
 21
-1446.763150630308
 31
0.0
  0
LINE
  5
335
330
1F
100
AcDbEntity
  8
0-B
  6
Continuous
 62
   120
370
     5
100
AcDbLine
 10
-2185.909346796864
 20
-1064.159520967993
 30
0.0
 11
-2263.523284114995
 21
-1064.159520967993
 31
0.0
  0
LINE
  5
336
330
1F
100
AcDbEntity
  8
0-0
  6
JWW_HOJO
 62
     7
370
     9
100
AcDbLine
 10
-2594.025658110577
 20
-1004.805223741278
 30
0.0
 11
-2566.095107665271
 21
-988.6795129230654
 31
0.0
  0
LINE
  5
337
330
1F
100
AcDbEntity
  8
0-B
  6
Continuous
 62
   120
370
     5
100
AcDbLine
 10
-2566.095107665271
 20
-988.6795129230654
 30
0.0
 11
-2622.41080628901
 21
-1021.193396683084
 31
0.0
  0
LWPOLYLINE
  5
338
330
1F
100
AcDbEntity
  8
0-B
  6
Continuous
 62
     7
370
     9
100
AcDbPolyline
 90
        4
 70
     1
 43
2.0
 10
-2565.095107665271
 20
-988.6795129230654
 42
0.4142135623731
 10
-2566.095107665271
 20
-987.6795129230654
 42
0.4142135623731
 10
-2567.095107665272
 20
-988.6795129230654
 42
0.4142135623731
 10
-2566.095107665271
 20
-989.6795129230654
 42
0.4142135623731
  0
LWPOLYLINE
  5
339
330
1F
100
AcDbEntity
  8
0-B
  6
Continuous
 62
     7
370
     9
100
AcDbPolyline
 90
        4
 70
     1
 43
2.0
 10
-2621.41080628901
 20
-1021.193396683084
 42
0.4142135623731
 10
-2622.41080628901
 20
-1020.193396683084
 42
0.4142135623731
 10
-2623.410806289011
 20
-1021.193396683084
 42
0.4142135623731
 10
-2622.41080628901
 20
-1022.193396683084
 42
0.4142135623731
  0
LINE
  5
33A
330
1F
100
AcDbEntity
  8
0-B
  6
Continuous
 62
   120
370
     5
100
AcDbLine
 10
-2566.095107665271
 20
-988.6795129230654
 30
0.0
 11
-2537.070122738962
 21
-1038.952261504352
 31
0.0
  0
LINE
  5
33B
330
1F
100
AcDbEntity
  8
0-B
  6
Continuous
 62
   120
370
     5
100
AcDbLine
 10
-2622.41080628901
 20
-1021.193396683084
 30
0.0
 11
-2593.385821362704
 21
-1071.466145264371
 31
0.0
  0
LINE
  5
33C
330
1F
100
AcDbEntity
  8
0-B
  6
Continuous
 62
   120
370
     5
100
AcDbLine
 10
-2296.438639875269
 20
-1516.037602031289
 30
0.0
 11
-2429.360034653441
 21
-1551.653782418919
 31
0.0
  0
LWPOLYLINE
  5
33D
330
1F
100
AcDbEntity
  8
0-B
  6
Continuous
 62
     7
370
     9
100
AcDbPolyline
 90
        4
 70
     1
 43
2.0
 10
-2295.438639875269
 20
-1516.037602031289
 42
0.4142135623731
 10
-2296.438639875269
 20
-1515.037602031289
 42
0.4142135623731
 10
-2297.438639875269
 20
-1516.037602031289
 42
0.4142135623731
 10
-2296.438639875269
 20
-1517.037602031289
 42
0.4142135623731
  0
LINE
  5
33E
330
1F
100
AcDbEntity
  8
0-B
  6
Continuous
 62
   120
370
     5
100
AcDbLine
 10
-2296.438639875269
 20
-1516.037602031289
 30
0.0
 11
-2311.549752582903
 21
-1459.642161647495
 31
0.0
  0
LWPOLYLINE
  5
33F
330
1F
100
AcDbEntity
  8
0-B
  6
Continuous
 62
     7
370
     9
100
AcDbPolyline
 90
        4
 70
     1
 43
2.0
 10
-2428.360034653441
 20
-1551.653782418919
 42
0.4142135623731
 10
-2429.360034653441
 20
-1550.653782418919
 42
0.4142135623731
 10
-2430.360034653441
 20
-1551.653782418919
 42
0.4142135623731
 10
-2429.360034653441
 20
-1552.653782418919
 42
0.4142135623731
  0
LINE
  5
340
330
1F
100
AcDbEntity
  8
0-B
  6
Continuous
 62
   120
370
     5
100
AcDbLine
 10
-2429.360034653441
 20
-1551.653782418919
 30
0.0
 11
-2444.471147361076
 21
-1495.258342035124
 31
0.0
  0
LINE
  5
341
330
1F
100
AcDbEntity
  8
0-0
  6
JWW_HOJO
 62
     7
370
     9
100
AcDbLine
 10
-2366.26455696291
 20
-1050.499266888143
 30
0.0
 11
-2289.924228854079
 21
-992.7368662492427
 31
0.0
  0
LINE
  5
342
330
1F
100
AcDbEntity
  8
0-0
  6
JWW_HOJO
 62
     7
370
     9
100
AcDbLine
 10
-2220.173613091598
 20
-1062.487482011724
 30
0.0
 11
-2289.924228854079
 21
-992.7368662492427
 31
0.0
  0
LINE
  5
343
330
1F
100
AcDbEntity
  8
0-0
  6
JWW_HOJO
 62
     7
370
     9
100
AcDbLine
 10
-2455.020845783549
 20
-1555.758221922816
 30
0.0
 11
-2588.354179116882
 21
-1520.031662931999
 31
0.0
  0
LINE
  5
344
330
1F
100
AcDbEntity
  8
0-B
  6
Continuous
 62
   120
370
     5
100
AcDbLine
 10
-2600.432401221667
 20
-1516.795313073019
 30
0.0
 11
-2467.098684771743
 21
-1552.521974719616
 31
0.0
  0
LWPOLYLINE
  5
345
330
1F
100
AcDbEntity
  8
0-B
  6
Continuous
 62
     7
370
     9
100
AcDbPolyline
 90
        4
 70
     1
 43
2.0
 10
-2599.432401221667
 20
-1516.795313073019
 42
0.4142135623731
 10
-2600.432401221667
 20
-1515.795313073019
 42
0.4142135623731
 10
-2601.432401221668
 20
-1516.795313073019
 42
0.4142135623731
 10
-2600.432401221667
 20
-1517.795313073019
 42
0.4142135623731
  0
LWPOLYLINE
  5
346
330
1F
100
AcDbEntity
  8
0-B
  6
Continuous
 62
     7
370
     9
100
AcDbPolyline
 90
        4
 70
     1
 43
2.0
 10
-2466.098684771743
 20
-1552.521974719616
 42
0.4142135623731
 10
-2467.098684771743
 20
-1551.521974719616
 42
0.4142135623731
 10
-2468.098684771743
 20
-1552.521974719616
 42
0.4142135623731
 10
-2467.098684771743
 20
-1553.521974719615
 42
0.4142135623731
  0
LINE
  5
347
330
1F
100
AcDbEntity
  8
0-B
  6
Continuous
 62
   120
370
     5
100
AcDbLine
 10
-2600.432401221667
 20
-1516.795313073019
 30
0.0
 11
-2585.118260452302
 21
-1459.642161647495
 31
0.0
  0
LINE
  5
348
330
1F
100
AcDbEntity
  8
0-B
  6
Continuous
 62
   120
370
     5
100
AcDbLine
 10
-2467.098684771743
 20
-1552.521974719616
 30
0.0
 11
-2451.784544002378
 21
-1495.368823294093
 31
0.0
  0
LINE
  5
349
330
1F
100
AcDbEntity
  8
0-0
  6
JWW_HOJO
 62
     7
370
     9
100
AcDbLine
 10
-2588.354179116882
 20
-1520.031662931999
 30
0.0
 11
-2594.025658110577
 21
-1004.805223741278
 31
0.0
  0
LINE
  5
34A
330
1F
100
AcDbEntity
  8
0-B
  6
Continuous
 62
   120
370
     5
100
AcDbLine
 10
-2445.382698252713
 20
-1340.06167148738
 30
0.0
 11
-2222.921314438138
 21
-1562.523055301955
 31
0.0
  0
LINE
  5
34B
330
1F
100
AcDbEntity
  8
0-B
  6
Continuous
 62
   120
370
     5
100
AcDbLine
 10
-2222.921314438138
 20
-1562.523055301955
 30
0.0
 11
-2159.483339844571
 21
-1562.523055301955
 31
0.0
  0
LINE
  5
34C
330
1F
100
AcDbEntity
  8
0-0
  6
JWW_HOJO
 62
     7
370
     9
100
AcDbLine
 10
-2448.333595894478
 20
-1916.086017317363
 30
0.0
 11
-2273.840008481295
 21
-1962.841433149134
 31
0.0
  0
LINE
  5
34D
330
1F
100
AcDbEntity
  8
0-0
  6
JWW_HOJO
 62
     7
370
     9
100
AcDbLine
 10
-2273.840008481295
 20
-1962.841433149134
 30
0.0
 11
-2273.840008481295
 21
-2365.340429722029
 31
0.0
  0
LINE
  5
34E
330
1F
100
AcDbEntity
  8
0-0
  6
JWW_HOJO
 62
     7
370
     9
100
AcDbLine
 10
-2307.17334181463
 20
-1994.043758327025
 30
0.0
 11
-2307.17334181463
 21
-2365.340429722029
 31
0.0
  0
LINE
  5
34F
330
1F
100
AcDbEntity
  8
0-4
  6
Continuous
 62
    92
370
    13
100
AcDbLine
 10
-2418.138040632518
 20
-1958.686097978483
 30
0.0
 11
-2307.17334181463
 21
-1988.4189994151
 31
0.0
  0
LINE
  5
350
330
1F
100
AcDbEntity
  8
0-4
  6
Continuous
 62
    92
370
    13
100
AcDbLine
 10
-2348.333595894478
 20
-2108.489857405828
 30
0.0
 11
-2348.333595894478
 21
-2375.156524074774
 31
0.0
  0
LINE
  5
351
330
1F
100
AcDbEntity
  8
0-4
  6
Continuous
 62
    92
370
    13
100
AcDbLine
 10
-2341.666929227811
 20
-2112.338859213309
 30
0.0
 11
-2321.666929227811
 21
-2100.791853829518
 31
0.0
  0
LINE
  5
352
330
1F
100
AcDbEntity
  8
0-4
  6
Continuous
 62
    92
370
    13
100
AcDbLine
 10
-2341.666929227811
 20
-2112.338859213309
 30
0.0
 11
-2341.666929227811
 21
-2371.307522280177
 31
0.0
  0
LINE
  5
353
330
1F
100
AcDbEntity
  8
0-4
  6
Continuous
 62
    92
370
    13
100
AcDbLine
 10
-2321.666929227811
 20
-2057.697843049255
 30
0.0
 11
-2341.666929227811
 21
-2052.338859200633
 31
0.0
  0
LINE
  5
354
330
1F
100
AcDbEntity
  8
0-4
  6
Continuous
 62
    92
370
    13
100
AcDbLine
 10
-2321.666929227811
 20
-2100.791853829518
 30
0.0
 11
-2321.666929227811
 21
-2057.697843049255
 31
0.0
  0
LINE
  5
355
330
1F
100
AcDbEntity
  8
0-4
  6
Continuous
 62
    92
370
    13
100
AcDbLine
 10
-2341.666929227811
 20
-2069.244848433049
 30
0.0
 11
-2321.666929227811
 21
-2057.697843049255
 31
0.0
  0
LINE
  5
356
330
1F
100
AcDbEntity
  8
0-4
  6
Continuous
 62
    92
370
    13
100
AcDbLine
 10
-2348.333595894478
 20
-2080.791853816841
 30
0.0
 11
-2328.333595894478
 21
-2069.244848433049
 31
0.0
  0
LINE
  5
357
330
1F
100
AcDbEntity
  8
0-4
  6
Continuous
 62
    92
370
    13
100
AcDbLine
 10
-2328.333595894478
 20
-2096.942852034919
 30
0.0
 11
-2328.333595894478
 21
-2069.244848433049
 31
0.0
  0
LINE
  5
358
330
1F
100
AcDbEntity
  8
0-4
  6
Continuous
 62
    92
370
    13
100
AcDbLine
 10
-2328.333595894478
 20
-2096.942852034919
 30
0.0
 11
-2449.217912416634
 21
-2064.55199704522
 31
0.0
  0
LINE
  5
359
330
1F
100
AcDbEntity
  8
0-4
  6
Continuous
 62
    92
370
    13
100
AcDbLine
 10
-2448.333595894478
 20
-2053.996934573729
 30
0.0
 11
-2348.333595894478
 21
-2080.791853816841
 31
0.0
  0
LINE
  5
35A
330
1F
100
AcDbEntity
  8
0-4
  6
Continuous
 62
    92
370
    13
100
AcDbLine
 10
-2328.333595894478
 20
-2096.942852034919
 30
0.0
 11
-2348.333595894478
 21
-2108.489857418711
 31
0.0
  0
LINE
  5
35B
330
1F
100
AcDbEntity
  8
0-4
  6
Continuous
 62
    92
370
    13
100
AcDbLine
 10
-2448.333595894478
 20
-2081.694938162716
 30
0.0
 11
-2348.333595894478
 21
-2108.489857405828
 31
0.0
  0
LINE
  5
35C
330
1F
100
AcDbEntity
  8
0-4
  6
Continuous
 62
    92
370
    13
100
AcDbLine
 10
-2307.17334181463
 20
-1988.4189994151
 30
0.0
 11
-2307.17334181463
 21
-1994.043758327025
 31
0.0
  0
LINE
  5
35D
330
1F
100
AcDbEntity
  8
0-4
  6
Continuous
 62
    92
370
    13
100
AcDbLine
 10
-2436.255373789693
 20
-2351.597954690643
 30
0.0
 11
-2348.333595894478
 21
-2375.156524074774
 31
0.0
  0
LINE
  5
35E
330
1F
100
AcDbEntity
  8
0-4
  6
Continuous
 62
    92
370
    13
100
AcDbLine
 10
-2348.333595894478
 20
-2375.156524074774
 30
0.0
 11
-2341.666929227811
 21
-2371.307522280177
 31
0.0
  0
ARC
  5
35F
330
1F
100
AcDbEntity
  8
0-4
  6
Continuous
 62
    92
370
    13
100
AcDbCircle
 10
-2448.333595894478
 20
-2396.674493250799
 30
0.0
 40
46.66666666666666
100
AcDbArc
 50
74.99999999999996
 51
105.0
  0
ARC
  5
360
330
1F
100
AcDbEntity
  8
0-4
  6
Continuous
 62
    92
370
    13
100
AcDbCircle
 10
-2448.333595894478
 20
-2071.377444378875
 30
0.0
 40
116.6666666666667
100
AcDbArc
 50
75.00000000000006
 51
104.9999999999999
  0
LINE
  5
361
330
1F
100
AcDbEntity
  8
0-4
  6
Continuous
 62
    92
370
    13
100
AcDbLine
 10
-2448.333595894478
 20
-2350.007826584132
 30
0.0
 11
-2448.333595894478
 21
-1954.710777712208
 31
0.0
  0
LINE
  5
362
330
1F
100
AcDbEntity
  8
0-4
  6
Continuous
 62
    92
370
    13
100
AcDbLine
 10
-2589.493849974326
 20
-1988.4189994151
 30
0.0
 11
-2589.493849974326
 21
-1994.043758327025
 31
0.0
  0
LINE
  5
363
330
1F
100
AcDbEntity
  8
0-4
  6
Continuous
 62
    92
370
    13
100
AcDbLine
 10
-2548.333595894478
 20
-2375.156524074774
 30
0.0
 11
-2555.000262561146
 21
-2371.307522280177
 31
0.0
  0
LINE
  5
364
330
1F
100
AcDbEntity
  8
0-4
  6
Continuous
 62
    92
370
    13
100
AcDbLine
 10
-2448.333595894478
 20
-2081.694938162716
 30
0.0
 11
-2548.333595894478
 21
-2108.489857405828
 31
0.0
  0
LINE
  5
365
330
1F
100
AcDbEntity
  8
0-4
  6
Continuous
 62
    92
370
    13
100
AcDbLine
 10
-2555.000262561146
 20
-2371.307522280177
 30
0.0
 11
-2555.000262561146
 21
-2112.338859213309
 31
0.0
  0
LINE
  5
366
330
1F
100
AcDbEntity
  8
0-4
  6
Continuous
 62
    92
370
    13
100
AcDbLine
 10
-2555.000262561146
 20
-2112.338859213309
 30
0.0
 11
-2575.000262561146
 21
-2100.791853829518
 31
0.0
  0
LINE
  5
367
330
1F
100
AcDbEntity
  8
0-4
  6
Continuous
 62
    92
370
    13
100
AcDbLine
 10
-2568.333595894478
 20
-2096.942852034919
 30
0.0
 11
-2548.333595894478
 21
-2108.489857418712
 31
0.0
  0
LINE
  5
368
330
1F
100
AcDbEntity
  8
0-4
  6
Continuous
 62
    92
370
    13
100
AcDbLine
 10
-2548.333595894478
 20
-2371.307522280177
 30
0.0
 11
-2548.333595894478
 21
-2108.489857405828
 31
0.0
  0
LINE
  5
369
330
1F
100
AcDbEntity
  8
0-4
  6
Continuous
 62
    92
370
    13
100
AcDbLine
 10
-2448.333595894478
 20
-2053.996934573729
 30
0.0
 11
-2548.333595894478
 21
-2080.791853816841
 31
0.0
  0
LINE
  5
36A
330
1F
100
AcDbEntity
  8
0-4
  6
Continuous
 62
    92
370
    13
100
AcDbLine
 10
-2568.333595894478
 20
-2096.942852034919
 30
0.0
 11
-2447.449279372322
 21
-2064.55199704522
 31
0.0
  0
LINE
  5
36B
330
1F
100
AcDbEntity
  8
0-4
  6
Continuous
 62
    92
370
    13
100
AcDbLine
 10
-2568.333595894478
 20
-2096.942852034919
 30
0.0
 11
-2568.333595894478
 21
-2069.244848433049
 31
0.0
  0
LINE
  5
36C
330
1F
100
AcDbEntity
  8
0-4
  6
Continuous
 62
    92
370
    13
100
AcDbLine
 10
-2548.333595894478
 20
-2080.791853816841
 30
0.0
 11
-2568.333595894478
 21
-2069.244848433049
 31
0.0
  0
LINE
  5
36D
330
1F
100
AcDbEntity
  8
0-4
  6
Continuous
 62
    92
370
    13
100
AcDbLine
 10
-2555.000262561146
 20
-2069.244848433049
 30
0.0
 11
-2575.000262561146
 21
-2057.697843049255
 31
0.0
  0
LINE
  5
36E
330
1F
100
AcDbEntity
  8
0-4
  6
Continuous
 62
    92
370
    13
100
AcDbLine
 10
-2575.000262561146
 20
-2100.791853829518
 30
0.0
 11
-2575.000262561146
 21
-2057.697843049255
 31
0.0
  0
LINE
  5
36F
330
1F
100
AcDbEntity
  8
0-4
  6
Continuous
 62
    92
370
    13
100
AcDbLine
 10
-2575.000262561146
 20
-2057.697843049255
 30
0.0
 11
-2555.000262561146
 21
-2052.338859200633
 31
0.0
  0
LINE
  5
370
330
1F
100
AcDbEntity
  8
0-4
  6
Continuous
 62
    92
370
    13
100
AcDbLine
 10
-2460.411817999263
 20
-2351.597954690643
 30
0.0
 11
-2548.333595894478
 21
-2375.156524074774
 31
0.0
  0
LINE
  5
371
330
1F
100
AcDbEntity
  8
0-4
  6
Continuous
 62
    92
370
    13
100
AcDbLine
 10
-2478.529151156438
 20
-1958.686097978483
 30
0.0
 11
-2589.493849974326
 21
-1988.4189994151
 31
0.0
  0
LINE
  5
372
330
1F
100
AcDbEntity
  8
0-0
  6
JWW_HOJO
 62
     7
370
     9
100
AcDbLine
 10
-2448.333595894478
 20
-1916.086017317363
 30
0.0
 11
-2598.121151477744
 21
-1956.22147187213
 31
0.0
  0
LINE
  5
373
330
1F
100
AcDbEntity
  8
0-B
  6
Continuous
 62
   120
370
     5
100
AcDbLine
 10
-2185.909346796864
 20
-1988.415648595557
 30
0.0
 11
-2273.840008481295
 21
-1988.415648595557
 31
0.0
  0
LINE
  5
374
330
1F
100
AcDbEntity
  8
0-B
  6
Continuous
 62
   120
370
     5
100
AcDbLine
 10
-2185.909346796864
 20
-2371.307522280177
 30
0.0
 11
-2273.840008481295
 21
-2371.307522280177
 31
0.0
  0
LWPOLYLINE
  5
375
330
1F
100
AcDbEntity
  8
0-B
  6
Continuous
 62
     7
370
     9
100
AcDbPolyline
 90
        4
 70
     1
 43
2.0
 10
-2184.909346796864
 20
-1988.415648595557
 42
0.4142135623731
 10
-2185.909346796864
 20
-1987.415648595557
 42
0.4142135623731
 10
-2186.909346796864
 20
-1988.415648595557
 42
0.4142135623731
 10
-2185.909346796864
 20
-1989.415648595557
 42
0.4142135623731
  0
LWPOLYLINE
  5
376
330
1F
100
AcDbEntity
  8
0-B
  6
Continuous
 62
     7
370
     9
100
AcDbPolyline
 90
        4
 70
     1
 43
2.0
 10
-2184.909346796864
 20
-2371.307522280177
 42
0.4142135623731
 10
-2185.909346796864
 20
-2370.307522280177
 42
0.4142135623731
 10
-2186.909346796864
 20
-2371.307522280177
 42
0.4142135623731
 10
-2185.909346796864
 20
-2372.307522280177
 42
0.4142135623731
  0
LINE
  5
377
330
1F
100
AcDbEntity
  8
0-B
  6
Continuous
 62
   120
370
     5
100
AcDbLine
 10
-2185.909346796864
 20
-2371.307522280177
 30
0.0
 11
-2185.909346796864
 21
-1988.415648595557
 31
0.0
  0
LINE
  5
378
330
1F
100
AcDbEntity
  8
0-0
  6
JWW_HOJO
 62
     7
370
     9
100
AcDbLine
 10
-2185.909346796864
 20
-1937.263866883168
 30
0.0
 11
-2185.909346796864
 21
-2365.340429722029
 31
0.0
  0
LWPOLYLINE
  5
379
330
1F
100
AcDbEntity
  8
0-B
  6
Continuous
 62
     7
370
     9
100
AcDbPolyline
 90
        4
 70
     1
 43
2.0
 10
-2473.226072825165
 20
-1858.078738273074
 42
0.4142135623731
 10
-2474.226072825165
 20
-1857.078738273074
 42
0.4142135623731
 10
-2475.226072825165
 20
-1858.078738273074
 42
0.4142135623731
 10
-2474.226072825165
 20
-1859.078738273074
 42
0.4142135623731
  0
LINE
  5
37A
330
1F
100
AcDbEntity
  8
0-B
  6
Continuous
 62
   120
370
     5
100
AcDbLine
 10
-2474.226072825165
 20
-1858.078738273074
 30
0.0
 11
-2457.989785993188
 21
-1918.673385656274
 31
0.0
  0
LINE
  5
37B
330
1F
100
AcDbEntity
  8
0-B
  6
Continuous
 62
   120
370
     5
100
AcDbLine
 10
-2614.351185595333
 20
-1895.625149079161
 30
0.0
 11
-2474.226072825165
 21
-1858.078738273074
 31
0.0
  0
LWPOLYLINE
  5
37C
330
1F
100
AcDbEntity
  8
0-B
  6
Continuous
 62
     7
370
     9
100
AcDbPolyline
 90
        4
 70
     1
 43
2.0
 10
-2613.351185595333
 20
-1895.625149079161
 42
0.4142135623731
 10
-2614.351185595333
 20
-1894.625149079161
 42
0.4142135623731
 10
-2615.351185595333
 20
-1895.625149079161
 42
0.4142135623731
 10
-2614.351185595333
 20
-1896.625149079161
 42
0.4142135623731
  0
LINE
  5
37D
330
1F
100
AcDbEntity
  8
0-B
  6
Continuous
 62
   120
370
     5
100
AcDbLine
 10
-2614.351185595333
 20
-1895.625149079161
 30
0.0
 11
-2598.114898763356
 21
-1956.21979646236
 31
0.0
  0
LINE
  5
37E
330
1F
100
AcDbEntity
  8
0-B
  6
Continuous
 62
   120
370
     5
100
AcDbLine
 10
-2282.175253176267
 20
-1895.074840809511
 30
0.0
 11
-2298.558545739991
 21
-1956.218121052588
 31
0.0
  0
LWPOLYLINE
  5
37F
330
1F
100
AcDbEntity
  8
0-B
  6
Continuous
 62
     7
370
     9
100
AcDbPolyline
 90
        4
 70
     1
 43
2.0
 10
-2281.175253176267
 20
-1895.074840809511
 42
0.4142135623731
 10
-2282.175253176267
 20
-1894.074840809511
 42
0.4142135623731
 10
-2283.175253176267
 20
-1895.074840809511
 42
0.4142135623731
 10
-2282.175253176267
 20
-1896.074840809511
 42
0.4142135623731
  0
LINE
  5
380
330
1F
100
AcDbEntity
  8
0-B
  6
Continuous
 62
   120
370
     5
100
AcDbLine
 10
-2422.294113232044
 20
-1857.530105413197
 30
0.0
 11
-2282.175253176267
 21
-1895.074840809511
 31
0.0
  0
LWPOLYLINE
  5
381
330
1F
100
AcDbEntity
  8
0-B
  6
Continuous
 62
     7
370
     9
100
AcDbPolyline
 90
        4
 70
     1
 43
2.0
 10
-2421.294113232044
 20
-1857.530105413197
 42
0.4142135623731
 10
-2422.294113232044
 20
-1856.530105413197
 42
0.4142135623731
 10
-2423.294113232044
 20
-1857.530105413197
 42
0.4142135623731
 10
-2422.294113232044
 20
-1858.530105413197
 42
0.4142135623731
  0
LINE
  5
382
330
1F
100
AcDbEntity
  8
0-B
  6
Continuous
 62
   120
370
     5
100
AcDbLine
 10
-2422.294113232044
 20
-1857.530105413197
 30
0.0
 11
-2438.677405795768
 21
-1918.673385656274
 31
0.0
  0
LINE
  5
383
330
1F
100
AcDbEntity
  8
0-B
  6
Continuous
 62
   120
370
     5
100
AcDbLine
 10
-2448.948771258608
 20
-2155.019013009983
 30
0.0
 11
-2509.714927751779
 21
-2215.785169503155
 31
0.0
  0
LINE
  5
384
330
1F
100
AcDbEntity
  8
0-B
  6
Continuous
 62
   120
370
     5
100
AcDbLine
 10
-2509.714927751779
 20
-2215.785169503155
 30
0.0
 11
-2636.685259827042
 21
-2215.785169503155
 31
0.0
  0
MTEXT
  5
385
330
1F
100
AcDbEntity
  8
0-A
  6
Continuous
 62
     7
370
     9
100
AcDbMText
 10
-293.3334680505692
 20
-949.2232420748888
 30
0.0
 40
45.72
 41
60.0
 46
0.0
 71
     7
 72
     1
  1
{\fＭＳ ゴシック|b0|i0|c128|p49;10}
 73
     1
 44
1.0
  0
MTEXT
  5
386
330
1F
100
AcDbEntity
  8
0-A
  6
Continuous
 62
     7
370
     9
100
AcDbMText
 10
-293.3334680505692
 20
-1782.556628741556
 30
0.0
 40
45.72
 41
60.0
 46
0.0
 71
     7
 72
     1
  1
{\fＭＳ ゴシック|b0|i0|c128|p49;20}
 73
     1
 44
1.0
  0
LINE
  5
387
330
1F
100
AcDbEntity
  8
0-A
  6
JWW_HOJO
 62
   120
370
     5
100
AcDbLine
 10
-3293.333352578653
 20
-1826.666625408222
 30
0.0
 11
-3999.999835040119
 21
-1826.666625408222
 31
0.0
  0
LINE
  5
388
330
1F
100
AcDbEntity
  8
0-A
  6
JWW_HOJO
 62
   120
370
     5
100
AcDbLine
 10
-3293.333352578653
 20
-1693.333292074889
 30
0.0
 11
-3999.999835040119
 21
-1693.333292074889
 31
0.0
  0
LINE
  5
389
330
1F
100
AcDbEntity
  8
0-A
  6
JWW_HOJO
 62
   120
370
     5
100
AcDbLine
 10
-3293.333352578653
 20
-1559.999958741555
 30
0.0
 11
-3999.999835040119
 21
-1559.999958741555
 31
0.0
  0
MTEXT
  5
38A
330
1F
100
AcDbEntity
  8
0-A
  6
Continuous
 62
     7
370
     9
100
AcDbMText
 10
-3966.666593809384
 20
-1742.853292074889
 30
0.0
 40
60.96
 41
640.0
 46
0.0
 71
     7
 72
     1
  1
{\fＭＳ ゴシック|b0|i0|c128|p49;コーナーキャップ}
 73
     1
 44
1.0
  0
MTEXT
  5
38B
330
1F
100
AcDbEntity
  8
0-A
  6
Continuous
 62
     7
370
     9
100
AcDbMText
 10
-3766.666593809384
 20
-1609.519958741555
 30
0.0
 40
60.96
 41
240.0
 46
0.0
 71
     7
 72
     1
  1
{\fＭＳ ゴシック|b0|i0|c128|p49;巾木・}
 73
     1
 44
1.0
  0
LINE
  5
38C
330
1F
100
AcDbEntity
  8
0-4
  6
Continuous
 62
    92
370
    13
100
AcDbLine
 10
-2581.667339850935
 20
-1146.763150630363
 30
0.0
 11
-2581.667339850935
 21
-1080.096483987446
 31
0.0
  0
LINE
  5
38D
330
1F
100
AcDbEntity
  8
0-4
  6
Continuous
 62
    92
370
    13
100
AcDbLine
 10
-2581.667339850935
 20
-1080.096483987446
 30
0.0
 11
-2530.403456072297
 21
-1050.499266888143
 31
0.0
  0
LINE
  5
38E
330
1F
100
AcDbEntity
  8
0-4
  6
Continuous
 62
    92
370
    13
100
AcDbLine
 10
-2315.00067318427
 20
-1146.763150630364
 30
0.0
 11
-2315.00067318427
 21
-1080.096483987447
 31
0.0
  0
LINE
  5
38F
330
1F
100
AcDbEntity
  8
0-4
  6
Continuous
 62
    92
370
    13
100
AcDbLine
 10
-2315.00067318427
 20
-1080.096483987447
 30
0.0
 11
-2366.26455696291
 21
-1050.499266888143
 31
0.0
  0
LINE
  5
390
330
1F
100
AcDbEntity
  8
0-4
  6
Continuous
 62
    92
370
    13
100
AcDbLine
 10
-2448.334006511877
 20
-1115.823042979798
 30
0.0
 11
-2581.66733984521
 21
-1080.096483988982
 31
0.0
  0
LINE
  5
391
330
1F
100
AcDbEntity
  8
0-4
  6
Continuous
 62
    92
370
    13
100
AcDbLine
 10
-2448.33400652333
 20
-1115.823042979798
 30
0.0
 11
-2315.000673189995
 21
-1080.096483988982
 31
0.0
  0
LINE
  5
392
330
1F
100
AcDbEntity
  8
0-B
  6
Continuous
 62
   120
370
     5
100
AcDbLine
 10
-2330.572084123687
 20
-988.6795129230654
 30
0.0
 11
-2274.256385499946
 21
-1021.193396683084
 31
0.0
  0
LWPOLYLINE
  5
393
330
1F
100
AcDbEntity
  8
0-B
  6
Continuous
 62
     7
370
     9
100
AcDbPolyline
 90
        4
 70
     1
 43
2.0
 10
-2329.572084123687
 20
-988.6795129230654
 42
0.4142135623731
 10
-2330.572084123687
 20
-987.6795129230654
 42
0.4142135623731
 10
-2331.572084123687
 20
-988.6795129230654
 42
0.4142135623731
 10
-2330.572084123687
 20
-989.6795129230654
 42
0.4142135623731
  0
LWPOLYLINE
  5
394
330
1F
100
AcDbEntity
  8
0-B
  6
Continuous
 62
     7
370
     9
100
AcDbPolyline
 90
        4
 70
     1
 43
2.0
 10
-2273.256385499946
 20
-1021.193396683084
 42
0.4142135623731
 10
-2274.256385499946
 20
-1020.193396683084
 42
0.4142135623731
 10
-2275.256385499946
 20
-1021.193396683084
 42
0.4142135623731
 10
-2274.256385499946
 20
-1022.193396683084
 42
0.4142135623731
  0
LINE
  5
395
330
1F
100
AcDbEntity
  8
0-B
  6
Continuous
 62
   120
370
     5
100
AcDbLine
 10
-2330.572084123687
 20
-988.6795129230654
 30
0.0
 11
-2359.597069049994
 21
-1038.952261504351
 31
0.0
  0
LINE
  5
396
330
1F
100
AcDbEntity
  8
0-B
  6
Continuous
 62
   120
370
     5
100
AcDbLine
 10
-2274.256385499946
 20
-1021.193396683084
 30
0.0
 11
-2303.281370426253
 21
-1071.466145264369
 31
0.0
  0
LINE
  5
397
330
1F
100
AcDbEntity
  8
0-4
  6
Continuous
 62
    92
370
    13
100
AcDbLine
 10
-2548.333595894478
 20
-2012.1723123558
 30
0.0
 11
-2589.489272669709
 21
-1988.41107129094
 31
0.0
  0
LINE
  5
398
330
1F
100
AcDbEntity
  8
0-4
  6
Continuous
 62
    92
370
    13
100
AcDbLine
 10
-2548.333595894478
 20
-2080.791853816841
 30
0.0
 11
-2548.333595894478
 21
-2012.1723123558
 31
0.0
  0
LINE
  5
399
330
1F
100
AcDbEntity
  8
0-4
  6
Continuous
 62
    92
370
    13
100
AcDbLine
 10
-2555.000262561146
 20
-2069.244848433049
 30
0.0
 11
-2555.000262561146
 21
-2013.958640305342
 31
0.0
  0
LINE
  5
39A
330
1F
100
AcDbEntity
  8
0-4
  6
Continuous
 62
    92
370
    13
100
AcDbLine
 10
-2555.000262561146
 20
-2013.958640305342
 30
0.0
 11
-2589.493849974326
 21
-1994.043758327025
 31
0.0
  0
LINE
  5
39B
330
1F
100
AcDbEntity
  8
0-4
  6
Continuous
 62
    92
370
    13
100
AcDbLine
 10
-2341.666929227811
 20
-2013.95864030534
 30
0.0
 11
-2307.17334181463
 21
-1994.043758327025
 31
0.0
  0
LINE
  5
39C
330
1F
100
AcDbEntity
  8
0-4
  6
Continuous
 62
    92
370
    13
100
AcDbLine
 10
-2341.666929227811
 20
-2069.244848433049
 30
0.0
 11
-2341.666929227811
 21
-2013.95864030534
 31
0.0
  0
LINE
  5
39D
330
1F
100
AcDbEntity
  8
0-4
  6
Continuous
 62
    92
370
    13
100
AcDbLine
 10
-2348.333595894478
 20
-2080.791853816841
 30
0.0
 11
-2348.333595894478
 21
-2012.172312355799
 31
0.0
  0
LINE
  5
39E
330
1F
100
AcDbEntity
  8
0-4
  6
Continuous
 62
    92
370
    13
100
AcDbLine
 10
-2348.333595894478
 20
-2012.172312355799
 30
0.0
 11
-2307.177919119247
 21
-1988.41107129094
 31
0.0
  0
LINE
  5
39F
330
1F
100
AcDbEntity
  8
0-4
  6
Continuous
 62
    92
370
    13
100
AcDbLine
 10
-2448.333595894478
 20
-1985.377393112689
 30
0.0
 11
-2548.333595894478
 21
-2012.1723123558
 31
0.0
  0
LINE
  5
3A0
330
1F
100
AcDbEntity
  8
0-4
  6
Continuous
 62
    92
370
    13
100
AcDbLine
 10
-2448.333595894478
 20
-1985.377393112689
 30
0.0
 11
-2348.333595894478
 21
-2012.1723123558
 31
0.0
  0
MTEXT
  5
3A1
330
1F
100
AcDbEntity
  8
0-A
  6
Continuous
 62
     7
370
     9
100
AcDbMText
 10
-1468.333220610748
 20
-949.2232420748888
 30
0.0
 40
45.71999999999998
 41
330.0
 46
0.0
 71
     7
 72
     1
  1
{\fＭＳ ゴシック|b0|i0|c128|p49;25×25×8.5}
 73
     1
 44
1.0
  0
MTEXT
  5
3A2
330
1F
100
AcDbEntity
  8
0-A
  6
Continuous
 62
     7
370
     9
100
AcDbMText
 10
-1820.335857643742
 20
-1671.292552028103
 30
0.0
 40
45.72
 41
150.0
 46
0.0
 71
     7
 72
     1
  1
{\fＭＳ ゴシック|b0|i0|c128|p49;S=1/3}
 73
     1
 44
1.0
  0
MTEXT
  5
3A3
330
1F
100
AcDbEntity
  8
0-A
  6
Continuous
 62
     7
370
     9
100
AcDbMText
 10
-1528.333468050571
 20
-1782.556628744889
 30
0.0
 40
45.71999999999999
 41
450.0
 46
0.0
 71
     7
 72
     1
  1
{\fＭＳ ゴシック|b0|i0|c128|p49;28.5×28.5×8.5}
 73
     1
 44
1.0
  0
MTEXT
  5
3A4
330
1F
100
AcDbEntity
  8
0-A
  6
Continuous
 62
     7
370
     9
100
AcDbMText
 10
-1820.335857643742
 20
-2504.625938694769
 30
0.0
 40
45.72
 41
150.0
 46
0.0
 71
     7
 72
     1
  1
{\fＭＳ ゴシック|b0|i0|c128|p49;S=1/3}
 73
     1
 44
1.0
  0
MTEXT
  5
3A5
330
1F
100
AcDbEntity
  8
0-B
  6
Continuous
 62
     7
370
   211
100
AcDbMText
 10
-2664.333465284735
 20
-1015.586729759175
 30
0.0
 40
45.72
 41
90.0
 46
0.0
 71
     7
 72
     1
  1
{\fＭＳ ゴシック|b0|i0|c128|p49;8.5}
 73
     1
 44
1.0
  0
MTEXT
  5
3A6
330
1F
100
AcDbEntity
  8
0-B
  6
Continuous
 62
     7
370
   211
100
AcDbMText
 10
-2322.333726504221
 20
-1015.586729759175
 30
0.0
 40
45.72
 41
90.0
 46
0.0
 71
     7
 72
     1
  1
{\fＭＳ ゴシック|b0|i0|c128|p49;8.5}
 73
     1
 44
1.0
  0
MTEXT
  5
3A7
330
1F
100
AcDbEntity
  8
0-B
  6
Continuous
 62
     7
370
     9
100
AcDbMText
 10
-2209.729431749011
 20
-1569.170406722892
 30
0.0
 40
45.72
 41
60.0
 46
0.0
 71
     7
 72
     1
  1
{\fＭＳ ゴシック|b0|i0|c128|p49;3R}
 73
     1
 44
1.0
  0
MTEXT
  5
3A8
330
1F
100
AcDbEntity
  8
0-B
  6
Continuous
 62
     7
370
   211
100
AcDbMText
 10
-2578.272460491527
 20
-1591.989622120585
 30
0.0
 40
45.71999999999984
 41
59.99999999999978
 46
0.0
 71
     7
 72
     1
  1
{\fＭＳ ゴシック|b0|i0|c128|p49;25}
 11
0.9659258262890601
 21
-0.2588190451025517
 31
0.0
 73
     1
 44
1.0
  0
MTEXT
  5
3A9
330
1F
100
AcDbEntity
  8
0-B
  6
Continuous
 62
     7
370
   211
100
AcDbMText
 10
-2376.347969346876
 20
-1606.705813155523
 30
0.0
 40
45.72000000000106
 41
60.00000000000139
 46
0.0
 71
     7
 72
     1
  1
{\fＭＳ ゴシック|b0|i0|c128|p49;25}
 11
0.9659258262890721
 21
0.2588190451025068
 31
0.0
 73
     1
 44
1.0
  0
MTEXT
  5
3AA
330
1F
100
AcDbEntity
  8
0-B
  6
Continuous
 62
     7
370
   211
100
AcDbMText
 10
-2410.190232781501
 20
-1867.913330405203
 30
0.0
 40
45.72000000000028
 41
120.0000000000007
 46
0.0
 71
     7
 72
     1
  1
{\fＭＳ ゴシック|b0|i0|c128|p49;28.5}
 11
0.9659258262890694
 21
-0.2588190451025164
 31
0.0
 73
     1
 44
1.0
  0
MTEXT
  5
3AB
330
1F
100
AcDbEntity
  8
0-B
  6
Continuous
 62
     7
370
   211
100
AcDbMText
 10
-2602.244178787591
 20
-1899.521086382269
 30
0.0
 40
45.71999999999902
 41
119.9999999999974
 46
0.0
 71
     7
 72
     1
  1
{\fＭＳ ゴシック|b0|i0|c128|p49;28.5}
 11
0.9659258262890678
 21
0.2588190451025231
 31
0.0
 73
     1
 44
1.0
  0
MTEXT
  5
3AC
330
1F
100
AcDbEntity
  8
0-B
  6
Continuous
 62
     7
370
     9
100
AcDbMText
 10
-2629.465171679487
 20
-2221.750001052317
 30
0.0
 40
45.72
 41
60.0
 46
0.0
 71
     7
 72
     1
  1
{\fＭＳ ゴシック|b0|i0|c128|p49;3R}
 73
     1
 44
1.0
  0
MTEXT
  5
3AD
330
1F
100
AcDbEntity
  8
0-A
  6
Continuous
 62
     7
370
     9
100
AcDbMText
 10
-3806.666593809386
 20
-1876.186625408222
 30
0.0
 40
60.96
 41
320.0
 46
0.0
 71
     7
 72
     1
  1
{\fＭＳ ゴシック|b0|i0|c128|p49;Ｐ型対応}
 73
     1
 44
1.0
  0
MTEXT
  5
3AE
330
1F
100
AcDbEntity
  8
0-B
  6
Continuous
 62
     7
370
   211
100
AcDbMText
 10
-2177.333621978858
 20
-1293.008794481211
 30
0.0
 40
45.72
 41
120.0
 46
0.0
 71
     7
 72
     1
  1
{\fＭＳ ゴシック|b0|i0|c128|p49;61.5}
 73
     1
 44
1.0
  0
MTEXT
  5
3AF
330
1F
100
AcDbEntity
  8
0-B
  6
Continuous
 62
     7
370
   211
100
AcDbMText
 10
-2171.113994576081
 20
-2195.407028135145
 30
0.0
 40
45.72
 41
120.0
 46
0.0
 71
     7
 72
     1
  1
{\fＭＳ ゴシック|b0|i0|c128|p49;61.5}
 73
     1
 44
1.0
  0
MTEXT
  5
3B0
330
1F
100
AcDbEntity
  8
F-A
  6
Continuous
 62
     7
370
     9
100
AcDbMText
 10
3290.832689053887
 20
-2765.238116721579
 30
0.0
 40
49.53
 41
65.0
 46
0.0
 71
     7
 72
     1
  1
{\fＭＳ ゴシック|b0|i0|c128|p49;01}
 73
     1
 44
1.0
  0
MTEXT
  5
3B1
330
1F
100
AcDbEntity
  8
F-A
  6
Continuous
 62
     7
370
     0
100
AcDbMText
 10
-3498.364917835225
 20
-2696.786302199657
 30
0.0
 40
53.09419354838709
 41
2160.0
 46
0.0
 71
     7
 72
     1
  1
{\fＭＳ ゴシック|b0|i0|c128|p49;ドレタス　洋風造作材　巾木コーナーキャップ（Ａ・Ｐ・Ｔ・Ｍ型）}
 73
     1
 44
1.0
  0
MTEXT
  5
3B2
330
1F
100
AcDbEntity
  8
0-A
  6
Continuous
 62
     7
370
     9
100
AcDbMText
 10
-3263.333352578653
 20
1173.813507326099
 30
0.0
 40
60.96
 41
80.0
 46
0.0
 71
     7
 72
     1
  1
{\fＭＳ ゴシック|b0|i0|c128|p49;隅}
 73
     1
 44
1.0
  0
MTEXT
  5
3B3
330
1F
100
AcDbEntity
  8
0-A
  6
Continuous
 62
     7
370
     9
100
AcDbMText
 10
-3263.333352578653
 20
1273.813507326099
 30
0.0
 40
60.96
 41
80.0
 46
0.0
 71
     7
 72
     1
  1
{\fＭＳ ゴシック|b0|i0|c128|p49;入}
 73
     1
 44
1.0
  0
MTEXT
  5
3B4
330
1F
100
AcDbEntity
  8
0-A
  6
Continuous
 62
     7
370
     9
100
AcDbMText
 10
-3263.333352578653
 20
1073.813507326099
 30
0.0
 40
60.96
 41
80.0
 46
0.0
 71
     7
 72
     1
  1
{\fＭＳ ゴシック|b0|i0|c128|p49;用}
 73
     1
 44
1.0
  0
MTEXT
  5
3B5
330
1F
100
AcDbEntity
  8
0-A
  6
Continuous
 62
     7
370
     9
100
AcDbMText
 10
-3263.333352578653
 20
2007.146893992766
 30
0.0
 40
60.96
 41
80.0
 46
0.0
 71
     7
 72
     1
  1
{\fＭＳ ゴシック|b0|i0|c128|p49;隅}
 73
     1
 44
1.0
  0
MTEXT
  5
3B6
330
1F
100
AcDbEntity
  8
0-A
  6
Continuous
 62
     7
370
     9
100
AcDbMText
 10
-3263.333352578653
 20
1907.146893992766
 30
0.0
 40
60.96
 41
80.0
 46
0.0
 71
     7
 72
     1
  1
{\fＭＳ ゴシック|b0|i0|c128|p49;用}
 73
     1
 44
1.0
  0
MTEXT
  5
3B7
330
1F
100
AcDbEntity
  8
0-A
  6
Continuous
 62
     7
370
     9
100
AcDbMText
 10
-3263.333352578653
 20
2107.146893992766
 30
0.0
 40
60.96
 41
80.0
 46
0.0
 71
     7
 72
     1
  1
{\fＭＳ ゴシック|b0|i0|c128|p49;出}
 73
     1
 44
1.0
  0
LINE
  5
3B8
330
1F
100
AcDbEntity
  8
F-1
  6
Continuous
 62
     7
370
     9
100
AcDbLine
 10
-3153.333352578653
 20
2473.333641258446
 30
0.0
 11
-3153.333352578653
 21
803.3335136746916
 31
0.0
  0
MTEXT
  5
3B9
330
1F
100
AcDbEntity
  8
0-A
  6
Continuous
 62
     7
370
     9
100
AcDbMText
 10
-3263.333352578653
 20
-492.8532660072344
 30
0.0
 40
60.96
 41
80.0
 46
0.0
 71
     7
 72
     1
  1
{\fＭＳ ゴシック|b0|i0|c128|p49;隅}
 73
     1
 44
1.0
  0
MTEXT
  5
3BA
330
1F
100
AcDbEntity
  8
0-A
  6
Continuous
 62
     7
370
     9
100
AcDbMText
 10
-3263.333352578653
 20
-392.8532660072344
 30
0.0
 40
60.96
 41
80.0
 46
0.0
 71
     7
 72
     1
  1
{\fＭＳ ゴシック|b0|i0|c128|p49;入}
 73
     1
 44
1.0
  0
MTEXT
  5
3BB
330
1F
100
AcDbEntity
  8
0-A
  6
Continuous
 62
     7
370
     9
100
AcDbMText
 10
-3263.333352578653
 20
-592.8532660072344
 30
0.0
 40
60.96
 41
80.0
 46
0.0
 71
     7
 72
     1
  1
{\fＭＳ ゴシック|b0|i0|c128|p49;用}
 73
     1
 44
1.0
  0
MTEXT
  5
3BC
330
1F
100
AcDbEntity
  8
0-A
  6
Continuous
 62
     7
370
     9
100
AcDbMText
 10
-3263.333352578653
 20
340.4801206594325
 30
0.0
 40
60.96
 41
80.0
 46
0.0
 71
     7
 72
     1
  1
{\fＭＳ ゴシック|b0|i0|c128|p49;隅}
 73
     1
 44
1.0
  0
MTEXT
  5
3BD
330
1F
100
AcDbEntity
  8
0-A
  6
Continuous
 62
     7
370
     9
100
AcDbMText
 10
-3263.333352578653
 20
240.4801206594325
 30
0.0
 40
60.96
 41
80.0
 46
0.0
 71
     7
 72
     1
  1
{\fＭＳ ゴシック|b0|i0|c128|p49;用}
 73
     1
 44
1.0
  0
MTEXT
  5
3BE
330
1F
100
AcDbEntity
  8
0-A
  6
Continuous
 62
     7
370
     9
100
AcDbMText
 10
-3263.333352578653
 20
440.4801206594325
 30
0.0
 40
60.96
 41
80.0
 46
0.0
 71
     7
 72
     1
  1
{\fＭＳ ゴシック|b0|i0|c128|p49;出}
 73
     1
 44
1.0
  0
LINE
  5
3BF
330
1F
100
AcDbEntity
  8
F-1
  6
Continuous
 62
     7
370
     9
100
AcDbLine
 10
-3153.333352578653
 20
806.666867925112
 30
0.0
 11
-3153.333352578653
 21
-863.3332596586422
 31
0.0
  0
MTEXT
  5
3C0
330
1F
100
AcDbEntity
  8
0-A
  6
Continuous
 62
     7
370
     9
100
AcDbMText
 10
-3263.333352578653
 20
-2159.520039340568
 30
0.0
 40
60.96
 41
80.0
 46
0.0
 71
     7
 72
     1
  1
{\fＭＳ ゴシック|b0|i0|c128|p49;隅}
 73
     1
 44
1.0
  0
MTEXT
  5
3C1
330
1F
100
AcDbEntity
  8
0-A
  6
Continuous
 62
     7
370
     9
100
AcDbMText
 10
-3263.333352578653
 20
-2059.520039340568
 30
0.0
 40
60.96
 41
80.0
 46
0.0
 71
     7
 72
     1
  1
{\fＭＳ ゴシック|b0|i0|c128|p49;入}
 73
     1
 44
1.0
  0
MTEXT
  5
3C2
330
1F
100
AcDbEntity
  8
0-A
  6
Continuous
 62
     7
370
     9
100
AcDbMText
 10
-3263.333352578653
 20
-2259.520039340568
 30
0.0
 40
60.96
 41
80.0
 46
0.0
 71
     7
 72
     1
  1
{\fＭＳ ゴシック|b0|i0|c128|p49;用}
 73
     1
 44
1.0
  0
MTEXT
  5
3C3
330
1F
100
AcDbEntity
  8
0-A
  6
Continuous
 62
     7
370
     9
100
AcDbMText
 10
-3263.333352578653
 20
-1326.186652673901
 30
0.0
 40
60.96
 41
80.0
 46
0.0
 71
     7
 72
     1
  1
{\fＭＳ ゴシック|b0|i0|c128|p49;隅}
 73
     1
 44
1.0
  0
MTEXT
  5
3C4
330
1F
100
AcDbEntity
  8
0-A
  6
Continuous
 62
     7
370
     9
100
AcDbMText
 10
-3263.333352578653
 20
-1426.186652673901
 30
0.0
 40
60.96
 41
80.0
 46
0.0
 71
     7
 72
     1
  1
{\fＭＳ ゴシック|b0|i0|c128|p49;用}
 73
     1
 44
1.0
  0
MTEXT
  5
3C5
330
1F
100
AcDbEntity
  8
0-A
  6
Continuous
 62
     7
370
     9
100
AcDbMText
 10
-3263.333352578653
 20
-1226.186652673901
 30
0.0
 40
60.96
 41
80.0
 46
0.0
 71
     7
 72
     1
  1
{\fＭＳ ゴシック|b0|i0|c128|p49;出}
 73
     1
 44
1.0
  0
LINE
  5
3C6
330
1F
100
AcDbEntity
  8
F-1
  6
Continuous
 62
     7
370
     9
100
AcDbLine
 10
-3153.333352578653
 20
-859.9999054082218
 30
0.0
 11
-3153.333352578653
 21
-2530.000032991976
 31
0.0
  0
MTEXT
  5
3C7
330
1F
100
AcDbEntity
  8
0-A
  6
Continuous
 62
     7
370
     9
100
AcDbMText
 10
633.3330144108953
 20
1173.813507326099
 30
0.0
 40
60.96
 41
80.0
 46
0.0
 71
     7
 72
     1
  1
{\fＭＳ ゴシック|b0|i0|c128|p49;隅}
 73
     1
 44
1.0
  0
MTEXT
  5
3C8
330
1F
100
AcDbEntity
  8
0-A
  6
Continuous
 62
     7
370
     9
100
AcDbMText
 10
633.3330144108953
 20
1273.813507326099
 30
0.0
 40
60.96
 41
80.0
 46
0.0
 71
     7
 72
     1
  1
{\fＭＳ ゴシック|b0|i0|c128|p49;入}
 73
     1
 44
1.0
  0
MTEXT
  5
3C9
330
1F
100
AcDbEntity
  8
0-A
  6
Continuous
 62
     7
370
     9
100
AcDbMText
 10
633.3330144108953
 20
1073.813507326099
 30
0.0
 40
60.96
 41
80.0
 46
0.0
 71
     7
 72
     1
  1
{\fＭＳ ゴシック|b0|i0|c128|p49;用}
 73
     1
 44
1.0
  0
MTEXT
  5
3CA
330
1F
100
AcDbEntity
  8
0-A
  6
Continuous
 62
     7
370
     9
100
AcDbMText
 10
633.3330144108953
 20
2007.146893992766
 30
0.0
 40
60.96
 41
80.0
 46
0.0
 71
     7
 72
     1
  1
{\fＭＳ ゴシック|b0|i0|c128|p49;隅}
 73
     1
 44
1.0
  0
MTEXT
  5
3CB
330
1F
100
AcDbEntity
  8
0-A
  6
Continuous
 62
     7
370
     9
100
AcDbMText
 10
633.3330144108953
 20
1907.146893992766
 30
0.0
 40
60.96
 41
80.0
 46
0.0
 71
     7
 72
     1
  1
{\fＭＳ ゴシック|b0|i0|c128|p49;用}
 73
     1
 44
1.0
  0
MTEXT
  5
3CC
330
1F
100
AcDbEntity
  8
0-A
  6
Continuous
 62
     7
370
     9
100
AcDbMText
 10
633.3330144108953
 20
2107.146893992766
 30
0.0
 40
60.96
 41
80.0
 46
0.0
 71
     7
 72
     1
  1
{\fＭＳ ゴシック|b0|i0|c128|p49;出}
 73
     1
 44
1.0
  0
LINE
  5
3CD
330
1F
100
AcDbEntity
  8
F-1
  6
Continuous
 62
     7
370
     9
100
AcDbLine
 10
743.3330144108953
 20
2473.333641258446
 30
0.0
 11
743.3330144108953
 21
803.3335136746916
 31
0.0
  0
MTEXT
  5
3CE
330
1F
100
AcDbEntity
  8
0-A
  6
Continuous
 62
     7
370
     9
100
AcDbMText
 10
3603.332898938979
 20
717.4435312584452
 30
0.0
 40
45.72
 41
60.0
 46
0.0
 71
     7
 72
     1
  1
{\fＭＳ ゴシック|b0|i0|c128|p49;10}
 73
     1
 44
1.0
  0
MTEXT
  5
3CF
330
1F
100
AcDbEntity
  8
0-A
  6
Continuous
 62
     7
370
     9
100
AcDbMText
 10
3603.332898938979
 20
-115.8898554082217
 30
0.0
 40
45.72
 41
60.0
 46
0.0
 71
     7
 72
     1
  1
{\fＭＳ ゴシック|b0|i0|c128|p49;20}
 73
     1
 44
1.0
  0
LINE
  5
3D0
330
1F
100
AcDbEntity
  8
0-A
  6
JWW_HOJO
 62
   120
370
     5
100
AcDbLine
 10
603.3330144108953
 20
-159.9998520748883
 30
0.0
 11
-103.3334680505703
 21
-159.9998520748883
 31
0.0
  0
LINE
  5
3D1
330
1F
100
AcDbEntity
  8
0-A
  6
JWW_HOJO
 62
   120
370
     5
100
AcDbLine
 10
603.3330144108953
 20
-26.66651874155491
 30
0.0
 11
-103.3334680505703
 21
-26.66651874155491
 31
0.0
  0
LINE
  5
3D2
330
1F
100
AcDbEntity
  8
0-A
  6
JWW_HOJO
 62
   120
370
     5
100
AcDbLine
 10
603.3330144108953
 20
106.6668145917782
 30
0.0
 11
-103.3334680505703
 21
106.6668145917782
 31
0.0
  0
MTEXT
  5
3D3
330
1F
100
AcDbEntity
  8
0-A
  6
Continuous
 62
     7
370
     9
100
AcDbMText
 10
-70.0002268198358
 20
-76.1865187415549
 30
0.0
 40
60.96
 41
640.0
 46
0.0
 71
     7
 72
     1
  1
{\fＭＳ ゴシック|b0|i0|c128|p49;コーナーキャップ}
 73
     1
 44
1.0
  0
MTEXT
  5
3D4
330
1F
100
AcDbEntity
  8
0-A
  6
Continuous
 62
     7
370
     9
100
AcDbMText
 10
129.9997731801642
 20
57.14681459177824
 30
0.0
 40
60.96
 41
240.0
 46
0.0
 71
     7
 72
     1
  1
{\fＭＳ ゴシック|b0|i0|c128|p49;巾木・}
 73
     1
 44
1.0
  0
LINE
  5
3D5
330
1F
100
AcDbEntity
  8
1-B
  6
Continuous
 62
    92
370
    13
100
AcDbLine
 10
1364.894170915057
 20
-664.883091735395
 30
0.0
 11
1354.287569197256
 21
-658.7593673784346
 31
0.0
  0
LINE
  5
3D6
330
1F
100
AcDbEntity
  8
1-B
  6
Continuous
 62
    92
370
    13
100
AcDbLine
 10
1542.377972992884
 20
-658.7593673784369
 30
0.0
 11
1531.771371275084
 21
-664.8830917353962
 31
0.0
  0
ARC
  5
3D7
330
1F
100
AcDbEntity
  8
1-B
  6
Continuous
 62
    92
370
    13
100
AcDbCircle
 10
1448.332771095072
 20
-399.7148332753352
 30
0.0
 40
25.0
100
AcDbArc
 50
61.28860348437212
 51
118.7113965156265
  0
LINE
  5
3D8
330
1F
100
AcDbEntity
  8
1-B
  6
Continuous
 62
    92
370
    13
100
AcDbLine
 10
1460.342720050309
 20
-377.7885676085015
 30
0.0
 11
1531.771371275084
 21
-416.9130801080757
 31
0.0
  0
LINE
  5
3D9
330
1F
100
AcDbEntity
  8
1-B
  6
Continuous
 62
    92
370
    13
100
AcDbLine
 10
1436.322822139834
 20
-377.7885676085012
 30
0.0
 11
1364.894170915056
 21
-416.9130801080746
 31
0.0
  0
ARC
  5
3DA
330
1F
100
AcDbEntity
  8
1-B
  6
Continuous
 62
    92
370
    13
100
AcDbCircle
 10
1448.33277109507
 20
-386.9928397403288
 30
0.0
 40
25.0
100
AcDbArc
 50
60.00000000000023
 51
120.0000000000004
  0
LINE
  5
3DB
330
1F
100
AcDbEntity
  8
1-B
  6
Continuous
 62
    92
370
    13
100
AcDbLine
 10
1435.832771095069
 20
-365.3422046457177
 30
0.0
 11
1379.036306538783
 21
-398.1336587463088
 31
0.0
  0
LINE
  5
3DC
330
1F
100
AcDbEntity
  8
1-B
  6
Continuous
 62
    92
370
    13
100
AcDbLine
 10
1460.83277109507
 20
-365.3422046457183
 30
0.0
 11
1517.629235651355
 21
-398.1336587463085
 31
0.0
  0
LINE
  5
3DD
330
1F
100
AcDbEntity
  8
1-B
  6
Continuous
 62
    92
370
    13
100
AcDbLine
 10
1507.022633933554
 20
-662.841850283076
 30
0.0
 11
1507.022633933554
 21
-511.5337145390276
 31
0.0
  0
LINE
  5
3DE
330
1F
100
AcDbEntity
  8
1-B
  6
Continuous
 62
    92
370
    13
100
AcDbLine
 10
1389.642908256586
 20
-662.841850283076
 30
0.0
 11
1389.642908256586
 21
-511.5337145390276
 31
0.0
  0
LINE
  5
3DF
330
1F
100
AcDbEntity
  8
1-B
  6
Continuous
 62
    92
370
    13
100
AcDbLine
 10
1428.332771095069
 20
-481.7825309826341
 30
0.0
 11
1361.958181013093
 21
-520.103918433814
 31
0.0
  0
LINE
  5
3E0
330
1F
100
AcDbEntity
  8
1-B
  6
Continuous
 62
    92
370
    13
100
AcDbLine
 10
1531.771371275084
 20
-493.6750780129898
 30
0.0
 11
1531.771371275084
 21
-420.9955630122829
 31
0.0
  0
LINE
  5
3E1
330
1F
100
AcDbEntity
  8
1-B
  6
Continuous
 62
    92
370
    13
100
AcDbLine
 10
1531.771371275084
 20
-525.822404705263
 30
0.0
 11
1531.771371275084
 21
-664.883091735395
 31
0.0
  0
LINE
  5
3E2
330
1F
100
AcDbEntity
  8
1-B
  6
Continuous
 62
    92
370
    13
100
AcDbLine
 10
1468.33277109507
 20
-481.7825309826341
 30
0.0
 11
1534.701432783952
 21
-520.1004956744655
 31
0.0
  0
ARC
  5
3E3
330
1F
100
AcDbEntity
  8
1-B
  6
Continuous
 62
    92
370
    13
100
AcDbCircle
 10
1448.33277109507
 20
-516.4235471340114
 30
0.0
 40
40.0
100
AcDbArc
 50
59.99999999999999
 51
120.0
  0
LINE
  5
3E4
330
1F
100
AcDbEntity
  8
1-B
  6
Continuous
 62
    92
370
    13
100
AcDbLine
 10
1468.33277109507
 20
-489.1961118143189
 30
0.0
 11
1531.771371275084
 21
-525.822404705263
 31
0.0
  0
ARC
  5
3E5
330
1F
100
AcDbEntity
  8
1-B
  6
Continuous
 62
    92
370
    13
100
AcDbCircle
 10
1448.33277109507
 20
-523.8371279656968
 30
0.0
 40
40.0
100
AcDbArc
 50
60.00000000000014
 51
119.9999999999998
  0
LINE
  5
3E6
330
1F
100
AcDbEntity
  8
1-B
  6
Continuous
 62
    92
370
    13
100
AcDbLine
 10
1428.332771095069
 20
-489.1961118143189
 30
0.0
 11
1364.894170915056
 21
-525.822404705263
 31
0.0
  0
LINE
  5
3E7
330
1F
100
AcDbEntity
  8
1-B
  6
Continuous
 62
    92
370
    13
100
AcDbLine
 10
1364.894170915056
 20
-525.822404705263
 30
0.0
 11
1364.894170915056
 21
-664.883091735395
 31
0.0
  0
LINE
  5
3E8
330
1F
100
AcDbEntity
  8
1-B
  6
Continuous
 62
    92
370
    13
100
AcDbLine
 10
1364.894170915056
 20
-493.6750780129921
 30
0.0
 11
1364.894170915056
 21
-416.9130801080752
 31
0.0
  0
LINE
  5
3E9
330
1F
100
AcDbEntity
  8
1-B
  6
Continuous
 62
    92
370
    13
100
AcDbLine
 10
1507.022633933554
 20
-479.3863878467562
 30
0.0
 11
1507.022633933554
 21
-404.2573831032644
 31
0.0
  0
LINE
  5
3EA
330
1F
100
AcDbEntity
  8
1-B
  6
Continuous
 62
    92
370
    13
100
AcDbLine
 10
1389.642908256586
 20
-479.3863878467562
 30
0.0
 11
1389.642908256586
 21
-404.2573831032644
 31
0.0
  0
LINE
  5
3EB
330
1F
100
AcDbEntity
  8
1-B
  6
Continuous
 62
    92
370
    13
100
AcDbLine
 10
1468.33277109507
 20
-458.6817782839034
 30
0.0
 11
1532.478478056276
 21
-495.7163194653145
 31
0.0
  0
LINE
  5
3EC
330
1F
100
AcDbEntity
  8
1-B
  6
Continuous
 62
    92
370
    13
100
AcDbLine
 10
1428.332771095069
 20
-458.6817782839034
 30
0.0
 11
1364.187064133864
 21
-495.7163194653145
 31
0.0
  0
ARC
  5
3ED
330
1F
100
AcDbEntity
  8
1-B
  6
Continuous
 62
    92
370
    13
100
AcDbCircle
 10
1448.33277109507
 20
-493.3227944352814
 30
0.0
 40
40.0
100
AcDbArc
 50
60.00000000000038
 51
119.9999999999996
  0
ARC
  5
3EE
330
1F
100
AcDbEntity
  8
1-B
  6
Continuous
 62
    92
370
    13
100
AcDbCircle
 10
1448.33277109507
 20
-491.6898012734254
 30
0.0
 40
40.0
100
AcDbArc
 50
59.99999999999994
 51
120.0000000000001
  0
LINE
  5
3EF
330
1F
100
AcDbEntity
  8
1-B
  6
Continuous
 62
    92
370
    13
100
AcDbLine
 10
1468.33277109507
 20
-457.048785122048
 30
0.0
 11
1531.771371275084
 21
-493.6750780129921
 31
0.0
  0
LINE
  5
3F0
330
1F
100
AcDbEntity
  8
1-B
  6
Continuous
 62
    92
370
    13
100
AcDbLine
 10
1428.332771095069
 20
-457.048785122048
 30
0.0
 11
1364.894170915056
 21
-493.6750780129921
 31
0.0
  0
LINE
  5
3F1
330
1F
100
AcDbEntity
  8
1-B
  6
Continuous
 62
    92
370
    13
100
AcDbLine
 10
1554.398788273054
 20
-504.7257974508889
 30
0.0
 11
1537.489866141173
 21
-494.9634267063402
 31
0.0
  0
LINE
  5
3F2
330
1F
100
AcDbEntity
  8
1-B
  6
Continuous
 62
    92
370
    13
100
AcDbLine
 10
1556.520108616614
 20
-479.5600373690297
 30
0.0
 11
1542.377972992884
 21
-471.3950715597531
 31
0.0
  0
LINE
  5
3F3
330
1F
100
AcDbEntity
  8
1-B
  6
Continuous
 62
    92
370
    13
100
AcDbLine
 10
1342.266753917085
 20
-504.7257974508889
 30
0.0
 11
1359.175676048969
 21
-494.9634267063396
 31
0.0
  0
LINE
  5
3F4
330
1F
100
AcDbEntity
  8
1-B
  6
Continuous
 62
    92
370
    13
100
AcDbLine
 10
1340.145433573526
 20
-479.5600373690297
 30
0.0
 11
1354.287569197256
 21
-471.3950715597531
 31
0.0
  0
LINE
  5
3F5
330
1F
100
AcDbEntity
  8
1-B
  6
Continuous
 62
    92
370
    13
100
AcDbLine
 10
1531.771371275084
 20
-416.9130801080757
 30
0.0
 11
1593.289661238314
 21
-381.3954788377197
 31
0.0
  0
LINE
  5
3F6
330
1F
100
AcDbEntity
  8
1-B
  6
Continuous
 62
    92
370
    13
100
AcDbLine
 10
1517.629235651355
 20
-398.1336587463088
 30
0.0
 11
1531.771371275084
 21
-416.9130801080755
 31
0.0
  0
LINE
  5
3F7
330
1F
100
AcDbEntity
  8
1-B
  6
Continuous
 62
    92
370
    13
100
AcDbLine
 10
1379.036306538783
 20
-398.1336587463088
 30
0.0
 11
1364.894170915056
 21
-416.9130801080752
 31
0.0
  0
LINE
  5
3F8
330
1F
100
AcDbEntity
  8
1-B
  6
Continuous
 62
    92
370
    13
100
AcDbLine
 10
1364.894170915056
 20
-416.9130801080752
 30
0.0
 11
1303.375880951826
 21
-381.3954788377197
 31
0.0
  0
LINE
  5
3F9
330
1F
100
AcDbEntity
  8
1-B
  6
Continuous
 62
    92
370
    13
100
AcDbLine
 10
1507.022633933554
 20
-404.2573831032644
 30
0.0
 11
1517.629235651355
 21
-398.1336587463085
 31
0.0
  0
LINE
  5
3FA
330
1F
100
AcDbEntity
  8
1-B
  6
Continuous
 62
    92
370
    13
100
AcDbLine
 10
1379.036306538783
 20
-398.1336587463088
 30
0.0
 11
1389.642908256586
 21
-404.2573831032644
 31
0.0
  0
LINE
  5
3FB
330
1F
100
AcDbEntity
  8
1-B
  6
Continuous
 62
    92
370
    13
100
AcDbLine
 10
1303.375880951826
 20
-381.3954788377197
 30
0.0
 11
1303.375880951826
 21
-383.0284719991442
 31
0.0
  0
LINE
  5
3FC
330
1F
100
AcDbEntity
  8
1-B
  6
Continuous
 62
    92
370
    13
100
AcDbLine
 10
1317.518016575555
 20
-362.6160574759524
 30
0.0
 11
1448.33277109507
 21
-287.0901237401353
 31
0.0
  0
LINE
  5
3FD
330
1F
100
AcDbEntity
  8
1-B
  6
Continuous
 62
    92
370
    13
100
AcDbLine
 10
1379.036306538783
 20
-398.1336587463088
 30
0.0
 11
1317.518016575555
 21
-362.6160574759535
 31
0.0
  0
LINE
  5
3FE
330
1F
100
AcDbEntity
  8
1-B
  6
Continuous
 62
    92
370
    13
100
AcDbLine
 10
1517.629235651355
 20
-398.1336587463088
 30
0.0
 11
1579.147525614585
 21
-362.6160574759524
 31
0.0
  0
LINE
  5
3FF
330
1F
100
AcDbEntity
  8
1-B
  6
Continuous
 62
    92
370
    13
100
AcDbLine
 10
1593.289661238314
 20
-381.3954788377197
 30
0.0
 11
1593.289661238314
 21
-383.028471999144
 31
0.0
  0
LINE
  5
400
330
1F
100
AcDbEntity
  8
1-B
  6
Continuous
 62
    92
370
    13
100
AcDbLine
 10
1579.147525614585
 20
-362.6160574759524
 30
0.0
 11
1593.289661238314
 21
-381.3954788377197
 31
0.0
  0
LINE
  5
401
330
1F
100
AcDbEntity
  8
1-B
  6
Continuous
 62
    92
370
    13
100
AcDbLine
 10
1579.147525614585
 20
-362.6160574759524
 30
0.0
 11
1448.33277109507
 21
-287.0901237401353
 31
0.0
  0
LINE
  5
402
330
1F
100
AcDbEntity
  8
1-B
  6
Continuous
 62
    92
370
    13
100
AcDbLine
 10
1317.518016575555
 20
-362.616057475953
 30
0.0
 11
1303.375880951826
 21
-381.3954788377197
 31
0.0
  0
LINE
  5
403
330
1F
100
AcDbEntity
  8
1-B
  6
Continuous
 62
    92
370
    13
100
AcDbLine
 10
1354.287569197256
 20
-414.871838655325
 30
0.0
 11
1354.287569197256
 21
-484.845595640831
 31
0.0
  0
ELLIPSE
  5
404
330
1F
100
AcDbEntity
  8
1-B
  6
Continuous
 62
    92
370
    13
100
AcDbEllipse
 10
1361.358637009123
 20
-523.7811632529438
 30
0.0
 11
2.500000000000119
 21
-4.330127018922609
 31
0.0
210
0.0
220
0.0
230
1.0
 40
0.577350269189659
 41
0.7853981633974366
 42
2.181661564992904
  0
LINE
  5
405
330
1F
100
AcDbEntity
  8
1-B
  6
Continuous
 62
    92
370
    13
100
AcDbLine
 10
1361.972576028968
 20
-520.1151602952899
 30
0.0
 11
1342.266753917085
 21
-504.7257974508889
 31
0.0
  0
ELLIPSE
  5
406
330
1F
100
AcDbEntity
  8
1-B
  6
Continuous
 62
    92
370
    13
100
AcDbEllipse
 10
1361.358637009123
 20
-491.6338365606703
 30
0.0
 11
2.500000000000119
 21
-4.330127018922609
 31
0.0
210
0.0
220
0.0
230
1.0
 40
0.577350269189659
 41
5.672320068981069
 42
7.068583470576534
  0
LINE
  5
407
330
1F
100
AcDbEntity
  8
1-B
  6
Continuous
 62
    92
370
    13
100
AcDbLine
 10
1361.972576028968
 20
-496.0087552350723
 30
0.0
 11
1342.266753917085
 21
-488.6437946776763
 31
0.0
  0
LINE
  5
408
330
1F
100
AcDbEntity
  8
1-B
  6
Continuous
 62
    92
370
    13
100
AcDbLine
 10
1342.266753917085
 20
-488.6437946776763
 30
0.0
 11
1342.266753917085
 21
-504.7257974508889
 31
0.0
  0
LINE
  5
409
330
1F
100
AcDbEntity
  8
1-B
  6
Continuous
 62
    92
370
    13
100
AcDbLine
 10
1340.145433573526
 20
-479.5600373690297
 30
0.0
 11
1340.145433573526
 21
-511.3600650167541
 31
0.0
  0
LINE
  5
40A
330
1F
100
AcDbEntity
  8
1-B
  6
Continuous
 62
    92
370
    13
100
AcDbLine
 10
1354.287569197256
 20
-484.845595640831
 30
0.0
 11
1340.145433573526
 21
-479.5600373690297
 31
0.0
  0
ELLIPSE
  5
40B
330
1F
100
AcDbEntity
  8
1-B
  6
Continuous
 62
    92
370
    13
100
AcDbEllipse
 10
1352.166248853696
 20
-413.6470937839329
 30
0.0
 11
1.500000000000373
 21
-2.598076211353897
 31
0.0
210
0.0
220
0.0
230
1.0
 40
0.5773502691897369
 41
0.7853981633974818
 42
2.356194490192378
  0
LINE
  5
40C
330
1F
100
AcDbEntity
  8
1-B
  6
Continuous
 62
    92
370
    13
100
AcDbLine
 10
1354.287569197256
 20
-522.4044383635066
 30
0.0
 11
1340.145433573526
 21
-511.3600650167541
 31
0.0
  0
LINE
  5
40D
330
1F
100
AcDbEntity
  8
1-B
  6
Continuous
 62
    92
370
    13
100
AcDbLine
 10
1542.377972992884
 20
-522.4044383635066
 30
0.0
 11
1542.377972992884
 21
-658.7593673784369
 31
0.0
  0
LINE
  5
40E
330
1F
100
AcDbEntity
  8
1-B
  6
Continuous
 62
    92
370
    13
100
AcDbLine
 10
1542.377972992884
 20
-414.871838655325
 30
0.0
 11
1542.377972992884
 21
-484.845595640831
 31
0.0
  0
ELLIPSE
  5
40F
330
1F
100
AcDbEntity
  8
1-B
  6
Continuous
 62
    92
370
    13
100
AcDbEllipse
 10
1535.306905181017
 20
-523.7811632529438
 30
0.0
 11
-2.500000000000118
 21
-4.330127018922609
 31
0.0
210
0.0
220
0.0
230
1.0
 40
0.577350269189659
 41
4.101523742186682
 42
5.497787143782149
  0
LINE
  5
410
330
1F
100
AcDbEntity
  8
1-B
  6
Continuous
 62
    92
370
    13
100
AcDbLine
 10
1534.692966161172
 20
-520.1151602952899
 30
0.0
 11
1554.398788273054
 21
-504.7257974508889
 31
0.0
  0
ELLIPSE
  5
411
330
1F
100
AcDbEntity
  8
1-B
  6
Continuous
 62
    92
370
    13
100
AcDbEllipse
 10
1535.306905181017
 20
-491.6338365606703
 30
0.0
 11
-2.500000000000118
 21
-4.330127018922609
 31
0.0
210
0.0
220
0.0
230
1.0
 40
0.577350269189659
 41
5.497787143782638
 42
6.894050545378103
  0
LINE
  5
412
330
1F
100
AcDbEntity
  8
1-B
  6
Continuous
 62
    92
370
    13
100
AcDbLine
 10
1534.692966161172
 20
-496.0087552350723
 30
0.0
 11
1554.398788273054
 21
-488.6437946776763
 31
0.0
  0
LINE
  5
413
330
1F
100
AcDbEntity
  8
1-B
  6
Continuous
 62
    92
370
    13
100
AcDbLine
 10
1554.398788273054
 20
-488.6437946776763
 30
0.0
 11
1554.398788273054
 21
-504.7257974508889
 31
0.0
  0
LINE
  5
414
330
1F
100
AcDbEntity
  8
1-B
  6
Continuous
 62
    92
370
    13
100
AcDbLine
 10
1556.520108616614
 20
-479.5600373690297
 30
0.0
 11
1556.520108616614
 21
-511.3600650167541
 31
0.0
  0
LINE
  5
415
330
1F
100
AcDbEntity
  8
1-B
  6
Continuous
 62
    92
370
    13
100
AcDbLine
 10
1542.377972992884
 20
-484.845595640831
 30
0.0
 11
1556.520108616614
 21
-479.5600373690297
 31
0.0
  0
LINE
  5
416
330
1F
100
AcDbEntity
  8
1-B
  6
Continuous
 62
    92
370
    13
100
AcDbLine
 10
1544.499293336443
 20
-411.1976040411497
 30
0.0
 11
1593.289661238314
 21
-383.028471999144
 31
0.0
  0
ELLIPSE
  5
417
330
1F
100
AcDbEntity
  8
1-B
  6
Continuous
 62
    92
370
    13
100
AcDbEllipse
 10
1544.499293336443
 20
-413.6470937839329
 30
0.0
 11
-1.500000000000373
 21
-2.598076211353897
 31
0.0
210
0.0
220
0.0
230
1.0
 40
0.5773502691897369
 41
3.926990816987208
 42
5.497787143782104
  0
LINE
  5
418
330
1F
100
AcDbEntity
  8
1-B
  6
Continuous
 62
    92
370
    13
100
AcDbLine
 10
1542.377972992884
 20
-522.4044383635066
 30
0.0
 11
1556.520108616614
 21
-511.3600650167541
 31
0.0
  0
LINE
  5
419
330
1F
100
AcDbEntity
  8
1-B
  6
Continuous
 62
    92
370
    13
100
AcDbLine
 10
1352.166248853699
 20
-411.1976040411497
 30
0.0
 11
1303.375880951826
 21
-383.0284719991442
 31
0.0
  0
LINE
  5
41A
330
1F
100
AcDbEntity
  8
1-B
  6
Continuous
 62
    92
370
    13
100
AcDbLine
 10
1507.022633933554
 20
-662.841850283076
 30
0.0
 11
1531.771371275084
 21
-664.8830917353962
 31
0.0
  0
LINE
  5
41B
330
1F
100
AcDbEntity
  8
1-B
  6
Continuous
 62
    92
370
    13
100
AcDbLine
 10
1476.617042342531
 20
-645.2871737931292
 30
0.0
 11
1507.022633933554
 21
-662.841850283076
 31
0.0
  0
LINE
  5
41C
330
1F
100
AcDbEntity
  8
1-B
  6
Continuous
 62
    92
370
    13
100
AcDbLine
 10
1420.048499847608
 20
-645.2871737931298
 30
0.0
 11
1389.642908256586
 21
-662.841850283076
 31
0.0
  0
LINE
  5
41D
330
1F
100
AcDbEntity
  8
1-B
  6
Continuous
 62
    92
370
    13
100
AcDbLine
 10
1364.894170915057
 20
-664.883091735395
 30
0.0
 11
1389.642908256586
 21
-662.841850283076
 31
0.0
  0
ELLIPSE
  5
41E
330
1F
100
AcDbEntity
  8
1-B
  6
Continuous
 62
    92
370
    13
100
AcDbEllipse
 10
1448.33277109507
 20
-661.6171054116836
 30
0.0
 11
40.00000000000013
 21
-1.507288760336424E-13
 31
0.0
210
0.0
220
0.0
230
1.0
 40
0.5773502691896292
 41
0.7853981633974482
 42
2.356194490192345
  0
LINE
  5
41F
330
1F
100
AcDbEntity
  8
0-0
  6
JWW_HOJO
 62
     7
370
     9
100
AcDbLine
 10
1626.622994571647
 20
-351.5360143122405
 30
0.0
 11
1448.33277109507
 21
-248.6001057941604
 31
0.0
  0
LINE
  5
420
330
1F
100
AcDbEntity
  8
0-0
  6
JWW_HOJO
 62
     7
370
     9
100
AcDbLine
 10
1300.851349908888
 20
-333.7485440164716
 30
0.0
 11
1448.33277109507
 21
-248.6001057941604
 31
0.0
  0
LINE
  5
421
330
1F
100
AcDbEntity
  8
0-0
  6
JWW_HOJO
 62
     7
370
     9
100
AcDbLine
 10
1284.184683242222
 20
-304.8810305569901
 30
0.0
 11
1448.33277109507
 21
-210.110087848185
 31
0.0
  0
LINE
  5
422
330
1F
100
AcDbEntity
  8
0-0
  6
JWW_HOJO
 62
     7
370
     9
100
AcDbLine
 10
1659.956327904982
 20
-332.291005339253
 30
0.0
 11
1448.33277109507
 21
-210.110087848185
 31
0.0
  0
LINE
  5
423
330
1F
100
AcDbEntity
  8
0-0
  6
JWW_HOJO
 62
     7
370
     9
100
AcDbLine
 10
1659.956327904982
 20
-697.107922049953
 30
0.0
 11
1659.956327904982
 21
-332.291005339253
 31
0.0
  0
LINE
  5
424
330
1F
100
AcDbEntity
  8
0-0
  6
JWW_HOJO
 62
     7
370
     9
100
AcDbLine
 10
1626.622994571647
 20
-648.6104994380247
 30
0.0
 11
1626.622994571647
 21
-351.5360143122405
 31
0.0
  0
LWPOLYLINE
  5
425
330
1F
100
AcDbEntity
  8
0-B
  6
Continuous
 62
     7
370
     9
100
AcDbPolyline
 90
        4
 70
     1
 43
2.0
 10
1733.480858947915
 20
-362.6160574759524
 42
0.4142135623731
 10
1732.480858947915
 20
-361.6160574759524
 42
0.4142135623731
 10
1731.480858947915
 20
-362.6160574759524
 42
0.4142135623731
 10
1732.480858947915
 20
-363.6160574759524
 42
0.4142135623731
  0
LINE
  5
426
330
1F
100
AcDbEntity
  8
0-B
  6
Continuous
 62
   120
370
     5
100
AcDbLine
 10
1732.480858947915
 20
-362.6160574759524
 30
0.0
 11
1612.480858947913
 21
-362.6160574759524
 31
0.0
  0
LINE
  5
427
330
1F
100
AcDbEntity
  8
0-B
  6
Continuous
 62
   120
370
     5
100
AcDbLine
 10
1481.666104428403
 20
-229.3550968211724
 30
0.0
 11
1631.219188649547
 21
-315.6996102543889
 31
0.0
  0
LWPOLYLINE
  5
428
330
1F
100
AcDbEntity
  8
0-B
  6
Continuous
 62
     7
370
     9
100
AcDbPolyline
 90
        4
 70
     1
 43
2.0
 10
1482.666104428403
 20
-229.3550968211724
 42
0.4142135623731
 10
1481.666104428403
 20
-228.3550968211724
 42
0.4142135623731
 10
1480.666104428403
 20
-229.3550968211724
 42
0.4142135623731
 10
1481.666104428403
 20
-230.3550968211724
 42
0.4142135623731
  0
LWPOLYLINE
  5
429
330
1F
100
AcDbEntity
  8
0-B
  6
Continuous
 62
     7
370
     9
100
AcDbPolyline
 90
        4
 70
     1
 43
2.0
 10
1632.219188649547
 20
-315.6996102543889
 42
0.4142135623731
 10
1631.219188649547
 20
-314.6996102543889
 42
0.4142135623731
 10
1630.219188649547
 20
-315.6996102543889
 42
0.4142135623731
 10
1631.219188649547
 20
-316.6996102543889
 42
0.4142135623731
  0
LINE
  5
42A
330
1F
100
AcDbEntity
  8
0-B
  6
Continuous
 62
   120
370
     5
100
AcDbLine
 10
1481.666104428403
 20
-229.3550968211724
 30
0.0
 11
1464.999437761735
 21
-258.2226102806541
 31
0.0
  0
LINE
  5
42B
330
1F
100
AcDbEntity
  8
0-B
  6
Continuous
 62
   120
370
     5
100
AcDbLine
 10
1631.219188649547
 20
-315.6996102543889
 30
0.0
 11
1614.552521982881
 21
-344.5671237138703
 31
0.0
  0
LINE
  5
42C
330
1F
100
AcDbEntity
  8
0-B
  6
Continuous
 62
   120
370
     5
100
AcDbLine
 10
1265.446353540596
 20
-315.6996102543889
 30
0.0
 11
1414.999437761738
 21
-229.3550968211736
 31
0.0
  0
LWPOLYLINE
  5
42D
330
1F
100
AcDbEntity
  8
0-B
  6
Continuous
 62
     7
370
     9
100
AcDbPolyline
 90
        4
 70
     1
 43
2.0
 10
1266.446353540596
 20
-315.6996102543889
 42
0.4142135623731
 10
1265.446353540596
 20
-314.6996102543889
 42
0.4142135623731
 10
1264.446353540596
 20
-315.6996102543889
 42
0.4142135623731
 10
1265.446353540596
 20
-316.6996102543889
 42
0.4142135623731
  0
LWPOLYLINE
  5
42E
330
1F
100
AcDbEntity
  8
0-B
  6
Continuous
 62
     7
370
     9
100
AcDbPolyline
 90
        4
 70
     1
 43
2.0
 10
1415.999437761738
 20
-229.3550968211736
 42
0.4142135623731
 10
1414.999437761738
 20
-228.3550968211736
 42
0.4142135623731
 10
1413.999437761738
 20
-229.3550968211736
 42
0.4142135623731
 10
1414.999437761738
 20
-230.3550968211736
 42
0.4142135623731
  0
LINE
  5
42F
330
1F
100
AcDbEntity
  8
0-B
  6
Continuous
 62
   120
370
     5
100
AcDbLine
 10
1265.446353540596
 20
-315.6996102543889
 30
0.0
 11
1282.11302020726
 21
-344.5671237138697
 31
0.0
  0
LINE
  5
430
330
1F
100
AcDbEntity
  8
0-B
  6
Continuous
 62
   120
370
     5
100
AcDbLine
 10
1414.999437761738
 20
-229.3550968211736
 30
0.0
 11
1431.666104428403
 21
-258.2226102806544
 31
0.0
  0
MTEXT
  5
431
330
1F
100
AcDbEntity
  8
0-A
  6
Continuous
 62
     7
370
     9
100
AcDbMText
 10
2076.330509345807
 20
-4.625778694768329
 30
0.0
 40
45.72
 41
150.0
 46
0.0
 71
     7
 72
     1
  1
{\fＭＳ ゴシック|b0|i0|c128|p49;S=1/2}
 73
     1
 44
1.0
  0
MTEXT
  5
432
330
1F
100
AcDbEntity
  8
0-A
  6
Continuous
 62
     7
370
     9
100
AcDbMText
 10
2076.330509345807
 20
-837.9591653614352
 30
0.0
 40
45.72
 41
150.0
 46
0.0
 71
     7
 72
     1
  1
{\fＭＳ ゴシック|b0|i0|c128|p49;S=1/2}
 73
     1
 44
1.0
  0
MTEXT
  5
433
330
1F
100
AcDbEntity
  8
0-B
  6
Continuous
 62
     7
370
   211
100
AcDbMText
 10
1509.481122311909
 20
-241.0070994999363
 30
0.0
 40
45.72000000000038
 41
120.000000000001
 46
0.0
 71
     7
 72
     1
  1
{\fＭＳ ゴシック|b0|i0|c128|p49;28.5}
 11
0.866025403784441
 21
-0.4999999999999958
 31
0.0
 73
     1
 44
1.0
  0
MTEXT
  5
434
330
1F
100
AcDbEntity
  8
0-B
  6
Continuous
 62
     7
370
   211
100
AcDbMText
 10
1283.2613714241
 20
-301.0070994999362
 30
0.0
 40
45.72000000000043
 41
120.0000000000011
 46
0.0
 71
     7
 72
     1
  1
{\fＭＳ ゴシック|b0|i0|c128|p49;28.5}
 11
0.8660254037844395
 21
0.4999999999999986
 31
0.0
 73
     1
 44
1.0
  0
MTEXT
  5
435
330
1F
100
AcDbEntity
  8
0-A
  6
Continuous
 62
     7
370
     9
100
AcDbMText
 10
633.3330144108953
 20
-492.8532660072344
 30
0.0
 40
60.96
 41
80.0
 46
0.0
 71
     7
 72
     1
  1
{\fＭＳ ゴシック|b0|i0|c128|p49;隅}
 73
     1
 44
1.0
  0
MTEXT
  5
436
330
1F
100
AcDbEntity
  8
0-A
  6
Continuous
 62
     7
370
     9
100
AcDbMText
 10
633.3330144108953
 20
-392.8532660072344
 30
0.0
 40
60.96
 41
80.0
 46
0.0
 71
     7
 72
     1
  1
{\fＭＳ ゴシック|b0|i0|c128|p49;入}
 73
     1
 44
1.0
  0
MTEXT
  5
437
330
1F
100
AcDbEntity
  8
0-A
  6
Continuous
 62
     7
370
     9
100
AcDbMText
 10
633.3330144108953
 20
-592.8532660072344
 30
0.0
 40
60.96
 41
80.0
 46
0.0
 71
     7
 72
     1
  1
{\fＭＳ ゴシック|b0|i0|c128|p49;用}
 73
     1
 44
1.0
  0
MTEXT
  5
438
330
1F
100
AcDbEntity
  8
0-A
  6
Continuous
 62
     7
370
     9
100
AcDbMText
 10
633.3330144108953
 20
340.4801206594325
 30
0.0
 40
60.96
 41
80.0
 46
0.0
 71
     7
 72
     1
  1
{\fＭＳ ゴシック|b0|i0|c128|p49;隅}
 73
     1
 44
1.0
  0
MTEXT
  5
439
330
1F
100
AcDbEntity
  8
0-A
  6
Continuous
 62
     7
370
     9
100
AcDbMText
 10
633.3330144108953
 20
240.4801206594325
 30
0.0
 40
60.96
 41
80.0
 46
0.0
 71
     7
 72
     1
  1
{\fＭＳ ゴシック|b0|i0|c128|p49;用}
 73
     1
 44
1.0
  0
MTEXT
  5
43A
330
1F
100
AcDbEntity
  8
0-A
  6
Continuous
 62
     7
370
     9
100
AcDbMText
 10
633.3330144108953
 20
440.4801206594325
 30
0.0
 40
60.96
 41
80.0
 46
0.0
 71
     7
 72
     1
  1
{\fＭＳ ゴシック|b0|i0|c128|p49;出}
 73
     1
 44
1.0
  0
LINE
  5
43B
330
1F
100
AcDbEntity
  8
F-1
  6
Continuous
 62
     7
370
     9
100
AcDbLine
 10
743.3330144108953
 20
806.666867925112
 30
0.0
 11
743.3330144108953
 21
-863.3332596586422
 31
0.0
  0
MTEXT
  5
43C
330
1F
100
AcDbEntity
  8
0-A
  6
Continuous
 62
     7
370
     9
100
AcDbMText
 10
89.9997731801642
 20
-209.5198520748886
 30
0.0
 40
60.96
 41
320.0
 46
0.0
 71
     7
 72
     1
  1
{\fＭＳ ゴシック|b0|i0|c128|p49;Ｗ型対応}
 73
     1
 44
1.0
  0
MTEXT
  5
43D
330
1F
100
AcDbEntity
  8
0-A
  6
Continuous
 62
     7
370
     9
100
AcDbMText
 10
2428.3331463788
 20
717.4435312584452
 30
0.0
 40
45.71999999999998
 41
360.0
 46
0.0
 71
     7
 72
     1
  1
{\fＭＳ ゴシック|b0|i0|c128|p49;25×25×10.5}
 73
     1
 44
1.0
  0
MTEXT
  5
43E
330
1F
100
AcDbEntity
  8
0-A
  6
Continuous
 62
     7
370
     9
100
AcDbMText
 10
2368.332898938977
 20
-115.8898554115553
 30
0.0
 40
45.71999999999998
 41
480.0
 46
0.0
 71
     7
 72
     1
  1
{\fＭＳ ゴシック|b0|i0|c128|p49;28.5×28.5×10.5}
 73
     1
 44
1.0
  0
ELLIPSE
  5
43F
330
1F
100
AcDbEntity
  8
1-B
  6
Continuous
 62
    92
370
    13
100
AcDbEllipse
 10
1448.33277109507
 20
132.0680824690959
 30
0.0
 11
-15.0
 21
1.836909530733566E-15
 31
0.0
210
0.0
220
0.0
230
1.0
 40
0.5773502691896258
 41
0.7853981633974483
 42
2.356194490192344
  0
LINE
  5
440
330
1F
100
AcDbEntity
  8
1-B
  6
Continuous
 62
    92
370
    13
100
AcDbLine
 10
1437.726169377272
 20
125.9443581121383
 30
0.0
 11
1321.053550481491
 21
193.305326038676
 31
0.0
  0
LINE
  5
441
330
1F
100
AcDbEntity
  8
1-B
  6
Continuous
 62
    92
370
    13
100
AcDbLine
 10
1458.939372812868
 20
125.9443581121383
 30
0.0
 11
1575.61199170865
 21
193.305326038676
 31
0.0
  0
LINE
  5
442
330
1F
100
AcDbEntity
  8
1-B
  6
Continuous
 62
    92
370
    13
100
AcDbLine
 10
1317.518016575559
 20
207.5940162049111
 30
0.0
 11
1321.053550481491
 21
193.305326038676
 31
0.0
  0
LINE
  5
443
330
1F
100
AcDbEntity
  8
1-B
  6
Continuous
 62
    92
370
    13
100
AcDbLine
 10
1579.147525614581
 20
207.5940162049111
 30
0.0
 11
1575.61199170865
 21
193.305326038676
 31
0.0
  0
LINE
  5
444
330
1F
100
AcDbEntity
  8
0-0
  6
JWW_HOJO
 62
     7
370
     9
100
AcDbLine
 10
1448.33277109507
 20
81.33061580920533
 30
0.0
 11
1304.386883814823
 21
164.4378125791946
 31
0.0
  0
LINE
  5
445
330
1F
100
AcDbEntity
  8
0-0
  6
JWW_HOJO
 62
     7
370
     9
100
AcDbLine
 10
1448.33277109507
 20
81.33061580920533
 30
0.0
 11
1612.480858947913
 21
176.101558518007
 31
0.0
  0
LWPOLYLINE
  5
446
330
1F
100
AcDbEntity
  8
0-B
  6
Continuous
 62
     7
370
     9
100
AcDbPolyline
 90
        4
 70
     1
 43
2.0
 10
1733.480858947915
 20
193.305326038676
 42
0.4142135623731
 10
1732.480858947915
 20
194.305326038676
 42
0.4142135623731
 10
1731.480858947915
 20
193.305326038676
 42
0.4142135623731
 10
1732.480858947915
 20
192.305326038676
 42
0.4142135623731
  0
LINE
  5
447
330
1F
100
AcDbEntity
  8
0-B
  6
Continuous
 62
   120
370
     5
100
AcDbLine
 10
1732.480858947915
 20
193.305326038676
 30
0.0
 11
1612.480858947913
 21
193.305326038676
 31
0.0
  0
LINE
  5
448
330
1F
100
AcDbEntity
  8
0-0
  6
JWW_HOJO
 62
     7
370
     9
100
AcDbLine
 10
1448.33277109507
 20
13.58818422428932
 30
0.0
 11
1275.053550481492
 21
113.6309888905075
 31
0.0
  0
LINE
  5
449
330
1F
100
AcDbEntity
  8
0-0
  6
JWW_HOJO
 62
     7
370
     9
100
AcDbLine
 10
1448.33277109507
 20
13.58818422428932
 30
0.0
 11
1645.814192281248
 21
127.6041359060785
 31
0.0
  0
LINE
  5
44A
330
1F
100
AcDbEntity
  8
0-B
  6
Continuous
 62
   120
370
     5
100
AcDbLine
 10
1266.214715716658
 20
118.7340925213051
 30
0.0
 11
1407.636071953969
 21
37.08443442853287
 31
0.0
  0
LWPOLYLINE
  5
44B
330
1F
100
AcDbEntity
  8
0-B
  6
Continuous
 62
     7
370
     9
100
AcDbPolyline
 90
        4
 70
     1
 43
2.0
 10
1267.214715716658
 20
118.7340925213051
 42
0.4142135623731
 10
1266.214715716658
 20
119.7340925213051
 42
0.4142135623731
 10
1265.214715716658
 20
118.7340925213051
 42
0.4142135623731
 10
1266.214715716658
 20
117.7340925213051
 42
0.4142135623731
  0
LWPOLYLINE
  5
44C
330
1F
100
AcDbEntity
  8
0-B
  6
Continuous
 62
     7
370
     9
100
AcDbPolyline
 90
        4
 70
     1
 43
2.0
 10
1408.636071953969
 20
37.08443442853287
 42
0.4142135623731
 10
1407.636071953969
 20
38.08443442853287
 42
0.4142135623731
 10
1406.636071953969
 20
37.08443442853287
 42
0.4142135623731
 10
1407.636071953969
 20
36.08443442853287
 42
0.4142135623731
  0
LINE
  5
44D
330
1F
100
AcDbEntity
  8
0-B
  6
Continuous
 62
   120
370
     5
100
AcDbLine
 10
1266.214715716658
 20
118.7340925213051
 30
0.0
 11
1295.548049049992
 21
169.5409162099924
 31
0.0
  0
LINE
  5
44E
330
1F
100
AcDbEntity
  8
0-B
  6
Continuous
 62
   120
370
     5
100
AcDbLine
 10
1407.636071953969
 20
37.08443442853287
 30
0.0
 11
1436.969405287303
 21
87.89125811721995
 31
0.0
  0
LINE
  5
44F
330
1F
100
AcDbEntity
  8
0-B
  6
Continuous
 62
   120
370
     5
100
AcDbLine
 10
1489.029470236172
 20
37.08443442853287
 30
0.0
 11
1630.45082647348
 21
118.7340925213056
 31
0.0
  0
LWPOLYLINE
  5
450
330
1F
100
AcDbEntity
  8
0-B
  6
Continuous
 62
     7
370
     9
100
AcDbPolyline
 90
        4
 70
     1
 43
2.0
 10
1490.029470236172
 20
37.08443442853287
 42
0.4142135623731
 10
1489.029470236172
 20
38.08443442853287
 42
0.4142135623731
 10
1488.029470236172
 20
37.08443442853287
 42
0.4142135623731
 10
1489.029470236172
 20
36.08443442853287
 42
0.4142135623731
  0
LWPOLYLINE
  5
451
330
1F
100
AcDbEntity
  8
0-B
  6
Continuous
 62
     7
370
     9
100
AcDbPolyline
 90
        4
 70
     1
 43
2.0
 10
1631.45082647348
 20
118.7340925213056
 42
0.4142135623731
 10
1630.45082647348
 20
119.7340925213056
 42
0.4142135623731
 10
1629.45082647348
 20
118.7340925213056
 42
0.4142135623731
 10
1630.45082647348
 20
117.7340925213056
 42
0.4142135623731
  0
LINE
  5
452
330
1F
100
AcDbEntity
  8
0-B
  6
Continuous
 62
   120
370
     5
100
AcDbLine
 10
1489.029470236172
 20
37.08443442853287
 30
0.0
 11
1459.696136902838
 21
87.89125811721995
 31
0.0
  0
LINE
  5
453
330
1F
100
AcDbEntity
  8
0-B
  6
Continuous
 62
   120
370
     5
100
AcDbLine
 10
1630.45082647348
 20
118.7340925213056
 30
0.0
 11
1601.117493140146
 21
169.5409162099927
 31
0.0
  0
MTEXT
  5
454
330
1F
100
AcDbEntity
  8
0-B
  6
Continuous
 62
     7
370
   211
100
AcDbMText
 10
1275.944631721782
 20
25.14748521000765
 30
0.0
 40
45.71999999999925
 41
59.99999999999901
 46
0.0
 71
     7
 72
     1
  1
{\fＭＳ ゴシック|b0|i0|c128|p49;25}
 11
0.8660254037844335
 21
-0.5000000000000089
 31
0.0
 73
     1
 44
1.0
  0
MTEXT
  5
455
330
1F
100
AcDbEntity
  8
0-B
  6
Continuous
 62
     7
370
   211
100
AcDbMText
 10
1568.759386241291
 20
-4.852514789991705
 30
0.0
 40
45.72000000000053
 41
60.0000000000007
 46
0.0
 71
     7
 72
     1
  1
{\fＭＳ ゴシック|b0|i0|c128|p49;25}
 11
0.8660254037844475
 21
0.4999999999999847
 31
0.0
 73
     1
 44
1.0
  0
LINE
  5
456
330
1F
100
AcDbEntity
  8
1-B
  6
Continuous
 62
    92
370
    13
100
AcDbLine
 10
1335.195686105222
 20
465.2879297340622
 30
0.0
 11
1437.726169377272
 21
406.0919276168017
 31
0.0
  0
LINE
  5
457
330
1F
100
AcDbEntity
  8
1-B
  6
Continuous
 62
    92
370
    13
100
AcDbLine
 10
1437.726169377272
 20
406.0919276168017
 30
0.0
 11
1458.939372812868
 21
406.0919276168017
 31
0.0
  0
LINE
  5
458
330
1F
100
AcDbEntity
  8
1-B
  6
Continuous
 62
    92
370
    13
100
AcDbLine
 10
1561.469856084918
 20
465.2879297340625
 30
0.0
 11
1458.939372812868
 21
406.0919276168017
 31
0.0
  0
LINE
  5
459
330
1F
100
AcDbEntity
  8
1-B
  6
Continuous
 62
    92
370
    13
100
AcDbLine
 10
1579.147525614581
 20
471.4116540910201
 30
0.0
 11
1561.469856084918
 21
481.6178613526163
 31
0.0
  0
LINE
  5
45A
330
1F
100
AcDbEntity
  8
1-B
  6
Continuous
 62
    92
370
    13
100
AcDbLine
 10
1335.195686105222
 20
481.617861352616
 30
0.0
 11
1317.518016575559
 21
471.4116540910198
 31
0.0
  0
LINE
  5
45B
330
1F
100
AcDbEntity
  8
1-B
  6
Continuous
 62
    92
370
    13
100
AcDbLine
 10
1561.469856084918
 20
486.5168408381837
 30
0.0
 11
1561.469856084918
 21
465.2879297340625
 31
0.0
  0
LINE
  5
45C
330
1F
100
AcDbEntity
  8
1-B
  6
Continuous
 62
    92
370
    13
100
AcDbLine
 10
1335.195686105222
 20
465.2879297340622
 30
0.0
 11
1335.195686105222
 21
486.5168408381832
 31
0.0
  0
LINE
  5
45D
330
1F
100
AcDbEntity
  8
1-B
  6
Continuous
 62
    92
370
    13
100
AcDbLine
 10
1450.832771095069
 20
505.9231412915671
 30
0.0
 11
1575.61199170865
 21
577.9644579020888
 31
0.0
  0
LINE
  5
45E
330
1F
100
AcDbEntity
  8
1-B
  6
Continuous
 62
    92
370
    13
100
AcDbLine
 10
1575.61199170865
 20
455.4899707629304
 30
0.0
 11
1459.96346689208
 21
388.7202638286997
 31
0.0
  0
LINE
  5
45F
330
1F
100
AcDbEntity
  8
1-B
  6
Continuous
 62
    92
370
    13
100
AcDbLine
 10
1455.83277109507
 20
427.1602345447426
 30
0.0
 11
1579.147525614581
 21
498.3560412616354
 31
0.0
  0
LINE
  5
460
330
1F
100
AcDbEntity
  8
1-B
  6
Continuous
 62
    92
370
    13
100
AcDbLine
 10
1455.832771095068
 20
425.5272413828872
 30
0.0
 11
1578.518986253526
 21
496.360160730479
 31
0.0
  0
LINE
  5
461
330
1F
100
AcDbEntity
  8
1-B
  6
Continuous
 62
    92
370
    13
100
AcDbLine
 10
1579.147525614581
 20
498.3560412616354
 30
0.0
 11
1578.518986253526
 21
496.360160730479
 31
0.0
  0
LINE
  5
462
330
1F
100
AcDbEntity
  8
1-B
  6
Continuous
 62
    92
370
    13
100
AcDbLine
 10
1579.147525614581
 20
576.9438371759294
 30
0.0
 11
1579.147525614581
 21
498.3560412616354
 31
0.0
  0
LINE
  5
463
330
1F
100
AcDbEntity
  8
1-B
  6
Continuous
 62
    92
370
    13
100
AcDbLine
 10
1579.147525614581
 20
576.9438371759294
 30
0.0
 11
1575.61199170865
 21
565.717009188173
 31
0.0
  0
LINE
  5
464
330
1F
100
AcDbEntity
  8
1-B
  6
Continuous
 62
    92
370
    13
100
AcDbLine
 10
1321.053550481491
 20
455.4899707629304
 30
0.0
 11
1436.702075298061
 21
388.7202638286997
 31
0.0
  0
LINE
  5
465
330
1F
100
AcDbEntity
  8
1-B
  6
Continuous
 62
    92
370
    13
100
AcDbLine
 10
1437.726169377272
 20
389.761995998247
 30
0.0
 11
1321.053550481492
 21
457.1229639247838
 31
0.0
  0
LINE
  5
466
330
1F
100
AcDbEntity
  8
1-B
  6
Continuous
 62
    92
370
    13
100
AcDbLine
 10
1440.832771095068
 20
425.5272413828872
 30
0.0
 11
1318.146555936612
 21
496.3601607304796
 31
0.0
  0
LINE
  5
467
330
1F
100
AcDbEntity
  8
1-B
  6
Continuous
 62
    92
370
    13
100
AcDbLine
 10
1440.83277109507
 20
427.1602345447432
 30
0.0
 11
1317.518016575559
 21
498.3560412616354
 31
0.0
  0
LINE
  5
468
330
1F
100
AcDbEntity
  8
1-B
  6
Continuous
 62
    92
370
    13
100
AcDbLine
 10
1317.518016575557
 20
498.3560412616351
 30
0.0
 11
1318.146555936612
 21
496.3601607304796
 31
0.0
  0
LINE
  5
469
330
1F
100
AcDbEntity
  8
1-B
  6
Continuous
 62
    92
370
    13
100
AcDbLine
 10
1321.053550481491
 20
577.9644579020888
 30
0.0
 11
1317.518016575559
 21
576.9438371759296
 31
0.0
  0
LINE
  5
46A
330
1F
100
AcDbEntity
  8
1-B
  6
Continuous
 62
    92
370
    13
100
AcDbLine
 10
1317.518016575559
 20
498.3560412616354
 30
0.0
 11
1317.518016575559
 21
576.9438371759296
 31
0.0
  0
LINE
  5
46B
330
1F
100
AcDbEntity
  8
1-B
  6
Continuous
 62
    92
370
    13
100
AcDbLine
 10
1445.83277109507
 20
505.9231412915674
 30
0.0
 11
1321.053550481491
 21
577.9644579020888
 31
0.0
  0
LINE
  5
46C
330
1F
100
AcDbEntity
  8
1-B
  6
Continuous
 62
    92
370
    13
100
AcDbLine
 10
1317.518016575559
 20
576.9438371759296
 30
0.0
 11
1321.053550481491
 21
565.7170091881728
 31
0.0
  0
ARC
  5
46D
330
1F
100
AcDbEntity
  8
1-B
  6
Continuous
 62
    92
370
    13
100
AcDbCircle
 10
1448.33277109507
 20
510.2532683104895
 30
0.0
 40
5.0
100
AcDbArc
 50
240.0
 51
300.0000000000001
  0
LINE
  5
46E
330
1F
100
AcDbEntity
  8
1-B
  6
Continuous
 62
    92
370
    13
100
AcDbLine
 10
1458.939372812868
 20
428.9538318827784
 30
0.0
 11
1458.939372812868
 21
498.3560412616354
 31
0.0
  0
LINE
  5
46F
330
1F
100
AcDbEntity
  8
1-B
  6
Continuous
 62
    92
370
    13
100
AcDbLine
 10
1437.726169377272
 20
428.9538318827787
 30
0.0
 11
1437.726169377272
 21
498.3560412616348
 31
0.0
  0
ARC
  5
470
330
1F
100
AcDbEntity
  8
1-B
  6
Continuous
 62
    92
370
    13
100
AcDbCircle
 10
1448.332771095068
 20
438.517622439654
 30
0.0
 40
15.0
100
AcDbArc
 50
239.9999999999997
 51
299.9999999999998
  0
ARC
  5
471
330
1F
100
AcDbEntity
  8
1-B
  6
Continuous
 62
    92
370
    13
100
AcDbCircle
 10
1448.33277109507
 20
440.1506156015095
 30
0.0
 40
15.0
100
AcDbArc
 50
240.0
 51
300.0000000000001
  0
ELLIPSE
  5
472
330
1F
100
AcDbEntity
  8
1-B
  6
Continuous
 62
    92
370
    13
100
AcDbEllipse
 10
1448.33277109507
 20
435.0054378803688
 30
0.0
 11
-15.0
 21
1.836909530733566E-15
 31
0.0
210
0.0
220
0.0
230
1.0
 40
0.5773502691896258
 41
2.244724117838078
 42
2.356194490192344
  0
ELLIPSE
  5
473
330
1F
100
AcDbEntity
  8
1-B
  6
Continuous
 62
    92
370
    13
100
AcDbEllipse
 10
1448.33277109507
 20
395.8857203552046
 30
0.0
 11
-16.414213562
 21
2.010095022102264E-15
 31
0.0
210
0.0
220
0.0
230
1.0
 40
0.6137648667595902
 41
0.7853981633974483
 42
2.356194490192345
  0
ELLIPSE
  5
474
330
1F
100
AcDbEntity
  8
1-B
  6
Continuous
 62
    92
370
    13
100
AcDbEllipse
 10
1448.33277109507
 20
395.8857203552046
 30
0.0
 11
-15.0
 21
1.836909530733566E-15
 31
0.0
210
0.0
220
0.0
230
1.0
 40
0.5773502691896258
 41
0.7853981633974483
 42
2.356194490192344
  0
LINE
  5
475
330
1F
100
AcDbEntity
  8
1-B
  6
Continuous
 62
    92
370
    13
100
AcDbLine
 10
1575.61199170865
 20
455.4899707629304
 30
0.0
 11
1579.147525614581
 21
469.7786609270393
 31
0.0
  0
LINE
  5
476
330
1F
100
AcDbEntity
  8
1-B
  6
Continuous
 62
    92
370
    13
100
AcDbLine
 10
1321.053550481491
 20
455.4899707629298
 30
0.0
 11
1317.518016575559
 21
469.778660927037
 31
0.0
  0
ELLIPSE
  5
477
330
1F
100
AcDbEntity
  8
1-B
  6
Continuous
 62
    92
370
    13
100
AcDbEllipse
 10
1448.33277109507
 20
504.4797656185933
 30
0.0
 11
-15.0
 21
1.836909530733566E-15
 31
0.0
210
0.0
220
0.0
230
1.0
 40
0.5773502691896258
 41
0.7853981633974483
 42
2.356194490192344
  0
LINE
  5
478
330
1F
100
AcDbEntity
  8
1-B
  6
Continuous
 62
    92
370
    13
100
AcDbLine
 10
1437.726169377272
 20
498.3560412616354
 30
0.0
 11
1321.053550481491
 21
565.7170091881728
 31
0.0
  0
LINE
  5
479
330
1F
100
AcDbEntity
  8
1-B
  6
Continuous
 62
    92
370
    13
100
AcDbLine
 10
1458.939372812868
 20
498.3560412616354
 30
0.0
 11
1575.61199170865
 21
565.717009188173
 31
0.0
  0
LINE
  5
47A
330
1F
100
AcDbEntity
  8
1-B
  6
Continuous
 62
    92
370
    13
100
AcDbLine
 10
1458.939372812868
 20
389.761995998247
 30
0.0
 11
1575.61199170865
 21
457.122963924785
 31
0.0
  0
LINE
  5
47B
330
1F
100
AcDbEntity
  8
1-B
  6
Continuous
 62
    92
370
    13
100
AcDbLine
 10
1317.518016575559
 20
471.4116540910198
 30
0.0
 11
1321.053550481491
 21
457.1229639247847
 31
0.0
  0
LINE
  5
47C
330
1F
100
AcDbEntity
  8
1-B
  6
Continuous
 62
    92
370
    13
100
AcDbLine
 10
1579.147525614581
 20
471.4116540910201
 30
0.0
 11
1575.61199170865
 21
457.122963924785
 31
0.0
  0
LINE
  5
47D
330
1F
100
AcDbEntity
  8
1-B
  6
Continuous
 62
    92
370
    13
100
AcDbLine
 10
1321.053550481491
 20
496.3147998093161
 30
0.0
 11
1321.053550481491
 21
577.9644579020888
 31
0.0
  0
LINE
  5
47E
330
1F
100
AcDbEntity
  8
1-B
  6
Continuous
 62
    92
370
    13
100
AcDbLine
 10
1575.61199170865
 20
496.3147998093161
 30
0.0
 11
1575.61199170865
 21
577.9644579020888
 31
0.0
  0
LINE
  5
47F
330
1F
100
AcDbEntity
  8
0-0
  6
JWW_HOJO
 62
     7
370
     9
100
AcDbLine
 10
1612.480858947913
 20
596.1888461489168
 30
0.0
 11
1448.332771095068
 21
690.9597888577193
 31
0.0
  0
LINE
  5
480
330
1F
100
AcDbEntity
  8
0-0
  6
JWW_HOJO
 62
     7
370
     9
100
AcDbLine
 10
1448.332771095068
 20
690.9597888577193
 30
0.0
 11
1300.851349908892
 21
605.8113506354102
 31
0.0
  0
LWPOLYLINE
  5
481
330
1F
100
AcDbEntity
  8
0-B
  6
Continuous
 62
     7
370
     9
100
AcDbPolyline
 90
        4
 70
     1
 43
2.0
 10
1282.974974551016
 20
633.4030881871914
 42
0.4142135623731
 10
1281.974974551017
 20
634.4030881871914
 42
0.4142135623731
 10
1280.974974551017
 20
633.4030881871914
 42
0.4142135623731
 10
1281.974974551017
 20
632.4030881871914
 42
0.4142135623731
  0
LINE
  5
482
330
1F
100
AcDbEntity
  8
0-B
  6
Continuous
 62
   120
370
     5
100
AcDbLine
 10
1281.974974551017
 20
633.4030881871914
 30
0.0
 11
1298.641641217683
 21
604.53557472771
 31
0.0
  0
LWPOLYLINE
  5
483
330
1F
100
AcDbEntity
  8
0-B
  6
Continuous
 62
     7
370
     9
100
AcDbPolyline
 90
        4
 70
     1
 43
2.0
 10
1615.690567639123
 20
633.403088187192
 42
0.4142135623731
 10
1614.690567639123
 20
634.403088187192
 42
0.4142135623731
 10
1613.690567639123
 20
633.403088187192
 42
0.4142135623731
 10
1614.690567639123
 20
632.403088187192
 42
0.4142135623731
  0
LINE
  5
484
330
1F
100
AcDbEntity
  8
0-B
  6
Continuous
 62
   120
370
     5
100
AcDbLine
 10
1614.690567639123
 20
633.403088187192
 30
0.0
 11
1598.023900972456
 21
604.5355747277106
 31
0.0
  0
LWPOLYLINE
  5
485
330
1F
100
AcDbEntity
  8
0-B
  6
Continuous
 62
     7
370
     9
100
AcDbPolyline
 90
        4
 70
     1
 43
2.0
 10
1733.480858947915
 20
577.9644579020888
 42
0.4142135623731
 10
1732.480858947915
 20
578.9644579020888
 42
0.4142135623731
 10
1731.480858947915
 20
577.9644579020888
 42
0.4142135623731
 10
1732.480858947915
 20
576.9644579020888
 42
0.4142135623731
  0
LINE
  5
486
330
1F
100
AcDbEntity
  8
0-B
  6
Continuous
 62
   120
370
     5
100
AcDbLine
 10
1732.480858947915
 20
577.9644579020888
 30
0.0
 11
1612.480858947913
 21
577.9644579020888
 31
0.0
  0
LINE
  5
487
330
1F
100
AcDbEntity
  8
0-B
  6
Continuous
 62
   120
370
     5
100
AcDbLine
 10
1355.510471731035
 20
675.8588272790685
 30
0.0
 11
1372.177138397702
 21
646.9913138195874
 31
0.0
  0
LINE
  5
488
330
1F
100
AcDbEntity
  8
1-B
  6
Continuous
 62
    92
370
    13
100
AcDbLine
 10
1391.965238726922
 20
618.9053401992796
 30
0.0
 11
1321.053550481491
 21
577.9644579020888
 31
0.0
  0
LINE
  5
489
330
1F
100
AcDbEntity
  8
1-B
  6
Continuous
 62
    92
370
    13
100
AcDbLine
 10
1388.429704820987
 20
617.8847194731192
 30
0.0
 11
1317.518016575559
 21
576.943837175929
 31
0.0
  0
LINE
  5
48A
330
1F
100
AcDbEntity
  8
1-B
  6
Continuous
 62
    92
370
    13
100
AcDbLine
 10
1388.429704820987
 20
617.8847194731192
 30
0.0
 11
1391.965238726922
 21
618.9053401992796
 31
0.0
  0
LINE
  5
48B
330
1F
100
AcDbEntity
  8
1-B
  6
Continuous
 62
    92
370
    13
100
AcDbLine
 10
1391.965238726922
 20
618.9053401992796
 30
0.0
 11
1448.33277109507
 21
586.3615302129748
 31
0.0
  0
LINE
  5
48C
330
1F
100
AcDbEntity
  8
1-B
  6
Continuous
 62
    92
370
    13
100
AcDbLine
 10
1575.61199170865
 20
577.9644579020888
 30
0.0
 11
1504.700303463216
 21
618.9053401992795
 31
0.0
  0
LINE
  5
48D
330
1F
100
AcDbEntity
  8
1-B
  6
Continuous
 62
    92
370
    13
100
AcDbLine
 10
1504.700303463215
 20
618.905340199279
 30
0.0
 11
1448.33277109507
 21
586.3615302129747
 31
0.0
  0
LINE
  5
48E
330
1F
100
AcDbEntity
  8
1-B
  6
Continuous
 62
    92
370
    13
100
AcDbLine
 10
1508.23583736915
 20
617.8847194731184
 30
0.0
 11
1504.700303463215
 21
618.905340199279
 31
0.0
  0
LINE
  5
48F
330
1F
100
AcDbEntity
  8
1-B
  6
Continuous
 62
    92
370
    13
100
AcDbLine
 10
1579.147525614581
 20
576.9438371759294
 30
0.0
 11
1508.23583736915
 21
617.8847194731184
 31
0.0
  0
LWPOLYLINE
  5
490
330
1F
100
AcDbEntity
  8
0-B
  6
Continuous
 62
     7
370
     9
100
AcDbPolyline
 90
        4
 70
     1
 43
2.0
 10
1356.510471731035
 20
675.8588272790685
 42
0.4142135623731
 10
1355.510471731035
 20
676.8588272790685
 42
0.4142135623731
 10
1354.510471731035
 20
675.8588272790685
 42
0.4142135623731
 10
1355.510471731035
 20
674.8588272790686
 42
0.4142135623731
  0
LINE
  5
491
330
1F
100
AcDbEntity
  8
0-0
  6
JWW_HOJO
 62
     7
370
     9
100
AcDbLine
 10
1355.510471731034
 20
675.8588272790689
 30
0.0
 11
1284.184683242225
 21
634.6788640948913
 31
0.0
  0
LINE
  5
492
330
1F
100
AcDbEntity
  8
0-B
  6
Continuous
 62
   120
370
     5
100
AcDbLine
 10
1281.974974551017
 20
633.4030881871914
 30
0.0
 11
1355.510471731035
 21
675.8588272790684
 31
0.0
  0
MTEXT
  5
493
330
1F
100
AcDbEntity
  8
0-B
  6
Continuous
 62
     7
370
   211
100
AcDbMText
 10
1266.111325932882
 20
628.6512117709751
 30
0.0
 40
45.71999999999998
 41
120.0
 46
0.0
 71
     7
 72
     1
  1
{\fＭＳ ゴシック|b0|i0|c128|p49;10.5}
 11
0.8660254037844387
 21
0.4999999999999999
 31
0.0
 73
     1
 44
1.0
  0
LWPOLYLINE
  5
494
330
1F
100
AcDbEntity
  8
0-B
  6
Continuous
 62
     7
370
     9
100
AcDbPolyline
 90
        4
 70
     1
 43
2.0
 10
1542.155070459103
 20
675.8588272790685
 42
0.4142135623731
 10
1541.155070459103
 20
676.8588272790685
 42
0.4142135623731
 10
1540.155070459103
 20
675.8588272790685
 42
0.4142135623731
 10
1541.155070459103
 20
674.8588272790686
 42
0.4142135623731
  0
LINE
  5
495
330
1F
100
AcDbEntity
  8
0-B
  6
Continuous
 62
   120
370
     5
100
AcDbLine
 10
1541.155070459104
 20
675.8588272790698
 30
0.0
 11
1524.488403792436
 21
646.9913138195884
 31
0.0
  0
LINE
  5
496
330
1F
100
AcDbEntity
  8
0-0
  6
JWW_HOJO
 62
     7
370
     9
100
AcDbLine
 10
1645.814192281248
 20
615.4338551219048
 30
0.0
 11
1541.155070459103
 21
675.8588272790685
 31
0.0
  0
LINE
  5
497
330
1F
100
AcDbEntity
  8
0-B
  6
Continuous
 62
   120
370
     5
100
AcDbLine
 10
1614.690567639123
 20
633.403088187192
 30
0.0
 11
1541.155070459104
 21
675.8588272790698
 31
0.0
  0
MTEXT
  5
498
330
1F
100
AcDbEntity
  8
0-B
  6
Continuous
 62
     7
370
   211
100
AcDbMText
 10
1526.631167803125
 20
688.6512117709755
 30
0.0
 40
45.72
 41
120.0
 46
0.0
 71
     7
 72
     1
  1
{\fＭＳ ゴシック|b0|i0|c128|p49;10.5}
 11
0.8660254037844384
 21
-0.5000000000000004
 31
0.0
 73
     1
 44
1.0
  0
LINE
  5
499
330
1F
100
AcDbEntity
  8
1-B
  6
Continuous
 62
    92
370
    13
100
AcDbLine
 10
1575.61199170865
 20
577.9644579020888
 30
0.0
 11
1579.147525614581
 21
576.9438371759294
 31
0.0
  0
LINE
  5
49A
330
1F
100
AcDbEntity
  8
0-0
  6
JWW_HOJO
 62
     7
370
     9
100
AcDbLine
 10
1612.480858947913
 20
596.1888461489168
 30
0.0
 11
1612.480858947913
 21
176.101558518007
 31
0.0
  0
LINE
  5
49B
330
1F
100
AcDbEntity
  8
0-B
  6
Continuous
 62
   120
370
     5
100
AcDbLine
 10
1732.480858947915
 20
193.305326038676
 30
0.0
 11
1732.480858947915
 21
577.9644579020888
 31
0.0
  0
LINE
  5
49C
330
1F
100
AcDbEntity
  8
1-B
  6
Continuous
 62
    92
370
    13
100
AcDbLine
 10
1335.195686105222
 20
241.2559543830248
 30
0.0
 11
1437.726169377272
 21
182.0599522657643
 31
0.0
  0
LINE
  5
49D
330
1F
100
AcDbEntity
  8
1-B
  6
Continuous
 62
    92
370
    13
100
AcDbLine
 10
1437.726169377272
 20
182.0599522657643
 30
0.0
 11
1458.939372812868
 21
182.0599522657643
 31
0.0
  0
LINE
  5
49E
330
1F
100
AcDbEntity
  8
1-B
  6
Continuous
 62
    92
370
    13
100
AcDbLine
 10
1561.469856084918
 20
241.2559543830251
 30
0.0
 11
1458.939372812868
 21
182.0599522657643
 31
0.0
  0
LINE
  5
49F
330
1F
100
AcDbEntity
  8
1-B
  6
Continuous
 62
    92
370
    13
100
AcDbLine
 10
1575.61199170865
 20
231.457995411893
 30
0.0
 11
1459.96346689208
 21
164.6882884776623
 31
0.0
  0
LINE
  5
4A0
330
1F
100
AcDbEntity
  8
1-B
  6
Continuous
 62
    92
370
    13
100
AcDbLine
 10
1321.053550481491
 20
231.457995411893
 30
0.0
 11
1436.702075298061
 21
164.6882884776623
 31
0.0
  0
LINE
  5
4A1
330
1F
100
AcDbEntity
  8
1-B
  6
Continuous
 62
    92
370
    13
100
AcDbLine
 10
1437.726169377272
 20
165.7300206472096
 30
0.0
 11
1321.053550481492
 21
233.0909885737465
 31
0.0
  0
ELLIPSE
  5
4A2
330
1F
100
AcDbEntity
  8
1-B
  6
Continuous
 62
    92
370
    13
100
AcDbEllipse
 10
1448.33277109507
 20
171.8537450041673
 30
0.0
 11
-16.414213562
 21
2.010095022102264E-15
 31
0.0
210
0.0
220
0.0
230
1.0
 40
0.6137648667595902
 41
0.7853981633974483
 42
2.356194490192345
  0
ELLIPSE
  5
4A3
330
1F
100
AcDbEntity
  8
1-B
  6
Continuous
 62
    92
370
    13
100
AcDbEllipse
 10
1448.33277109507
 20
171.8537450041673
 30
0.0
 11
-15.0
 21
1.836909530733566E-15
 31
0.0
210
0.0
220
0.0
230
1.0
 40
0.5773502691896258
 41
0.7853981633974483
 42
2.356194490192344
  0
LINE
  5
4A4
330
1F
100
AcDbEntity
  8
1-B
  6
Continuous
 62
    92
370
    13
100
AcDbLine
 10
1575.61199170865
 20
231.457995411893
 30
0.0
 11
1579.147525614581
 21
245.7466855760019
 31
0.0
  0
LINE
  5
4A5
330
1F
100
AcDbEntity
  8
1-B
  6
Continuous
 62
    92
370
    13
100
AcDbLine
 10
1321.053550481491
 20
231.4579954118925
 30
0.0
 11
1317.518016575559
 21
245.7466855759996
 31
0.0
  0
LINE
  5
4A6
330
1F
100
AcDbEntity
  8
1-B
  6
Continuous
 62
    92
370
    13
100
AcDbLine
 10
1458.939372812868
 20
165.7300206472096
 30
0.0
 11
1575.61199170865
 21
233.0909885737476
 31
0.0
  0
LINE
  5
4A7
330
1F
100
AcDbEntity
  8
1-B
  6
Continuous
 62
    92
370
    13
100
AcDbLine
 10
1317.518016575559
 20
247.3796787399824
 30
0.0
 11
1321.053550481491
 21
233.0909885737473
 31
0.0
  0
LINE
  5
4A8
330
1F
100
AcDbEntity
  8
1-B
  6
Continuous
 62
    92
370
    13
100
AcDbLine
 10
1579.147525614581
 20
247.3796787399827
 30
0.0
 11
1575.61199170865
 21
233.0909885737476
 31
0.0
  0
LINE
  5
4A9
330
1F
100
AcDbEntity
  8
0-B
  6
Continuous
 62
   120
370
     5
100
AcDbLine
 10
1353.426640488478
 20
369.5638356326156
 30
0.0
 11
1222.316080170933
 21
369.5638356326156
 31
0.0
  0
MTEXT
  5
4AA
330
1F
100
AcDbEntity
  8
0-B
  6
Continuous
 62
     7
370
     9
100
AcDbMText
 10
1223.605494932338
 20
363.6511484072422
 30
0.0
 40
45.72
 41
60.0
 46
0.0
 71
     7
 72
     1
  1
{\fＭＳ ゴシック|b0|i0|c128|p49;3R}
 73
     1
 44
1.0
  0
LINE
  5
4AB
330
1F
100
AcDbEntity
  8
0-B
  6
Continuous
 62
   120
370
     5
100
AcDbLine
 10
1445.023091119762
 20
461.1602862639011
 30
0.0
 11
1353.426640488478
 21
369.5638356326156
 31
0.0
  0
LINE
  5
4AC
330
1F
100
AcDbEntity
  8
1-B
  6
Continuous
 62
    92
370
    13
100
AcDbLine
 10
1321.053550481491
 20
193.305326038676
 30
0.0
 11
1321.053550481491
 21
231.4579954118925
 31
0.0
  0
LINE
  5
4AD
330
1F
100
AcDbEntity
  8
1-B
  6
Continuous
 62
    92
370
    13
100
AcDbLine
 10
1317.518016575559
 20
245.7466855759996
 30
0.0
 11
1317.518016575559
 21
207.5940162049111
 31
0.0
  0
LINE
  5
4AE
330
1F
100
AcDbEntity
  8
1-B
  6
Continuous
 62
    92
370
    13
100
AcDbLine
 10
1458.939372812868
 20
125.9443581121383
 30
0.0
 11
1458.939372812868
 21
164.0970274853538
 31
0.0
  0
LINE
  5
4AF
330
1F
100
AcDbEntity
  8
1-B
  6
Continuous
 62
    92
370
    13
100
AcDbLine
 10
1458.939372812868
 20
203.2888633698866
 30
0.0
 11
1458.939372812868
 21
388.1970712633541
 31
0.0
  0
LINE
  5
4B0
330
1F
100
AcDbEntity
  8
1-B
  6
Continuous
 62
    92
370
    13
100
AcDbLine
 10
1437.726169377272
 20
203.2888633698846
 30
0.0
 11
1437.726169377272
 21
388.1970712633541
 31
0.0
  0
LINE
  5
4B1
330
1F
100
AcDbEntity
  8
1-B
  6
Continuous
 62
    92
370
    13
100
AcDbLine
 10
1575.61199170865
 20
193.305326038676
 30
0.0
 11
1575.61199170865
 21
233.0909885737476
 31
0.0
  0
LINE
  5
4B2
330
1F
100
AcDbEntity
  8
1-B
  6
Continuous
 62
    92
370
    13
100
AcDbLine
 10
1579.147525614581
 20
247.3796787399827
 30
0.0
 11
1579.147525614581
 21
207.5940162049111
 31
0.0
  0
LINE
  5
4B3
330
1F
100
AcDbEntity
  8
1-B
  6
Continuous
 62
    92
370
    13
100
AcDbLine
 10
1437.726169377272
 20
125.9443581121383
 30
0.0
 11
1437.726169377272
 21
164.1650959123168
 31
0.0
  0
LINE
  5
4B4
330
1F
100
AcDbEntity
  8
0-B
  6
Continuous
 62
   120
370
     5
100
AcDbLine
 10
1645.814192281248
 20
577.9644579020888
 30
0.0
 11
1612.480858947913
 21
577.9644579020888
 31
0.0
  0
LINE
  5
4B5
330
1F
100
AcDbEntity
  8
1-B
  6
Continuous
 62
    92
370
    13
100
AcDbLine
 10
1455.83277109507
 20
191.6186499727343
 30
0.0
 11
1579.147525614581
 21
262.8144566896271
 31
0.0
  0
LINE
  5
4B6
330
1F
100
AcDbEntity
  8
1-B
  6
Continuous
 62
    92
370
    13
100
AcDbLine
 10
1455.832771095068
 20
189.9856568108789
 30
0.0
 11
1578.518986253526
 21
260.8185761584708
 31
0.0
  0
LINE
  5
4B7
330
1F
100
AcDbEntity
  8
1-B
  6
Continuous
 62
    92
370
    13
100
AcDbLine
 10
1579.147525614581
 20
262.8144566896271
 30
0.0
 11
1578.518986253526
 21
260.8185761584708
 31
0.0
  0
LINE
  5
4B8
330
1F
100
AcDbEntity
  8
1-B
  6
Continuous
 62
    92
370
    13
100
AcDbLine
 10
1440.832771095068
 20
189.9856568108789
 30
0.0
 11
1318.146555936612
 21
260.8185761584713
 31
0.0
  0
LINE
  5
4B9
330
1F
100
AcDbEntity
  8
1-B
  6
Continuous
 62
    92
370
    13
100
AcDbLine
 10
1440.83277109507
 20
191.6186499727349
 30
0.0
 11
1317.518016575559
 21
262.8144566896271
 31
0.0
  0
LINE
  5
4BA
330
1F
100
AcDbEntity
  8
1-B
  6
Continuous
 62
    92
370
    13
100
AcDbLine
 10
1317.518016575557
 20
262.8144566896268
 30
0.0
 11
1318.146555936612
 21
260.8185761584713
 31
0.0
  0
ARC
  5
4BB
330
1F
100
AcDbEntity
  8
1-B
  6
Continuous
 62
    92
370
    13
100
AcDbCircle
 10
1448.332771095068
 20
202.9760378676457
 30
0.0
 40
15.0
100
AcDbArc
 50
239.9999999999997
 51
299.9999999999998
  0
ARC
  5
4BC
330
1F
100
AcDbEntity
  8
1-B
  6
Continuous
 62
    92
370
    13
100
AcDbCircle
 10
1448.33277109507
 20
204.6090310295012
 30
0.0
 40
15.0
100
AcDbArc
 50
240.0
 51
300.0000000000001
  0
ELLIPSE
  5
4BD
330
1F
100
AcDbEntity
  8
1-B
  6
Continuous
 62
    92
370
    13
100
AcDbEllipse
 10
1448.33277109507
 20
199.4638533083606
 30
0.0
 11
-15.0
 21
1.836909530733566E-15
 31
0.0
210
0.0
220
0.0
230
1.0
 40
0.5773502691896258
 41
2.244724117838078
 42
2.356194490192344
  0
LINE
  5
4BE
330
1F
100
AcDbEntity
  8
1-B
  6
Continuous
 62
    92
370
    13
100
AcDbLine
 10
1458.939372812868
 20
191.7792541489157
 30
0.0
 11
1458.939372812868
 21
262.8144566896271
 31
0.0
  0
LINE
  5
4BF
330
1F
100
AcDbEntity
  8
1-B
  6
Continuous
 62
    92
370
    13
100
AcDbLine
 10
1437.726169377272
 20
191.7792541489137
 30
0.0
 11
1437.726169377272
 21
262.8144566896265
 31
0.0
  0
LINE
  5
4C0
330
1F
100
AcDbEntity
  8
1-B
  6
Continuous
 62
    92
370
    13
100
AcDbLine
 10
1321.053550481491
 20
260.7732152373081
 30
0.0
 11
1321.053550481491
 21
457.1229639247841
 31
0.0
  0
LINE
  5
4C1
330
1F
100
AcDbEntity
  8
1-B
  6
Continuous
 62
    92
370
    13
100
AcDbLine
 10
1317.518016575559
 20
471.4116540910198
 30
0.0
 11
1317.518016575559
 21
262.8144566896271
 31
0.0
  0
LINE
  5
4C2
330
1F
100
AcDbEntity
  8
1-B
  6
Continuous
 62
    92
370
    13
100
AcDbLine
 10
1329.47071281935
 20
254.2805711338768
 30
0.0
 11
1317.518016575559
 21
247.3796787399824
 31
0.0
  0
LINE
  5
4C3
330
1F
100
AcDbEntity
  8
1-B
  6
Continuous
 62
    92
370
    13
100
AcDbLine
 10
1335.195686105222
 20
241.2559543830248
 30
0.0
 11
1335.195686105222
 21
250.9752562661749
 31
0.0
  0
LINE
  5
4C4
330
1F
100
AcDbEntity
  8
1-B
  6
Continuous
 62
    92
370
    13
100
AcDbLine
 10
1575.61199170865
 20
260.7732152373087
 30
0.0
 11
1575.61199170865
 21
457.1229639247847
 31
0.0
  0
LINE
  5
4C5
330
1F
100
AcDbEntity
  8
1-B
  6
Continuous
 62
    92
370
    13
100
AcDbLine
 10
1579.147525614581
 20
471.4116540910201
 30
0.0
 11
1579.147525614581
 21
262.8144566896271
 31
0.0
  0
LINE
  5
4C6
330
1F
100
AcDbEntity
  8
1-B
  6
Continuous
 62
    92
370
    13
100
AcDbLine
 10
1579.147525614581
 20
247.3796787399827
 30
0.0
 11
1567.19482937079
 21
254.2805711338774
 31
0.0
  0
LINE
  5
4C7
330
1F
100
AcDbEntity
  8
1-B
  6
Continuous
 62
    92
370
    13
100
AcDbLine
 10
1561.469856084918
 20
250.9752562661754
 30
0.0
 11
1561.469856084918
 21
241.2559543830251
 31
0.0
  0
LINE
  5
4C8
330
1F
100
AcDbEntity
  8
0-0
  6
JWW_HOJO
 62
     7
370
     9
100
AcDbLine
 10
1645.814192281248
 20
615.4338551219048
 30
0.0
 11
1645.814192281248
 21
193.305326038676
 31
0.0
  0
MTEXT
  5
4C9
330
1F
100
AcDbEntity
  8
0-B
  6
Continuous
 62
     7
370
   211
100
AcDbMText
 10
1766.942799239685
 20
-550.8895746056743
 30
0.0
 40
45.72
 41
120.0
 46
0.0
 71
     7
 72
     1
  1
{\fＭＳ ゴシック|b0|i0|c128|p49;61.5}
 73
     1
 44
1.0
  0
ARC
  5
4CA
330
1F
100
AcDbEntity
  8
1-B
  6
Continuous
 62
    92
370
    13
100
AcDbCircle
 10
1448.332771095072
 20
-686.0908354520598
 30
0.0
 40
25.0
100
AcDbArc
 50
61.28860348437212
 51
118.7113965156265
  0
LINE
  5
4CB
330
1F
100
AcDbEntity
  8
1-B
  6
Continuous
 62
    92
370
    13
100
AcDbLine
 10
1460.342720050309
 20
-664.164569785226
 30
0.0
 11
1531.771371275084
 21
-703.2890822848003
 31
0.0
  0
LINE
  5
4CC
330
1F
100
AcDbEntity
  8
1-B
  6
Continuous
 62
    92
370
    13
100
AcDbLine
 10
1436.322822139834
 20
-664.1645697852257
 30
0.0
 11
1364.894170915056
 21
-703.2890822847992
 31
0.0
  0
ARC
  5
4CD
330
1F
100
AcDbEntity
  8
1-B
  6
Continuous
 62
    92
370
    13
100
AcDbCircle
 10
1448.33277109507
 20
-673.3688419170534
 30
0.0
 40
25.0
100
AcDbArc
 50
60.00000000000023
 51
120.0000000000004
  0
LINE
  5
4CE
330
1F
100
AcDbEntity
  8
1-B
  6
Continuous
 62
    92
370
    13
100
AcDbLine
 10
1435.832771095069
 20
-651.7182068224423
 30
0.0
 11
1379.036306538783
 21
-684.5096609230334
 31
0.0
  0
LINE
  5
4CF
330
1F
100
AcDbEntity
  8
1-B
  6
Continuous
 62
    92
370
    13
100
AcDbLine
 10
1460.83277109507
 20
-651.7182068224429
 30
0.0
 11
1517.629235651355
 21
-684.509660923033
 31
0.0
  0
LINE
  5
4D0
330
1F
100
AcDbEntity
  8
1-B
  6
Continuous
 62
    92
370
    13
100
AcDbLine
 10
1531.771371275084
 20
-703.2890822848003
 30
0.0
 11
1593.289661238314
 21
-667.7714810144442
 31
0.0
  0
LINE
  5
4D1
330
1F
100
AcDbEntity
  8
1-B
  6
Continuous
 62
    92
370
    13
100
AcDbLine
 10
1517.629235651355
 20
-684.5096609230334
 30
0.0
 11
1531.771371275084
 21
-703.2890822848001
 31
0.0
  0
LINE
  5
4D2
330
1F
100
AcDbEntity
  8
1-B
  6
Continuous
 62
    92
370
    13
100
AcDbLine
 10
1379.036306538783
 20
-684.5096609230334
 30
0.0
 11
1364.894170915056
 21
-703.2890822847997
 31
0.0
  0
LINE
  5
4D3
330
1F
100
AcDbEntity
  8
1-B
  6
Continuous
 62
    92
370
    13
100
AcDbLine
 10
1364.894170915056
 20
-703.2890822847997
 30
0.0
 11
1303.375880951826
 21
-667.7714810144442
 31
0.0
  0
LINE
  5
4D4
330
1F
100
AcDbEntity
  8
1-B
  6
Continuous
 62
    92
370
    13
100
AcDbLine
 10
1507.022633933554
 20
-690.6333852799889
 30
0.0
 11
1517.629235651355
 21
-684.509660923033
 31
0.0
  0
LINE
  5
4D5
330
1F
100
AcDbEntity
  8
1-B
  6
Continuous
 62
    92
370
    13
100
AcDbLine
 10
1379.036306538783
 20
-684.5096609230334
 30
0.0
 11
1389.642908256586
 21
-690.6333852799889
 31
0.0
  0
LINE
  5
4D6
330
1F
100
AcDbEntity
  8
1-B
  6
Continuous
 62
    92
370
    13
100
AcDbLine
 10
1303.375880951826
 20
-667.7714810144442
 30
0.0
 11
1303.375880951826
 21
-669.4044741758688
 31
0.0
  0
LINE
  5
4D7
330
1F
100
AcDbEntity
  8
1-B
  6
Continuous
 62
    92
370
    13
100
AcDbLine
 10
1379.036306538783
 20
-684.5096609230334
 30
0.0
 11
1317.518016575555
 21
-648.9920596526781
 31
0.0
  0
LINE
  5
4D8
330
1F
100
AcDbEntity
  8
1-B
  6
Continuous
 62
    92
370
    13
100
AcDbLine
 10
1517.629235651355
 20
-684.5096609230334
 30
0.0
 11
1579.147525614585
 21
-648.992059652677
 31
0.0
  0
LINE
  5
4D9
330
1F
100
AcDbEntity
  8
1-B
  6
Continuous
 62
    92
370
    13
100
AcDbLine
 10
1593.289661238314
 20
-667.7714810144442
 30
0.0
 11
1593.289661238314
 21
-669.4044741758685
 31
0.0
  0
LINE
  5
4DA
330
1F
100
AcDbEntity
  8
1-B
  6
Continuous
 62
    92
370
    13
100
AcDbLine
 10
1579.147525614585
 20
-648.992059652677
 30
0.0
 11
1593.289661238314
 21
-667.7714810144442
 31
0.0
  0
LINE
  5
4DB
330
1F
100
AcDbEntity
  8
1-B
  6
Continuous
 62
    92
370
    13
100
AcDbLine
 10
1317.518016575555
 20
-648.9920596526775
 30
0.0
 11
1303.375880951826
 21
-667.7714810144442
 31
0.0
  0
ELLIPSE
  5
4DC
330
1F
100
AcDbEntity
  8
1-B
  6
Continuous
 62
    92
370
    13
100
AcDbEllipse
 10
1352.166248853696
 20
-700.0230959606574
 30
0.0
 11
1.500000000000373
 21
-2.598076211353897
 31
0.0
210
0.0
220
0.0
230
1.0
 40
0.5773502691897369
 41
0.7853981633974818
 42
2.356194490192378
  0
LINE
  5
4DD
330
1F
100
AcDbEntity
  8
1-B
  6
Continuous
 62
    92
370
    13
100
AcDbLine
 10
1544.499293336443
 20
-697.5736062178743
 30
0.0
 11
1593.289661238314
 21
-669.4044741758685
 31
0.0
  0
ELLIPSE
  5
4DE
330
1F
100
AcDbEntity
  8
1-B
  6
Continuous
 62
    92
370
    13
100
AcDbEllipse
 10
1544.499293336443
 20
-700.0230959606574
 30
0.0
 11
-1.500000000000373
 21
-2.598076211353897
 31
0.0
210
0.0
220
0.0
230
1.0
 40
0.5773502691897369
 41
3.926990816987208
 42
5.497787143782104
  0
LINE
  5
4DF
330
1F
100
AcDbEntity
  8
1-B
  6
Continuous
 62
    92
370
    13
100
AcDbLine
 10
1352.166248853699
 20
-697.5736062178743
 30
0.0
 11
1303.375880951826
 21
-669.4044741758688
 31
0.0
  0
LINE
  5
4E0
330
1F
100
AcDbEntity
  8
1-B
  6
Continuous
 62
    92
370
    13
100
AcDbLine
 10
1354.287569197256
 20
-522.4044383635066
 30
0.0
 11
1354.287569197256
 21
-639.1522629553809
 31
0.0
  0
LINE
  5
4E1
330
1F
100
AcDbEntity
  8
1-B
  6
Continuous
 62
    92
370
    13
100
AcDbLine
 10
1354.287569197256
 20
-639.1522629553809
 30
0.0
 11
1354.287569197256
 21
-658.7593673784369
 31
0.0
  0
LINE
  5
4E2
330
1F
100
AcDbEntity
  8
1-B
  6
Continuous
 62
    92
370
    13
100
AcDbLine
 10
1317.518016575555
 20
-648.992059652677
 30
0.0
 11
1354.287569197256
 21
-627.763148548556
 31
0.0
  0
LINE
  5
4E3
330
1F
100
AcDbEntity
  8
1-B
  6
Continuous
 62
    92
370
    13
100
AcDbLine
 10
1579.147525614585
 20
-648.992059652677
 30
0.0
 11
1542.377972992884
 21
-627.7631485485554
 31
0.0
  0
LINE
  5
4E4
330
1F
100
AcDbEntity
  8
1-B
  6
Continuous
 62
    92
370
    13
100
AcDbLine
 10
1542.377972992884
 20
-701.2478408320496
 30
0.0
 11
1542.377972992884
 21
-735.7375897627996
 31
0.0
  0
LINE
  5
4E5
330
1F
100
AcDbEntity
  8
1-B
  6
Continuous
 62
    92
370
    13
100
AcDbLine
 10
1531.771371275084
 20
-744.5670721349585
 30
0.0
 11
1531.771371275084
 21
-707.3715651890075
 31
0.0
  0
LINE
  5
4E6
330
1F
100
AcDbEntity
  8
1-B
  6
Continuous
 62
    92
370
    13
100
AcDbLine
 10
1507.022633933554
 20
-730.2783819687248
 30
0.0
 11
1507.022633933554
 21
-690.6333852799889
 31
0.0
  0
LINE
  5
4E7
330
1F
100
AcDbEntity
  8
1-B
  6
Continuous
 62
    92
370
    13
100
AcDbLine
 10
1389.642908256586
 20
-730.2783819687248
 30
0.0
 11
1389.642908256586
 21
-690.6333852799889
 31
0.0
  0
LINE
  5
4E8
330
1F
100
AcDbEntity
  8
1-B
  6
Continuous
 62
    92
370
    13
100
AcDbLine
 10
1364.894170915056
 20
-744.5670721349608
 30
0.0
 11
1364.894170915056
 21
-703.2890822847997
 31
0.0
  0
LINE
  5
4E9
330
1F
100
AcDbEntity
  8
1-B
  6
Continuous
 62
    92
370
    13
100
AcDbLine
 10
1354.287569197256
 20
-701.2478408320496
 30
0.0
 11
1354.287569197256
 21
-735.7375897627996
 31
0.0
  0
LINE
  5
4EA
330
1F
100
AcDbEntity
  8
1-B
  6
Continuous
 62
    92
370
    13
100
AcDbLine
 10
1428.332771095069
 20
-707.9407792440167
 30
0.0
 11
1364.894170915056
 21
-744.5670721349608
 31
0.0
  0
LINE
  5
4EB
330
1F
100
AcDbEntity
  8
1-B
  6
Continuous
 62
    92
370
    13
100
AcDbLine
 10
1468.33277109507
 20
-707.9407792440167
 30
0.0
 11
1531.771371275084
 21
-744.5670721349608
 31
0.0
  0
ARC
  5
4EC
330
1F
100
AcDbEntity
  8
1-B
  6
Continuous
 62
    92
370
    13
100
AcDbCircle
 10
1448.33277109507
 20
-742.581795395394
 30
0.0
 40
40.0
100
AcDbArc
 50
59.99999999999994
 51
120.0000000000001
  0
LINE
  5
4ED
330
1F
100
AcDbEntity
  8
1-B
  6
Continuous
 62
    92
370
    13
100
AcDbLine
 10
1354.287569197256
 20
-735.7375897627996
 30
0.0
 11
1364.894170915056
 21
-744.5670721349608
 31
0.0
  0
LINE
  5
4EE
330
1F
100
AcDbEntity
  8
1-B
  6
Continuous
 62
    92
370
    13
100
AcDbLine
 10
1542.377972992884
 20
-735.7375897627996
 30
0.0
 11
1531.771371275084
 21
-744.5670721349585
 31
0.0
  0
LWPOLYLINE
  5
4EF
330
1F
100
AcDbEntity
  8
0-B
  6
Continuous
 62
     7
370
     9
100
AcDbPolyline
 90
        4
 70
     1
 43
2.0
 10
1733.480858947915
 20
-735.7375897627996
 42
0.4142135623731
 10
1732.480858947915
 20
-734.7375897627996
 42
0.4142135623731
 10
1731.480858947915
 20
-735.7375897627996
 42
0.4142135623731
 10
1732.480858947915
 20
-736.7375897627995
 42
0.4142135623731
  0
LINE
  5
4F0
330
1F
100
AcDbEntity
  8
0-B
  6
Continuous
 62
   120
370
     5
100
AcDbLine
 10
1732.480858947915
 20
-735.7375897627996
 30
0.0
 11
1612.480858947913
 21
-735.7375897627996
 31
0.0
  0
LINE
  5
4F1
330
1F
100
AcDbEntity
  8
0-B
  6
Continuous
 62
   120
370
     5
100
AcDbLine
 10
1732.480858947915
 20
-362.6160574759524
 30
0.0
 11
1732.480858947915
 21
-735.7375897627996
 31
0.0
  0
LINE
  5
4F2
330
1F
100
AcDbEntity
  8
F-1
  6
Continuous
 62
     7
370
     9
100
AcDbLine
 10
-3293.333352578653
 20
-26.66651874155491
 30
0.0
 11
-178.910450581883
 21
-26.66651874155491
 31
0.0
  0
LINE
  5
4F3
330
1F
100
AcDbEntity
  8
F-1
  6
Continuous
 62
     7
370
     9
100
AcDbLine
 10
603.3330144108953
 20
-26.66651874155491
 30
0.0
 11
3793.332651499156
 21
-26.66651874155491
 31
0.0
  0
LINE
  5
4F4
330
1F
100
AcDbEntity
  8
F-1
  6
Continuous
 62
     7
370
     9
100
AcDbLine
 10
-178.910450581883
 20
-26.66651874155491
 30
0.0
 11
-96.66731550886823
 21
-26.66651874155491
 31
0.0
  0
MTEXT
  5
4F5
330
1F
100
AcDbEntity
  8
F-A
  6
Continuous
 62
     7
370
     0
100
AcDbMText
 10
3185.832751019777
 20
-2625.380781681567
 30
0.0
 40
52.57799999999999
 41
345.0
 46
0.0
 71
     7
 72
     1
  1
{\fＭＳ ゴシック|b0|i0|c128|p49;2021.04.01}
 73
     1
 44
1.0
  0
MTEXT
  5
4F6
330
1F
100
AcDbEntity
  8
0-A
  6
Continuous
 62
     7
370
     9
100
AcDbMText
 10
-963.333220610748
 20
2384.110304591779
 30
0.0
 40
45.71999999999999
 41
450.0
 46
0.0
 71
     7
 72
     1
  1
{\fＭＳ ゴシック|b0|i0|c128|p49;ＤＬＢＤＡ10-□}
 73
     1
 44
1.0
  0
MTEXT
  5
4F7
330
1F
100
AcDbEntity
  8
0-A
  6
Continuous
 62
     7
370
     9
100
AcDbMText
 10
-963.3332206107481
 20
1550.776917925111
 30
0.0
 40
45.71999999999999
 41
450.0
 46
0.0
 71
     7
 72
     1
  1
{\fＭＳ ゴシック|b0|i0|c128|p49;ＤＬＢＩＡ20-□}
 73
     1
 44
1.0
  0
MTEXT
  5
4F8
330
1F
100
AcDbEntity
  8
0-A
  6
Continuous
 62
     7
370
     9
100
AcDbMText
 10
-963.333220610748
 20
717.4435312551117
 30
0.0
 40
45.71999999999999
 41
450.0
 46
0.0
 71
     7
 72
     1
  1
{\fＭＳ ゴシック|b0|i0|c128|p49;ＤＬＢＤＴ10-□}
 73
     1
 44
1.0
  0
MTEXT
  5
4F9
330
1F
100
AcDbEntity
  8
0-A
  6
Continuous
 62
     7
370
     9
100
AcDbMText
 10
-963.3332206107481
 20
-115.8898554115552
 30
0.0
 40
45.71999999999999
 41
450.0
 46
0.0
 71
     7
 72
     1
  1
{\fＭＳ ゴシック|b0|i0|c128|p49;ＤＬＢＩＴ20-□}
 73
     1
 44
1.0
  0
MTEXT
  5
4FA
330
1F
100
AcDbEntity
  8
0-A
  6
Continuous
 62
     7
370
     9
100
AcDbMText
 10
-963.333220610748
 20
-949.2232420782221
 30
0.0
 40
45.71999999999999
 41
450.0
 46
0.0
 71
     7
 72
     1
  1
{\fＭＳ ゴシック|b0|i0|c128|p49;ＤＬＢＤＰ10-□}
 73
     1
 44
1.0
  0
MTEXT
  5
4FB
330
1F
100
AcDbEntity
  8
0-A
  6
Continuous
 62
     7
370
     9
100
AcDbMText
 10
-963.3332206107481
 20
-1782.556628744889
 30
0.0
 40
45.71999999999999
 41
450.0
 46
0.0
 71
     7
 72
     1
  1
{\fＭＳ ゴシック|b0|i0|c128|p49;ＤＬＢＩＰ20-□}
 73
     1
 44
1.0
  0
MTEXT
  5
4FC
330
1F
100
AcDbEntity
  8
0-A
  6
Continuous
 62
     7
370
     9
100
AcDbMText
 10
2933.3331463788
 20
2384.110304588445
 30
0.0
 40
45.71999999999999
 41
450.0
 46
0.0
 71
     7
 72
     1
  1
{\fＭＳ ゴシック|b0|i0|c128|p49;ＤＬＢＤＭ10-□}
 73
     1
 44
1.0
  0
MTEXT
  5
4FD
330
1F
100
AcDbEntity
  8
0-A
  6
Continuous
 62
     7
370
     9
100
AcDbMText
 10
2933.3331463788
 20
1550.776917921778
 30
0.0
 40
45.71999999999999
 41
450.0
 46
0.0
 71
     7
 72
     1
  1
{\fＭＳ ゴシック|b0|i0|c128|p49;ＤＬＢＩＭ20-□}
 73
     1
 44
1.0
  0
MTEXT
  5
4FE
330
1F
100
AcDbEntity
  8
0-A
  6
Continuous
 62
     7
370
     9
100
AcDbMText
 10
2933.3331463788
 20
717.4435312551108
 30
0.0
 40
45.71999999999999
 41
450.0
 46
0.0
 71
     7
 72
     1
  1
{\fＭＳ ゴシック|b0|i0|c128|p49;ＤＬＢＤＷ10-□}
 73
     1
 44
1.0
  0
MTEXT
  5
4FF
330
1F
100
AcDbEntity
  8
0-A
  6
Continuous
 62
     7
370
     9
100
AcDbMText
 10
2933.3331463788
 20
-115.8898554115558
 30
0.0
 40
45.71999999999999
 41
450.0
 46
0.0
 71
     7
 72
     1
  1
{\fＭＳ ゴシック|b0|i0|c128|p49;ＤＬＢＩＷ20-□}
 73
     1
 44
1.0
  0
ENDSEC
  0
SECTION
  2
OBJECTS
  0
DICTIONARY
  5
C
330
0
100
AcDbDictionary
281
     1
  3
ACAD_GROUP
350
D
  3
ACAD_LAYOUT
350
1A
  3
ACAD_MATERIAL
350
3B
  3
ACAD_MLEADERSTYLE
350
501
  3
ACAD_MLINESTYLE
350
17
  3
ACAD_PLOTSETTINGS
350
19
  3
ACAD_PLOTSTYLENAME
350
E
  3
ACAD_TABLESTYLE
350
500
  3
ACAD_VISUALSTYLE
350
2A
  0
DICTIONARY
  5
D
102
{ACAD_REACTORS
330
C
102
}
330
C
100
AcDbDictionary
281
     1
  0
DICTIONARY
  5
1A
102
{ACAD_REACTORS
330
C
102
}
330
C
100
AcDbDictionary
281
     1
  3
Layout1
350
1E
  3
Layout2
350
26
  3
Model
350
22
  0
DICTIONARY
  5
3B
102
{ACAD_REACTORS
330
C
102
}
330
C
100
AcDbDictionary
281
     1
  3
ByBlock
350
3D
  3
ByLayer
350
3C
  3
Global
350
3E
  0
DICTIONARY
  5
501
102
{ACAD_REACTORS
330
C
102
}
330
C
100
AcDbDictionary
281
     1
  0
DICTIONARY
  5
17
102
{ACAD_REACTORS
330
C
102
}
330
C
100
AcDbDictionary
281
     1
  3
Standard
350
18
  0
DICTIONARY
  5
19
102
{ACAD_REACTORS
330
C
102
}
330
C
100
AcDbDictionary
281
     1
  0
ACDBDICTIONARYWDFLT
  5
E
102
{ACAD_REACTORS
330
C
102
}
330
C
100
AcDbDictionary
281
     1
  3
Normal
350
F
100
AcDbDictionaryWithDefault
340
F
  0
DICTIONARY
  5
500
102
{ACAD_REACTORS
330
C
102
}
330
C
100
AcDbDictionary
281
     1
  0
DICTIONARY
  5
2A
102
{ACAD_REACTORS
330
C
102
}
330
C
100
AcDbDictionary
281
     1
  3
2dWireframe
350
2F
  3
3D Hidden
350
31
  3
3dWireframe
350
30
  3
Basic
350
32
  3
Brighten
350
36
  3
ColorChange
350
3A
  3
Conceptual
350
34
  3
Dim
350
35
  3
Facepattern
350
39
  3
Flat
350
2B
  3
FlatWithEdges
350
2C
  3
Gouraud
350
2D
  3
GouraudWithEdges
350
2E
  3
Linepattern
350
38
  3
Realistic
350
33
  3
Thicken
350
37
  0
LAYOUT
  5
1E
102
{ACAD_REACTORS
330
1A
102
}
330
1A
100
AcDbPlotSettings
  1

  2
none_device
  4

  6

 40
0.0
 41
0.0
 42
0.0
 43
0.0
 44
0.0
 45
0.0
 46
0.0
 47
0.0
 48
0.0
 49
0.0
140
0.0
141
0.0
142
1.0
143
1.0
 70
   688
 72
     0
 73
     0
 74
     5
  7

 75
    16
 76
     0
 77
     5
 78
   300
147
1.0
148
0.0
149
0.0
100
AcDbLayout
  1
Layout1
 70
     1
 71
     1
 10
0.0
 20
0.0
 11
420.0
 21
297.0
 12
0.0
 22
0.0
 32
0.0
 14
1.000000000000000E+20
 24
1.000000000000000E+20
 34
1.000000000000000E+20
 15
-1.000000000000000E+20
 25
-1.000000000000000E+20
 35
-1.000000000000000E+20
146
0.0
 13
0.0
 23
0.0
 33
0.0
 16
1.0
 26
0.0
 36
0.0
 17
0.0
 27
1.0
 37
0.0
 76
     0
330
1B
  0
LAYOUT
  5
26
102
{ACAD_REACTORS
330
1A
102
}
330
1A
100
AcDbPlotSettings
  1

  2
none_device
  4

  6

 40
0.0
 41
0.0
 42
0.0
 43
0.0
 44
0.0
 45
0.0
 46
0.0
 47
0.0
 48
0.0
 49
0.0
140
0.0
141
0.0
142
1.0
143
1.0
 70
   688
 72
     0
 73
     0
 74
     5
  7

 75
    16
 76
     0
 77
     5
 78
   300
147
1.0
148
0.0
149
0.0
100
AcDbLayout
  1
Layout2
 70
     1
 71
     2
 10
0.0
 20
0.0
 11
0.0
 21
0.0
 12
0.0
 22
0.0
 32
0.0
 14
0.0
 24
0.0
 34
0.0
 15
0.0
 25
0.0
 35
0.0
146
0.0
 13
0.0
 23
0.0
 33
0.0
 16
1.0
 26
0.0
 36
0.0
 17
0.0
 27
1.0
 37
0.0
 76
     0
330
23
  0
LAYOUT
  5
22
102
{ACAD_REACTORS
330
1A
102
}
330
1A
100
AcDbPlotSettings
  1

  2
none_device
  4

  6

 40
0.0
 41
0.0
 42
0.0
 43
0.0
 44
0.0
 45
0.0
 46
0.0
 47
0.0
 48
0.0
 49
0.0
140
0.0
141
0.0
142
1.0
143
1.0
 70
  1712
 72
     0
 73
     0
 74
     0
  7

 75
     0
 76
     0
 77
     5
 78
   300
147
1.0
148
0.0
149
0.0
100
AcDbLayout
  1
Model
 70
     1
 71
     0
 10
-4200.0
 20
-2970.0
 11
4200.0
 21
2970.0
 12
0.0
 22
0.0
 32
0.0
 14
-4200.0
 24
-2970.0
 34
0.0
 15
4200.0
 25
2970.0
 35
0.0
146
0.0
 13
0.0
 23
0.0
 33
0.0
 16
1.0
 26
0.0
 36
0.0
 17
0.0
 27
1.0
 37
0.0
 76
     0
330
1F
331
29
  0
MATERIAL
  5
3D
102
{ACAD_REACTORS
330
3B
102
}
330
3B
100
AcDbMaterial
  1
ByBlock
 72
     1
 94
      127
  0
MATERIAL
  5
3C
102
{ACAD_REACTORS
330
3B
102
}
330
3B
100
AcDbMaterial
  1
ByLayer
 72
     1
 94
      127
  0
MATERIAL
  5
3E
102
{ACAD_REACTORS
330
3B
102
}
330
3B
100
AcDbMaterial
  1
Global
 72
     1
 94
      127
  0
MLINESTYLE
  5
18
102
{ACAD_REACTORS
330
17
102
}
330
17
100
AcDbMlineStyle
  2
Standard
 70
     0
  3

 62
   256
 51
90.0
 52
90.0
 71
     2
 49
0.5
 62
   256
  6
BYLAYER
 49
-0.5
 62
   256
  6
BYLAYER
  0
ACDBPLACEHOLDER
  5
F
102
{ACAD_REACTORS
330
E
102
}
330
E
  0
VISUALSTYLE
  5
2F
102
{ACAD_REACTORS
330
2A
102
}
330
2A
100
AcDbVisualStyle
  2
2dWireframe
 70
     4
177
     2
291
     0
 71
     0
176
     1
 72
     2
176
     1
 73
     0
176
     1
 90
        0
176
     1
 40
-0.6
176
     1
 41
-30.0
176
     1
 62
     5
 63
     7
421
 16777215
176
     1
 74
     1
176
     1
 91
        4
176
     1
 64
     7
176
     1
 65
   257
176
     1
 75
     1
176
     1
175
     1
176
     1
 42
1.0
176
     1
 92
        0
176
     1
 66
   257
176
     1
 43
1.0
176
     1
 76
     1
176
     1
 77
     6
176
     1
 78
     2
176
     1
 67
     7
176
     1
 79
     5
176
     1
170
     0
176
     1
171
     0
176
     1
290
     0
176
     1
 93
        1
176
     1
 44
0.0
176
     1
173
     0
176
     1
  0
VISUALSTYLE
  5
31
102
{ACAD_REACTORS
330
2A
102
}
330
2A
100
AcDbVisualStyle
  2
3D Hidden
 70
     6
177
     2
291
     0
 71
     1
176
     1
 72
     2
176
     1
 73
     2
176
     1
 90
        0
176
     1
 40
-0.6
176
     1
 41
-30.0
176
     1
 62
     5
 63
     7
421
 16777215
176
     1
 74
     2
176
     1
 91
        2
176
     1
 64
     7
176
     1
 65
   257
176
     1
 75
     2
176
     1
175
     1
176
     1
 42
40.0
176
     1
 92
        0
176
     1
 66
   257
176
     1
 43
1.0
176
     1
 76
     1
176
     1
 77
     6
176
     1
 78
     2
176
     1
 67
     7
176
     1
 79
     3
176
     1
170
     0
176
     1
171
     0
176
     1
290
     0
176
     1
 93
        1
176
     1
 44
0.0
176
     1
173
     0
176
     1
  0
VISUALSTYLE
  5
30
102
{ACAD_REACTORS
330
2A
102
}
330
2A
100
AcDbVisualStyle
  2
3dWireframe
 70
     5
177
     2
291
     0
 71
     0
176
     1
 72
     2
176
     1
 73
     0
176
     1
 90
        0
176
     1
 40
-0.6
176
     1
 41
-30.0
176
     1
 62
     5
 63
     7
421
 16777215
176
     1
 74
     1
176
     1
 91
        4
176
     1
 64
     7
176
     1
 65
   257
176
     1
 75
     1
176
     1
175
     1
176
     1
 42
1.0
176
     1
 92
        0
176
     1
 66
   257
176
     1
 43
1.0
176
     1
 76
     1
176
     1
 77
     6
176
     1
 78
     2
176
     1
 67
     7
176
     1
 79
     5
176
     1
170
     0
176
     1
171
     0
176
     1
290
     0
176
     1
 93
        1
176
     1
 44
0.0
176
     1
173
     0
176
     1
  0
VISUALSTYLE
  5
32
102
{ACAD_REACTORS
330
2A
102
}
330
2A
100
AcDbVisualStyle
  2
Basic
 70
     7
177
     2
291
     1
 71
     1
176
     1
 72
     0
176
     1
 73
     1
176
     1
 90
        0
176
     1
 40
-0.6
176
     1
 41
-30.0
176
     1
 62
     5
 63
     7
421
 16777215
176
     1
 74
     0
176
     1
 91
        4
176
     1
 64
     7
176
     1
 65
   257
176
     1
 75
     1
176
     1
175
     1
176
     1
 42
1.0
176
     1
 92
        8
176
     1
 66
     7
176
     1
 43
1.0
176
     1
 76
     1
176
     1
 77
     6
176
     1
 78
     2
176
     1
 67
     7
176
     1
 79
     5
176
     1
170
     0
176
     1
171
     0
176
     1
290
     0
176
     1
 93
        1
176
     1
 44
0.0
176
     1
173
     0
176
     1
  0
VISUALSTYLE
  5
36
102
{ACAD_REACTORS
330
2A
102
}
330
2A
100
AcDbVisualStyle
  2
Brighten
 70
    12
177
     2
291
     1
 71
     2
176
     1
 72
     2
176
     1
 73
     0
176
     1
 90
        0
176
     1
 40
-0.6
176
     1
 41
-30.0
176
     1
 62
     5
 63
     7
421
 16777215
176
     1
 74
     1
176
     1
 91
        4
176
     1
 64
     7
176
     1
 65
   257
176
     1
 75
     1
176
     1
175
     1
176
     1
 42
1.0
176
     1
 92
        8
176
     1
 66
     7
176
     1
 43
1.0
176
     1
 76
     1
176
     1
 77
     6
176
     1
 78
     2
176
     1
 67
     7
176
     1
 79
     5
176
     1
170
     0
176
     1
171
     0
176
     1
290
     0
176
     1
 93
        1
176
     1
 44
50.0
176
     1
173
     0
176
     1
  0
VISUALSTYLE
  5
3A
102
{ACAD_REACTORS
330
2A
102
}
330
2A
100
AcDbVisualStyle
  2
ColorChange
 70
    16
177
     2
291
     1
 71
     2
176
     1
 72
     2
176
     1
 73
     3
176
     1
 90
        0
176
     1
 40
-0.6
176
     1
 41
-30.0
176
     1
 62
     5
 63
     8
421
  8421504
176
     1
 74
     1
176
     1
 91
        4
176
     1
 64
     7
176
     1
 65
   257
176
     1
 75
     1
176
     1
175
     1
176
     1
 42
1.0
176
     1
 92
        8
176
     1
 66
     8
424
  8421504
176
     1
 43
1.0
176
     1
 76
     1
176
     1
 77
     6
176
     1
 78
     2
176
     1
 67
     7
176
     1
 79
     5
176
     1
170
     0
176
     1
171
     0
176
     1
290
     0
176
     1
 93
        1
176
     1
 44
0.0
176
     1
173
     0
176
     1
  0
VISUALSTYLE
  5
34
102
{ACAD_REACTORS
330
2A
102
}
330
2A
100
AcDbVisualStyle
  2
Conceptual
 70
     9
177
     2
291
     0
 71
     3
176
     1
 72
     2
176
     1
 73
     0
176
     1
 90
        0
176
     1
 40
-0.6
176
     1
 41
-30.0
176
     1
 62
     5
 63
     7
421
 16777215
176
     1
 74
     2
176
     1
 91
        2
176
     1
 64
     7
176
     1
 65
   257
176
     1
 75
     1
176
     1
175
     1
176
     1
 42
40.0
176
     1
 92
        8
176
     1
 66
     7
176
     1
 43
1.0
176
     1
 76
     1
176
     1
 77
     6
176
     1
 78
     2
176
     1
 67
     7
176
     1
 79
     3
176
     1
170
     0
176
     1
171
     0
176
     1
290
     0
176
     1
 93
        1
176
     1
 44
0.0
176
     1
173
     0
176
     1
  0
VISUALSTYLE
  5
35
102
{ACAD_REACTORS
330
2A
102
}
330
2A
100
AcDbVisualStyle
  2
Dim
 70
    11
177
     2
291
     1
 71
     2
176
     1
 72
     2
176
     1
 73
     0
176
     1
 90
        0
176
     1
 40
-0.6
176
     1
 41
-30.0
176
     1
 62
     5
 63
     7
421
 16777215
176
     1
 74
     1
176
     1
 91
        4
176
     1
 64
     7
176
     1
 65
   257
176
     1
 75
     1
176
     1
175
     1
176
     1
 42
1.0
176
     1
 92
        8
176
     1
 66
     7
176
     1
 43
1.0
176
     1
 76
     1
176
     1
 77
     6
176
     1
 78
     2
176
     1
 67
     7
176
     1
 79
     5
176
     1
170
     0
176
     1
171
     0
176
     1
290
     0
176
     1
 93
        1
176
     1
 44
-50.0
176
     1
173
     0
176
     1
  0
VISUALSTYLE
  5
39
102
{ACAD_REACTORS
330
2A
102
}
330
2A
100
AcDbVisualStyle
  2
Facepattern
 70
    15
177
     2
291
     1
 71
     2
176
     1
 72
     2
176
     1
 73
     0
176
     1
 90
        0
176
     1
 40
-0.6
176
     1
 41
-30.0
176
     1
 62
     5
 63
     7
421
 16777215
176
     1
 74
     1
176
     1
 91
        4
176
     1
 64
     7
176
     1
 65
   257
176
     1
 75
     1
176
     1
175
     1
176
     1
 42
1.0
176
     1
 92
        8
176
     1
 66
     7
176
     1
 43
1.0
176
     1
 76
     1
176
     1
 77
     6
176
     1
 78
     2
176
     1
 67
     7
176
     1
 79
     5
176
     1
170
     0
176
     1
171
     0
176
     1
290
     0
176
     1
 93
        1
176
     1
 44
0.0
176
     1
173
     0
176
     1
  0
VISUALSTYLE
  5
2B
102
{ACAD_REACTORS
330
2A
102
}
330
2A
100
AcDbVisualStyle
  2
Flat
 70
     0
177
     2
291
     1
 71
     2
176
     1
 72
     1
176
     1
 73
     1
176
     1
 90
        2
176
     1
 40
-0.6
176
     1
 41
30.0
176
     1
 62
     5
 63
     7
421
 16777215
176
     1
 74
     0
176
     1
 91
        4
176
     1
 64
     7
176
     1
 65
   257
176
     1
 75
     1
176
     1
175
     1
176
     1
 42
1.0
176
     1
 92
        8
176
     1
 66
     7
176
     1
 43
1.0
176
     1
 76
     1
176
     1
 77
     6
176
     1
 78
     2
176
     1
 67
     7
176
     1
 79
     5
176
     1
170
     0
176
     1
171
     0
176
     1
290
     0
176
     1
 93
       13
176
     1
 44
0.0
176
     1
173
     0
176
     1
  0
VISUALSTYLE
  5
2C
102
{ACAD_REACTORS
330
2A
102
}
330
2A
100
AcDbVisualStyle
  2
FlatWithEdges
 70
     1
177
     2
291
     1
 71
     2
176
     1
 72
     1
176
     1
 73
     1
176
     1
 90
        2
176
     1
 40
-0.6
176
     1
 41
30.0
176
     1
 62
     5
 63
     7
421
 16777215
176
     1
 74
     1
176
     1
 91
        4
176
     1
 64
     7
176
     1
 65
   257
176
     1
 75
     1
176
     1
175
     1
176
     1
 42
1.0
176
     1
 92
        0
176
     1
 66
   257
176
     1
 43
1.0
176
     1
 76
     1
176
     1
 77
     6
176
     1
 78
     2
176
     1
 67
     7
176
     1
 79
     5
176
     1
170
     0
176
     1
171
     0
176
     1
290
     0
176
     1
 93
       13
176
     1
 44
0.0
176
     1
173
     0
176
     1
  0
VISUALSTYLE
  5
2D
102
{ACAD_REACTORS
330
2A
102
}
330
2A
100
AcDbVisualStyle
  2
Gouraud
 70
     2
177
     2
291
     1
 71
     2
176
     1
 72
     2
176
     1
 73
     1
176
     1
 90
        2
176
     1
 40
-0.6
176
     1
 41
30.0
176
     1
 62
     5
 63
     7
421
 16777215
176
     1
 74
     0
176
     1
 91
        4
176
     1
 64
     7
176
     1
 65
   257
176
     1
 75
     1
176
     1
175
     1
176
     1
 42
1.0
176
     1
 92
        0
176
     1
 66
     7
176
     1
 43
1.0
176
     1
 76
     1
176
     1
 77
     6
176
     1
 78
     2
176
     1
 67
     7
176
     1
 79
     5
176
     1
170
     0
176
     1
171
     0
176
     1
290
     0
176
     1
 93
       13
176
     1
 44
0.0
176
     1
173
     0
176
     1
  0
VISUALSTYLE
  5
2E
102
{ACAD_REACTORS
330
2A
102
}
330
2A
100
AcDbVisualStyle
  2
GouraudWithEdges
 70
     3
177
     2
291
     1
 71
     2
176
     1
 72
     2
176
     1
 73
     1
176
     1
 90
        2
176
     1
 40
-0.6
176
     1
 41
30.0
176
     1
 62
     5
 63
     7
421
 16777215
176
     1
 74
     1
176
     1
 91
        4
176
     1
 64
     7
176
     1
 65
   257
176
     1
 75
     1
176
     1
175
     1
176
     1
 42
1.0
176
     1
 92
        0
176
     1
 66
   257
176
     1
 43
1.0
176
     1
 76
     1
176
     1
 77
     6
176
     1
 78
     2
176
     1
 67
     7
176
     1
 79
     5
176
     1
170
     0
176
     1
171
     0
176
     1
290
     0
176
     1
 93
       13
176
     1
 44
0.0
176
     1
173
     0
176
     1
  0
VISUALSTYLE
  5
38
102
{ACAD_REACTORS
330
2A
102
}
330
2A
100
AcDbVisualStyle
  2
Linepattern
 70
    14
177
     2
291
     1
 71
     2
176
     1
 72
     2
176
     1
 73
     0
176
     1
 90
        0
176
     1
 40
-0.6
176
     1
 41
-30.0
176
     1
 62
     5
 63
     7
421
 16777215
176
     1
 74
     1
176
     1
 91
        4
176
     1
 64
     7
176
     1
 65
   257
176
     1
 75
     7
176
     1
175
     7
176
     1
 42
1.0
176
     1
 92
        8
176
     1
 66
     7
176
     1
 43
1.0
176
     1
 76
     1
176
     1
 77
     6
176
     1
 78
     2
176
     1
 67
     7
176
     1
 79
     5
176
     1
170
     0
176
     1
171
     0
176
     1
290
     0
176
     1
 93
        1
176
     1
 44
0.0
176
     1
173
     0
176
     1
  0
VISUALSTYLE
  5
33
102
{ACAD_REACTORS
330
2A
102
}
330
2A
100
AcDbVisualStyle
  2
Realistic
 70
     8
177
     2
291
     0
 71
     2
176
     1
 72
     2
176
     1
 73
     0
176
     1
 90
        0
176
     1
 40
-0.6
176
     1
 41
-30.0
176
     1
 62
     5
 63
     7
421
 16777215
176
     1
 74
     1
176
     1
 91
        0
176
     1
 64
     7
176
     1
 65
   257
176
     1
 75
     1
176
     1
175
     1
176
     1
 42
1.0
176
     1
 92
        8
176
     1
 66
     8
424
  7895160
176
     1
 43
1.0
176
     1
 76
     1
176
     1
 77
     6
176
     1
 78
     2
176
     1
 67
     7
176
     1
 79
     5
176
     1
170
     0
176
     1
171
     0
176
     1
290
     0
176
     1
 93
       13
176
     1
 44
0.0
176
     1
173
     0
176
     1
  0
VISUALSTYLE
  5
37
102
{ACAD_REACTORS
330
2A
102
}
330
2A
100
AcDbVisualStyle
  2
Thicken
 70
    13
177
     2
291
     1
 71
     2
176
     1
 72
     2
176
     1
 73
     0
176
     1
 90
        0
176
     1
 40
-0.6
176
     1
 41
-30.0
176
     1
 62
     5
 63
     7
421
 16777215
176
     1
 74
     1
176
     1
 91
        4
176
     1
 64
     7
176
     1
 65
   257
176
     1
 75
     1
176
     1
175
     1
176
     1
 42
1.0
176
     1
 92
       12
176
     1
 66
     7
176
     1
 43
1.0
176
     1
 76
     1
176
     1
 77
     6
176
     1
 78
     2
176
     1
 67
     7
176
     1
 79
     5
176
     1
170
     0
176
     1
171
     0
176
     1
290
     0
176
     1
 93
        1
176
     1
 44
0.0
176
     1
173
     0
176
     1
  0
ENDSEC
  0
EOF
