  0
SECTION
  2
HEADER
  9
$ACADVER
  1
AC1024
  9
$ACADMAINTVER
 70
     6
  9
$DWGCODEPAGE
  3
ANSI_932
  9
$INSBASE
 10
0.0
 20
0.0
 30
0.0
  9
$EXTMIN
 10
-6300.0
 20
-4455.0
 30
0.0
  9
$EXTMAX
 10
6300.0
 20
4455.0
 30
0.0
  9
$LIMMIN
 10
-6300.0
 20
-4455.0
  9
$LIMMAX
 10
6300.0
 20
4455.0
  9
$ORTHOMODE
 70
     0
  9
$REGENMODE
 70
     1
  9
$FILLMODE
 70
     1
  9
$QTEXTMODE
 70
     0
  9
$MIRRTEXT
 70
     1
  9
$LTSCALE
 40
30.0
  9
$ATTMODE
 70
     1
  9
$TEXTSIZE
 40
2.5
  9
$TRACEWID
 40
1.0
  9
$TEXTSTYLE
  7
Standard
  9
$CLAYER
  8
0
  9
$CELTYPE
  6
ByLayer
  9
$CECOLOR
 62
   256
  9
$CELTSCALE
 40
1.0
  9
$DISPSILH
 70
     0
  9
$DIMSCALE
 40
1.0
  9
$DIMASZ
 40
2.5
  9
$DIMEXO
 40
0.625
  9
$DIMDLI
 40
3.75
  9
$DIMRND
 40
0.0
  9
$DIMDLE
 40
0.0
  9
$DIMEXE
 40
1.25
  9
$DIMTP
 40
0.0
  9
$DIMTM
 40
0.0
  9
$DIMTXT
 40
2.5
  9
$DIMCEN
 40
2.5
  9
$DIMTSZ
 40
0.0
  9
$DIMTOL
 70
     0
  9
$DIMLIM
 70
     0
  9
$DIMTIH
 70
     0
  9
$DIMTOH
 70
     0
  9
$DIMSE1
 70
     0
  9
$DIMSE2
 70
     0
  9
$DIMTAD
 70
     1
  9
$DIMZIN
 70
     8
  9
$DIMBLK
  1

  9
$DIMASO
 70
     1
  9
$DIMSHO
 70
     1
  9
$DIMPOST
  1

  9
$DIMAPOST
  1

  9
$DIMALT
 70
     0
  9
$DIMALTD
 70
     3
  9
$DIMALTF
 40
0.03937007874016
  9
$DIMLFAC
 40
1.0
  9
$DIMTOFL
 70
     1
  9
$DIMTVP
 40
0.0
  9
$DIMTIX
 70
     0
  9
$DIMSOXD
 70
     0
  9
$DIMSAH
 70
     0
  9
$DIMBLK1
  1

  9
$DIMBLK2
  1

  9
$DIMSTYLE
  2
ISO-25
  9
$DIMCLRD
 70
     0
  9
$DIMCLRE
 70
     0
  9
$DIMCLRT
 70
     0
  9
$DIMTFAC
 40
1.0
  9
$DIMGAP
 40
0.625
  9
$DIMJUST
 70
     0
  9
$DIMSD1
 70
     0
  9
$DIMSD2
 70
     0
  9
$DIMTOLJ
 70
     0
  9
$DIMTZIN
 70
     8
  9
$DIMALTZ
 70
     0
  9
$DIMALTTZ
 70
     0
  9
$DIMUPT
 70
     0
  9
$DIMDEC
 70
     2
  9
$DIMTDEC
 70
     2
  9
$DIMALTU
 70
     2
  9
$DIMALTTD
 70
     3
  9
$DIMTXSTY
  7
Standard
  9
$DIMAUNIT
 70
     0
  9
$DIMADEC
 70
     0
  9
$DIMALTRND
 40
0.0
  9
$DIMAZIN
 70
     0
  9
$DIMDSEP
 70
    44
  9
$DIMATFIT
 70
     3
  9
$DIMFRAC
 70
     0
  9
$DIMLDRBLK
  1

  9
$DIMLUNIT
 70
     2
  9
$DIMLWD
 70
    -2
  9
$DIMLWE
 70
    -2
  9
$DIMTMOVE
 70
     0
  9
$DIMFXL
 40
1.0
  9
$DIMFXLON
 70
     0
  9
$DIMJOGANG
 40
0.7853981633974483
  9
$DIMTFILL
 70
     0
  9
$DIMTFILLCLR
 70
     0
  9
$DIMARCSYM
 70
     0
  9
$DIMLTYPE
  6

  9
$DIMLTEX1
  6

  9
$DIMLTEX2
  6

  9
$DIMTXTDIRECTION
 70
     0
  9
$LUNITS
 70
     2
  9
$LUPREC
 70
     4
  9
$SKETCHINC
 40
1.0
  9
$FILLETRAD
 40
10.0
  9
$AUNITS
 70
     0
  9
$AUPREC
 70
     0
  9
$MENU
  1
.
  9
$ELEVATION
 40
0.0
  9
$PELEVATION
 40
0.0
  9
$THICKNESS
 40
0.0
  9
$LIMCHECK
 70
     0
  9
$CHAMFERA
 40
10.0
  9
$CHAMFERB
 40
10.0
  9
$CHAMFERC
 40
20.0
  9
$CHAMFERD
 40
0.0
  9
$SKPOLY
 70
     0
  9
$TDCREATE
 40
2459432.544449514
  9
$TDUCREATE
 40
2459432.169449514
  9
$TDUPDATE
 40
2459432.544449525
  9
$TDUUPDATE
 40
2459432.169449525
  9
$TDINDWG
 40
0.0000000116
  9
$TDUSRTIMER
 40
0.0000000116
  9
$USRTIMER
 70
     1
  9
$ANGBASE
 50
0.0
  9
$ANGDIR
 70
     0
  9
$PDMODE
 70
     0
  9
$PDSIZE
 40
0.0
  9
$PLINEWID
 40
0.0
  9
$SPLFRAME
 70
     0
  9
$SPLINETYPE
 70
     6
  9
$SPLINESEGS
 70
     8
  9
$HANDSEED
  5
40F
  9
$SURFTAB1
 70
     6
  9
$SURFTAB2
 70
     6
  9
$SURFTYPE
 70
     6
  9
$SURFU
 70
     6
  9
$SURFV
 70
     6
  9
$UCSBASE
  2

  9
$UCSNAME
  2

  9
$UCSORG
 10
0.0
 20
0.0
 30
0.0
  9
$UCSXDIR
 10
1.0
 20
0.0
 30
0.0
  9
$UCSYDIR
 10
0.0
 20
1.0
 30
0.0
  9
$UCSORTHOREF
  2

  9
$UCSORTHOVIEW
 70
     0
  9
$UCSORGTOP
 10
0.0
 20
0.0
 30
0.0
  9
$UCSORGBOTTOM
 10
0.0
 20
0.0
 30
0.0
  9
$UCSORGLEFT
 10
0.0
 20
0.0
 30
0.0
  9
$UCSORGRIGHT
 10
0.0
 20
0.0
 30
0.0
  9
$UCSORGFRONT
 10
0.0
 20
0.0
 30
0.0
  9
$UCSORGBACK
 10
0.0
 20
0.0
 30
0.0
  9
$PUCSBASE
  2

  9
$PUCSNAME
  2

  9
$PUCSORG
 10
0.0
 20
0.0
 30
0.0
  9
$PUCSXDIR
 10
1.0
 20
0.0
 30
0.0
  9
$PUCSYDIR
 10
0.0
 20
1.0
 30
0.0
  9
$PUCSORTHOREF
  2

  9
$PUCSORTHOVIEW
 70
     0
  9
$PUCSORGTOP
 10
0.0
 20
0.0
 30
0.0
  9
$PUCSORGBOTTOM
 10
0.0
 20
0.0
 30
0.0
  9
$PUCSORGLEFT
 10
0.0
 20
0.0
 30
0.0
  9
$PUCSORGRIGHT
 10
0.0
 20
0.0
 30
0.0
  9
$PUCSORGFRONT
 10
0.0
 20
0.0
 30
0.0
  9
$PUCSORGBACK
 10
0.0
 20
0.0
 30
0.0
  9
$USERI1
 70
     0
  9
$USERI2
 70
     0
  9
$USERI3
 70
     0
  9
$USERI4
 70
     0
  9
$USERI5
 70
     0
  9
$USERR1
 40
0.0
  9
$USERR2
 40
0.0
  9
$USERR3
 40
0.0
  9
$USERR4
 40
0.0
  9
$USERR5
 40
0.0
  9
$WORLDVIEW
 70
     1
  9
$SHADEDGE
 70
     3
  9
$SHADEDIF
 70
    70
  9
$TILEMODE
 70
     1
  9
$MAXACTVP
 70
    64
  9
$PINSBASE
 10
0.0
 20
0.0
 30
0.0
  9
$PLIMCHECK
 70
     0
  9
$PEXTMIN
 10
1.000000000000000E+20
 20
1.000000000000000E+20
 30
1.000000000000000E+20
  9
$PEXTMAX
 10
-1.000000000000000E+20
 20
-1.000000000000000E+20
 30
-1.000000000000000E+20
  9
$PLIMMIN
 10
0.0
 20
0.0
  9
$PLIMMAX
 10
420.0
 20
297.0
  9
$UNITMODE
 70
     0
  9
$VISRETAIN
 70
     1
  9
$PLINEGEN
 70
     0
  9
$PSLTSCALE
 70
     1
  9
$TREEDEPTH
 70
  3020
  9
$CMLSTYLE
  2
Standard
  9
$CMLJUST
 70
     0
  9
$CMLSCALE
 40
20.0
  9
$PROXYGRAPHICS
 70
     1
  9
$MEASUREMENT
 70
     1
  9
$CELWEIGHT
370
    -1
  9
$ENDCAPS
280
     0
  9
$JOINSTYLE
280
     0
  9
$LWDISPLAY
290
     0
  9
$INSUNITS
 70
     4
  9
$HYPERLINKBASE
  1

  9
$STYLESHEET
  1

  9
$XEDIT
290
     1
  9
$CEPSNTYPE
380
     0
  9
$PSTYLEMODE
290
     1
  9
$FINGERPRINTGUID
  2
{367B3D51-8CAE-472A-84B5-024C57BE8F2A}
  9
$VERSIONGUID
  2
{FAEB1C32-E019-11D5-929B-00C0DF256EC4}
  9
$EXTNAMES
290
     1
  9
$PSVPSCALE
 40
0.0
  9
$OLESTARTUP
290
     0
  9
$SORTENTS
280
   127
  9
$INDEXCTL
280
     0
  9
$HIDETEXT
280
     1
  9
$XCLIPFRAME
280
     2
  9
$HALOGAP
280
     0
  9
$OBSCOLOR
 70
   257
  9
$OBSLTYPE
280
     0
  9
$INTERSECTIONDISPLAY
280
     0
  9
$INTERSECTIONCOLOR
 70
   257
  9
$DIMASSOC
280
     2
  9
$PROJECTNAME
  1

  9
$CAMERADISPLAY
290
     0
  9
$LENSLENGTH
 40
50.0
  9
$CAMERAHEIGHT
 40
0.0
  9
$STEPSPERSEC
 40
2.0
  9
$STEPSIZE
 40
6.0
  9
$3DDWFPREC
 40
2.0
  9
$PSOLWIDTH
 40
5.0
  9
$PSOLHEIGHT
 40
80.0
  9
$LOFTANG1
 40
1.570796326794897
  9
$LOFTANG2
 40
1.570796326794897
  9
$LOFTMAG1
 40
0.0
  9
$LOFTMAG2
 40
0.0
  9
$LOFTPARAM
 70
     7
  9
$LOFTNORMALS
280
     1
  9
$LATITUDE
 40
37.795
  9
$LONGITUDE
 40
-122.394
  9
$NORTHDIRECTION
 40
0.0
  9
$TIMEZONE
 70
 -8000
  9
$LIGHTGLYPHDISPLAY
280
     1
  9
$TILEMODELIGHTSYNCH
280
     1
  9
$SOLIDHIST
280
     1
  9
$SHOWHIST
280
     1
  9
$DWFFRAME
280
     2
  9
$DGNFRAME
280
     2
  9
$REALWORLDSCALE
290
     1
  9
$INTERFERECOLOR
 62
   256
  9
$CSHADOW
280
     0
  9
$SHADOWPLANELOCATION
 40
0.0
  0
ENDSEC
  0
SECTION
  2
CLASSES
  0
CLASS
  1
ACDBDICTIONARYWDFLT
  2
AcDbDictionaryWithDefault
  3
ObjectDBX Classes
 90
        0
 91
        4
280
     0
281
     0
  0
CLASS
  1
VISUALSTYLE
  2
AcDbVisualStyle
  3
ObjectDBX Classes
 90
     4095
 91
        4
280
     0
281
     0
  0
CLASS
  1
MATERIAL
  2
AcDbMaterial
  3
ObjectDBX Classes
 90
     1153
 91
        4
280
     0
281
     0
  0
ENDSEC
  0
SECTION
  2
TABLES
  0
TABLE
  2
VPORT
  5
8
330
0
100
AcDbSymbolTable
 70
     1
  0
VPORT
  5
29
330
8
100
AcDbSymbolTableRecord
100
AcDbViewportTableRecord
  2
*Active
 70
     0
 10
0.0
 20
0.0
 11
1.0
 21
1.0
 12
0.0
 22
0.0
 13
0.0
 23
0.0
 14
10.0
 24
10.0
 15
10.0
 25
10.0
 16
0.0
 26
0.0
 36
1.0
 17
0.0
 27
0.0
 37
0.0
 40
9801.0
 41
1.414141414141414
 42
50.0
 43
0.0
 44
0.0
 50
0.0
 51
0.0
 71
     0
 72
 10000
 73
     1
 74
     3
 75
     0
 76
     0
 77
     0
 78
     0
281
     0
 65
     1
110
0.0
120
0.0
130
0.0
111
1.0
121
0.0
131
0.0
112
0.0
122
1.0
132
0.0
 79
     0
146
0.0
 60
     3
 61
     5
292
     1
282
     1
141
0.0
142
0.0
 63
   250
  0
ENDTAB
  0
TABLE
  2
LTYPE
  5
5
330
0
100
AcDbSymbolTable
 70
     3
  0
LTYPE
  5
14
330
5
100
AcDbSymbolTableRecord
100
AcDbLinetypeTableRecord
  2
ByBlock
 70
     0
  3

 72
    65
 73
     0
 40
0.0
  0
LTYPE
  5
15
330
5
100
AcDbSymbolTableRecord
100
AcDbLinetypeTableRecord
  2
ByLayer
 70
     0
  3

 72
    65
 73
     0
 40
0.0
  0
LTYPE
  5
16
330
5
100
AcDbSymbolTableRecord
100
AcDbLinetypeTableRecord
  2
Continuous
 70
     0
  3
Solid line
 72
    65
 73
     0
 40
0.0
  0
LTYPE
  5
3F
330
5
100
AcDbSymbolTableRecord
100
AcDbLinetypeTableRecord
  2
JWW_HOJO
 70
     0
  3
  -   -   -   -   -   -   -   - 
 72
    65
 73
     2
 40
1.693333333333333
 49
-1.27
 74
     0
 49
0.4233333333333333
 74
     0
  0
LTYPE
  5
40
330
5
100
AcDbSymbolTableRecord
100
AcDbLinetypeTableRecord
  2
JWW_DASHED1
 70
     0
  3
-  --  --  --  --  --  --  --  -
 72
    65
 73
     2
 40
1.693333333333333
 49
0.8466666666666667
 74
     0
 49
-0.8466666666666667
 74
     0
  0
ENDTAB
  0
TABLE
  2
LAYER
  5
2
330
0
100
AcDbSymbolTable
 70
     8
  0
LAYER
  5
10
330
2
100
AcDbSymbolTableRecord
100
AcDbLayerTableRecord
  2
0
 70
     0
 62
     7
  6
Continuous
370
    -3
390
F
347
3E
  0
LAYER
  5
41
330
2
100
AcDbSymbolTableRecord
100
AcDbLayerTableRecord
  2
F-0
 70
     0
 62
     7
  6
Continuous
370
    -3
390
F
347
3E
  0
LAYER
  5
42
330
2
100
AcDbSymbolTableRecord
100
AcDbLayerTableRecord
  2
F-1
 70
     0
 62
     7
  6
Continuous
370
    -3
390
F
347
3E
  0
LAYER
  5
43
330
2
100
AcDbSymbolTableRecord
100
AcDbLayerTableRecord
  2
0-0
 70
     0
 62
     7
  6
Continuous
370
    -3
390
F
347
3E
  0
LAYER
  5
44
330
2
100
AcDbSymbolTableRecord
100
AcDbLayerTableRecord
  2
F-A
 70
     0
 62
     7
  6
Continuous
370
    -3
390
F
347
3E
  0
LAYER
  5
45
330
2
100
AcDbSymbolTableRecord
100
AcDbLayerTableRecord
  2
0-B
 70
     0
 62
     7
  6
Continuous
370
    -3
390
F
347
3E
  0
LAYER
  5
46
330
2
100
AcDbSymbolTableRecord
100
AcDbLayerTableRecord
  2
0-4
 70
     0
 62
     7
  6
Continuous
370
    -3
390
F
347
3E
  0
LAYER
  5
47
330
2
100
AcDbSymbolTableRecord
100
AcDbLayerTableRecord
  2
0-A
 70
     0
 62
     7
  6
Continuous
370
    -3
390
F
347
3E
  0
ENDTAB
  0
TABLE
  2
STYLE
  5
3
330
0
100
AcDbSymbolTable
 70
     1
  0
STYLE
  5
11
330
3
100
AcDbSymbolTableRecord
100
AcDbTextStyleTableRecord
  2
Standard
 70
     0
 40
0.0
 41
1.0
 50
0.0
 71
     0
 42
2.5
  3
txt
  4

  0
ENDTAB
  0
TABLE
  2
VIEW
  5
6
330
0
100
AcDbSymbolTable
 70
     0
  0
ENDTAB
  0
TABLE
  2
UCS
  5
7
330
0
100
AcDbSymbolTable
 70
     0
  0
ENDTAB
  0
TABLE
  2
APPID
  5
9
330
0
100
AcDbSymbolTable
 70
     1
  0
APPID
  5
12
330
9
100
AcDbSymbolTableRecord
100
AcDbRegAppTableRecord
  2
ACAD
 70
     0
  0
ENDTAB
  0
TABLE
  2
DIMSTYLE
  5
A
330
0
100
AcDbSymbolTable
 70
     1
100
AcDbDimStyleTable
  0
DIMSTYLE
105
27
330
A
100
AcDbSymbolTableRecord
100
AcDbDimStyleTableRecord
  2
ISO-25
 70
     0
 41
2.5
 42
0.625
 43
3.75
 44
1.25
 73
     0
 74
     0
 77
     1
 78
     8
140
2.5
141
2.5
143
0.03937007874016
147
0.625
171
     3
172
     1
178
     0
271
     2
272
     2
274
     3
278
    44
283
     0
284
     8
340
11
  0
ENDTAB
  0
TABLE
  2
BLOCK_RECORD
  5
1
330
0
100
AcDbSymbolTable
 70
     1
  0
BLOCK_RECORD
  5
1F
330
1
100
AcDbSymbolTableRecord
100
AcDbBlockTableRecord
  2
*Model_Space
340
22
 70
     0
280
     1
281
     0
  0
BLOCK_RECORD
  5
1B
330
1
100
AcDbSymbolTableRecord
100
AcDbBlockTableRecord
  2
*Paper_Space
340
1E
 70
     0
280
     1
281
     0
  0
BLOCK_RECORD
  5
23
330
1
100
AcDbSymbolTableRecord
100
AcDbBlockTableRecord
  2
*Paper_Space0
340
26
 70
     0
280
     1
281
     0
  0
ENDTAB
  0
ENDSEC
  0
SECTION
  2
BLOCKS
  0
BLOCK
  5
20
330
1F
100
AcDbEntity
  8
0
100
AcDbBlockBegin
  2
*Model_Space
 70
     0
 10
0.0
 20
0.0
 30
0.0
  3
*Model_Space
  1

  0
ENDBLK
  5
21
330
1F
100
AcDbEntity
  8
0
100
AcDbBlockEnd
  0
BLOCK
  5
1C
330
1B
100
AcDbEntity
 67
     1
  8
0
100
AcDbBlockBegin
  2
*Paper_Space
 70
     0
 10
0.0
 20
0.0
 30
0.0
  3
*Paper_Space
  1

  0
ENDBLK
  5
1D
330
1B
100
AcDbEntity
 67
     1
  8
0
100
AcDbBlockEnd
  0
BLOCK
  5
24
330
23
100
AcDbEntity
  8
0
100
AcDbBlockBegin
  2
*Paper_Space0
 70
     0
 10
0.0
 20
0.0
 30
0.0
  3
*Paper_Space0
  1

  0
ENDBLK
  5
25
330
23
100
AcDbEntity
  8
0
100
AcDbBlockEnd
  0
ENDSEC
  0
SECTION
  2
ENTITIES
  0
LINE
  5
48
330
1F
100
AcDbEntity
  8
F-0
  6
JWW_HOJO
 62
     7
370
     9
100
AcDbLine
 10
-5989.999224688556
 20
1835.000342034005
 30
0.0
 11
5689.998977248735
 21
1835.000342034005
 31
0.0
  0
LINE
  5
49
330
1F
100
AcDbEntity
  8
F-1
  6
JWW_DASHED1
 62
     7
370
     9
100
AcDbLine
 10
-155.0007588154554
 20
1835.000342034005
 30
0.0
 11
-2405.000758815456
 21
1835.000342034005
 31
0.0
  0
LINE
  5
4A
330
1F
100
AcDbEntity
  8
F-1
  6
JWW_DASHED1
 62
     7
370
     9
100
AcDbLine
 10
-155.0007588154554
 20
-1914.999897673323
 30
0.0
 11
-2405.000758815456
 21
-1914.999897673323
 31
0.0
  0
LINE
  5
4B
330
1F
100
AcDbEntity
  8
F-0
  6
JWW_HOJO
 62
     7
370
     9
100
AcDbLine
 10
-5989.999224688556
 20
-1914.999897673324
 30
0.0
 11
5689.998977248735
 21
-1914.999897673324
 31
0.0
  0
LINE
  5
4C
330
1F
100
AcDbEntity
  8
F-1
  6
JWW_DASHED1
 62
     7
370
     9
100
AcDbLine
 10
-155.0007588154554
 20
3397.500441912058
 30
0.0
 11
-2405.000758815456
 21
3397.500441912058
 31
0.0
  0
LINE
  5
4D
330
1F
100
AcDbEntity
  8
F-1
  6
JWW_DASHED1
 62
     7
370
     9
100
AcDbLine
 10
-155.0007588154554
 20
3241.250431924253
 30
0.0
 11
-2405.000758815456
 21
3241.250431924253
 31
0.0
  0
LINE
  5
4E
330
1F
100
AcDbEntity
  8
F-1
  6
JWW_DASHED1
 62
     7
370
     9
100
AcDbLine
 10
-155.0007588154554
 20
3085.000421936448
 30
0.0
 11
-2405.000758815456
 21
3085.000421936448
 31
0.0
  0
LINE
  5
4F
330
1F
100
AcDbEntity
  8
F-1
  6
JWW_DASHED1
 62
     7
370
     9
100
AcDbLine
 10
-155.0007588154554
 20
2928.750411948643
 30
0.0
 11
-2405.000758815456
 21
2928.750411948643
 31
0.0
  0
LINE
  5
50
330
1F
100
AcDbEntity
  8
F-1
  6
JWW_DASHED1
 62
     7
370
     9
100
AcDbLine
 10
-155.0007588154554
 20
2772.500401960837
 30
0.0
 11
-2405.000758815456
 21
2772.500401960837
 31
0.0
  0
LINE
  5
51
330
1F
100
AcDbEntity
  8
F-1
  6
JWW_DASHED1
 62
     7
370
     9
100
AcDbLine
 10
-155.0007588154554
 20
2616.250391973032
 30
0.0
 11
-2405.000758815456
 21
2616.250391973032
 31
0.0
  0
LINE
  5
52
330
1F
100
AcDbEntity
  8
F-0
  6
JWW_HOJO
 62
     7
370
     9
100
AcDbLine
 10
-210.0001237199109
 20
-3795.000003092998
 30
0.0
 11
-210.0001237199109
 21
-4195.000008247994
 31
0.0
  0
LINE
  5
53
330
1F
100
AcDbEntity
  8
F-0
  6
JWW_HOJO
 62
     7
370
     9
100
AcDbLine
 10
-5247.547376752838
 20
-3795.000003092999
 30
0.0
 11
-5247.547376752838
 21
-4205.000164959882
 31
0.0
  0
LINE
  5
54
330
1F
100
AcDbEntity
  8
F-1
  6
Continuous
 62
   200
370
    20
100
AcDbLine
 10
5699.998762800888
 20
-3790.000017526987
 30
0.0
 11
-5999.999752560178
 21
-3790.000017526987
 31
0.0
  0
LINE
  5
55
330
1F
100
AcDbEntity
  8
F-1
  6
Continuous
 62
   200
370
    20
100
AcDbLine
 10
5699.998762800888
 20
-3795.000003092998
 30
0.0
 11
-5999.999752560178
 21
-3795.000003092998
 31
0.0
  0
LINE
  5
56
330
1F
100
AcDbEntity
  8
F-0
  6
JWW_HOJO
 62
     7
370
     9
100
AcDbLine
 10
4279.999224688556
 20
-3795.000003092998
 30
0.0
 11
4279.999224688556
 21
-4195.000008247994
 31
0.0
  0
LINE
  5
57
330
1F
100
AcDbEntity
  8
F-0
  6
JWW_HOJO
 62
     7
370
     9
100
AcDbLine
 10
-60.0001237199109
 20
-3795.000003092998
 30
0.0
 11
-60.0001237199109
 21
-4195.000008247994
 31
0.0
  0
LINE
  5
58
330
1F
100
AcDbEntity
  8
F-0
  6
JWW_HOJO
 62
     7
370
     9
100
AcDbLine
 10
2779.998729808911
 20
-3795.000003092998
 30
0.0
 11
2779.998729808911
 21
-4195.000008247994
 31
0.0
  0
LINE
  5
59
330
1F
100
AcDbEntity
  8
F-0
  6
JWW_HOJO
 62
     7
370
     9
100
AcDbLine
 10
-149.9999889439155
 20
-3849.999737218109
 30
0.0
 11
5689.999112024728
 21
-3850.005165429218
 31
0.0
  0
LINE
  5
5A
330
1F
100
AcDbEntity
  8
F-0
  6
JWW_HOJO
 62
     7
370
     9
100
AcDbLine
 10
-150.0000725978671
 20
-3939.99973721807
 30
0.0
 11
5689.999028370777
 21
-3940.005165429179
 31
0.0
  0
LINE
  5
5B
330
1F
100
AcDbEntity
  8
F-0
  6
JWW_HOJO
 62
     7
370
     9
100
AcDbLine
 10
-150.0001748415872
 20
-4049.999739778022
 30
0.0
 11
5689.998926127057
 21
-4050.005167989131
 31
0.0
  0
LINE
  5
5C
330
1F
100
AcDbEntity
  8
F-0
  6
JWW_HOJO
 62
     7
370
     9
100
AcDbLine
 10
-150.0002584955388
 20
-4139.999739777983
 30
0.0
 11
5689.998842473105
 21
-4140.005167989091
 31
0.0
  0
LINE
  5
5D
330
1F
100
AcDbEntity
  8
F-0
  6
JWW_HOJO
 62
     7
370
     9
100
AcDbLine
 10
-5989.999990205507
 20
-4084.99993607839
 30
0.0
 11
-150.0001237199109
 21
-4084.99993607839
 31
0.0
  0
LINE
  5
5E
330
1F
100
AcDbEntity
  8
F-0
  6
JWW_HOJO
 62
     7
370
     9
100
AcDbLine
 10
-5989.999990205507
 20
-3904.99993607839
 30
0.0
 11
-150.0001237199109
 21
-3904.99993607839
 31
0.0
  0
LINE
  5
5F
330
1F
100
AcDbEntity
  8
F-0
  6
JWW_HOJO
 62
     7
370
     9
100
AcDbLine
 10
-5989.999990205507
 20
-3994.99993607839
 30
0.0
 11
-150.0001237199109
 21
-3994.99993607839
 31
0.0
  0
LINE
  5
60
330
1F
100
AcDbEntity
  8
F-1
  6
Continuous
 62
   200
370
    20
100
AcDbLine
 10
-150.0001237199109
 20
-3994.999936078046
 30
0.0
 11
5689.998977248734
 21
-3995.005364289155
 31
0.0
  0
LINE
  5
61
330
1F
100
AcDbEntity
  8
F-1
  6
Continuous
 62
   200
370
    20
100
AcDbLine
 10
-150.0001237199109
 20
-3795.000003092998
 30
0.0
 11
-150.0001237199109
 21
-4195.000008247994
 31
0.0
  0
LINE
  5
62
330
1F
100
AcDbEntity
  8
F-1
  6
Continuous
 62
   200
370
    20
100
AcDbLine
 10
2689.998729808911
 20
-3795.000003092998
 30
0.0
 11
2689.998729808911
 21
-4195.000008247994
 31
0.0
  0
LINE
  5
63
330
1F
100
AcDbEntity
  8
F-1
  6
Continuous
 62
   200
370
    20
100
AcDbLine
 10
4189.999224688556
 20
-3795.000003092998
 30
0.0
 11
4189.999224688556
 21
-4195.000008247994
 31
0.0
  0
LINE
  5
64
330
1F
100
AcDbEntity
  8
F-1
  6
Continuous
 62
   200
370
    20
100
AcDbLine
 10
5699.998762800888
 20
-4195.000008247994
 30
0.0
 11
-5999.999752560178
 21
-4195.000008247994
 31
0.0
  0
LINE
  5
65
330
1F
100
AcDbEntity
  8
F-1
  6
Continuous
 62
   200
370
    20
100
AcDbLine
 10
5699.998762800888
 20
-4199.999993814004
 30
0.0
 11
-5999.999752560178
 21
-4199.999993814004
 31
0.0
  0
LINE
  5
66
330
1F
100
AcDbEntity
  8
F-1
  6
Continuous
 62
   200
370
    20
100
AcDbLine
 10
5699.998762800888
 20
-4205.000002577498
 30
0.0
 11
-5999.999752560178
 21
-4205.000002577498
 31
0.0
  0
LINE
  5
67
330
1F
100
AcDbEntity
  8
F-0
  6
JWW_HOJO
 62
     7
370
     9
100
AcDbLine
 10
349.9999175200594
 20
-3795.000003092998
 30
0.0
 11
349.9999175200594
 21
-4195.000008247994
 31
0.0
  0
LINE
  5
68
330
1F
100
AcDbEntity
  8
F-0
  6
JWW_HOJO
 62
     7
370
     9
100
AcDbLine
 10
849.9995876002961
 20
-3795.000003092998
 30
0.0
 11
849.9995876002961
 21
-4195.000008247994
 31
0.0
  0
LINE
  5
69
330
1F
100
AcDbEntity
  8
0-0
  6
JWW_HOJO
 62
     7
370
     9
100
AcDbLine
 10
4294.999719568202
 20
4174.999769056164
 30
0.0
 11
4294.999719568202
 21
-3795.04830025338
 31
0.0
  0
LINE
  5
6A
330
1F
100
AcDbEntity
  8
F-0
  6
JWW_HOJO
 62
   120
370
     5
100
AcDbLine
 10
-5989.99959584829
 20
3947.500379407728
 30
0.0
 11
5690.337474926098
 21
3947.500379407728
 31
0.0
  0
LINE
  5
6B
330
1F
100
AcDbEntity
  8
F-1
  6
Continuous
 62
     7
370
     9
100
AcDbLine
 10
4264.999719568202
 20
4174.999769056164
 30
0.0
 11
4264.999719568202
 21
-3795.04830025338
 31
0.0
  0
LINE
  5
6C
330
1F
100
AcDbEntity
  8
F-1
  6
Continuous
 62
     7
370
     9
100
AcDbLine
 10
3439.999719568202
 20
3947.452128642314
 30
0.0
 11
4264.999719568202
 21
3947.452128642314
 31
0.0
  0
LINE
  5
6D
330
1F
100
AcDbEntity
  8
0-0
  6
JWW_HOJO
 62
     7
370
     9
100
AcDbLine
 10
-1550.000758815456
 20
4175.048019821578
 30
0.0
 11
-1550.000758815456
 21
-3795.000049487966
 31
0.0
  0
LINE
  5
6E
330
1F
100
AcDbEntity
  8
F-1
  6
Continuous
 62
     7
370
     9
100
AcDbLine
 10
-2405.000758815456
 20
3947.500379407728
 30
0.0
 11
-1580.000758815456
 21
3947.500379407728
 31
0.0
  0
LINE
  5
6F
330
1F
100
AcDbEntity
  8
F-0
  6
JWW_HOJO
 62
     7
370
     9
100
AcDbLine
 10
2172.499156642605
 20
3710.000461887669
 30
0.0
 11
2172.499156642605
 21
-3790.000017526987
 31
0.0
  0
LINE
  5
70
330
1F
100
AcDbEntity
  8
F-1
  6
Continuous
 62
   200
370
    20
100
AcDbLine
 10
5699.998762800888
 20
3720.000247440669
 30
0.0
 11
-5999.999752560178
 21
3720.000247440669
 31
0.0
  0
LINE
  5
71
330
1F
100
AcDbEntity
  8
F-0
  6
JWW_HOJO
 62
     7
370
     9
100
AcDbLine
 10
-3672.500393841717
 20
3710.000461887669
 30
0.0
 11
-3672.500393841717
 21
-3790.000017526987
 31
0.0
  0
LINE
  5
72
330
1F
100
AcDbEntity
  8
F-1
  6
Continuous
 62
     7
370
     9
100
AcDbLine
 10
5209.999719568203
 20
4174.999769056164
 30
0.0
 11
5209.999719568203
 21
-3795.04830025338
 31
0.0
  0
LINE
  5
73
330
1F
100
AcDbEntity
  8
F-1
  6
Continuous
 62
     7
370
     9
100
AcDbLine
 10
-635.0007588154554
 20
4175.048019821578
 30
0.0
 11
-635.0007588154554
 21
-3795.000049487966
 31
0.0
  0
LINE
  5
74
330
1F
100
AcDbEntity
  8
F-1
  6
Continuous
 62
     7
370
     9
100
AcDbLine
 10
3439.999719568202
 20
4174.999769056166
 30
0.0
 11
3439.999719568202
 21
-3790.000017526987
 31
0.0
  0
LINE
  5
75
330
1F
100
AcDbEntity
  8
F-1
  6
Continuous
 62
     7
370
     9
100
AcDbLine
 10
-4940.000028867979
 20
4174.999769056166
 30
0.0
 11
-4940.000028867979
 21
-3790.000017526987
 31
0.0
  0
LINE
  5
76
330
1F
100
AcDbEntity
  8
F-1
  6
Continuous
 62
     7
370
     9
100
AcDbLine
 10
904.9995216163429
 20
4175.04801982158
 30
0.0
 11
904.9995216163429
 21
-3795.000049487965
 31
0.0
  0
LINE
  5
77
330
1F
100
AcDbEntity
  8
F-1
  6
Continuous
 62
     7
370
     9
100
AcDbLine
 10
-2405.000758815456
 20
4175.04801982158
 30
0.0
 11
-2405.000758815456
 21
-3795.000049487965
 31
0.0
  0
LINE
  5
78
330
1F
100
AcDbEntity
  8
F-1
  6
Continuous
 62
   200
370
    20
100
AcDbLine
 10
5699.998762800888
 20
3710.000461887669
 30
0.0
 11
-5999.999752560178
 21
3710.000461887669
 31
0.0
  0
LINE
  5
79
330
1F
100
AcDbEntity
  8
F-1
  6
Continuous
 62
   200
370
    20
100
AcDbLine
 10
-155.0007588154554
 20
4175.04801982158
 30
0.0
 11
-155.0007588154554
 21
-3795.000049487965
 31
0.0
  0
LINE
  5
7A
330
1F
100
AcDbEntity
  8
F-1
  6
Continuous
 62
   200
370
    20
100
AcDbLine
 10
-145.0009732633023
 20
4175.04801982158
 30
0.0
 11
-145.0009732633023
 21
-3795.000049487965
 31
0.0
  0
LINE
  5
7B
330
1F
100
AcDbEntity
  8
F-1
  6
Continuous
 62
   200
370
    20
100
AcDbLine
 10
-150.0008660393789
 20
4174.999769056166
 30
0.0
 11
-150.0008660393789
 21
-3795.000049487965
 31
0.0
  0
LINE
  5
7C
330
1F
100
AcDbEntity
  8
F-1
  6
Continuous
 62
   200
370
    20
100
AcDbLine
 10
5689.998977248734
 20
4174.999769056166
 30
0.0
 11
5689.998977248734
 21
-4205.000164959882
 31
0.0
  0
LINE
  5
7D
330
1F
100
AcDbEntity
  8
F-1
  6
Continuous
 62
   200
370
    20
100
AcDbLine
 10
5694.998498865077
 20
4174.999769056166
 30
0.0
 11
5694.998498865077
 21
-4205.000164959882
 31
0.0
  0
LINE
  5
7E
330
1F
100
AcDbEntity
  8
F-1
  6
Continuous
 62
   200
370
    20
100
AcDbLine
 10
-5994.999975771518
 20
4174.999769056166
 30
0.0
 11
-5994.999975771518
 21
-4205.000164959882
 31
0.0
  0
LINE
  5
7F
330
1F
100
AcDbEntity
  8
F-1
  6
Continuous
 62
   200
370
    20
100
AcDbLine
 10
-5999.999752560178
 20
4169.999505120355
 30
0.0
 11
5699.998762800888
 21
4169.999505120355
 31
0.0
  0
LINE
  5
80
330
1F
100
AcDbEntity
  8
F-1
  6
Continuous
 62
   200
370
    20
100
AcDbLine
 10
-5999.999752560178
 20
4164.999983504013
 30
0.0
 11
5699.998762800888
 21
4164.999983504013
 31
0.0
  0
LINE
  5
81
330
1F
100
AcDbEntity
  8
F-1
  6
Continuous
 62
   200
370
    20
100
AcDbLine
 10
-5989.999990205507
 20
4174.999769056166
 30
0.0
 11
-5989.999990205507
 21
-4205.000164959882
 31
0.0
  0
LINE
  5
82
330
1F
100
AcDbEntity
  8
F-1
  6
Continuous
 62
   200
370
    20
100
AcDbLine
 10
-5999.99998453501
 20
4174.999769056166
 30
0.0
 11
-5999.99998453501
 21
-4205.000164959882
 31
0.0
  0
LINE
  5
83
330
1F
100
AcDbEntity
  8
F-1
  6
Continuous
 62
   200
370
    20
100
AcDbLine
 10
5699.998762800888
 20
4174.999769056166
 30
0.0
 11
5699.998762800888
 21
-4205.000164959882
 31
0.0
  0
LINE
  5
84
330
1F
100
AcDbEntity
  8
F-1
  6
Continuous
 62
   200
370
    20
100
AcDbLine
 10
-5999.999752560178
 20
4174.999769056166
 30
0.0
 11
5699.998762800888
 21
4174.999769056166
 31
0.0
  0
LINE
  5
85
330
1F
100
AcDbEntity
  8
F-0
  6
JWW_HOJO
 62
   120
370
     5
100
AcDbLine
 10
5999.999010240709
 20
-4455.0
 30
0.0
 11
-6300.0
 21
-4455.0
 31
0.0
  0
LINE
  5
86
330
1F
100
AcDbEntity
  8
F-0
  6
JWW_HOJO
 62
   120
370
     5
100
AcDbLine
 10
5999.999010240709
 20
4424.999604096284
 30
0.0
 11
5999.999010240709
 21
-4455.0
 31
0.0
  0
LINE
  5
87
330
1F
100
AcDbEntity
  8
F-0
  6
JWW_HOJO
 62
   120
370
     5
100
AcDbLine
 10
-6300.0
 20
-4455.0
 30
0.0
 11
-6300.0
 21
4424.999604096284
 31
0.0
  0
LINE
  5
88
330
1F
100
AcDbEntity
  8
F-0
  6
JWW_HOJO
 62
   120
370
     5
100
AcDbLine
 10
-6300.0
 20
4424.999604096284
 30
0.0
 11
5999.999010240709
 21
4424.999604096284
 31
0.0
  0
LINE
  5
89
330
1F
100
AcDbEntity
  8
F-0
  6
JWW_HOJO
 62
     7
370
     9
100
AcDbLine
 10
-5839.999982473011
 20
4164.999983504013
 30
0.0
 11
-5839.999982473011
 21
-3785.470894478463
 31
0.0
  0
LINE
  5
8A
330
1F
100
AcDbEntity
  8
F-0
  6
JWW_HOJO
 62
     7
370
     9
100
AcDbLine
 10
-5989.999224688556
 20
3085.000421936447
 30
0.0
 11
5689.998977248735
 21
3085.000421936447
 31
0.0
  0
LINE
  5
8B
330
1F
100
AcDbEntity
  8
F-0
  6
JWW_HOJO
 62
     7
370
     9
100
AcDbLine
 10
-5989.999224688556
 20
585.0002621315618
 30
0.0
 11
5689.998977248735
 21
585.0002621315618
 31
0.0
  0
LINE
  5
8C
330
1F
100
AcDbEntity
  8
F-0
  6
JWW_HOJO
 62
     7
370
     9
100
AcDbLine
 10
-5989.999224688556
 20
-664.9998177708811
 30
0.0
 11
5689.998977248735
 21
-664.9998177708811
 31
0.0
  0
LINE
  5
8D
330
1F
100
AcDbEntity
  8
F-0
  6
JWW_HOJO
 62
     7
370
     9
100
AcDbLine
 10
-5989.999224688556
 20
-3164.999977575766
 30
0.0
 11
5689.998977248735
 21
-3164.999977575766
 31
0.0
  0
LINE
  5
8E
330
1F
100
AcDbEntity
  8
F-1
  6
JWW_DASHED1
 62
     7
370
     9
100
AcDbLine
 10
-155.0007588154554
 20
2147.500362009616
 30
0.0
 11
-2405.000758815456
 21
2147.500362009616
 31
0.0
  0
LINE
  5
8F
330
1F
100
AcDbEntity
  8
F-1
  6
JWW_DASHED1
 62
     7
370
     9
100
AcDbLine
 10
-155.0007588154554
 20
1991.25035202181
 30
0.0
 11
-2405.000758815456
 21
1991.25035202181
 31
0.0
  0
LINE
  5
90
330
1F
100
AcDbEntity
  8
F-1
  6
JWW_DASHED1
 62
     7
370
     9
100
AcDbLine
 10
-155.0007588154554
 20
1678.7503320462
 30
0.0
 11
-2405.000758815456
 21
1678.7503320462
 31
0.0
  0
LINE
  5
91
330
1F
100
AcDbEntity
  8
F-1
  6
JWW_DASHED1
 62
     7
370
     9
100
AcDbLine
 10
-155.0007588154554
 20
1522.500322058395
 30
0.0
 11
-2405.000758815456
 21
1522.500322058395
 31
0.0
  0
LINE
  5
92
330
1F
100
AcDbEntity
  8
F-1
  6
JWW_DASHED1
 62
     7
370
     9
100
AcDbLine
 10
-155.0007588154554
 20
1366.250312070589
 30
0.0
 11
-2405.000758815456
 21
1366.250312070589
 31
0.0
  0
LINE
  5
93
330
1F
100
AcDbEntity
  8
F-1
  6
JWW_DASHED1
 62
     7
370
     9
100
AcDbLine
 10
-155.0007588154554
 20
897.5002821071728
 30
0.0
 11
-2405.000758815456
 21
897.5002821071728
 31
0.0
  0
LINE
  5
94
330
1F
100
AcDbEntity
  8
F-1
  6
JWW_DASHED1
 62
     7
370
     9
100
AcDbLine
 10
-155.0007588154554
 20
741.2502721193675
 30
0.0
 11
-2405.000758815456
 21
741.2502721193675
 31
0.0
  0
LINE
  5
95
330
1F
100
AcDbEntity
  8
F-1
  6
JWW_DASHED1
 62
     7
370
     9
100
AcDbLine
 10
-155.0007588154554
 20
585.0002621315623
 30
0.0
 11
-2405.000758815456
 21
585.0002621315623
 31
0.0
  0
LINE
  5
96
330
1F
100
AcDbEntity
  8
F-1
  6
JWW_DASHED1
 62
     7
370
     9
100
AcDbLine
 10
-155.0007588154554
 20
428.7502521437571
 30
0.0
 11
-2405.000758815456
 21
428.7502521437571
 31
0.0
  0
LINE
  5
97
330
1F
100
AcDbEntity
  8
F-1
  6
JWW_DASHED1
 62
     7
370
     9
100
AcDbLine
 10
-155.0007588154554
 20
272.5002421559519
 30
0.0
 11
-2405.000758815456
 21
272.5002421559519
 31
0.0
  0
LINE
  5
98
330
1F
100
AcDbEntity
  8
F-1
  6
JWW_DASHED1
 62
     7
370
     9
100
AcDbLine
 10
-155.0007588154554
 20
116.2502321681467
 30
0.0
 11
-2405.000758815456
 21
116.2502321681467
 31
0.0
  0
LINE
  5
99
330
1F
100
AcDbEntity
  8
F-1
  6
JWW_DASHED1
 62
     7
370
     9
100
AcDbLine
 10
-155.0007588154554
 20
-352.4997977952702
 30
0.0
 11
-2405.000758815456
 21
-352.4997977952702
 31
0.0
  0
LINE
  5
9A
330
1F
100
AcDbEntity
  8
F-1
  6
JWW_DASHED1
 62
     7
370
     9
100
AcDbLine
 10
-155.0007588154554
 20
-508.7498077830754
 30
0.0
 11
-2405.000758815456
 21
-508.7498077830754
 31
0.0
  0
LINE
  5
9B
330
1F
100
AcDbEntity
  8
F-1
  6
JWW_DASHED1
 62
     7
370
     9
100
AcDbLine
 10
-155.0007588154554
 20
-664.9998177708807
 30
0.0
 11
-2405.000758815456
 21
-664.9998177708807
 31
0.0
  0
LINE
  5
9C
330
1F
100
AcDbEntity
  8
F-1
  6
JWW_DASHED1
 62
     7
370
     9
100
AcDbLine
 10
-155.0007588154554
 20
-821.2498277586859
 30
0.0
 11
-2405.000758815456
 21
-821.2498277586859
 31
0.0
  0
LINE
  5
9D
330
1F
100
AcDbEntity
  8
F-1
  6
JWW_DASHED1
 62
     7
370
     9
100
AcDbLine
 10
-155.0007588154554
 20
-977.499837746491
 30
0.0
 11
-2405.000758815456
 21
-977.499837746491
 31
0.0
  0
LINE
  5
9E
330
1F
100
AcDbEntity
  8
F-1
  6
JWW_DASHED1
 62
     7
370
     9
100
AcDbLine
 10
-155.0007588154554
 20
-1133.749847734296
 30
0.0
 11
-2405.000758815456
 21
-1133.749847734296
 31
0.0
  0
LINE
  5
9F
330
1F
100
AcDbEntity
  8
F-1
  6
JWW_DASHED1
 62
     7
370
     9
100
AcDbLine
 10
-155.0007588154554
 20
-1758.749887685518
 30
0.0
 11
-2405.000758815456
 21
-1758.749887685518
 31
0.0
  0
LINE
  5
A0
330
1F
100
AcDbEntity
  8
F-1
  6
JWW_DASHED1
 62
     7
370
     9
100
AcDbLine
 10
-155.0007588154554
 20
-2071.249907661128
 30
0.0
 11
-2405.000758815456
 21
-2071.249907661128
 31
0.0
  0
LINE
  5
A1
330
1F
100
AcDbEntity
  8
F-1
  6
JWW_DASHED1
 62
     7
370
     9
100
AcDbLine
 10
-155.0007588154554
 20
-2227.499917648934
 30
0.0
 11
-2405.000758815456
 21
-2227.499917648934
 31
0.0
  0
LINE
  5
A2
330
1F
100
AcDbEntity
  8
F-1
  6
JWW_DASHED1
 62
     7
370
     9
100
AcDbLine
 10
-155.0007588154554
 20
-2383.749927636739
 30
0.0
 11
-2405.000758815456
 21
-2383.749927636739
 31
0.0
  0
LINE
  5
A3
330
1F
100
AcDbEntity
  8
F-1
  6
JWW_DASHED1
 62
     7
370
     9
100
AcDbLine
 10
-155.0007588154554
 20
-3008.749967587961
 30
0.0
 11
-2405.000758815456
 21
-3008.749967587961
 31
0.0
  0
LINE
  5
A4
330
1F
100
AcDbEntity
  8
F-1
  6
JWW_DASHED1
 62
     7
370
     9
100
AcDbLine
 10
-155.0007588154554
 20
-3164.999977575766
 30
0.0
 11
-2405.000758815456
 21
-3164.999977575766
 31
0.0
  0
LINE
  5
A5
330
1F
100
AcDbEntity
  8
F-1
  6
JWW_DASHED1
 62
     7
370
     9
100
AcDbLine
 10
-155.0007588154554
 20
-3321.249987563571
 30
0.0
 11
-2405.000758815456
 21
-3321.249987563571
 31
0.0
  0
LINE
  5
A6
330
1F
100
AcDbEntity
  8
F-1
  6
JWW_DASHED1
 62
     7
370
     9
100
AcDbLine
 10
-155.0007588154554
 20
-3477.499997551376
 30
0.0
 11
-2405.000758815456
 21
-3477.499997551376
 31
0.0
  0
LINE
  5
A7
330
1F
100
AcDbEntity
  8
F-1
  6
JWW_DASHED1
 62
     7
370
     9
100
AcDbLine
 10
-155.0007588154554
 20
-3633.750007539181
 30
0.0
 11
-2405.000758815456
 21
-3633.750007539181
 31
0.0
  0
LINE
  5
A8
330
1F
100
AcDbEntity
  8
F-1
  6
JWW_DASHED1
 62
     7
370
     9
100
AcDbLine
 10
5689.999719568203
 20
3397.500441912058
 30
0.0
 11
3439.999719568202
 21
3397.500441912058
 31
0.0
  0
LINE
  5
A9
330
1F
100
AcDbEntity
  8
F-1
  6
JWW_DASHED1
 62
     7
370
     9
100
AcDbLine
 10
5689.999719568203
 20
3241.250431924253
 30
0.0
 11
3439.999719568202
 21
3241.250431924253
 31
0.0
  0
LINE
  5
AA
330
1F
100
AcDbEntity
  8
F-1
  6
JWW_DASHED1
 62
     7
370
     9
100
AcDbLine
 10
5689.999719568203
 20
3085.000421936448
 30
0.0
 11
3439.999719568202
 21
3085.000421936448
 31
0.0
  0
LINE
  5
AB
330
1F
100
AcDbEntity
  8
F-1
  6
JWW_DASHED1
 62
     7
370
     9
100
AcDbLine
 10
5689.999719568203
 20
2928.750411948643
 30
0.0
 11
3439.999719568202
 21
2928.750411948643
 31
0.0
  0
LINE
  5
AC
330
1F
100
AcDbEntity
  8
F-1
  6
JWW_DASHED1
 62
     7
370
     9
100
AcDbLine
 10
5689.999719568203
 20
2772.500401960837
 30
0.0
 11
3439.999719568202
 21
2772.500401960837
 31
0.0
  0
LINE
  5
AD
330
1F
100
AcDbEntity
  8
F-1
  6
JWW_DASHED1
 62
     7
370
     9
100
AcDbLine
 10
5689.999719568203
 20
2616.250391973032
 30
0.0
 11
3439.999719568202
 21
2616.250391973032
 31
0.0
  0
LINE
  5
AE
330
1F
100
AcDbEntity
  8
F-1
  6
JWW_DASHED1
 62
     7
370
     9
100
AcDbLine
 10
5689.999719568203
 20
2147.500362009616
 30
0.0
 11
3439.999719568202
 21
2147.500362009616
 31
0.0
  0
LINE
  5
AF
330
1F
100
AcDbEntity
  8
F-1
  6
JWW_DASHED1
 62
     7
370
     9
100
AcDbLine
 10
5689.999719568203
 20
1991.25035202181
 30
0.0
 11
3439.999719568202
 21
1991.25035202181
 31
0.0
  0
LINE
  5
B0
330
1F
100
AcDbEntity
  8
F-1
  6
JWW_DASHED1
 62
     7
370
     9
100
AcDbLine
 10
5689.999719568203
 20
1835.000342034005
 30
0.0
 11
3439.999719568202
 21
1835.000342034005
 31
0.0
  0
LINE
  5
B1
330
1F
100
AcDbEntity
  8
F-1
  6
JWW_DASHED1
 62
     7
370
     9
100
AcDbLine
 10
5689.999719568203
 20
1678.7503320462
 30
0.0
 11
3439.999719568202
 21
1678.7503320462
 31
0.0
  0
LINE
  5
B2
330
1F
100
AcDbEntity
  8
F-1
  6
JWW_DASHED1
 62
     7
370
     9
100
AcDbLine
 10
5689.999719568203
 20
1522.500322058395
 30
0.0
 11
3439.999719568202
 21
1522.500322058395
 31
0.0
  0
LINE
  5
B3
330
1F
100
AcDbEntity
  8
F-1
  6
JWW_DASHED1
 62
     7
370
     9
100
AcDbLine
 10
5689.999719568203
 20
1366.250312070589
 30
0.0
 11
3439.999719568202
 21
1366.250312070589
 31
0.0
  0
LINE
  5
B4
330
1F
100
AcDbEntity
  8
F-1
  6
JWW_DASHED1
 62
     7
370
     9
100
AcDbLine
 10
5689.999719568203
 20
897.5002821071728
 30
0.0
 11
3439.999719568202
 21
897.5002821071728
 31
0.0
  0
LINE
  5
B5
330
1F
100
AcDbEntity
  8
F-1
  6
JWW_DASHED1
 62
     7
370
     9
100
AcDbLine
 10
5689.999719568203
 20
741.2502721193675
 30
0.0
 11
3439.999719568202
 21
741.2502721193675
 31
0.0
  0
LINE
  5
B6
330
1F
100
AcDbEntity
  8
F-1
  6
JWW_DASHED1
 62
     7
370
     9
100
AcDbLine
 10
5689.999719568203
 20
585.0002621315623
 30
0.0
 11
3439.999719568202
 21
585.0002621315623
 31
0.0
  0
LINE
  5
B7
330
1F
100
AcDbEntity
  8
F-1
  6
JWW_DASHED1
 62
     7
370
     9
100
AcDbLine
 10
5689.999719568203
 20
428.7502521437571
 30
0.0
 11
3439.999719568202
 21
428.7502521437571
 31
0.0
  0
LINE
  5
B8
330
1F
100
AcDbEntity
  8
F-1
  6
JWW_DASHED1
 62
     7
370
     9
100
AcDbLine
 10
5689.999719568203
 20
272.5002421559519
 30
0.0
 11
3439.999719568202
 21
272.5002421559519
 31
0.0
  0
LINE
  5
B9
330
1F
100
AcDbEntity
  8
F-1
  6
JWW_DASHED1
 62
     7
370
     9
100
AcDbLine
 10
5689.999719568203
 20
116.2502321681467
 30
0.0
 11
3439.999719568202
 21
116.2502321681467
 31
0.0
  0
LINE
  5
BA
330
1F
100
AcDbEntity
  8
F-1
  6
JWW_DASHED1
 62
     7
370
     9
100
AcDbLine
 10
5689.999719568203
 20
-352.4997977952702
 30
0.0
 11
3439.999719568202
 21
-352.4997977952702
 31
0.0
  0
LINE
  5
BB
330
1F
100
AcDbEntity
  8
F-1
  6
JWW_DASHED1
 62
     7
370
     9
100
AcDbLine
 10
5689.999719568203
 20
-508.7498077830754
 30
0.0
 11
3439.999719568202
 21
-508.7498077830754
 31
0.0
  0
LINE
  5
BC
330
1F
100
AcDbEntity
  8
F-1
  6
JWW_DASHED1
 62
     7
370
     9
100
AcDbLine
 10
5689.999719568203
 20
-664.9998177708807
 30
0.0
 11
3439.999719568202
 21
-664.9998177708807
 31
0.0
  0
LINE
  5
BD
330
1F
100
AcDbEntity
  8
F-1
  6
JWW_DASHED1
 62
     7
370
     9
100
AcDbLine
 10
5689.999719568203
 20
-821.2498277586859
 30
0.0
 11
3439.999719568202
 21
-821.2498277586859
 31
0.0
  0
LINE
  5
BE
330
1F
100
AcDbEntity
  8
F-1
  6
JWW_DASHED1
 62
     7
370
     9
100
AcDbLine
 10
5689.999719568203
 20
-977.499837746491
 30
0.0
 11
3439.999719568202
 21
-977.499837746491
 31
0.0
  0
LINE
  5
BF
330
1F
100
AcDbEntity
  8
F-1
  6
JWW_DASHED1
 62
     7
370
     9
100
AcDbLine
 10
5689.999719568203
 20
-1133.749847734296
 30
0.0
 11
3439.999719568202
 21
-1133.749847734296
 31
0.0
  0
LINE
  5
C0
330
1F
100
AcDbEntity
  8
F-1
  6
JWW_DASHED1
 62
     7
370
     9
100
AcDbLine
 10
5689.999719568203
 20
-1602.499877697713
 30
0.0
 11
3439.999719568202
 21
-1602.499877697713
 31
0.0
  0
LINE
  5
C1
330
1F
100
AcDbEntity
  8
F-1
  6
JWW_DASHED1
 62
     7
370
     9
100
AcDbLine
 10
5689.999719568203
 20
-1758.749887685518
 30
0.0
 11
3439.999719568202
 21
-1758.749887685518
 31
0.0
  0
LINE
  5
C2
330
1F
100
AcDbEntity
  8
F-1
  6
JWW_DASHED1
 62
     7
370
     9
100
AcDbLine
 10
5689.999719568203
 20
-1914.999897673323
 30
0.0
 11
3439.999719568202
 21
-1914.999897673323
 31
0.0
  0
LINE
  5
C3
330
1F
100
AcDbEntity
  8
F-1
  6
JWW_DASHED1
 62
     7
370
     9
100
AcDbLine
 10
5689.999719568203
 20
-2071.249907661128
 30
0.0
 11
3439.999719568202
 21
-2071.249907661128
 31
0.0
  0
LINE
  5
C4
330
1F
100
AcDbEntity
  8
F-1
  6
JWW_DASHED1
 62
     7
370
     9
100
AcDbLine
 10
5689.999719568203
 20
-2227.499917648934
 30
0.0
 11
3439.999719568202
 21
-2227.499917648934
 31
0.0
  0
LINE
  5
C5
330
1F
100
AcDbEntity
  8
F-1
  6
JWW_DASHED1
 62
     7
370
     9
100
AcDbLine
 10
5689.999719568203
 20
-2383.749927636739
 30
0.0
 11
3439.999719568202
 21
-2383.749927636739
 31
0.0
  0
LINE
  5
C6
330
1F
100
AcDbEntity
  8
F-1
  6
JWW_DASHED1
 62
     7
370
     9
100
AcDbLine
 10
5689.999719568203
 20
-2852.499957600156
 30
0.0
 11
3439.999719568202
 21
-2852.499957600156
 31
0.0
  0
LINE
  5
C7
330
1F
100
AcDbEntity
  8
F-1
  6
JWW_DASHED1
 62
     7
370
     9
100
AcDbLine
 10
5689.999719568203
 20
-3008.749967587961
 30
0.0
 11
3439.999719568202
 21
-3008.749967587961
 31
0.0
  0
LINE
  5
C8
330
1F
100
AcDbEntity
  8
F-1
  6
JWW_DASHED1
 62
     7
370
     9
100
AcDbLine
 10
5689.999719568203
 20
-3164.999977575766
 30
0.0
 11
3439.999719568202
 21
-3164.999977575766
 31
0.0
  0
LINE
  5
C9
330
1F
100
AcDbEntity
  8
F-1
  6
JWW_DASHED1
 62
     7
370
     9
100
AcDbLine
 10
5689.999719568203
 20
-3321.249987563571
 30
0.0
 11
3439.999719568202
 21
-3321.249987563571
 31
0.0
  0
LINE
  5
CA
330
1F
100
AcDbEntity
  8
F-1
  6
JWW_DASHED1
 62
     7
370
     9
100
AcDbLine
 10
5689.999719568203
 20
-3477.499997551376
 30
0.0
 11
3439.999719568202
 21
-3477.499997551376
 31
0.0
  0
LINE
  5
CB
330
1F
100
AcDbEntity
  8
F-1
  6
JWW_DASHED1
 62
     7
370
     9
100
AcDbLine
 10
5689.999719568203
 20
-3633.750007539181
 30
0.0
 11
3439.999719568202
 21
-3633.750007539181
 31
0.0
  0
LINE
  5
CC
330
1F
100
AcDbEntity
  8
F-1
  6
Continuous
 62
     7
370
     9
100
AcDbLine
 10
5699.998762800888
 20
2460.000381985226
 30
0.0
 11
-145.0009732633023
 21
2460.000381985226
 31
0.0
  0
LINE
  5
CD
330
1F
100
AcDbEntity
  8
F-1
  6
Continuous
 62
     7
370
     9
100
AcDbLine
 10
5699.998762800888
 20
-2539.999937624545
 30
0.0
 11
-145.0009732633023
 21
-2539.999937624545
 31
0.0
  0
LINE
  5
CE
330
1F
100
AcDbEntity
  8
F-1
  6
JWW_DASHED1
 62
     7
370
     9
100
AcDbLine
 10
5689.999719568203
 20
-196.249787807465
 30
0.0
 11
3439.999719568202
 21
-196.249787807465
 31
0.0
  0
LINE
  5
CF
330
1F
100
AcDbEntity
  8
F-1
  6
JWW_DASHED1
 62
     7
370
     9
100
AcDbLine
 10
5689.999719568203
 20
3553.750451899863
 30
0.0
 11
3439.999719568202
 21
3553.750451899863
 31
0.0
  0
LINE
  5
D0
330
1F
100
AcDbEntity
  8
F-1
  6
JWW_DASHED1
 62
     7
370
     9
100
AcDbLine
 10
5689.999719568203
 20
-2696.24994761235
 30
0.0
 11
3439.999719568202
 21
-2696.24994761235
 31
0.0
  0
MTEXT
  5
D1
330
1F
100
AcDbEntity
  8
F-1
  6
Continuous
 62
     7
370
     0
100
AcDbMText
 10
-2120.000758815456
 20
3984.82768145587
 30
0.0
 40
97.15499999999999
 41
255.0
 46
0.0
 71
     7
 72
     1
  1
{\fＭＳ ゴシック|b0|i0|c128|p49;寸法}
 73
     1
 44
1.0
  0
MTEXT
  5
D2
330
1F
100
AcDbEntity
  8
F-1
  6
Continuous
 62
     7
370
     0
100
AcDbMText
 10
-522.5007588154554
 20
3984.827681455869
 30
0.0
 40
97.15499999999999
 41
255.0
 46
0.0
 71
     7
 72
     1
  1
{\fＭＳ ゴシック|b0|i0|c128|p49;発注}
 73
     1
 44
1.0
  0
MTEXT
  5
D3
330
1F
100
AcDbEntity
  8
F-1
  6
Continuous
 62
     7
370
     0
100
AcDbMText
 10
3724.999719568202
 20
3984.82768145587
 30
0.0
 40
97.15499999999999
 41
255.0
 46
0.0
 71
     7
 72
     1
  1
{\fＭＳ ゴシック|b0|i0|c128|p49;寸法}
 73
     1
 44
1.0
  0
MTEXT
  5
D4
330
1F
100
AcDbEntity
  8
F-1
  6
Continuous
 62
     7
370
     0
100
AcDbMText
 10
5322.499719568203
 20
3984.779430690454
 30
0.0
 40
97.15499999999999
 41
255.0
 46
0.0
 71
     7
 72
     1
  1
{\fＭＳ ゴシック|b0|i0|c128|p49;発注}
 73
     1
 44
1.0
  0
MTEXT
  5
D5
330
1F
100
AcDbEntity
  8
F-1
  6
Continuous
 62
     7
370
     0
100
AcDbMText
 10
-1235.000758815456
 20
3876.077879407728
 30
0.0
 40
97.15499999999999
 41
255.0
 46
0.0
 71
     7
 72
     1
  1
{\fＭＳ ゴシック|b0|i0|c128|p49;品番}
 73
     1
 44
1.0
  0
MTEXT
  5
D6
330
1F
100
AcDbEntity
  8
F-1
  6
Continuous
 62
     7
370
     0
100
AcDbMText
 10
4609.999719568202
 20
3876.077879407728
 30
0.0
 40
97.15499999999999
 41
255.0
 46
0.0
 71
     7
 72
     1
  1
{\fＭＳ ゴシック|b0|i0|c128|p49;品番}
 73
     1
 44
1.0
  0
MTEXT
  5
D7
330
1F
100
AcDbEntity
  8
F-1
  6
Continuous
 62
     7
370
     0
100
AcDbMText
 10
-522.5007588154554
 20
3767.328077359584
 30
0.0
 40
97.15499999999999
 41
255.0
 46
0.0
 71
     7
 72
     1
  1
{\fＭＳ ゴシック|b0|i0|c128|p49;単位}
 73
     1
 44
1.0
  0
MTEXT
  5
D8
330
1F
100
AcDbEntity
  8
F-1
  6
Continuous
 62
     7
370
     0
100
AcDbMText
 10
5322.499719568203
 20
3767.27982659417
 30
0.0
 40
97.15499999999999
 41
255.0
 46
0.0
 71
     7
 72
     1
  1
{\fＭＳ ゴシック|b0|i0|c128|p49;単位}
 73
     1
 44
1.0
  0
MTEXT
  5
D9
330
1F
100
AcDbEntity
  8
F-1
  6
Continuous
 62
     7
370
     0
100
AcDbMText
 10
-2397.500758815456
 20
3748.040313424198
 30
0.0
 40
68.58
 41
810.0
 46
0.0
 71
     7
 72
     1
  1
{\fＭＳ ゴシック|b0|i0|c128|p49;長さ×幅×厚さ(㎜)}
 73
     1
 44
1.0
  0
MTEXT
  5
DA
330
1F
100
AcDbEntity
  8
F-1
  6
Continuous
 62
     7
370
     0
100
AcDbMText
 10
3447.499719568202
 20
3748.040313424198
 30
0.0
 40
68.58
 41
810.0
 46
0.0
 71
     7
 72
     1
  1
{\fＭＳ ゴシック|b0|i0|c128|p49;長さ×幅×厚さ(㎜)}
 73
     1
 44
1.0
  0
MTEXT
  5
DB
330
1F
100
AcDbEntity
  8
F-A
  6
Continuous
 62
     7
370
     0
100
AcDbMText
 10
-5659.999812358134
 20
3877.030379407729
 30
0.0
 40
99.06
 41
390.0
 46
0.0
 71
     7
 72
     1
  1
{\fＭＳ ゴシック|b0|i0|c128|p49;部材名}
 73
     1
 44
1.0
  0
MTEXT
  5
DC
330
1F
100
AcDbEntity
  8
F-A
  6
Continuous
 62
     7
370
     0
100
AcDbMText
 10
-3935.000393841717
 20
3877.506629407728
 30
0.0
 40
100.0125
 41
525.0
 46
0.0
 71
     7
 72
     1
  1
{\fＭＳ ゴシック|b0|i0|c128|p49;断面形状}
 73
     1
 44
1.0
  0
MTEXT
  5
DD
330
1F
100
AcDbEntity
  8
F-A
  6
Continuous
 62
     7
370
     0
100
AcDbMText
 10
179.9993814004438
 20
3877.030379407729
 30
0.0
 40
99.06
 41
390.0
 46
0.0
 71
     7
 72
     1
  1
{\fＭＳ ゴシック|b0|i0|c128|p49;部材名}
 73
     1
 44
1.0
  0
MTEXT
  5
DE
330
1F
100
AcDbEntity
  8
F-A
  6
Continuous
 62
     7
370
     0
100
AcDbMText
 10
1909.999991752006
 20
3877.50643145587
 30
0.0
 40
100.0125
 41
525.0
 46
0.0
 71
     7
 72
     1
  1
{\fＭＳ ゴシック|b0|i0|c128|p49;断面形状}
 73
     1
 44
1.0
  0
MTEXT
  5
DF
330
1F
100
AcDbEntity
  8
F-A
  6
Continuous
 62
     7
370
     0
100
AcDbMText
 10
-60.0001237199109
 20
-3887.139820871936
 30
0.0
 40
45.72
 41
180.0
 46
0.0
 71
     7
 72
     1
  1
{\fＭＳ ゴシック|b0|i0|c128|p49;図面名}
 73
     1
 44
1.0
  0
MTEXT
  5
E0
330
1F
100
AcDbEntity
  8
F-A
  6
Continuous
 62
     7
370
     0
100
AcDbMText
 10
2779.998729808911
 20
-3887.142460617774
 30
0.0
 40
45.72
 41
300.0
 46
0.0
 71
     7
 72
     1
  1
{\fＭＳ ゴシック|b0|i0|c128|p49;ＳＣＡＬＥ}
 73
     1
 44
1.0
  0
MTEXT
  5
E1
330
1F
100
AcDbEntity
  8
F-A
  6
Continuous
 62
     7
370
     0
100
AcDbMText
 10
4279.999224688556
 20
-3887.143854850754
 30
0.0
 40
45.72
 41
240.0
 46
0.0
 71
     7
 72
     1
  1
{\fＭＳ ゴシック|b0|i0|c128|p49;ＤＡＴＥ}
 73
     1
 44
1.0
  0
MTEXT
  5
E2
330
1F
100
AcDbEntity
  8
F-A
  6
Continuous
 62
     7
370
     0
100
AcDbMText
 10
1180.417701903719
 20
-3946.138161599839
 30
0.0
 40
77.724
 41
510.0
 46
0.0
 71
     7
 72
     1
  1
{\fＭＳ ゴシック|b0|i0|c128|p49;洋風造作材}
 73
     1
 44
1.0
  0
MTEXT
  5
E3
330
1F
100
AcDbEntity
  8
F-A
  6
Continuous
 62
     7
370
     0
100
AcDbMText
 10
349.9999175200594
 20
-3951.497291872503
 30
0.0
 40
68.58000000000001
 41
360.0
 46
0.0
 71
     7
 72
     1
  1
{\fＭＳ ゴシック|b0|i0|c128|p49;DOORETUS}
 73
     1
 44
1.0
  0
MTEXT
  5
E4
330
1F
100
AcDbEntity
  8
F-A
  6
Continuous
 62
     7
370
     0
100
AcDbMText
 10
2779.998729808911
 20
-4087.14246317786
 30
0.0
 40
45.72
 41
240.0
 46
0.0
 71
     7
 72
     1
  1
{\fＭＳ ゴシック|b0|i0|c128|p49;ＦＩＬＥ}
 73
     1
 44
1.0
  0
MTEXT
  5
E5
330
1F
100
AcDbEntity
  8
F-A
  6
Continuous
 62
     7
370
     0
100
AcDbMText
 10
4279.999224688556
 20
-4087.143857410839
 30
0.0
 40
45.72
 41
180.0
 46
0.0
 71
     7
 72
     1
  1
{\fＭＳ ゴシック|b0|i0|c128|p49;ＮＯ．}
 73
     1
 44
1.0
  0
MTEXT
  5
E6
330
1F
100
AcDbEntity
  8
F-A
  6
Continuous
 62
     7
370
     0
100
AcDbMText
 10
1234.998729808911
 20
-4096.140669266149
 30
0.0
 40
45.72
 41
120.0
 46
0.0
 71
     7
 72
     1
  1
{\fＭＳ ゴシック|b0|i0|c128|p49;株式}
 73
     1
 44
1.0
  0
MTEXT
  5
E7
330
1F
100
AcDbEntity
  8
F-A
  6
Continuous
 62
     7
370
     0
100
AcDbMText
 10
1444.998729808911
 20
-4164.281754523929
 30
0.0
 40
101.44125
 41
1065.0
 46
0.0
 71
     7
 72
     1
  1
{\fＭＳ ゴシック|b0|i0|c128|p49;ウッドワン・・・}
 73
     1
 44
1.0
  0
MTEXT
  5
E8
330
1F
100
AcDbEntity
  8
F-A
  6
Continuous
 62
     7
370
     0
100
AcDbMText
 10
1234.998729808911
 20
-4168.140669266187
 30
0.0
 40
45.72
 41
120.0
 46
0.0
 71
     7
 72
     1
  1
{\fＭＳ ゴシック|b0|i0|c128|p49;会社}
 73
     1
 44
1.0
  0
MTEXT
  5
E9
330
1F
100
AcDbEntity
  8
F-A
  6
Continuous
 62
     7
370
     0
100
AcDbMText
 10
5608.403311109712
 20
-4314.841256638534
 30
0.0
 40
68.58
 41
90.0
 46
0.0
 71
     7
 72
     1
  1
{\fＭＳ ゴシック|b0|i0|c128|p49;）}
 73
     1
 44
1.0
  0
MTEXT
  5
EA
330
1F
100
AcDbEntity
  8
F-A
  6
Continuous
 62
     7
370
     0
100
AcDbMText
 10
5190.195950842071
 20
-4316.235281487472
 30
0.0
 40
68.58
 41
45.0
 46
0.0
 71
     7
 72
     1
  1
{\fＭＳ ゴシック|b0|i0|c128|p49;,}
 73
     1
 44
1.0
  0
MTEXT
  5
EB
330
1F
100
AcDbEntity
  8
F-A
  6
Continuous
 62
     7
370
     0
100
AcDbMText
 10
4923.937261915373
 20
-4314.771804905898
 30
0.0
 40
74.295
 41
97.5
 46
0.0
 71
     7
 72
     1
  1
{\fＭＳ ゴシック|b0|i0|c128|p49;$y}
 73
     1
 44
1.0
  0
MTEXT
  5
EC
330
1F
100
AcDbEntity
  8
F-A
  6
Continuous
 62
     7
370
     0
100
AcDbMText
 10
5078.673982954195
 20
-4314.771804905898
 30
0.0
 40
74.295
 41
97.5
 46
0.0
 71
     7
 72
     1
  1
{\fＭＳ ゴシック|b0|i0|c128|p49;$m}
 73
     1
 44
1.0
  0
MTEXT
  5
ED
330
1F
100
AcDbEntity
  8
F-A
  6
Continuous
 62
     7
370
     0
100
AcDbMText
 10
5233.410715437103
 20
-4314.771804905898
 30
0.0
 40
74.295
 41
97.5
 46
0.0
 71
     7
 72
     1
  1
{\fＭＳ ゴシック|b0|i0|c128|p49;$d}
 73
     1
 44
1.0
  0
MTEXT
  5
EE
330
1F
100
AcDbEntity
  8
F-A
  6
Continuous
 62
     7
370
     0
100
AcDbMText
 10
5388.147447920011
 20
-4314.771804905898
 30
0.0
 40
74.295
 41
195.0
 46
0.0
 71
     7
 72
     1
  1
{\fＭＳ ゴシック|b0|i0|c128|p49;印刷}
 73
     1
 44
1.0
  0
MTEXT
  5
EF
330
1F
100
AcDbEntity
  8
F-A
  6
Continuous
 62
     7
370
     0
100
AcDbMText
 10
4784.033374252999
 20
-4319.023331185347
 30
0.0
 40
68.58
 41
90.0
 46
0.0
 71
     7
 72
     1
  1
{\fＭＳ ゴシック|b0|i0|c128|p49;（}
 73
     1
 44
1.0
  0
MTEXT
  5
F0
330
1F
100
AcDbEntity
  8
F-A
  6
Continuous
 62
     7
370
     0
100
AcDbMText
 10
5031.277143812345
 20
-4319.023331185347
 30
0.0
 40
68.58
 41
45.0
 46
0.0
 71
     7
 72
     1
  1
{\fＭＳ ゴシック|b0|i0|c128|p49;,}
 73
     1
 44
1.0
  0
LINE
  5
F1
330
1F
100
AcDbEntity
  8
F-1
  6
Continuous
 62
     7
370
     9
100
AcDbLine
 10
5699.998762800888
 20
1210.000302082783
 30
0.0
 11
-145.0009732633023
 21
1210.000302082783
 31
0.0
  0
LINE
  5
F2
330
1F
100
AcDbEntity
  8
F-1
  6
JWW_DASHED1
 62
     7
370
     9
100
AcDbLine
 10
5689.999719568203
 20
2303.750371997421
 30
0.0
 11
3439.999719568202
 21
2303.750371997421
 31
0.0
  0
LINE
  5
F3
330
1F
100
AcDbEntity
  8
F-1
  6
JWW_DASHED1
 62
     7
370
     9
100
AcDbLine
 10
5689.999719568203
 20
1053.750292094978
 30
0.0
 11
3439.999719568202
 21
1053.750292094978
 31
0.0
  0
LINE
  5
F4
330
1F
100
AcDbEntity
  8
F-1
  6
JWW_DASHED1
 62
     7
370
     9
100
AcDbLine
 10
5689.999719568203
 20
-1446.249867709908
 30
0.0
 11
3439.999719568202
 21
-1446.249867709908
 31
0.0
  0
MTEXT
  5
F5
330
1F
100
AcDbEntity
  8
F-A
  6
Continuous
 62
     7
370
     9
100
AcDbMText
 10
4936.24903358083
 20
-4147.857012699985
 30
0.0
 40
74.295
 41
97.5
 46
0.0
 71
     7
 72
     1
  1
{\fＭＳ ゴシック|b0|i0|c128|p49;01}
 73
     1
 44
1.0
  0
MTEXT
  5
F6
330
1F
100
AcDbEntity
  8
F-A
  6
Continuous
 62
     7
370
     0
100
AcDbMText
 10
3409.998977248734
 20
-3946.903115907308
 30
0.0
 40
76.19999999999999
 41
150.0
 46
0.0
 71
     7
 72
     1
  1
{\fＭＳ ゴシック|b0|i0|c128|p49;1/2}
 73
     1
 44
1.0
  0
LINE
  5
F7
330
1F
100
AcDbEntity
  8
F-1
  6
Continuous
 62
     7
370
     9
100
AcDbLine
 10
-155.0007588154554
 20
2460.000381985226
 30
0.0
 11
-5989.999990205507
 21
2460.000381985226
 31
0.0
  0
LINE
  5
F8
330
1F
100
AcDbEntity
  8
F-1
  6
Continuous
 62
     7
370
     9
100
AcDbLine
 10
-155.0007588154554
 20
1210.000302082783
 30
0.0
 11
-5989.999990205507
 21
1210.000302082783
 31
0.0
  0
LINE
  5
F9
330
1F
100
AcDbEntity
  8
F-1
  6
Continuous
 62
     7
370
     9
100
AcDbLine
 10
-155.0007588154554
 20
-39.99977781965939
 30
0.0
 11
-5989.999990205507
 21
-39.99977781965939
 31
0.0
  0
LWPOLYLINE
  5
FA
330
1F
100
AcDbEntity
  8
0-B
  6
Continuous
 62
     7
370
     9
100
AcDbPolyline
 90
        4
 70
     1
 43
3.0
 10
-3476.645546809215
 20
849.1420460811972
 42
0.4142135623731
 10
-3478.145546809215
 20
850.6420460811972
 42
0.4142135623731
 10
-3479.645546809215
 20
849.1420460811972
 42
0.4142135623731
 10
-3478.145546809215
 20
847.6420460811972
 42
0.4142135623731
  0
LINE
  5
FB
330
1F
100
AcDbEntity
  8
0-B
  6
Continuous
 62
   120
370
     5
100
AcDbLine
 10
-3478.145546809215
 20
849.1420460811972
 30
0.0
 11
-3553.145546809215
 21
849.1420460811972
 31
0.0
  0
LWPOLYLINE
  5
FC
330
1F
100
AcDbEntity
  8
0-B
  6
Continuous
 62
     7
370
     9
100
AcDbPolyline
 90
        4
 70
     1
 43
3.0
 10
-3626.645546809215
 20
159.1420460811968
 42
0.4142135623731
 10
-3628.145546809215
 20
160.6420460811968
 42
0.4142135623731
 10
-3629.645546809215
 20
159.1420460811968
 42
0.4142135623731
 10
-3628.145546809215
 20
157.6420460811968
 42
0.4142135623731
  0
LINE
  5
FD
330
1F
100
AcDbEntity
  8
0-B
  6
Continuous
 62
   120
370
     5
100
AcDbLine
 10
-3628.145546809215
 20
159.1420460811968
 30
0.0
 11
-3628.145546809215
 21
234.1420460811968
 31
0.0
  0
LINE
  5
FE
330
1F
100
AcDbEntity
  8
0-B
  6
Continuous
 62
   120
370
     5
100
AcDbLine
 10
-3808.145546809215
 20
159.1420460811968
 30
0.0
 11
-3628.145546809215
 21
159.1420460811968
 31
0.0
  0
LWPOLYLINE
  5
FF
330
1F
100
AcDbEntity
  8
0-B
  6
Continuous
 62
     7
370
     9
100
AcDbPolyline
 90
        4
 70
     1
 43
3.0
 10
-3806.645546809215
 20
159.1420460811968
 42
0.4142135623731
 10
-3808.145546809215
 20
160.6420460811968
 42
0.4142135623731
 10
-3809.645546809215
 20
159.1420460811968
 42
0.4142135623731
 10
-3808.145546809215
 20
157.6420460811968
 42
0.4142135623731
  0
LINE
  5
100
330
1F
100
AcDbEntity
  8
0-B
  6
Continuous
 62
   120
370
     5
100
AcDbLine
 10
-3808.145546809215
 20
159.1420460811968
 30
0.0
 11
-3808.145546809215
 21
234.1420460811968
 31
0.0
  0
LINE
  5
101
330
1F
100
AcDbEntity
  8
0-B
  6
Continuous
 62
   120
370
     5
100
AcDbLine
 10
-3478.145546809215
 20
849.1420460811972
 30
0.0
 11
-3478.145546809215
 21
309.1420460811968
 31
0.0
  0
LWPOLYLINE
  5
102
330
1F
100
AcDbEntity
  8
0-B
  6
Continuous
 62
     7
370
     9
100
AcDbPolyline
 90
        4
 70
     1
 43
3.0
 10
-3476.645546809215
 20
309.1420460811968
 42
0.4142135623731
 10
-3478.145546809215
 20
310.6420460811968
 42
0.4142135623731
 10
-3479.645546809215
 20
309.1420460811968
 42
0.4142135623731
 10
-3478.145546809215
 20
307.6420460811968
 42
0.4142135623731
  0
LINE
  5
103
330
1F
100
AcDbEntity
  8
0-B
  6
Continuous
 62
   120
370
     5
100
AcDbLine
 10
-3478.145546809215
 20
309.1420460811968
 30
0.0
 11
-3553.145546809215
 21
309.1420460811968
 31
0.0
  0
LINE
  5
104
330
1F
100
AcDbEntity
  8
0-B
  6
JWW_HOJO
 62
     7
370
     9
100
AcDbLine
 10
-3808.145546809215
 20
785.9328983218758
 30
0.0
 11
-3808.145546809215
 21
999.1420460811972
 31
0.0
  0
LINE
  5
105
330
1F
100
AcDbEntity
  8
0-B
  6
JWW_HOJO
 62
     7
370
     9
100
AcDbLine
 10
-3478.145546809215
 20
999.1420460811972
 30
0.0
 11
-3808.145546809215
 21
999.1420460811972
 31
0.0
  0
LINE
  5
106
330
1F
100
AcDbEntity
  8
0-B
  6
JWW_HOJO
 62
     7
370
     9
100
AcDbLine
 10
-3553.145546809215
 20
924.1420460811972
 30
0.0
 11
-3808.145546809215
 21
924.1420460811972
 31
0.0
  0
LINE
  5
107
330
1F
100
AcDbEntity
  8
0-B
  6
JWW_HOJO
 62
     7
370
     9
100
AcDbLine
 10
-3808.145546809215
 20
309.1420460811968
 30
0.0
 11
-3808.145546809215
 21
159.1420460811968
 31
0.0
  0
LINE
  5
108
330
1F
100
AcDbEntity
  8
0-B
  6
JWW_HOJO
 62
     7
370
     9
100
AcDbLine
 10
-3478.145546809215
 20
159.1420460811968
 30
0.0
 11
-3478.145546809215
 21
999.1420460811972
 31
0.0
  0
LINE
  5
109
330
1F
100
AcDbEntity
  8
0-B
  6
JWW_HOJO
 62
     7
370
     9
100
AcDbLine
 10
-3553.145546809215
 20
234.1420460811968
 30
0.0
 11
-3553.145546809215
 21
924.1420460811972
 31
0.0
  0
LINE
  5
10A
330
1F
100
AcDbEntity
  8
0-B
  6
JWW_HOJO
 62
     7
370
     9
100
AcDbLine
 10
-3553.145546809215
 20
234.1420460811968
 30
0.0
 11
-3808.145546809215
 21
234.1420460811968
 31
0.0
  0
LINE
  5
10B
330
1F
100
AcDbEntity
  8
0-B
  6
JWW_HOJO
 62
     7
370
     9
100
AcDbLine
 10
-3478.145546809215
 20
159.1420460811968
 30
0.0
 11
-3808.145546809215
 21
159.1420460811968
 31
0.0
  0
LINE
  5
10C
330
1F
100
AcDbEntity
  8
0-B
  6
JWW_HOJO
 62
     7
370
     9
100
AcDbLine
 10
-3808.145546809215
 20
902.1750546701879
 30
0.0
 11
-3861.178555398207
 21
849.1420460811972
 31
0.0
  0
LINE
  5
10D
330
1F
100
AcDbEntity
  8
0-B
  6
JWW_HOJO
 62
     7
370
     9
100
AcDbLine
 10
-3861.178555398207
 20
955.2080632591794
 30
0.0
 11
-3914.211563987197
 21
902.1750546701879
 31
0.0
  0
LINE
  5
10E
330
1F
100
AcDbEntity
  8
0-B
  6
Continuous
 62
   120
370
     5
100
AcDbLine
 10
-3914.211563987197
 20
902.1750546701879
 30
0.0
 11
-3861.178555398207
 21
955.2080632591794
 31
0.0
  0
LWPOLYLINE
  5
10F
330
1F
100
AcDbEntity
  8
0-B
  6
Continuous
 62
     7
370
     9
100
AcDbPolyline
 90
        4
 70
     1
 43
3.0
 10
-3912.711563987197
 20
902.1750546701879
 42
0.4142135623731
 10
-3914.211563987197
 20
903.6750546701879
 42
0.4142135623731
 10
-3915.711563987198
 20
902.1750546701879
 42
0.4142135623731
 10
-3914.211563987197
 20
900.6750546701878
 42
0.4142135623731
  0
LWPOLYLINE
  5
110
330
1F
100
AcDbEntity
  8
0-B
  6
Continuous
 62
     7
370
     9
100
AcDbPolyline
 90
        4
 70
     1
 43
3.0
 10
-3859.678555398206
 20
955.2080632591794
 42
0.4142135623731
 10
-3861.178555398207
 20
956.7080632591794
 42
0.4142135623731
 10
-3862.678555398207
 20
955.2080632591794
 42
0.4142135623731
 10
-3861.178555398207
 20
953.7080632591793
 42
0.4142135623731
  0
LINE
  5
111
330
1F
100
AcDbEntity
  8
0-B
  6
Continuous
 62
   120
370
     5
100
AcDbLine
 10
-3914.211563987197
 20
902.1750546701879
 30
0.0
 11
-3861.178555398207
 21
849.1420460811972
 31
0.0
  0
LINE
  5
112
330
1F
100
AcDbEntity
  8
0-B
  6
Continuous
 62
   120
370
     5
100
AcDbLine
 10
-3861.178555398207
 20
955.2080632591794
 30
0.0
 11
-3808.145546809215
 21
902.1750546701879
 31
0.0
  0
MTEXT
  5
113
330
1F
100
AcDbEntity
  8
0-B
  6
Continuous
 62
     7
370
     9
100
AcDbMText
 10
-5775.781146723698
 20
658.9522733398749
 30
0.0
 40
91.44
 41
600.0
 46
0.0
 71
     7
 72
     1
  1
{\fＭＳ ゴシック|b0|i0|c128|p49;木口テープ}
 73
     1
 44
1.0
  0
MTEXT
  5
114
330
1F
100
AcDbEntity
  8
0-B
  6
Continuous
 62
     7
370
   211
100
AcDbMText
 10
-3914.211563987198
 20
912.6782581057843
 30
0.0
 40
68.5799999999994
 41
44.99999999999961
 46
0.0
 71
     7
 72
     1
  1
{\fＭＳ ゴシック|b0|i0|c128|p49;5}
 11
0.7071067811865404
 21
0.7071067811865547
 31
0.0
 73
     1
 44
1.0
  0
MTEXT
  5
115
330
1F
100
AcDbEntity
  8
0-B
  6
Continuous
 62
     7
370
   211
100
AcDbMText
 10
-3493.145546809215
 20
510.7488175600515
 30
0.0
 40
74.295
 41
97.5
 46
0.0
 71
     7
 72
     1
  1
{\fＭＳ ゴシック|b0|i0|c128|p49;36}
 11
6.123031769111886E-17
 21
1.0
 31
0.0
 73
     1
 44
1.0
  0
MTEXT
  5
116
330
1F
100
AcDbEntity
  8
0-B
  6
Continuous
 62
     7
370
   211
100
AcDbMText
 10
-3761.895804816781
 20
151.2895460811968
 30
0.0
 40
74.295
 41
97.5
 46
0.0
 71
     7
 72
     1
  1
{\fＭＳ ゴシック|b0|i0|c128|p49;12}
 73
     1
 44
1.0
  0
MTEXT
  5
117
330
1F
100
AcDbEntity
  8
0-B
  6
Continuous
 62
     7
370
     9
100
AcDbMText
 10
-1550.000758815456
 20
2326.165376991668
 30
0.0
 40
68.58
 41
585.0
 46
0.0
 71
     7
 72
     1
  1
{\fＭＳ ゴシック|b0|i0|c128|p49;ＺＹＷＴ48-□}
 73
     1
 44
1.0
  0
MTEXT
  5
118
330
1F
100
AcDbEntity
  8
0-B
  6
Continuous
 62
     7
370
     9
100
AcDbMText
 10
-5794.999626778268
 20
1765.292342034349
 30
0.0
 40
100.584
 41
660.0
 46
0.0
 71
     7
 72
     1
  1
{\fＭＳ ゴシック|b0|i0|c128|p49;木口テープ}
 73
     1
 44
1.0
  0
MTEXT
  5
119
330
1F
100
AcDbEntity
  8
0-B
  6
Continuous
 62
     7
370
     9
100
AcDbMText
 10
-2127.500758815456
 20
2326.165376991668
 30
0.0
 40
68.58
 41
270.0
 46
0.0
 71
     7
 72
     1
  1
{\fＭＳ ゴシック|b0|i0|c128|p49;20×30}
 73
     1
 44
1.0
  0
MTEXT
  5
11A
330
1F
100
AcDbEntity
  8
0-B
  6
Continuous
 62
     7
370
     9
100
AcDbMText
 10
-620.0007588154563
 20
2169.915367003864
 30
0.0
 40
68.58
 41
450.0
 46
0.0
 71
     7
 72
     1
  1
{\fＭＳ ゴシック|b0|i0|c128|p49;[梱包入数]}
 73
     1
 44
1.0
  0
MTEXT
  5
11B
330
1F
100
AcDbEntity
  8
0-B
  6
Continuous
 62
     7
370
     9
100
AcDbMText
 10
-5925.781146723698
 20
433.9522733398749
 30
0.0
 40
91.44
 41
960.0
 46
0.0
 71
     7
 72
     1
  1
{\fＭＳ ゴシック|b0|i0|c128|p49;（縦用or窓台用）}
 73
     1
 44
1.0
  0
LINE
  5
11C
330
1F
100
AcDbEntity
  8
0-B
  6
Continuous
 62
   120
370
     5
100
AcDbLine
 10
-3478.145546809215
 20
1610.000342034349
 30
0.0
 11
-3553.145546809215
 21
1610.000342034349
 31
0.0
  0
LINE
  5
11D
330
1F
100
AcDbEntity
  8
0-B
  6
Continuous
 62
   120
370
     5
100
AcDbLine
 10
-3478.145546809215
 20
2060.000342034349
 30
0.0
 11
-3553.145546809215
 21
2060.000342034349
 31
0.0
  0
LWPOLYLINE
  5
11E
330
1F
100
AcDbEntity
  8
0-B
  6
Continuous
 62
     7
370
     9
100
AcDbPolyline
 90
        4
 70
     1
 43
3.0
 10
-3476.645546809215
 20
1610.000342034349
 42
0.4142135623731
 10
-3478.145546809215
 20
1611.500342034349
 42
0.4142135623731
 10
-3479.645546809215
 20
1610.000342034349
 42
0.4142135623731
 10
-3478.145546809215
 20
1608.500342034349
 42
0.4142135623731
  0
LWPOLYLINE
  5
11F
330
1F
100
AcDbEntity
  8
0-B
  6
Continuous
 62
     7
370
     9
100
AcDbPolyline
 90
        4
 70
     1
 43
3.0
 10
-3476.645546809215
 20
2060.000342034349
 42
0.4142135623731
 10
-3478.145546809215
 20
2061.500342034349
 42
0.4142135623731
 10
-3479.645546809215
 20
2060.000342034349
 42
0.4142135623731
 10
-3478.145546809215
 20
2058.500342034349
 42
0.4142135623731
  0
LINE
  5
120
330
1F
100
AcDbEntity
  8
0-B
  6
Continuous
 62
   120
370
     5
100
AcDbLine
 10
-3478.145546809215
 20
2060.000342034349
 30
0.0
 11
-3478.145546809215
 21
1610.000342034349
 31
0.0
  0
LINE
  5
121
330
1F
100
AcDbEntity
  8
0-B
  6
JWW_HOJO
 62
     7
370
     9
100
AcDbLine
 10
-3553.145546809215
 20
1535.000342034349
 30
0.0
 11
-3553.145546809215
 21
2038.033350623341
 31
0.0
  0
MTEXT
  5
122
330
1F
100
AcDbEntity
  8
0-B
  6
Continuous
 62
     7
370
   211
100
AcDbMText
 10
-3493.145546809215
 20
1778.397842034349
 30
0.0
 40
74.295
 41
97.5
 46
0.0
 71
     7
 72
     1
  1
{\fＭＳ ゴシック|b0|i0|c128|p49;30}
 11
6.123031769111886E-17
 21
1.0
 31
0.0
 73
     1
 44
1.0
  0
LINE
  5
123
330
1F
100
AcDbEntity
  8
0-B
  6
Continuous
 62
   120
370
     5
100
AcDbLine
 10
-3628.145546809215
 20
1460.000342034349
 30
0.0
 11
-3628.145546809215
 21
1535.000342034349
 31
0.0
  0
LINE
  5
124
330
1F
100
AcDbEntity
  8
0-B
  6
Continuous
 62
   120
370
     5
100
AcDbLine
 10
-3928.145546809215
 20
1460.000342034349
 30
0.0
 11
-3928.145546809215
 21
1535.000342034349
 31
0.0
  0
LWPOLYLINE
  5
125
330
1F
100
AcDbEntity
  8
0-B
  6
Continuous
 62
     7
370
     9
100
AcDbPolyline
 90
        4
 70
     1
 43
3.0
 10
-3626.645546809215
 20
1460.000342034349
 42
0.4142135623731
 10
-3628.145546809215
 20
1461.500342034349
 42
0.4142135623731
 10
-3629.645546809215
 20
1460.000342034349
 42
0.4142135623731
 10
-3628.145546809215
 20
1458.500342034349
 42
0.4142135623731
  0
LWPOLYLINE
  5
126
330
1F
100
AcDbEntity
  8
0-B
  6
Continuous
 62
     7
370
     9
100
AcDbPolyline
 90
        4
 70
     1
 43
3.0
 10
-3926.645546809215
 20
1460.000342034349
 42
0.4142135623731
 10
-3928.145546809215
 20
1461.500342034349
 42
0.4142135623731
 10
-3929.645546809216
 20
1460.000342034349
 42
0.4142135623731
 10
-3928.145546809215
 20
1458.500342034349
 42
0.4142135623731
  0
LINE
  5
127
330
1F
100
AcDbEntity
  8
0-B
  6
Continuous
 62
   120
370
     5
100
AcDbLine
 10
-3928.145546809215
 20
1460.000342034349
 30
0.0
 11
-3628.145546809215
 21
1460.000342034349
 31
0.0
  0
LINE
  5
128
330
1F
100
AcDbEntity
  8
0-B
  6
JWW_HOJO
 62
     7
370
     9
100
AcDbLine
 10
-3928.145546809215
 20
1610.000342034349
 30
0.0
 11
-3928.145546809215
 21
1460.000342034349
 31
0.0
  0
MTEXT
  5
129
330
1F
100
AcDbEntity
  8
0-B
  6
Continuous
 62
     7
370
   211
100
AcDbMText
 10
-3826.895546809215
 20
1467.147842034349
 30
0.0
 40
74.295
 41
97.5
 46
0.0
 71
     7
 72
     1
  1
{\fＭＳ ゴシック|b0|i0|c128|p49;20}
 73
     1
 44
1.0
  0
LINE
  5
12A
330
1F
100
AcDbEntity
  8
0-B
  6
Continuous
 62
   120
370
     5
100
AcDbLine
 10
-4034.211563987198
 20
2113.033350623341
 30
0.0
 11
-3981.178555398207
 21
2060.000342034349
 31
0.0
  0
LINE
  5
12B
330
1F
100
AcDbEntity
  8
0-B
  6
Continuous
 62
   120
370
     5
100
AcDbLine
 10
-3981.178555398207
 20
2166.066359212331
 30
0.0
 11
-3928.145546809215
 21
2113.033350623341
 31
0.0
  0
LWPOLYLINE
  5
12C
330
1F
100
AcDbEntity
  8
0-B
  6
Continuous
 62
     7
370
     9
100
AcDbPolyline
 90
        4
 70
     1
 43
3.0
 10
-4032.711563987198
 20
2113.033350623341
 42
0.4142135623731
 10
-4034.211563987198
 20
2114.533350623341
 42
0.4142135623731
 10
-4035.711563987199
 20
2113.033350623341
 42
0.4142135623731
 10
-4034.211563987198
 20
2111.533350623341
 42
0.4142135623731
  0
LWPOLYLINE
  5
12D
330
1F
100
AcDbEntity
  8
0-B
  6
Continuous
 62
     7
370
     9
100
AcDbPolyline
 90
        4
 70
     1
 43
3.0
 10
-3979.678555398206
 20
2166.066359212331
 42
0.4142135623731
 10
-3981.178555398207
 20
2167.566359212331
 42
0.4142135623731
 10
-3982.678555398207
 20
2166.066359212331
 42
0.4142135623731
 10
-3981.178555398207
 20
2164.566359212331
 42
0.4142135623731
  0
LINE
  5
12E
330
1F
100
AcDbEntity
  8
0-B
  6
Continuous
 62
   120
370
     5
100
AcDbLine
 10
-3981.178555398207
 20
2166.066359212331
 30
0.0
 11
-4034.211563987198
 21
2113.033350623341
 31
0.0
  0
LINE
  5
12F
330
1F
100
AcDbEntity
  8
0-B
  6
JWW_HOJO
 62
     7
370
     9
100
AcDbLine
 10
-3937.244572576188
 20
2210.000342034349
 30
0.0
 11
-4078.145546809215
 21
2069.099367801322
 31
0.0
  0
LINE
  5
130
330
1F
100
AcDbEntity
  8
0-B
  6
JWW_HOJO
 62
     7
370
     9
100
AcDbLine
 10
-3906.178555398207
 20
2135.000342034349
 30
0.0
 11
-4003.145546809215
 21
2038.033350623341
 31
0.0
  0
LINE
  5
131
330
1F
100
AcDbEntity
  8
0-B
  6
Continuous
 62
     7
370
     9
100
AcDbLine
 10
-3875.112538220224
 20
2060.000342034349
 30
0.0
 11
-3928.145546809215
 21
2006.967333445357
 31
0.0
  0
LINE
  5
132
330
1F
100
AcDbEntity
  8
0-B
  6
Continuous
 62
     7
370
     9
100
AcDbLine
 10
-3928.145546809215
 20
2006.967333445357
 30
0.0
 11
-3928.145546809215
 21
1610.000342034349
 31
0.0
  0
MTEXT
  5
133
330
1F
100
AcDbEntity
  8
0-B
  6
Continuous
 62
     7
370
   211
100
AcDbMText
 10
-4034.211563987197
 20
2123.536554058936
 30
0.0
 40
68.57999999999963
 41
44.99999999999976
 46
0.0
 71
     7
 72
     1
  1
{\fＭＳ ゴシック|b0|i0|c128|p49;5}
 11
0.707106781186538
 21
0.707106781186557
 31
0.0
 73
     1
 44
1.0
  0
LINE
  5
134
330
1F
100
AcDbEntity
  8
0-B
  6
JWW_HOJO
 62
     7
370
     9
100
AcDbLine
 10
-3628.145546809215
 20
2210.000342034349
 30
0.0
 11
-3928.145546809215
 21
2210.000342034349
 31
0.0
  0
LINE
  5
135
330
1F
100
AcDbEntity
  8
0-B
  6
JWW_HOJO
 62
     7
370
     9
100
AcDbLine
 10
-3628.145546809215
 20
2135.000342034349
 30
0.0
 11
-3928.145546809215
 21
2135.000342034349
 31
0.0
  0
LINE
  5
136
330
1F
100
AcDbEntity
  8
0-B
  6
JWW_HOJO
 62
     7
370
     9
100
AcDbLine
 10
-3628.145546809215
 20
1535.000342034349
 30
0.0
 11
-3928.145546809215
 21
1535.000342034349
 31
0.0
  0
LINE
  5
137
330
1F
100
AcDbEntity
  8
0-4
  6
Continuous
 62
    92
370
    13
100
AcDbLine
 10
-4553.750393841718
 20
3220.207575876212
 30
0.0
 11
-4553.750393841718
 21
2931.724080170707
 31
0.0
  0
LINE
  5
138
330
1F
100
AcDbEntity
  8
0-4
  6
Continuous
 62
    92
370
    13
100
AcDbLine
 10
-4527.233889547222
 20
3246.724080170707
 30
0.0
 11
-4553.750393841718
 21
3220.207575876212
 31
0.0
  0
LINE
  5
139
330
1F
100
AcDbEntity
  8
0-4
  6
Continuous
 62
    92
370
    13
100
AcDbLine
 10
-2817.766898136214
 20
3246.724080170707
 30
0.0
 11
-4527.233889547222
 21
3246.724080170707
 31
0.0
  0
LINE
  5
13A
330
1F
100
AcDbEntity
  8
0-4
  6
Continuous
 62
    92
370
    13
100
AcDbLine
 10
-2791.250393841717
 20
3220.207575876212
 30
0.0
 11
-2791.250393841717
 21
2931.724080170707
 31
0.0
  0
LINE
  5
13B
330
1F
100
AcDbEntity
  8
0-4
  6
Continuous
 62
    92
370
    13
100
AcDbLine
 10
-2817.766898136214
 20
3246.724080170707
 30
0.0
 11
-2791.250393841717
 21
3220.207575876212
 31
0.0
  0
LINE
  5
13C
330
1F
100
AcDbEntity
  8
0-4
  6
JWW_DASHED1
 62
    92
370
    13
100
AcDbLine
 10
-3541.250393841717
 20
3246.724080170707
 30
0.0
 11
-3541.250393841717
 21
2931.724080170707
 31
0.0
  0
LINE
  5
13D
330
1F
100
AcDbEntity
  8
0-4
  6
JWW_DASHED1
 62
    92
370
    13
100
AcDbLine
 10
-3803.750393841717
 20
3246.724080170707
 30
0.0
 11
-3803.750393841717
 21
2931.724080170707
 31
0.0
  0
LINE
  5
13E
330
1F
100
AcDbEntity
  8
0-0
  6
JWW_HOJO
 62
     7
370
     9
100
AcDbLine
 10
-4703.750393841718
 20
3396.724080170707
 30
0.0
 11
-4703.750393841718
 21
2781.724080170707
 31
0.0
  0
LINE
  5
13F
330
1F
100
AcDbEntity
  8
0-0
  6
JWW_HOJO
 62
     7
370
     9
100
AcDbLine
 10
-2641.250393841717
 20
2781.724080170707
 30
0.0
 11
-4703.750393841718
 21
2781.724080170707
 31
0.0
  0
LINE
  5
140
330
1F
100
AcDbEntity
  8
0-0
  6
JWW_HOJO
 62
     7
370
     9
100
AcDbLine
 10
-2641.250393841717
 20
3396.724080170707
 30
0.0
 11
-4703.750393841718
 21
3396.724080170707
 31
0.0
  0
LINE
  5
141
330
1F
100
AcDbEntity
  8
0-0
  6
JWW_HOJO
 62
     7
370
     9
100
AcDbLine
 10
-2641.250393841717
 20
3396.724080170707
 30
0.0
 11
-2641.250393841717
 21
2781.724080170707
 31
0.0
  0
LINE
  5
142
330
1F
100
AcDbEntity
  8
0-0
  6
JWW_HOJO
 62
     7
370
     9
100
AcDbLine
 10
-2716.250393841717
 20
3321.724080170707
 30
0.0
 11
-2716.250393841717
 21
2856.724080170707
 31
0.0
  0
LINE
  5
143
330
1F
100
AcDbEntity
  8
0-0
  6
JWW_HOJO
 62
     7
370
     9
100
AcDbLine
 10
-2716.250393841717
 20
3321.724080170707
 30
0.0
 11
-4628.750393841718
 21
3321.724080170707
 31
0.0
  0
LINE
  5
144
330
1F
100
AcDbEntity
  8
0-0
  6
JWW_HOJO
 62
     7
370
     9
100
AcDbLine
 10
-4628.750393841718
 20
3321.724080170707
 30
0.0
 11
-4628.750393841718
 21
2856.724080170707
 31
0.0
  0
LINE
  5
145
330
1F
100
AcDbEntity
  8
0-0
  6
JWW_HOJO
 62
     7
370
     9
100
AcDbLine
 10
-2716.250393841717
 20
2856.724080170707
 30
0.0
 11
-4628.750393841718
 21
2856.724080170707
 31
0.0
  0
LINE
  5
146
330
1F
100
AcDbEntity
  8
0-4
  6
Continuous
 62
    92
370
    13
100
AcDbLine
 10
-3541.250393841717
 20
2931.724080170707
 30
0.0
 11
-2791.250393841717
 21
2931.724080170707
 31
0.0
  0
LINE
  5
147
330
1F
100
AcDbEntity
  8
0-4
  6
Continuous
 62
    92
370
    13
100
AcDbLine
 10
-3803.750393841717
 20
2931.724080170707
 30
0.0
 11
-4553.750393841718
 21
2931.724080170707
 31
0.0
  0
LINE
  5
148
330
1F
100
AcDbEntity
  8
0-4
  6
Continuous
 62
    92
370
    13
100
AcDbLine
 10
-3672.500393841717
 20
3062.974080170707
 30
0.0
 11
-3803.750393841717
 21
2931.724080170707
 31
0.0
  0
LINE
  5
149
330
1F
100
AcDbEntity
  8
0-4
  6
Continuous
 62
    92
370
    13
100
AcDbLine
 10
-3672.500393841717
 20
3062.974080170707
 30
0.0
 11
-3541.250393841717
 21
2931.724080170707
 31
0.0
  0
LINE
  5
14A
330
1F
100
AcDbEntity
  8
0-4
  6
Continuous
 62
    92
370
    13
100
AcDbLine
 10
-3672.500393841717
 20
3062.974080170707
 30
0.0
 11
-3672.500393841717
 21
3246.724080170707
 31
0.0
  0
LINE
  5
14B
330
1F
100
AcDbEntity
  8
0-B
  6
Continuous
 62
   120
370
     5
100
AcDbLine
 10
-3541.250393841717
 20
2781.724080170707
 30
0.0
 11
-2791.250393841717
 21
2781.724080170707
 31
0.0
  0
LWPOLYLINE
  5
14C
330
1F
100
AcDbEntity
  8
0-B
  6
Continuous
 62
     7
370
     9
100
AcDbPolyline
 90
        4
 70
     1
 43
3.0
 10
-3539.750393841717
 20
2781.724080170707
 42
0.4142135623731
 10
-3541.250393841717
 20
2783.224080170707
 42
0.4142135623731
 10
-3542.750393841717
 20
2781.724080170707
 42
0.4142135623731
 10
-3541.250393841717
 20
2780.224080170707
 42
0.4142135623731
  0
LWPOLYLINE
  5
14D
330
1F
100
AcDbEntity
  8
0-B
  6
Continuous
 62
     7
370
     9
100
AcDbPolyline
 90
        4
 70
     1
 43
3.0
 10
-2789.750393841717
 20
2781.724080170707
 42
0.4142135623731
 10
-2791.250393841717
 20
2783.224080170707
 42
0.4142135623731
 10
-2792.750393841717
 20
2781.724080170707
 42
0.4142135623731
 10
-2791.250393841717
 20
2780.224080170707
 42
0.4142135623731
  0
LINE
  5
14E
330
1F
100
AcDbEntity
  8
0-B
  6
Continuous
 62
   120
370
     5
100
AcDbLine
 10
-3541.250393841717
 20
2781.724080170707
 30
0.0
 11
-3541.250393841717
 21
2856.724080170707
 31
0.0
  0
LINE
  5
14F
330
1F
100
AcDbEntity
  8
0-B
  6
Continuous
 62
   120
370
     5
100
AcDbLine
 10
-2791.250393841717
 20
2781.724080170707
 30
0.0
 11
-2791.250393841717
 21
2856.724080170707
 31
0.0
  0
LINE
  5
150
330
1F
100
AcDbEntity
  8
0-B
  6
Continuous
 62
   120
370
     5
100
AcDbLine
 10
-2641.250393841717
 20
2931.724080170707
 30
0.0
 11
-2641.250393841717
 21
3246.724080170707
 31
0.0
  0
LWPOLYLINE
  5
151
330
1F
100
AcDbEntity
  8
0-B
  6
Continuous
 62
     7
370
     9
100
AcDbPolyline
 90
        4
 70
     1
 43
3.0
 10
-2639.750393841717
 20
2931.724080170707
 42
0.4142135623731
 10
-2641.250393841717
 20
2933.224080170707
 42
0.4142135623731
 10
-2642.750393841717
 20
2931.724080170707
 42
0.4142135623731
 10
-2641.250393841717
 20
2930.224080170707
 42
0.4142135623731
  0
LWPOLYLINE
  5
152
330
1F
100
AcDbEntity
  8
0-B
  6
Continuous
 62
     7
370
     9
100
AcDbPolyline
 90
        4
 70
     1
 43
3.0
 10
-2639.750393841717
 20
3246.724080170707
 42
0.4142135623731
 10
-2641.250393841717
 20
3248.224080170707
 42
0.4142135623731
 10
-2642.750393841717
 20
3246.724080170707
 42
0.4142135623731
 10
-2641.250393841717
 20
3245.224080170707
 42
0.4142135623731
  0
LINE
  5
153
330
1F
100
AcDbEntity
  8
0-B
  6
Continuous
 62
   120
370
     5
100
AcDbLine
 10
-2641.250393841717
 20
2931.724080170707
 30
0.0
 11
-2716.250393841717
 21
2931.724080170707
 31
0.0
  0
LINE
  5
154
330
1F
100
AcDbEntity
  8
0-B
  6
Continuous
 62
   120
370
     5
100
AcDbLine
 10
-2641.250393841717
 20
3246.724080170707
 30
0.0
 11
-2716.250393841717
 21
3246.724080170707
 31
0.0
  0
MTEXT
  5
155
330
1F
100
AcDbEntity
  8
0-A
  6
Continuous
 62
     7
370
     9
100
AcDbMText
 10
-1550.000758815456
 20
3576.165456894112
 30
0.0
 40
68.58
 41
675.0
 46
0.0
 71
     7
 72
     1
  1
{\fＭＳ ゴシック|b0|i0|c128|p49;ＺＹＷＴＡ10-□}
 73
     1
 44
1.0
  0
MTEXT
  5
156
330
1F
100
AcDbEntity
  8
0-A
  6
Continuous
 62
     7
370
     9
100
AcDbMText
 10
-620.0007588154563
 20
3419.915446906307
 30
0.0
 40
68.58
 41
450.0
 46
0.0
 71
     7
 72
     1
  1
{\fＭＳ ゴシック|b0|i0|c128|p49;[梱包入数]}
 73
     1
 44
1.0
  0
MTEXT
  5
157
330
1F
100
AcDbEntity
  8
0-A
  6
Continuous
 62
     7
370
     9
100
AcDbMText
 10
-5929.999626778268
 20
3009.291671936792
 30
0.0
 40
88.5825
 41
930.0
 46
0.0
 71
     7
 72
     1
  1
{\fＭＳ ゴシック|b0|i0|c128|p49;窓枠樹脂キャップ}
 73
     1
 44
1.0
  0
MTEXT
  5
158
330
1F
100
AcDbEntity
  8
0-B
  6
Continuous
 62
     7
370
   211
100
AcDbMText
 10
-2656.250393841717
 20
3033.514080170707
 30
0.0
 40
68.58
 41
90.0
 46
0.0
 71
     7
 72
     1
  1
{\fＭＳ ゴシック|b0|i0|c128|p49;21}
 11
6.123031769111886E-17
 21
1.0
 31
0.0
 73
     1
 44
1.0
  0
MTEXT
  5
159
330
1F
100
AcDbEntity
  8
0-B
  6
Continuous
 62
     7
370
   211
100
AcDbMText
 10
-3211.250393841717
 20
2786.014080170707
 30
0.0
 40
68.58
 41
90.0
 46
0.0
 71
     7
 72
     1
  1
{\fＭＳ ゴシック|b0|i0|c128|p49;50}
 73
     1
 44
1.0
  0
MTEXT
  5
15A
330
1F
100
AcDbEntity
  8
0-A
  6
Continuous
 62
     7
370
     9
100
AcDbMText
 10
-2127.500758815456
 20
3576.165456894112
 30
0.0
 40
68.58
 41
270.0
 46
0.0
 71
     7
 72
     1
  1
{\fＭＳ ゴシック|b0|i0|c128|p49;50×21}
 73
     1
 44
1.0
  0
MTEXT
  5
15B
330
1F
100
AcDbEntity
  8
0-B
  6
Continuous
 62
     7
370
     9
100
AcDbMText
 10
-2162.806738957225
 20
1080.927797082783
 30
0.0
 40
78.10500000000006
 41
307.5000000000002
 46
0.0
 71
     7
 72
     1
  1
{\fＭＳ ゴシック|b0|i0|c128|p49;12×36}
 73
     1
 44
1.0
  0
MTEXT
  5
15C
330
1F
100
AcDbEntity
  8
0-B
  6
Continuous
 62
     7
370
     9
100
AcDbMText
 10
-1536.556738957225
 20
1076.165297082783
 30
0.0
 40
68.58
 41
585.0
 46
0.0
 71
     7
 72
     1
  1
{\fＭＳ ゴシック|b0|i0|c128|p49;ＺＹＷＴ43-□}
 73
     1
 44
1.0
  0
MTEXT
  5
15D
330
1F
100
AcDbEntity
  8
0-B
  6
Continuous
 62
     7
370
     9
100
AcDbMText
 10
-618.3421980707896
 20
919.9152870827829
 30
0.0
 40
68.58
 41
450.0
 46
0.0
 71
     7
 72
     1
  1
{\fＭＳ ゴシック|b0|i0|c128|p49;[梱包入数]}
 73
     1
 44
1.0
  0
MTEXT
  5
15E
330
1F
100
AcDbEntity
  8
0-A
  6
Continuous
 62
     7
370
     9
100
AcDbMText
 10
-552.5007588154563
 20
3576.165456894112
 30
0.0
 40
68.57999999999998
 41
315.0
 46
0.0
 71
     7
 72
     1
  1
{\fＭＳ ゴシック|b0|i0|c128|p49;10(×2)}
 73
     1
 44
1.0
  0
MTEXT
  5
15F
330
1F
100
AcDbEntity
  8
0-B
  6
Continuous
 62
     7
370
     9
100
AcDbMText
 10
-552.5007588154563
 20
2326.165376991668
 30
0.0
 40
68.57999999999998
 41
315.0
 46
0.0
 71
     7
 72
     1
  1
{\fＭＳ ゴシック|b0|i0|c128|p49;10(×2)}
 73
     1
 44
1.0
  0
MTEXT
  5
160
330
1F
100
AcDbEntity
  8
0-B
  6
Continuous
 62
     7
370
     9
100
AcDbMText
 10
-573.3421052801849
 20
1081.063868511354
 30
0.0
 40
78.37714285714284
 41
360.0
 46
0.0
 71
     7
 72
     1
  1
{\fＭＳ ゴシック|b0|i0|c128|p49;10(×2)}
 73
     1
 44
1.0
  0
LINE
  5
161
330
1F
100
AcDbEntity
  8
0-4
  6
Continuous
 62
    92
370
    13
100
AcDbLine
 10
-3928.145546809215
 20
2006.967333445357
 30
0.0
 11
-3928.145546809215
 21
1610.000342034349
 31
0.0
  0
LINE
  5
162
330
1F
100
AcDbEntity
  8
0-4
  6
Continuous
 62
    92
370
    13
100
AcDbLine
 10
-3875.112538220224
 20
2060.000342034349
 30
0.0
 11
-3928.145546809215
 21
2006.967333445357
 31
0.0
  0
LINE
  5
163
330
1F
100
AcDbEntity
  8
0-4
  6
Continuous
 62
    92
370
    13
100
AcDbLine
 10
-3875.112538220224
 20
2060.000342034349
 30
0.0
 11
-3628.145546809215
 21
2060.000342034349
 31
0.0
  0
LINE
  5
164
330
1F
100
AcDbEntity
  8
0-4
  6
Continuous
 62
    92
370
    13
100
AcDbLine
 10
-3628.145546809215
 20
2060.000342034349
 30
0.0
 11
-3628.145546809215
 21
1610.000342034349
 31
0.0
  0
LINE
  5
165
330
1F
100
AcDbEntity
  8
0-4
  6
Continuous
 62
    92
370
    13
100
AcDbLine
 10
-3628.145546809215
 20
1610.000342034349
 30
0.0
 11
-3928.145546809215
 21
1610.000342034349
 31
0.0
  0
LINE
  5
166
330
1F
100
AcDbEntity
  8
0-4
  6
Continuous
 62
    92
370
    13
100
AcDbLine
 10
-3755.112538220224
 20
849.1420460811972
 30
0.0
 11
-3808.145546809215
 21
796.1090374922057
 31
0.0
  0
LINE
  5
167
330
1F
100
AcDbEntity
  8
0-4
  6
Continuous
 62
    92
370
    13
100
AcDbLine
 10
-3755.112538220224
 20
849.1420460811972
 30
0.0
 11
-3628.145546809215
 21
849.1420460811972
 31
0.0
  0
LINE
  5
168
330
1F
100
AcDbEntity
  8
0-4
  6
Continuous
 62
    92
370
    13
100
AcDbLine
 10
-3628.145546809215
 20
849.1420460811972
 30
0.0
 11
-3628.145546809215
 21
309.1420460811968
 31
0.0
  0
LINE
  5
169
330
1F
100
AcDbEntity
  8
0-4
  6
Continuous
 62
    92
370
    13
100
AcDbLine
 10
-3808.145546809215
 20
796.1090374922057
 30
0.0
 11
-3808.145546809215
 21
309.1420460811968
 31
0.0
  0
LINE
  5
16A
330
1F
100
AcDbEntity
  8
0-4
  6
Continuous
 62
    92
370
    13
100
AcDbLine
 10
-3628.145546809215
 20
309.1420460811968
 30
0.0
 11
-3808.145546809215
 21
309.1420460811968
 31
0.0
  0
LINE
  5
16B
330
1F
100
AcDbEntity
  8
0-4
  6
Continuous
 62
    92
370
    13
100
AcDbLine
 10
-3563.750393841717
 20
-1869.356499390778
 30
0.0
 11
-3563.750393841717
 21
-1978.74989767298
 31
0.0
  0
LINE
  5
16C
330
1F
100
AcDbEntity
  8
0-4
  6
Continuous
 62
    92
370
    13
100
AcDbLine
 10
-3574.356995559515
 20
-1858.74989767298
 30
0.0
 11
-3563.750393841717
 21
-1869.356499390778
 31
0.0
  0
LINE
  5
16D
330
1F
100
AcDbEntity
  8
0-4
  6
Continuous
 62
    92
370
    13
100
AcDbLine
 10
-3763.143792123919
 20
-1858.74989767298
 30
0.0
 11
-3574.356995559515
 21
-1858.74989767298
 31
0.0
  0
LINE
  5
16E
330
1F
100
AcDbEntity
  8
0-4
  6
Continuous
 62
    92
370
    13
100
AcDbLine
 10
-3773.750393841717
 20
-1869.356499390778
 30
0.0
 11
-3763.143792123919
 21
-1858.74989767298
 31
0.0
  0
LINE
  5
16F
330
1F
100
AcDbEntity
  8
0-4
  6
Continuous
 62
    92
370
    13
100
AcDbLine
 10
-3773.750393841717
 20
-1869.356499390778
 30
0.0
 11
-3773.750393841717
 21
-1978.74989767298
 31
0.0
  0
LINE
  5
170
330
1F
100
AcDbEntity
  8
0-4
  6
Continuous
 62
    92
370
    13
100
AcDbLine
 10
-3571.250393841717
 20
-1851.24989767298
 30
0.0
 11
-3556.250393841717
 21
-1866.24989767298
 31
0.0
  0
LINE
  5
171
330
1F
100
AcDbEntity
  8
0-4
  6
Continuous
 62
    92
370
    13
100
AcDbLine
 10
-3556.250393841717
 20
-1866.24989767298
 30
0.0
 11
-3556.250393841717
 21
-1986.24989767298
 31
0.0
  0
LINE
  5
172
330
1F
100
AcDbEntity
  8
0-4
  6
Continuous
 62
    92
370
    13
100
AcDbLine
 10
-3571.250393841717
 20
-1851.24989767298
 30
0.0
 11
-3766.250393841717
 21
-1851.24989767298
 31
0.0
  0
LINE
  5
173
330
1F
100
AcDbEntity
  8
0-4
  6
Continuous
 62
    92
370
    13
100
AcDbLine
 10
-3781.250393841717
 20
-1866.24989767298
 30
0.0
 11
-3766.250393841717
 21
-1851.24989767298
 31
0.0
  0
LINE
  5
174
330
1F
100
AcDbEntity
  8
0-4
  6
Continuous
 62
    92
370
    13
100
AcDbLine
 10
-3781.250393841717
 20
-1866.24989767298
 30
0.0
 11
-3781.250393841717
 21
-1986.24989767298
 31
0.0
  0
LINE
  5
175
330
1F
100
AcDbEntity
  8
0-4
  6
Continuous
 62
   120
370
     5
100
AcDbLine
 10
-3931.250393841717
 20
-1986.24989767298
 30
0.0
 11
-3856.250393841717
 21
-1986.24989767298
 31
0.0
  0
LINE
  5
176
330
1F
100
AcDbEntity
  8
0-4
  6
Continuous
 62
   120
370
     5
100
AcDbLine
 10
-3931.250393841717
 20
-1851.24989767298
 30
0.0
 11
-3856.250393841717
 21
-1851.24989767298
 31
0.0
  0
LWPOLYLINE
  5
177
330
1F
100
AcDbEntity
  8
0-4
  6
Continuous
 62
     7
370
     9
100
AcDbPolyline
 90
        4
 70
     1
 43
3.0
 10
-3929.750393841717
 20
-1986.24989767298
 42
0.4142135623731
 10
-3931.250393841717
 20
-1984.74989767298
 42
0.4142135623731
 10
-3932.750393841718
 20
-1986.24989767298
 42
0.4142135623731
 10
-3931.250393841717
 20
-1987.74989767298
 42
0.4142135623731
  0
LWPOLYLINE
  5
178
330
1F
100
AcDbEntity
  8
0-4
  6
Continuous
 62
     7
370
     9
100
AcDbPolyline
 90
        4
 70
     1
 43
3.0
 10
-3929.750393841717
 20
-1851.24989767298
 42
0.4142135623731
 10
-3931.250393841717
 20
-1849.74989767298
 42
0.4142135623731
 10
-3932.750393841718
 20
-1851.24989767298
 42
0.4142135623731
 10
-3931.250393841717
 20
-1852.74989767298
 42
0.4142135623731
  0
LINE
  5
179
330
1F
100
AcDbEntity
  8
0-4
  6
Continuous
 62
   120
370
     5
100
AcDbLine
 10
-3931.250393841717
 20
-1851.24989767298
 30
0.0
 11
-3931.250393841717
 21
-1986.24989767298
 31
0.0
  0
LINE
  5
17A
330
1F
100
AcDbEntity
  8
0-4
  6
JWW_HOJO
 62
     7
370
     9
100
AcDbLine
 10
-3931.250393841717
 20
-2136.249897672979
 30
0.0
 11
-3556.250393841717
 21
-2136.249897672979
 31
0.0
  0
LINE
  5
17B
330
1F
100
AcDbEntity
  8
0-4
  6
JWW_HOJO
 62
     7
370
     9
100
AcDbLine
 10
-3931.250393841717
 20
-1851.24989767298
 30
0.0
 11
-3931.250393841717
 21
-2136.249897672979
 31
0.0
  0
LINE
  5
17C
330
1F
100
AcDbEntity
  8
0-4
  6
JWW_HOJO
 62
     7
370
     9
100
AcDbLine
 10
-3856.250393841717
 20
-2061.249897672979
 30
0.0
 11
-3556.250393841717
 21
-2061.249897672979
 31
0.0
  0
LINE
  5
17D
330
1F
100
AcDbEntity
  8
0-4
  6
JWW_HOJO
 62
     7
370
     9
100
AcDbLine
 10
-3856.250393841717
 20
-1851.24989767298
 30
0.0
 11
-3856.250393841717
 21
-2061.249897672979
 31
0.0
  0
LINE
  5
17E
330
1F
100
AcDbEntity
  8
0-4
  6
JWW_HOJO
 62
     7
370
     9
100
AcDbLine
 10
-3556.250393841717
 20
-1986.24989767298
 30
0.0
 11
-3556.250393841717
 21
-2136.249897672979
 31
0.0
  0
LINE
  5
17F
330
1F
100
AcDbEntity
  8
0-4
  6
JWW_HOJO
 62
     7
370
     9
100
AcDbLine
 10
-3781.250393841717
 20
-1851.24989767298
 30
0.0
 11
-3931.250393841717
 21
-1851.24989767298
 31
0.0
  0
LINE
  5
180
330
1F
100
AcDbEntity
  8
0-4
  6
Continuous
 62
    92
370
    13
100
AcDbLine
 10
-3781.250393841717
 20
-1986.24989767298
 30
0.0
 11
-3556.250393841717
 21
-1986.24989767298
 31
0.0
  0
LINE
  5
181
330
1F
100
AcDbEntity
  8
0-4
  6
Continuous
 62
    92
370
    13
100
AcDbLine
 10
-3455.000393841717
 20
-3115.606579293221
 30
0.0
 11
-3455.000393841717
 21
-3224.999977575423
 31
0.0
  0
LINE
  5
182
330
1F
100
AcDbEntity
  8
0-4
  6
Continuous
 62
    92
370
    13
100
AcDbLine
 10
-3465.606995559514
 20
-3104.999977575423
 30
0.0
 11
-3455.000393841717
 21
-3115.606579293221
 31
0.0
  0
LINE
  5
183
330
1F
100
AcDbEntity
  8
0-4
  6
Continuous
 62
    92
370
    13
100
AcDbLine
 10
-3879.393792123917
 20
-3104.999977575423
 30
0.0
 11
-3465.606995559514
 21
-3104.999977575423
 31
0.0
  0
LINE
  5
184
330
1F
100
AcDbEntity
  8
0-4
  6
Continuous
 62
    92
370
    13
100
AcDbLine
 10
-3890.000393841717
 20
-3115.606579293221
 30
0.0
 11
-3879.393792123917
 21
-3104.999977575423
 31
0.0
  0
LINE
  5
185
330
1F
100
AcDbEntity
  8
0-4
  6
Continuous
 62
    92
370
    13
100
AcDbLine
 10
-3890.000393841717
 20
-3115.606579293221
 30
0.0
 11
-3890.000393841717
 21
-3224.999977575423
 31
0.0
  0
LINE
  5
186
330
1F
100
AcDbEntity
  8
0-4
  6
Continuous
 62
    92
370
    13
100
AcDbLine
 10
-3462.500393841717
 20
-3097.499977575423
 30
0.0
 11
-3447.500393841717
 21
-3112.499977575423
 31
0.0
  0
LINE
  5
187
330
1F
100
AcDbEntity
  8
0-4
  6
Continuous
 62
    92
370
    13
100
AcDbLine
 10
-3447.500393841717
 20
-3112.499977575423
 30
0.0
 11
-3447.500393841717
 21
-3232.499977575423
 31
0.0
  0
LINE
  5
188
330
1F
100
AcDbEntity
  8
0-4
  6
Continuous
 62
    92
370
    13
100
AcDbLine
 10
-3462.500393841717
 20
-3097.499977575423
 30
0.0
 11
-3882.500393841717
 21
-3097.499977575423
 31
0.0
  0
LINE
  5
189
330
1F
100
AcDbEntity
  8
0-4
  6
Continuous
 62
    92
370
    13
100
AcDbLine
 10
-3897.500393841717
 20
-3112.499977575423
 30
0.0
 11
-3882.500393841717
 21
-3097.499977575423
 31
0.0
  0
LINE
  5
18A
330
1F
100
AcDbEntity
  8
0-4
  6
Continuous
 62
    92
370
    13
100
AcDbLine
 10
-3897.500393841717
 20
-3112.499977575423
 30
0.0
 11
-3897.500393841717
 21
-3232.499977575423
 31
0.0
  0
LINE
  5
18B
330
1F
100
AcDbEntity
  8
0-4
  6
Continuous
 62
   120
370
     5
100
AcDbLine
 10
-4047.500393841717
 20
-3232.499977575423
 30
0.0
 11
-3972.500393841717
 21
-3232.499977575423
 31
0.0
  0
LINE
  5
18C
330
1F
100
AcDbEntity
  8
0-4
  6
Continuous
 62
   120
370
     5
100
AcDbLine
 10
-4047.500393841717
 20
-3097.499977575423
 30
0.0
 11
-3972.500393841717
 21
-3097.499977575423
 31
0.0
  0
LWPOLYLINE
  5
18D
330
1F
100
AcDbEntity
  8
0-4
  6
Continuous
 62
     7
370
     9
100
AcDbPolyline
 90
        4
 70
     1
 43
3.0
 10
-4046.000393841717
 20
-3232.499977575423
 42
0.4142135623731
 10
-4047.500393841717
 20
-3230.999977575423
 42
0.4142135623731
 10
-4049.000393841718
 20
-3232.499977575423
 42
0.4142135623731
 10
-4047.500393841717
 20
-3233.999977575423
 42
0.4142135623731
  0
LWPOLYLINE
  5
18E
330
1F
100
AcDbEntity
  8
0-4
  6
Continuous
 62
     7
370
     9
100
AcDbPolyline
 90
        4
 70
     1
 43
3.0
 10
-4046.000393841717
 20
-3097.499977575423
 42
0.4142135623731
 10
-4047.500393841717
 20
-3095.999977575423
 42
0.4142135623731
 10
-4049.000393841718
 20
-3097.499977575423
 42
0.4142135623731
 10
-4047.500393841717
 20
-3098.999977575423
 42
0.4142135623731
  0
LINE
  5
18F
330
1F
100
AcDbEntity
  8
0-4
  6
Continuous
 62
   120
370
     5
100
AcDbLine
 10
-4047.500393841717
 20
-3097.499977575423
 30
0.0
 11
-4047.500393841717
 21
-3232.499977575423
 31
0.0
  0
LINE
  5
190
330
1F
100
AcDbEntity
  8
0-4
  6
Continuous
 62
    92
370
    13
100
AcDbLine
 10
-3897.500393841717
 20
-3232.499977575423
 30
0.0
 11
-3447.500393841717
 21
-3232.499977575423
 31
0.0
  0
LINE
  5
191
330
1F
100
AcDbEntity
  8
0-4
  6
JWW_HOJO
 62
     7
370
     9
100
AcDbLine
 10
-4047.500393841717
 20
-3382.499977575423
 30
0.0
 11
-3447.500393841717
 21
-3382.499977575423
 31
0.0
  0
LINE
  5
192
330
1F
100
AcDbEntity
  8
0-4
  6
JWW_HOJO
 62
     7
370
     9
100
AcDbLine
 10
-3972.500393841717
 20
-3307.499977575423
 30
0.0
 11
-3447.500393841717
 21
-3307.499977575423
 31
0.0
  0
LINE
  5
193
330
1F
100
AcDbEntity
  8
0-4
  6
JWW_HOJO
 62
     7
370
     9
100
AcDbLine
 10
-4047.500393841717
 20
-3097.499977575423
 30
0.0
 11
-4047.500393841717
 21
-3382.499977575423
 31
0.0
  0
LINE
  5
194
330
1F
100
AcDbEntity
  8
0-4
  6
JWW_HOJO
 62
     7
370
     9
100
AcDbLine
 10
-3972.500393841717
 20
-3097.499977575423
 30
0.0
 11
-3972.500393841717
 21
-3307.499977575423
 31
0.0
  0
LINE
  5
195
330
1F
100
AcDbEntity
  8
0-4
  6
JWW_HOJO
 62
     7
370
     9
100
AcDbLine
 10
-3897.500393841717
 20
-3097.499977575423
 30
0.0
 11
-4047.500393841717
 21
-3097.499977575423
 31
0.0
  0
LINE
  5
196
330
1F
100
AcDbEntity
  8
0-4
  6
JWW_HOJO
 62
     7
370
     9
100
AcDbLine
 10
-3447.500393841717
 20
-3232.499977575423
 30
0.0
 11
-3447.500393841717
 21
-3382.499977575423
 31
0.0
  0
MTEXT
  5
197
330
1F
100
AcDbEntity
  8
0-4
  6
Continuous
 62
     7
370
     9
100
AcDbMText
 10
-5929.999626778268
 20
-2609.38136619563
 30
0.0
 40
101.2371428571429
 41
930.0
 46
0.0
 71
     7
 72
     1
  1
{\fＭＳ ゴシック|b0|i0|c128|p49;サッシ見切り材}
 73
     1
 44
1.0
  0
MTEXT
  5
198
330
1F
100
AcDbEntity
  8
0-4
  6
Continuous
 62
     7
370
   211
100
AcDbMText
 10
-3946.250393841717
 20
-1951.95989767298
 30
0.0
 40
68.58
 41
45.0
 46
0.0
 71
     7
 72
     1
  1
{\fＭＳ ゴシック|b0|i0|c128|p49;9}
 11
6.123031769111886E-17
 21
1.0
 31
0.0
 73
     1
 44
1.0
  0
MTEXT
  5
199
330
1F
100
AcDbEntity
  8
0-4
  6
Continuous
 62
     7
370
   211
100
AcDbMText
 10
-4062.500393841717
 20
-3198.209977575423
 30
0.0
 40
68.58
 41
45.0
 46
0.0
 71
     7
 72
     1
  1
{\fＭＳ ゴシック|b0|i0|c128|p49;9}
 11
6.123031769111886E-17
 21
1.0
 31
0.0
 73
     1
 44
1.0
  0
LINE
  5
19A
330
1F
100
AcDbEntity
  8
0-4
  6
Continuous
 62
    92
370
    13
100
AcDbLine
 10
-3631.250393841717
 20
-1978.74989767298
 30
0.0
 11
-3631.250393841717
 21
-1986.24989767298
 31
0.0
  0
LINE
  5
19B
330
1F
100
AcDbEntity
  8
0-4
  6
Continuous
 62
    92
370
    13
100
AcDbLine
 10
-3631.250393841717
 20
-1978.74989767298
 30
0.0
 11
-3563.750393841717
 21
-1978.74989767298
 31
0.0
  0
LINE
  5
19C
330
1F
100
AcDbEntity
  8
0-4
  6
Continuous
 62
    92
370
    13
100
AcDbLine
 10
-3706.250393841717
 20
-1978.74989767298
 30
0.0
 11
-3706.250393841717
 21
-1986.24989767298
 31
0.0
  0
LINE
  5
19D
330
1F
100
AcDbEntity
  8
0-4
  6
Continuous
 62
    92
370
    13
100
AcDbLine
 10
-3773.750393841717
 20
-1978.74989767298
 30
0.0
 11
-3706.250393841717
 21
-1978.74989767298
 31
0.0
  0
LINE
  5
19E
330
1F
100
AcDbEntity
  8
0-4
  6
Continuous
 62
    92
370
    13
100
AcDbLine
 10
-3522.500393841717
 20
-3224.999977575423
 30
0.0
 11
-3522.500393841717
 21
-3232.499977575423
 31
0.0
  0
LINE
  5
19F
330
1F
100
AcDbEntity
  8
0-4
  6
Continuous
 62
    92
370
    13
100
AcDbLine
 10
-3455.000393841717
 20
-3224.999977575423
 30
0.0
 11
-3522.500393841717
 21
-3224.999977575423
 31
0.0
  0
LINE
  5
1A0
330
1F
100
AcDbEntity
  8
0-4
  6
Continuous
 62
    92
370
    13
100
AcDbLine
 10
-3890.000393841717
 20
-3224.999977575423
 30
0.0
 11
-3822.500393841717
 21
-3224.999977575423
 31
0.0
  0
LINE
  5
1A1
330
1F
100
AcDbEntity
  8
0-4
  6
Continuous
 62
    92
370
    13
100
AcDbLine
 10
-3822.500393841717
 20
-3224.999977575423
 30
0.0
 11
-3822.500393841717
 21
-3232.499977575423
 31
0.0
  0
LINE
  5
1A2
330
1F
100
AcDbEntity
  8
F-1
  6
Continuous
 62
     7
370
     9
100
AcDbLine
 10
-155.0007588154554
 20
-2539.999937624545
 30
0.0
 11
-4940.000028867979
 21
-2539.999937624545
 31
0.0
  0
LINE
  5
1A3
330
1F
100
AcDbEntity
  8
0-4
  6
Continuous
 62
    92
370
    13
100
AcDbLine
 10
-4555.750386372078
 20
-414.7120237541537
 30
0.0
 11
-4598.17679324327
 21
-457.1384306253461
 31
0.0
  0
LINE
  5
1A4
330
1F
100
AcDbEntity
  8
0-4
  6
Continuous
 62
    92
370
    13
100
AcDbLine
 10
-3593.17679324327
 20
-414.7120237541537
 30
0.0
 11
-3593.17679324327
 21
-497.2120237541537
 31
0.0
  0
LINE
  5
1A5
330
1F
100
AcDbEntity
  8
0-0
  6
JWW_HOJO
 62
     7
370
     9
100
AcDbLine
 10
-3518.17679324327
 20
-339.7120237541537
 30
0.0
 11
-3518.17679324327
 21
-572.2120237541537
 31
0.0
  0
LINE
  5
1A6
330
1F
100
AcDbEntity
  8
0-0
  6
JWW_HOJO
 62
     7
370
     9
100
AcDbLine
 10
-3443.17679324327
 20
-264.7120237541537
 30
0.0
 11
-3443.17679324327
 21
-647.2120237541537
 31
0.0
  0
LWPOLYLINE
  5
1A7
330
1F
100
AcDbEntity
  8
0-B
  6
Continuous
 62
     7
370
     9
100
AcDbPolyline
 90
        4
 70
     1
 43
3.0
 10
-3591.676793243271
 20
-264.7120237541537
 42
0.4142135623731
 10
-3593.17679324327
 20
-263.2120237541537
 42
0.4142135623731
 10
-3594.67679324327
 20
-264.7120237541537
 42
0.4142135623731
 10
-3593.17679324327
 20
-266.2120237541537
 42
0.4142135623731
  0
LINE
  5
1A8
330
1F
100
AcDbEntity
  8
0-B
  6
Continuous
 62
   120
370
     5
100
AcDbLine
 10
-3593.17679324327
 20
-264.7120237541537
 30
0.0
 11
-3593.17679324327
 21
-339.7120237541537
 31
0.0
  0
LINE
  5
1A9
330
1F
100
AcDbEntity
  8
0-B
  6
Continuous
 62
   120
370
     5
100
AcDbLine
 10
-3443.17679324327
 20
-414.7120237541537
 30
0.0
 11
-3443.17679324327
 21
-497.2120237541537
 31
0.0
  0
LWPOLYLINE
  5
1AA
330
1F
100
AcDbEntity
  8
0-B
  6
Continuous
 62
     7
370
     9
100
AcDbPolyline
 90
        4
 70
     1
 43
3.0
 10
-3441.676793243271
 20
-414.7120237541537
 42
0.4142135623731
 10
-3443.17679324327
 20
-413.2120237541537
 42
0.4142135623731
 10
-3444.67679324327
 20
-414.7120237541537
 42
0.4142135623731
 10
-3443.17679324327
 20
-416.2120237541537
 42
0.4142135623731
  0
LWPOLYLINE
  5
1AB
330
1F
100
AcDbEntity
  8
0-B
  6
Continuous
 62
     7
370
     9
100
AcDbPolyline
 90
        4
 70
     1
 43
3.0
 10
-3441.676793243271
 20
-497.2120237541537
 42
0.4142135623731
 10
-3443.17679324327
 20
-495.7120237541537
 42
0.4142135623731
 10
-3444.67679324327
 20
-497.2120237541537
 42
0.4142135623731
 10
-3443.17679324327
 20
-498.7120237541537
 42
0.4142135623731
  0
LINE
  5
1AC
330
1F
100
AcDbEntity
  8
0-B
  6
Continuous
 62
   120
370
     5
100
AcDbLine
 10
-3443.17679324327
 20
-414.7120237541537
 30
0.0
 11
-3518.17679324327
 21
-414.7120237541537
 31
0.0
  0
LINE
  5
1AD
330
1F
100
AcDbEntity
  8
0-B
  6
Continuous
 62
   120
370
     5
100
AcDbLine
 10
-3443.17679324327
 20
-497.2120237541537
 30
0.0
 11
-3518.17679324327
 21
-497.2120237541537
 31
0.0
  0
LINE
  5
1AE
330
1F
100
AcDbEntity
  8
0-B
  6
Continuous
 62
   120
370
     5
100
AcDbLine
 10
-4110.67679324327
 20
-947.2120237541537
 30
0.0
 11
-4185.67679324327
 21
-947.2120237541537
 31
0.0
  0
LWPOLYLINE
  5
1AF
330
1F
100
AcDbEntity
  8
0-B
  6
Continuous
 62
     7
370
     9
100
AcDbPolyline
 90
        4
 70
     1
 43
3.0
 10
-4109.17679324327
 20
-947.2120237541537
 42
0.4142135623731
 10
-4110.67679324327
 20
-945.7120237541537
 42
0.4142135623731
 10
-4112.176793243271
 20
-947.2120237541537
 42
0.4142135623731
 10
-4110.67679324327
 20
-948.7120237541537
 42
0.4142135623731
  0
LINE
  5
1B0
330
1F
100
AcDbEntity
  8
0-B
  6
Continuous
 62
   120
370
     5
100
AcDbLine
 10
-4110.67679324327
 20
-497.2120237541537
 30
0.0
 11
-4110.67679324327
 21
-947.2120237541537
 31
0.0
  0
LINE
  5
1B1
330
1F
100
AcDbEntity
  8
0-B
  6
Continuous
 62
   120
370
     5
100
AcDbLine
 10
-4110.67679324327
 20
-864.7120237541537
 30
0.0
 11
-4185.67679324327
 21
-864.7120237541537
 31
0.0
  0
LWPOLYLINE
  5
1B2
330
1F
100
AcDbEntity
  8
0-B
  6
Continuous
 62
     7
370
     9
100
AcDbPolyline
 90
        4
 70
     1
 43
3.0
 10
-4109.17679324327
 20
-864.7120237541537
 42
0.4142135623731
 10
-4110.67679324327
 20
-863.2120237541537
 42
0.4142135623731
 10
-4112.176793243271
 20
-864.7120237541537
 42
0.4142135623731
 10
-4110.67679324327
 20
-866.2120237541537
 42
0.4142135623731
  0
LWPOLYLINE
  5
1B3
330
1F
100
AcDbEntity
  8
0-B
  6
Continuous
 62
     7
370
     9
100
AcDbPolyline
 90
        4
 70
     1
 43
3.0
 10
-4109.17679324327
 20
-497.2120237541537
 42
0.4142135623731
 10
-4110.67679324327
 20
-495.7120237541537
 42
0.4142135623731
 10
-4112.176793243271
 20
-497.2120237541537
 42
0.4142135623731
 10
-4110.67679324327
 20
-498.7120237541537
 42
0.4142135623731
  0
LINE
  5
1B4
330
1F
100
AcDbEntity
  8
0-B
  6
Continuous
 62
   120
370
     5
100
AcDbLine
 10
-4215.67679324327
 20
-759.7120237541537
 30
0.0
 11
-4215.67679324327
 21
-834.7120237541537
 31
0.0
  0
LWPOLYLINE
  5
1B5
330
1F
100
AcDbEntity
  8
0-B
  6
Continuous
 62
     7
370
     9
100
AcDbPolyline
 90
        4
 70
     1
 43
3.0
 10
-4214.17679324327
 20
-759.7120237541537
 42
0.4142135623731
 10
-4215.67679324327
 20
-758.2120237541537
 42
0.4142135623731
 10
-4217.176793243271
 20
-759.7120237541537
 42
0.4142135623731
 10
-4215.67679324327
 20
-761.2120237541537
 42
0.4142135623731
  0
LWPOLYLINE
  5
1B6
330
1F
100
AcDbEntity
  8
0-B
  6
Continuous
 62
     7
370
     9
100
AcDbPolyline
 90
        4
 70
     1
 43
3.0
 10
-4514.17679324327
 20
-759.7120237541537
 42
0.4142135623731
 10
-4515.67679324327
 20
-758.2120237541537
 42
0.4142135623731
 10
-4517.176793243271
 20
-759.7120237541537
 42
0.4142135623731
 10
-4515.67679324327
 20
-761.2120237541537
 42
0.4142135623731
  0
LINE
  5
1B7
330
1F
100
AcDbEntity
  8
0-B
  6
Continuous
 62
   120
370
     5
100
AcDbLine
 10
-4515.67679324327
 20
-759.7120237541537
 30
0.0
 11
-4215.67679324327
 21
-759.7120237541537
 31
0.0
  0
LINE
  5
1B8
330
1F
100
AcDbEntity
  8
0-B
  6
Continuous
 62
   120
370
     5
100
AcDbLine
 10
-4215.67679324327
 20
-1097.212023754154
 30
0.0
 11
-4215.67679324327
 21
-1022.212023754154
 31
0.0
  0
LINE
  5
1B9
330
1F
100
AcDbEntity
  8
0-B
  6
Continuous
 62
   120
370
     5
100
AcDbLine
 10
-4598.17679324327
 20
-1097.212023754154
 30
0.0
 11
-4598.17679324327
 21
-1022.212023754154
 31
0.0
  0
LWPOLYLINE
  5
1BA
330
1F
100
AcDbEntity
  8
0-B
  6
Continuous
 62
     7
370
     9
100
AcDbPolyline
 90
        4
 70
     1
 43
3.0
 10
-4214.17679324327
 20
-1097.212023754154
 42
0.4142135623731
 10
-4215.67679324327
 20
-1095.712023754154
 42
0.4142135623731
 10
-4217.176793243271
 20
-1097.212023754154
 42
0.4142135623731
 10
-4215.67679324327
 20
-1098.712023754154
 42
0.4142135623731
  0
LWPOLYLINE
  5
1BB
330
1F
100
AcDbEntity
  8
0-B
  6
Continuous
 62
     7
370
     9
100
AcDbPolyline
 90
        4
 70
     1
 43
3.0
 10
-4596.67679324327
 20
-1097.212023754154
 42
0.4142135623731
 10
-4598.17679324327
 20
-1095.712023754154
 42
0.4142135623731
 10
-4599.676793243271
 20
-1097.212023754154
 42
0.4142135623731
 10
-4598.17679324327
 20
-1098.712023754154
 42
0.4142135623731
  0
LINE
  5
1BC
330
1F
100
AcDbEntity
  8
0-B
  6
Continuous
 62
   120
370
     5
100
AcDbLine
 10
-4598.17679324327
 20
-1097.212023754154
 30
0.0
 11
-4215.67679324327
 21
-1097.212023754154
 31
0.0
  0
LINE
  5
1BD
330
1F
100
AcDbEntity
  8
0-B
  6
Continuous
 62
   120
370
     5
100
AcDbLine
 10
-4748.17679324327
 20
-947.2120237541537
 30
0.0
 11
-4598.17679324327
 21
-947.2120237541537
 31
0.0
  0
LINE
  5
1BE
330
1F
100
AcDbEntity
  8
0-B
  6
Continuous
 62
   120
370
     5
100
AcDbLine
 10
-4748.17679324327
 20
-414.7120237541537
 30
0.0
 11
-4598.17679324327
 21
-414.7120237541537
 31
0.0
  0
LWPOLYLINE
  5
1BF
330
1F
100
AcDbEntity
  8
0-B
  6
Continuous
 62
     7
370
     9
100
AcDbPolyline
 90
        4
 70
     1
 43
3.0
 10
-4746.67679324327
 20
-947.2120237541537
 42
0.4142135623731
 10
-4748.17679324327
 20
-945.7120237541537
 42
0.4142135623731
 10
-4749.676793243271
 20
-947.2120237541537
 42
0.4142135623731
 10
-4748.17679324327
 20
-948.7120237541537
 42
0.4142135623731
  0
LWPOLYLINE
  5
1C0
330
1F
100
AcDbEntity
  8
0-B
  6
Continuous
 62
     7
370
     9
100
AcDbPolyline
 90
        4
 70
     1
 43
3.0
 10
-4746.67679324327
 20
-414.7120237541537
 42
0.4142135623731
 10
-4748.17679324327
 20
-413.2120237541537
 42
0.4142135623731
 10
-4749.676793243271
 20
-414.7120237541537
 42
0.4142135623731
 10
-4748.17679324327
 20
-416.2120237541537
 42
0.4142135623731
  0
LINE
  5
1C1
330
1F
100
AcDbEntity
  8
0-B
  6
Continuous
 62
   120
370
     5
100
AcDbLine
 10
-4748.17679324327
 20
-414.7120237541537
 30
0.0
 11
-4748.17679324327
 21
-947.2120237541537
 31
0.0
  0
LINE
  5
1C2
330
1F
100
AcDbEntity
  8
0-B
  6
Continuous
 62
   120
370
     5
100
AcDbLine
 10
-4598.17679324327
 20
-264.7120237541537
 30
0.0
 11
-4598.17679324327
 21
-339.7120237541537
 31
0.0
  0
LWPOLYLINE
  5
1C3
330
1F
100
AcDbEntity
  8
0-B
  6
Continuous
 62
     7
370
     9
100
AcDbPolyline
 90
        4
 70
     1
 43
3.0
 10
-4596.67679324327
 20
-264.7120237541537
 42
0.4142135623731
 10
-4598.17679324327
 20
-263.2120237541537
 42
0.4142135623731
 10
-4599.676793243271
 20
-264.7120237541537
 42
0.4142135623731
 10
-4598.17679324327
 20
-266.2120237541537
 42
0.4142135623731
  0
LINE
  5
1C4
330
1F
100
AcDbEntity
  8
0-B
  6
Continuous
 62
   120
370
     5
100
AcDbLine
 10
-4598.17679324327
 20
-264.7120237541537
 30
0.0
 11
-3593.17679324327
 21
-264.7120237541537
 31
0.0
  0
LINE
  5
1C5
330
1F
100
AcDbEntity
  8
0-0
  6
JWW_HOJO
 62
     7
370
     9
100
AcDbLine
 10
-4110.67679324327
 20
-834.7120237541537
 30
0.0
 11
-4515.67679324327
 21
-834.7120237541537
 31
0.0
  0
LINE
  5
1C6
330
1F
100
AcDbEntity
  8
0-0
  6
JWW_HOJO
 62
     7
370
     9
100
AcDbLine
 10
-4110.67679324327
 20
-759.7120237541537
 30
0.0
 11
-4515.67679324327
 21
-759.7120237541537
 31
0.0
  0
LINE
  5
1C7
330
1F
100
AcDbEntity
  8
0-0
  6
JWW_HOJO
 62
     7
370
     9
100
AcDbLine
 10
-4110.67679324327
 20
-534.4235007887266
 30
0.0
 11
-4110.67679324327
 21
-1097.212023754154
 31
0.0
  0
LINE
  5
1C8
330
1F
100
AcDbEntity
  8
0-0
  6
JWW_HOJO
 62
     7
370
     9
100
AcDbLine
 10
-4748.17679324327
 20
-1097.212023754154
 30
0.0
 11
-4110.67679324327
 21
-1097.212023754154
 31
0.0
  0
LINE
  5
1C9
330
1F
100
AcDbEntity
  8
0-0
  6
JWW_HOJO
 62
     7
370
     9
100
AcDbLine
 10
-4185.67679324327
 20
-534.4235007887266
 30
0.0
 11
-4185.67679324327
 21
-1022.212023754154
 31
0.0
  0
LINE
  5
1CA
330
1F
100
AcDbEntity
  8
0-0
  6
JWW_HOJO
 62
     7
370
     9
100
AcDbLine
 10
-4673.17679324327
 20
-1022.212023754154
 30
0.0
 11
-4185.67679324327
 21
-1022.212023754154
 31
0.0
  0
LINE
  5
1CB
330
1F
100
AcDbEntity
  8
0-0
  6
JWW_HOJO
 62
     7
370
     9
100
AcDbLine
 10
-3443.17679324327
 20
-647.2120237541537
 30
0.0
 11
-4515.67679324327
 21
-647.2120237541537
 31
0.0
  0
LINE
  5
1CC
330
1F
100
AcDbEntity
  8
0-0
  6
JWW_HOJO
 62
     7
370
     9
100
AcDbLine
 10
-3518.17679324327
 20
-572.2120237541537
 30
0.0
 11
-4515.67679324327
 21
-572.2120237541537
 31
0.0
  0
LINE
  5
1CD
330
1F
100
AcDbEntity
  8
0-0
  6
JWW_HOJO
 62
     7
370
     9
100
AcDbLine
 10
-4748.17679324327
 20
-264.7120237541537
 30
0.0
 11
-3443.17679324327
 21
-264.7120237541537
 31
0.0
  0
LINE
  5
1CE
330
1F
100
AcDbEntity
  8
0-0
  6
JWW_HOJO
 62
     7
370
     9
100
AcDbLine
 10
-4673.17679324327
 20
-339.7120237541537
 30
0.0
 11
-3518.17679324327
 21
-339.7120237541537
 31
0.0
  0
LINE
  5
1CF
330
1F
100
AcDbEntity
  8
0-0
  6
JWW_HOJO
 62
     7
370
     9
100
AcDbLine
 10
-4673.17679324327
 20
-1022.212023754154
 30
0.0
 11
-4673.17679324327
 21
-339.7120237541537
 31
0.0
  0
LINE
  5
1D0
330
1F
100
AcDbEntity
  8
0-0
  6
JWW_HOJO
 62
     7
370
     9
100
AcDbLine
 10
-4748.17679324327
 20
-1097.212023754154
 30
0.0
 11
-4748.17679324327
 21
-264.7120237541537
 31
0.0
  0
LINE
  5
1D1
330
1F
100
AcDbEntity
  8
0-4
  6
Continuous
 62
    92
370
    13
100
AcDbLine
 10
-4555.750386372078
 20
-457.1384306253461
 30
0.0
 11
-4515.67679324327
 21
-497.2120237541537
 31
0.0
  0
LINE
  5
1D2
330
1F
100
AcDbEntity
  8
0-4
  6
Continuous
 62
    92
370
    13
100
AcDbLine
 10
-4598.17679324327
 20
-936.6054220363554
 30
0.0
 11
-4587.57019152547
 21
-947.2120237541537
 31
0.0
  0
LINE
  5
1D3
330
1F
100
AcDbEntity
  8
0-4
  6
Continuous
 62
    92
370
    13
100
AcDbLine
 10
-4598.17679324327
 20
-936.6054220363554
 30
0.0
 11
-4598.17679324327
 21
-457.1384306253461
 31
0.0
  0
LINE
  5
1D4
330
1F
100
AcDbEntity
  8
0-4
  6
Continuous
 62
    92
370
    13
100
AcDbLine
 10
-4215.67679324327
 20
-864.7120237541537
 30
0.0
 11
-4515.67679324327
 21
-864.7120237541537
 31
0.0
  0
LINE
  5
1D5
330
1F
100
AcDbEntity
  8
0-4
  6
Continuous
 62
    92
370
    13
100
AcDbLine
 10
-4515.67679324327
 20
-864.7120237541537
 30
0.0
 11
-4515.67679324327
 21
-497.2120237541537
 31
0.0
  0
LINE
  5
1D6
330
1F
100
AcDbEntity
  8
0-B
  6
Continuous
 62
   120
370
     5
100
AcDbLine
 10
-3593.17679324327
 20
-706.2498177708807
 30
0.0
 11
-3893.17679324327
 21
-706.2498177708807
 31
0.0
  0
LWPOLYLINE
  5
1D7
330
1F
100
AcDbEntity
  8
0-B
  6
Continuous
 62
     7
370
     9
100
AcDbPolyline
 90
        4
 70
     1
 43
3.0
 10
-3591.676793243271
 20
-706.2498177708807
 42
0.4142135623731
 10
-3593.17679324327
 20
-704.7498177708807
 42
0.4142135623731
 10
-3594.67679324327
 20
-706.2498177708807
 42
0.4142135623731
 10
-3593.17679324327
 20
-707.7498177708807
 42
0.4142135623731
  0
LWPOLYLINE
  5
1D8
330
1F
100
AcDbEntity
  8
0-B
  6
Continuous
 62
     7
370
     9
100
AcDbPolyline
 90
        4
 70
     1
 43
3.0
 10
-3891.67679324327
 20
-706.2498177708807
 42
0.4142135623731
 10
-3893.17679324327
 20
-704.7498177708807
 42
0.4142135623731
 10
-3894.676793243271
 20
-706.2498177708807
 42
0.4142135623731
 10
-3893.17679324327
 20
-707.7498177708807
 42
0.4142135623731
  0
LINE
  5
1D9
330
1F
100
AcDbEntity
  8
0-B
  6
Continuous
 62
   120
370
     5
100
AcDbLine
 10
-3593.17679324327
 20
-706.2498177708807
 30
0.0
 11
-3593.17679324327
 21
-631.2498177708807
 31
0.0
  0
LINE
  5
1DA
330
1F
100
AcDbEntity
  8
0-B
  6
Continuous
 62
   120
370
     5
100
AcDbLine
 10
-3893.17679324327
 20
-706.2498177708807
 30
0.0
 11
-3893.17679324327
 21
-631.2498177708807
 31
0.0
  0
LINE
  5
1DB
330
1F
100
AcDbEntity
  8
0-B
  6
Continuous
 62
   120
370
     5
100
AcDbLine
 10
-4576.963589807674
 20
-435.9252271897503
 30
0.0
 11
-4719.114849089255
 21
-189.7120237541537
 31
0.0
  0
LINE
  5
1DC
330
1F
100
AcDbEntity
  8
0-B
  6
Continuous
 62
   120
370
     5
100
AcDbLine
 10
-4592.87349238437
 20
-941.9087228952546
 30
0.0
 11
-4725.839165130515
 21
-1172.212023754154
 31
0.0
  0
LINE
  5
1DD
330
1F
100
AcDbEntity
  8
0-B
  6
Continuous
 62
   120
370
     5
100
AcDbLine
 10
-4838.426454934096
 20
-1172.212023754154
 30
0.0
 11
-4725.839165130515
 21
-1172.212023754154
 31
0.0
  0
LINE
  5
1DE
330
1F
100
AcDbEntity
  8
0-B
  6
Continuous
 62
   120
370
     5
100
AcDbLine
 10
-4829.378864277628
 20
-189.7120237541537
 30
0.0
 11
-4719.114849089255
 21
-189.7120237541537
 31
0.0
  0
LINE
  5
1DF
330
1F
100
AcDbEntity
  8
0-4
  6
Continuous
 62
    92
370
    13
100
AcDbLine
 10
-4552.643784654278
 20
-422.2120237541537
 30
0.0
 11
-4590.67679324327
 21
-460.2450323431444
 31
0.0
  0
LINE
  5
1E0
330
1F
100
AcDbEntity
  8
0-4
  6
Continuous
 62
    92
370
    13
100
AcDbLine
 10
-4587.57019152547
 20
-457.1384306253461
 30
0.0
 11
-4555.750386372078
 21
-457.1384306253461
 31
0.0
  0
LINE
  5
1E1
330
1F
100
AcDbEntity
  8
0-4
  6
Continuous
 62
    92
370
    13
100
AcDbLine
 10
-4555.750386372078
 20
-425.318625471952
 30
0.0
 11
-4555.750386372078
 21
-457.1384306253461
 31
0.0
  0
LINE
  5
1E2
330
1F
100
AcDbEntity
  8
0-4
  6
Continuous
 62
    92
370
    13
100
AcDbLine
 10
-4590.67679324327
 20
-460.2450323431444
 30
0.0
 11
-4590.67679324327
 21
-933.4988203185571
 31
0.0
  0
LINE
  5
1E3
330
1F
100
AcDbEntity
  8
0-4
  6
Continuous
 62
    92
370
    13
100
AcDbLine
 10
-4590.67679324327
 20
-933.4988203185571
 30
0.0
 11
-4584.463589807674
 21
-939.7120237541537
 31
0.0
  0
LINE
  5
1E4
330
1F
100
AcDbEntity
  8
0-4
  6
Continuous
 62
    92
370
    13
100
AcDbLine
 10
-4587.57019152547
 20
-936.6054220363554
 30
0.0
 11
-4515.67679324327
 21
-864.7120237541537
 31
0.0
  0
LINE
  5
1E5
330
1F
100
AcDbEntity
  8
0-4
  6
Continuous
 62
    92
370
    13
100
AcDbLine
 10
-4587.57019152547
 20
-947.2120237541537
 30
0.0
 11
-4215.67679324327
 21
-947.2120237541537
 31
0.0
  0
LINE
  5
1E6
330
1F
100
AcDbEntity
  8
0-4
  6
Continuous
 62
    92
370
    13
100
AcDbLine
 10
-4215.67679324327
 20
-864.7120237541537
 30
0.0
 11
-4215.67679324327
 21
-947.2120237541537
 31
0.0
  0
LINE
  5
1E7
330
1F
100
AcDbEntity
  8
0-4
  6
Continuous
 62
    92
370
    13
100
AcDbLine
 10
-4223.17679324327
 20
-864.7120237541537
 30
0.0
 11
-4223.17679324327
 21
-939.7120237541537
 31
0.0
  0
LINE
  5
1E8
330
1F
100
AcDbEntity
  8
0-4
  6
Continuous
 62
    92
370
    13
100
AcDbLine
 10
-4584.463589807674
 20
-939.7120237541537
 30
0.0
 11
-4223.17679324327
 21
-939.7120237541537
 31
0.0
  0
LINE
  5
1E9
330
1F
100
AcDbEntity
  8
0-A
  6
Continuous
 62
     7
370
     9
100
AcDbLine
 10
-3930.28668209878
 20
-452.787203483899
 30
0.0
 11
-3966.352155708353
 21
-452.787203483899
 31
0.0
  0
LINE
  5
1EA
330
1F
100
AcDbEntity
  8
0-A
  6
Continuous
 62
     7
370
     9
100
AcDbLine
 10
-3992.332917821886
 20
-467.787203483899
 30
0.0
 11
-3956.267444212313
 21
-467.787203483899
 31
0.0
  0
LINE
  5
1EB
330
1F
100
AcDbEntity
  8
0-A
  6
Continuous
 62
     7
370
     9
100
AcDbLine
 10
-3940.039313423021
 20
-377.2120237541537
 30
0.0
 11
-3992.332917821886
 21
-467.7872034838981
 31
0.0
  0
LINE
  5
1EC
330
1F
100
AcDbEntity
  8
0-A
  6
Continuous
 62
     7
370
     9
100
AcDbLine
 10
-3922.718805347331
 20
-377.2120237541537
 30
0.0
 11
-3966.352155708353
 21
-452.787203483899
 31
0.0
  0
LINE
  5
1ED
330
1F
100
AcDbEntity
  8
0-A
  6
Continuous
 62
     7
370
     9
100
AcDbLine
 10
-3994.906507210813
 20
-534.7120237541537
 30
0.0
 11
-3956.267444212313
 21
-467.787203483899
 31
0.0
  0
LINE
  5
1EE
330
1F
100
AcDbEntity
  8
0-A
  6
Continuous
 62
     7
370
     9
100
AcDbLine
 10
-3977.585999135124
 20
-534.7120237541537
 30
0.0
 11
-3930.28668209878
 21
-452.787203483899
 31
0.0
  0
LINE
  5
1EF
330
1F
100
AcDbEntity
  8
0-4
  6
Continuous
 62
    92
370
    13
100
AcDbLine
 10
-4552.643784654278
 20
-422.2120237541537
 30
0.0
 11
-3966.020075536553
 21
-422.2120237541537
 31
0.0
  0
LINE
  5
1F0
330
1F
100
AcDbEntity
  8
0-4
  6
Continuous
 62
    92
370
    13
100
AcDbLine
 10
-3948.699567460863
 20
-422.2120237541537
 30
0.0
 11
-3593.17679324327
 21
-422.2120237541537
 31
0.0
  0
LINE
  5
1F1
330
1F
100
AcDbEntity
  8
0-4
  6
Continuous
 62
    92
370
    13
100
AcDbLine
 10
-4555.750386372078
 20
-414.7120237541537
 30
0.0
 11
-3961.689948517632
 21
-414.7120237541537
 31
0.0
  0
LINE
  5
1F2
330
1F
100
AcDbEntity
  8
0-4
  6
Continuous
 62
    92
370
    13
100
AcDbLine
 10
-3944.369440441942
 20
-414.7120237541537
 30
0.0
 11
-3593.17679324327
 21
-414.7120237541537
 31
0.0
  0
LINE
  5
1F3
330
1F
100
AcDbEntity
  8
0-4
  6
Continuous
 62
    92
370
    13
100
AcDbLine
 10
-3593.17679324327
 20
-497.2120237541537
 30
0.0
 11
-3955.935364040513
 21
-497.2120237541537
 31
0.0
  0
LINE
  5
1F4
330
1F
100
AcDbEntity
  8
0-4
  6
Continuous
 62
    92
370
    13
100
AcDbLine
 10
-3973.255872116202
 20
-497.2120237541537
 30
0.0
 11
-4515.67679324327
 21
-497.2120237541537
 31
0.0
  0
LINE
  5
1F5
330
1F
100
AcDbEntity
  8
0-4
  6
Continuous
 62
    92
370
    13
100
AcDbLine
 10
-2720.685028133217
 20
-497.2120237541537
 30
0.0
 11
-2705.685028133217
 21
-482.2120237541537
 31
0.0
  0
LINE
  5
1F6
330
1F
100
AcDbEntity
  8
0-4
  6
Continuous
 62
    92
370
    13
100
AcDbLine
 10
-2990.685028133217
 20
-399.7120237541537
 30
0.0
 11
-2705.685028133217
 21
-399.7120237541537
 31
0.0
  0
LINE
  5
1F7
330
1F
100
AcDbEntity
  8
0-4
  6
Continuous
 62
    92
370
    13
100
AcDbLine
 10
-2720.685028133217
 20
-497.2120237541537
 30
0.0
 11
-2720.685028133217
 21
-414.7120237541537
 31
0.0
  0
LINE
  5
1F8
330
1F
100
AcDbEntity
  8
0-4
  6
Continuous
 62
    92
370
    13
100
AcDbLine
 10
-2705.685028133217
 20
-482.2120237541537
 30
0.0
 11
-2705.685028133217
 21
-399.7120237541537
 31
0.0
  0
LINE
  5
1F9
330
1F
100
AcDbEntity
  8
0-4
  6
Continuous
 62
    92
370
    13
100
AcDbLine
 10
-2990.685028133217
 20
-399.7120237541537
 30
0.0
 11
-3005.685028133217
 21
-414.7120237541537
 31
0.0
  0
LINE
  5
1FA
330
1F
100
AcDbEntity
  8
0-4
  6
Continuous
 62
    92
370
    13
100
AcDbLine
 10
-2720.685028133217
 20
-414.7120237541537
 30
0.0
 11
-3005.685028133217
 21
-414.7120237541537
 31
0.0
  0
LINE
  5
1FB
330
1F
100
AcDbEntity
  8
0-0
  6
JWW_HOJO
 62
     7
370
     9
100
AcDbLine
 10
-2705.685028133217
 20
-399.7120237541537
 30
0.0
 11
-2555.685028133217
 21
-399.7120237541537
 31
0.0
  0
LINE
  5
1FC
330
1F
100
AcDbEntity
  8
0-0
  6
JWW_HOJO
 62
     7
370
     9
100
AcDbLine
 10
-2630.685028133217
 20
-572.2120237541537
 30
0.0
 11
-2630.685028133217
 21
-399.7120237541537
 31
0.0
  0
LINE
  5
1FD
330
1F
100
AcDbEntity
  8
0-0
  6
JWW_HOJO
 62
     7
370
     9
100
AcDbLine
 10
-2630.685028133217
 20
-572.2120237541537
 30
0.0
 11
-3080.685028133217
 21
-572.2120237541537
 31
0.0
  0
LINE
  5
1FE
330
1F
100
AcDbEntity
  8
0-0
  6
JWW_HOJO
 62
     7
370
     9
100
AcDbLine
 10
-2555.685028133217
 20
-647.2120237541537
 30
0.0
 11
-2555.685028133217
 21
-399.7120237541537
 31
0.0
  0
LINE
  5
1FF
330
1F
100
AcDbEntity
  8
0-0
  6
JWW_HOJO
 62
     7
370
     9
100
AcDbLine
 10
-2555.685028133217
 20
-647.2120237541537
 30
0.0
 11
-3155.685028133217
 21
-647.2120237541537
 31
0.0
  0
LINE
  5
200
330
1F
100
AcDbEntity
  8
0-0
  6
JWW_HOJO
 62
     7
370
     9
100
AcDbLine
 10
-3155.685028133217
 20
-399.7120237541537
 30
0.0
 11
-3155.685028133217
 21
-647.2120237541537
 31
0.0
  0
LINE
  5
201
330
1F
100
AcDbEntity
  8
0-0
  6
JWW_HOJO
 62
     7
370
     9
100
AcDbLine
 10
-2990.685028133217
 20
-399.7120237541537
 30
0.0
 11
-3155.685028133217
 21
-399.7120237541537
 31
0.0
  0
LINE
  5
202
330
1F
100
AcDbEntity
  8
0-0
  6
JWW_HOJO
 62
     7
370
     9
100
AcDbLine
 10
-3080.685028133217
 20
-399.7120237541537
 30
0.0
 11
-3080.685028133217
 21
-572.2120237541537
 31
0.0
  0
LINE
  5
203
330
1F
100
AcDbEntity
  8
0-B
  6
Continuous
 62
   120
370
     5
100
AcDbLine
 10
-2555.685028133217
 20
-399.7120237541537
 30
0.0
 11
-2555.685028133217
 21
-497.2120237541537
 31
0.0
  0
LWPOLYLINE
  5
204
330
1F
100
AcDbEntity
  8
0-B
  6
Continuous
 62
     7
370
     9
100
AcDbPolyline
 90
        4
 70
     1
 43
3.0
 10
-2554.185028133218
 20
-399.7120237541537
 42
0.4142135623731
 10
-2555.685028133217
 20
-398.2120237541537
 42
0.4142135623731
 10
-2557.185028133217
 20
-399.7120237541537
 42
0.4142135623731
 10
-2555.685028133217
 20
-401.2120237541537
 42
0.4142135623731
  0
LWPOLYLINE
  5
205
330
1F
100
AcDbEntity
  8
0-B
  6
Continuous
 62
     7
370
     9
100
AcDbPolyline
 90
        4
 70
     1
 43
3.0
 10
-2554.185028133218
 20
-497.2120237541537
 42
0.4142135623731
 10
-2555.685028133217
 20
-495.7120237541537
 42
0.4142135623731
 10
-2557.185028133217
 20
-497.2120237541537
 42
0.4142135623731
 10
-2555.685028133217
 20
-498.7120237541537
 42
0.4142135623731
  0
LINE
  5
206
330
1F
100
AcDbEntity
  8
0-B
  6
Continuous
 62
   120
370
     5
100
AcDbLine
 10
-2555.685028133217
 20
-399.7120237541537
 30
0.0
 11
-2630.685028133217
 21
-399.7120237541537
 31
0.0
  0
LINE
  5
207
330
1F
100
AcDbEntity
  8
0-B
  6
Continuous
 62
   120
370
     5
100
AcDbLine
 10
-2555.685028133217
 20
-497.2120237541537
 30
0.0
 11
-2630.685028133217
 21
-497.2120237541537
 31
0.0
  0
LINE
  5
208
330
1F
100
AcDbEntity
  8
0-B
  6
Continuous
 62
   120
370
     5
100
AcDbLine
 10
-3155.685028133217
 20
-399.7120237541537
 30
0.0
 11
-3155.685028133217
 21
-414.7120237541537
 31
0.0
  0
LWPOLYLINE
  5
209
330
1F
100
AcDbEntity
  8
0-B
  6
Continuous
 62
     7
370
     9
100
AcDbPolyline
 90
        4
 70
     1
 43
3.0
 10
-3154.185028133218
 20
-399.7120237541537
 42
0.4142135623731
 10
-3155.685028133217
 20
-398.2120237541537
 42
0.4142135623731
 10
-3157.185028133217
 20
-399.7120237541537
 42
0.4142135623731
 10
-3155.685028133217
 20
-401.2120237541537
 42
0.4142135623731
  0
LWPOLYLINE
  5
20A
330
1F
100
AcDbEntity
  8
0-B
  6
Continuous
 62
     7
370
     9
100
AcDbPolyline
 90
        4
 70
     1
 43
3.0
 10
-3154.185028133218
 20
-414.7120237541537
 42
0.4142135623731
 10
-3155.685028133217
 20
-413.2120237541537
 42
0.4142135623731
 10
-3157.185028133217
 20
-414.7120237541537
 42
0.4142135623731
 10
-3155.685028133217
 20
-416.2120237541537
 42
0.4142135623731
  0
LINE
  5
20B
330
1F
100
AcDbEntity
  8
0-B
  6
Continuous
 62
   120
370
     5
100
AcDbLine
 10
-3155.685028133217
 20
-399.7120237541537
 30
0.0
 11
-3080.685028133217
 21
-399.7120237541537
 31
0.0
  0
LINE
  5
20C
330
1F
100
AcDbEntity
  8
0-B
  6
Continuous
 62
   120
370
     5
100
AcDbLine
 10
-3155.685028133217
 20
-414.7120237541537
 30
0.0
 11
-3080.685028133217
 21
-414.7120237541537
 31
0.0
  0
LINE
  5
20D
330
1F
100
AcDbEntity
  8
0-B
  6
Continuous
 62
   120
370
     5
100
AcDbLine
 10
-2705.685028133217
 20
-647.2120237541537
 30
0.0
 11
-3005.685028133217
 21
-647.2120237541537
 31
0.0
  0
LWPOLYLINE
  5
20E
330
1F
100
AcDbEntity
  8
0-B
  6
Continuous
 62
     7
370
     9
100
AcDbPolyline
 90
        4
 70
     1
 43
3.0
 10
-2704.185028133218
 20
-647.2120237541537
 42
0.4142135623731
 10
-2705.685028133217
 20
-645.7120237541537
 42
0.4142135623731
 10
-2707.185028133217
 20
-647.2120237541537
 42
0.4142135623731
 10
-2705.685028133217
 20
-648.7120237541537
 42
0.4142135623731
  0
LWPOLYLINE
  5
20F
330
1F
100
AcDbEntity
  8
0-B
  6
Continuous
 62
     7
370
     9
100
AcDbPolyline
 90
        4
 70
     1
 43
3.0
 10
-2719.185028133218
 20
-647.2120237541537
 42
0.4142135623731
 10
-2720.685028133217
 20
-645.7120237541537
 42
0.4142135623731
 10
-2722.185028133217
 20
-647.2120237541537
 42
0.4142135623731
 10
-2720.685028133217
 20
-648.7120237541537
 42
0.4142135623731
  0
LINE
  5
210
330
1F
100
AcDbEntity
  8
0-B
  6
Continuous
 62
   120
370
     5
100
AcDbLine
 10
-2705.685028133217
 20
-647.2120237541537
 30
0.0
 11
-2705.685028133217
 21
-572.2120237541537
 31
0.0
  0
LINE
  5
211
330
1F
100
AcDbEntity
  8
0-B
  6
Continuous
 62
   120
370
     5
100
AcDbLine
 10
-2720.685028133217
 20
-647.2120237541537
 30
0.0
 11
-2720.685028133217
 21
-572.2120237541537
 31
0.0
  0
LWPOLYLINE
  5
212
330
1F
100
AcDbEntity
  8
0-B
  6
Continuous
 62
     7
370
     9
100
AcDbPolyline
 90
        4
 70
     1
 43
3.0
 10
-3004.185028133218
 20
-647.2120237541537
 42
0.4142135623731
 10
-3005.685028133217
 20
-645.7120237541537
 42
0.4142135623731
 10
-3007.185028133217
 20
-647.2120237541537
 42
0.4142135623731
 10
-3005.685028133217
 20
-648.7120237541537
 42
0.4142135623731
  0
LINE
  5
213
330
1F
100
AcDbEntity
  8
0-B
  6
Continuous
 62
   120
370
     5
100
AcDbLine
 10
-3005.685028133217
 20
-647.2120237541537
 30
0.0
 11
-3005.685028133217
 21
-572.2120237541537
 31
0.0
  0
MTEXT
  5
214
330
1F
100
AcDbEntity
  8
0-A
  6
Continuous
 62
     7
370
     9
100
AcDbMText
 10
-2352.500758815456
 20
-173.8347828135622
 30
0.0
 40
68.58000000000001
 41
720.0
 46
0.0
 71
     7
 72
     1
  1
{\fＭＳ ゴシック|b0|i0|c128|p49;2,400×156×35.5}
 73
     1
 44
1.0
  0
MTEXT
  5
215
330
1F
100
AcDbEntity
  8
0-A
  6
Continuous
 62
     7
370
     9
100
AcDbMText
 10
-417.5007588154563
 20
-173.8347828135622
 30
0.0
 40
68.58
 41
45.0
 46
0.0
 71
     7
 72
     1
  1
{\fＭＳ ゴシック|b0|i0|c128|p49;1}
 73
     1
 44
1.0
  0
MTEXT
  5
216
330
1F
100
AcDbEntity
  8
0-A
  6
Continuous
 62
     7
370
     9
100
AcDbMText
 10
-3170.685028133217
 20
-213.1795109804
 30
0.0
 40
68.58
 41
630.0
 46
0.0
 71
     7
 72
     1
  1
{\fＭＳ ゴシック|b0|i0|c128|p49;アルミアングル}
 73
     1
 44
1.0
  0
MTEXT
  5
217
330
1F
100
AcDbEntity
  8
0-A
  6
Continuous
 62
     7
370
     9
100
AcDbMText
 10
-5929.999626778268
 20
-740.7085677708815
 30
0.0
 40
88.5825
 41
930.0
 46
0.0
 71
     7
 72
     1
  1
{\fＭＳ ゴシック|b0|i0|c128|p49;リフォーム用窓枠}
 73
     1
 44
1.0
  0
MTEXT
  5
218
330
1F
100
AcDbEntity
  8
0-B
  6
Continuous
 62
     7
370
     9
100
AcDbMText
 10
-4831.614849089255
 20
-198.6370237541537
 30
0.0
 40
57.15
 41
112.5
 46
0.0
 71
     7
 72
     1
  1
{\fＭＳ ゴシック|b0|i0|c128|p49;C=4}
 73
     1
 44
1.0
  0
MTEXT
  5
219
330
1F
100
AcDbEntity
  8
0-B
  6
Continuous
 62
     7
370
   211
100
AcDbMText
 10
-4170.67679324327
 20
-256.6120237541537
 30
0.0
 40
76.19999999999999
 41
150.0
 46
0.0
 71
     7
 72
     1
  1
{\fＭＳ ゴシック|b0|i0|c128|p49;156}
 73
     1
 44
1.0
  0
MTEXT
  5
21A
330
1F
100
AcDbEntity
  8
0-B
  6
Continuous
 62
     7
370
   211
100
AcDbMText
 10
-3170.685028133217
 20
-440.4220237541537
 30
0.0
 40
68.58
 41
45.0
 46
0.0
 71
     7
 72
     1
  1
{\fＭＳ ゴシック|b0|i0|c128|p49;1}
 11
6.123031769111886E-17
 21
1.0
 31
0.0
 73
     1
 44
1.0
  0
MTEXT
  5
21B
330
1F
100
AcDbEntity
  8
0-B
  6
Continuous
 62
     7
370
   211
100
AcDbMText
 10
-2452.770832280629
 20
-530.3620237541537
 30
0.0
 40
76.19999999999999
 41
150.0
 46
0.0
 71
     7
 72
     1
  1
{\fＭＳ ゴシック|b0|i0|c128|p49;6.5}
 11
6.123031769111886E-17
 21
1.0
 31
0.0
 73
     1
 44
1.0
  0
MTEXT
  5
21C
330
1F
100
AcDbEntity
  8
0-B
  6
Continuous
 62
     7
370
   211
100
AcDbMText
 10
-3342.227357115015
 20
-537.8620237541537
 30
0.0
 40
76.19999999999999
 41
150.0
 46
0.0
 71
     7
 72
     1
  1
{\fＭＳ ゴシック|b0|i0|c128|p49;5.5}
 11
6.123031769111886E-17
 21
1.0
 31
0.0
 73
     1
 44
1.0
  0
MTEXT
  5
21D
330
1F
100
AcDbEntity
  8
0-B
  6
Continuous
 62
     7
370
     9
100
AcDbMText
 10
-3949.426793243269
 20
-629.2948261709039
 30
0.0
 40
57.14999999999999
 41
412.5
 46
0.0
 71
     7
 72
     1
  1
{\fＭＳ ゴシック|b0|i0|c128|p49;幅は現場ｶｯﾄ}
 73
     1
 44
1.0
  0
MTEXT
  5
21E
330
1F
100
AcDbEntity
  8
0-B
  6
Continuous
 62
     7
370
   211
100
AcDbMText
 10
-2911.935028133217
 20
-640.0645237541537
 30
0.0
 40
74.295
 41
97.5
 46
0.0
 71
     7
 72
     1
  1
{\fＭＳ ゴシック|b0|i0|c128|p49;19}
 73
     1
 44
1.0
  0
MTEXT
  5
21F
330
1F
100
AcDbEntity
  8
0-B
  6
Continuous
 62
     7
370
   211
100
AcDbMText
 10
-2735.685028133217
 20
-747.9220237541538
 30
0.0
 40
68.58
 41
45.0
 46
0.0
 71
     7
 72
     1
  1
{\fＭＳ ゴシック|b0|i0|c128|p49;1}
 73
     1
 44
1.0
  0
MTEXT
  5
220
330
1F
100
AcDbEntity
  8
0-B
  6
Continuous
 62
     7
370
   211
100
AcDbMText
 10
-4414.42679324327
 20
-752.5645237541537
 30
0.0
 40
74.295
 41
97.5
 46
0.0
 71
     7
 72
     1
  1
{\fＭＳ ゴシック|b0|i0|c128|p49;20}
 73
     1
 44
1.0
  0
MTEXT
  5
221
330
1F
100
AcDbEntity
  8
0-B
  6
Continuous
 62
     7
370
   211
100
AcDbMText
 10
-4763.17679324327
 20
-788.6357737541538
 30
0.0
 40
77.15249999999999
 41
202.5
 46
0.0
 71
     7
 72
     1
  1
{\fＭＳ ゴシック|b0|i0|c128|p49;35.5}
 11
6.123031769111886E-17
 21
1.0
 31
0.0
 73
     1
 44
1.0
  0
MTEXT
  5
222
330
1F
100
AcDbEntity
  8
0-B
  6
Continuous
 62
     7
370
   211
100
AcDbMText
 10
-4002.770390947321
 20
-788.6357737541538
 30
0.0
 40
77.15249999999999
 41
202.5
 46
0.0
 71
     7
 72
     1
  1
{\fＭＳ ゴシック|b0|i0|c128|p49;24.5}
 11
6.123031769111886E-17
 21
1.0
 31
0.0
 73
     1
 44
1.0
  0
MTEXT
  5
223
330
1F
100
AcDbEntity
  8
0-B
  6
Continuous
 62
     7
370
   211
100
AcDbMText
 10
-4002.770390947321
 20
-987.8620237541537
 30
0.0
 40
76.19999999999999
 41
150.0
 46
0.0
 71
     7
 72
     1
  1
{\fＭＳ ゴシック|b0|i0|c128|p49;5.5}
 11
6.123031769111886E-17
 21
1.0
 31
0.0
 73
     1
 44
1.0
  0
MTEXT
  5
224
330
1F
100
AcDbEntity
  8
0-B
  6
Continuous
 62
     7
370
   211
100
AcDbMText
 10
-4508.17679324327
 20
-1088.635773754154
 30
0.0
 40
77.15249999999999
 41
202.5
 46
0.0
 71
     7
 72
     1
  1
{\fＭＳ ゴシック|b0|i0|c128|p49;25.5}
 73
     1
 44
1.0
  0
MTEXT
  5
225
330
1F
100
AcDbEntity
  8
0-B
  6
Continuous
 62
     7
370
     9
100
AcDbMText
 10
-4838.339165130515
 20
-1181.137023754154
 30
0.0
 40
57.15
 41
112.5
 46
0.0
 71
     7
 72
     1
  1
{\fＭＳ ゴシック|b0|i0|c128|p49;C=1}
 73
     1
 44
1.0
  0
LINE
  5
226
330
1F
100
AcDbEntity
  8
0-4
  6
Continuous
 62
   120
370
     5
100
AcDbLine
 10
-3556.250393841717
 20
-1693.749897673668
 30
0.0
 11
-3556.250393841717
 21
-1768.749897673668
 31
0.0
  0
LINE
  5
227
330
1F
100
AcDbEntity
  8
0-4
  6
Continuous
 62
   120
370
     5
100
AcDbLine
 10
-3781.250393841717
 20
-1693.749897673668
 30
0.0
 11
-3781.250393841717
 21
-1768.749897673668
 31
0.0
  0
LWPOLYLINE
  5
228
330
1F
100
AcDbEntity
  8
0-4
  6
Continuous
 62
     7
370
     9
100
AcDbPolyline
 90
        4
 70
     1
 43
3.0
 10
-3554.750393841717
 20
-1693.749897673668
 42
0.4142135623731
 10
-3556.250393841717
 20
-1692.249897673668
 42
0.4142135623731
 10
-3557.750393841717
 20
-1693.749897673668
 42
0.4142135623731
 10
-3556.250393841717
 20
-1695.249897673668
 42
0.4142135623731
  0
LWPOLYLINE
  5
229
330
1F
100
AcDbEntity
  8
0-4
  6
Continuous
 62
     7
370
     9
100
AcDbPolyline
 90
        4
 70
     1
 43
3.0
 10
-3779.750393841717
 20
-1693.749897673668
 42
0.4142135623731
 10
-3781.250393841717
 20
-1692.249897673668
 42
0.4142135623731
 10
-3782.750393841717
 20
-1693.749897673668
 42
0.4142135623731
 10
-3781.250393841717
 20
-1695.249897673668
 42
0.4142135623731
  0
LINE
  5
22A
330
1F
100
AcDbEntity
  8
0-4
  6
Continuous
 62
   120
370
     5
100
AcDbLine
 10
-3781.250393841717
 20
-1693.749897673668
 30
0.0
 11
-3556.250393841717
 21
-1693.749897673668
 31
0.0
  0
LINE
  5
22B
330
1F
100
AcDbEntity
  8
0-4
  6
Continuous
 62
   120
370
     5
100
AcDbLine
 10
-3897.500393841717
 20
-2947.49997757611
 30
0.0
 11
-3447.500393841717
 21
-2947.49997757611
 31
0.0
  0
LINE
  5
22C
330
1F
100
AcDbEntity
  8
0-4
  6
Continuous
 62
   120
370
     5
100
AcDbLine
 10
-3897.500393841717
 20
-2947.49997757611
 30
0.0
 11
-3897.500393841717
 21
-3022.49997757611
 31
0.0
  0
LWPOLYLINE
  5
22D
330
1F
100
AcDbEntity
  8
0-4
  6
Continuous
 62
     7
370
     9
100
AcDbPolyline
 90
        4
 70
     1
 43
3.0
 10
-3896.000393841717
 20
-2947.49997757611
 42
0.4142135623731
 10
-3897.500393841717
 20
-2945.99997757611
 42
0.4142135623731
 10
-3899.000393841718
 20
-2947.49997757611
 42
0.4142135623731
 10
-3897.500393841717
 20
-2948.99997757611
 42
0.4142135623731
  0
LINE
  5
22E
330
1F
100
AcDbEntity
  8
0-4
  6
Continuous
 62
   120
370
     5
100
AcDbLine
 10
-3447.500393841717
 20
-2947.49997757611
 30
0.0
 11
-3447.500393841717
 21
-3022.49997757611
 31
0.0
  0
LWPOLYLINE
  5
22F
330
1F
100
AcDbEntity
  8
0-4
  6
Continuous
 62
     7
370
     9
100
AcDbPolyline
 90
        4
 70
     1
 43
3.0
 10
-3446.000393841717
 20
-2947.49997757611
 42
0.4142135623731
 10
-3447.500393841717
 20
-2945.99997757611
 42
0.4142135623731
 10
-3449.000393841717
 20
-2947.49997757611
 42
0.4142135623731
 10
-3447.500393841717
 20
-2948.99997757611
 42
0.4142135623731
  0
MTEXT
  5
230
330
1F
100
AcDbEntity
  8
0-4
  6
Continuous
 62
     7
370
   211
100
AcDbMText
 10
-3717.500393841717
 20
-1686.602397673668
 30
0.0
 40
74.295
 41
97.5
 46
0.0
 71
     7
 72
     1
  1
{\fＭＳ ゴシック|b0|i0|c128|p49;15}
 73
     1
 44
1.0
  0
MTEXT
  5
231
330
1F
100
AcDbEntity
  8
0-4
  6
Continuous
 62
     7
370
   211
100
AcDbMText
 10
-3721.250393841717
 20
-2940.35247757611
 30
0.0
 40
74.295
 41
97.5
 46
0.0
 71
     7
 72
     1
  1
{\fＭＳ ゴシック|b0|i0|c128|p49;30}
 73
     1
 44
1.0
  0
LINE
  5
232
330
1F
100
AcDbEntity
  8
0-4
  6
Continuous
 62
   120
370
     5
100
AcDbLine
 10
-3781.250393841717
 20
-2136.249897672979
 30
0.0
 11
-3706.250393841717
 21
-2136.249897672979
 31
0.0
  0
LWPOLYLINE
  5
233
330
1F
100
AcDbEntity
  8
0-4
  6
Continuous
 62
     7
370
     9
100
AcDbPolyline
 90
        4
 70
     1
 43
3.0
 10
-3779.750393841717
 20
-2136.249897672979
 42
0.4142135623731
 10
-3781.250393841717
 20
-2134.74989767298
 42
0.4142135623731
 10
-3782.750393841717
 20
-2136.249897672979
 42
0.4142135623731
 10
-3781.250393841717
 20
-2137.749897672979
 42
0.4142135623731
  0
LWPOLYLINE
  5
234
330
1F
100
AcDbEntity
  8
0-4
  6
Continuous
 62
     7
370
     9
100
AcDbPolyline
 90
        4
 70
     1
 43
3.0
 10
-3704.750393841717
 20
-2136.249897672979
 42
0.4142135623731
 10
-3706.250393841717
 20
-2134.74989767298
 42
0.4142135623731
 10
-3707.750393841717
 20
-2136.249897672979
 42
0.4142135623731
 10
-3706.250393841717
 20
-2137.749897672979
 42
0.4142135623731
  0
LINE
  5
235
330
1F
100
AcDbEntity
  8
0-4
  6
Continuous
 62
   120
370
     5
100
AcDbLine
 10
-3781.250393841717
 20
-2136.249897672979
 30
0.0
 11
-3781.250393841717
 21
-2061.249897672979
 31
0.0
  0
LINE
  5
236
330
1F
100
AcDbEntity
  8
0-4
  6
Continuous
 62
   120
370
     5
100
AcDbLine
 10
-3706.250393841717
 20
-2136.249897672979
 30
0.0
 11
-3706.250393841717
 21
-2061.249897672979
 31
0.0
  0
MTEXT
  5
237
330
1F
100
AcDbEntity
  8
0-4
  6
Continuous
 62
     7
370
   211
100
AcDbMText
 10
-3766.250393841717
 20
-2131.959897672979
 30
0.0
 40
68.58
 41
45.0
 46
0.0
 71
     7
 72
     1
  1
{\fＭＳ ゴシック|b0|i0|c128|p49;5}
 73
     1
 44
1.0
  0
LINE
  5
238
330
1F
100
AcDbEntity
  8
0-4
  6
Continuous
 62
   120
370
     5
100
AcDbLine
 10
-3631.250393841717
 20
-2136.249897672979
 30
0.0
 11
-3556.250393841717
 21
-2136.249897672979
 31
0.0
  0
LWPOLYLINE
  5
239
330
1F
100
AcDbEntity
  8
0-4
  6
Continuous
 62
     7
370
     9
100
AcDbPolyline
 90
        4
 70
     1
 43
3.0
 10
-3629.750393841717
 20
-2136.249897672979
 42
0.4142135623731
 10
-3631.250393841717
 20
-2134.74989767298
 42
0.4142135623731
 10
-3632.750393841717
 20
-2136.249897672979
 42
0.4142135623731
 10
-3631.250393841717
 20
-2137.749897672979
 42
0.4142135623731
  0
LWPOLYLINE
  5
23A
330
1F
100
AcDbEntity
  8
0-4
  6
Continuous
 62
     7
370
     9
100
AcDbPolyline
 90
        4
 70
     1
 43
3.0
 10
-3554.750393841717
 20
-2136.249897672979
 42
0.4142135623731
 10
-3556.250393841717
 20
-2134.74989767298
 42
0.4142135623731
 10
-3557.750393841717
 20
-2136.249897672979
 42
0.4142135623731
 10
-3556.250393841717
 20
-2137.749897672979
 42
0.4142135623731
  0
LINE
  5
23B
330
1F
100
AcDbEntity
  8
0-4
  6
Continuous
 62
   120
370
     5
100
AcDbLine
 10
-3631.250393841717
 20
-2136.249897672979
 30
0.0
 11
-3631.250393841717
 21
-2061.249897672979
 31
0.0
  0
LINE
  5
23C
330
1F
100
AcDbEntity
  8
0-4
  6
Continuous
 62
   120
370
     5
100
AcDbLine
 10
-3556.250393841717
 20
-2136.249897672979
 30
0.0
 11
-3556.250393841717
 21
-2061.249897672979
 31
0.0
  0
MTEXT
  5
23D
330
1F
100
AcDbEntity
  8
0-4
  6
Continuous
 62
     7
370
   211
100
AcDbMText
 10
-3616.250393841717
 20
-2131.959897672979
 30
0.0
 40
68.58
 41
45.0
 46
0.0
 71
     7
 72
     1
  1
{\fＭＳ ゴシック|b0|i0|c128|p49;5}
 73
     1
 44
1.0
  0
LINE
  5
23E
330
1F
100
AcDbEntity
  8
0-4
  6
Continuous
 62
   120
370
     5
100
AcDbLine
 10
-3447.500393841717
 20
-3382.499977575423
 30
0.0
 11
-3522.500393841717
 21
-3382.499977575423
 31
0.0
  0
LWPOLYLINE
  5
23F
330
1F
100
AcDbEntity
  8
0-4
  6
Continuous
 62
     7
370
     9
100
AcDbPolyline
 90
        4
 70
     1
 43
3.0
 10
-3446.000393841717
 20
-3382.499977575423
 42
0.4142135623731
 10
-3447.500393841717
 20
-3380.999977575423
 42
0.4142135623731
 10
-3449.000393841717
 20
-3382.499977575423
 42
0.4142135623731
 10
-3447.500393841717
 20
-3383.999977575423
 42
0.4142135623731
  0
LWPOLYLINE
  5
240
330
1F
100
AcDbEntity
  8
0-4
  6
Continuous
 62
     7
370
     9
100
AcDbPolyline
 90
        4
 70
     1
 43
3.0
 10
-3521.000393841717
 20
-3382.499977575423
 42
0.4142135623731
 10
-3522.500393841717
 20
-3380.999977575423
 42
0.4142135623731
 10
-3524.000393841717
 20
-3382.499977575423
 42
0.4142135623731
 10
-3522.500393841717
 20
-3383.999977575423
 42
0.4142135623731
  0
LINE
  5
241
330
1F
100
AcDbEntity
  8
0-4
  6
Continuous
 62
   120
370
     5
100
AcDbLine
 10
-3447.500393841717
 20
-3382.499977575423
 30
0.0
 11
-3447.500393841717
 21
-3307.499977575423
 31
0.0
  0
LINE
  5
242
330
1F
100
AcDbEntity
  8
0-4
  6
Continuous
 62
   120
370
     5
100
AcDbLine
 10
-3522.500393841717
 20
-3382.499977575423
 30
0.0
 11
-3522.500393841717
 21
-3307.499977575423
 31
0.0
  0
MTEXT
  5
243
330
1F
100
AcDbEntity
  8
0-4
  6
Continuous
 62
     7
370
   211
100
AcDbMText
 10
-3507.500393841717
 20
-3378.209977575423
 30
0.0
 40
68.58
 41
45.0
 46
0.0
 71
     7
 72
     1
  1
{\fＭＳ ゴシック|b0|i0|c128|p49;5}
 73
     1
 44
1.0
  0
LINE
  5
244
330
1F
100
AcDbEntity
  8
0-4
  6
Continuous
 62
   120
370
     5
100
AcDbLine
 10
-3897.500393841717
 20
-3382.499977575423
 30
0.0
 11
-3822.500393841717
 21
-3382.499977575423
 31
0.0
  0
LWPOLYLINE
  5
245
330
1F
100
AcDbEntity
  8
0-4
  6
Continuous
 62
     7
370
     9
100
AcDbPolyline
 90
        4
 70
     1
 43
3.0
 10
-3896.000393841717
 20
-3382.499977575423
 42
0.4142135623731
 10
-3897.500393841717
 20
-3380.999977575423
 42
0.4142135623731
 10
-3899.000393841718
 20
-3382.499977575423
 42
0.4142135623731
 10
-3897.500393841717
 20
-3383.999977575423
 42
0.4142135623731
  0
LWPOLYLINE
  5
246
330
1F
100
AcDbEntity
  8
0-4
  6
Continuous
 62
     7
370
     9
100
AcDbPolyline
 90
        4
 70
     1
 43
3.0
 10
-3821.000393841717
 20
-3382.499977575423
 42
0.4142135623731
 10
-3822.500393841717
 20
-3380.999977575423
 42
0.4142135623731
 10
-3824.000393841717
 20
-3382.499977575423
 42
0.4142135623731
 10
-3822.500393841717
 20
-3383.999977575423
 42
0.4142135623731
  0
LINE
  5
247
330
1F
100
AcDbEntity
  8
0-4
  6
Continuous
 62
   120
370
     5
100
AcDbLine
 10
-3897.500393841717
 20
-3382.499977575423
 30
0.0
 11
-3897.500393841717
 21
-3307.499977575423
 31
0.0
  0
LINE
  5
248
330
1F
100
AcDbEntity
  8
0-4
  6
Continuous
 62
   120
370
     5
100
AcDbLine
 10
-3822.500393841717
 20
-3382.499977575423
 30
0.0
 11
-3822.500393841717
 21
-3307.499977575423
 31
0.0
  0
MTEXT
  5
249
330
1F
100
AcDbEntity
  8
0-4
  6
Continuous
 62
     7
370
   211
100
AcDbMText
 10
-3882.500393841717
 20
-3378.209977575423
 30
0.0
 40
68.58
 41
45.0
 46
0.0
 71
     7
 72
     1
  1
{\fＭＳ ゴシック|b0|i0|c128|p49;5}
 73
     1
 44
1.0
  0
MTEXT
  5
24A
330
1F
100
AcDbEntity
  8
0-4
  6
Continuous
 62
     7
370
     9
100
AcDbMText
 10
-55.00072582347968
 20
3016.433957489448
 30
0.0
 40
82.86749999999999
 41
870.0
 46
0.0
 71
     7
 72
     1
  1
{\fＭＳ ゴシック|b0|i0|c128|p49;インテリアボード}
 73
     1
 44
1.0
  0
MTEXT
  5
24B
330
1F
100
AcDbEntity
  8
0-4
  6
Continuous
 62
     7
370
     9
100
AcDbMText
 10
5427.499719568203
 20
3586.165242447111
 30
0.0
 40
68.58
 41
45.0
 46
0.0
 71
     7
 72
     1
  1
{\fＭＳ ゴシック|b0|i0|c128|p49;1}
 73
     1
 44
1.0
  0
MTEXT
  5
24C
330
1F
100
AcDbEntity
  8
0-4
  6
Continuous
 62
     7
370
     9
100
AcDbMText
 10
5427.499719568203
 20
3429.915232459306
 30
0.0
 40
68.58
 41
45.0
 46
0.0
 71
     7
 72
     1
  1
{\fＭＳ ゴシック|b0|i0|c128|p49;1}
 73
     1
 44
1.0
  0
MTEXT
  5
24D
330
1F
100
AcDbEntity
  8
0-4
  6
Continuous
 62
     7
370
     9
100
AcDbMText
 10
5427.499719568203
 20
3273.665222471502
 30
0.0
 40
68.58
 41
45.0
 46
0.0
 71
     7
 72
     1
  1
{\fＭＳ ゴシック|b0|i0|c128|p49;1}
 73
     1
 44
1.0
  0
MTEXT
  5
24E
330
1F
100
AcDbEntity
  8
0-4
  6
Continuous
 62
     7
370
     9
100
AcDbMText
 10
5427.499719568203
 20
3117.415212483696
 30
0.0
 40
68.58
 41
45.0
 46
0.0
 71
     7
 72
     1
  1
{\fＭＳ ゴシック|b0|i0|c128|p49;1}
 73
     1
 44
1.0
  0
MTEXT
  5
24F
330
1F
100
AcDbEntity
  8
0-4
  6
Continuous
 62
     7
370
     9
100
AcDbMText
 10
3582.498791668866
 20
3586.165242447111
 30
0.0
 40
68.58
 41
540.0
 46
0.0
 71
     7
 72
     1
  1
{\fＭＳ ゴシック|b0|i0|c128|p49;910×300×15}
 73
     1
 44
1.0
  0
MTEXT
  5
250
330
1F
100
AcDbEntity
  8
0-4
  6
Continuous
 62
     7
370
     9
100
AcDbMText
 10
3537.498791668866
 20
3429.915232459306
 30
0.0
 40
68.58
 41
630.0
 46
0.0
 71
     7
 72
     1
  1
{\fＭＳ ゴシック|b0|i0|c128|p49;1,820×300×15}
 73
     1
 44
1.0
  0
MTEXT
  5
251
330
1F
100
AcDbEntity
  8
0-4
  6
Continuous
 62
     7
370
     9
100
AcDbMText
 10
3582.498791668866
 20
3273.665222471502
 30
0.0
 40
68.58
 41
540.0
 46
0.0
 71
     7
 72
     1
  1
{\fＭＳ ゴシック|b0|i0|c128|p49;910×450×15}
 73
     1
 44
1.0
  0
MTEXT
  5
252
330
1F
100
AcDbEntity
  8
0-4
  6
Continuous
 62
     7
370
     9
100
AcDbMText
 10
3537.498791668866
 20
3117.415212483696
 30
0.0
 40
68.58
 41
630.0
 46
0.0
 71
     7
 72
     1
  1
{\fＭＳ ゴシック|b0|i0|c128|p49;1,820×450×15}
 73
     1
 44
1.0
  0
MTEXT
  5
253
330
1F
100
AcDbEntity
  8
0-4
  6
Continuous
 62
     7
370
     9
100
AcDbMText
 10
979.9995216163429
 20
3525.720247441014
 30
0.0
 40
91.44
 41
840.0
 46
0.0
 71
     7
 72
     1
  1
{\fＭＳ ゴシック|b0|i0|c128|p49;厚さ15㎜タイプ}
 73
     1
 44
1.0
  0
LINE
  5
254
330
1F
100
AcDbEntity
  8
0-4
  6
JWW_HOJO
 62
     7
370
     9
100
AcDbLine
 10
1347.499156642605
 20
2671.703238664435
 30
0.0
 11
2997.499156642605
 21
2671.703238664435
 31
0.0
  0
LINE
  5
255
330
1F
100
AcDbEntity
  8
0-4
  6
JWW_HOJO
 62
     7
370
     9
100
AcDbLine
 10
2997.499156642605
 20
2671.703238664435
 30
0.0
 11
2997.499156642605
 21
3271.703238664435
 31
0.0
  0
LINE
  5
256
330
1F
100
AcDbEntity
  8
0-4
  6
JWW_HOJO
 62
     7
370
     9
100
AcDbLine
 10
1272.499156642605
 20
2596.703238664435
 30
0.0
 11
3072.499156642605
 21
2596.703238664435
 31
0.0
  0
LINE
  5
257
330
1F
100
AcDbEntity
  8
0-4
  6
JWW_HOJO
 62
     7
370
     9
100
AcDbLine
 10
3072.499156642605
 20
2596.703238664435
 30
0.0
 11
3072.499156642605
 21
3346.703238664435
 31
0.0
  0
LINE
  5
258
330
1F
100
AcDbEntity
  8
0-4
  6
Continuous
 62
    92
370
    13
100
AcDbLine
 10
2547.499156642605
 20
2746.703238664435
 30
0.0
 11
2547.499156642605
 21
2971.703238664435
 31
0.0
  0
LINE
  5
259
330
1F
100
AcDbEntity
  8
0-4
  6
Continuous
 62
    92
370
    13
100
AcDbLine
 10
1422.499156642605
 20
3196.703238664435
 30
0.0
 11
1422.499156642605
 21
2971.703238664435
 31
0.0
  0
LINE
  5
25A
330
1F
100
AcDbEntity
  8
0-4
  6
Continuous
 62
    92
370
    13
100
AcDbLine
 10
2880.072749771412
 20
3196.703238664435
 30
0.0
 11
2922.499156642605
 21
3154.276831793241
 31
0.0
  0
LINE
  5
25B
330
1F
100
AcDbEntity
  8
0-4
  6
Continuous
 62
    92
370
    13
100
AcDbLine
 10
2922.499156642605
 20
2767.916442100031
 30
0.0
 11
2922.499156642605
 21
3154.276831793241
 31
0.0
  0
LINE
  5
25C
330
1F
100
AcDbEntity
  8
0-4
  6
Continuous
 62
    92
370
    13
100
AcDbLine
 10
2901.285953207008
 20
2746.703238664435
 30
0.0
 11
2547.499156642605
 21
2746.703238664435
 31
0.0
  0
LINE
  5
25D
330
1F
100
AcDbEntity
  8
0-4
  6
Continuous
 62
    92
370
    13
100
AcDbLine
 10
2922.499156642605
 20
2767.916442100031
 30
0.0
 11
2901.285953207008
 21
2746.703238664435
 31
0.0
  0
LINE
  5
25E
330
1F
100
AcDbEntity
  8
0-4
  6
Continuous
 62
    92
370
    13
100
AcDbLine
 10
2876.966148053614
 20
3189.203238664435
 30
0.0
 11
2914.999156642605
 21
3151.170230075443
 31
0.0
  0
LINE
  5
25F
330
1F
100
AcDbEntity
  8
0-4
  6
Continuous
 62
    92
370
    13
100
AcDbLine
 10
2547.499156642605
 20
2754.203238664435
 30
0.0
 11
2898.17935148921
 21
2754.203238664435
 31
0.0
  0
LINE
  5
260
330
1F
100
AcDbEntity
  8
0-4
  6
Continuous
 62
    92
370
    13
100
AcDbLine
 10
2914.999156642605
 20
2771.023043817829
 30
0.0
 11
2914.999156642605
 21
3151.170230075443
 31
0.0
  0
LINE
  5
261
330
1F
100
AcDbEntity
  8
0-4
  6
Continuous
 62
    92
370
    13
100
AcDbLine
 10
2914.999156642605
 20
2771.023043817829
 30
0.0
 11
2898.17935148921
 21
2754.203238664435
 31
0.0
  0
LINE
  5
262
330
1F
100
AcDbEntity
  8
0-4
  6
Continuous
 62
     7
370
     9
100
AcDbLine
 10
1914.607399064426
 20
3106.507043604676
 30
0.0
 11
1967.993380749687
 21
3106.507043604676
 31
0.0
  0
LINE
  5
263
330
1F
100
AcDbEntity
  8
0-4
  6
Continuous
 62
     7
370
     9
100
AcDbLine
 10
1862.64587483736
 20
3076.507043604676
 30
0.0
 11
1916.03185652262
 21
3076.507043604676
 31
0.0
  0
LINE
  5
264
330
1F
100
AcDbEntity
  8
0-4
  6
Continuous
 62
     7
370
     9
100
AcDbLine
 10
1958.021942524213
 20
3241.703238664435
 30
0.0
 11
1862.64587483736
 21
3076.507043604676
 31
0.0
  0
LINE
  5
265
330
1F
100
AcDbEntity
  8
0-4
  6
Continuous
 62
     7
370
     9
100
AcDbLine
 10
1992.662958675591
 20
3241.703238664435
 30
0.0
 11
1914.607399064426
 21
3106.507043604676
 31
0.0
  0
LINE
  5
266
330
1F
100
AcDbEntity
  8
0-4
  6
Continuous
 62
     7
370
     9
100
AcDbLine
 10
1916.03185652262
 20
3076.507043604676
 30
0.0
 11
1829.542589414742
 21
2926.703238664435
 31
0.0
  0
LINE
  5
267
330
1F
100
AcDbEntity
  8
0-4
  6
Continuous
 62
     7
370
     9
100
AcDbLine
 10
1967.993380749687
 20
3106.507043604676
 30
0.0
 11
1864.18360556612
 21
2926.703238664435
 31
0.0
  0
LINE
  5
268
330
1F
100
AcDbEntity
  8
0-4
  6
Continuous
 62
    92
370
    13
100
AcDbLine
 10
1855.523351528276
 20
2971.703238664435
 30
0.0
 11
1422.499156642605
 21
2971.703238664435
 31
0.0
  0
LINE
  5
269
330
1F
100
AcDbEntity
  8
0-4
  6
Continuous
 62
    92
370
    13
100
AcDbLine
 10
2876.966148053614
 20
3189.203238664435
 30
0.0
 11
1962.352069543135
 21
3189.203238664435
 31
0.0
  0
LINE
  5
26A
330
1F
100
AcDbEntity
  8
0-4
  6
Continuous
 62
    92
370
    13
100
AcDbLine
 10
1927.711053391758
 20
3189.203238664435
 30
0.0
 11
1422.499156642605
 21
3189.203238664435
 31
0.0
  0
LINE
  5
26B
330
1F
100
AcDbEntity
  8
0-4
  6
Continuous
 62
    92
370
    13
100
AcDbLine
 10
2880.072749771412
 20
3196.703238664435
 30
0.0
 11
1966.682196562057
 21
3196.703238664435
 31
0.0
  0
LINE
  5
26C
330
1F
100
AcDbEntity
  8
0-4
  6
Continuous
 62
    92
370
    13
100
AcDbLine
 10
1932.04118041068
 20
3196.703238664435
 30
0.0
 11
1422.499156642605
 21
3196.703238664435
 31
0.0
  0
LINE
  5
26D
330
1F
100
AcDbEntity
  8
0-4
  6
Continuous
 62
    92
370
    13
100
AcDbLine
 10
2895.982652348109
 20
3170.186734369939
 30
0.0
 11
2802.499156642605
 21
3076.703238664435
 31
0.0
  0
LINE
  5
26E
330
1F
100
AcDbEntity
  8
0-4
  6
Continuous
 62
    92
370
    13
100
AcDbLine
 10
2802.499156642605
 20
2866.703238664435
 30
0.0
 11
2802.499156642605
 21
3076.703238664435
 31
0.0
  0
LINE
  5
26F
330
1F
100
AcDbEntity
  8
0-4
  6
Continuous
 62
    92
370
    13
100
AcDbLine
 10
2906.589254065907
 20
2762.613141241132
 30
0.0
 11
2802.499156642605
 21
2866.703238664435
 31
0.0
  0
LINE
  5
270
330
1F
100
AcDbEntity
  8
0-4
  6
Continuous
 62
    92
370
    13
100
AcDbLine
 10
2802.499156642605
 20
2971.703238664435
 30
0.0
 11
1890.164367679653
 21
2971.703238664435
 31
0.0
  0
LINE
  5
271
330
1F
100
AcDbEntity
  8
0-4
  6
JWW_HOJO
 62
     7
370
     9
100
AcDbLine
 10
1272.499156642605
 20
3346.703238664435
 30
0.0
 11
1272.499156642605
 21
2596.703238664435
 31
0.0
  0
LINE
  5
272
330
1F
100
AcDbEntity
  8
0-4
  6
JWW_HOJO
 62
     7
370
     9
100
AcDbLine
 10
3072.499156642605
 20
3346.703238664435
 30
0.0
 11
1272.499156642605
 21
3346.703238664435
 31
0.0
  0
LINE
  5
273
330
1F
100
AcDbEntity
  8
0-4
  6
JWW_HOJO
 62
     7
370
     9
100
AcDbLine
 10
2997.499156642605
 20
3271.703238664435
 30
0.0
 11
1347.499156642605
 21
3271.703238664435
 31
0.0
  0
LINE
  5
274
330
1F
100
AcDbEntity
  8
0-4
  6
JWW_HOJO
 62
     7
370
     9
100
AcDbLine
 10
1347.499156642605
 20
3271.703238664435
 30
0.0
 11
1347.499156642605
 21
2671.703238664435
 31
0.0
  0
LINE
  5
275
330
1F
100
AcDbEntity
  8
0-4
  6
Continuous
 62
   120
370
     5
100
AcDbLine
 10
1272.499156642605
 20
3196.703238664435
 30
0.0
 11
1272.499156642605
 21
2971.703238664435
 31
0.0
  0
LWPOLYLINE
  5
276
330
1F
100
AcDbEntity
  8
0-4
  6
Continuous
 62
     7
370
     9
100
AcDbPolyline
 90
        4
 70
     1
 43
3.0
 10
1273.999156642605
 20
3196.703238664435
 42
0.4142135623731
 10
1272.499156642605
 20
3198.203238664434
 42
0.4142135623731
 10
1270.999156642605
 20
3196.703238664435
 42
0.4142135623731
 10
1272.499156642605
 20
3195.203238664435
 42
0.4142135623731
  0
LWPOLYLINE
  5
277
330
1F
100
AcDbEntity
  8
0-4
  6
Continuous
 62
     7
370
     9
100
AcDbPolyline
 90
        4
 70
     1
 43
3.0
 10
1273.999156642605
 20
2971.703238664435
 42
0.4142135623731
 10
1272.499156642605
 20
2973.203238664434
 42
0.4142135623731
 10
1270.999156642605
 20
2971.703238664435
 42
0.4142135623731
 10
1272.499156642605
 20
2970.203238664435
 42
0.4142135623731
  0
LINE
  5
278
330
1F
100
AcDbEntity
  8
0-4
  6
Continuous
 62
   120
370
     5
100
AcDbLine
 10
1272.499156642605
 20
3196.703238664435
 30
0.0
 11
1347.499156642605
 21
3196.703238664435
 31
0.0
  0
LINE
  5
279
330
1F
100
AcDbEntity
  8
0-4
  6
Continuous
 62
   120
370
     5
100
AcDbLine
 10
1272.499156642605
 20
2971.703238664435
 30
0.0
 11
1347.499156642605
 21
2971.703238664435
 31
0.0
  0
MTEXT
  5
27A
330
1F
100
AcDbEntity
  8
0-4
  6
Continuous
 62
     7
370
   211
100
AcDbMText
 10
1257.499156642605
 20
3028.493238664435
 30
0.0
 40
68.58
 41
90.0
 46
0.0
 71
     7
 72
     1
  1
{\fＭＳ ゴシック|b0|i0|c128|p49;15}
 11
6.123031769111886E-17
 21
1.0
 31
0.0
 73
     1
 44
1.0
  0
LINE
  5
27B
330
1F
100
AcDbEntity
  8
0-4
  6
Continuous
 62
   120
370
     5
100
AcDbLine
 10
2547.499156642605
 20
2596.703238664435
 30
0.0
 11
2922.499156642605
 21
2596.703238664435
 31
0.0
  0
LWPOLYLINE
  5
27C
330
1F
100
AcDbEntity
  8
0-4
  6
Continuous
 62
     7
370
     9
100
AcDbPolyline
 90
        4
 70
     1
 43
3.0
 10
2548.999156642605
 20
2596.703238664435
 42
0.4142135623731
 10
2547.499156642605
 20
2598.203238664434
 42
0.4142135623731
 10
2545.999156642605
 20
2596.703238664435
 42
0.4142135623731
 10
2547.499156642605
 20
2595.203238664435
 42
0.4142135623731
  0
LWPOLYLINE
  5
27D
330
1F
100
AcDbEntity
  8
0-4
  6
Continuous
 62
     7
370
     9
100
AcDbPolyline
 90
        4
 70
     1
 43
3.0
 10
2923.999156642605
 20
2596.703238664435
 42
0.4142135623731
 10
2922.499156642605
 20
2598.203238664434
 42
0.4142135623731
 10
2920.999156642605
 20
2596.703238664435
 42
0.4142135623731
 10
2922.499156642605
 20
2595.203238664435
 42
0.4142135623731
  0
LINE
  5
27E
330
1F
100
AcDbEntity
  8
0-4
  6
Continuous
 62
   120
370
     5
100
AcDbLine
 10
2547.499156642605
 20
2596.703238664435
 30
0.0
 11
2547.499156642605
 21
2671.703238664435
 31
0.0
  0
LINE
  5
27F
330
1F
100
AcDbEntity
  8
0-4
  6
Continuous
 62
   120
370
     5
100
AcDbLine
 10
2922.499156642605
 20
2596.703238664435
 30
0.0
 11
2922.499156642605
 21
2671.703238664435
 31
0.0
  0
MTEXT
  5
280
330
1F
100
AcDbEntity
  8
0-4
  6
Continuous
 62
     7
370
   211
100
AcDbMText
 10
2689.999156642605
 20
2600.993238664435
 30
0.0
 40
68.58
 41
90.0
 46
0.0
 71
     7
 72
     1
  1
{\fＭＳ ゴシック|b0|i0|c128|p49;25}
 73
     1
 44
1.0
  0
LINE
  5
281
330
1F
100
AcDbEntity
  8
0-4
  6
Continuous
 62
   120
370
     5
100
AcDbLine
 10
3072.499156642605
 20
2746.703238664435
 30
0.0
 11
3072.499156642605
 21
3196.703238664435
 31
0.0
  0
LWPOLYLINE
  5
282
330
1F
100
AcDbEntity
  8
0-4
  6
Continuous
 62
     7
370
     9
100
AcDbPolyline
 90
        4
 70
     1
 43
3.0
 10
3073.999156642605
 20
2746.703238664435
 42
0.4142135623731
 10
3072.499156642605
 20
2748.203238664434
 42
0.4142135623731
 10
3070.999156642605
 20
2746.703238664435
 42
0.4142135623731
 10
3072.499156642605
 20
2745.203238664435
 42
0.4142135623731
  0
LWPOLYLINE
  5
283
330
1F
100
AcDbEntity
  8
0-4
  6
Continuous
 62
     7
370
     9
100
AcDbPolyline
 90
        4
 70
     1
 43
3.0
 10
3073.999156642605
 20
3196.703238664435
 42
0.4142135623731
 10
3072.499156642605
 20
3198.203238664434
 42
0.4142135623731
 10
3070.999156642605
 20
3196.703238664435
 42
0.4142135623731
 10
3072.499156642605
 20
3195.203238664435
 42
0.4142135623731
  0
LINE
  5
284
330
1F
100
AcDbEntity
  8
0-4
  6
Continuous
 62
   120
370
     5
100
AcDbLine
 10
3072.499156642605
 20
2746.703238664435
 30
0.0
 11
2997.499156642605
 21
2746.703238664435
 31
0.0
  0
LINE
  5
285
330
1F
100
AcDbEntity
  8
0-4
  6
Continuous
 62
   120
370
     5
100
AcDbLine
 10
3072.499156642605
 20
3196.703238664435
 30
0.0
 11
2997.499156642605
 21
3196.703238664435
 31
0.0
  0
MTEXT
  5
286
330
1F
100
AcDbEntity
  8
0-4
  6
Continuous
 62
     7
370
   211
100
AcDbMText
 10
3057.499156642605
 20
2915.993238664435
 30
0.0
 40
68.58
 41
90.0
 46
0.0
 71
     7
 72
     1
  1
{\fＭＳ ゴシック|b0|i0|c128|p49;30}
 11
6.123031769111886E-17
 21
1.0
 31
0.0
 73
     1
 44
1.0
  0
LINE
  5
287
330
1F
100
AcDbEntity
  8
0-4
  6
Continuous
 62
   120
370
     5
100
AcDbLine
 10
1422.499156642605
 20
3346.703238664435
 30
0.0
 11
2922.499156642605
 21
3346.703238664435
 31
0.0
  0
LWPOLYLINE
  5
288
330
1F
100
AcDbEntity
  8
0-4
  6
Continuous
 62
     7
370
     9
100
AcDbPolyline
 90
        4
 70
     1
 43
3.0
 10
1423.999156642605
 20
3346.703238664435
 42
0.4142135623731
 10
1422.499156642605
 20
3348.203238664434
 42
0.4142135623731
 10
1420.999156642605
 20
3346.703238664435
 42
0.4142135623731
 10
1422.499156642605
 20
3345.203238664435
 42
0.4142135623731
  0
LWPOLYLINE
  5
289
330
1F
100
AcDbEntity
  8
0-4
  6
Continuous
 62
     7
370
     9
100
AcDbPolyline
 90
        4
 70
     1
 43
3.0
 10
2923.999156642605
 20
3346.703238664435
 42
0.4142135623731
 10
2922.499156642605
 20
3348.203238664434
 42
0.4142135623731
 10
2920.999156642605
 20
3346.703238664435
 42
0.4142135623731
 10
2922.499156642605
 20
3345.203238664435
 42
0.4142135623731
  0
LINE
  5
28A
330
1F
100
AcDbEntity
  8
0-4
  6
Continuous
 62
   120
370
     5
100
AcDbLine
 10
1422.499156642605
 20
3346.703238664435
 30
0.0
 11
1422.499156642605
 21
3271.703238664435
 31
0.0
  0
LINE
  5
28B
330
1F
100
AcDbEntity
  8
0-4
  6
Continuous
 62
   120
370
     5
100
AcDbLine
 10
2922.499156642605
 20
3346.703238664435
 30
0.0
 11
2922.499156642605
 21
3271.703238664435
 31
0.0
  0
LINE
  5
28C
330
1F
100
AcDbEntity
  8
0-4
  6
JWW_HOJO
 62
     7
370
     9
100
AcDbLine
 10
2997.499156642605
 20
2800.490035228838
 30
0.0
 11
2868.712360078202
 21
2671.703238664435
 31
0.0
  0
LINE
  5
28D
330
1F
100
AcDbEntity
  8
0-4
  6
JWW_HOJO
 62
     7
370
     9
100
AcDbLine
 10
2997.499156642605
 20
2694.424018050855
 30
0.0
 11
2974.778377256183
 21
2671.703238664435
 31
0.0
  0
LINE
  5
28E
330
1F
100
AcDbEntity
  8
0-4
  6
JWW_HOJO
 62
     7
370
     9
100
AcDbLine
 10
2953.565173820587
 20
3271.703238664435
 30
0.0
 11
2997.499156642605
 21
3227.769255842417
 31
0.0
  0
LINE
  5
28F
330
1F
100
AcDbEntity
  8
0-4
  6
JWW_HOJO
 62
     7
370
     9
100
AcDbLine
 10
2847.499156642605
 20
3271.703238664435
 30
0.0
 11
2997.499156642605
 21
3121.703238664435
 31
0.0
  0
LINE
  5
290
330
1F
100
AcDbEntity
  8
0-4
  6
Continuous
 62
   120
370
     5
100
AcDbLine
 10
2954.318961796
 20
3270.949450689022
 30
0.0
 11
2996.745368667192
 21
3228.523043817829
 31
0.0
  0
LWPOLYLINE
  5
291
330
1F
100
AcDbEntity
  8
0-4
  6
Continuous
 62
     7
370
     9
100
AcDbPolyline
 90
        4
 70
     1
 43
3.0
 10
2955.818961796
 20
3270.949450689022
 42
0.4142135623731
 10
2954.318961796
 20
3272.449450689022
 42
0.4142135623731
 10
2952.818961796
 20
3270.949450689022
 42
0.4142135623731
 10
2954.318961796
 20
3269.449450689022
 42
0.4142135623731
  0
LWPOLYLINE
  5
292
330
1F
100
AcDbEntity
  8
0-4
  6
Continuous
 62
     7
370
     9
100
AcDbPolyline
 90
        4
 70
     1
 43
3.0
 10
2998.245368667192
 20
3228.523043817829
 42
0.4142135623731
 10
2996.745368667192
 20
3230.023043817829
 42
0.4142135623731
 10
2995.245368667192
 20
3228.523043817829
 42
0.4142135623731
 10
2996.745368667192
 20
3227.02304381783
 42
0.4142135623731
  0
LINE
  5
293
330
1F
100
AcDbEntity
  8
0-4
  6
Continuous
 62
   120
370
     5
100
AcDbLine
 10
2954.318961796
 20
3270.949450689022
 30
0.0
 11
2901.285953207008
 21
3217.916442100031
 31
0.0
  0
LINE
  5
294
330
1F
100
AcDbEntity
  8
0-4
  6
Continuous
 62
   120
370
     5
100
AcDbLine
 10
2996.745368667192
 20
3228.523043817829
 30
0.0
 11
2943.712360078202
 21
3175.490035228838
 31
0.0
  0
MTEXT
  5
295
330
1F
100
AcDbEntity
  8
0-4
  6
Continuous
 62
     7
370
   211
100
AcDbMText
 10
2970.228864372696
 20
3265.542751547921
 30
0.0
 40
68.58000000000008
 41
45.00000000000006
 46
0.0
 71
     7
 72
     1
  1
{\fＭＳ ゴシック|b0|i0|c128|p49;4}
 11
0.7071067811865523
 21
-0.7071067811865427
 31
0.0
 73
     1
 44
1.0
  0
LINE
  5
296
330
1F
100
AcDbEntity
  8
0-4
  6
Continuous
 62
   120
370
     5
100
AcDbLine
 10
2996.745368667192
 20
2693.670230075443
 30
0.0
 11
2975.532165231596
 21
2672.457026639847
 31
0.0
  0
LWPOLYLINE
  5
297
330
1F
100
AcDbEntity
  8
0-4
  6
Continuous
 62
     7
370
     9
100
AcDbPolyline
 90
        4
 70
     1
 43
3.0
 10
2998.245368667192
 20
2693.670230075443
 42
0.4142135623731
 10
2996.745368667192
 20
2695.170230075443
 42
0.4142135623731
 10
2995.245368667192
 20
2693.670230075443
 42
0.4142135623731
 10
2996.745368667192
 20
2692.170230075443
 42
0.4142135623731
  0
LWPOLYLINE
  5
298
330
1F
100
AcDbEntity
  8
0-4
  6
Continuous
 62
     7
370
     9
100
AcDbPolyline
 90
        4
 70
     1
 43
3.0
 10
2977.032165231596
 20
2672.457026639847
 42
0.4142135623731
 10
2975.532165231596
 20
2673.957026639847
 42
0.4142135623731
 10
2974.032165231596
 20
2672.457026639847
 42
0.4142135623731
 10
2975.532165231596
 20
2670.957026639847
 42
0.4142135623731
  0
LINE
  5
299
330
1F
100
AcDbEntity
  8
0-4
  6
Continuous
 62
   120
370
     5
100
AcDbLine
 10
2996.745368667192
 20
2693.670230075443
 30
0.0
 11
2943.712360078202
 21
2746.703238664435
 31
0.0
  0
LINE
  5
29A
330
1F
100
AcDbEntity
  8
0-4
  6
Continuous
 62
   120
370
     5
100
AcDbLine
 10
2975.532165231596
 20
2672.457026639847
 30
0.0
 11
2922.499156642605
 21
2725.490035228838
 31
0.0
  0
MTEXT
  5
29B
330
1F
100
AcDbEntity
  8
0-4
  6
Continuous
 62
     7
370
   211
100
AcDbMText
 10
3026.532742748911
 20
2570.485908576582
 30
0.0
 40
68.58000000000033
 41
90.00000000000043
 46
0.0
 71
     7
 72
     1
  1
{\fＭＳ ゴシック|b0|i0|c128|p49;C2}
 11
0.7071067811865499
 21
0.7071067811865451
 31
0.0
 73
     1
 44
1.0
  0
MTEXT
  5
29C
330
1F
100
AcDbEntity
  8
0-4
  6
Continuous
 62
     7
370
     9
100
AcDbMText
 10
5427.499719568203
 20
2961.16520249589
 30
0.0
 40
68.58
 41
45.0
 46
0.0
 71
     7
 72
     1
  1
{\fＭＳ ゴシック|b0|i0|c128|p49;1}
 73
     1
 44
1.0
  0
MTEXT
  5
29D
330
1F
100
AcDbEntity
  8
0-4
  6
Continuous
 62
     7
370
     9
100
AcDbMText
 10
3537.498791668866
 20
2961.16520249589
 30
0.0
 40
68.58
 41
630.0
 46
0.0
 71
     7
 72
     1
  1
{\fＭＳ ゴシック|b0|i0|c128|p49;2,730×450×15}
 73
     1
 44
1.0
  0
MTEXT
  5
29E
330
1F
100
AcDbEntity
  8
0-4
  6
Continuous
 62
     7
370
     9
100
AcDbMText
 10
-417.5007588154563
 20
-1736.334882691271
 30
0.0
 40
68.58
 41
45.0
 46
0.0
 71
     7
 72
     1
  1
{\fＭＳ ゴシック|b0|i0|c128|p49;1}
 73
     1
 44
1.0
  0
MTEXT
  5
29F
330
1F
100
AcDbEntity
  8
0-4
  6
Continuous
 62
     7
370
     9
100
AcDbMText
 10
-417.5007588154563
 20
-2986.334962593714
 30
0.0
 40
68.58
 41
45.0
 46
0.0
 71
     7
 72
     1
  1
{\fＭＳ ゴシック|b0|i0|c128|p49;1}
 73
     1
 44
1.0
  0
MTEXT
  5
2A0
330
1F
100
AcDbEntity
  8
0-4
  6
Continuous
 62
     7
370
     9
100
AcDbMText
 10
-440.0007588154563
 20
-1423.834862715661
 30
0.0
 40
68.58
 41
90.0
 46
0.0
 71
     7
 72
     1
  1
{\fＭＳ ゴシック|b0|i0|c128|p49;10}
 73
     1
 44
1.0
  0
MTEXT
  5
2A1
330
1F
100
AcDbEntity
  8
0-4
  6
Continuous
 62
     7
370
     9
100
AcDbMText
 10
-417.5007588154563
 20
-1580.084872703466
 30
0.0
 40
68.58
 41
45.0
 46
0.0
 71
     7
 72
     1
  1
{\fＭＳ ゴシック|b0|i0|c128|p49;2}
 73
     1
 44
1.0
  0
MTEXT
  5
2A2
330
1F
100
AcDbEntity
  8
0-4
  6
Continuous
 62
     7
370
     9
100
AcDbMText
 10
-440.0007588154563
 20
-2673.834942618104
 30
0.0
 40
68.58
 41
90.0
 46
0.0
 71
     7
 72
     1
  1
{\fＭＳ ゴシック|b0|i0|c128|p49;10}
 73
     1
 44
1.0
  0
MTEXT
  5
2A3
330
1F
100
AcDbEntity
  8
0-4
  6
Continuous
 62
     7
370
     9
100
AcDbMText
 10
-417.5007588154563
 20
-2830.084952605909
 30
0.0
 40
68.58
 41
45.0
 46
0.0
 71
     7
 72
     1
  1
{\fＭＳ ゴシック|b0|i0|c128|p49;2}
 73
     1
 44
1.0
  0
MTEXT
  5
2A4
330
1F
100
AcDbEntity
  8
0-4
  6
Continuous
 62
     7
370
     9
100
AcDbMText
 10
-2262.500758815456
 20
-1579.757579096397
 30
0.0
 40
68.58
 41
540.0
 46
0.0
 71
     7
 72
     1
  1
{\fＭＳ ゴシック|b0|i0|c128|p49;3,700×15×9}
 73
     1
 44
1.0
  0
MTEXT
  5
2A5
330
1F
100
AcDbEntity
  8
0-4
  6
Continuous
 62
     7
370
     9
100
AcDbMText
 10
-2262.500758815456
 20
-2829.75765899884
 30
0.0
 40
68.58
 41
540.0
 46
0.0
 71
     7
 72
     1
  1
{\fＭＳ ゴシック|b0|i0|c128|p49;3,700×30×9}
 73
     1
 44
1.0
  0
LINE
  5
2A6
330
1F
100
AcDbEntity
  8
F-1
  6
JWW_DASHED1
 62
     7
370
     9
100
AcDbLine
 10
-155.0007588154554
 20
-1446.249867709908
 30
0.0
 11
-1550.000758815456
 21
-1446.249867709908
 31
0.0
  0
LINE
  5
2A7
330
1F
100
AcDbEntity
  8
F-1
  6
JWW_DASHED1
 62
     7
370
     9
100
AcDbLine
 10
-155.0007588154554
 20
-1602.499877697713
 30
0.0
 11
-1550.000758815456
 21
-1602.499877697713
 31
0.0
  0
LINE
  5
2A8
330
1F
100
AcDbEntity
  8
F-1
  6
JWW_DASHED1
 62
     7
370
     9
100
AcDbLine
 10
-155.0007588154554
 20
-2696.24994761235
 30
0.0
 11
-1550.000758815456
 21
-2696.24994761235
 31
0.0
  0
LINE
  5
2A9
330
1F
100
AcDbEntity
  8
F-1
  6
JWW_DASHED1
 62
     7
370
     9
100
AcDbLine
 10
-155.0007588154554
 20
-2852.499957600156
 30
0.0
 11
-1550.000758815456
 21
-2852.499957600156
 31
0.0
  0
LINE
  5
2AA
330
1F
100
AcDbEntity
  8
F-1
  6
JWW_DASHED1
 62
     7
370
     9
100
AcDbLine
 10
-155.0007588154554
 20
-196.249787807465
 30
0.0
 11
-2405.000758815456
 21
-196.249787807465
 31
0.0
  0
LINE
  5
2AB
330
1F
100
AcDbEntity
  8
F-1
  6
JWW_DASHED1
 62
     7
370
     9
100
AcDbLine
 10
-155.0007588154554
 20
1053.750292094978
 30
0.0
 11
-2405.000758815456
 21
1053.750292094978
 31
0.0
  0
LINE
  5
2AC
330
1F
100
AcDbEntity
  8
F-1
  6
JWW_DASHED1
 62
     7
370
     9
100
AcDbLine
 10
-155.0007588154554
 20
2303.750371997421
 30
0.0
 11
-2405.000758815456
 21
2303.750371997421
 31
0.0
  0
MTEXT
  5
2AD
330
1F
100
AcDbEntity
  8
0-B
  6
Continuous
 62
     7
370
     9
100
AcDbMText
 10
49.99992370605469
 20
1765.292342034349
 30
0.0
 40
100.584
 41
660.0
 46
0.0
 71
     7
 72
     1
  1
{\fＭＳ ゴシック|b0|i0|c128|p49;木口テープ}
 73
     1
 44
1.0
  0
LINE
  5
2AE
330
1F
100
AcDbEntity
  8
0-B
  6
Continuous
 62
   120
370
     5
100
AcDbLine
 10
1810.787986497124
 20
2113.033350623341
 30
0.0
 11
1863.820995086116
 21
2060.000342034349
 31
0.0
  0
LINE
  5
2AF
330
1F
100
AcDbEntity
  8
0-B
  6
Continuous
 62
   120
370
     5
100
AcDbLine
 10
1863.820995086116
 20
2166.066359212331
 30
0.0
 11
1916.854003675107
 21
2113.033350623341
 31
0.0
  0
LWPOLYLINE
  5
2B0
330
1F
100
AcDbEntity
  8
0-B
  6
Continuous
 62
     7
370
     9
100
AcDbPolyline
 90
        4
 70
     1
 43
3.0
 10
1812.287986497124
 20
2113.033350623341
 42
0.4142135623731
 10
1810.787986497124
 20
2114.533350623341
 42
0.4142135623731
 10
1809.287986497124
 20
2113.033350623341
 42
0.4142135623731
 10
1810.787986497124
 20
2111.533350623341
 42
0.4142135623731
  0
LWPOLYLINE
  5
2B1
330
1F
100
AcDbEntity
  8
0-B
  6
Continuous
 62
     7
370
     9
100
AcDbPolyline
 90
        4
 70
     1
 43
3.0
 10
1865.320995086116
 20
2166.066359212331
 42
0.4142135623731
 10
1863.820995086116
 20
2167.566359212331
 42
0.4142135623731
 10
1862.320995086116
 20
2166.066359212331
 42
0.4142135623731
 10
1863.820995086116
 20
2164.566359212331
 42
0.4142135623731
  0
LINE
  5
2B2
330
1F
100
AcDbEntity
  8
0-B
  6
Continuous
 62
   120
370
     5
100
AcDbLine
 10
1863.820995086116
 20
2166.066359212331
 30
0.0
 11
1810.787986497124
 21
2113.033350623341
 31
0.0
  0
LINE
  5
2B3
330
1F
100
AcDbEntity
  8
0-B
  6
JWW_HOJO
 62
     7
370
     9
100
AcDbLine
 10
1907.754977908135
 20
2210.000342034349
 30
0.0
 11
1766.854003675107
 21
2069.099367801322
 31
0.0
  0
LINE
  5
2B4
330
1F
100
AcDbEntity
  8
0-B
  6
JWW_HOJO
 62
     7
370
     9
100
AcDbLine
 10
1938.820995086116
 20
2135.000342034349
 30
0.0
 11
1841.854003675107
 21
2038.033350623341
 31
0.0
  0
LINE
  5
2B5
330
1F
100
AcDbEntity
  8
0-B
  6
Continuous
 62
     7
370
     9
100
AcDbLine
 10
1969.887012264099
 20
2060.000342034349
 30
0.0
 11
1916.854003675107
 21
2006.967333445357
 31
0.0
  0
MTEXT
  5
2B6
330
1F
100
AcDbEntity
  8
0-B
  6
Continuous
 62
     7
370
   211
100
AcDbMText
 10
1810.787986497125
 20
2123.536554058936
 30
0.0
 40
68.57999999999963
 41
44.99999999999976
 46
0.0
 71
     7
 72
     1
  1
{\fＭＳ ゴシック|b0|i0|c128|p49;5}
 11
0.707106781186538
 21
0.707106781186557
 31
0.0
 73
     1
 44
1.0
  0
LINE
  5
2B7
330
1F
100
AcDbEntity
  8
0-4
  6
Continuous
 62
    92
370
    13
100
AcDbLine
 10
1969.887012264099
 20
2060.000342034349
 30
0.0
 11
1916.854003675107
 21
2006.967333445357
 31
0.0
  0
MTEXT
  5
2B8
330
1F
100
AcDbEntity
  8
0-B
  6
Continuous
 62
     7
370
     9
100
AcDbMText
 10
5427.498791668866
 20
2326.165376991668
 30
0.0
 40
68.58
 41
45.0
 46
0.0
 71
     7
 72
     1
  1
{\fＭＳ ゴシック|b0|i0|c128|p49;1}
 73
     1
 44
1.0
  0
MTEXT
  5
2B9
330
1F
100
AcDbEntity
  8
0-B
  6
Continuous
 62
     7
370
     9
100
AcDbMText
 10
949.9995216163429
 20
2286.089018349207
 30
0.0
 40
102.1772727272727
 41
2212.5
 46
0.0
 71
     7
 72
     1
  1
{\fＭＳ ゴシック|b0|i0|c128|p49;インテリアボード（多目的ボード]用}
 73
     1
 44
1.0
  0
LINE
  5
2BA
330
1F
100
AcDbEntity
  8
0-B
  6
Continuous
 62
   120
370
     5
100
AcDbLine
 10
2516.854003675107
 20
2060.000342034349
 30
0.0
 11
2441.854003675107
 21
2060.000342034349
 31
0.0
  0
LINE
  5
2BB
330
1F
100
AcDbEntity
  8
0-B
  6
JWW_HOJO
 62
     7
370
     9
100
AcDbLine
 10
2366.854003675107
 20
2210.000342034349
 30
0.0
 11
1916.854003675107
 21
2210.000342034349
 31
0.0
  0
LINE
  5
2BC
330
1F
100
AcDbEntity
  8
0-B
  6
JWW_HOJO
 62
     7
370
     9
100
AcDbLine
 10
2366.854003675107
 20
2135.000342034349
 30
0.0
 11
1916.854003675107
 21
2135.000342034349
 31
0.0
  0
LINE
  5
2BD
330
1F
100
AcDbEntity
  8
0-4
  6
Continuous
 62
    92
370
    13
100
AcDbLine
 10
1969.887012264099
 20
2060.000342034349
 30
0.0
 11
2366.854003675107
 21
2060.000342034349
 31
0.0
  0
LINE
  5
2BE
330
1F
100
AcDbEntity
  8
0-B
  6
Continuous
 62
   120
370
     5
100
AcDbLine
 10
1916.854003675107
 20
1415.000342034349
 30
0.0
 11
1916.854003675107
 21
1490.000342034349
 31
0.0
  0
LINE
  5
2BF
330
1F
100
AcDbEntity
  8
0-B
  6
JWW_HOJO
 62
     7
370
     9
100
AcDbLine
 10
1916.854003675107
 20
1565.000342034349
 30
0.0
 11
1916.854003675107
 21
1415.000342034349
 31
0.0
  0
LINE
  5
2C0
330
1F
100
AcDbEntity
  8
0-B
  6
Continuous
 62
     7
370
     9
100
AcDbLine
 10
1916.854003675107
 20
2006.967333445357
 30
0.0
 11
1916.854003675107
 21
1565.000342034349
 31
0.0
  0
LINE
  5
2C1
330
1F
100
AcDbEntity
  8
0-4
  6
Continuous
 62
    92
370
    13
100
AcDbLine
 10
1916.854003675107
 20
2006.967333445357
 30
0.0
 11
1916.854003675107
 21
1565.000342034349
 31
0.0
  0
LINE
  5
2C2
330
1F
100
AcDbEntity
  8
0-B
  6
JWW_HOJO
 62
     7
370
     9
100
AcDbLine
 10
2441.854003675107
 20
1490.000342034349
 30
0.0
 11
2441.854003675107
 21
2038.033350623341
 31
0.0
  0
LINE
  5
2C3
330
1F
100
AcDbEntity
  8
0-B
  6
JWW_HOJO
 62
     7
370
     9
100
AcDbLine
 10
2366.854003675107
 20
1490.000342034349
 30
0.0
 11
1916.854003675107
 21
1490.000342034349
 31
0.0
  0
LINE
  5
2C4
330
1F
100
AcDbEntity
  8
0-4
  6
Continuous
 62
    92
370
    13
100
AcDbLine
 10
2366.854003675107
 20
2060.000342034349
 30
0.0
 11
2366.854003675107
 21
1565.000342034349
 31
0.0
  0
LINE
  5
2C5
330
1F
100
AcDbEntity
  8
0-4
  6
Continuous
 62
    92
370
    13
100
AcDbLine
 10
2366.854003675107
 20
1565.000342034349
 30
0.0
 11
1916.854003675107
 21
1565.000342034349
 31
0.0
  0
LINE
  5
2C6
330
1F
100
AcDbEntity
  8
0-B
  6
Continuous
 62
   120
370
     5
100
AcDbLine
 10
2516.854003675107
 20
2060.000342034349
 30
0.0
 11
2516.854003675107
 21
1565.000342034349
 31
0.0
  0
LWPOLYLINE
  5
2C7
330
1F
100
AcDbEntity
  8
0-B
  6
Continuous
 62
     7
370
     9
100
AcDbPolyline
 90
        4
 70
     1
 43
3.0
 10
2518.354003675107
 20
2060.000342034349
 42
0.4142135623731
 10
2516.854003675107
 20
2061.500342034349
 42
0.4142135623731
 10
2515.354003675107
 20
2060.000342034349
 42
0.4142135623731
 10
2516.854003675107
 20
2058.500342034349
 42
0.4142135623731
  0
LWPOLYLINE
  5
2C8
330
1F
100
AcDbEntity
  8
0-B
  6
Continuous
 62
     7
370
     9
100
AcDbPolyline
 90
        4
 70
     1
 43
3.0
 10
2518.354003675107
 20
1565.000342034349
 42
0.4142135623731
 10
2516.854003675107
 20
1566.500342034349
 42
0.4142135623731
 10
2515.354003675107
 20
1565.000342034349
 42
0.4142135623731
 10
2516.854003675107
 20
1563.500342034349
 42
0.4142135623731
  0
LINE
  5
2C9
330
1F
100
AcDbEntity
  8
0-B
  6
Continuous
 62
   120
370
     5
100
AcDbLine
 10
2516.854003675107
 20
2060.000342034349
 30
0.0
 11
2441.854003675107
 21
2060.000342034349
 31
0.0
  0
LINE
  5
2CA
330
1F
100
AcDbEntity
  8
0-B
  6
Continuous
 62
   120
370
     5
100
AcDbLine
 10
2516.854003675107
 20
1565.000342034349
 30
0.0
 11
2441.854003675107
 21
1565.000342034349
 31
0.0
  0
MTEXT
  5
2CB
330
1F
100
AcDbEntity
  8
0-B
  6
Continuous
 62
     7
370
   211
100
AcDbMText
 10
2501.854003675107
 20
1756.790342034349
 30
0.0
 40
68.58
 41
90.0
 46
0.0
 71
     7
 72
     1
  1
{\fＭＳ ゴシック|b0|i0|c128|p49;33}
 11
6.123031769111886E-17
 21
1.0
 31
0.0
 73
     1
 44
1.0
  0
LINE
  5
2CC
330
1F
100
AcDbEntity
  8
0-B
  6
Continuous
 62
   120
370
     5
100
AcDbLine
 10
1916.854003675107
 20
1415.000342034349
 30
0.0
 11
2366.854003675107
 21
1415.000342034349
 31
0.0
  0
LWPOLYLINE
  5
2CD
330
1F
100
AcDbEntity
  8
0-B
  6
Continuous
 62
     7
370
     9
100
AcDbPolyline
 90
        4
 70
     1
 43
3.0
 10
1918.354003675107
 20
1415.000342034349
 42
0.4142135623731
 10
1916.854003675107
 20
1416.500342034349
 42
0.4142135623731
 10
1915.354003675107
 20
1415.000342034349
 42
0.4142135623731
 10
1916.854003675107
 20
1413.500342034349
 42
0.4142135623731
  0
LWPOLYLINE
  5
2CE
330
1F
100
AcDbEntity
  8
0-B
  6
Continuous
 62
     7
370
     9
100
AcDbPolyline
 90
        4
 70
     1
 43
3.0
 10
2368.354003675107
 20
1415.000342034349
 42
0.4142135623731
 10
2366.854003675107
 20
1416.500342034349
 42
0.4142135623731
 10
2365.354003675107
 20
1415.000342034349
 42
0.4142135623731
 10
2366.854003675107
 20
1413.500342034349
 42
0.4142135623731
  0
LINE
  5
2CF
330
1F
100
AcDbEntity
  8
0-B
  6
Continuous
 62
   120
370
     5
100
AcDbLine
 10
1916.854003675107
 20
1415.000342034349
 30
0.0
 11
1916.854003675107
 21
1490.000342034349
 31
0.0
  0
LINE
  5
2D0
330
1F
100
AcDbEntity
  8
0-B
  6
Continuous
 62
   120
370
     5
100
AcDbLine
 10
2366.854003675107
 20
1415.000342034349
 30
0.0
 11
2366.854003675107
 21
1490.000342034349
 31
0.0
  0
MTEXT
  5
2D1
330
1F
100
AcDbEntity
  8
0-B
  6
Continuous
 62
     7
370
   211
100
AcDbMText
 10
2096.854003675107
 20
1419.290342034349
 30
0.0
 40
68.58
 41
90.0
 46
0.0
 71
     7
 72
     1
  1
{\fＭＳ ゴシック|b0|i0|c128|p49;30}
 73
     1
 44
1.0
  0
MTEXT
  5
2D2
330
1F
100
AcDbEntity
  8
0-B
  6
Continuous
 62
     7
370
     9
100
AcDbMText
 10
3717.498791668866
 20
2326.165376991668
 30
0.0
 40
68.57999999999979
 41
269.9999999999991
 46
0.0
 71
     7
 72
     1
  1
{\fＭＳ ゴシック|b0|i0|c128|p49;30×33}
 73
     1
 44
1.0
  0
MTEXT
  5
2D3
330
1F
100
AcDbEntity
  8
0-B
  6
Continuous
 62
     7
370
     9
100
AcDbMText
 10
4294.998791668866
 20
2326.165376991668
 30
0.0
 40
68.58
 41
675.0
 46
0.0
 71
     7
 72
     1
  1
{\fＭＳ ゴシック|b0|i0|c128|p49;ＺＹＷＴ46-7-□}
 73
     1
 44
1.0
  0
LINE
  5
2D4
330
1F
100
AcDbEntity
  8
F-1
  6
Continuous
 62
     7
370
     9
100
AcDbLine
 10
-145.0009732633023
 20
-1289.999857722102
 30
0.0
 11
-5989.999990205507
 21
-1289.999857722102
 31
0.0
  0
LINE
  5
2D5
330
1F
100
AcDbEntity
  8
F-1
  6
JWW_DASHED1
 62
     7
370
     9
100
AcDbLine
 10
-155.0007588154554
 20
3553.750451899863
 30
0.0
 11
-2405.000758815456
 21
3553.750451899863
 31
0.0
  0
MTEXT
  5
2D6
330
1F
100
AcDbEntity
  8
F-A
  6
Continuous
 62
     7
370
     0
100
AcDbMText
 10
4778.749126529666
 20
-3938.071010139966
 30
0.0
 40
78.86699999999999
 41
517.5
 46
0.0
 71
     7
 72
     1
  1
{\fＭＳ ゴシック|b0|i0|c128|p49;2021.04.01}
 73
     1
 44
1.0
  0
MTEXT
  5
2D7
330
1F
100
AcDbEntity
  8
0-4
  6
Continuous
 62
     7
370
     9
100
AcDbMText
 10
-1550.000758815456
 20
-1423.834862715661
 30
0.0
 40
68.58000000000001
 41
720.0
 46
0.0
 71
     7
 72
     1
  1
{\fＭＳ ゴシック|b0|i0|c128|p49;ＤＨＢＡ15-10-□}
 73
     1
 44
1.0
  0
MTEXT
  5
2D8
330
1F
100
AcDbEntity
  8
0-4
  6
Continuous
 62
     7
370
     9
100
AcDbMText
 10
-1550.000758815456
 20
-1580.084872703466
 30
0.0
 40
68.58
 41
675.0
 46
0.0
 71
     7
 72
     1
  1
{\fＭＳ ゴシック|b0|i0|c128|p49;ＤＨＢＡ15-2-□}
 73
     1
 44
1.0
  0
MTEXT
  5
2D9
330
1F
100
AcDbEntity
  8
0-4
  6
Continuous
 62
     7
370
     9
100
AcDbMText
 10
-1550.000758815456
 20
-1736.334882691271
 30
0.0
 40
68.58
 41
675.0
 46
0.0
 71
     7
 72
     1
  1
{\fＭＳ ゴシック|b0|i0|c128|p49;ＤＨＢＡ15-1-□}
 73
     1
 44
1.0
  0
MTEXT
  5
2DA
330
1F
100
AcDbEntity
  8
0-4
  6
Continuous
 62
     7
370
     9
100
AcDbMText
 10
-1550.000758815456
 20
-2673.834942618104
 30
0.0
 40
68.58000000000001
 41
720.0
 46
0.0
 71
     7
 72
     1
  1
{\fＭＳ ゴシック|b0|i0|c128|p49;ＤＨＢＡ30-10-□}
 73
     1
 44
1.0
  0
MTEXT
  5
2DB
330
1F
100
AcDbEntity
  8
0-4
  6
Continuous
 62
     7
370
     9
100
AcDbMText
 10
-1550.000758815456
 20
-2830.084952605909
 30
0.0
 40
68.58
 41
675.0
 46
0.0
 71
     7
 72
     1
  1
{\fＭＳ ゴシック|b0|i0|c128|p49;ＤＨＢＡ30-2-□}
 73
     1
 44
1.0
  0
MTEXT
  5
2DC
330
1F
100
AcDbEntity
  8
0-4
  6
Continuous
 62
     7
370
     9
100
AcDbMText
 10
-1550.000758815456
 20
-2986.334962593714
 30
0.0
 40
68.58
 41
675.0
 46
0.0
 71
     7
 72
     1
  1
{\fＭＳ ゴシック|b0|i0|c128|p49;ＤＨＢＡ30-1-□}
 73
     1
 44
1.0
  0
MTEXT
  5
2DD
330
1F
100
AcDbEntity
  8
0-4
  6
Continuous
 62
     7
370
   211
100
AcDbMText
 10
2008.061257825102
 20
3350.993238664435
 30
0.0
 40
68.58000000000001
 41
360.0
 46
0.0
 71
     7
 72
     1
  1
{\fＭＳ ゴシック|b0|i0|c128|p49;300(450)}
 73
     1
 44
1.0
  0
MTEXT
  5
2DE
330
1F
100
AcDbEntity
  8
0-4
  6
Continuous
 62
     7
370
     9
100
AcDbMText
 10
4294.998791668866
 20
3586.165242447111
 30
0.0
 40
68.58
 41
585.0
 46
0.0
 71
     7
 72
     1
  1
{\fＭＳ ゴシック|b0|i0|c128|p49;ＩＧＢＣ00-□}
 73
     1
 44
1.0
  0
MTEXT
  5
2DF
330
1F
100
AcDbEntity
  8
0-4
  6
Continuous
 62
     7
370
     9
100
AcDbMText
 10
4294.998791668866
 20
3429.915232459306
 30
0.0
 40
68.58
 41
585.0
 46
0.0
 71
     7
 72
     1
  1
{\fＭＳ ゴシック|b0|i0|c128|p49;ＩＧＢＣ01-□}
 73
     1
 44
1.0
  0
MTEXT
  5
2E0
330
1F
100
AcDbEntity
  8
0-4
  6
Continuous
 62
     7
370
     9
100
AcDbMText
 10
4294.998791668866
 20
3273.665222471502
 30
0.0
 40
68.58
 41
585.0
 46
0.0
 71
     7
 72
     1
  1
{\fＭＳ ゴシック|b0|i0|c128|p49;ＩＧＢＣ10-□}
 73
     1
 44
1.0
  0
MTEXT
  5
2E1
330
1F
100
AcDbEntity
  8
0-4
  6
Continuous
 62
     7
370
     9
100
AcDbMText
 10
4294.998791668866
 20
3117.415212483696
 30
0.0
 40
68.58
 41
585.0
 46
0.0
 71
     7
 72
     1
  1
{\fＭＳ ゴシック|b0|i0|c128|p49;ＩＧＢＣ11-□}
 73
     1
 44
1.0
  0
MTEXT
  5
2E2
330
1F
100
AcDbEntity
  8
0-4
  6
Continuous
 62
     7
370
     9
100
AcDbMText
 10
4294.998791668866
 20
2961.16520249589
 30
0.0
 40
68.58
 41
585.0
 46
0.0
 71
     7
 72
     1
  1
{\fＭＳ ゴシック|b0|i0|c128|p49;ＩＧＢＣ12-□}
 73
     1
 44
1.0
  0
MTEXT
  5
2E3
330
1F
100
AcDbEntity
  8
0-0
  6
Continuous
 62
     7
370
     9
100
AcDbMText
 10
5427.498791668867
 20
1076.165297283996
 30
0.0
 40
68.58
 41
45.0
 46
0.0
 71
     7
 72
     1
  1
{\fＭＳ ゴシック|b0|i0|c128|p49;1}
 73
     1
 44
1.0
  0
MTEXT
  5
2E4
330
1F
100
AcDbEntity
  8
0-0
  6
Continuous
 62
     7
370
     9
100
AcDbMText
 10
3574.999719568202
 20
1076.165297283996
 30
0.0
 40
68.58
 41
630.0
 46
0.0
 71
     7
 72
     1
  1
{\fＭＳ ゴシック|b0|i0|c128|p49;2,400×113×24}
 73
     1
 44
1.0
  0
MTEXT
  5
2E5
330
1F
100
AcDbEntity
  8
0-0
  6
Continuous
 62
     7
370
     9
100
AcDbMText
 10
252.4999237060555
 20
-391.8937859576113
 30
0.0
 40
97.15499999999999
 41
255.0
 46
0.0
 71
     7
 72
     1
  1
{\fＭＳ ゴシック|b0|i0|c128|p49;Ａ型}
 73
     1
 44
1.0
  0
MTEXT
  5
2E6
330
1F
100
AcDbEntity
  8
0-0
  6
Continuous
 62
     7
370
     9
100
AcDbMText
 10
184.9999237060555
 20
-21.74113794241339
 30
0.0
 40
99.06
 41
390.0
 46
0.0
 71
     7
 72
     1
  1
{\fＭＳ ゴシック|b0|i0|c128|p49;ドア枠}
 73
     1
 44
1.0
  0
MTEXT
  5
2E7
330
1F
100
AcDbEntity
  8
0-0
  6
Continuous
 62
     7
370
     9
100
AcDbMText
 10
-85.00007629394446
 20
-216.326443385722
 30
0.0
 40
101.2371428571429
 41
930.0
 46
0.0
 71
     7
 72
     1
  1
{\fＭＳ ゴシック|b0|i0|c128|p49;（戸当たり付）}
 73
     1
 44
1.0
  0
MTEXT
  5
2E8
330
1F
100
AcDbEntity
  8
0-A
  6
Continuous
 62
     7
370
     0
100
AcDbMText
 10
949.9995216163429
 20
769.53026218034
 30
0.0
 40
99.06
 41
390.0
 46
0.0
 71
     7
 72
     1
  1
{\f@ＭＳ ゴシック|b0|i0|c128|p49;縦　用}
 11
-1.836909530733566E-16
 21
-1.0
 31
0.0
 73
     1
 44
1.0
  0
MTEXT
  5
2E9
330
1F
100
AcDbEntity
  8
0-A
  6
Continuous
 62
     7
370
     0
100
AcDbMText
 10
949.9995216163429
 20
-480.4698178196596
 30
0.0
 40
99.06
 41
390.0
 46
0.0
 71
     7
 72
     1
  1
{\f@ＭＳ ゴシック|b0|i0|c128|p49;横　用}
 11
-1.836909530733566E-16
 21
-1.0
 31
0.0
 73
     1
 44
1.0
  0
MTEXT
  5
2EA
330
1F
100
AcDbEntity
  8
0-0
  6
Continuous
 62
     7
370
   211
100
AcDbMText
 10
1785.990103968094
 20
108.0433813983697
 30
0.0
 40
68.58
 41
180.0
 46
0.0
 71
     7
 72
     1
  1
{\fＭＳ ゴシック|b0|i0|c128|p49;44.5}
 73
     1
 44
1.0
  0
LINE
  5
2EB
330
1F
100
AcDbEntity
  8
0-0
  6
Continuous
 62
   120
370
     5
100
AcDbLine
 10
2209.740461595963
 20
103.7533813983697
 30
0.0
 11
2209.740461595963
 21
178.7533813983697
 31
0.0
  0
LINE
  5
2EC
330
1F
100
AcDbEntity
  8
0-0
  6
Continuous
 62
   120
370
     5
100
AcDbLine
 10
1542.239746340225
 20
103.7533813983697
 30
0.0
 11
1542.239746340225
 21
178.7533813983697
 31
0.0
  0
LWPOLYLINE
  5
2ED
330
1F
100
AcDbEntity
  8
0-0
  6
Continuous
 62
     7
370
     9
100
AcDbPolyline
 90
        4
 70
     1
 43
3.0
 10
2211.240461595963
 20
103.7533813983697
 42
0.4142135623731
 10
2209.740461595963
 20
105.2533813983697
 42
0.4142135623731
 10
2208.240461595963
 20
103.7533813983697
 42
0.4142135623731
 10
2209.740461595963
 20
102.2533813983697
 42
0.4142135623731
  0
LWPOLYLINE
  5
2EE
330
1F
100
AcDbEntity
  8
0-0
  6
Continuous
 62
     7
370
     9
100
AcDbPolyline
 90
        4
 70
     1
 43
3.0
 10
1543.739746340225
 20
103.7533813983697
 42
0.4142135623731
 10
1542.239746340225
 20
105.2533813983697
 42
0.4142135623731
 10
1540.739746340225
 20
103.7533813983697
 42
0.4142135623731
 10
1542.239746340225
 20
102.2533813983697
 42
0.4142135623731
  0
LINE
  5
2EF
330
1F
100
AcDbEntity
  8
0-0
  6
Continuous
 62
   120
370
     5
100
AcDbLine
 10
1542.239746340225
 20
103.7533813983697
 30
0.0
 11
2209.740461595963
 21
103.7533813983697
 31
0.0
  0
LINE
  5
2F0
330
1F
100
AcDbEntity
  8
0-0
  6
JWW_HOJO
 62
     7
370
     9
100
AcDbLine
 10
3237.239746340224
 20
141.8092924311286
 30
0.0
 11
1542.239746340225
 21
141.8092924311286
 31
0.0
  0
LINE
  5
2F1
330
1F
100
AcDbEntity
  8
0-0
  6
JWW_HOJO
 62
     7
370
     9
100
AcDbLine
 10
3237.239746340224
 20
216.8092924311286
 30
0.0
 11
1542.239746340225
 21
216.8092924311286
 31
0.0
  0
LINE
  5
2F2
330
1F
100
AcDbEntity
  8
0-0
  6
Continuous
 62
    92
370
    13
100
AcDbLine
 10
3229.739746340224
 20
456.8092924311286
 30
0.0
 11
3229.739746340224
 21
599.3092924311286
 31
0.0
  0
LINE
  5
2F3
330
1F
100
AcDbEntity
  8
0-0
  6
Continuous
 62
    92
370
    13
100
AcDbLine
 10
2569.740461595961
 20
599.3092924311286
 30
0.0
 11
3229.739746340224
 21
599.3092924311286
 31
0.0
  0
LINE
  5
2F4
330
1F
100
AcDbEntity
  8
0-0
  6
Continuous
 62
    92
370
    13
100
AcDbLine
 10
2569.740461595961
 20
606.8092924311286
 30
0.0
 11
3237.239746340224
 21
606.8092924311286
 31
0.0
  0
LINE
  5
2F5
330
1F
100
AcDbEntity
  8
0-0
  6
Continuous
 62
    92
370
    13
100
AcDbLine
 10
3237.239746340224
 20
456.8092924311286
 30
0.0
 11
3237.239746340224
 21
606.8092924311286
 31
0.0
  0
LINE
  5
2F6
330
1F
100
AcDbEntity
  8
0-0
  6
Continuous
 62
    92
370
    13
100
AcDbLine
 10
1549.739746340225
 20
456.8092924311286
 30
0.0
 11
1549.739746340225
 21
599.3092924311286
 31
0.0
  0
LINE
  5
2F7
330
1F
100
AcDbEntity
  8
0-0
  6
Continuous
 62
    92
370
    13
100
AcDbLine
 10
2209.740461595963
 20
599.3092924311286
 30
0.0
 11
1549.739746340225
 21
599.3092924311286
 31
0.0
  0
LINE
  5
2F8
330
1F
100
AcDbEntity
  8
0-0
  6
Continuous
 62
    92
370
    13
100
AcDbLine
 10
1542.239746340225
 20
456.8092924311286
 30
0.0
 11
1542.239746340225
 21
606.8092924311286
 31
0.0
  0
LINE
  5
2F9
330
1F
100
AcDbEntity
  8
0-0
  6
Continuous
 62
    92
370
    13
100
AcDbLine
 10
2209.740461595963
 20
606.8092924311286
 30
0.0
 11
1542.239746340225
 21
606.8092924311286
 31
0.0
  0
MTEXT
  5
2FA
330
1F
100
AcDbEntity
  8
0-0
  6
Continuous
 62
     7
370
   211
100
AcDbMText
 10
2051.600906986366
 20
513.5992924311286
 30
0.0
 40
68.58
 41
45.0
 46
0.0
 71
     7
 72
     1
  1
{\fＭＳ ゴシック|b0|i0|c128|p49;8}
 11
6.123031769111886E-17
 21
1.0
 31
0.0
 73
     1
 44
1.0
  0
LINE
  5
2FB
330
1F
100
AcDbEntity
  8
0-0
  6
Continuous
 62
   120
370
     5
100
AcDbLine
 10
2066.600906986366
 20
486.8092924311286
 30
0.0
 11
2141.600906986366
 21
486.8092924311286
 31
0.0
  0
LWPOLYLINE
  5
2FC
330
1F
100
AcDbEntity
  8
0-0
  6
Continuous
 62
     7
370
     9
100
AcDbPolyline
 90
        4
 70
     1
 43
3.0
 10
2068.100906986366
 20
486.8092924311286
 42
0.4142135623731
 10
2066.600906986366
 20
488.3092924311286
 42
0.4142135623731
 10
2065.100906986366
 20
486.8092924311286
 42
0.4142135623731
 10
2066.600906986366
 20
485.3092924311285
 42
0.4142135623731
  0
LINE
  5
2FD
330
1F
100
AcDbEntity
  8
0-0
  6
Continuous
 62
   120
370
     5
100
AcDbLine
 10
2066.600906986366
 20
606.8092924311286
 30
0.0
 11
2066.600906986366
 21
486.8092924311286
 31
0.0
  0
MTEXT
  5
2FE
330
1F
100
AcDbEntity
  8
0-0
  6
Continuous
 62
     7
370
   211
100
AcDbMText
 10
2051.600906986366
 20
626.0992924311286
 30
0.0
 40
68.58
 41
90.0
 46
0.0
 71
     7
 72
     1
  1
{\fＭＳ ゴシック|b0|i0|c128|p49;10}
 11
6.123031769111886E-17
 21
1.0
 31
0.0
 73
     1
 44
1.0
  0
LINE
  5
2FF
330
1F
100
AcDbEntity
  8
0-0
  6
Continuous
 62
   120
370
     5
100
AcDbLine
 10
2066.600906986366
 20
606.8092924311286
 30
0.0
 11
2141.600906986366
 21
606.8092924311286
 31
0.0
  0
LINE
  5
300
330
1F
100
AcDbEntity
  8
0-0
  6
Continuous
 62
   120
370
     5
100
AcDbLine
 10
2066.600906986366
 20
756.8092924311286
 30
0.0
 11
2141.600906986366
 21
756.8092924311286
 31
0.0
  0
LWPOLYLINE
  5
301
330
1F
100
AcDbEntity
  8
0-0
  6
Continuous
 62
     7
370
     9
100
AcDbPolyline
 90
        4
 70
     1
 43
3.0
 10
2068.100906986366
 20
606.8092924311286
 42
0.4142135623731
 10
2066.600906986366
 20
608.3092924311286
 42
0.4142135623731
 10
2065.100906986366
 20
606.8092924311286
 42
0.4142135623731
 10
2066.600906986366
 20
605.3092924311286
 42
0.4142135623731
  0
LWPOLYLINE
  5
302
330
1F
100
AcDbEntity
  8
0-0
  6
Continuous
 62
     7
370
     9
100
AcDbPolyline
 90
        4
 70
     1
 43
3.0
 10
2068.100906986366
 20
756.8092924311286
 42
0.4142135623731
 10
2066.600906986366
 20
758.3092924311286
 42
0.4142135623731
 10
2065.100906986366
 20
756.8092924311286
 42
0.4142135623731
 10
2066.600906986366
 20
755.3092924311286
 42
0.4142135623731
  0
LINE
  5
303
330
1F
100
AcDbEntity
  8
0-0
  6
Continuous
 62
   120
370
     5
100
AcDbLine
 10
2066.600906986366
 20
756.8092924311286
 30
0.0
 11
2066.600906986366
 21
606.8092924311286
 31
0.0
  0
MTEXT
  5
304
330
1F
100
AcDbEntity
  8
0-0
  6
Continuous
 62
     7
370
   211
100
AcDbMText
 10
2524.740461595961
 20
386.0992924311286
 30
0.0
 40
68.58
 41
45.0
 46
0.0
 71
     7
 72
     1
  1
{\fＭＳ ゴシック|b0|i0|c128|p49;3}
 73
     1
 44
1.0
  0
LINE
  5
305
330
1F
100
AcDbEntity
  8
0-0
  6
Continuous
 62
   120
370
     5
100
AcDbLine
 10
2569.740461595961
 20
381.8092924311286
 30
0.0
 11
2569.740461595961
 21
456.8092924311286
 31
0.0
  0
LWPOLYLINE
  5
306
330
1F
100
AcDbEntity
  8
0-0
  6
Continuous
 62
     7
370
     9
100
AcDbPolyline
 90
        4
 70
     1
 43
3.0
 10
2571.240461595961
 20
381.8092924311286
 42
0.4142135623731
 10
2569.740461595961
 20
383.3092924311286
 42
0.4142135623731
 10
2568.240461595961
 20
381.8092924311286
 42
0.4142135623731
 10
2569.740461595961
 20
380.3092924311285
 42
0.4142135623731
  0
LINE
  5
307
330
1F
100
AcDbEntity
  8
0-0
  6
Continuous
 62
   120
370
     5
100
AcDbLine
 10
2524.740461595961
 20
381.8092924311286
 30
0.0
 11
2569.740461595961
 21
381.8092924311286
 31
0.0
  0
MTEXT
  5
308
330
1F
100
AcDbEntity
  8
0-0
  6
Continuous
 62
     7
370
   211
100
AcDbMText
 10
2344.740451984712
 20
386.0992924311286
 30
0.0
 40
68.58
 41
90.0
 46
0.0
 71
     7
 72
     1
  1
{\fＭＳ ゴシック|b0|i0|c128|p49;18}
 73
     1
 44
1.0
  0
LINE
  5
309
330
1F
100
AcDbEntity
  8
0-0
  6
Continuous
 62
   120
370
     5
100
AcDbLine
 10
2524.740461595961
 20
381.8092924311286
 30
0.0
 11
2524.740461595961
 21
456.8092924311286
 31
0.0
  0
LWPOLYLINE
  5
30A
330
1F
100
AcDbEntity
  8
0-0
  6
Continuous
 62
     7
370
     9
100
AcDbPolyline
 90
        4
 70
     1
 43
3.0
 10
2526.240461595961
 20
381.8092924311286
 42
0.4142135623731
 10
2524.740461595961
 20
383.3092924311286
 42
0.4142135623731
 10
2523.240461595961
 20
381.8092924311286
 42
0.4142135623731
 10
2524.740461595961
 20
380.3092924311285
 42
0.4142135623731
  0
LINE
  5
30B
330
1F
100
AcDbEntity
  8
0-0
  6
Continuous
 62
   120
370
     5
100
AcDbLine
 10
2254.740442373465
 20
381.8092924311286
 30
0.0
 11
2524.740461595961
 21
381.8092924311286
 31
0.0
  0
MTEXT
  5
30C
330
1F
100
AcDbEntity
  8
0-0
  6
Continuous
 62
     7
370
   211
100
AcDbMText
 10
2209.740451984714
 20
386.0992924311286
 30
0.0
 40
68.58
 41
45.0
 46
0.0
 71
     7
 72
     1
  1
{\fＭＳ ゴシック|b0|i0|c128|p49;3}
 73
     1
 44
1.0
  0
LINE
  5
30D
330
1F
100
AcDbEntity
  8
0-0
  6
Continuous
 62
   120
370
     5
100
AcDbLine
 10
2254.740442373465
 20
381.8092924311286
 30
0.0
 11
2254.740442373465
 21
456.8092924311286
 31
0.0
  0
LINE
  5
30E
330
1F
100
AcDbEntity
  8
0-0
  6
Continuous
 62
   120
370
     5
100
AcDbLine
 10
2209.740461595963
 20
381.8092924311286
 30
0.0
 11
2209.740461595963
 21
456.8092924311286
 31
0.0
  0
LWPOLYLINE
  5
30F
330
1F
100
AcDbEntity
  8
0-0
  6
Continuous
 62
     7
370
     9
100
AcDbPolyline
 90
        4
 70
     1
 43
3.0
 10
2256.240442373465
 20
381.8092924311286
 42
0.4142135623731
 10
2254.740442373465
 20
383.3092924311286
 42
0.4142135623731
 10
2253.240442373465
 20
381.8092924311286
 42
0.4142135623731
 10
2254.740442373465
 20
380.3092924311285
 42
0.4142135623731
  0
LWPOLYLINE
  5
310
330
1F
100
AcDbEntity
  8
0-0
  6
Continuous
 62
     7
370
     9
100
AcDbPolyline
 90
        4
 70
     1
 43
3.0
 10
2211.240461595963
 20
381.8092924311286
 42
0.4142135623731
 10
2209.740461595963
 20
383.3092924311286
 42
0.4142135623731
 10
2208.240461595963
 20
381.8092924311286
 42
0.4142135623731
 10
2209.740461595963
 20
380.3092924311285
 42
0.4142135623731
  0
LINE
  5
311
330
1F
100
AcDbEntity
  8
0-0
  6
Continuous
 62
   120
370
     5
100
AcDbLine
 10
2209.740461595963
 20
381.8092924311286
 30
0.0
 11
2254.740442373465
 21
381.8092924311286
 31
0.0
  0
MTEXT
  5
312
330
1F
100
AcDbEntity
  8
0-0
  6
Continuous
 62
     7
370
   211
100
AcDbMText
 10
1272.239746340225
 20
371.0992924311286
 30
0.0
 40
68.58
 41
90.0
 46
0.0
 71
     7
 72
     1
  1
{\fＭＳ ゴシック|b0|i0|c128|p49;24}
 11
6.123031769111886E-17
 21
1.0
 31
0.0
 73
     1
 44
1.0
  0
LWPOLYLINE
  5
313
330
1F
100
AcDbEntity
  8
0-0
  6
Continuous
 62
     7
370
     9
100
AcDbPolyline
 90
        4
 70
     1
 43
3.0
 10
1288.739746340225
 20
246.8092924311286
 42
0.4142135623731
 10
1287.239746340225
 20
248.3092924311286
 42
0.4142135623731
 10
1285.739746340225
 20
246.8092924311286
 42
0.4142135623731
 10
1287.239746340225
 20
245.3092924311285
 42
0.4142135623731
  0
LWPOLYLINE
  5
314
330
1F
100
AcDbEntity
  8
0-0
  6
Continuous
 62
     7
370
     9
100
AcDbPolyline
 90
        4
 70
     1
 43
3.0
 10
1288.739746340225
 20
606.8092924311286
 42
0.4142135623731
 10
1287.239746340225
 20
608.3092924311286
 42
0.4142135623731
 10
1285.739746340225
 20
606.8092924311286
 42
0.4142135623731
 10
1287.239746340225
 20
605.3092924311286
 42
0.4142135623731
  0
LINE
  5
315
330
1F
100
AcDbEntity
  8
0-0
  6
Continuous
 62
   120
370
     5
100
AcDbLine
 10
1287.239746340225
 20
606.8092924311286
 30
0.0
 11
1287.239746340225
 21
246.8092924311286
 31
0.0
  0
MTEXT
  5
316
330
1F
100
AcDbEntity
  8
0-0
  6
Continuous
 62
     7
370
   211
100
AcDbMText
 10
1422.239746340225
 20
251.0992924311286
 30
0.0
 40
68.58
 41
45.0
 46
0.0
 71
     7
 72
     1
  1
{\fＭＳ ゴシック|b0|i0|c128|p49;5}
 11
6.123031769111886E-17
 21
1.0
 31
0.0
 73
     1
 44
1.0
  0
LINE
  5
317
330
1F
100
AcDbEntity
  8
0-0
  6
Continuous
 62
   120
370
     5
100
AcDbLine
 10
1287.239746340225
 20
246.8092924311286
 30
0.0
 11
1512.239746340225
 21
246.8092924311286
 31
0.0
  0
LWPOLYLINE
  5
318
330
1F
100
AcDbEntity
  8
0-0
  6
Continuous
 62
     7
370
     9
100
AcDbPolyline
 90
        4
 70
     1
 43
3.0
 10
1438.739746340225
 20
246.8092924311286
 42
0.4142135623731
 10
1437.239746340225
 20
248.3092924311286
 42
0.4142135623731
 10
1435.739746340225
 20
246.8092924311286
 42
0.4142135623731
 10
1437.239746340225
 20
245.3092924311285
 42
0.4142135623731
  0
LINE
  5
319
330
1F
100
AcDbEntity
  8
0-0
  6
Continuous
 62
   120
370
     5
100
AcDbLine
 10
1437.239746340225
 20
321.8092924311286
 30
0.0
 11
1437.239746340225
 21
246.8092924311286
 31
0.0
  0
MTEXT
  5
31A
330
1F
100
AcDbEntity
  8
0-0
  6
Continuous
 62
     7
370
   211
100
AcDbMText
 10
1422.239746340225
 20
356.0992924311286
 30
0.0
 40
68.58
 41
45.0
 46
0.0
 71
     7
 72
     1
  1
{\fＭＳ ゴシック|b0|i0|c128|p49;9}
 11
6.123031769111886E-17
 21
1.0
 31
0.0
 73
     1
 44
1.0
  0
LINE
  5
31B
330
1F
100
AcDbEntity
  8
0-0
  6
Continuous
 62
   120
370
     5
100
AcDbLine
 10
1437.239746340225
 20
321.8092924311286
 30
0.0
 11
1512.239746340225
 21
321.8092924311286
 31
0.0
  0
LWPOLYLINE
  5
31C
330
1F
100
AcDbEntity
  8
0-0
  6
Continuous
 62
     7
370
     9
100
AcDbPolyline
 90
        4
 70
     1
 43
3.0
 10
1438.739746340225
 20
321.8092924311286
 42
0.4142135623731
 10
1437.239746340225
 20
323.3092924311286
 42
0.4142135623731
 10
1435.739746340225
 20
321.8092924311286
 42
0.4142135623731
 10
1437.239746340225
 20
320.3092924311285
 42
0.4142135623731
  0
LINE
  5
31D
330
1F
100
AcDbEntity
  8
0-0
  6
Continuous
 62
   120
370
     5
100
AcDbLine
 10
1437.239746340225
 20
456.8092924311286
 30
0.0
 11
1437.239746340225
 21
321.8092924311286
 31
0.0
  0
MTEXT
  5
31E
330
1F
100
AcDbEntity
  8
0-0
  6
Continuous
 62
     7
370
   211
100
AcDbMText
 10
1422.239746340225
 20
476.0992924311286
 30
0.0
 40
68.58
 41
90.0
 46
0.0
 71
     7
 72
     1
  1
{\fＭＳ ゴシック|b0|i0|c128|p49;10}
 11
6.123031769111886E-17
 21
1.0
 31
0.0
 73
     1
 44
1.0
  0
LINE
  5
31F
330
1F
100
AcDbEntity
  8
0-0
  6
Continuous
 62
   120
370
     5
100
AcDbLine
 10
1437.239746340225
 20
456.8092924311286
 30
0.0
 11
1512.239746340225
 21
456.8092924311286
 31
0.0
  0
LINE
  5
320
330
1F
100
AcDbEntity
  8
0-0
  6
Continuous
 62
   120
370
     5
100
AcDbLine
 10
1287.239746340225
 20
606.8092924311286
 30
0.0
 11
1512.239746340225
 21
606.8092924311286
 31
0.0
  0
LWPOLYLINE
  5
321
330
1F
100
AcDbEntity
  8
0-0
  6
Continuous
 62
     7
370
     9
100
AcDbPolyline
 90
        4
 70
     1
 43
3.0
 10
1438.739746340225
 20
456.8092924311286
 42
0.4142135623731
 10
1437.239746340225
 20
458.3092924311286
 42
0.4142135623731
 10
1435.739746340225
 20
456.8092924311286
 42
0.4142135623731
 10
1437.239746340225
 20
455.3092924311285
 42
0.4142135623731
  0
LWPOLYLINE
  5
322
330
1F
100
AcDbEntity
  8
0-0
  6
Continuous
 62
     7
370
     9
100
AcDbPolyline
 90
        4
 70
     1
 43
3.0
 10
1438.739746340225
 20
606.8092924311286
 42
0.4142135623731
 10
1437.239746340225
 20
608.3092924311286
 42
0.4142135623731
 10
1435.739746340225
 20
606.8092924311286
 42
0.4142135623731
 10
1437.239746340225
 20
605.3092924311286
 42
0.4142135623731
  0
LINE
  5
323
330
1F
100
AcDbEntity
  8
0-0
  6
Continuous
 62
   120
370
     5
100
AcDbLine
 10
1437.239746340225
 20
606.8092924311286
 30
0.0
 11
1437.239746340225
 21
456.8092924311286
 31
0.0
  0
LWPOLYLINE
  5
324
330
1F
100
AcDbEntity
  8
0-0
  6
Continuous
 62
     7
370
     9
100
AcDbPolyline
 90
        4
 70
     1
 43
3.0
 10
3238.739746340224
 20
1011.809292431128
 42
0.4142135623731
 10
3237.239746340224
 20
1013.309292431128
 42
0.4142135623731
 10
3235.739746340224
 20
1011.809292431128
 42
0.4142135623731
 10
3237.239746340224
 20
1010.309292431128
 42
0.4142135623731
  0
LWPOLYLINE
  5
325
330
1F
100
AcDbEntity
  8
0-0
  6
Continuous
 62
     7
370
     9
100
AcDbPolyline
 90
        4
 70
     1
 43
3.0
 10
1543.739746340225
 20
1011.809292431128
 42
0.4142135623731
 10
1542.239746340225
 20
1013.309292431128
 42
0.4142135623731
 10
1540.739746340225
 20
1011.809292431128
 42
0.4142135623731
 10
1542.239746340225
 20
1010.309292431128
 42
0.4142135623731
  0
LINE
  5
326
330
1F
100
AcDbEntity
  8
0-0
  6
Continuous
 62
   120
370
     5
100
AcDbLine
 10
1542.239746340225
 20
1011.809292431128
 30
0.0
 11
3237.239746340224
 21
1011.809292431128
 31
0.0
  0
MTEXT
  5
327
330
1F
100
AcDbEntity
  8
0-0
  6
Continuous
 62
     7
370
   211
100
AcDbMText
 10
2877.239746340224
 20
866.0992924311286
 30
0.0
 40
68.58
 41
90.0
 46
0.0
 71
     7
 72
     1
  1
{\fＭＳ ゴシック|b0|i0|c128|p49;42}
 73
     1
 44
1.0
  0
LWPOLYLINE
  5
328
330
1F
100
AcDbEntity
  8
0-0
  6
Continuous
 62
     7
370
     9
100
AcDbPolyline
 90
        4
 70
     1
 43
3.0
 10
3238.739746340224
 20
861.8092924311286
 42
0.4142135623731
 10
3237.239746340224
 20
863.3092924311286
 42
0.4142135623731
 10
3235.739746340224
 20
861.8092924311286
 42
0.4142135623731
 10
3237.239746340224
 20
860.3092924311286
 42
0.4142135623731
  0
MTEXT
  5
329
330
1F
100
AcDbEntity
  8
0-0
  6
Continuous
 62
     7
370
   211
100
AcDbMText
 10
2367.239746340224
 20
866.0992924311286
 30
0.0
 40
68.58
 41
90.0
 46
0.0
 71
     7
 72
     1
  1
{\fＭＳ ゴシック|b0|i0|c128|p49;26}
 73
     1
 44
1.0
  0
LINE
  5
32A
330
1F
100
AcDbEntity
  8
0-0
  6
Continuous
 62
   120
370
     5
100
AcDbLine
 10
2607.239746340224
 20
861.8092924311286
 30
0.0
 11
2607.239746340224
 21
786.809292431129
 31
0.0
  0
LWPOLYLINE
  5
32B
330
1F
100
AcDbEntity
  8
0-0
  6
Continuous
 62
     7
370
     9
100
AcDbPolyline
 90
        4
 70
     1
 43
3.0
 10
2608.739746340224
 20
861.8092924311286
 42
0.4142135623731
 10
2607.239746340224
 20
863.3092924311286
 42
0.4142135623731
 10
2605.739746340224
 20
861.8092924311286
 42
0.4142135623731
 10
2607.239746340224
 20
860.3092924311286
 42
0.4142135623731
  0
MTEXT
  5
32C
330
1F
100
AcDbEntity
  8
0-0
  6
Continuous
 62
     7
370
   211
100
AcDbMText
 10
1834.739746340225
 20
866.0992924311286
 30
0.0
 40
68.58
 41
90.0
 46
0.0
 71
     7
 72
     1
  1
{\fＭＳ ゴシック|b0|i0|c128|p49;45}
 73
     1
 44
1.0
  0
LINE
  5
32D
330
1F
100
AcDbEntity
  8
0-0
  6
Continuous
 62
   120
370
     5
100
AcDbLine
 10
2217.239746340225
 20
861.8092924311286
 30
0.0
 11
2217.239746340225
 21
786.809292431129
 31
0.0
  0
LWPOLYLINE
  5
32E
330
1F
100
AcDbEntity
  8
0-0
  6
Continuous
 62
     7
370
     9
100
AcDbPolyline
 90
        4
 70
     1
 43
3.0
 10
2218.739746340225
 20
861.8092924311286
 42
0.4142135623731
 10
2217.239746340225
 20
863.3092924311286
 42
0.4142135623731
 10
2215.739746340225
 20
861.8092924311286
 42
0.4142135623731
 10
2217.239746340225
 20
860.3092924311286
 42
0.4142135623731
  0
LWPOLYLINE
  5
32F
330
1F
100
AcDbEntity
  8
0-0
  6
Continuous
 62
     7
370
     9
100
AcDbPolyline
 90
        4
 70
     1
 43
3.0
 10
1543.739746340225
 20
861.8092924311286
 42
0.4142135623731
 10
1542.239746340225
 20
863.3092924311286
 42
0.4142135623731
 10
1540.739746340225
 20
861.8092924311286
 42
0.4142135623731
 10
1542.239746340225
 20
860.3092924311286
 42
0.4142135623731
  0
LINE
  5
330
330
1F
100
AcDbEntity
  8
0-0
  6
Continuous
 62
   120
370
     5
100
AcDbLine
 10
1542.239746340225
 20
861.8092924311286
 30
0.0
 11
3237.239746340224
 21
861.8092924311286
 31
0.0
  0
MTEXT
  5
331
330
1F
100
AcDbEntity
  8
0-0
  6
Continuous
 62
     7
370
   211
100
AcDbMText
 10
3117.239746340224
 20
716.0992924311286
 30
0.0
 40
68.58
 41
90.0
 46
0.0
 71
     7
 72
     1
  1
{\fＭＳ ゴシック|b0|i0|c128|p49;10}
 73
     1
 44
1.0
  0
LINE
  5
332
330
1F
100
AcDbEntity
  8
0-0
  6
Continuous
 62
   120
370
     5
100
AcDbLine
 10
3237.239746340224
 20
1011.809292431128
 30
0.0
 11
3237.239746340224
 21
636.8092924311286
 31
0.0
  0
LINE
  5
333
330
1F
100
AcDbEntity
  8
0-0
  6
Continuous
 62
   120
370
     5
100
AcDbLine
 10
3087.239746340224
 20
711.8092924311286
 30
0.0
 11
3087.239746340224
 21
636.8092924311286
 31
0.0
  0
LWPOLYLINE
  5
334
330
1F
100
AcDbEntity
  8
0-0
  6
Continuous
 62
     7
370
     9
100
AcDbPolyline
 90
        4
 70
     1
 43
3.0
 10
3238.739746340224
 20
711.8092924311286
 42
0.4142135623731
 10
3237.239746340224
 20
713.3092924311286
 42
0.4142135623731
 10
3235.739746340224
 20
711.8092924311286
 42
0.4142135623731
 10
3237.239746340224
 20
710.3092924311286
 42
0.4142135623731
  0
LWPOLYLINE
  5
335
330
1F
100
AcDbEntity
  8
0-0
  6
Continuous
 62
     7
370
     9
100
AcDbPolyline
 90
        4
 70
     1
 43
3.0
 10
3088.739746340224
 20
711.8092924311286
 42
0.4142135623731
 10
3087.239746340224
 20
713.3092924311286
 42
0.4142135623731
 10
3085.739746340224
 20
711.8092924311286
 42
0.4142135623731
 10
3087.239746340224
 20
710.3092924311286
 42
0.4142135623731
  0
LINE
  5
336
330
1F
100
AcDbEntity
  8
0-0
  6
Continuous
 62
   120
370
     5
100
AcDbLine
 10
3087.239746340224
 20
711.8092924311286
 30
0.0
 11
3237.239746340224
 21
711.8092924311286
 31
0.0
  0
MTEXT
  5
337
330
1F
100
AcDbEntity
  8
0-0
  6
Continuous
 62
     7
370
   211
100
AcDbMText
 10
1572.239746340225
 20
716.0992924311286
 30
0.0
 40
68.58
 41
90.0
 46
0.0
 71
     7
 72
     1
  1
{\fＭＳ ゴシック|b0|i0|c128|p49;10}
 73
     1
 44
1.0
  0
LINE
  5
338
330
1F
100
AcDbEntity
  8
0-0
  6
Continuous
 62
   120
370
     5
100
AcDbLine
 10
1692.239746340225
 20
711.8092924311286
 30
0.0
 11
1692.239746340225
 21
636.8092924311286
 31
0.0
  0
LINE
  5
339
330
1F
100
AcDbEntity
  8
0-0
  6
Continuous
 62
   120
370
     5
100
AcDbLine
 10
1542.239746340225
 20
1011.809292431128
 30
0.0
 11
1542.239746340225
 21
636.8092924311286
 31
0.0
  0
LWPOLYLINE
  5
33A
330
1F
100
AcDbEntity
  8
0-0
  6
Continuous
 62
     7
370
     9
100
AcDbPolyline
 90
        4
 70
     1
 43
3.0
 10
1693.739746340225
 20
711.8092924311286
 42
0.4142135623731
 10
1692.239746340225
 20
713.3092924311286
 42
0.4142135623731
 10
1690.739746340225
 20
711.8092924311286
 42
0.4142135623731
 10
1692.239746340225
 20
710.3092924311286
 42
0.4142135623731
  0
LWPOLYLINE
  5
33B
330
1F
100
AcDbEntity
  8
0-0
  6
Continuous
 62
     7
370
     9
100
AcDbPolyline
 90
        4
 70
     1
 43
3.0
 10
1543.739746340225
 20
711.8092924311286
 42
0.4142135623731
 10
1542.239746340225
 20
713.3092924311286
 42
0.4142135623731
 10
1540.739746340225
 20
711.8092924311286
 42
0.4142135623731
 10
1542.239746340225
 20
710.3092924311286
 42
0.4142135623731
  0
LINE
  5
33C
330
1F
100
AcDbEntity
  8
0-0
  6
Continuous
 62
   120
370
     5
100
AcDbLine
 10
1542.239746340225
 20
711.8092924311286
 30
0.0
 11
1692.239746340225
 21
711.8092924311286
 31
0.0
  0
LINE
  5
33D
330
1F
100
AcDbEntity
  8
0-0
  6
JWW_HOJO
 62
     7
370
     9
100
AcDbLine
 10
2066.600906986366
 20
381.8092924311286
 30
0.0
 11
2607.239746340224
 21
381.8092924311286
 31
0.0
  0
LINE
  5
33E
330
1F
100
AcDbEntity
  8
0-0
  6
JWW_HOJO
 62
     7
370
     9
100
AcDbLine
 10
2607.239746340224
 20
606.8092924311286
 30
0.0
 11
2607.239746340224
 21
381.8092924311286
 31
0.0
  0
LINE
  5
33F
330
1F
100
AcDbEntity
  8
0-0
  6
JWW_HOJO
 62
     7
370
     9
100
AcDbLine
 10
2171.600906986366
 20
456.8092924311286
 30
0.0
 11
2607.239746340224
 21
456.8092924311286
 31
0.0
  0
LINE
  5
340
330
1F
100
AcDbEntity
  8
0-0
  6
JWW_HOJO
 62
     7
370
     9
100
AcDbLine
 10
2217.239746340225
 20
756.8092924311286
 30
0.0
 11
2066.600906986366
 21
756.8092924311286
 31
0.0
  0
LINE
  5
341
330
1F
100
AcDbEntity
  8
0-0
  6
JWW_HOJO
 62
     7
370
     9
100
AcDbLine
 10
2066.600906986366
 20
756.8092924311286
 30
0.0
 11
2066.600906986366
 21
381.8092924311286
 31
0.0
  0
LINE
  5
342
330
1F
100
AcDbEntity
  8
0-0
  6
JWW_HOJO
 62
     7
370
     9
100
AcDbLine
 10
2141.600906986366
 20
756.8092924311286
 30
0.0
 11
2141.600906986366
 21
381.8092924311286
 31
0.0
  0
LINE
  5
343
330
1F
100
AcDbEntity
  8
0-0
  6
JWW_HOJO
 62
     7
370
     9
100
AcDbLine
 10
2171.600906986366
 20
756.8092924311286
 30
0.0
 11
2171.600906986366
 21
456.8092924311286
 31
0.0
  0
LINE
  5
344
330
1F
100
AcDbEntity
  8
0-0
  6
JWW_HOJO
 62
     7
370
     9
100
AcDbLine
 10
1542.239746340225
 20
711.8092924311286
 30
0.0
 11
2209.740461595963
 21
711.8092924311286
 31
0.0
  0
LINE
  5
345
330
1F
100
AcDbEntity
  8
0-0
  6
JWW_HOJO
 62
     7
370
     9
100
AcDbLine
 10
1542.239746340225
 20
636.8092924311286
 30
0.0
 11
2209.740461595963
 21
636.8092924311286
 31
0.0
  0
LINE
  5
346
330
1F
100
AcDbEntity
  8
0-0
  6
JWW_HOJO
 62
     7
370
     9
100
AcDbLine
 10
1542.239746340225
 20
246.8092924311286
 30
0.0
 11
1287.239746340225
 21
246.8092924311286
 31
0.0
  0
LINE
  5
347
330
1F
100
AcDbEntity
  8
0-0
  6
JWW_HOJO
 62
     7
370
     9
100
AcDbLine
 10
1287.239746340225
 20
246.8092924311286
 30
0.0
 11
1287.239746340225
 21
1011.809292431128
 31
0.0
  0
LINE
  5
348
330
1F
100
AcDbEntity
  8
0-0
  6
JWW_HOJO
 62
     7
370
     9
100
AcDbLine
 10
1287.239746340225
 20
1011.809292431128
 30
0.0
 11
3237.239746340224
 21
1011.809292431129
 31
0.0
  0
LINE
  5
349
330
1F
100
AcDbEntity
  8
0-0
  6
JWW_HOJO
 62
     7
370
     9
100
AcDbLine
 10
3237.239746340224
 20
606.8092924311286
 30
0.0
 11
3237.239746340224
 21
1011.809292431129
 31
0.0
  0
LINE
  5
34A
330
1F
100
AcDbEntity
  8
0-0
  6
JWW_HOJO
 62
     7
370
     9
100
AcDbLine
 10
1437.239746340225
 20
861.8092924311286
 30
0.0
 11
3237.239746340224
 21
861.809292431129
 31
0.0
  0
LINE
  5
34B
330
1F
100
AcDbEntity
  8
0-0
  6
JWW_HOJO
 62
     7
370
     9
100
AcDbLine
 10
1437.239746340225
 20
246.8092924311286
 30
0.0
 11
1437.239746340225
 21
861.8092924311286
 31
0.0
  0
LINE
  5
34C
330
1F
100
AcDbEntity
  8
0-0
  6
JWW_HOJO
 62
     7
370
     9
100
AcDbLine
 10
1512.239746340225
 20
246.8092924311286
 30
0.0
 11
1512.239746340225
 21
786.8092924311286
 31
0.0
  0
LINE
  5
34D
330
1F
100
AcDbEntity
  8
0-0
  6
JWW_HOJO
 62
     7
370
     9
100
AcDbLine
 10
1512.239746340225
 20
786.8092924311286
 30
0.0
 11
2607.239746340224
 21
786.809292431129
 31
0.0
  0
LINE
  5
34E
330
1F
100
AcDbEntity
  8
0-0
  6
Continuous
 62
    92
370
    13
100
AcDbLine
 10
3087.239746340224
 20
321.8092181991817
 30
0.0
 11
3237.239746340224
 21
321.8092181991817
 31
0.0
  0
LINE
  5
34F
330
1F
100
AcDbEntity
  8
0-0
  6
Continuous
 62
    92
370
    13
100
AcDbLine
 10
3087.239746340224
 20
321.8092181991817
 30
0.0
 11
3087.239746340224
 21
456.8092924311286
 31
0.0
  0
LINE
  5
350
330
1F
100
AcDbEntity
  8
0-0
  6
Continuous
 62
    92
370
    13
100
AcDbLine
 10
3087.239746340224
 20
456.8092924311286
 30
0.0
 11
3237.239746340224
 21
456.8092924311286
 31
0.0
  0
LINE
  5
351
330
1F
100
AcDbEntity
  8
0-0
  6
Continuous
 62
    92
370
    13
100
AcDbLine
 10
1692.239746340225
 20
456.8092924311286
 30
0.0
 11
1542.239746340225
 21
456.8092924311286
 31
0.0
  0
LINE
  5
352
330
1F
100
AcDbEntity
  8
0-0
  6
Continuous
 62
    92
370
    13
100
AcDbLine
 10
1692.239746340225
 20
321.8092924311286
 30
0.0
 11
1542.239746340225
 21
321.8092924311286
 31
0.0
  0
LINE
  5
353
330
1F
100
AcDbEntity
  8
0-0
  6
Continuous
 62
    92
370
    13
100
AcDbLine
 10
1692.239746340225
 20
456.8092924311286
 30
0.0
 11
1692.239746340225
 21
321.8092924311286
 31
0.0
  0
LINE
  5
354
330
1F
100
AcDbEntity
  8
0-0
  6
Continuous
 62
    92
370
    13
100
AcDbLine
 10
3237.239746340224
 20
246.8092924311286
 30
0.0
 11
1542.239746340225
 21
246.8092924311286
 31
0.0
  0
LINE
  5
355
330
1F
100
AcDbEntity
  8
0-0
  6
Continuous
 62
    92
370
    13
100
AcDbLine
 10
3237.239746340224
 20
321.8092181991817
 30
0.0
 11
3237.239746340224
 21
246.8092924311286
 31
0.0
  0
LINE
  5
356
330
1F
100
AcDbEntity
  8
0-0
  6
Continuous
 62
    92
370
    13
100
AcDbLine
 10
1542.239746340225
 20
246.8092924311286
 30
0.0
 11
1542.239746340225
 21
321.8092924311286
 31
0.0
  0
LINE
  5
357
330
1F
100
AcDbEntity
  8
0-0
  6
Continuous
 62
     7
370
     9
100
AcDbLine
 10
2607.239746340224
 20
756.809292431129
 30
0.0
 11
2607.239746340224
 21
606.8092924311286
 31
0.0
  0
LINE
  5
358
330
1F
100
AcDbEntity
  8
0-0
  6
Continuous
 62
     7
370
     9
100
AcDbLine
 10
2562.241176851698
 20
606.8092924311286
 30
0.0
 11
2607.239746340224
 21
606.8092924311286
 31
0.0
  0
LINE
  5
359
330
1F
100
AcDbEntity
  8
0-0
  6
Continuous
 62
     7
370
     9
100
AcDbLine
 10
2217.239746340225
 20
756.8092924311286
 30
0.0
 11
2607.239746340224
 21
756.809292431129
 31
0.0
  0
LINE
  5
35A
330
1F
100
AcDbEntity
  8
0-0
  6
Continuous
 62
     7
370
     9
100
AcDbLine
 10
2532.239765562721
 20
636.8092066004401
 30
0.0
 11
2532.239765562721
 21
726.810308094276
 31
0.0
  0
LINE
  5
35B
330
1F
100
AcDbEntity
  8
0-0
  6
Continuous
 62
     7
370
     9
100
AcDbLine
 10
2251.739635207365
 20
726.8103080942756
 30
0.0
 11
2532.239765562721
 21
726.810308094276
 31
0.0
  0
LINE
  5
35C
330
1F
100
AcDbEntity
  8
0-0
  6
Continuous
 62
     7
370
     9
100
AcDbLine
 10
2251.739635207365
 20
636.8092066004401
 30
0.0
 11
2532.239765562721
 21
636.8092066004401
 31
0.0
  0
LINE
  5
35D
330
1F
100
AcDbEntity
  8
0-0
  6
Continuous
 62
    92
370
    13
100
AcDbLine
 10
2209.740461595963
 20
486.8092924311286
 30
0.0
 11
2209.740461595963
 21
606.8092924311286
 31
0.0
  0
LINE
  5
35E
330
1F
100
AcDbEntity
  8
0-0
  6
Continuous
 62
     7
370
     9
100
AcDbLine
 10
2547.240460701891
 20
486.8092924311286
 30
0.0
 11
2526.239946969458
 21
531.8105584337836
 31
0.0
  0
LINE
  5
35F
330
1F
100
AcDbEntity
  8
0-0
  6
Continuous
 62
     7
370
     9
100
AcDbLine
 10
2547.240460701891
 20
486.8092924311286
 30
0.0
 11
2568.240974434324
 21
531.8096286013251
 31
0.0
  0
LINE
  5
360
330
1F
100
AcDbEntity
  8
0-0
  6
Continuous
 62
     7
370
     9
100
AcDbLine
 10
2232.240451984714
 20
486.8092924311286
 30
0.0
 11
2211.239923723648
 21
531.8105584337836
 31
0.0
  0
LINE
  5
361
330
1F
100
AcDbEntity
  8
0-0
  6
Continuous
 62
    92
370
    13
100
AcDbLine
 10
2569.740461595961
 20
486.8092924311286
 30
0.0
 11
2524.740461595961
 21
486.8092924311286
 31
0.0
  0
LINE
  5
362
330
1F
100
AcDbEntity
  8
0-0
  6
Continuous
 62
    92
370
    13
100
AcDbLine
 10
2569.740461595961
 20
606.8092924311286
 30
0.0
 11
2569.740461595961
 21
486.8092924311286
 31
0.0
  0
LINE
  5
363
330
1F
100
AcDbEntity
  8
0-0
  6
Continuous
 62
     7
370
     9
100
AcDbLine
 10
2562.241176851698
 20
531.8096286013251
 30
0.0
 11
2562.241176851698
 21
606.8092924311286
 31
0.0
  0
LINE
  5
364
330
1F
100
AcDbEntity
  8
0-0
  6
Continuous
 62
     7
370
     9
100
AcDbLine
 10
2568.240974434324
 20
531.8096286013251
 30
0.0
 11
2562.241176851698
 21
531.8096286013251
 31
0.0
  0
LINE
  5
365
330
1F
100
AcDbEntity
  8
0-0
  6
Continuous
 62
    92
370
    13
100
AcDbLine
 10
2209.740461595963
 20
486.8092924311286
 30
0.0
 11
2254.740442373465
 21
486.8092924311286
 31
0.0
  0
LINE
  5
366
330
1F
100
AcDbEntity
  8
0-0
  6
Continuous
 62
     7
370
     9
100
AcDbLine
 10
2211.239923723648
 20
531.8105584337836
 30
0.0
 11
2217.239746340225
 21
531.8105584337836
 31
0.0
  0
ARC
  5
367
330
1F
100
AcDbEntity
  8
0-0
  6
Continuous
 62
     7
370
     9
100
AcDbCircle
 10
2285.588372407585
 20
665.5707845810758
 30
0.0
 40
114.0
100
AcDbArc
 50
126.8376291354934
 51
179.1503421854896
  0
LINE
  5
368
330
1F
100
AcDbEntity
  8
0-0
  6
Continuous
 62
    92
370
    13
100
AcDbLine
 10
2524.740480818459
 20
606.8092924311286
 30
0.0
 11
2254.740461595963
 21
606.8092924311286
 31
0.0
  0
LINE
  5
369
330
1F
100
AcDbEntity
  8
0-0
  6
Continuous
 62
    92
370
    13
100
AcDbLine
 10
2524.740461595961
 20
486.8092924311286
 30
0.0
 11
2524.740461595961
 21
606.8092924311286
 31
0.0
  0
LINE
  5
36A
330
1F
100
AcDbEntity
  8
0-0
  6
Continuous
 62
     7
370
     9
100
AcDbLine
 10
2526.239946969458
 20
531.8105584337836
 30
0.0
 11
2532.239744105049
 21
531.8105584337836
 31
0.0
  0
LINE
  5
36B
330
1F
100
AcDbEntity
  8
0-0
  6
Continuous
 62
    92
370
    13
100
AcDbLine
 10
2254.740442373465
 20
486.8092924311286
 30
0.0
 11
2254.740442373465
 21
606.8092924311286
 31
0.0
  0
LINE
  5
36C
330
1F
100
AcDbEntity
  8
0-0
  6
Continuous
 62
     7
370
     9
100
AcDbLine
 10
2247.241157629202
 20
531.8096286013251
 30
0.0
 11
2247.241157629202
 21
606.8092924311286
 31
0.0
  0
LINE
  5
36D
330
1F
100
AcDbEntity
  8
0-0
  6
Continuous
 62
     7
370
     9
100
AcDbLine
 10
2253.24095163555
 20
531.8096286013251
 30
0.0
 11
2247.241157629202
 21
531.8096286013251
 31
0.0
  0
LINE
  5
36E
330
1F
100
AcDbEntity
  8
0-0
  6
Continuous
 62
     7
370
     9
100
AcDbLine
 10
2232.240451984714
 20
486.8092924311286
 30
0.0
 11
2253.24095163555
 21
531.8096286013251
 31
0.0
  0
LINE
  5
36F
330
1F
100
AcDbEntity
  8
0-0
  6
Continuous
 62
     7
370
     9
100
AcDbLine
 10
2217.239746340225
 20
531.8105584337836
 30
0.0
 11
2217.239746340225
 21
756.8092924311286
 31
0.0
  0
LINE
  5
370
330
1F
100
AcDbEntity
  8
0-0
  6
Continuous
 62
     7
370
     9
100
AcDbLine
 10
2251.739635207365
 20
726.8103080942756
 30
0.0
 11
2251.739635207365
 21
636.8092066004401
 31
0.0
  0
ARC
  5
371
330
1F
100
AcDbEntity
  8
0-0
  6
Continuous
 62
     7
370
     9
100
AcDbCircle
 10
2233.110534437607
 20
666.2449556543952
 30
0.0
 40
61.5180230140686
100
AcDbArc
 50
179.0534004528669
 51
255.0494537353515
  0
LINE
  5
372
330
1F
100
AcDbEntity
  8
0-0
  6
Continuous
 62
     7
370
     9
100
AcDbLine
 10
2532.239765562721
 20
606.8092924311286
 30
0.0
 11
2247.241179086874
 21
606.8092924311286
 31
0.0
  0
LINE
  5
373
330
1F
100
AcDbEntity
  8
0-0
  6
Continuous
 62
     7
370
     9
100
AcDbLine
 10
2532.239744105049
 20
531.8105584337836
 30
0.0
 11
2532.239744105049
 21
606.8092924311286
 31
0.0
  0
MTEXT
  5
374
330
1F
100
AcDbEntity
  8
0-0
  6
Continuous
 62
     7
370
   211
100
AcDbMText
 10
1785.990103968094
 20
-1141.956698504073
 30
0.0
 40
68.58
 41
180.0
 46
0.0
 71
     7
 72
     1
  1
{\fＭＳ ゴシック|b0|i0|c128|p49;44.5}
 73
     1
 44
1.0
  0
LINE
  5
375
330
1F
100
AcDbEntity
  8
0-0
  6
Continuous
 62
   120
370
     5
100
AcDbLine
 10
2209.740461595963
 20
-1146.246698504073
 30
0.0
 11
2209.740461595963
 21
-1071.246698504073
 31
0.0
  0
LINE
  5
376
330
1F
100
AcDbEntity
  8
0-0
  6
Continuous
 62
   120
370
     5
100
AcDbLine
 10
1542.239746340225
 20
-1146.246698504073
 30
0.0
 11
1542.239746340225
 21
-1071.246698504073
 31
0.0
  0
LWPOLYLINE
  5
377
330
1F
100
AcDbEntity
  8
0-0
  6
Continuous
 62
     7
370
     9
100
AcDbPolyline
 90
        4
 70
     1
 43
3.0
 10
2211.240461595963
 20
-1146.246698504073
 42
0.4142135623731
 10
2209.740461595963
 20
-1144.746698504073
 42
0.4142135623731
 10
2208.240461595963
 20
-1146.246698504073
 42
0.4142135623731
 10
2209.740461595963
 20
-1147.746698504073
 42
0.4142135623731
  0
LWPOLYLINE
  5
378
330
1F
100
AcDbEntity
  8
0-0
  6
Continuous
 62
     7
370
     9
100
AcDbPolyline
 90
        4
 70
     1
 43
3.0
 10
1543.739746340225
 20
-1146.246698504073
 42
0.4142135623731
 10
1542.239746340225
 20
-1144.746698504073
 42
0.4142135623731
 10
1540.739746340225
 20
-1146.246698504073
 42
0.4142135623731
 10
1542.239746340225
 20
-1147.746698504073
 42
0.4142135623731
  0
LINE
  5
379
330
1F
100
AcDbEntity
  8
0-0
  6
Continuous
 62
   120
370
     5
100
AcDbLine
 10
1542.239746340225
 20
-1146.246698504073
 30
0.0
 11
2209.740461595963
 21
-1146.246698504073
 31
0.0
  0
LINE
  5
37A
330
1F
100
AcDbEntity
  8
0-0
  6
JWW_HOJO
 62
     7
370
     9
100
AcDbLine
 10
3237.239746340224
 20
-1108.190787471314
 30
0.0
 11
1542.239746340225
 21
-1108.190787471314
 31
0.0
  0
LINE
  5
37B
330
1F
100
AcDbEntity
  8
0-0
  6
JWW_HOJO
 62
     7
370
     9
100
AcDbLine
 10
3237.239746340224
 20
-1033.190787471314
 30
0.0
 11
1542.239746340225
 21
-1033.190787471314
 31
0.0
  0
LINE
  5
37C
330
1F
100
AcDbEntity
  8
0-0
  6
Continuous
 62
    92
370
    13
100
AcDbLine
 10
3229.739746340224
 20
-793.1907874713145
 30
0.0
 11
3229.739746340224
 21
-650.6907874713145
 31
0.0
  0
LINE
  5
37D
330
1F
100
AcDbEntity
  8
0-0
  6
Continuous
 62
    92
370
    13
100
AcDbLine
 10
2569.740461595961
 20
-650.6907874713145
 30
0.0
 11
3229.739746340224
 21
-650.6907874713145
 31
0.0
  0
LINE
  5
37E
330
1F
100
AcDbEntity
  8
0-0
  6
Continuous
 62
    92
370
    13
100
AcDbLine
 10
2569.740461595961
 20
-643.1907874713145
 30
0.0
 11
3237.239746340224
 21
-643.1907874713145
 31
0.0
  0
LINE
  5
37F
330
1F
100
AcDbEntity
  8
0-0
  6
Continuous
 62
    92
370
    13
100
AcDbLine
 10
3237.239746340224
 20
-793.1907874713145
 30
0.0
 11
3237.239746340224
 21
-643.1907874713145
 31
0.0
  0
LINE
  5
380
330
1F
100
AcDbEntity
  8
0-0
  6
Continuous
 62
    92
370
    13
100
AcDbLine
 10
1549.739746340225
 20
-793.1907874713145
 30
0.0
 11
1549.739746340225
 21
-650.6907874713145
 31
0.0
  0
LINE
  5
381
330
1F
100
AcDbEntity
  8
0-0
  6
Continuous
 62
    92
370
    13
100
AcDbLine
 10
2209.740461595963
 20
-650.6907874713145
 30
0.0
 11
1549.739746340225
 21
-650.6907874713145
 31
0.0
  0
LINE
  5
382
330
1F
100
AcDbEntity
  8
0-0
  6
Continuous
 62
    92
370
    13
100
AcDbLine
 10
1542.239746340225
 20
-793.1907874713145
 30
0.0
 11
1542.239746340225
 21
-643.1907874713145
 31
0.0
  0
LINE
  5
383
330
1F
100
AcDbEntity
  8
0-0
  6
Continuous
 62
    92
370
    13
100
AcDbLine
 10
2209.740461595963
 20
-643.1907874713145
 30
0.0
 11
1542.239746340225
 21
-643.1907874713145
 31
0.0
  0
MTEXT
  5
384
330
1F
100
AcDbEntity
  8
0-0
  6
Continuous
 62
     7
370
   211
100
AcDbMText
 10
2051.600906986366
 20
-736.4007874713145
 30
0.0
 40
68.58
 41
45.0
 46
0.0
 71
     7
 72
     1
  1
{\fＭＳ ゴシック|b0|i0|c128|p49;8}
 11
6.123031769111886E-17
 21
1.0
 31
0.0
 73
     1
 44
1.0
  0
LINE
  5
385
330
1F
100
AcDbEntity
  8
0-0
  6
Continuous
 62
   120
370
     5
100
AcDbLine
 10
2066.600906986366
 20
-763.1907874713145
 30
0.0
 11
2141.600906986366
 21
-763.1907874713145
 31
0.0
  0
LWPOLYLINE
  5
386
330
1F
100
AcDbEntity
  8
0-0
  6
Continuous
 62
     7
370
     9
100
AcDbPolyline
 90
        4
 70
     1
 43
3.0
 10
2068.100906986366
 20
-763.1907874713145
 42
0.4142135623731
 10
2066.600906986366
 20
-761.6907874713144
 42
0.4142135623731
 10
2065.100906986366
 20
-763.1907874713145
 42
0.4142135623731
 10
2066.600906986366
 20
-764.6907874713145
 42
0.4142135623731
  0
LINE
  5
387
330
1F
100
AcDbEntity
  8
0-0
  6
Continuous
 62
   120
370
     5
100
AcDbLine
 10
2066.600906986366
 20
-643.1907874713145
 30
0.0
 11
2066.600906986366
 21
-763.1907874713145
 31
0.0
  0
MTEXT
  5
388
330
1F
100
AcDbEntity
  8
0-0
  6
Continuous
 62
     7
370
   211
100
AcDbMText
 10
2051.600906986366
 20
-623.9007874713145
 30
0.0
 40
68.58
 41
90.0
 46
0.0
 71
     7
 72
     1
  1
{\fＭＳ ゴシック|b0|i0|c128|p49;10}
 11
6.123031769111886E-17
 21
1.0
 31
0.0
 73
     1
 44
1.0
  0
LINE
  5
389
330
1F
100
AcDbEntity
  8
0-0
  6
Continuous
 62
   120
370
     5
100
AcDbLine
 10
2066.600906986366
 20
-643.1907874713145
 30
0.0
 11
2141.600906986366
 21
-643.1907874713145
 31
0.0
  0
LINE
  5
38A
330
1F
100
AcDbEntity
  8
0-0
  6
Continuous
 62
   120
370
     5
100
AcDbLine
 10
2066.600906986366
 20
-493.1907874713144
 30
0.0
 11
2141.600906986366
 21
-493.1907874713144
 31
0.0
  0
LWPOLYLINE
  5
38B
330
1F
100
AcDbEntity
  8
0-0
  6
Continuous
 62
     7
370
     9
100
AcDbPolyline
 90
        4
 70
     1
 43
3.0
 10
2068.100906986366
 20
-643.1907874713145
 42
0.4142135623731
 10
2066.600906986366
 20
-641.6907874713144
 42
0.4142135623731
 10
2065.100906986366
 20
-643.1907874713145
 42
0.4142135623731
 10
2066.600906986366
 20
-644.6907874713145
 42
0.4142135623731
  0
LWPOLYLINE
  5
38C
330
1F
100
AcDbEntity
  8
0-0
  6
Continuous
 62
     7
370
     9
100
AcDbPolyline
 90
        4
 70
     1
 43
3.0
 10
2068.100906986366
 20
-493.1907874713144
 42
0.4142135623731
 10
2066.600906986366
 20
-491.6907874713144
 42
0.4142135623731
 10
2065.100906986366
 20
-493.1907874713144
 42
0.4142135623731
 10
2066.600906986366
 20
-494.6907874713144
 42
0.4142135623731
  0
LINE
  5
38D
330
1F
100
AcDbEntity
  8
0-0
  6
Continuous
 62
   120
370
     5
100
AcDbLine
 10
2066.600906986366
 20
-493.1907874713144
 30
0.0
 11
2066.600906986366
 21
-643.1907874713145
 31
0.0
  0
MTEXT
  5
38E
330
1F
100
AcDbEntity
  8
0-0
  6
Continuous
 62
     7
370
   211
100
AcDbMText
 10
2524.740461595961
 20
-863.9007874713145
 30
0.0
 40
68.58
 41
45.0
 46
0.0
 71
     7
 72
     1
  1
{\fＭＳ ゴシック|b0|i0|c128|p49;3}
 73
     1
 44
1.0
  0
LINE
  5
38F
330
1F
100
AcDbEntity
  8
0-0
  6
Continuous
 62
   120
370
     5
100
AcDbLine
 10
2569.740461595961
 20
-868.1907874713145
 30
0.0
 11
2569.740461595961
 21
-793.1907874713145
 31
0.0
  0
LWPOLYLINE
  5
390
330
1F
100
AcDbEntity
  8
0-0
  6
Continuous
 62
     7
370
     9
100
AcDbPolyline
 90
        4
 70
     1
 43
3.0
 10
2571.240461595961
 20
-868.1907874713145
 42
0.4142135623731
 10
2569.740461595961
 20
-866.6907874713144
 42
0.4142135623731
 10
2568.240461595961
 20
-868.1907874713145
 42
0.4142135623731
 10
2569.740461595961
 20
-869.6907874713145
 42
0.4142135623731
  0
LINE
  5
391
330
1F
100
AcDbEntity
  8
0-0
  6
Continuous
 62
   120
370
     5
100
AcDbLine
 10
2524.740461595961
 20
-868.1907874713145
 30
0.0
 11
2569.740461595961
 21
-868.1907874713145
 31
0.0
  0
MTEXT
  5
392
330
1F
100
AcDbEntity
  8
0-0
  6
Continuous
 62
     7
370
   211
100
AcDbMText
 10
2344.740451984712
 20
-863.9007874713145
 30
0.0
 40
68.58
 41
90.0
 46
0.0
 71
     7
 72
     1
  1
{\fＭＳ ゴシック|b0|i0|c128|p49;18}
 73
     1
 44
1.0
  0
LINE
  5
393
330
1F
100
AcDbEntity
  8
0-0
  6
Continuous
 62
   120
370
     5
100
AcDbLine
 10
2524.740461595961
 20
-868.1907874713145
 30
0.0
 11
2524.740461595961
 21
-793.1907874713145
 31
0.0
  0
LWPOLYLINE
  5
394
330
1F
100
AcDbEntity
  8
0-0
  6
Continuous
 62
     7
370
     9
100
AcDbPolyline
 90
        4
 70
     1
 43
3.0
 10
2526.240461595961
 20
-868.1907874713145
 42
0.4142135623731
 10
2524.740461595961
 20
-866.6907874713144
 42
0.4142135623731
 10
2523.240461595961
 20
-868.1907874713145
 42
0.4142135623731
 10
2524.740461595961
 20
-869.6907874713145
 42
0.4142135623731
  0
LINE
  5
395
330
1F
100
AcDbEntity
  8
0-0
  6
Continuous
 62
   120
370
     5
100
AcDbLine
 10
2254.740442373465
 20
-868.1907874713145
 30
0.0
 11
2524.740461595961
 21
-868.1907874713145
 31
0.0
  0
MTEXT
  5
396
330
1F
100
AcDbEntity
  8
0-0
  6
Continuous
 62
     7
370
   211
100
AcDbMText
 10
2209.740451984714
 20
-863.9007874713145
 30
0.0
 40
68.58
 41
45.0
 46
0.0
 71
     7
 72
     1
  1
{\fＭＳ ゴシック|b0|i0|c128|p49;3}
 73
     1
 44
1.0
  0
LINE
  5
397
330
1F
100
AcDbEntity
  8
0-0
  6
Continuous
 62
   120
370
     5
100
AcDbLine
 10
2254.740442373465
 20
-868.1907874713145
 30
0.0
 11
2254.740442373465
 21
-793.1907874713145
 31
0.0
  0
LINE
  5
398
330
1F
100
AcDbEntity
  8
0-0
  6
Continuous
 62
   120
370
     5
100
AcDbLine
 10
2209.740461595963
 20
-868.1907874713145
 30
0.0
 11
2209.740461595963
 21
-793.1907874713145
 31
0.0
  0
LWPOLYLINE
  5
399
330
1F
100
AcDbEntity
  8
0-0
  6
Continuous
 62
     7
370
     9
100
AcDbPolyline
 90
        4
 70
     1
 43
3.0
 10
2256.240442373465
 20
-868.1907874713145
 42
0.4142135623731
 10
2254.740442373465
 20
-866.6907874713144
 42
0.4142135623731
 10
2253.240442373465
 20
-868.1907874713145
 42
0.4142135623731
 10
2254.740442373465
 20
-869.6907874713145
 42
0.4142135623731
  0
LWPOLYLINE
  5
39A
330
1F
100
AcDbEntity
  8
0-0
  6
Continuous
 62
     7
370
     9
100
AcDbPolyline
 90
        4
 70
     1
 43
3.0
 10
2211.240461595963
 20
-868.1907874713145
 42
0.4142135623731
 10
2209.740461595963
 20
-866.6907874713144
 42
0.4142135623731
 10
2208.240461595963
 20
-868.1907874713145
 42
0.4142135623731
 10
2209.740461595963
 20
-869.6907874713145
 42
0.4142135623731
  0
LINE
  5
39B
330
1F
100
AcDbEntity
  8
0-0
  6
Continuous
 62
   120
370
     5
100
AcDbLine
 10
2209.740461595963
 20
-868.1907874713145
 30
0.0
 11
2254.740442373465
 21
-868.1907874713145
 31
0.0
  0
MTEXT
  5
39C
330
1F
100
AcDbEntity
  8
0-0
  6
Continuous
 62
     7
370
   211
100
AcDbMText
 10
1272.239746340225
 20
-878.9007874713145
 30
0.0
 40
68.58
 41
90.0
 46
0.0
 71
     7
 72
     1
  1
{\fＭＳ ゴシック|b0|i0|c128|p49;24}
 11
6.123031769111886E-17
 21
1.0
 31
0.0
 73
     1
 44
1.0
  0
LWPOLYLINE
  5
39D
330
1F
100
AcDbEntity
  8
0-0
  6
Continuous
 62
     7
370
     9
100
AcDbPolyline
 90
        4
 70
     1
 43
3.0
 10
1288.739746340225
 20
-1003.190787471314
 42
0.4142135623731
 10
1287.239746340225
 20
-1001.690787471314
 42
0.4142135623731
 10
1285.739746340225
 20
-1003.190787471314
 42
0.4142135623731
 10
1287.239746340225
 20
-1004.690787471314
 42
0.4142135623731
  0
LWPOLYLINE
  5
39E
330
1F
100
AcDbEntity
  8
0-0
  6
Continuous
 62
     7
370
     9
100
AcDbPolyline
 90
        4
 70
     1
 43
3.0
 10
1288.739746340225
 20
-643.1907874713145
 42
0.4142135623731
 10
1287.239746340225
 20
-641.6907874713144
 42
0.4142135623731
 10
1285.739746340225
 20
-643.1907874713145
 42
0.4142135623731
 10
1287.239746340225
 20
-644.6907874713145
 42
0.4142135623731
  0
LINE
  5
39F
330
1F
100
AcDbEntity
  8
0-0
  6
Continuous
 62
   120
370
     5
100
AcDbLine
 10
1287.239746340225
 20
-643.1907874713145
 30
0.0
 11
1287.239746340225
 21
-1003.190787471314
 31
0.0
  0
MTEXT
  5
3A0
330
1F
100
AcDbEntity
  8
0-0
  6
Continuous
 62
     7
370
   211
100
AcDbMText
 10
1422.239746340225
 20
-998.9007874713145
 30
0.0
 40
68.58
 41
45.0
 46
0.0
 71
     7
 72
     1
  1
{\fＭＳ ゴシック|b0|i0|c128|p49;5}
 11
6.123031769111886E-17
 21
1.0
 31
0.0
 73
     1
 44
1.0
  0
LINE
  5
3A1
330
1F
100
AcDbEntity
  8
0-0
  6
Continuous
 62
   120
370
     5
100
AcDbLine
 10
1287.239746340225
 20
-1003.190787471314
 30
0.0
 11
1512.239746340225
 21
-1003.190787471314
 31
0.0
  0
LWPOLYLINE
  5
3A2
330
1F
100
AcDbEntity
  8
0-0
  6
Continuous
 62
     7
370
     9
100
AcDbPolyline
 90
        4
 70
     1
 43
3.0
 10
1438.739746340225
 20
-1003.190787471314
 42
0.4142135623731
 10
1437.239746340225
 20
-1001.690787471314
 42
0.4142135623731
 10
1435.739746340225
 20
-1003.190787471314
 42
0.4142135623731
 10
1437.239746340225
 20
-1004.690787471314
 42
0.4142135623731
  0
LINE
  5
3A3
330
1F
100
AcDbEntity
  8
0-0
  6
Continuous
 62
   120
370
     5
100
AcDbLine
 10
1437.239746340225
 20
-928.1907874713145
 30
0.0
 11
1437.239746340225
 21
-1003.190787471314
 31
0.0
  0
MTEXT
  5
3A4
330
1F
100
AcDbEntity
  8
0-0
  6
Continuous
 62
     7
370
   211
100
AcDbMText
 10
1422.239746340225
 20
-893.9007874713145
 30
0.0
 40
68.58
 41
45.0
 46
0.0
 71
     7
 72
     1
  1
{\fＭＳ ゴシック|b0|i0|c128|p49;9}
 11
6.123031769111886E-17
 21
1.0
 31
0.0
 73
     1
 44
1.0
  0
LINE
  5
3A5
330
1F
100
AcDbEntity
  8
0-0
  6
Continuous
 62
   120
370
     5
100
AcDbLine
 10
1437.239746340225
 20
-928.1907874713145
 30
0.0
 11
1512.239746340225
 21
-928.1907874713145
 31
0.0
  0
LWPOLYLINE
  5
3A6
330
1F
100
AcDbEntity
  8
0-0
  6
Continuous
 62
     7
370
     9
100
AcDbPolyline
 90
        4
 70
     1
 43
3.0
 10
1438.739746340225
 20
-928.1907874713145
 42
0.4142135623731
 10
1437.239746340225
 20
-926.6907874713144
 42
0.4142135623731
 10
1435.739746340225
 20
-928.1907874713145
 42
0.4142135623731
 10
1437.239746340225
 20
-929.6907874713145
 42
0.4142135623731
  0
LINE
  5
3A7
330
1F
100
AcDbEntity
  8
0-0
  6
Continuous
 62
   120
370
     5
100
AcDbLine
 10
1437.239746340225
 20
-793.1907874713145
 30
0.0
 11
1437.239746340225
 21
-928.1907874713145
 31
0.0
  0
MTEXT
  5
3A8
330
1F
100
AcDbEntity
  8
0-0
  6
Continuous
 62
     7
370
   211
100
AcDbMText
 10
1422.239746340225
 20
-773.9007874713145
 30
0.0
 40
68.58
 41
90.0
 46
0.0
 71
     7
 72
     1
  1
{\fＭＳ ゴシック|b0|i0|c128|p49;10}
 11
6.123031769111886E-17
 21
1.0
 31
0.0
 73
     1
 44
1.0
  0
LINE
  5
3A9
330
1F
100
AcDbEntity
  8
0-0
  6
Continuous
 62
   120
370
     5
100
AcDbLine
 10
1437.239746340225
 20
-793.1907874713145
 30
0.0
 11
1512.239746340225
 21
-793.1907874713145
 31
0.0
  0
LINE
  5
3AA
330
1F
100
AcDbEntity
  8
0-0
  6
Continuous
 62
   120
370
     5
100
AcDbLine
 10
1287.239746340225
 20
-643.1907874713145
 30
0.0
 11
1512.239746340225
 21
-643.1907874713145
 31
0.0
  0
LWPOLYLINE
  5
3AB
330
1F
100
AcDbEntity
  8
0-0
  6
Continuous
 62
     7
370
     9
100
AcDbPolyline
 90
        4
 70
     1
 43
3.0
 10
1438.739746340225
 20
-793.1907874713145
 42
0.4142135623731
 10
1437.239746340225
 20
-791.6907874713144
 42
0.4142135623731
 10
1435.739746340225
 20
-793.1907874713145
 42
0.4142135623731
 10
1437.239746340225
 20
-794.6907874713145
 42
0.4142135623731
  0
LWPOLYLINE
  5
3AC
330
1F
100
AcDbEntity
  8
0-0
  6
Continuous
 62
     7
370
     9
100
AcDbPolyline
 90
        4
 70
     1
 43
3.0
 10
1438.739746340225
 20
-643.1907874713145
 42
0.4142135623731
 10
1437.239746340225
 20
-641.6907874713144
 42
0.4142135623731
 10
1435.739746340225
 20
-643.1907874713145
 42
0.4142135623731
 10
1437.239746340225
 20
-644.6907874713145
 42
0.4142135623731
  0
LINE
  5
3AD
330
1F
100
AcDbEntity
  8
0-0
  6
Continuous
 62
   120
370
     5
100
AcDbLine
 10
1437.239746340225
 20
-643.1907874713145
 30
0.0
 11
1437.239746340225
 21
-793.1907874713145
 31
0.0
  0
LWPOLYLINE
  5
3AE
330
1F
100
AcDbEntity
  8
0-0
  6
Continuous
 62
     7
370
     9
100
AcDbPolyline
 90
        4
 70
     1
 43
3.0
 10
3238.739746340224
 20
-238.1907874713148
 42
0.4142135623731
 10
3237.239746340224
 20
-236.6907874713148
 42
0.4142135623731
 10
3235.739746340224
 20
-238.1907874713148
 42
0.4142135623731
 10
3237.239746340224
 20
-239.6907874713148
 42
0.4142135623731
  0
LWPOLYLINE
  5
3AF
330
1F
100
AcDbEntity
  8
0-0
  6
Continuous
 62
     7
370
     9
100
AcDbPolyline
 90
        4
 70
     1
 43
3.0
 10
1543.739746340225
 20
-238.1907874713148
 42
0.4142135623731
 10
1542.239746340225
 20
-236.6907874713148
 42
0.4142135623731
 10
1540.739746340225
 20
-238.1907874713148
 42
0.4142135623731
 10
1542.239746340225
 20
-239.6907874713148
 42
0.4142135623731
  0
LINE
  5
3B0
330
1F
100
AcDbEntity
  8
0-0
  6
Continuous
 62
   120
370
     5
100
AcDbLine
 10
1542.239746340225
 20
-238.1907874713148
 30
0.0
 11
3237.239746340224
 21
-238.1907874713148
 31
0.0
  0
MTEXT
  5
3B1
330
1F
100
AcDbEntity
  8
0-0
  6
Continuous
 62
     7
370
   211
100
AcDbMText
 10
2877.239746340224
 20
-383.9007874713144
 30
0.0
 40
68.58
 41
90.0
 46
0.0
 71
     7
 72
     1
  1
{\fＭＳ ゴシック|b0|i0|c128|p49;42}
 73
     1
 44
1.0
  0
LWPOLYLINE
  5
3B2
330
1F
100
AcDbEntity
  8
0-0
  6
Continuous
 62
     7
370
     9
100
AcDbPolyline
 90
        4
 70
     1
 43
3.0
 10
3238.739746340224
 20
-388.1907874713144
 42
0.4142135623731
 10
3237.239746340224
 20
-386.6907874713144
 42
0.4142135623731
 10
3235.739746340224
 20
-388.1907874713144
 42
0.4142135623731
 10
3237.239746340224
 20
-389.6907874713144
 42
0.4142135623731
  0
MTEXT
  5
3B3
330
1F
100
AcDbEntity
  8
0-0
  6
Continuous
 62
     7
370
   211
100
AcDbMText
 10
2367.239746340224
 20
-383.9007874713144
 30
0.0
 40
68.58
 41
90.0
 46
0.0
 71
     7
 72
     1
  1
{\fＭＳ ゴシック|b0|i0|c128|p49;26}
 73
     1
 44
1.0
  0
LINE
  5
3B4
330
1F
100
AcDbEntity
  8
0-0
  6
Continuous
 62
   120
370
     5
100
AcDbLine
 10
2607.239746340224
 20
-388.1907874713144
 30
0.0
 11
2607.239746340224
 21
-463.190787471314
 31
0.0
  0
LWPOLYLINE
  5
3B5
330
1F
100
AcDbEntity
  8
0-0
  6
Continuous
 62
     7
370
     9
100
AcDbPolyline
 90
        4
 70
     1
 43
3.0
 10
2608.739746340224
 20
-388.1907874713144
 42
0.4142135623731
 10
2607.239746340224
 20
-386.6907874713144
 42
0.4142135623731
 10
2605.739746340224
 20
-388.1907874713144
 42
0.4142135623731
 10
2607.239746340224
 20
-389.6907874713144
 42
0.4142135623731
  0
MTEXT
  5
3B6
330
1F
100
AcDbEntity
  8
0-0
  6
Continuous
 62
     7
370
   211
100
AcDbMText
 10
1834.739746340225
 20
-383.9007874713144
 30
0.0
 40
68.58
 41
90.0
 46
0.0
 71
     7
 72
     1
  1
{\fＭＳ ゴシック|b0|i0|c128|p49;45}
 73
     1
 44
1.0
  0
LINE
  5
3B7
330
1F
100
AcDbEntity
  8
0-0
  6
Continuous
 62
   120
370
     5
100
AcDbLine
 10
2217.239746340225
 20
-388.1907874713144
 30
0.0
 11
2217.239746340225
 21
-463.190787471314
 31
0.0
  0
LWPOLYLINE
  5
3B8
330
1F
100
AcDbEntity
  8
0-0
  6
Continuous
 62
     7
370
     9
100
AcDbPolyline
 90
        4
 70
     1
 43
3.0
 10
2218.739746340225
 20
-388.1907874713144
 42
0.4142135623731
 10
2217.239746340225
 20
-386.6907874713144
 42
0.4142135623731
 10
2215.739746340225
 20
-388.1907874713144
 42
0.4142135623731
 10
2217.239746340225
 20
-389.6907874713144
 42
0.4142135623731
  0
LWPOLYLINE
  5
3B9
330
1F
100
AcDbEntity
  8
0-0
  6
Continuous
 62
     7
370
     9
100
AcDbPolyline
 90
        4
 70
     1
 43
3.0
 10
1543.739746340225
 20
-388.1907874713144
 42
0.4142135623731
 10
1542.239746340225
 20
-386.6907874713144
 42
0.4142135623731
 10
1540.739746340225
 20
-388.1907874713144
 42
0.4142135623731
 10
1542.239746340225
 20
-389.6907874713144
 42
0.4142135623731
  0
LINE
  5
3BA
330
1F
100
AcDbEntity
  8
0-0
  6
Continuous
 62
   120
370
     5
100
AcDbLine
 10
1542.239746340225
 20
-388.1907874713144
 30
0.0
 11
3237.239746340224
 21
-388.1907874713144
 31
0.0
  0
MTEXT
  5
3BB
330
1F
100
AcDbEntity
  8
0-0
  6
Continuous
 62
     7
370
   211
100
AcDbMText
 10
3117.239746340224
 20
-533.9007874713145
 30
0.0
 40
68.58
 41
90.0
 46
0.0
 71
     7
 72
     1
  1
{\fＭＳ ゴシック|b0|i0|c128|p49;10}
 73
     1
 44
1.0
  0
LINE
  5
3BC
330
1F
100
AcDbEntity
  8
0-0
  6
Continuous
 62
   120
370
     5
100
AcDbLine
 10
3237.239746340224
 20
-238.1907874713148
 30
0.0
 11
3237.239746340224
 21
-613.1907874713145
 31
0.0
  0
LINE
  5
3BD
330
1F
100
AcDbEntity
  8
0-0
  6
Continuous
 62
   120
370
     5
100
AcDbLine
 10
3087.239746340224
 20
-538.1907874713145
 30
0.0
 11
3087.239746340224
 21
-613.1907874713145
 31
0.0
  0
LWPOLYLINE
  5
3BE
330
1F
100
AcDbEntity
  8
0-0
  6
Continuous
 62
     7
370
     9
100
AcDbPolyline
 90
        4
 70
     1
 43
3.0
 10
3238.739746340224
 20
-538.1907874713145
 42
0.4142135623731
 10
3237.239746340224
 20
-536.6907874713144
 42
0.4142135623731
 10
3235.739746340224
 20
-538.1907874713145
 42
0.4142135623731
 10
3237.239746340224
 20
-539.6907874713145
 42
0.4142135623731
  0
LWPOLYLINE
  5
3BF
330
1F
100
AcDbEntity
  8
0-0
  6
Continuous
 62
     7
370
     9
100
AcDbPolyline
 90
        4
 70
     1
 43
3.0
 10
3088.739746340224
 20
-538.1907874713145
 42
0.4142135623731
 10
3087.239746340224
 20
-536.6907874713144
 42
0.4142135623731
 10
3085.739746340224
 20
-538.1907874713145
 42
0.4142135623731
 10
3087.239746340224
 20
-539.6907874713145
 42
0.4142135623731
  0
LINE
  5
3C0
330
1F
100
AcDbEntity
  8
0-0
  6
Continuous
 62
   120
370
     5
100
AcDbLine
 10
3087.239746340224
 20
-538.1907874713145
 30
0.0
 11
3237.239746340224
 21
-538.1907874713145
 31
0.0
  0
MTEXT
  5
3C1
330
1F
100
AcDbEntity
  8
0-0
  6
Continuous
 62
     7
370
   211
100
AcDbMText
 10
1572.239746340225
 20
-533.9007874713145
 30
0.0
 40
68.58
 41
90.0
 46
0.0
 71
     7
 72
     1
  1
{\fＭＳ ゴシック|b0|i0|c128|p49;10}
 73
     1
 44
1.0
  0
LINE
  5
3C2
330
1F
100
AcDbEntity
  8
0-0
  6
Continuous
 62
   120
370
     5
100
AcDbLine
 10
1692.239746340225
 20
-538.1907874713145
 30
0.0
 11
1692.239746340225
 21
-613.1907874713145
 31
0.0
  0
LINE
  5
3C3
330
1F
100
AcDbEntity
  8
0-0
  6
Continuous
 62
   120
370
     5
100
AcDbLine
 10
1542.239746340225
 20
-238.1907874713148
 30
0.0
 11
1542.239746340225
 21
-613.1907874713145
 31
0.0
  0
LWPOLYLINE
  5
3C4
330
1F
100
AcDbEntity
  8
0-0
  6
Continuous
 62
     7
370
     9
100
AcDbPolyline
 90
        4
 70
     1
 43
3.0
 10
1693.739746340225
 20
-538.1907874713145
 42
0.4142135623731
 10
1692.239746340225
 20
-536.6907874713144
 42
0.4142135623731
 10
1690.739746340225
 20
-538.1907874713145
 42
0.4142135623731
 10
1692.239746340225
 20
-539.6907874713145
 42
0.4142135623731
  0
LWPOLYLINE
  5
3C5
330
1F
100
AcDbEntity
  8
0-0
  6
Continuous
 62
     7
370
     9
100
AcDbPolyline
 90
        4
 70
     1
 43
3.0
 10
1543.739746340225
 20
-538.1907874713145
 42
0.4142135623731
 10
1542.239746340225
 20
-536.6907874713144
 42
0.4142135623731
 10
1540.739746340225
 20
-538.1907874713145
 42
0.4142135623731
 10
1542.239746340225
 20
-539.6907874713145
 42
0.4142135623731
  0
LINE
  5
3C6
330
1F
100
AcDbEntity
  8
0-0
  6
Continuous
 62
   120
370
     5
100
AcDbLine
 10
1542.239746340225
 20
-538.1907874713145
 30
0.0
 11
1692.239746340225
 21
-538.1907874713145
 31
0.0
  0
LINE
  5
3C7
330
1F
100
AcDbEntity
  8
0-0
  6
JWW_HOJO
 62
     7
370
     9
100
AcDbLine
 10
2066.600906986366
 20
-868.1907874713145
 30
0.0
 11
2607.239746340224
 21
-868.1907874713145
 31
0.0
  0
LINE
  5
3C8
330
1F
100
AcDbEntity
  8
0-0
  6
JWW_HOJO
 62
     7
370
     9
100
AcDbLine
 10
2607.239746340224
 20
-643.1907874713145
 30
0.0
 11
2607.239746340224
 21
-868.1907874713145
 31
0.0
  0
LINE
  5
3C9
330
1F
100
AcDbEntity
  8
0-0
  6
JWW_HOJO
 62
     7
370
     9
100
AcDbLine
 10
2171.600906986366
 20
-793.1907874713145
 30
0.0
 11
2607.239746340224
 21
-793.1907874713145
 31
0.0
  0
LINE
  5
3CA
330
1F
100
AcDbEntity
  8
0-0
  6
JWW_HOJO
 62
     7
370
     9
100
AcDbLine
 10
2217.239746340225
 20
-493.1907874713144
 30
0.0
 11
2066.600906986366
 21
-493.1907874713144
 31
0.0
  0
LINE
  5
3CB
330
1F
100
AcDbEntity
  8
0-0
  6
JWW_HOJO
 62
     7
370
     9
100
AcDbLine
 10
2066.600906986366
 20
-493.1907874713144
 30
0.0
 11
2066.600906986366
 21
-868.1907874713145
 31
0.0
  0
LINE
  5
3CC
330
1F
100
AcDbEntity
  8
0-0
  6
JWW_HOJO
 62
     7
370
     9
100
AcDbLine
 10
2141.600906986366
 20
-493.1907874713144
 30
0.0
 11
2141.600906986366
 21
-868.1907874713145
 31
0.0
  0
LINE
  5
3CD
330
1F
100
AcDbEntity
  8
0-0
  6
JWW_HOJO
 62
     7
370
     9
100
AcDbLine
 10
2171.600906986366
 20
-493.1907874713144
 30
0.0
 11
2171.600906986366
 21
-793.1907874713145
 31
0.0
  0
LINE
  5
3CE
330
1F
100
AcDbEntity
  8
0-0
  6
JWW_HOJO
 62
     7
370
     9
100
AcDbLine
 10
1542.239746340225
 20
-538.1907874713145
 30
0.0
 11
2209.740461595963
 21
-538.1907874713145
 31
0.0
  0
LINE
  5
3CF
330
1F
100
AcDbEntity
  8
0-0
  6
JWW_HOJO
 62
     7
370
     9
100
AcDbLine
 10
1542.239746340225
 20
-613.1907874713145
 30
0.0
 11
2209.740461595963
 21
-613.1907874713145
 31
0.0
  0
LINE
  5
3D0
330
1F
100
AcDbEntity
  8
0-0
  6
JWW_HOJO
 62
     7
370
     9
100
AcDbLine
 10
1542.239746340225
 20
-1003.190787471314
 30
0.0
 11
1287.239746340225
 21
-1003.190787471314
 31
0.0
  0
LINE
  5
3D1
330
1F
100
AcDbEntity
  8
0-0
  6
JWW_HOJO
 62
     7
370
     9
100
AcDbLine
 10
1287.239746340225
 20
-1003.190787471314
 30
0.0
 11
1287.239746340225
 21
-238.1907874713148
 31
0.0
  0
LINE
  5
3D2
330
1F
100
AcDbEntity
  8
0-0
  6
JWW_HOJO
 62
     7
370
     9
100
AcDbLine
 10
1287.239746340225
 20
-238.1907874713148
 30
0.0
 11
3237.239746340224
 21
-238.190787471314
 31
0.0
  0
LINE
  5
3D3
330
1F
100
AcDbEntity
  8
0-0
  6
JWW_HOJO
 62
     7
370
     9
100
AcDbLine
 10
3237.239746340224
 20
-643.1907874713145
 30
0.0
 11
3237.239746340224
 21
-238.190787471314
 31
0.0
  0
LINE
  5
3D4
330
1F
100
AcDbEntity
  8
0-0
  6
JWW_HOJO
 62
     7
370
     9
100
AcDbLine
 10
1437.239746340225
 20
-388.1907874713144
 30
0.0
 11
3237.239746340224
 21
-388.190787471314
 31
0.0
  0
LINE
  5
3D5
330
1F
100
AcDbEntity
  8
0-0
  6
JWW_HOJO
 62
     7
370
     9
100
AcDbLine
 10
1437.239746340225
 20
-1003.190787471314
 30
0.0
 11
1437.239746340225
 21
-388.1907874713144
 31
0.0
  0
LINE
  5
3D6
330
1F
100
AcDbEntity
  8
0-0
  6
JWW_HOJO
 62
     7
370
     9
100
AcDbLine
 10
1512.239746340225
 20
-1003.190787471314
 30
0.0
 11
1512.239746340225
 21
-463.1907874713144
 31
0.0
  0
LINE
  5
3D7
330
1F
100
AcDbEntity
  8
0-0
  6
JWW_HOJO
 62
     7
370
     9
100
AcDbLine
 10
1512.239746340225
 20
-463.1907874713144
 30
0.0
 11
2607.239746340224
 21
-463.190787471314
 31
0.0
  0
LINE
  5
3D8
330
1F
100
AcDbEntity
  8
0-0
  6
Continuous
 62
    92
370
    13
100
AcDbLine
 10
3087.239746340224
 20
-928.1908617032614
 30
0.0
 11
3237.239746340224
 21
-928.1908617032614
 31
0.0
  0
LINE
  5
3D9
330
1F
100
AcDbEntity
  8
0-0
  6
Continuous
 62
    92
370
    13
100
AcDbLine
 10
3087.239746340224
 20
-928.1908617032614
 30
0.0
 11
3087.239746340224
 21
-793.1907874713145
 31
0.0
  0
LINE
  5
3DA
330
1F
100
AcDbEntity
  8
0-0
  6
Continuous
 62
    92
370
    13
100
AcDbLine
 10
3087.239746340224
 20
-793.1907874713145
 30
0.0
 11
3237.239746340224
 21
-793.1907874713145
 31
0.0
  0
LINE
  5
3DB
330
1F
100
AcDbEntity
  8
0-0
  6
Continuous
 62
    92
370
    13
100
AcDbLine
 10
1692.239746340225
 20
-793.1907874713145
 30
0.0
 11
1542.239746340225
 21
-793.1907874713145
 31
0.0
  0
LINE
  5
3DC
330
1F
100
AcDbEntity
  8
0-0
  6
Continuous
 62
    92
370
    13
100
AcDbLine
 10
1692.239746340225
 20
-928.1907874713145
 30
0.0
 11
1542.239746340225
 21
-928.1907874713145
 31
0.0
  0
LINE
  5
3DD
330
1F
100
AcDbEntity
  8
0-0
  6
Continuous
 62
    92
370
    13
100
AcDbLine
 10
1692.239746340225
 20
-793.1907874713145
 30
0.0
 11
1692.239746340225
 21
-928.1907874713145
 31
0.0
  0
LINE
  5
3DE
330
1F
100
AcDbEntity
  8
0-0
  6
Continuous
 62
    92
370
    13
100
AcDbLine
 10
3237.239746340224
 20
-1003.190787471314
 30
0.0
 11
1542.239746340225
 21
-1003.190787471314
 31
0.0
  0
LINE
  5
3DF
330
1F
100
AcDbEntity
  8
0-0
  6
Continuous
 62
    92
370
    13
100
AcDbLine
 10
3237.239746340224
 20
-928.1908617032614
 30
0.0
 11
3237.239746340224
 21
-1003.190787471314
 31
0.0
  0
LINE
  5
3E0
330
1F
100
AcDbEntity
  8
0-0
  6
Continuous
 62
    92
370
    13
100
AcDbLine
 10
1542.239746340225
 20
-1003.190787471314
 30
0.0
 11
1542.239746340225
 21
-928.1907874713145
 31
0.0
  0
LINE
  5
3E1
330
1F
100
AcDbEntity
  8
0-0
  6
Continuous
 62
     7
370
     9
100
AcDbLine
 10
2607.239746340224
 20
-493.190787471314
 30
0.0
 11
2607.239746340224
 21
-643.1907874713145
 31
0.0
  0
LINE
  5
3E2
330
1F
100
AcDbEntity
  8
0-0
  6
Continuous
 62
     7
370
     9
100
AcDbLine
 10
2562.241176851698
 20
-643.1907874713145
 30
0.0
 11
2607.239746340224
 21
-643.1907874713145
 31
0.0
  0
LINE
  5
3E3
330
1F
100
AcDbEntity
  8
0-0
  6
Continuous
 62
     7
370
     9
100
AcDbLine
 10
2217.239746340225
 20
-493.1907874713144
 30
0.0
 11
2607.239746340224
 21
-493.190787471314
 31
0.0
  0
LINE
  5
3E4
330
1F
100
AcDbEntity
  8
0-0
  6
Continuous
 62
     7
370
     9
100
AcDbLine
 10
2532.239765562721
 20
-613.190873302003
 30
0.0
 11
2532.239765562721
 21
-523.189771808167
 31
0.0
  0
LINE
  5
3E5
330
1F
100
AcDbEntity
  8
0-0
  6
Continuous
 62
     7
370
     9
100
AcDbLine
 10
2251.739635207365
 20
-523.1897718081675
 30
0.0
 11
2532.239765562721
 21
-523.189771808167
 31
0.0
  0
LINE
  5
3E6
330
1F
100
AcDbEntity
  8
0-0
  6
Continuous
 62
     7
370
     9
100
AcDbLine
 10
2251.739635207365
 20
-613.190873302003
 30
0.0
 11
2532.239765562721
 21
-613.190873302003
 31
0.0
  0
LINE
  5
3E7
330
1F
100
AcDbEntity
  8
0-0
  6
Continuous
 62
    92
370
    13
100
AcDbLine
 10
2209.740461595963
 20
-763.1907874713145
 30
0.0
 11
2209.740461595963
 21
-643.1907874713145
 31
0.0
  0
LINE
  5
3E8
330
1F
100
AcDbEntity
  8
0-0
  6
Continuous
 62
     7
370
     9
100
AcDbLine
 10
2547.240460701891
 20
-763.1907874713145
 30
0.0
 11
2526.239946969458
 21
-718.1895214686594
 31
0.0
  0
LINE
  5
3E9
330
1F
100
AcDbEntity
  8
0-0
  6
Continuous
 62
     7
370
     9
100
AcDbLine
 10
2547.240460701891
 20
-763.1907874713145
 30
0.0
 11
2568.240974434324
 21
-718.190451301118
 31
0.0
  0
LINE
  5
3EA
330
1F
100
AcDbEntity
  8
0-0
  6
Continuous
 62
     7
370
     9
100
AcDbLine
 10
2232.240451984714
 20
-763.1907874713145
 30
0.0
 11
2211.239923723648
 21
-718.1895214686594
 31
0.0
  0
LINE
  5
3EB
330
1F
100
AcDbEntity
  8
0-0
  6
Continuous
 62
    92
370
    13
100
AcDbLine
 10
2569.740461595961
 20
-763.1907874713145
 30
0.0
 11
2524.740461595961
 21
-763.1907874713145
 31
0.0
  0
LINE
  5
3EC
330
1F
100
AcDbEntity
  8
0-0
  6
Continuous
 62
    92
370
    13
100
AcDbLine
 10
2569.740461595961
 20
-643.1907874713145
 30
0.0
 11
2569.740461595961
 21
-763.1907874713145
 31
0.0
  0
LINE
  5
3ED
330
1F
100
AcDbEntity
  8
0-0
  6
Continuous
 62
     7
370
     9
100
AcDbLine
 10
2562.241176851698
 20
-718.190451301118
 30
0.0
 11
2562.241176851698
 21
-643.1907874713145
 31
0.0
  0
LINE
  5
3EE
330
1F
100
AcDbEntity
  8
0-0
  6
Continuous
 62
     7
370
     9
100
AcDbLine
 10
2568.240974434324
 20
-718.190451301118
 30
0.0
 11
2562.241176851698
 21
-718.190451301118
 31
0.0
  0
LINE
  5
3EF
330
1F
100
AcDbEntity
  8
0-0
  6
Continuous
 62
    92
370
    13
100
AcDbLine
 10
2209.740461595963
 20
-763.1907874713145
 30
0.0
 11
2254.740442373465
 21
-763.1907874713145
 31
0.0
  0
LINE
  5
3F0
330
1F
100
AcDbEntity
  8
0-0
  6
Continuous
 62
     7
370
     9
100
AcDbLine
 10
2211.239923723648
 20
-718.1895214686594
 30
0.0
 11
2217.239746340225
 21
-718.1895214686594
 31
0.0
  0
ARC
  5
3F1
330
1F
100
AcDbEntity
  8
0-0
  6
Continuous
 62
     7
370
     9
100
AcDbCircle
 10
2285.588372407585
 20
-584.4292953213671
 30
0.0
 40
114.0
100
AcDbArc
 50
126.8376291354934
 51
179.1503421854896
  0
LINE
  5
3F2
330
1F
100
AcDbEntity
  8
0-0
  6
Continuous
 62
    92
370
    13
100
AcDbLine
 10
2524.740480818459
 20
-643.1907874713145
 30
0.0
 11
2254.740461595963
 21
-643.1907874713145
 31
0.0
  0
LINE
  5
3F3
330
1F
100
AcDbEntity
  8
0-0
  6
Continuous
 62
    92
370
    13
100
AcDbLine
 10
2524.740461595961
 20
-763.1907874713145
 30
0.0
 11
2524.740461595961
 21
-643.1907874713145
 31
0.0
  0
LINE
  5
3F4
330
1F
100
AcDbEntity
  8
0-0
  6
Continuous
 62
     7
370
     9
100
AcDbLine
 10
2526.239946969458
 20
-718.1895214686594
 30
0.0
 11
2532.239744105049
 21
-718.1895214686594
 31
0.0
  0
LINE
  5
3F5
330
1F
100
AcDbEntity
  8
0-0
  6
Continuous
 62
    92
370
    13
100
AcDbLine
 10
2254.740442373465
 20
-763.1907874713145
 30
0.0
 11
2254.740442373465
 21
-643.1907874713145
 31
0.0
  0
LINE
  5
3F6
330
1F
100
AcDbEntity
  8
0-0
  6
Continuous
 62
     7
370
     9
100
AcDbLine
 10
2247.241157629202
 20
-718.190451301118
 30
0.0
 11
2247.241157629202
 21
-643.1907874713145
 31
0.0
  0
LINE
  5
3F7
330
1F
100
AcDbEntity
  8
0-0
  6
Continuous
 62
     7
370
     9
100
AcDbLine
 10
2253.24095163555
 20
-718.190451301118
 30
0.0
 11
2247.241157629202
 21
-718.190451301118
 31
0.0
  0
LINE
  5
3F8
330
1F
100
AcDbEntity
  8
0-0
  6
Continuous
 62
     7
370
     9
100
AcDbLine
 10
2232.240451984714
 20
-763.1907874713145
 30
0.0
 11
2253.24095163555
 21
-718.190451301118
 31
0.0
  0
LINE
  5
3F9
330
1F
100
AcDbEntity
  8
0-0
  6
Continuous
 62
     7
370
     9
100
AcDbLine
 10
2217.239746340225
 20
-718.1895214686594
 30
0.0
 11
2217.239746340225
 21
-493.1907874713144
 31
0.0
  0
LINE
  5
3FA
330
1F
100
AcDbEntity
  8
0-0
  6
Continuous
 62
     7
370
     9
100
AcDbLine
 10
2251.739635207365
 20
-523.1897718081675
 30
0.0
 11
2251.739635207365
 21
-613.190873302003
 31
0.0
  0
ARC
  5
3FB
330
1F
100
AcDbEntity
  8
0-0
  6
Continuous
 62
     7
370
     9
100
AcDbCircle
 10
2233.110534437607
 20
-583.7551242480479
 30
0.0
 40
61.5180230140686
100
AcDbArc
 50
179.0534004528669
 51
255.0494537353515
  0
LINE
  5
3FC
330
1F
100
AcDbEntity
  8
0-0
  6
Continuous
 62
     7
370
     9
100
AcDbLine
 10
2532.239765562721
 20
-643.1907874713145
 30
0.0
 11
2247.241179086874
 21
-643.1907874713145
 31
0.0
  0
LINE
  5
3FD
330
1F
100
AcDbEntity
  8
0-0
  6
Continuous
 62
     7
370
     9
100
AcDbLine
 10
2532.239744105049
 20
-718.1895214686594
 30
0.0
 11
2532.239744105049
 21
-643.1907874713145
 31
0.0
  0
MTEXT
  5
3FE
330
1F
100
AcDbEntity
  8
0-0
  6
Continuous
 62
     7
370
     9
100
AcDbMText
 10
5427.498791668867
 20
-173.834782618447
 30
0.0
 40
68.58
 41
45.0
 46
0.0
 71
     7
 72
     1
  1
{\fＭＳ ゴシック|b0|i0|c128|p49;1}
 73
     1
 44
1.0
  0
MTEXT
  5
3FF
330
1F
100
AcDbEntity
  8
0-0
  6
Continuous
 62
     7
370
     9
100
AcDbMText
 10
3619.999719568202
 20
-173.834782618447
 30
0.0
 40
68.58
 41
540.0
 46
0.0
 71
     7
 72
     1
  1
{\fＭＳ ゴシック|b0|i0|c128|p49;900×110×24}
 73
     1
 44
1.0
  0
MTEXT
  5
400
330
1F
100
AcDbEntity
  8
0-0
  6
Continuous
 62
     7
370
   211
100
AcDbMText
 10
2322.239746340224
 20
1016.099292431128
 30
0.0
 40
68.57999999999998
 41
135.0
 46
0.0
 71
     7
 72
     1
  1
{\fＭＳ ゴシック|b0|i0|c128|p49;113}
 73
     1
 44
1.0
  0
MTEXT
  5
401
330
1F
100
AcDbEntity
  8
0-0
  6
Continuous
 62
     7
370
   211
100
AcDbMText
 10
2322.239746340224
 20
-233.9007874713149
 30
0.0
 40
68.57999999999998
 41
135.0
 46
0.0
 71
     7
 72
     1
  1
{\fＭＳ ゴシック|b0|i0|c128|p49;110}
 73
     1
 44
1.0
  0
LINE
  5
402
330
1F
100
AcDbEntity
  8
F-1
  6
Continuous
 62
     7
370
     9
100
AcDbLine
 10
1114.999521616343
 20
1210.000302082783
 30
0.0
 11
1114.999521616343
 21
-1289.999857722102
 31
0.0
  0
MTEXT
  5
403
330
1F
100
AcDbEntity
  8
0-0
  6
Continuous
 62
     7
370
     9
100
AcDbMText
 10
4399.998791668866
 20
1076.165297283996
 30
0.0
 40
68.58
 41
585.0
 46
0.0
 71
     7
 72
     1
  1
{\fＭＳ ゴシック|b0|i0|c128|p49;ＤＢＢＡ14-□}
 73
     1
 44
1.0
  0
MTEXT
  5
404
330
1F
100
AcDbEntity
  8
0-0
  6
Continuous
 62
     7
370
     9
100
AcDbMText
 10
4399.998791668866
 20
-173.834782618447
 30
0.0
 40
68.58
 41
585.0
 46
0.0
 71
     7
 72
     1
  1
{\fＭＳ ゴシック|b0|i0|c128|p49;ＤＢＢＡ11-□}
 73
     1
 44
1.0
  0
LINE
  5
405
330
1F
100
AcDbEntity
  8
F-1
  6
Continuous
 62
     7
370
     9
100
AcDbLine
 10
5699.998762800888
 20
-1289.999857722102
 30
0.0
 11
-145.0009732633023
 21
-1289.999857722102
 31
0.0
  0
MTEXT
  5
406
330
1F
100
AcDbEntity
  8
0-A
  6
Continuous
 62
     7
370
     9
100
AcDbMText
 10
-1550.000758815456
 20
-173.8347828135622
 30
0.0
 40
68.58
 41
585.0
 46
0.0
 71
     7
 72
     1
  1
{\fＭＳ ゴシック|b0|i0|c128|p49;ＧＷＢＲ67-□}
 73
     1
 44
1.0
  0
LINE
  5
407
330
1F
100
AcDbEntity
  8
F-1
  6
Continuous
 62
     7
370
     9
100
AcDbLine
 10
5689.998977248734
 20
-39.99977781965939
 30
0.0
 11
904.9995216163429
 21
-39.99977781965939
 31
0.0
  0
MTEXT
  5
408
330
1F
100
AcDbEntity
  8
F-A
  6
Continuous
 62
     7
370
     0
100
AcDbMText
 10
-5247.547376752838
 20
-3955.131007506963
 30
0.0
 40
79.73785714285711
 41
4395.0
 46
0.0
 71
     7
 72
     1
  1
{\fＭＳ ゴシック|b0|i0|c128|p49;ドレタス　洋風造作材　窓枠樹脂キャップ・木口テープ／リフォーム用窓枠／サッシ見切り材}
 73
     1
 44
1.0
  0
MTEXT
  5
409
330
1F
100
AcDbEntity
  8
F-A
  6
Continuous
 62
     7
370
     0
100
AcDbMText
 10
-4086.216391318431
 20
-4135.223536078392
 30
0.0
 40
79.5528
 41
2610.0
 46
0.0
 71
     7
 72
     1
  1
{\fＭＳ ゴシック|b0|i0|c128|p49;インテリアボード・木口テープ／ドア枠（戸当たり付）}
 73
     1
 44
1.0
  0
MTEXT
  5
40A
330
1F
100
AcDbEntity
  8
0-B
  6
Continuous
 62
     7
370
     9
100
AcDbMText
 10
-4884.501726044286
 20
1025.9519889428
 30
0.0
 40
91.44
 41
600.0
 46
0.0
 71
     7
 72
     1
  1
{\fＭＳ ゴシック|b0|i0|c128|p49;窓枠Ｌ型用}
 73
     1
 44
1.0
  0
MTEXT
  5
40B
330
1F
100
AcDbEntity
  8
0-B
  6
Continuous
 62
     7
370
     9
100
AcDbMText
 10
-4895.000028867979
 20
2285.763029044394
 30
0.0
 40
101.525294117647
 41
1132.5
 46
0.0
 71
     7
 72
     1
  1
{\fＭＳ ゴシック|b0|i0|c128|p49;窓枠Ａ型･ＡＳ型用}
 73
     1
 44
1.0
  0
MTEXT
  5
40C
330
1F
100
AcDbEntity
  8
0-B
  6
Continuous
 62
     7
370
     9
100
AcDbMText
 10
-4895.000028867979
 20
3535.763108946836
 30
0.0
 40
101.525294117647
 41
1132.5
 46
0.0
 71
     7
 72
     1
  1
{\fＭＳ ゴシック|b0|i0|c128|p49;窓枠Ａ型･ＡＳ型用}
 73
     1
 44
1.0
  0
ENDSEC
  0
SECTION
  2
OBJECTS
  0
DICTIONARY
  5
C
330
0
100
AcDbDictionary
281
     1
  3
ACAD_GROUP
350
D
  3
ACAD_LAYOUT
350
1A
  3
ACAD_MATERIAL
350
3B
  3
ACAD_MLEADERSTYLE
350
40E
  3
ACAD_MLINESTYLE
350
17
  3
ACAD_PLOTSETTINGS
350
19
  3
ACAD_PLOTSTYLENAME
350
E
  3
ACAD_TABLESTYLE
350
40D
  3
ACAD_VISUALSTYLE
350
2A
  0
DICTIONARY
  5
D
102
{ACAD_REACTORS
330
C
102
}
330
C
100
AcDbDictionary
281
     1
  0
DICTIONARY
  5
1A
102
{ACAD_REACTORS
330
C
102
}
330
C
100
AcDbDictionary
281
     1
  3
Layout1
350
1E
  3
Layout2
350
26
  3
Model
350
22
  0
DICTIONARY
  5
3B
102
{ACAD_REACTORS
330
C
102
}
330
C
100
AcDbDictionary
281
     1
  3
ByBlock
350
3D
  3
ByLayer
350
3C
  3
Global
350
3E
  0
DICTIONARY
  5
40E
102
{ACAD_REACTORS
330
C
102
}
330
C
100
AcDbDictionary
281
     1
  0
DICTIONARY
  5
17
102
{ACAD_REACTORS
330
C
102
}
330
C
100
AcDbDictionary
281
     1
  3
Standard
350
18
  0
DICTIONARY
  5
19
102
{ACAD_REACTORS
330
C
102
}
330
C
100
AcDbDictionary
281
     1
  0
ACDBDICTIONARYWDFLT
  5
E
102
{ACAD_REACTORS
330
C
102
}
330
C
100
AcDbDictionary
281
     1
  3
Normal
350
F
100
AcDbDictionaryWithDefault
340
F
  0
DICTIONARY
  5
40D
102
{ACAD_REACTORS
330
C
102
}
330
C
100
AcDbDictionary
281
     1
  0
DICTIONARY
  5
2A
102
{ACAD_REACTORS
330
C
102
}
330
C
100
AcDbDictionary
281
     1
  3
2dWireframe
350
2F
  3
3D Hidden
350
31
  3
3dWireframe
350
30
  3
Basic
350
32
  3
Brighten
350
36
  3
ColorChange
350
3A
  3
Conceptual
350
34
  3
Dim
350
35
  3
Facepattern
350
39
  3
Flat
350
2B
  3
FlatWithEdges
350
2C
  3
Gouraud
350
2D
  3
GouraudWithEdges
350
2E
  3
Linepattern
350
38
  3
Realistic
350
33
  3
Thicken
350
37
  0
LAYOUT
  5
1E
102
{ACAD_REACTORS
330
1A
102
}
330
1A
100
AcDbPlotSettings
  1

  2
none_device
  4

  6

 40
0.0
 41
0.0
 42
0.0
 43
0.0
 44
0.0
 45
0.0
 46
0.0
 47
0.0
 48
0.0
 49
0.0
140
0.0
141
0.0
142
1.0
143
1.0
 70
   688
 72
     0
 73
     0
 74
     5
  7

 75
    16
 76
     0
 77
     5
 78
   300
147
1.0
148
0.0
149
0.0
100
AcDbLayout
  1
Layout1
 70
     1
 71
     1
 10
0.0
 20
0.0
 11
420.0
 21
297.0
 12
0.0
 22
0.0
 32
0.0
 14
1.000000000000000E+20
 24
1.000000000000000E+20
 34
1.000000000000000E+20
 15
-1.000000000000000E+20
 25
-1.000000000000000E+20
 35
-1.000000000000000E+20
146
0.0
 13
0.0
 23
0.0
 33
0.0
 16
1.0
 26
0.0
 36
0.0
 17
0.0
 27
1.0
 37
0.0
 76
     0
330
1B
  0
LAYOUT
  5
26
102
{ACAD_REACTORS
330
1A
102
}
330
1A
100
AcDbPlotSettings
  1

  2
none_device
  4

  6

 40
0.0
 41
0.0
 42
0.0
 43
0.0
 44
0.0
 45
0.0
 46
0.0
 47
0.0
 48
0.0
 49
0.0
140
0.0
141
0.0
142
1.0
143
1.0
 70
   688
 72
     0
 73
     0
 74
     5
  7

 75
    16
 76
     0
 77
     5
 78
   300
147
1.0
148
0.0
149
0.0
100
AcDbLayout
  1
Layout2
 70
     1
 71
     2
 10
0.0
 20
0.0
 11
0.0
 21
0.0
 12
0.0
 22
0.0
 32
0.0
 14
0.0
 24
0.0
 34
0.0
 15
0.0
 25
0.0
 35
0.0
146
0.0
 13
0.0
 23
0.0
 33
0.0
 16
1.0
 26
0.0
 36
0.0
 17
0.0
 27
1.0
 37
0.0
 76
     0
330
23
  0
LAYOUT
  5
22
102
{ACAD_REACTORS
330
1A
102
}
330
1A
100
AcDbPlotSettings
  1

  2
none_device
  4

  6

 40
0.0
 41
0.0
 42
0.0
 43
0.0
 44
0.0
 45
0.0
 46
0.0
 47
0.0
 48
0.0
 49
0.0
140
0.0
141
0.0
142
1.0
143
1.0
 70
  1712
 72
     0
 73
     0
 74
     0
  7

 75
     0
 76
     0
 77
     5
 78
   300
147
1.0
148
0.0
149
0.0
100
AcDbLayout
  1
Model
 70
     1
 71
     0
 10
-6300.0
 20
-4455.0
 11
6300.0
 21
4455.0
 12
0.0
 22
0.0
 32
0.0
 14
-6300.0
 24
-4455.0
 34
0.0
 15
6300.0
 25
4455.0
 35
0.0
146
0.0
 13
0.0
 23
0.0
 33
0.0
 16
1.0
 26
0.0
 36
0.0
 17
0.0
 27
1.0
 37
0.0
 76
     0
330
1F
331
29
  0
MATERIAL
  5
3D
102
{ACAD_REACTORS
330
3B
102
}
330
3B
100
AcDbMaterial
  1
ByBlock
 72
     1
 94
      127
  0
MATERIAL
  5
3C
102
{ACAD_REACTORS
330
3B
102
}
330
3B
100
AcDbMaterial
  1
ByLayer
 72
     1
 94
      127
  0
MATERIAL
  5
3E
102
{ACAD_REACTORS
330
3B
102
}
330
3B
100
AcDbMaterial
  1
Global
 72
     1
 94
      127
  0
MLINESTYLE
  5
18
102
{ACAD_REACTORS
330
17
102
}
330
17
100
AcDbMlineStyle
  2
Standard
 70
     0
  3

 62
   256
 51
90.0
 52
90.0
 71
     2
 49
0.5
 62
   256
  6
BYLAYER
 49
-0.5
 62
   256
  6
BYLAYER
  0
ACDBPLACEHOLDER
  5
F
102
{ACAD_REACTORS
330
E
102
}
330
E
  0
VISUALSTYLE
  5
2F
102
{ACAD_REACTORS
330
2A
102
}
330
2A
100
AcDbVisualStyle
  2
2dWireframe
 70
     4
177
     2
291
     0
 71
     0
176
     1
 72
     2
176
     1
 73
     0
176
     1
 90
        0
176
     1
 40
-0.6
176
     1
 41
-30.0
176
     1
 62
     5
 63
     7
421
 16777215
176
     1
 74
     1
176
     1
 91
        4
176
     1
 64
     7
176
     1
 65
   257
176
     1
 75
     1
176
     1
175
     1
176
     1
 42
1.0
176
     1
 92
        0
176
     1
 66
   257
176
     1
 43
1.0
176
     1
 76
     1
176
     1
 77
     6
176
     1
 78
     2
176
     1
 67
     7
176
     1
 79
     5
176
     1
170
     0
176
     1
171
     0
176
     1
290
     0
176
     1
 93
        1
176
     1
 44
0.0
176
     1
173
     0
176
     1
  0
VISUALSTYLE
  5
31
102
{ACAD_REACTORS
330
2A
102
}
330
2A
100
AcDbVisualStyle
  2
3D Hidden
 70
     6
177
     2
291
     0
 71
     1
176
     1
 72
     2
176
     1
 73
     2
176
     1
 90
        0
176
     1
 40
-0.6
176
     1
 41
-30.0
176
     1
 62
     5
 63
     7
421
 16777215
176
     1
 74
     2
176
     1
 91
        2
176
     1
 64
     7
176
     1
 65
   257
176
     1
 75
     2
176
     1
175
     1
176
     1
 42
40.0
176
     1
 92
        0
176
     1
 66
   257
176
     1
 43
1.0
176
     1
 76
     1
176
     1
 77
     6
176
     1
 78
     2
176
     1
 67
     7
176
     1
 79
     3
176
     1
170
     0
176
     1
171
     0
176
     1
290
     0
176
     1
 93
        1
176
     1
 44
0.0
176
     1
173
     0
176
     1
  0
VISUALSTYLE
  5
30
102
{ACAD_REACTORS
330
2A
102
}
330
2A
100
AcDbVisualStyle
  2
3dWireframe
 70
     5
177
     2
291
     0
 71
     0
176
     1
 72
     2
176
     1
 73
     0
176
     1
 90
        0
176
     1
 40
-0.6
176
     1
 41
-30.0
176
     1
 62
     5
 63
     7
421
 16777215
176
     1
 74
     1
176
     1
 91
        4
176
     1
 64
     7
176
     1
 65
   257
176
     1
 75
     1
176
     1
175
     1
176
     1
 42
1.0
176
     1
 92
        0
176
     1
 66
   257
176
     1
 43
1.0
176
     1
 76
     1
176
     1
 77
     6
176
     1
 78
     2
176
     1
 67
     7
176
     1
 79
     5
176
     1
170
     0
176
     1
171
     0
176
     1
290
     0
176
     1
 93
        1
176
     1
 44
0.0
176
     1
173
     0
176
     1
  0
VISUALSTYLE
  5
32
102
{ACAD_REACTORS
330
2A
102
}
330
2A
100
AcDbVisualStyle
  2
Basic
 70
     7
177
     2
291
     1
 71
     1
176
     1
 72
     0
176
     1
 73
     1
176
     1
 90
        0
176
     1
 40
-0.6
176
     1
 41
-30.0
176
     1
 62
     5
 63
     7
421
 16777215
176
     1
 74
     0
176
     1
 91
        4
176
     1
 64
     7
176
     1
 65
   257
176
     1
 75
     1
176
     1
175
     1
176
     1
 42
1.0
176
     1
 92
        8
176
     1
 66
     7
176
     1
 43
1.0
176
     1
 76
     1
176
     1
 77
     6
176
     1
 78
     2
176
     1
 67
     7
176
     1
 79
     5
176
     1
170
     0
176
     1
171
     0
176
     1
290
     0
176
     1
 93
        1
176
     1
 44
0.0
176
     1
173
     0
176
     1
  0
VISUALSTYLE
  5
36
102
{ACAD_REACTORS
330
2A
102
}
330
2A
100
AcDbVisualStyle
  2
Brighten
 70
    12
177
     2
291
     1
 71
     2
176
     1
 72
     2
176
     1
 73
     0
176
     1
 90
        0
176
     1
 40
-0.6
176
     1
 41
-30.0
176
     1
 62
     5
 63
     7
421
 16777215
176
     1
 74
     1
176
     1
 91
        4
176
     1
 64
     7
176
     1
 65
   257
176
     1
 75
     1
176
     1
175
     1
176
     1
 42
1.0
176
     1
 92
        8
176
     1
 66
     7
176
     1
 43
1.0
176
     1
 76
     1
176
     1
 77
     6
176
     1
 78
     2
176
     1
 67
     7
176
     1
 79
     5
176
     1
170
     0
176
     1
171
     0
176
     1
290
     0
176
     1
 93
        1
176
     1
 44
50.0
176
     1
173
     0
176
     1
  0
VISUALSTYLE
  5
3A
102
{ACAD_REACTORS
330
2A
102
}
330
2A
100
AcDbVisualStyle
  2
ColorChange
 70
    16
177
     2
291
     1
 71
     2
176
     1
 72
     2
176
     1
 73
     3
176
     1
 90
        0
176
     1
 40
-0.6
176
     1
 41
-30.0
176
     1
 62
     5
 63
     8
421
  8421504
176
     1
 74
     1
176
     1
 91
        4
176
     1
 64
     7
176
     1
 65
   257
176
     1
 75
     1
176
     1
175
     1
176
     1
 42
1.0
176
     1
 92
        8
176
     1
 66
     8
424
  8421504
176
     1
 43
1.0
176
     1
 76
     1
176
     1
 77
     6
176
     1
 78
     2
176
     1
 67
     7
176
     1
 79
     5
176
     1
170
     0
176
     1
171
     0
176
     1
290
     0
176
     1
 93
        1
176
     1
 44
0.0
176
     1
173
     0
176
     1
  0
VISUALSTYLE
  5
34
102
{ACAD_REACTORS
330
2A
102
}
330
2A
100
AcDbVisualStyle
  2
Conceptual
 70
     9
177
     2
291
     0
 71
     3
176
     1
 72
     2
176
     1
 73
     0
176
     1
 90
        0
176
     1
 40
-0.6
176
     1
 41
-30.0
176
     1
 62
     5
 63
     7
421
 16777215
176
     1
 74
     2
176
     1
 91
        2
176
     1
 64
     7
176
     1
 65
   257
176
     1
 75
     1
176
     1
175
     1
176
     1
 42
40.0
176
     1
 92
        8
176
     1
 66
     7
176
     1
 43
1.0
176
     1
 76
     1
176
     1
 77
     6
176
     1
 78
     2
176
     1
 67
     7
176
     1
 79
     3
176
     1
170
     0
176
     1
171
     0
176
     1
290
     0
176
     1
 93
        1
176
     1
 44
0.0
176
     1
173
     0
176
     1
  0
VISUALSTYLE
  5
35
102
{ACAD_REACTORS
330
2A
102
}
330
2A
100
AcDbVisualStyle
  2
Dim
 70
    11
177
     2
291
     1
 71
     2
176
     1
 72
     2
176
     1
 73
     0
176
     1
 90
        0
176
     1
 40
-0.6
176
     1
 41
-30.0
176
     1
 62
     5
 63
     7
421
 16777215
176
     1
 74
     1
176
     1
 91
        4
176
     1
 64
     7
176
     1
 65
   257
176
     1
 75
     1
176
     1
175
     1
176
     1
 42
1.0
176
     1
 92
        8
176
     1
 66
     7
176
     1
 43
1.0
176
     1
 76
     1
176
     1
 77
     6
176
     1
 78
     2
176
     1
 67
     7
176
     1
 79
     5
176
     1
170
     0
176
     1
171
     0
176
     1
290
     0
176
     1
 93
        1
176
     1
 44
-50.0
176
     1
173
     0
176
     1
  0
VISUALSTYLE
  5
39
102
{ACAD_REACTORS
330
2A
102
}
330
2A
100
AcDbVisualStyle
  2
Facepattern
 70
    15
177
     2
291
     1
 71
     2
176
     1
 72
     2
176
     1
 73
     0
176
     1
 90
        0
176
     1
 40
-0.6
176
     1
 41
-30.0
176
     1
 62
     5
 63
     7
421
 16777215
176
     1
 74
     1
176
     1
 91
        4
176
     1
 64
     7
176
     1
 65
   257
176
     1
 75
     1
176
     1
175
     1
176
     1
 42
1.0
176
     1
 92
        8
176
     1
 66
     7
176
     1
 43
1.0
176
     1
 76
     1
176
     1
 77
     6
176
     1
 78
     2
176
     1
 67
     7
176
     1
 79
     5
176
     1
170
     0
176
     1
171
     0
176
     1
290
     0
176
     1
 93
        1
176
     1
 44
0.0
176
     1
173
     0
176
     1
  0
VISUALSTYLE
  5
2B
102
{ACAD_REACTORS
330
2A
102
}
330
2A
100
AcDbVisualStyle
  2
Flat
 70
     0
177
     2
291
     1
 71
     2
176
     1
 72
     1
176
     1
 73
     1
176
     1
 90
        2
176
     1
 40
-0.6
176
     1
 41
30.0
176
     1
 62
     5
 63
     7
421
 16777215
176
     1
 74
     0
176
     1
 91
        4
176
     1
 64
     7
176
     1
 65
   257
176
     1
 75
     1
176
     1
175
     1
176
     1
 42
1.0
176
     1
 92
        8
176
     1
 66
     7
176
     1
 43
1.0
176
     1
 76
     1
176
     1
 77
     6
176
     1
 78
     2
176
     1
 67
     7
176
     1
 79
     5
176
     1
170
     0
176
     1
171
     0
176
     1
290
     0
176
     1
 93
       13
176
     1
 44
0.0
176
     1
173
     0
176
     1
  0
VISUALSTYLE
  5
2C
102
{ACAD_REACTORS
330
2A
102
}
330
2A
100
AcDbVisualStyle
  2
FlatWithEdges
 70
     1
177
     2
291
     1
 71
     2
176
     1
 72
     1
176
     1
 73
     1
176
     1
 90
        2
176
     1
 40
-0.6
176
     1
 41
30.0
176
     1
 62
     5
 63
     7
421
 16777215
176
     1
 74
     1
176
     1
 91
        4
176
     1
 64
     7
176
     1
 65
   257
176
     1
 75
     1
176
     1
175
     1
176
     1
 42
1.0
176
     1
 92
        0
176
     1
 66
   257
176
     1
 43
1.0
176
     1
 76
     1
176
     1
 77
     6
176
     1
 78
     2
176
     1
 67
     7
176
     1
 79
     5
176
     1
170
     0
176
     1
171
     0
176
     1
290
     0
176
     1
 93
       13
176
     1
 44
0.0
176
     1
173
     0
176
     1
  0
VISUALSTYLE
  5
2D
102
{ACAD_REACTORS
330
2A
102
}
330
2A
100
AcDbVisualStyle
  2
Gouraud
 70
     2
177
     2
291
     1
 71
     2
176
     1
 72
     2
176
     1
 73
     1
176
     1
 90
        2
176
     1
 40
-0.6
176
     1
 41
30.0
176
     1
 62
     5
 63
     7
421
 16777215
176
     1
 74
     0
176
     1
 91
        4
176
     1
 64
     7
176
     1
 65
   257
176
     1
 75
     1
176
     1
175
     1
176
     1
 42
1.0
176
     1
 92
        0
176
     1
 66
     7
176
     1
 43
1.0
176
     1
 76
     1
176
     1
 77
     6
176
     1
 78
     2
176
     1
 67
     7
176
     1
 79
     5
176
     1
170
     0
176
     1
171
     0
176
     1
290
     0
176
     1
 93
       13
176
     1
 44
0.0
176
     1
173
     0
176
     1
  0
VISUALSTYLE
  5
2E
102
{ACAD_REACTORS
330
2A
102
}
330
2A
100
AcDbVisualStyle
  2
GouraudWithEdges
 70
     3
177
     2
291
     1
 71
     2
176
     1
 72
     2
176
     1
 73
     1
176
     1
 90
        2
176
     1
 40
-0.6
176
     1
 41
30.0
176
     1
 62
     5
 63
     7
421
 16777215
176
     1
 74
     1
176
     1
 91
        4
176
     1
 64
     7
176
     1
 65
   257
176
     1
 75
     1
176
     1
175
     1
176
     1
 42
1.0
176
     1
 92
        0
176
     1
 66
   257
176
     1
 43
1.0
176
     1
 76
     1
176
     1
 77
     6
176
     1
 78
     2
176
     1
 67
     7
176
     1
 79
     5
176
     1
170
     0
176
     1
171
     0
176
     1
290
     0
176
     1
 93
       13
176
     1
 44
0.0
176
     1
173
     0
176
     1
  0
VISUALSTYLE
  5
38
102
{ACAD_REACTORS
330
2A
102
}
330
2A
100
AcDbVisualStyle
  2
Linepattern
 70
    14
177
     2
291
     1
 71
     2
176
     1
 72
     2
176
     1
 73
     0
176
     1
 90
        0
176
     1
 40
-0.6
176
     1
 41
-30.0
176
     1
 62
     5
 63
     7
421
 16777215
176
     1
 74
     1
176
     1
 91
        4
176
     1
 64
     7
176
     1
 65
   257
176
     1
 75
     7
176
     1
175
     7
176
     1
 42
1.0
176
     1
 92
        8
176
     1
 66
     7
176
     1
 43
1.0
176
     1
 76
     1
176
     1
 77
     6
176
     1
 78
     2
176
     1
 67
     7
176
     1
 79
     5
176
     1
170
     0
176
     1
171
     0
176
     1
290
     0
176
     1
 93
        1
176
     1
 44
0.0
176
     1
173
     0
176
     1
  0
VISUALSTYLE
  5
33
102
{ACAD_REACTORS
330
2A
102
}
330
2A
100
AcDbVisualStyle
  2
Realistic
 70
     8
177
     2
291
     0
 71
     2
176
     1
 72
     2
176
     1
 73
     0
176
     1
 90
        0
176
     1
 40
-0.6
176
     1
 41
-30.0
176
     1
 62
     5
 63
     7
421
 16777215
176
     1
 74
     1
176
     1
 91
        0
176
     1
 64
     7
176
     1
 65
   257
176
     1
 75
     1
176
     1
175
     1
176
     1
 42
1.0
176
     1
 92
        8
176
     1
 66
     8
424
  7895160
176
     1
 43
1.0
176
     1
 76
     1
176
     1
 77
     6
176
     1
 78
     2
176
     1
 67
     7
176
     1
 79
     5
176
     1
170
     0
176
     1
171
     0
176
     1
290
     0
176
     1
 93
       13
176
     1
 44
0.0
176
     1
173
     0
176
     1
  0
VISUALSTYLE
  5
37
102
{ACAD_REACTORS
330
2A
102
}
330
2A
100
AcDbVisualStyle
  2
Thicken
 70
    13
177
     2
291
     1
 71
     2
176
     1
 72
     2
176
     1
 73
     0
176
     1
 90
        0
176
     1
 40
-0.6
176
     1
 41
-30.0
176
     1
 62
     5
 63
     7
421
 16777215
176
     1
 74
     1
176
     1
 91
        4
176
     1
 64
     7
176
     1
 65
   257
176
     1
 75
     1
176
     1
175
     1
176
     1
 42
1.0
176
     1
 92
       12
176
     1
 66
     7
176
     1
 43
1.0
176
     1
 76
     1
176
     1
 77
     6
176
     1
 78
     2
176
     1
 67
     7
176
     1
 79
     5
176
     1
170
     0
176
     1
171
     0
176
     1
290
     0
176
     1
 93
        1
176
     1
 44
0.0
176
     1
173
     0
176
     1
  0
ENDSEC
  0
EOF
