  0
SECTION
  2
HEADER
  9
$ACADVER
  1
AC1024
  9
$ACADMAINTVER
 70
     6
  9
$DWGCODEPAGE
  3
ANSI_932
  9
$INSBASE
 10
0.0
 20
0.0
 30
0.0
  9
$EXTMIN
 10
-5940.0
 20
-4200.0
 30
0.0
  9
$EXTMAX
 10
5940.0
 20
4200.0
 30
0.0
  9
$LIMMIN
 10
-5940.0
 20
-4200.0
  9
$LIMMAX
 10
5940.0
 20
4200.0
  9
$ORTHOMODE
 70
     0
  9
$REGENMODE
 70
     1
  9
$FILLMODE
 70
     1
  9
$QTEXTMODE
 70
     0
  9
$MIRRTEXT
 70
     1
  9
$LTSCALE
 40
20.0
  9
$ATTMODE
 70
     1
  9
$TEXTSIZE
 40
2.5
  9
$TRACEWID
 40
1.0
  9
$TEXTSTYLE
  7
Standard
  9
$CLAYER
  8
0
  9
$CELTYPE
  6
ByLayer
  9
$CECOLOR
 62
   256
  9
$CELTSCALE
 40
1.0
  9
$DISPSILH
 70
     0
  9
$DIMSCALE
 40
1.0
  9
$DIMASZ
 40
2.5
  9
$DIMEXO
 40
0.625
  9
$DIMDLI
 40
3.75
  9
$DIMRND
 40
0.0
  9
$DIMDLE
 40
0.0
  9
$DIMEXE
 40
1.25
  9
$DIMTP
 40
0.0
  9
$DIMTM
 40
0.0
  9
$DIMTXT
 40
2.5
  9
$DIMCEN
 40
2.5
  9
$DIMTSZ
 40
0.0
  9
$DIMTOL
 70
     0
  9
$DIMLIM
 70
     0
  9
$DIMTIH
 70
     0
  9
$DIMTOH
 70
     0
  9
$DIMSE1
 70
     0
  9
$DIMSE2
 70
     0
  9
$DIMTAD
 70
     1
  9
$DIMZIN
 70
     8
  9
$DIMBLK
  1

  9
$DIMASO
 70
     1
  9
$DIMSHO
 70
     1
  9
$DIMPOST
  1

  9
$DIMAPOST
  1

  9
$DIMALT
 70
     0
  9
$DIMALTD
 70
     3
  9
$DIMALTF
 40
0.03937007874016
  9
$DIMLFAC
 40
1.0
  9
$DIMTOFL
 70
     1
  9
$DIMTVP
 40
0.0
  9
$DIMTIX
 70
     0
  9
$DIMSOXD
 70
     0
  9
$DIMSAH
 70
     0
  9
$DIMBLK1
  1

  9
$DIMBLK2
  1

  9
$DIMSTYLE
  2
ISO-25
  9
$DIMCLRD
 70
     0
  9
$DIMCLRE
 70
     0
  9
$DIMCLRT
 70
     0
  9
$DIMTFAC
 40
1.0
  9
$DIMGAP
 40
0.625
  9
$DIMJUST
 70
     0
  9
$DIMSD1
 70
     0
  9
$DIMSD2
 70
     0
  9
$DIMTOLJ
 70
     0
  9
$DIMTZIN
 70
     8
  9
$DIMALTZ
 70
     0
  9
$DIMALTTZ
 70
     0
  9
$DIMUPT
 70
     0
  9
$DIMDEC
 70
     2
  9
$DIMTDEC
 70
     2
  9
$DIMALTU
 70
     2
  9
$DIMALTTD
 70
     3
  9
$DIMTXSTY
  7
Standard
  9
$DIMAUNIT
 70
     0
  9
$DIMADEC
 70
     0
  9
$DIMALTRND
 40
0.0
  9
$DIMAZIN
 70
     0
  9
$DIMDSEP
 70
    44
  9
$DIMATFIT
 70
     3
  9
$DIMFRAC
 70
     0
  9
$DIMLDRBLK
  1

  9
$DIMLUNIT
 70
     2
  9
$DIMLWD
 70
    -2
  9
$DIMLWE
 70
    -2
  9
$DIMTMOVE
 70
     0
  9
$DIMFXL
 40
1.0
  9
$DIMFXLON
 70
     0
  9
$DIMJOGANG
 40
0.7853981633974483
  9
$DIMTFILL
 70
     0
  9
$DIMTFILLCLR
 70
     0
  9
$DIMARCSYM
 70
     0
  9
$DIMLTYPE
  6

  9
$DIMLTEX1
  6

  9
$DIMLTEX2
  6

  9
$DIMTXTDIRECTION
 70
     0
  9
$LUNITS
 70
     2
  9
$LUPREC
 70
     4
  9
$SKETCHINC
 40
1.0
  9
$FILLETRAD
 40
10.0
  9
$AUNITS
 70
     0
  9
$AUPREC
 70
     0
  9
$MENU
  1
.
  9
$ELEVATION
 40
0.0
  9
$PELEVATION
 40
0.0
  9
$THICKNESS
 40
0.0
  9
$LIMCHECK
 70
     0
  9
$CHAMFERA
 40
10.0
  9
$CHAMFERB
 40
10.0
  9
$CHAMFERC
 40
20.0
  9
$CHAMFERD
 40
0.0
  9
$SKPOLY
 70
     0
  9
$TDCREATE
 40
2460021.54638875
  9
$TDUCREATE
 40
2460021.17138875
  9
$TDUPDATE
 40
2460021.546388762
  9
$TDUUPDATE
 40
2460021.171388762
  9
$TDINDWG
 40
0.0000000116
  9
$TDUSRTIMER
 40
0.0000000116
  9
$USRTIMER
 70
     1
  9
$ANGBASE
 50
0.0
  9
$ANGDIR
 70
     0
  9
$PDMODE
 70
     0
  9
$PDSIZE
 40
0.0
  9
$PLINEWID
 40
0.0
  9
$SPLFRAME
 70
     0
  9
$SPLINETYPE
 70
     6
  9
$SPLINESEGS
 70
     8
  9
$HANDSEED
  5
3C3
  9
$SURFTAB1
 70
     6
  9
$SURFTAB2
 70
     6
  9
$SURFTYPE
 70
     6
  9
$SURFU
 70
     6
  9
$SURFV
 70
     6
  9
$UCSBASE
  2

  9
$UCSNAME
  2

  9
$UCSORG
 10
0.0
 20
0.0
 30
0.0
  9
$UCSXDIR
 10
1.0
 20
0.0
 30
0.0
  9
$UCSYDIR
 10
0.0
 20
1.0
 30
0.0
  9
$UCSORTHOREF
  2

  9
$UCSORTHOVIEW
 70
     0
  9
$UCSORGTOP
 10
0.0
 20
0.0
 30
0.0
  9
$UCSORGBOTTOM
 10
0.0
 20
0.0
 30
0.0
  9
$UCSORGLEFT
 10
0.0
 20
0.0
 30
0.0
  9
$UCSORGRIGHT
 10
0.0
 20
0.0
 30
0.0
  9
$UCSORGFRONT
 10
0.0
 20
0.0
 30
0.0
  9
$UCSORGBACK
 10
0.0
 20
0.0
 30
0.0
  9
$PUCSBASE
  2

  9
$PUCSNAME
  2

  9
$PUCSORG
 10
0.0
 20
0.0
 30
0.0
  9
$PUCSXDIR
 10
1.0
 20
0.0
 30
0.0
  9
$PUCSYDIR
 10
0.0
 20
1.0
 30
0.0
  9
$PUCSORTHOREF
  2

  9
$PUCSORTHOVIEW
 70
     0
  9
$PUCSORGTOP
 10
0.0
 20
0.0
 30
0.0
  9
$PUCSORGBOTTOM
 10
0.0
 20
0.0
 30
0.0
  9
$PUCSORGLEFT
 10
0.0
 20
0.0
 30
0.0
  9
$PUCSORGRIGHT
 10
0.0
 20
0.0
 30
0.0
  9
$PUCSORGFRONT
 10
0.0
 20
0.0
 30
0.0
  9
$PUCSORGBACK
 10
0.0
 20
0.0
 30
0.0
  9
$USERI1
 70
     0
  9
$USERI2
 70
     0
  9
$USERI3
 70
     0
  9
$USERI4
 70
     0
  9
$USERI5
 70
     0
  9
$USERR1
 40
0.0
  9
$USERR2
 40
0.0
  9
$USERR3
 40
0.0
  9
$USERR4
 40
0.0
  9
$USERR5
 40
0.0
  9
$WORLDVIEW
 70
     1
  9
$SHADEDGE
 70
     3
  9
$SHADEDIF
 70
    70
  9
$TILEMODE
 70
     1
  9
$MAXACTVP
 70
    64
  9
$PINSBASE
 10
0.0
 20
0.0
 30
0.0
  9
$PLIMCHECK
 70
     0
  9
$PEXTMIN
 10
1.000000000000000E+20
 20
1.000000000000000E+20
 30
1.000000000000000E+20
  9
$PEXTMAX
 10
-1.000000000000000E+20
 20
-1.000000000000000E+20
 30
-1.000000000000000E+20
  9
$PLIMMIN
 10
0.0
 20
0.0
  9
$PLIMMAX
 10
420.0
 20
297.0
  9
$UNITMODE
 70
     0
  9
$VISRETAIN
 70
     1
  9
$PLINEGEN
 70
     0
  9
$PSLTSCALE
 70
     1
  9
$TREEDEPTH
 70
  3020
  9
$CMLSTYLE
  2
Standard
  9
$CMLJUST
 70
     0
  9
$CMLSCALE
 40
20.0
  9
$PROXYGRAPHICS
 70
     1
  9
$MEASUREMENT
 70
     1
  9
$CELWEIGHT
370
    -1
  9
$ENDCAPS
280
     0
  9
$JOINSTYLE
280
     0
  9
$LWDISPLAY
290
     0
  9
$INSUNITS
 70
     4
  9
$HYPERLINKBASE
  1

  9
$STYLESHEET
  1

  9
$XEDIT
290
     1
  9
$CEPSNTYPE
380
     0
  9
$PSTYLEMODE
290
     1
  9
$FINGERPRINTGUID
  2
{663BACE1-461C-4E06-8A5C-2F67FB1DDB1B}
  9
$VERSIONGUID
  2
{FAEB1C32-E019-11D5-929B-00C0DF256EC4}
  9
$EXTNAMES
290
     1
  9
$PSVPSCALE
 40
0.0
  9
$OLESTARTUP
290
     0
  9
$SORTENTS
280
   127
  9
$INDEXCTL
280
     0
  9
$HIDETEXT
280
     1
  9
$XCLIPFRAME
280
     2
  9
$HALOGAP
280
     0
  9
$OBSCOLOR
 70
   257
  9
$OBSLTYPE
280
     0
  9
$INTERSECTIONDISPLAY
280
     0
  9
$INTERSECTIONCOLOR
 70
   257
  9
$DIMASSOC
280
     2
  9
$PROJECTNAME
  1

  9
$CAMERADISPLAY
290
     0
  9
$LENSLENGTH
 40
50.0
  9
$CAMERAHEIGHT
 40
0.0
  9
$STEPSPERSEC
 40
2.0
  9
$STEPSIZE
 40
6.0
  9
$3DDWFPREC
 40
2.0
  9
$PSOLWIDTH
 40
5.0
  9
$PSOLHEIGHT
 40
80.0
  9
$LOFTANG1
 40
1.570796326794897
  9
$LOFTANG2
 40
1.570796326794897
  9
$LOFTMAG1
 40
0.0
  9
$LOFTMAG2
 40
0.0
  9
$LOFTPARAM
 70
     7
  9
$LOFTNORMALS
280
     1
  9
$LATITUDE
 40
37.795
  9
$LONGITUDE
 40
-122.394
  9
$NORTHDIRECTION
 40
0.0
  9
$TIMEZONE
 70
 -8000
  9
$LIGHTGLYPHDISPLAY
280
     1
  9
$TILEMODELIGHTSYNCH
280
     1
  9
$SOLIDHIST
280
     1
  9
$SHOWHIST
280
     1
  9
$DWFFRAME
280
     2
  9
$DGNFRAME
280
     2
  9
$REALWORLDSCALE
290
     1
  9
$INTERFERECOLOR
 62
   256
  9
$CSHADOW
280
     0
  9
$SHADOWPLANELOCATION
 40
0.0
  0
ENDSEC
  0
SECTION
  2
CLASSES
  0
CLASS
  1
ACDBDICTIONARYWDFLT
  2
AcDbDictionaryWithDefault
  3
ObjectDBX Classes
 90
        0
 91
        4
280
     0
281
     0
  0
CLASS
  1
VISUALSTYLE
  2
AcDbVisualStyle
  3
ObjectDBX Classes
 90
     4095
 91
        4
280
     0
281
     0
  0
CLASS
  1
MATERIAL
  2
AcDbMaterial
  3
ObjectDBX Classes
 90
     1153
 91
        4
280
     0
281
     0
  0
ENDSEC
  0
SECTION
  2
TABLES
  0
TABLE
  2
VPORT
  5
8
330
0
100
AcDbSymbolTable
 70
     1
  0
VPORT
  5
29
330
8
100
AcDbSymbolTableRecord
100
AcDbViewportTableRecord
  2
*Active
 70
     0
 10
0.0
 20
0.0
 11
1.0
 21
1.0
 12
0.0
 22
0.0
 13
0.0
 23
0.0
 14
10.0
 24
10.0
 15
10.0
 25
10.0
 16
0.0
 26
0.0
 36
1.0
 17
0.0
 27
0.0
 37
0.0
 40
9240.0
 41
1.414285714285715
 42
50.0
 43
0.0
 44
0.0
 50
0.0
 51
0.0
 71
     0
 72
 10000
 73
     1
 74
     3
 75
     0
 76
     0
 77
     0
 78
     0
281
     0
 65
     1
110
0.0
120
0.0
130
0.0
111
1.0
121
0.0
131
0.0
112
0.0
122
1.0
132
0.0
 79
     0
146
0.0
 60
     3
 61
     5
292
     1
282
     1
141
0.0
142
0.0
 63
   250
  0
ENDTAB
  0
TABLE
  2
LTYPE
  5
5
330
0
100
AcDbSymbolTable
 70
     3
  0
LTYPE
  5
14
330
5
100
AcDbSymbolTableRecord
100
AcDbLinetypeTableRecord
  2
ByBlock
 70
     0
  3

 72
    65
 73
     0
 40
0.0
  0
LTYPE
  5
15
330
5
100
AcDbSymbolTableRecord
100
AcDbLinetypeTableRecord
  2
ByLayer
 70
     0
  3

 72
    65
 73
     0
 40
0.0
  0
LTYPE
  5
16
330
5
100
AcDbSymbolTableRecord
100
AcDbLinetypeTableRecord
  2
Continuous
 70
     0
  3
Solid line
 72
    65
 73
     0
 40
0.0
  0
LTYPE
  5
3F
330
5
100
AcDbSymbolTableRecord
100
AcDbLinetypeTableRecord
  2
JWW_DASHED1
 70
     0
  3
-  --  --  --  --  --  --  --  -
 72
    65
 73
     2
 40
1.693333333333333
 49
0.8466666666666667
 74
     0
 49
-0.8466666666666667
 74
     0
  0
LTYPE
  5
40
330
5
100
AcDbSymbolTableRecord
100
AcDbLinetypeTableRecord
  2
JWW_HOJO
 70
     0
  3
  -   -   -   -   -   -   -   - 
 72
    65
 73
     2
 40
1.693333333333333
 49
-1.27
 74
     0
 49
0.4233333333333333
 74
     0
  0
ENDTAB
  0
TABLE
  2
LAYER
  5
2
330
0
100
AcDbSymbolTable
 70
     8
  0
LAYER
  5
10
330
2
100
AcDbSymbolTableRecord
100
AcDbLayerTableRecord
  2
0
 70
     0
 62
     7
  6
Continuous
370
    -3
390
F
347
3E
  0
LAYER
  5
41
330
2
100
AcDbSymbolTableRecord
100
AcDbLayerTableRecord
  2
F-1
 70
     0
 62
     7
  6
Continuous
370
    -3
390
F
347
3E
  0
LAYER
  5
42
330
2
100
AcDbSymbolTableRecord
100
AcDbLayerTableRecord
  2
F-0
 70
     0
 62
     7
  6
Continuous
370
    -3
390
F
347
3E
  0
LAYER
  5
43
330
2
100
AcDbSymbolTableRecord
100
AcDbLayerTableRecord
  2
0-0
 70
     0
 62
     7
  6
Continuous
370
    -3
390
F
347
3E
  0
LAYER
  5
44
330
2
100
AcDbSymbolTableRecord
100
AcDbLayerTableRecord
  2
0-B
 70
     0
 62
     7
  6
Continuous
370
    -3
390
F
347
3E
  0
LAYER
  5
45
330
2
100
AcDbSymbolTableRecord
100
AcDbLayerTableRecord
  2
0-4
 70
     0
 62
     7
  6
Continuous
370
    -3
390
F
347
3E
  0
LAYER
  5
46
330
2
100
AcDbSymbolTableRecord
100
AcDbLayerTableRecord
  2
0-A
 70
     0
 62
     7
  6
Continuous
370
    -3
390
F
347
3E
  0
LAYER
  5
47
330
2
100
AcDbSymbolTableRecord
100
AcDbLayerTableRecord
  2
F-A
 70
     0
 62
     7
  6
Continuous
370
    -3
390
F
347
3E
  0
ENDTAB
  0
TABLE
  2
STYLE
  5
3
330
0
100
AcDbSymbolTable
 70
     1
  0
STYLE
  5
11
330
3
100
AcDbSymbolTableRecord
100
AcDbTextStyleTableRecord
  2
Standard
 70
     0
 40
0.0
 41
1.0
 50
0.0
 71
     0
 42
2.5
  3
txt
  4

  0
ENDTAB
  0
TABLE
  2
VIEW
  5
6
330
0
100
AcDbSymbolTable
 70
     0
  0
ENDTAB
  0
TABLE
  2
UCS
  5
7
330
0
100
AcDbSymbolTable
 70
     0
  0
ENDTAB
  0
TABLE
  2
APPID
  5
9
330
0
100
AcDbSymbolTable
 70
     1
  0
APPID
  5
12
330
9
100
AcDbSymbolTableRecord
100
AcDbRegAppTableRecord
  2
ACAD
 70
     0
  0
ENDTAB
  0
TABLE
  2
DIMSTYLE
  5
A
330
0
100
AcDbSymbolTable
 70
     1
100
AcDbDimStyleTable
  0
DIMSTYLE
105
27
330
A
100
AcDbSymbolTableRecord
100
AcDbDimStyleTableRecord
  2
ISO-25
 70
     0
 41
2.5
 42
0.625
 43
3.75
 44
1.25
 73
     0
 74
     0
 77
     1
 78
     8
140
2.5
141
2.5
143
0.03937007874016
147
0.625
171
     3
172
     1
178
     0
271
     2
272
     2
274
     3
278
    44
283
     0
284
     8
340
11
  0
ENDTAB
  0
TABLE
  2
BLOCK_RECORD
  5
1
330
0
100
AcDbSymbolTable
 70
     1
  0
BLOCK_RECORD
  5
1F
330
1
100
AcDbSymbolTableRecord
100
AcDbBlockTableRecord
  2
*Model_Space
340
22
 70
     0
280
     1
281
     0
  0
BLOCK_RECORD
  5
1B
330
1
100
AcDbSymbolTableRecord
100
AcDbBlockTableRecord
  2
*Paper_Space
340
1E
 70
     0
280
     1
281
     0
  0
BLOCK_RECORD
  5
23
330
1
100
AcDbSymbolTableRecord
100
AcDbBlockTableRecord
  2
*Paper_Space0
340
26
 70
     0
280
     1
281
     0
  0
ENDTAB
  0
ENDSEC
  0
SECTION
  2
BLOCKS
  0
BLOCK
  5
20
330
1F
100
AcDbEntity
  8
0
100
AcDbBlockBegin
  2
*Model_Space
 70
     0
 10
0.0
 20
0.0
 30
0.0
  3
*Model_Space
  1

  0
ENDBLK
  5
21
330
1F
100
AcDbEntity
  8
0
100
AcDbBlockEnd
  0
BLOCK
  5
1C
330
1B
100
AcDbEntity
 67
     1
  8
0
100
AcDbBlockBegin
  2
*Paper_Space
 70
     0
 10
0.0
 20
0.0
 30
0.0
  3
*Paper_Space
  1

  0
ENDBLK
  5
1D
330
1B
100
AcDbEntity
 67
     1
  8
0
100
AcDbBlockEnd
  0
BLOCK
  5
24
330
23
100
AcDbEntity
  8
0
100
AcDbBlockBegin
  2
*Paper_Space0
 70
     0
 10
0.0
 20
0.0
 30
0.0
  3
*Paper_Space0
  1

  0
ENDBLK
  5
25
330
23
100
AcDbEntity
  8
0
100
AcDbBlockEnd
  0
ENDSEC
  0
SECTION
  2
ENTITIES
  0
LINE
  5
48
330
1F
100
AcDbEntity
  8
F-1
  6
JWW_DASHED1
 62
     7
370
     9
100
AcDbLine
 10
-103.3338392103036
 20
1640.000254656818
 30
0.0
 11
-1523.333839210304
 21
1640.000254656818
 31
0.0
  0
LINE
  5
49
330
1F
100
AcDbEntity
  8
F-0
  6
JWW_HOJO
 62
     7
370
     9
100
AcDbLine
 10
-140.0000824799406
 20
-2530.000002061998
 30
0.0
 11
-140.0000824799406
 21
-2796.666672165329
 31
0.0
  0
LINE
  5
4A
330
1F
100
AcDbEntity
  8
F-0
  6
JWW_HOJO
 62
     7
370
     9
100
AcDbLine
 10
-3498.364917835225
 20
-2530.000002061999
 30
0.0
 11
-3498.364917835225
 21
-2803.333443306588
 31
0.0
  0
LINE
  5
4B
330
1F
100
AcDbEntity
  8
F-1
  6
Continuous
 62
   200
370
    20
100
AcDbLine
 10
3799.999175200592
 20
-2526.666678351325
 30
0.0
 11
-3999.999835040119
 21
-2526.666678351325
 31
0.0
  0
LINE
  5
4C
330
1F
100
AcDbEntity
  8
F-1
  6
Continuous
 62
   200
370
    20
100
AcDbLine
 10
3799.999175200592
 20
-2530.000002061998
 30
0.0
 11
-3999.999835040119
 21
-2530.000002061998
 31
0.0
  0
LINE
  5
4D
330
1F
100
AcDbEntity
  8
F-0
  6
JWW_HOJO
 62
     7
370
     9
100
AcDbLine
 10
2853.332816459038
 20
-2530.000002061998
 30
0.0
 11
2853.332816459038
 21
-2796.666672165329
 31
0.0
  0
LINE
  5
4E
330
1F
100
AcDbEntity
  8
F-0
  6
JWW_HOJO
 62
     7
370
     9
100
AcDbLine
 10
-40.0000824799406
 20
-2530.000002061998
 30
0.0
 11
-40.0000824799406
 21
-2796.666672165329
 31
0.0
  0
LINE
  5
4F
330
1F
100
AcDbEntity
  8
F-0
  6
JWW_HOJO
 62
     7
370
     9
100
AcDbLine
 10
1853.332486539274
 20
-2530.000002061998
 30
0.0
 11
1853.332486539274
 21
-2796.666672165329
 31
0.0
  0
LINE
  5
50
330
1F
100
AcDbEntity
  8
F-0
  6
JWW_HOJO
 62
     7
370
     9
100
AcDbLine
 10
-99.99999262927702
 20
-2566.66649147874
 30
0.0
 11
3793.332741349819
 21
-2566.670110286145
 31
0.0
  0
LINE
  5
51
330
1F
100
AcDbEntity
  8
F-0
  6
JWW_HOJO
 62
     7
370
     9
100
AcDbLine
 10
-100.0000483985781
 20
-2626.666491478713
 30
0.0
 11
3793.332685580518
 21
-2626.670110286119
 31
0.0
  0
LINE
  5
52
330
1F
100
AcDbEntity
  8
F-0
  6
JWW_HOJO
 62
     7
370
     9
100
AcDbLine
 10
-100.0001165610581
 20
-2699.999826518681
 30
0.0
 11
3793.332617418037
 21
-2700.003445326087
 31
0.0
  0
LINE
  5
53
330
1F
100
AcDbEntity
  8
F-0
  6
JWW_HOJO
 62
     7
370
     9
100
AcDbLine
 10
-100.0001723303592
 20
-2759.999826518655
 30
0.0
 11
3793.332561648736
 21
-2760.003445326061
 31
0.0
  0
LINE
  5
54
330
1F
100
AcDbEntity
  8
F-0
  6
JWW_HOJO
 62
     7
370
     9
100
AcDbLine
 10
-3993.333326803671
 20
-2723.333290718927
 30
0.0
 11
-100.0000824799406
 21
-2723.333290718927
 31
0.0
  0
LINE
  5
55
330
1F
100
AcDbEntity
  8
F-0
  6
JWW_HOJO
 62
     7
370
     9
100
AcDbLine
 10
-3993.333326803671
 20
-2603.333290718927
 30
0.0
 11
-100.0000824799406
 21
-2603.333290718927
 31
0.0
  0
LINE
  5
56
330
1F
100
AcDbEntity
  8
F-0
  6
JWW_HOJO
 62
     7
370
     9
100
AcDbLine
 10
-3993.333326803671
 20
-2663.333290718927
 30
0.0
 11
-100.0000824799406
 21
-2663.333290718927
 31
0.0
  0
LINE
  5
57
330
1F
100
AcDbEntity
  8
F-1
  6
Continuous
 62
   200
370
    20
100
AcDbLine
 10
-100.0000824799406
 20
-2663.333290718697
 30
0.0
 11
3793.332651499156
 21
-2663.336909526103
 31
0.0
  0
LINE
  5
58
330
1F
100
AcDbEntity
  8
F-1
  6
Continuous
 62
   200
370
    20
100
AcDbLine
 10
-100.0000824799406
 20
-2530.000002061998
 30
0.0
 11
-100.0000824799406
 21
-2796.666672165329
 31
0.0
  0
LINE
  5
59
330
1F
100
AcDbEntity
  8
F-1
  6
Continuous
 62
   200
370
    20
100
AcDbLine
 10
1793.332486539274
 20
-2530.000002061998
 30
0.0
 11
1793.332486539274
 21
-2796.666672165329
 31
0.0
  0
LINE
  5
5A
330
1F
100
AcDbEntity
  8
F-1
  6
Continuous
 62
   200
370
    20
100
AcDbLine
 10
2793.332816459038
 20
-2530.000002061998
 30
0.0
 11
2793.332816459038
 21
-2796.666672165329
 31
0.0
  0
LINE
  5
5B
330
1F
100
AcDbEntity
  8
F-1
  6
Continuous
 62
   200
370
    20
100
AcDbLine
 10
3799.999175200592
 20
-2796.666672165329
 30
0.0
 11
-3999.999835040119
 21
-2796.666672165329
 31
0.0
  0
LINE
  5
5C
330
1F
100
AcDbEntity
  8
F-1
  6
Continuous
 62
   200
370
    20
100
AcDbLine
 10
3799.999175200592
 20
-2799.999995876003
 30
0.0
 11
-3999.999835040119
 21
-2799.999995876003
 31
0.0
  0
LINE
  5
5D
330
1F
100
AcDbEntity
  8
F-1
  6
Continuous
 62
   200
370
    20
100
AcDbLine
 10
3799.999175200592
 20
-2803.333335051665
 30
0.0
 11
-3999.999835040119
 21
-2803.333335051665
 31
0.0
  0
LINE
  5
5E
330
1F
100
AcDbEntity
  8
F-0
  6
JWW_HOJO
 62
     7
370
     9
100
AcDbLine
 10
233.3332783467063
 20
-2530.000002061998
 30
0.0
 11
233.3332783467063
 21
-2796.666672165329
 31
0.0
  0
LINE
  5
5F
330
1F
100
AcDbEntity
  8
F-0
  6
JWW_HOJO
 62
     7
370
     9
100
AcDbLine
 10
566.6663917335308
 20
-2530.000002061998
 30
0.0
 11
566.6663917335308
 21
-2796.666672165329
 31
0.0
  0
LINE
  5
60
330
1F
100
AcDbEntity
  8
F-0
  6
JWW_HOJO
 62
   120
370
     5
100
AcDbLine
 10
1448.33277109507
 20
2505.160166293153
 30
0.0
 11
1448.33277109507
 21
-2526.666678351325
 31
0.0
  0
LINE
  5
61
330
1F
100
AcDbEntity
  8
F-1
  6
JWW_DASHED1
 62
     7
370
     9
100
AcDbLine
 10
-3293.333352578653
 20
-1901.666638400104
 30
0.0
 11
-103.3338392103036
 21
-1901.666638400104
 31
0.0
  0
LINE
  5
62
330
1F
100
AcDbEntity
  8
0-0
  6
JWW_HOJO
 62
   120
370
     5
100
AcDbLine
 10
-2446.844621429941
 20
2305.748246843636
 30
0.0
 11
-2141.489282370615
 21
2305.748246843636
 31
0.0
  0
LINE
  5
63
330
1F
100
AcDbEntity
  8
0-0
  6
JWW_HOJO
 62
   120
370
     5
100
AcDbLine
 10
-2141.489282370615
 20
2305.748246843636
 30
0.0
 11
-2076.844621429941
 21
2241.103585902964
 31
0.0
  0
LINE
  5
64
330
1F
100
AcDbEntity
  8
0-0
  6
JWW_HOJO
 62
   120
370
     5
100
AcDbLine
 10
-2496.844621429941
 20
2355.748246843636
 30
0.0
 11
-2120.778604251959
 21
2355.748246843636
 31
0.0
  0
LINE
  5
65
330
1F
100
AcDbEntity
  8
0-0
  6
JWW_HOJO
 62
   120
370
     5
100
AcDbLine
 10
-2120.778604251959
 20
2355.748246843636
 30
0.0
 11
-2026.844621429941
 21
2261.814264021619
 31
0.0
  0
LINE
  5
66
330
1F
100
AcDbEntity
  8
0-B
  6
Continuous
 62
   120
370
     5
100
AcDbLine
 10
-2059.166951900279
 20
2288.070577313973
 30
0.0
 11
-2091.489282370615
 21
2255.748246843636
 31
0.0
  0
LINE
  5
67
330
1F
100
AcDbEntity
  8
0-B
  6
Continuous
 62
   120
370
     5
100
AcDbLine
 10
-2094.522290959605
 20
2323.425916373301
 30
0.0
 11
-2126.844621429941
 21
2291.103585902964
 31
0.0
  0
LWPOLYLINE
  5
68
330
1F
100
AcDbEntity
  8
0-B
  6
Continuous
 62
     7
370
     9
100
AcDbPolyline
 90
        4
 70
     1
 43
2.0
 10
-2058.166951900279
 20
2288.070577313973
 42
0.4142135623731
 10
-2059.166951900279
 20
2289.070577313973
 42
0.4142135623731
 10
-2060.166951900279
 20
2288.070577313973
 42
0.4142135623731
 10
-2059.166951900279
 20
2287.070577313973
 42
0.4142135623731
  0
LWPOLYLINE
  5
69
330
1F
100
AcDbEntity
  8
0-B
  6
Continuous
 62
     7
370
     9
100
AcDbPolyline
 90
        4
 70
     1
 43
2.0
 10
-2093.522290959605
 20
2323.425916373301
 42
0.4142135623731
 10
-2094.522290959605
 20
2324.425916373301
 42
0.4142135623731
 10
-2095.522290959605
 20
2323.425916373301
 42
0.4142135623731
 10
-2094.522290959605
 20
2322.425916373301
 42
0.4142135623731
  0
LINE
  5
6A
330
1F
100
AcDbEntity
  8
0-B
  6
Continuous
 62
   120
370
     5
100
AcDbLine
 10
-2094.522290959605
 20
2323.425916373301
 30
0.0
 11
-2059.166951900279
 21
2288.070577313973
 31
0.0
  0
LINE
  5
6B
330
1F
100
AcDbEntity
  8
0-B
  6
Continuous
 62
   120
370
     5
100
AcDbLine
 10
-2496.844621429941
 20
2167.748246843637
 30
0.0
 11
-2446.844621429941
 21
2167.748246843637
 31
0.0
  0
LINE
  5
6C
330
1F
100
AcDbEntity
  8
0-B
  6
Continuous
 62
   120
370
     5
100
AcDbLine
 10
-2496.844621429941
 20
2255.748246843636
 30
0.0
 11
-2446.844621429941
 21
2255.748246843636
 31
0.0
  0
LWPOLYLINE
  5
6D
330
1F
100
AcDbEntity
  8
0-B
  6
Continuous
 62
     7
370
     9
100
AcDbPolyline
 90
        4
 70
     1
 43
2.0
 10
-2495.844621429941
 20
2167.748246843637
 42
0.4142135623731
 10
-2496.844621429941
 20
2168.748246843637
 42
0.4142135623731
 10
-2497.844621429941
 20
2167.748246843637
 42
0.4142135623731
 10
-2496.844621429941
 20
2166.748246843637
 42
0.4142135623731
  0
LWPOLYLINE
  5
6E
330
1F
100
AcDbEntity
  8
0-B
  6
Continuous
 62
     7
370
     9
100
AcDbPolyline
 90
        4
 70
     1
 43
2.0
 10
-2495.844621429941
 20
2255.748246843636
 42
0.4142135623731
 10
-2496.844621429941
 20
2256.748246843636
 42
0.4142135623731
 10
-2497.844621429941
 20
2255.748246843636
 42
0.4142135623731
 10
-2496.844621429941
 20
2254.748246843636
 42
0.4142135623731
  0
LINE
  5
6F
330
1F
100
AcDbEntity
  8
0-B
  6
Continuous
 62
   120
370
     5
100
AcDbLine
 10
-2496.844621429941
 20
2255.748246843636
 30
0.0
 11
-2496.844621429941
 21
2167.748246843637
 31
0.0
  0
LINE
  5
70
330
1F
100
AcDbEntity
  8
0-B
  6
Continuous
 62
   120
370
     5
100
AcDbLine
 10
-2026.844621429941
 20
2255.748246843636
 30
0.0
 11
-2076.844621429941
 21
2255.748246843636
 31
0.0
  0
LWPOLYLINE
  5
71
330
1F
100
AcDbEntity
  8
0-B
  6
Continuous
 62
     7
370
     9
100
AcDbPolyline
 90
        4
 70
     1
 43
2.0
 10
-2025.844621429941
 20
2255.748246843636
 42
0.4142135623731
 10
-2026.844621429941
 20
2256.748246843636
 42
0.4142135623731
 10
-2027.844621429941
 20
2255.748246843636
 42
0.4142135623731
 10
-2026.844621429941
 20
2254.748246843636
 42
0.4142135623731
  0
LINE
  5
72
330
1F
100
AcDbEntity
  8
0-B
  6
Continuous
 62
   120
370
     5
100
AcDbLine
 10
-2126.844621429941
 20
2355.748246843636
 30
0.0
 11
-2126.844621429941
 21
2305.748246843636
 31
0.0
  0
LINE
  5
73
330
1F
100
AcDbEntity
  8
0-B
  6
Continuous
 62
   120
370
     5
100
AcDbLine
 10
-2396.844621429941
 20
2355.748246843636
 30
0.0
 11
-2396.844621429941
 21
2305.748246843636
 31
0.0
  0
LWPOLYLINE
  5
74
330
1F
100
AcDbEntity
  8
0-B
  6
Continuous
 62
     7
370
     9
100
AcDbPolyline
 90
        4
 70
     1
 43
2.0
 10
-2125.844621429941
 20
2355.748246843636
 42
0.4142135623731
 10
-2126.844621429941
 20
2356.748246843636
 42
0.4142135623731
 10
-2127.844621429941
 20
2355.748246843636
 42
0.4142135623731
 10
-2126.844621429941
 20
2354.748246843636
 42
0.4142135623731
  0
LWPOLYLINE
  5
75
330
1F
100
AcDbEntity
  8
0-B
  6
Continuous
 62
     7
370
     9
100
AcDbPolyline
 90
        4
 70
     1
 43
2.0
 10
-2395.844621429941
 20
2355.748246843636
 42
0.4142135623731
 10
-2396.844621429941
 20
2356.748246843636
 42
0.4142135623731
 10
-2397.844621429941
 20
2355.748246843636
 42
0.4142135623731
 10
-2396.844621429941
 20
2354.748246843636
 42
0.4142135623731
  0
LINE
  5
76
330
1F
100
AcDbEntity
  8
0-B
  6
Continuous
 62
   120
370
     5
100
AcDbLine
 10
-2396.844621429941
 20
2355.748246843636
 30
0.0
 11
-2126.844621429941
 21
2355.748246843636
 31
0.0
  0
LINE
  5
77
330
1F
100
AcDbEntity
  8
0-4
  6
Continuous
 62
    92
370
    13
100
AcDbLine
 10
-2164.271028301134
 20
2250.748246843636
 30
0.0
 11
-2131.844621429941
 21
2218.321839972443
 31
0.0
  0
LINE
  5
78
330
1F
100
AcDbEntity
  8
0-4
  6
Continuous
 62
    92
370
    13
100
AcDbLine
 10
-2162.19996048927
 20
2255.748246843636
 30
0.0
 11
-2126.844621429941
 21
2220.39290778431
 31
0.0
  0
LINE
  5
79
330
1F
100
AcDbEntity
  8
0-4
  6
Continuous
 62
    92
370
    13
100
AcDbLine
 10
-2396.844621429941
 20
2250.748246843636
 30
0.0
 11
-2164.271028301134
 21
2250.748246843636
 31
0.0
  0
LINE
  5
7A
330
1F
100
AcDbEntity
  8
0-4
  6
Continuous
 62
    92
370
    13
100
AcDbLine
 10
-2396.844621429941
 20
2255.748246843636
 30
0.0
 11
-2162.19996048927
 21
2255.748246843636
 31
0.0
  0
LINE
  5
7B
330
1F
100
AcDbEntity
  8
0-4
  6
Continuous
 62
    92
370
    13
100
AcDbLine
 10
-2396.844621429941
 20
2167.748246843637
 30
0.0
 11
-2246.844621429941
 21
2167.748246843637
 31
0.0
  0
LINE
  5
7C
330
1F
100
AcDbEntity
  8
0-4
  6
Continuous
 62
    92
370
    13
100
AcDbLine
 10
-2396.844621429941
 20
2255.748246843636
 30
0.0
 11
-2396.844621429941
 21
2167.748246843637
 31
0.0
  0
LINE
  5
7D
330
1F
100
AcDbEntity
  8
F-1
  6
JWW_DASHED1
 62
     7
370
     9
100
AcDbLine
 10
3793.332651499156
 20
-2318.333331700917
 30
0.0
 11
2373.332651499156
 21
-2318.333331700917
 31
0.0
  0
LINE
  5
7E
330
1F
100
AcDbEntity
  8
F-1
  6
JWW_DASHED1
 62
     7
370
     9
100
AcDbLine
 10
3793.332651499156
 20
-2214.166658375714
 30
0.0
 11
2373.332651499156
 21
-2214.166658375714
 31
0.0
  0
LINE
  5
7F
330
1F
100
AcDbEntity
  8
F-1
  6
JWW_DASHED1
 62
     7
370
     9
100
AcDbLine
 10
3793.332651499156
 20
-2109.999985050511
 30
0.0
 11
2373.332651499156
 21
-2109.999985050511
 31
0.0
  0
LINE
  5
80
330
1F
100
AcDbEntity
  8
F-1
  6
JWW_DASHED1
 62
     7
370
     9
100
AcDbLine
 10
3793.332651499156
 20
-2422.500005026121
 30
0.0
 11
2373.332651499156
 21
-2422.500005026121
 31
0.0
  0
LINE
  5
81
330
1F
100
AcDbEntity
  8
F-1
  6
JWW_DASHED1
 62
     7
370
     9
100
AcDbLine
 10
3793.332651499156
 20
-1693.333291749697
 30
0.0
 11
2373.332651499156
 21
-1693.333291749697
 31
0.0
  0
LINE
  5
82
330
1F
100
AcDbEntity
  8
F-1
  6
JWW_DASHED1
 62
     7
370
     9
100
AcDbLine
 10
3793.332651499156
 20
-1589.166618424493
 30
0.0
 11
2373.332651499156
 21
-1589.166618424493
 31
0.0
  0
LINE
  5
83
330
1F
100
AcDbEntity
  8
F-1
  6
JWW_DASHED1
 62
     7
370
     9
100
AcDbLine
 10
3793.332651499156
 20
-1484.99994509929
 30
0.0
 11
2373.332651499156
 21
-1484.99994509929
 31
0.0
  0
LINE
  5
84
330
1F
100
AcDbEntity
  8
F-1
  6
JWW_DASHED1
 62
     7
370
     9
100
AcDbLine
 10
3793.332651499156
 20
-1797.4999650749
 30
0.0
 11
2373.332651499156
 21
-1797.4999650749
 31
0.0
  0
LINE
  5
85
330
1F
100
AcDbEntity
  8
F-1
  6
JWW_DASHED1
 62
     7
370
     9
100
AcDbLine
 10
3793.332651499156
 20
-1380.833271774086
 30
0.0
 11
2373.332651499156
 21
-1380.833271774086
 31
0.0
  0
LINE
  5
86
330
1F
100
AcDbEntity
  8
F-1
  6
JWW_DASHED1
 62
     7
370
     9
100
AcDbLine
 10
3793.332651499156
 20
-1068.333251798475
 30
0.0
 11
2373.332651499156
 21
-1068.333251798475
 31
0.0
  0
LINE
  5
87
330
1F
100
AcDbEntity
  8
F-1
  6
JWW_DASHED1
 62
     7
370
     9
100
AcDbLine
 10
3793.332651499156
 20
-964.1665784732718
 30
0.0
 11
2373.332651499156
 21
-964.1665784732718
 31
0.0
  0
LINE
  5
88
330
1F
100
AcDbEntity
  8
F-1
  6
JWW_DASHED1
 62
     7
370
     9
100
AcDbLine
 10
3793.332651499156
 20
-859.9999051480683
 30
0.0
 11
2373.332651499156
 21
-859.9999051480683
 31
0.0
  0
LINE
  5
89
330
1F
100
AcDbEntity
  8
F-1
  6
JWW_DASHED1
 62
     7
370
     9
100
AcDbLine
 10
3793.332651499156
 20
-1172.499925123679
 30
0.0
 11
2373.332651499156
 21
-1172.499925123679
 31
0.0
  0
LINE
  5
8A
330
1F
100
AcDbEntity
  8
F-1
  6
JWW_DASHED1
 62
     7
370
     9
100
AcDbLine
 10
3793.332651499156
 20
-755.8332318228647
 30
0.0
 11
2373.332651499156
 21
-755.8332318228647
 31
0.0
  0
LINE
  5
8B
330
1F
100
AcDbEntity
  8
F-1
  6
JWW_DASHED1
 62
     7
370
     9
100
AcDbLine
 10
3793.332651499156
 20
-443.3332118472535
 30
0.0
 11
2373.332651499156
 21
-443.3332118472535
 31
0.0
  0
LINE
  5
8C
330
1F
100
AcDbEntity
  8
F-1
  6
JWW_DASHED1
 62
     7
370
     9
100
AcDbLine
 10
3793.332651499156
 20
-234.9998651968463
 30
0.0
 11
2373.332651499156
 21
-234.9998651968463
 31
0.0
  0
LINE
  5
8D
330
1F
100
AcDbEntity
  8
F-1
  6
JWW_DASHED1
 62
     7
370
     9
100
AcDbLine
 10
3793.332651499156
 20
-547.499885172457
 30
0.0
 11
2373.332651499156
 21
-547.499885172457
 31
0.0
  0
LINE
  5
8E
330
1F
100
AcDbEntity
  8
F-1
  6
JWW_DASHED1
 62
     7
370
     9
100
AcDbLine
 10
3793.332651499156
 20
-130.8331918716431
 30
0.0
 11
2373.332651499156
 21
-130.8331918716431
 31
0.0
  0
LINE
  5
8F
330
1F
100
AcDbEntity
  8
F-1
  6
JWW_DASHED1
 62
     7
370
     9
100
AcDbLine
 10
3793.332651499156
 20
181.6668281039676
 30
0.0
 11
2373.332651499156
 21
181.6668281039676
 31
0.0
  0
LINE
  5
90
330
1F
100
AcDbEntity
  8
F-1
  6
JWW_DASHED1
 62
     7
370
     9
100
AcDbLine
 10
3793.332651499156
 20
285.8335014291708
 30
0.0
 11
2373.332651499156
 21
285.8335014291708
 31
0.0
  0
LINE
  5
91
330
1F
100
AcDbEntity
  8
F-1
  6
JWW_DASHED1
 62
     7
370
     9
100
AcDbLine
 10
3793.332651499156
 20
390.0001747543746
 30
0.0
 11
2373.332651499156
 21
390.0001747543746
 31
0.0
  0
LINE
  5
92
330
1F
100
AcDbEntity
  8
F-1
  6
JWW_DASHED1
 62
     7
370
     9
100
AcDbLine
 10
3793.332651499156
 20
77.50015477876445
 30
0.0
 11
2373.332651499156
 21
77.50015477876445
 31
0.0
  0
LINE
  5
93
330
1F
100
AcDbEntity
  8
F-1
  6
JWW_DASHED1
 62
     7
370
     9
100
AcDbLine
 10
3793.332651499156
 20
494.1668480795784
 30
0.0
 11
2373.332651499156
 21
494.1668480795784
 31
0.0
  0
LINE
  5
94
330
1F
100
AcDbEntity
  8
F-1
  6
JWW_DASHED1
 62
     7
370
     9
100
AcDbLine
 10
3793.332651499156
 20
806.6668680551891
 30
0.0
 11
2373.332651499156
 21
806.6668680551891
 31
0.0
  0
LINE
  5
95
330
1F
100
AcDbEntity
  8
F-1
  6
JWW_DASHED1
 62
     7
370
     9
100
AcDbLine
 10
3793.332651499156
 20
910.8335413803923
 30
0.0
 11
2373.332651499156
 21
910.8335413803923
 31
0.0
  0
LINE
  5
96
330
1F
100
AcDbEntity
  8
F-1
  6
JWW_DASHED1
 62
     7
370
     9
100
AcDbLine
 10
3793.332651499156
 20
1015.000214705596
 30
0.0
 11
2373.332651499156
 21
1015.000214705596
 31
0.0
  0
LINE
  5
97
330
1F
100
AcDbEntity
  8
F-1
  6
JWW_DASHED1
 62
     7
370
     9
100
AcDbLine
 10
3793.332651499156
 20
702.5001947299859
 30
0.0
 11
2373.332651499156
 21
702.5001947299859
 31
0.0
  0
LINE
  5
98
330
1F
100
AcDbEntity
  8
F-1
  6
JWW_DASHED1
 62
     7
370
     9
100
AcDbLine
 10
3793.332651499156
 20
1119.1668880308
 30
0.0
 11
2373.332651499156
 21
1119.1668880308
 31
0.0
  0
LINE
  5
99
330
1F
100
AcDbEntity
  8
F-1
  6
JWW_DASHED1
 62
     7
370
     9
100
AcDbLine
 10
3793.332651499156
 20
1431.66690800641
 30
0.0
 11
2373.332651499156
 21
1431.66690800641
 31
0.0
  0
LINE
  5
9A
330
1F
100
AcDbEntity
  8
F-1
  6
JWW_DASHED1
 62
     7
370
     9
100
AcDbLine
 10
3793.332651499156
 20
1640.000254656818
 30
0.0
 11
2373.332651499156
 21
1640.000254656818
 31
0.0
  0
LINE
  5
9B
330
1F
100
AcDbEntity
  8
F-1
  6
JWW_DASHED1
 62
     7
370
     9
100
AcDbLine
 10
3793.332651499156
 20
1327.500234681207
 30
0.0
 11
2373.332651499156
 21
1327.500234681207
 31
0.0
  0
LINE
  5
9C
330
1F
100
AcDbEntity
  8
F-1
  6
JWW_DASHED1
 62
     7
370
     9
100
AcDbLine
 10
3793.332651499156
 20
1744.166927982021
 30
0.0
 11
2373.332651499156
 21
1744.166927982021
 31
0.0
  0
LINE
  5
9D
330
1F
100
AcDbEntity
  8
F-1
  6
JWW_DASHED1
 62
     7
370
     9
100
AcDbLine
 10
3793.332651499156
 20
2056.666947957632
 30
0.0
 11
2373.332651499156
 21
2056.666947957632
 31
0.0
  0
LINE
  5
9E
330
1F
100
AcDbEntity
  8
F-1
  6
JWW_DASHED1
 62
     7
370
     9
100
AcDbLine
 10
3793.332651499156
 20
2160.833621282835
 30
0.0
 11
2373.332651499156
 21
2160.833621282835
 31
0.0
  0
LINE
  5
9F
330
1F
100
AcDbEntity
  8
F-1
  6
JWW_DASHED1
 62
     7
370
     9
100
AcDbLine
 10
3793.332651499156
 20
2265.000294608039
 30
0.0
 11
2373.332651499156
 21
2265.000294608039
 31
0.0
  0
LINE
  5
A0
330
1F
100
AcDbEntity
  8
F-1
  6
JWW_DASHED1
 62
     7
370
     9
100
AcDbLine
 10
3793.332651499156
 20
1952.500274632429
 30
0.0
 11
2373.332651499156
 21
1952.500274632429
 31
0.0
  0
LINE
  5
A1
330
1F
100
AcDbEntity
  8
F-1
  6
JWW_DASHED1
 62
     7
370
     9
100
AcDbLine
 10
3793.332651499156
 20
2369.166967933243
 30
0.0
 11
2373.332651499156
 21
2369.166967933243
 31
0.0
  0
LINE
  5
A2
330
1F
100
AcDbEntity
  8
F-1
  6
JWW_DASHED1
 62
     7
370
     9
100
AcDbLine
 10
-103.3338392103036
 20
-2318.333331700917
 30
0.0
 11
-1523.333839210304
 21
-2318.333331700917
 31
0.0
  0
LINE
  5
A3
330
1F
100
AcDbEntity
  8
F-1
  6
JWW_DASHED1
 62
     7
370
     9
100
AcDbLine
 10
-103.3338392103036
 20
-2214.166658375714
 30
0.0
 11
-1523.333839210304
 21
-2214.166658375714
 31
0.0
  0
LINE
  5
A4
330
1F
100
AcDbEntity
  8
F-1
  6
JWW_DASHED1
 62
     7
370
     9
100
AcDbLine
 10
-103.3338392103036
 20
-2109.999985050511
 30
0.0
 11
-1523.333839210304
 21
-2109.999985050511
 31
0.0
  0
LINE
  5
A5
330
1F
100
AcDbEntity
  8
F-1
  6
JWW_DASHED1
 62
     7
370
     9
100
AcDbLine
 10
-103.3338392103036
 20
-2422.500005026121
 30
0.0
 11
-1523.333839210304
 21
-2422.500005026121
 31
0.0
  0
LINE
  5
A6
330
1F
100
AcDbEntity
  8
F-1
  6
JWW_DASHED1
 62
     7
370
     9
100
AcDbLine
 10
-103.3338392103036
 20
-2005.833311725307
 30
0.0
 11
-1523.333839210304
 21
-2005.833311725307
 31
0.0
  0
LINE
  5
A7
330
1F
100
AcDbEntity
  8
F-1
  6
JWW_DASHED1
 62
     7
370
     9
100
AcDbLine
 10
-103.3338392103036
 20
-1693.333291749697
 30
0.0
 11
-1523.333839210304
 21
-1693.333291749697
 31
0.0
  0
LINE
  5
A8
330
1F
100
AcDbEntity
  8
F-1
  6
JWW_DASHED1
 62
     7
370
     9
100
AcDbLine
 10
-103.3338392103036
 20
-1589.166618424493
 30
0.0
 11
-1523.333839210304
 21
-1589.166618424493
 31
0.0
  0
LINE
  5
A9
330
1F
100
AcDbEntity
  8
F-1
  6
JWW_DASHED1
 62
     7
370
     9
100
AcDbLine
 10
-103.3338392103036
 20
-1484.99994509929
 30
0.0
 11
-1523.333839210304
 21
-1484.99994509929
 31
0.0
  0
LINE
  5
AA
330
1F
100
AcDbEntity
  8
F-1
  6
JWW_DASHED1
 62
     7
370
     9
100
AcDbLine
 10
-103.3338392103036
 20
-1797.4999650749
 30
0.0
 11
-1523.333839210304
 21
-1797.4999650749
 31
0.0
  0
LINE
  5
AB
330
1F
100
AcDbEntity
  8
F-1
  6
JWW_DASHED1
 62
     7
370
     9
100
AcDbLine
 10
-103.3338392103036
 20
-1380.833271774086
 30
0.0
 11
-1523.333839210304
 21
-1380.833271774086
 31
0.0
  0
LINE
  5
AC
330
1F
100
AcDbEntity
  8
F-1
  6
JWW_DASHED1
 62
     7
370
     9
100
AcDbLine
 10
-103.3338392103036
 20
-1068.333251798475
 30
0.0
 11
-1523.333839210304
 21
-1068.333251798475
 31
0.0
  0
LINE
  5
AD
330
1F
100
AcDbEntity
  8
F-1
  6
JWW_DASHED1
 62
     7
370
     9
100
AcDbLine
 10
-103.3338392103036
 20
-964.1665784732718
 30
0.0
 11
-1523.333839210304
 21
-964.1665784732718
 31
0.0
  0
LINE
  5
AE
330
1F
100
AcDbEntity
  8
F-1
  6
JWW_DASHED1
 62
     7
370
     9
100
AcDbLine
 10
-103.3338392103036
 20
-859.9999051480683
 30
0.0
 11
-1523.333839210304
 21
-859.9999051480683
 31
0.0
  0
LINE
  5
AF
330
1F
100
AcDbEntity
  8
F-1
  6
JWW_DASHED1
 62
     7
370
     9
100
AcDbLine
 10
-103.3338392103036
 20
-1172.499925123679
 30
0.0
 11
-1523.333839210304
 21
-1172.499925123679
 31
0.0
  0
LINE
  5
B0
330
1F
100
AcDbEntity
  8
F-1
  6
JWW_DASHED1
 62
     7
370
     9
100
AcDbLine
 10
-103.3338392103036
 20
-755.8332318228647
 30
0.0
 11
-1523.333839210304
 21
-755.8332318228647
 31
0.0
  0
LINE
  5
B1
330
1F
100
AcDbEntity
  8
F-1
  6
JWW_DASHED1
 62
     7
370
     9
100
AcDbLine
 10
-103.3338392103036
 20
-443.3332118472535
 30
0.0
 11
-1523.333839210304
 21
-443.3332118472535
 31
0.0
  0
LINE
  5
B2
330
1F
100
AcDbEntity
  8
F-1
  6
JWW_DASHED1
 62
     7
370
     9
100
AcDbLine
 10
-103.3338392103036
 20
-234.9998651968463
 30
0.0
 11
-1523.333839210304
 21
-234.9998651968463
 31
0.0
  0
LINE
  5
B3
330
1F
100
AcDbEntity
  8
F-1
  6
JWW_DASHED1
 62
     7
370
     9
100
AcDbLine
 10
-103.3338392103036
 20
-547.499885172457
 30
0.0
 11
-1523.333839210304
 21
-547.499885172457
 31
0.0
  0
LINE
  5
B4
330
1F
100
AcDbEntity
  8
F-1
  6
JWW_DASHED1
 62
     7
370
     9
100
AcDbLine
 10
-103.3338392103036
 20
-130.8331918716431
 30
0.0
 11
-1523.333839210304
 21
-130.8331918716431
 31
0.0
  0
LINE
  5
B5
330
1F
100
AcDbEntity
  8
F-1
  6
JWW_DASHED1
 62
     7
370
     9
100
AcDbLine
 10
-103.3338392103036
 20
181.6668281039676
 30
0.0
 11
-1523.333839210304
 21
181.6668281039676
 31
0.0
  0
LINE
  5
B6
330
1F
100
AcDbEntity
  8
F-1
  6
JWW_DASHED1
 62
     7
370
     9
100
AcDbLine
 10
-103.3338392103036
 20
285.8335014291708
 30
0.0
 11
-1523.333839210304
 21
285.8335014291708
 31
0.0
  0
LINE
  5
B7
330
1F
100
AcDbEntity
  8
F-1
  6
JWW_DASHED1
 62
     7
370
     9
100
AcDbLine
 10
-103.3338392103036
 20
390.0001747543746
 30
0.0
 11
-1523.333839210304
 21
390.0001747543746
 31
0.0
  0
LINE
  5
B8
330
1F
100
AcDbEntity
  8
F-1
  6
JWW_DASHED1
 62
     7
370
     9
100
AcDbLine
 10
-103.3338392103036
 20
77.50015477876445
 30
0.0
 11
-1523.333839210304
 21
77.50015477876445
 31
0.0
  0
LINE
  5
B9
330
1F
100
AcDbEntity
  8
F-1
  6
JWW_DASHED1
 62
     7
370
     9
100
AcDbLine
 10
-103.3338392103036
 20
494.1668480795784
 30
0.0
 11
-1523.333839210304
 21
494.1668480795784
 31
0.0
  0
LINE
  5
BA
330
1F
100
AcDbEntity
  8
F-1
  6
JWW_DASHED1
 62
     7
370
     9
100
AcDbLine
 10
-103.3338392103036
 20
806.6668680551891
 30
0.0
 11
-1523.333839210304
 21
806.6668680551891
 31
0.0
  0
LINE
  5
BB
330
1F
100
AcDbEntity
  8
F-1
  6
JWW_DASHED1
 62
     7
370
     9
100
AcDbLine
 10
-103.3338392103036
 20
910.8335413803923
 30
0.0
 11
-1523.333839210304
 21
910.8335413803923
 31
0.0
  0
LINE
  5
BC
330
1F
100
AcDbEntity
  8
F-1
  6
JWW_DASHED1
 62
     7
370
     9
100
AcDbLine
 10
-103.3338392103036
 20
1015.000214705596
 30
0.0
 11
-1523.333839210304
 21
1015.000214705596
 31
0.0
  0
LINE
  5
BD
330
1F
100
AcDbEntity
  8
F-1
  6
JWW_DASHED1
 62
     7
370
     9
100
AcDbLine
 10
-103.3338392103036
 20
702.5001947299859
 30
0.0
 11
-1523.333839210304
 21
702.5001947299859
 31
0.0
  0
LINE
  5
BE
330
1F
100
AcDbEntity
  8
F-1
  6
JWW_DASHED1
 62
     7
370
     9
100
AcDbLine
 10
-103.3338392103036
 20
1119.1668880308
 30
0.0
 11
-1523.333839210304
 21
1119.1668880308
 31
0.0
  0
LINE
  5
BF
330
1F
100
AcDbEntity
  8
F-1
  6
JWW_DASHED1
 62
     7
370
     9
100
AcDbLine
 10
-103.3338392103036
 20
1431.66690800641
 30
0.0
 11
-1523.333839210304
 21
1431.66690800641
 31
0.0
  0
LINE
  5
C0
330
1F
100
AcDbEntity
  8
F-1
  6
JWW_DASHED1
 62
     7
370
     9
100
AcDbLine
 10
-103.3338392103036
 20
1327.500234681207
 30
0.0
 11
-1523.333839210304
 21
1327.500234681207
 31
0.0
  0
LINE
  5
C1
330
1F
100
AcDbEntity
  8
F-1
  6
JWW_DASHED1
 62
     7
370
     9
100
AcDbLine
 10
-103.3338392103036
 20
1744.166927982021
 30
0.0
 11
-1523.333839210304
 21
1744.166927982021
 31
0.0
  0
LINE
  5
C2
330
1F
100
AcDbEntity
  8
F-0
  6
JWW_HOJO
 62
   120
370
     5
100
AcDbLine
 10
-3993.33306389886
 20
2631.666919605152
 30
0.0
 11
3793.558316617399
 21
2631.666919605152
 31
0.0
  0
LINE
  5
C3
330
1F
100
AcDbEntity
  8
F-1
  6
Continuous
 62
     7
370
     9
100
AcDbLine
 10
2373.332651499156
 20
2783.365346547719
 30
0.0
 11
2373.332651499156
 21
-2530.000032991976
 31
0.0
  0
LINE
  5
C4
330
1F
100
AcDbEntity
  8
F-1
  6
Continuous
 62
     7
370
     9
100
AcDbLine
 10
2923.332651499156
 20
2631.634752428209
 30
0.0
 11
2373.332651499156
 21
2631.634752428209
 31
0.0
  0
LINE
  5
C5
330
1F
100
AcDbEntity
  8
F-1
  6
JWW_HOJO
 62
     7
370
     9
100
AcDbLine
 10
2963.332651499156
 20
2783.365346547719
 30
0.0
 11
2963.332651499156
 21
-2530.000032991977
 31
0.0
  0
LINE
  5
C6
330
1F
100
AcDbEntity
  8
F-1
  6
Continuous
 62
     7
370
     9
100
AcDbLine
 10
2923.332651499156
 20
2783.365346547719
 30
0.0
 11
2923.332651499156
 21
-2530.000032991977
 31
0.0
  0
LINE
  5
C7
330
1F
100
AcDbEntity
  8
F-1
  6
Continuous
 62
     7
370
     9
100
AcDbLine
 10
3473.332651499156
 20
2783.365346547719
 30
0.0
 11
3473.332651499156
 21
-2530.000032991977
 31
0.0
  0
LINE
  5
C8
330
1F
100
AcDbEntity
  8
F-1
  6
Continuous
 62
     7
370
     9
100
AcDbLine
 10
-3153.333352578653
 20
2473.333641258446
 30
0.0
 11
-3153.333352578653
 21
-2526.666678351325
 31
0.0
  0
LINE
  5
C9
330
1F
100
AcDbEntity
  8
F-1
  6
JWW_DASHED1
 62
     7
370
     9
100
AcDbLine
 10
-103.3338392103036
 20
2056.666947957632
 30
0.0
 11
-1523.333839210304
 21
2056.666947957632
 31
0.0
  0
LINE
  5
CA
330
1F
100
AcDbEntity
  8
F-1
  6
JWW_DASHED1
 62
     7
370
     9
100
AcDbLine
 10
-103.3338392103036
 20
2160.833621282835
 30
0.0
 11
-1523.333839210304
 21
2160.833621282835
 31
0.0
  0
LINE
  5
CB
330
1F
100
AcDbEntity
  8
F-1
  6
JWW_DASHED1
 62
     7
370
     9
100
AcDbLine
 10
-103.3338392103036
 20
2265.000294608039
 30
0.0
 11
-1523.333839210304
 21
2265.000294608039
 31
0.0
  0
LINE
  5
CC
330
1F
100
AcDbEntity
  8
F-1
  6
JWW_DASHED1
 62
     7
370
     9
100
AcDbLine
 10
-103.3338392103036
 20
1952.500274632429
 30
0.0
 11
-1523.333839210304
 21
1952.500274632429
 31
0.0
  0
LINE
  5
CD
330
1F
100
AcDbEntity
  8
F-1
  6
JWW_DASHED1
 62
     7
370
     9
100
AcDbLine
 10
-103.3338392103036
 20
2369.166967933243
 30
0.0
 11
-1523.333839210304
 21
2369.166967933243
 31
0.0
  0
LINE
  5
CE
330
1F
100
AcDbEntity
  8
F-1
  6
Continuous
 62
     7
370
     9
100
AcDbLine
 10
-3993.333326803671
 20
-1276.666598448882
 30
0.0
 11
3793.332651499156
 21
-1276.666598448882
 31
0.0
  0
LINE
  5
CF
330
1F
100
AcDbEntity
  8
F-1
  6
Continuous
 62
   200
370
    20
100
AcDbLine
 10
3799.999175200592
 20
2480.000164960446
 30
0.0
 11
-3999.999835040119
 21
2480.000164960446
 31
0.0
  0
LINE
  5
D0
330
1F
100
AcDbEntity
  8
F-1
  6
Continuous
 62
     7
370
     9
100
AcDbLine
 10
-1523.333839210304
 20
2783.365346547719
 30
0.0
 11
-1523.333839210304
 21
-2530.000032991976
 31
0.0
  0
LINE
  5
D1
330
1F
100
AcDbEntity
  8
F-1
  6
Continuous
 62
     7
370
     9
100
AcDbLine
 10
-973.3338392103042
 20
2631.666919605152
 30
0.0
 11
-1523.333839210304
 21
2631.666919605152
 31
0.0
  0
LINE
  5
D2
330
1F
100
AcDbEntity
  8
F-1
  6
JWW_HOJO
 62
     7
370
     9
100
AcDbLine
 10
-933.3338392103042
 20
2783.365346547719
 30
0.0
 11
-933.3338392103042
 21
-2530.000032991977
 31
0.0
  0
LINE
  5
D3
330
1F
100
AcDbEntity
  8
F-1
  6
Continuous
 62
     7
370
     9
100
AcDbLine
 10
-973.3338392103042
 20
2783.365346547719
 30
0.0
 11
-973.3338392103042
 21
-2530.000032991977
 31
0.0
  0
LINE
  5
D4
330
1F
100
AcDbEntity
  8
F-1
  6
Continuous
 62
     7
370
     9
100
AcDbLine
 10
-3293.333352578653
 20
2783.333179370777
 30
0.0
 11
-3293.333352578653
 21
-2526.666678351325
 31
0.0
  0
LINE
  5
D5
330
1F
100
AcDbEntity
  8
F-1
  6
Continuous
 62
     7
370
     9
100
AcDbLine
 10
-423.3338392103036
 20
2783.365346547719
 30
0.0
 11
-423.3338392103036
 21
-2530.000032991977
 31
0.0
  0
LINE
  5
D6
330
1F
100
AcDbEntity
  8
F-1
  6
Continuous
 62
     7
370
     9
100
AcDbLine
 10
603.3330144108953
 20
2783.36534654772
 30
0.0
 11
603.3330144108953
 21
-2530.000032991976
 31
0.0
  0
LINE
  5
D7
330
1F
100
AcDbEntity
  8
F-1
  6
Continuous
 62
   200
370
    20
100
AcDbLine
 10
3799.999175200592
 20
2473.333641258446
 30
0.0
 11
-3999.999835040119
 21
2473.333641258446
 31
0.0
  0
LINE
  5
D8
330
1F
100
AcDbEntity
  8
F-1
  6
Continuous
 62
   200
370
    20
100
AcDbLine
 10
-103.3338392103036
 20
2783.36534654772
 30
0.0
 11
-103.3338392103036
 21
-2530.000032991976
 31
0.0
  0
LINE
  5
D9
330
1F
100
AcDbEntity
  8
F-1
  6
Continuous
 62
   200
370
    20
100
AcDbLine
 10
-96.66731550886823
 20
2783.36534654772
 30
0.0
 11
-96.66731550886823
 21
-2530.000032991976
 31
0.0
  0
LINE
  5
DA
330
1F
100
AcDbEntity
  8
F-1
  6
Continuous
 62
   200
370
    20
100
AcDbLine
 10
-100.0005773595859
 20
2783.333179370777
 30
0.0
 11
-100.0005773595859
 21
-2530.000032991976
 31
0.0
  0
LINE
  5
DB
330
1F
100
AcDbEntity
  8
F-1
  6
Continuous
 62
   200
370
    20
100
AcDbLine
 10
3793.332651499156
 20
2783.333179370777
 30
0.0
 11
3793.332651499156
 21
-2803.333443306588
 31
0.0
  0
LINE
  5
DC
330
1F
100
AcDbEntity
  8
F-1
  6
Continuous
 62
   200
370
    20
100
AcDbLine
 10
3796.665665910051
 20
2783.333179370777
 30
0.0
 11
3796.665665910051
 21
-2803.333443306588
 31
0.0
  0
LINE
  5
DD
330
1F
100
AcDbEntity
  8
F-1
  6
Continuous
 62
   200
370
    20
100
AcDbLine
 10
-3996.666650514345
 20
2783.333179370777
 30
0.0
 11
-3996.666650514345
 21
-2803.333443306588
 31
0.0
  0
LINE
  5
DE
330
1F
100
AcDbEntity
  8
F-1
  6
Continuous
 62
   200
370
    20
100
AcDbLine
 10
-3999.999835040119
 20
2779.999670080237
 30
0.0
 11
3799.999175200592
 21
2779.999670080237
 31
0.0
  0
LINE
  5
DF
330
1F
100
AcDbEntity
  8
F-1
  6
Continuous
 62
   200
370
    20
100
AcDbLine
 10
-3999.999835040119
 20
2776.666655669342
 30
0.0
 11
3799.999175200592
 21
2776.666655669342
 31
0.0
  0
LINE
  5
E0
330
1F
100
AcDbEntity
  8
F-1
  6
Continuous
 62
   200
370
    20
100
AcDbLine
 10
-3999.999989690007
 20
2783.333179370777
 30
0.0
 11
-3999.999989690007
 21
-2803.333443306588
 31
0.0
  0
LINE
  5
E1
330
1F
100
AcDbEntity
  8
F-1
  6
Continuous
 62
   200
370
    20
100
AcDbLine
 10
3799.999175200592
 20
2783.333179370777
 30
0.0
 11
3799.999175200592
 21
-2803.333443306588
 31
0.0
  0
LINE
  5
E2
330
1F
100
AcDbEntity
  8
F-1
  6
Continuous
 62
   200
370
    20
100
AcDbLine
 10
-3999.999835040119
 20
2783.333179370777
 30
0.0
 11
3799.999175200592
 21
2783.333179370777
 31
0.0
  0
LINE
  5
E3
330
1F
100
AcDbEntity
  8
F-0
  6
JWW_HOJO
 62
   120
370
     5
100
AcDbLine
 10
3999.999340160473
 20
-2970.0
 30
0.0
 11
-4200.0
 21
-2970.0
 31
0.0
  0
LINE
  5
E4
330
1F
100
AcDbEntity
  8
F-0
  6
JWW_HOJO
 62
   120
370
     5
100
AcDbLine
 10
3999.999340160473
 20
2949.99973606419
 30
0.0
 11
3999.999340160473
 21
-2970.0
 31
0.0
  0
LINE
  5
E5
330
1F
100
AcDbEntity
  8
F-0
  6
JWW_HOJO
 62
   120
370
     5
100
AcDbLine
 10
-4200.0
 20
-2970.0
 30
0.0
 11
-4200.0
 21
2949.99973606419
 31
0.0
  0
LINE
  5
E6
330
1F
100
AcDbEntity
  8
F-0
  6
JWW_HOJO
 62
   120
370
     5
100
AcDbLine
 10
-4200.0
 20
2949.99973606419
 30
0.0
 11
3999.999340160473
 21
2949.99973606419
 31
0.0
  0
LINE
  5
E7
330
1F
100
AcDbEntity
  8
F-0
  6
JWW_HOJO
 62
   120
370
     5
100
AcDbLine
 10
1.666259765625
 20
2776.666655669342
 30
0.0
 11
1.666259765625
 21
-2526.72046558277
 31
0.0
  0
LINE
  5
E8
330
1F
100
AcDbEntity
  8
F-1
  6
Continuous
 62
   200
370
    20
100
AcDbLine
 10
-3993.333326803671
 20
2783.333179370777
 30
0.0
 11
-3993.333326803671
 21
-2803.333443306588
 31
0.0
  0
LINE
  5
E9
330
1F
100
AcDbEntity
  8
F-0
  6
JWW_HOJO
 62
   120
370
     5
100
AcDbLine
 10
-3893.333321648674
 20
2776.666655669342
 30
0.0
 11
-3893.333321648674
 21
-2523.647262985642
 31
0.0
  0
MTEXT
  5
EA
330
1F
100
AcDbEntity
  8
0-A
  6
Continuous
 62
     7
370
     9
100
AcDbMText
 10
-368.3338392103036
 20
2385.20404019473
 30
0.0
 40
45.72
 41
210.0
 46
0.0
 71
     7
 72
     1
  1
{\fＭＳ ゴシック|b0|i0|c128|p49;2(偶数)}
 73
     1
 44
1.0
  0
MTEXT
  5
EB
330
1F
100
AcDbEntity
  8
0-A
  6
Continuous
 62
     7
370
     9
100
AcDbMText
 10
-368.3338392103036
 20
2279.943631270641
 30
0.0
 40
45.72
 41
210.0
 46
0.0
 71
     7
 72
     1
  1
{\fＭＳ ゴシック|b0|i0|c128|p49;2(偶数)}
 73
     1
 44
1.0
  0
MTEXT
  5
EC
330
1F
100
AcDbEntity
  8
0-A
  6
Continuous
 62
     7
370
     9
100
AcDbMText
 10
-368.3338392103036
 20
2175.776957945437
 30
0.0
 40
45.72
 41
210.0
 46
0.0
 71
     7
 72
     1
  1
{\fＭＳ ゴシック|b0|i0|c128|p49;2(偶数)}
 73
     1
 44
1.0
  0
MTEXT
  5
ED
330
1F
100
AcDbEntity
  8
0-B
  6
Continuous
 62
     7
370
   211
100
AcDbMText
 10
-2294.344621429941
 20
2358.608246843637
 30
0.0
 40
45.72
 41
60.0
 46
0.0
 71
     7
 72
     1
  1
{\fＭＳ ゴシック|b0|i0|c128|p49;27}
 73
     1
 44
1.0
  0
MTEXT
  5
EE
330
1F
100
AcDbEntity
  8
0-B
  6
Continuous
 62
     7
370
   211
100
AcDbMText
 10
-2080.380155335874
 20
2316.285916373302
 30
0.0
 40
45.71999999999976
 41
29.99999999999984
 46
0.0
 71
     7
 72
     1
  1
{\fＭＳ ゴシック|b0|i0|c128|p49;5}
 11
0.7071067811865097
 21
-0.7071067811865853
 31
0.0
 73
     1
 44
1.0
  0
MTEXT
  5
EF
330
1F
100
AcDbEntity
  8
0-B
  6
Continuous
 62
     7
370
   211
100
AcDbMText
 10
-2506.844621429941
 20
2154.608246843637
 30
0.0
 40
45.72
 41
90.0
 46
0.0
 71
     7
 72
     1
  1
{\fＭＳ ゴシック|b0|i0|c128|p49;8.8}
 11
6.123031769111886E-17
 21
1.0
 31
0.0
 73
     1
 44
1.0
  0
MTEXT
  5
F0
330
1F
100
AcDbEntity
  8
F-1
  6
Continuous
 62
     7
370
     0
100
AcDbMText
 10
-1333.333839210304
 20
2656.551787637247
 30
0.0
 40
64.77
 41
170.0
 46
0.0
 71
     7
 72
     1
  1
{\fＭＳ ゴシック|b0|i0|c128|p49;寸法}
 73
     1
 44
1.0
  0
MTEXT
  5
F1
330
1F
100
AcDbEntity
  8
F-1
  6
Continuous
 62
     7
370
     0
100
AcDbMText
 10
-348.3338392103036
 20
2656.551787637246
 30
0.0
 40
64.77
 41
170.0
 46
0.0
 71
     7
 72
     1
  1
{\fＭＳ ゴシック|b0|i0|c128|p49;発注}
 73
     1
 44
1.0
  0
MTEXT
  5
F2
330
1F
100
AcDbEntity
  8
F-1
  6
Continuous
 62
     7
370
     0
100
AcDbMText
 10
2563.332651499156
 20
2656.535704048775
 30
0.0
 40
64.77
 41
170.0
 46
0.0
 71
     7
 72
     1
  1
{\fＭＳ ゴシック|b0|i0|c128|p49;寸法}
 73
     1
 44
1.0
  0
MTEXT
  5
F3
330
1F
100
AcDbEntity
  8
F-1
  6
Continuous
 62
     7
370
     0
100
AcDbMText
 10
3548.333146378802
 20
2656.519620460303
 30
0.0
 40
64.77
 41
170.0
 46
0.0
 71
     7
 72
     1
  1
{\fＭＳ ゴシック|b0|i0|c128|p49;発注}
 73
     1
 44
1.0
  0
MTEXT
  5
F4
330
1F
100
AcDbEntity
  8
F-1
  6
Continuous
 62
     7
370
     0
100
AcDbMText
 10
-783.3338392103042
 20
2584.051919605152
 30
0.0
 40
64.77
 41
170.0
 46
0.0
 71
     7
 72
     1
  1
{\fＭＳ ゴシック|b0|i0|c128|p49;品番}
 73
     1
 44
1.0
  0
MTEXT
  5
F5
330
1F
100
AcDbEntity
  8
F-1
  6
Continuous
 62
     7
370
     0
100
AcDbMText
 10
3113.332651499156
 20
2584.035836016682
 30
0.0
 40
64.77
 41
170.0
 46
0.0
 71
     7
 72
     1
  1
{\fＭＳ ゴシック|b0|i0|c128|p49;品番}
 73
     1
 44
1.0
  0
MTEXT
  5
F6
330
1F
100
AcDbEntity
  8
F-1
  6
Continuous
 62
     7
370
     0
100
AcDbMText
 10
-1518.333839210304
 20
2502.027051573059
 30
0.0
 40
45.72
 41
540.0
 46
0.0
 71
     7
 72
     1
  1
{\fＭＳ ゴシック|b0|i0|c128|p49;長さ×幅×厚さ(㎜)}
 73
     1
 44
1.0
  0
MTEXT
  5
F7
330
1F
100
AcDbEntity
  8
F-1
  6
Continuous
 62
     7
370
     0
100
AcDbMText
 10
-348.3338392103036
 20
2508.218542282799
 30
0.0
 40
64.77
 41
170.0
 46
0.0
 71
     7
 72
     1
  1
{\fＭＳ ゴシック|b0|i0|c128|p49;単位}
 73
     1
 44
1.0
  0
MTEXT
  5
F8
330
1F
100
AcDbEntity
  8
F-1
  6
Continuous
 62
     7
370
     0
100
AcDbMText
 10
3548.332651499156
 20
2508.218542282799
 30
0.0
 40
64.77
 41
170.0
 46
0.0
 71
     7
 72
     1
  1
{\fＭＳ ゴシック|b0|i0|c128|p49;単位}
 73
     1
 44
1.0
  0
MTEXT
  5
F9
330
1F
100
AcDbEntity
  8
F-1
  6
Continuous
 62
     7
370
     0
100
AcDbMText
 10
2378.332651499156
 20
2495.344196843327
 30
0.0
 40
45.72
 41
540.0
 46
0.0
 71
     7
 72
     1
  1
{\fＭＳ ゴシック|b0|i0|c128|p49;長さ×幅×厚さ(㎜)}
 73
     1
 44
1.0
  0
MTEXT
  5
FA
330
1F
100
AcDbEntity
  8
F-A
  6
Continuous
 62
     7
370
     0
100
AcDbMText
 10
-3773.333208238756
 20
2584.686919605152
 30
0.0
 40
66.04
 41
260.0
 46
0.0
 71
     7
 72
     1
  1
{\fＭＳ ゴシック|b0|i0|c128|p49;部材名}
 73
     1
 44
1.0
  0
MTEXT
  5
FB
330
1F
100
AcDbEntity
  8
F-A
  6
Continuous
 62
     7
370
     0
100
AcDbMText
 10
123.3328494510135
 20
2584.686919605152
 30
0.0
 40
66.04
 41
260.0
 46
0.0
 71
     7
 72
     1
  1
{\fＭＳ ゴシック|b0|i0|c128|p49;部材名}
 73
     1
 44
1.0
  0
MTEXT
  5
FC
330
1F
100
AcDbEntity
  8
F-A
  6
Continuous
 62
     7
370
     0
100
AcDbMText
 10
-2623.333719614389
 20
2585.004287637247
 30
0.0
 40
66.675
 41
350.0
 46
0.0
 71
     7
 72
     1
  1
{\fＭＳ ゴシック|b0|i0|c128|p49;断面形状}
 73
     1
 44
1.0
  0
MTEXT
  5
FD
330
1F
100
AcDbEntity
  8
F-A
  6
Continuous
 62
     7
370
     0
100
AcDbMText
 10
1273.333327834671
 20
2585.004287637247
 30
0.0
 40
66.675
 41
350.0
 46
0.0
 71
     7
 72
     1
  1
{\fＭＳ ゴシック|b0|i0|c128|p49;断面形状}
 73
     1
 44
1.0
  0
MTEXT
  5
FE
330
1F
100
AcDbEntity
  8
F-A
  6
Continuous
 62
     7
370
     0
100
AcDbMText
 10
-40.0000824799406
 20
-2591.426547247957
 30
0.0
 40
30.48
 41
120.0
 46
0.0
 71
     7
 72
     1
  1
{\fＭＳ ゴシック|b0|i0|c128|p49;図面名}
 73
     1
 44
1.0
  0
MTEXT
  5
FF
330
1F
100
AcDbEntity
  8
F-A
  6
Continuous
 62
     7
370
     0
100
AcDbMText
 10
1853.332486539274
 20
-2591.428307078516
 30
0.0
 40
30.48
 41
200.0
 46
0.0
 71
     7
 72
     1
  1
{\fＭＳ ゴシック|b0|i0|c128|p49;ＳＣＡＬＥ}
 73
     1
 44
1.0
  0
MTEXT
  5
100
330
1F
100
AcDbEntity
  8
F-A
  6
Continuous
 62
     7
370
     0
100
AcDbMText
 10
2853.332816459038
 20
-2591.429236567169
 30
0.0
 40
30.48
 41
160.0
 46
0.0
 71
     7
 72
     1
  1
{\fＭＳ ゴシック|b0|i0|c128|p49;ＤＡＴＥ}
 73
     1
 44
1.0
  0
MTEXT
  5
101
330
1F
100
AcDbEntity
  8
F-A
  6
Continuous
 62
     7
370
     0
100
AcDbMText
 10
786.9451346024795
 20
-2630.758774399892
 30
0.0
 40
51.816
 41
340.0
 46
0.0
 71
     7
 72
     1
  1
{\fＭＳ ゴシック|b0|i0|c128|p49;洋風造作材}
 73
     1
 44
1.0
  0
MTEXT
  5
102
330
1F
100
AcDbEntity
  8
F-A
  6
Continuous
 62
     7
370
     0
100
AcDbMText
 10
2273.332651499156
 20
-2631.268743938205
 30
0.0
 40
50.8
 41
100.0
 46
0.0
 71
     7
 72
     1
  1
{\fＭＳ ゴシック|b0|i0|c128|p49;1/2}
 73
     1
 44
1.0
  0
MTEXT
  5
103
330
1F
100
AcDbEntity
  8
F-A
  6
Continuous
 62
     7
370
     0
100
AcDbMText
 10
233.3332783467063
 20
-2634.331527915002
 30
0.0
 40
45.72
 41
240.0
 46
0.0
 71
     7
 72
     1
  1
{\fＭＳ ゴシック|b0|i0|c128|p49;DOORETUS}
 73
     1
 44
1.0
  0
MTEXT
  5
104
330
1F
100
AcDbEntity
  8
F-A
  6
Continuous
 62
     7
370
     0
100
AcDbMText
 10
1853.332486539274
 20
-2724.761642118573
 30
0.0
 40
30.48
 41
160.0
 46
0.0
 71
     7
 72
     1
  1
{\fＭＳ ゴシック|b0|i0|c128|p49;ＦＩＬＥ}
 73
     1
 44
1.0
  0
MTEXT
  5
105
330
1F
100
AcDbEntity
  8
F-A
  6
Continuous
 62
     7
370
     0
100
AcDbMText
 10
2853.332816459038
 20
-2724.762571607227
 30
0.0
 40
30.48
 41
120.0
 46
0.0
 71
     7
 72
     1
  1
{\fＭＳ ゴシック|b0|i0|c128|p49;ＮＯ．}
 73
     1
 44
1.0
  0
MTEXT
  5
106
330
1F
100
AcDbEntity
  8
F-A
  6
Continuous
 62
     7
370
     0
100
AcDbMText
 10
823.332486539274
 20
-2730.760446177432
 30
0.0
 40
30.48
 41
80.0
 46
0.0
 71
     7
 72
     1
  1
{\fＭＳ ゴシック|b0|i0|c128|p49;株式}
 73
     1
 44
1.0
  0
MTEXT
  5
107
330
1F
100
AcDbEntity
  8
F-A
  6
Continuous
 62
     7
370
     0
100
AcDbMText
 10
963.332486539274
 20
-2776.187836349286
 30
0.0
 40
67.6275
 41
710.0
 46
0.0
 71
     7
 72
     1
  1
{\fＭＳ ゴシック|b0|i0|c128|p49;ウッドワン・・・}
 73
     1
 44
1.0
  0
MTEXT
  5
108
330
1F
100
AcDbEntity
  8
F-A
  6
Continuous
 62
     7
370
     0
100
AcDbMText
 10
823.332486539274
 20
-2778.760446177458
 30
0.0
 40
30.48
 41
80.0
 46
0.0
 71
     7
 72
     1
  1
{\fＭＳ ゴシック|b0|i0|c128|p49;会社}
 73
     1
 44
1.0
  0
MTEXT
  5
109
330
1F
100
AcDbEntity
  8
F-A
  6
Continuous
 62
     7
370
     0
100
AcDbMText
 10
3738.935540739808
 20
-2876.560837759023
 30
0.0
 40
45.72
 41
60.0
 46
0.0
 71
     7
 72
     1
  1
{\fＭＳ ゴシック|b0|i0|c128|p49;）}
 73
     1
 44
1.0
  0
MTEXT
  5
10A
330
1F
100
AcDbEntity
  8
F-A
  6
Continuous
 62
     7
370
     0
100
AcDbMText
 10
3460.130633894714
 20
-2877.490187658314
 30
0.0
 40
45.72
 41
30.0
 46
0.0
 71
     7
 72
     1
  1
{\fＭＳ ゴシック|b0|i0|c128|p49;,}
 73
     1
 44
1.0
  0
MTEXT
  5
10B
330
1F
100
AcDbEntity
  8
F-A
  6
Continuous
 62
     7
370
     0
100
AcDbMText
 10
3282.624841276916
 20
-2876.514536603932
 30
0.0
 40
49.53
 41
65.0
 46
0.0
 71
     7
 72
     1
  1
{\fＭＳ ゴシック|b0|i0|c128|p49;$y}
 73
     1
 44
1.0
  0
MTEXT
  5
10C
330
1F
100
AcDbEntity
  8
F-A
  6
Continuous
 62
     7
370
     0
100
AcDbMText
 10
3385.782655302796
 20
-2876.514536603932
 30
0.0
 40
49.53
 41
65.0
 46
0.0
 71
     7
 72
     1
  1
{\fＭＳ ゴシック|b0|i0|c128|p49;$m}
 73
     1
 44
1.0
  0
MTEXT
  5
10D
330
1F
100
AcDbEntity
  8
F-A
  6
Continuous
 62
     7
370
     0
100
AcDbMText
 10
3488.940476958069
 20
-2876.514536603932
 30
0.0
 40
49.53
 41
65.0
 46
0.0
 71
     7
 72
     1
  1
{\fＭＳ ゴシック|b0|i0|c128|p49;$d}
 73
     1
 44
1.0
  0
MTEXT
  5
10E
330
1F
100
AcDbEntity
  8
F-A
  6
Continuous
 62
     7
370
     0
100
AcDbMText
 10
3592.098298613341
 20
-2876.514536603932
 30
0.0
 40
49.53
 41
130.0
 46
0.0
 71
     7
 72
     1
  1
{\fＭＳ ゴシック|b0|i0|c128|p49;印刷}
 73
     1
 44
1.0
  0
MTEXT
  5
10F
330
1F
100
AcDbEntity
  8
F-A
  6
Continuous
 62
     7
370
     0
100
AcDbMText
 10
3189.355582835333
 20
-2879.348887456898
 30
0.0
 40
45.72
 41
60.0
 46
0.0
 71
     7
 72
     1
  1
{\fＭＳ ゴシック|b0|i0|c128|p49;（}
 73
     1
 44
1.0
  0
MTEXT
  5
110
330
1F
100
AcDbEntity
  8
F-A
  6
Continuous
 62
     7
370
     0
100
AcDbMText
 10
3354.184762541563
 20
-2879.348887456898
 30
0.0
 40
45.72
 41
30.0
 46
0.0
 71
     7
 72
     1
  1
{\fＭＳ ゴシック|b0|i0|c128|p49;,}
 73
     1
 44
1.0
  0
MTEXT
  5
111
330
1F
100
AcDbEntity
  8
F-A
  6
Continuous
 62
     7
370
     9
100
AcDbMText
 10
3290.832689053887
 20
-2765.238008466657
 30
0.0
 40
49.53
 41
65.0
 46
0.0
 71
     7
 72
     1
  1
{\fＭＳ ゴシック|b0|i0|c128|p49;02}
 73
     1
 44
1.0
  0
MTEXT
  5
112
330
1F
100
AcDbEntity
  8
0-A
  6
Continuous
 62
     7
370
     9
100
AcDbMText
 10
-1443.333839210304
 20
2384.110304595844
 30
0.0
 40
45.71999999999999
 41
390.0
 46
0.0
 71
     7
 72
     1
  1
{\fＭＳ ゴシック|b0|i0|c128|p49;3,900×27×50}
 73
     1
 44
1.0
  0
MTEXT
  5
113
330
1F
100
AcDbEntity
  8
0-A
  6
Continuous
 62
     7
370
     9
100
AcDbMText
 10
-1443.333839210304
 20
2279.943631270641
 30
0.0
 40
45.71999999999999
 41
390.0
 46
0.0
 71
     7
 72
     1
  1
{\fＭＳ ゴシック|b0|i0|c128|p49;2,450×27×50}
 73
     1
 44
1.0
  0
MTEXT
  5
114
330
1F
100
AcDbEntity
  8
0-A
  6
Continuous
 62
     7
370
     9
100
AcDbMText
 10
-1443.333839210304
 20
2175.776957945437
 30
0.0
 40
45.71999999999999
 41
390.0
 46
0.0
 71
     7
 72
     1
  1
{\fＭＳ ゴシック|b0|i0|c128|p49;2,075×27×50}
 73
     1
 44
1.0
  0
MTEXT
  5
115
330
1F
100
AcDbEntity
  8
0-A
  6
Continuous
 62
     7
370
     9
100
AcDbMText
 10
-933.3338392103042
 20
2384.110304595844
 30
0.0
 40
45.71999999999999
 41
390.0
 46
0.0
 71
     7
 72
     1
  1
{\fＭＳ ゴシック|b0|i0|c128|p49;ＤＧＢＶ16-□}
 73
     1
 44
1.0
  0
MTEXT
  5
116
330
1F
100
AcDbEntity
  8
0-A
  6
Continuous
 62
     7
370
     9
100
AcDbMText
 10
-933.3338392103042
 20
2279.943631270641
 30
0.0
 40
45.71999999999999
 41
390.0
 46
0.0
 71
     7
 72
     1
  1
{\fＭＳ ゴシック|b0|i0|c128|p49;ＤＧＢＶ14-□}
 73
     1
 44
1.0
  0
MTEXT
  5
117
330
1F
100
AcDbEntity
  8
0-A
  6
Continuous
 62
     7
370
     9
100
AcDbMText
 10
-933.3338392103042
 20
2175.776957945437
 30
0.0
 40
45.71999999999999
 41
390.0
 46
0.0
 71
     7
 72
     1
  1
{\fＭＳ ゴシック|b0|i0|c128|p49;ＤＧＢＶ13-□}
 73
     1
 44
1.0
  0
LINE
  5
118
330
1F
100
AcDbEntity
  8
F-1
  6
Continuous
 62
     7
370
     9
100
AcDbLine
 10
-3993.333326803671
 20
598.3335214047815
 30
0.0
 11
3793.332651499156
 21
598.3335214047815
 31
0.0
  0
LINE
  5
119
330
1F
100
AcDbEntity
  8
0-B
  6
Continuous
 62
   120
370
     5
100
AcDbLine
 10
-2056.133943311286
 20
1384.124308105062
 30
0.0
 11
-2091.489282370615
 21
1348.768969045734
 31
0.0
  0
LINE
  5
11A
330
1F
100
AcDbEntity
  8
0-B
  6
Continuous
 62
   120
370
     5
100
AcDbLine
 10
-2070.276078935017
 20
1398.266443728793
 30
0.0
 11
-2105.631417994346
 21
1362.911104669465
 31
0.0
  0
LWPOLYLINE
  5
11B
330
1F
100
AcDbEntity
  8
0-B
  6
Continuous
 62
     7
370
     9
100
AcDbPolyline
 90
        4
 70
     1
 43
2.0
 10
-2055.133943311286
 20
1384.124308105062
 42
0.4142135623731
 10
-2056.133943311286
 20
1385.124308105062
 42
0.4142135623731
 10
-2057.133943311286
 20
1384.124308105062
 42
0.4142135623731
 10
-2056.133943311286
 20
1383.124308105062
 42
0.4142135623731
  0
LWPOLYLINE
  5
11C
330
1F
100
AcDbEntity
  8
0-B
  6
Continuous
 62
     7
370
     9
100
AcDbPolyline
 90
        4
 70
     1
 43
2.0
 10
-2069.276078935017
 20
1398.266443728793
 42
0.4142135623731
 10
-2070.276078935017
 20
1399.266443728793
 42
0.4142135623731
 10
-2071.276078935017
 20
1398.266443728793
 42
0.4142135623731
 10
-2070.276078935017
 20
1397.266443728793
 42
0.4142135623731
  0
LINE
  5
11D
330
1F
100
AcDbEntity
  8
0-B
  6
Continuous
 62
   120
370
     5
100
AcDbLine
 10
-2070.276078935017
 20
1398.266443728793
 30
0.0
 11
-2056.133943311286
 21
1384.124308105062
 31
0.0
  0
LINE
  5
11E
330
1F
100
AcDbEntity
  8
0-B
  6
Continuous
 62
   120
370
     5
100
AcDbLine
 10
-2026.844621429941
 20
1327.555765610138
 30
0.0
 11
-2076.844621429941
 21
1327.555765610138
 31
0.0
  0
LWPOLYLINE
  5
11F
330
1F
100
AcDbEntity
  8
0-B
  6
Continuous
 62
     7
370
     9
100
AcDbPolyline
 90
        4
 70
     1
 43
2.0
 10
-2025.844621429941
 20
1327.555765610138
 42
0.4142135623731
 10
-2026.844621429941
 20
1328.555765610138
 42
0.4142135623731
 10
-2027.844621429941
 20
1327.555765610138
 42
0.4142135623731
 10
-2026.844621429941
 20
1326.555765610138
 42
0.4142135623731
  0
LINE
  5
120
330
1F
100
AcDbEntity
  8
0-B
  6
Continuous
 62
   120
370
     5
100
AcDbLine
 10
-2456.844621429941
 20
1239.555765610138
 30
0.0
 11
-2406.844621429941
 21
1239.555765610138
 31
0.0
  0
LINE
  5
121
330
1F
100
AcDbEntity
  8
0-B
  6
Continuous
 62
   120
370
     5
100
AcDbLine
 10
-2456.844621429941
 20
1327.555765610138
 30
0.0
 11
-2406.844621429941
 21
1327.555765610138
 31
0.0
  0
LWPOLYLINE
  5
122
330
1F
100
AcDbEntity
  8
0-B
  6
Continuous
 62
     7
370
     9
100
AcDbPolyline
 90
        4
 70
     1
 43
2.0
 10
-2455.844621429941
 20
1239.555765610138
 42
0.4142135623731
 10
-2456.844621429941
 20
1240.555765610138
 42
0.4142135623731
 10
-2457.844621429941
 20
1239.555765610138
 42
0.4142135623731
 10
-2456.844621429941
 20
1238.555765610138
 42
0.4142135623731
  0
LWPOLYLINE
  5
123
330
1F
100
AcDbEntity
  8
0-B
  6
Continuous
 62
     7
370
     9
100
AcDbPolyline
 90
        4
 70
     1
 43
2.0
 10
-2455.844621429941
 20
1327.555765610138
 42
0.4142135623731
 10
-2456.844621429941
 20
1328.555765610138
 42
0.4142135623731
 10
-2457.844621429941
 20
1327.555765610138
 42
0.4142135623731
 10
-2456.844621429941
 20
1326.555765610138
 42
0.4142135623731
  0
LINE
  5
124
330
1F
100
AcDbEntity
  8
0-B
  6
Continuous
 62
   120
370
     5
100
AcDbLine
 10
-2456.844621429941
 20
1327.555765610138
 30
0.0
 11
-2456.844621429941
 21
1239.555765610138
 31
0.0
  0
LINE
  5
125
330
1F
100
AcDbEntity
  8
0-B
  6
Continuous
 62
   120
370
     5
100
AcDbLine
 10
-2126.844621429941
 20
1427.555765610138
 30
0.0
 11
-2126.844621429941
 21
1377.555765610138
 31
0.0
  0
LINE
  5
126
330
1F
100
AcDbEntity
  8
0-B
  6
Continuous
 62
   120
370
     5
100
AcDbLine
 10
-2356.844621429941
 20
1427.555765610138
 30
0.0
 11
-2356.844621429941
 21
1377.555765610138
 31
0.0
  0
LWPOLYLINE
  5
127
330
1F
100
AcDbEntity
  8
0-B
  6
Continuous
 62
     7
370
     9
100
AcDbPolyline
 90
        4
 70
     1
 43
2.0
 10
-2125.844621429941
 20
1427.555765610138
 42
0.4142135623731
 10
-2126.844621429941
 20
1428.555765610138
 42
0.4142135623731
 10
-2127.844621429941
 20
1427.555765610138
 42
0.4142135623731
 10
-2126.844621429941
 20
1426.555765610138
 42
0.4142135623731
  0
LWPOLYLINE
  5
128
330
1F
100
AcDbEntity
  8
0-B
  6
Continuous
 62
     7
370
     9
100
AcDbPolyline
 90
        4
 70
     1
 43
2.0
 10
-2355.844621429941
 20
1427.555765610138
 42
0.4142135623731
 10
-2356.844621429941
 20
1428.555765610138
 42
0.4142135623731
 10
-2357.844621429941
 20
1427.555765610138
 42
0.4142135623731
 10
-2356.844621429941
 20
1426.555765610138
 42
0.4142135623731
  0
LINE
  5
129
330
1F
100
AcDbEntity
  8
0-B
  6
Continuous
 62
   120
370
     5
100
AcDbLine
 10
-2356.844621429941
 20
1427.555765610138
 30
0.0
 11
-2126.844621429941
 21
1427.555765610138
 31
0.0
  0
LINE
  5
12A
330
1F
100
AcDbEntity
  8
0-0
  6
JWW_HOJO
 62
     7
370
     9
100
AcDbLine
 10
-2406.844621429941
 20
1377.555765610138
 30
0.0
 11
-2120.276078935017
 21
1377.555765610138
 31
0.0
  0
LINE
  5
12B
330
1F
100
AcDbEntity
  8
0-0
  6
JWW_HOJO
 62
     7
370
     9
100
AcDbLine
 10
-2120.276078935017
 20
1377.555765610138
 30
0.0
 11
-2076.844621429941
 21
1334.124308105062
 31
0.0
  0
LINE
  5
12C
330
1F
100
AcDbEntity
  8
0-0
  6
JWW_HOJO
 62
     7
370
     9
100
AcDbLine
 10
-2456.844621429941
 20
1427.555765610138
 30
0.0
 11
-2099.565400816364
 21
1427.555765610138
 31
0.0
  0
LINE
  5
12D
330
1F
100
AcDbEntity
  8
0-0
  6
JWW_HOJO
 62
     7
370
     9
100
AcDbLine
 10
-2099.565400816364
 20
1427.555765610138
 30
0.0
 11
-2026.844621429941
 21
1354.834986223716
 31
0.0
  0
LINE
  5
12E
330
1F
100
AcDbEntity
  8
0-4
  6
Continuous
 62
    92
370
    13
100
AcDbLine
 10
-2143.057824865539
 20
1322.555765610138
 30
0.0
 11
-2131.844621429941
 21
1311.342562174541
 31
0.0
  0
LINE
  5
12F
330
1F
100
AcDbEntity
  8
0-4
  6
Continuous
 62
    92
370
    13
100
AcDbLine
 10
-2140.986757053672
 20
1327.555765610138
 30
0.0
 11
-2126.844621429941
 21
1313.413629986406
 31
0.0
  0
LINE
  5
130
330
1F
100
AcDbEntity
  8
0-4
  6
Continuous
 62
    92
370
    13
100
AcDbLine
 10
-2356.844621429941
 20
1322.555765610138
 30
0.0
 11
-2143.057824865539
 21
1322.555765610138
 31
0.0
  0
LINE
  5
131
330
1F
100
AcDbEntity
  8
0-4
  6
Continuous
 62
    92
370
    13
100
AcDbLine
 10
-2356.844621429941
 20
1327.555765610138
 30
0.0
 11
-2140.986757053672
 21
1327.555765610138
 31
0.0
  0
LINE
  5
132
330
1F
100
AcDbEntity
  8
0-4
  6
Continuous
 62
    92
370
    13
100
AcDbLine
 10
-2356.844621429941
 20
1239.555765610138
 30
0.0
 11
-2206.844621429941
 21
1239.555765610138
 31
0.0
  0
LINE
  5
133
330
1F
100
AcDbEntity
  8
0-4
  6
Continuous
 62
    92
370
    13
100
AcDbLine
 10
-2356.844621429941
 20
1327.555765610138
 30
0.0
 11
-2356.844621429941
 21
1239.555765610138
 31
0.0
  0
MTEXT
  5
134
330
1F
100
AcDbEntity
  8
0-A
  6
Continuous
 62
     7
370
     9
100
AcDbMText
 10
-368.3338392103036
 20
1447.703980267898
 30
0.0
 40
45.72
 41
210.0
 46
0.0
 71
     7
 72
     1
  1
{\fＭＳ ゴシック|b0|i0|c128|p49;2(偶数)}
 73
     1
 44
1.0
  0
MTEXT
  5
135
330
1F
100
AcDbEntity
  8
0-B
  6
Continuous
 62
     7
370
   211
100
AcDbMText
 10
-2274.344621429941
 20
1430.415765610137
 30
0.0
 40
45.72
 41
60.0
 46
0.0
 71
     7
 72
     1
  1
{\fＭＳ ゴシック|b0|i0|c128|p49;23}
 73
     1
 44
1.0
  0
MTEXT
  5
136
330
1F
100
AcDbEntity
  8
0-B
  6
Continuous
 62
     7
370
   211
100
AcDbMText
 10
-2066.740545029086
 20
1401.73304544659
 30
0.0
 40
45.71999999999976
 41
29.99999999999984
 46
0.0
 71
     7
 72
     1
  1
{\fＭＳ ゴシック|b0|i0|c128|p49;2}
 11
0.707106781186585
 21
-0.7071067811865099
 31
0.0
 73
     1
 44
1.0
  0
MTEXT
  5
137
330
1F
100
AcDbEntity
  8
0-B
  6
Continuous
 62
     7
370
   211
100
AcDbMText
 10
-2466.844621429941
 20
1226.415765610138
 30
0.0
 40
45.72
 41
90.0
 46
0.0
 71
     7
 72
     1
  1
{\fＭＳ ゴシック|b0|i0|c128|p49;8.8}
 11
6.123031769111886E-17
 21
1.0
 31
0.0
 73
     1
 44
1.0
  0
MTEXT
  5
138
330
1F
100
AcDbEntity
  8
0-A
  6
Continuous
 62
     7
370
     9
100
AcDbMText
 10
-368.3338392103036
 20
1342.443571343808
 30
0.0
 40
45.72
 41
210.0
 46
0.0
 71
     7
 72
     1
  1
{\fＭＳ ゴシック|b0|i0|c128|p49;2(偶数)}
 73
     1
 44
1.0
  0
MTEXT
  5
139
330
1F
100
AcDbEntity
  8
0-A
  6
Continuous
 62
     7
370
     9
100
AcDbMText
 10
-1443.333839210304
 20
1446.610244669012
 30
0.0
 40
45.71999999999999
 41
390.0
 46
0.0
 71
     7
 72
     1
  1
{\fＭＳ ゴシック|b0|i0|c128|p49;3,900×23×50}
 73
     1
 44
1.0
  0
MTEXT
  5
13A
330
1F
100
AcDbEntity
  8
0-A
  6
Continuous
 62
     7
370
     9
100
AcDbMText
 10
-1443.333839210304
 20
1342.443571343808
 30
0.0
 40
45.71999999999999
 41
390.0
 46
0.0
 71
     7
 72
     1
  1
{\fＭＳ ゴシック|b0|i0|c128|p49;2,075×23×50}
 73
     1
 44
1.0
  0
MTEXT
  5
13B
330
1F
100
AcDbEntity
  8
0-A
  6
Continuous
 62
     7
370
     9
100
AcDbMText
 10
-933.3338392103042
 20
1446.610244669012
 30
0.0
 40
45.71999999999999
 41
390.0
 46
0.0
 71
     7
 72
     1
  1
{\fＭＳ ゴシック|b0|i0|c128|p49;ＤＧＢＶ26-□}
 73
     1
 44
1.0
  0
MTEXT
  5
13C
330
1F
100
AcDbEntity
  8
0-A
  6
Continuous
 62
     7
370
     9
100
AcDbMText
 10
-933.3338392103044
 20
1342.443571343808
 30
0.0
 40
45.71999999999999
 41
390.0
 46
0.0
 71
     7
 72
     1
  1
{\fＭＳ ゴシック|b0|i0|c128|p49;ＤＧＢＶ23-□}
 73
     1
 44
1.0
  0
LINE
  5
13D
330
1F
100
AcDbEntity
  8
F-1
  6
JWW_DASHED1
 62
     7
370
     9
100
AcDbLine
 10
-3293.333352578653
 20
1535.833581331614
 30
0.0
 11
-103.3338392103036
 21
1535.833581331614
 31
0.0
  0
LINE
  5
13E
330
1F
100
AcDbEntity
  8
F-1
  6
JWW_DASHED1
 62
     7
370
     9
100
AcDbLine
 10
-103.3338392103036
 20
1848.333601307225
 30
0.0
 11
-1523.333839210304
 21
1848.333601307225
 31
0.0
  0
LINE
  5
13F
330
1F
100
AcDbEntity
  8
F-1
  6
JWW_DASHED1
 62
     7
370
     9
100
AcDbLine
 10
-103.3338392103036
 20
1223.333561356004
 30
0.0
 11
-1523.333839210304
 21
1223.333561356004
 31
0.0
  0
LINE
  5
140
330
1F
100
AcDbEntity
  8
F-1
  6
JWW_DASHED1
 62
     7
370
     9
100
AcDbLine
 10
3793.332651499156
 20
1223.333561356004
 30
0.0
 11
2373.332651499156
 21
1223.333561356004
 31
0.0
  0
LINE
  5
141
330
1F
100
AcDbEntity
  8
F-1
  6
JWW_DASHED1
 62
     7
370
     9
100
AcDbLine
 10
603.3330144108953
 20
1535.833581331614
 30
0.0
 11
3793.332651499156
 21
1535.833581331614
 31
0.0
  0
LINE
  5
142
330
1F
100
AcDbEntity
  8
F-1
  6
JWW_DASHED1
 62
     7
370
     9
100
AcDbLine
 10
3793.332651499156
 20
1848.333601307225
 30
0.0
 11
2373.332651499156
 21
1848.333601307225
 31
0.0
  0
MTEXT
  5
143
330
1F
100
AcDbEntity
  8
0-A
  6
Continuous
 62
     7
370
     0
100
AcDbMText
 10
-3263.333352578653
 20
2121.313621282835
 30
0.0
 40
60.96
 41
240.0
 46
0.0
 71
     7
 72
     1
  1
{\f@ＭＳ ゴシック|b0|i0|c128|p49;竪用・}
 11
-1.836909530733566E-16
 21
-1.0
 31
0.0
 73
     1
 44
1.0
  0
MTEXT
  5
144
330
1F
100
AcDbEntity
  8
0-A
  6
Continuous
 62
     7
370
     0
100
AcDbMText
 10
-3263.333352578653
 20
1343.813561356003
 30
0.0
 40
60.96
 41
560.0
 46
0.0
 71
     7
 72
     1
  1
{\f@ＭＳ ゴシック|b0|i0|c128|p49;横 用（竪勝ち)}
 11
-1.836909530733566E-16
 21
-1.0
 31
0.0
 73
     1
 44
1.0
  0
LINE
  5
145
330
1F
100
AcDbEntity
  8
0-0
  6
JWW_HOJO
 62
   120
370
     5
100
AcDbLine
 10
-2446.844621429941
 20
2305.748246843636
 30
0.0
 11
-2446.844621429941
 21
1705.748246843636
 31
0.0
  0
LINE
  5
146
330
1F
100
AcDbEntity
  8
0-0
  6
JWW_HOJO
 62
   120
370
     5
100
AcDbLine
 10
-2076.844621429941
 20
1705.748246843636
 30
0.0
 11
-2076.844621429941
 21
2241.103585902964
 31
0.0
  0
LINE
  5
147
330
1F
100
AcDbEntity
  8
0-0
  6
JWW_HOJO
 62
   120
370
     5
100
AcDbLine
 10
-2076.844621429941
 20
1705.748246843636
 30
0.0
 11
-2446.844621429941
 21
1705.748246843636
 31
0.0
  0
LINE
  5
148
330
1F
100
AcDbEntity
  8
0-0
  6
JWW_HOJO
 62
   120
370
     5
100
AcDbLine
 10
-2496.844621429941
 20
2355.748246843636
 30
0.0
 11
-2496.844621429941
 21
1655.748246843636
 31
0.0
  0
LINE
  5
149
330
1F
100
AcDbEntity
  8
0-0
  6
JWW_HOJO
 62
   120
370
     5
100
AcDbLine
 10
-2026.844621429941
 20
1655.748246843636
 30
0.0
 11
-2026.844621429941
 21
2261.814264021619
 31
0.0
  0
LINE
  5
14A
330
1F
100
AcDbEntity
  8
0-0
  6
JWW_HOJO
 62
   120
370
     5
100
AcDbLine
 10
-2026.844621429941
 20
1655.748246843636
 30
0.0
 11
-2496.844621429941
 21
1655.748246843636
 31
0.0
  0
LINE
  5
14B
330
1F
100
AcDbEntity
  8
0-B
  6
Continuous
 62
   120
370
     5
100
AcDbLine
 10
-2026.844621429941
 20
1755.748246843636
 30
0.0
 11
-2076.844621429941
 21
1755.748246843636
 31
0.0
  0
LWPOLYLINE
  5
14C
330
1F
100
AcDbEntity
  8
0-B
  6
Continuous
 62
     7
370
     9
100
AcDbPolyline
 90
        4
 70
     1
 43
2.0
 10
-2025.844621429941
 20
1755.748246843636
 42
0.4142135623731
 10
-2026.844621429941
 20
1756.748246843636
 42
0.4142135623731
 10
-2027.844621429941
 20
1755.748246843636
 42
0.4142135623731
 10
-2026.844621429941
 20
1754.748246843636
 42
0.4142135623731
  0
LINE
  5
14D
330
1F
100
AcDbEntity
  8
0-B
  6
Continuous
 62
   120
370
     5
100
AcDbLine
 10
-2026.844621429941
 20
2255.748246843636
 30
0.0
 11
-2026.844621429941
 21
1755.748246843636
 31
0.0
  0
LINE
  5
14E
330
1F
100
AcDbEntity
  8
0-B
  6
Continuous
 62
   120
370
     5
100
AcDbLine
 10
-2126.844621429941
 20
1655.748246843636
 30
0.0
 11
-2126.844621429941
 21
1705.748246843636
 31
0.0
  0
LWPOLYLINE
  5
14F
330
1F
100
AcDbEntity
  8
0-B
  6
Continuous
 62
     7
370
     9
100
AcDbPolyline
 90
        4
 70
     1
 43
2.0
 10
-2125.844621429941
 20
1655.748246843636
 42
0.4142135623731
 10
-2126.844621429941
 20
1656.748246843636
 42
0.4142135623731
 10
-2127.844621429941
 20
1655.748246843636
 42
0.4142135623731
 10
-2126.844621429941
 20
1654.748246843636
 42
0.4142135623731
  0
LINE
  5
150
330
1F
100
AcDbEntity
  8
0-B
  6
Continuous
 62
   120
370
     5
100
AcDbLine
 10
-2246.844621429941
 20
1655.748246843636
 30
0.0
 11
-2246.844621429941
 21
1705.748246843636
 31
0.0
  0
LINE
  5
151
330
1F
100
AcDbEntity
  8
0-B
  6
Continuous
 62
   120
370
     5
100
AcDbLine
 10
-2396.844621429941
 20
1655.748246843636
 30
0.0
 11
-2396.844621429941
 21
1705.748246843636
 31
0.0
  0
LWPOLYLINE
  5
152
330
1F
100
AcDbEntity
  8
0-B
  6
Continuous
 62
     7
370
     9
100
AcDbPolyline
 90
        4
 70
     1
 43
2.0
 10
-2245.844621429941
 20
1655.748246843636
 42
0.4142135623731
 10
-2246.844621429941
 20
1656.748246843636
 42
0.4142135623731
 10
-2247.844621429941
 20
1655.748246843636
 42
0.4142135623731
 10
-2246.844621429941
 20
1654.748246843636
 42
0.4142135623731
  0
LWPOLYLINE
  5
153
330
1F
100
AcDbEntity
  8
0-B
  6
Continuous
 62
     7
370
     9
100
AcDbPolyline
 90
        4
 70
     1
 43
2.0
 10
-2395.844621429941
 20
1655.748246843636
 42
0.4142135623731
 10
-2396.844621429941
 20
1656.748246843636
 42
0.4142135623731
 10
-2397.844621429941
 20
1655.748246843636
 42
0.4142135623731
 10
-2396.844621429941
 20
1654.748246843636
 42
0.4142135623731
  0
LINE
  5
154
330
1F
100
AcDbEntity
  8
0-B
  6
Continuous
 62
   120
370
     5
100
AcDbLine
 10
-2396.844621429941
 20
1655.748246843636
 30
0.0
 11
-2126.844621429941
 21
1655.748246843636
 31
0.0
  0
LINE
  5
155
330
1F
100
AcDbEntity
  8
0-4
  6
Continuous
 62
    92
370
    13
100
AcDbLine
 10
-2131.844621429941
 20
1755.748246843636
 30
0.0
 11
-2131.844621429941
 21
2218.321839972443
 31
0.0
  0
LINE
  5
156
330
1F
100
AcDbEntity
  8
0-4
  6
Continuous
 62
    92
370
    13
100
AcDbLine
 10
-2126.844621429941
 20
1755.748246843636
 30
0.0
 11
-2126.844621429941
 21
2220.39290778431
 31
0.0
  0
LINE
  5
157
330
1F
100
AcDbEntity
  8
0-4
  6
Continuous
 62
    92
370
    13
100
AcDbLine
 10
-2246.844621429941
 20
1755.748246843636
 30
0.0
 11
-2246.844621429941
 21
2167.748246843637
 31
0.0
  0
LINE
  5
158
330
1F
100
AcDbEntity
  8
0-4
  6
Continuous
 62
    92
370
    13
100
AcDbLine
 10
-2126.844621429941
 20
1755.748246843636
 30
0.0
 11
-2246.844621429941
 21
1755.748246843636
 31
0.0
  0
MTEXT
  5
159
330
1F
100
AcDbEntity
  8
0-B
  6
Continuous
 62
     7
370
   211
100
AcDbMText
 10
-2354.344621429941
 20
1658.608246843636
 30
0.0
 40
45.72
 41
60.0
 46
0.0
 71
     7
 72
     1
  1
{\fＭＳ ゴシック|b0|i0|c128|p49;15}
 73
     1
 44
1.0
  0
MTEXT
  5
15A
330
1F
100
AcDbEntity
  8
0-B
  6
Continuous
 62
     7
370
   211
100
AcDbMText
 10
-2219.344621429941
 20
1658.608246843636
 30
0.0
 40
45.72
 41
60.0
 46
0.0
 71
     7
 72
     1
  1
{\fＭＳ ゴシック|b0|i0|c128|p49;12}
 73
     1
 44
1.0
  0
LINE
  5
15B
330
1F
100
AcDbEntity
  8
0-B
  6
Continuous
 62
   120
370
     5
100
AcDbLine
 10
-2026.844621429941
 20
827.5557656101375
 30
0.0
 11
-2076.844621429941
 21
827.5557656101375
 31
0.0
  0
LWPOLYLINE
  5
15C
330
1F
100
AcDbEntity
  8
0-B
  6
Continuous
 62
     7
370
     9
100
AcDbPolyline
 90
        4
 70
     1
 43
2.0
 10
-2025.844621429941
 20
827.5557656101375
 42
0.4142135623731
 10
-2026.844621429941
 20
828.5557656101375
 42
0.4142135623731
 10
-2027.844621429941
 20
827.5557656101375
 42
0.4142135623731
 10
-2026.844621429941
 20
826.5557656101375
 42
0.4142135623731
  0
LINE
  5
15D
330
1F
100
AcDbEntity
  8
0-B
  6
Continuous
 62
   120
370
     5
100
AcDbLine
 10
-2026.844621429941
 20
1327.555765610138
 30
0.0
 11
-2026.844621429941
 21
827.5557656101375
 31
0.0
  0
LINE
  5
15E
330
1F
100
AcDbEntity
  8
0-B
  6
Continuous
 62
   120
370
     5
100
AcDbLine
 10
-2126.844621429941
 20
727.5557656101375
 30
0.0
 11
-2126.844621429941
 21
777.5557656101375
 31
0.0
  0
LWPOLYLINE
  5
15F
330
1F
100
AcDbEntity
  8
0-B
  6
Continuous
 62
     7
370
     9
100
AcDbPolyline
 90
        4
 70
     1
 43
2.0
 10
-2125.844621429941
 20
727.5557656101375
 42
0.4142135623731
 10
-2126.844621429941
 20
728.5557656101375
 42
0.4142135623731
 10
-2127.844621429941
 20
727.5557656101375
 42
0.4142135623731
 10
-2126.844621429941
 20
726.5557656101375
 42
0.4142135623731
  0
LINE
  5
160
330
1F
100
AcDbEntity
  8
0-B
  6
Continuous
 62
   120
370
     5
100
AcDbLine
 10
-2206.844621429941
 20
727.5557656101375
 30
0.0
 11
-2206.844621429941
 21
777.5557656101375
 31
0.0
  0
LINE
  5
161
330
1F
100
AcDbEntity
  8
0-B
  6
Continuous
 62
   120
370
     5
100
AcDbLine
 10
-2356.844621429941
 20
727.5557656101375
 30
0.0
 11
-2356.844621429941
 21
777.5557656101375
 31
0.0
  0
LWPOLYLINE
  5
162
330
1F
100
AcDbEntity
  8
0-B
  6
Continuous
 62
     7
370
     9
100
AcDbPolyline
 90
        4
 70
     1
 43
2.0
 10
-2205.844621429941
 20
727.5557656101375
 42
0.4142135623731
 10
-2206.844621429941
 20
728.5557656101375
 42
0.4142135623731
 10
-2207.844621429941
 20
727.5557656101375
 42
0.4142135623731
 10
-2206.844621429941
 20
726.5557656101375
 42
0.4142135623731
  0
LWPOLYLINE
  5
163
330
1F
100
AcDbEntity
  8
0-B
  6
Continuous
 62
     7
370
     9
100
AcDbPolyline
 90
        4
 70
     1
 43
2.0
 10
-2355.844621429941
 20
727.5557656101375
 42
0.4142135623731
 10
-2356.844621429941
 20
728.5557656101375
 42
0.4142135623731
 10
-2357.844621429941
 20
727.5557656101375
 42
0.4142135623731
 10
-2356.844621429941
 20
726.5557656101375
 42
0.4142135623731
  0
LINE
  5
164
330
1F
100
AcDbEntity
  8
0-B
  6
Continuous
 62
   120
370
     5
100
AcDbLine
 10
-2356.844621429941
 20
727.5557656101375
 30
0.0
 11
-2126.844621429941
 21
727.5557656101375
 31
0.0
  0
LINE
  5
165
330
1F
100
AcDbEntity
  8
0-0
  6
JWW_HOJO
 62
     7
370
     9
100
AcDbLine
 10
-2076.844621429941
 20
777.5557656101375
 30
0.0
 11
-2076.844621429941
 21
1334.124308105062
 31
0.0
  0
LINE
  5
166
330
1F
100
AcDbEntity
  8
0-0
  6
JWW_HOJO
 62
     7
370
     9
100
AcDbLine
 10
-2076.844621429941
 20
777.5557656101375
 30
0.0
 11
-2406.844621429941
 21
777.5557656101375
 31
0.0
  0
LINE
  5
167
330
1F
100
AcDbEntity
  8
0-0
  6
JWW_HOJO
 62
     7
370
     9
100
AcDbLine
 10
-2406.844621429941
 20
1377.555765610138
 30
0.0
 11
-2406.844621429941
 21
777.5557656101375
 31
0.0
  0
LINE
  5
168
330
1F
100
AcDbEntity
  8
0-0
  6
JWW_HOJO
 62
     7
370
     9
100
AcDbLine
 10
-2026.844621429941
 20
727.5557656101375
 30
0.0
 11
-2026.844621429941
 21
1354.834986223716
 31
0.0
  0
LINE
  5
169
330
1F
100
AcDbEntity
  8
0-0
  6
JWW_HOJO
 62
     7
370
     9
100
AcDbLine
 10
-2026.844621429941
 20
727.5557656101375
 30
0.0
 11
-2456.844621429941
 21
727.5557656101375
 31
0.0
  0
LINE
  5
16A
330
1F
100
AcDbEntity
  8
0-0
  6
JWW_HOJO
 62
     7
370
     9
100
AcDbLine
 10
-2456.844621429941
 20
1427.555765610138
 30
0.0
 11
-2456.844621429941
 21
727.5557656101375
 31
0.0
  0
LINE
  5
16B
330
1F
100
AcDbEntity
  8
0-4
  6
Continuous
 62
    92
370
    13
100
AcDbLine
 10
-2131.844621429941
 20
827.5557656101375
 30
0.0
 11
-2131.844621429941
 21
1311.342562174541
 31
0.0
  0
LINE
  5
16C
330
1F
100
AcDbEntity
  8
0-4
  6
Continuous
 62
    92
370
    13
100
AcDbLine
 10
-2126.844621429941
 20
827.5557656101375
 30
0.0
 11
-2126.844621429941
 21
1313.413629986406
 31
0.0
  0
LINE
  5
16D
330
1F
100
AcDbEntity
  8
0-4
  6
Continuous
 62
    92
370
    13
100
AcDbLine
 10
-2206.844621429941
 20
827.5557656101375
 30
0.0
 11
-2206.844621429941
 21
1239.555765610138
 31
0.0
  0
LINE
  5
16E
330
1F
100
AcDbEntity
  8
0-4
  6
Continuous
 62
    92
370
    13
100
AcDbLine
 10
-2126.844621429941
 20
827.5557656101375
 30
0.0
 11
-2206.844621429941
 21
827.5557656101375
 31
0.0
  0
MTEXT
  5
16F
330
1F
100
AcDbEntity
  8
0-B
  6
Continuous
 62
     7
370
   211
100
AcDbMText
 10
-2314.344621429941
 20
730.4157656101376
 30
0.0
 40
45.72
 41
60.0
 46
0.0
 71
     7
 72
     1
  1
{\fＭＳ ゴシック|b0|i0|c128|p49;15}
 73
     1
 44
1.0
  0
MTEXT
  5
170
330
1F
100
AcDbEntity
  8
0-B
  6
Continuous
 62
     7
370
   211
100
AcDbMText
 10
-2181.844621429941
 20
730.4157656101376
 30
0.0
 40
45.72
 41
30.0
 46
0.0
 71
     7
 72
     1
  1
{\fＭＳ ゴシック|b0|i0|c128|p49;8}
 73
     1
 44
1.0
  0
MTEXT
  5
171
330
1F
100
AcDbEntity
  8
0-B
  6
Continuous
 62
     7
370
   211
100
AcDbMText
 10
-2036.844621429941
 20
1966.108246843636
 30
0.0
 40
45.72
 41
60.0
 46
0.0
 71
     7
 72
     1
  1
{\fＭＳ ゴシック|b0|i0|c128|p49;50}
 11
6.123031769111886E-17
 21
1.0
 31
0.0
 73
     1
 44
1.0
  0
MTEXT
  5
172
330
1F
100
AcDbEntity
  8
0-B
  6
Continuous
 62
     7
370
   211
100
AcDbMText
 10
-2036.844621429941
 20
1037.915765610137
 30
0.0
 40
45.72
 41
60.0
 46
0.0
 71
     7
 72
     1
  1
{\fＭＳ ゴシック|b0|i0|c128|p49;50}
 11
6.123031769111886E-17
 21
1.0
 31
0.0
 73
     1
 44
1.0
  0
LINE
  5
173
330
1F
100
AcDbEntity
  8
F-1
  6
JWW_DASHED1
 62
     7
370
     9
100
AcDbLine
 10
-3293.333352578653
 20
-339.16653852205
 30
0.0
 11
-96.66731550886823
 21
-339.16653852205
 31
0.0
  0
LINE
  5
174
330
1F
100
AcDbEntity
  8
F-1
  6
JWW_DASHED1
 62
     7
370
     9
100
AcDbLine
 10
-103.3338392103036
 20
-26.66651854643874
 30
0.0
 11
-1523.333839210304
 21
-26.66651854643874
 31
0.0
  0
LINE
  5
175
330
1F
100
AcDbEntity
  8
F-1
  6
JWW_DASHED1
 62
     7
370
     9
100
AcDbLine
 10
-103.3338392103036
 20
-651.6665584976602
 30
0.0
 11
-1523.333839210304
 21
-651.6665584976602
 31
0.0
  0
MTEXT
  5
176
330
1F
100
AcDbEntity
  8
0-A
  6
Continuous
 62
     7
370
     9
100
AcDbMText
 10
-3843.333339691162
 20
1575.138285573429
 30
0.0
 40
60.96
 41
400.0
 46
0.0
 71
     7
 72
     1
  1
{\fＭＳ ゴシック|b0|i0|c128|p49;ケーシング}
 73
     1
 44
1.0
  0
MTEXT
  5
177
330
1F
100
AcDbEntity
  8
0-A
  6
Continuous
 62
     7
370
     9
100
AcDbMText
 10
-3723.333339691162
 20
1455.138285573429
 30
0.0
 40
60.96
 41
160.0
 46
0.0
 71
     7
 72
     1
  1
{\fＭＳ ゴシック|b0|i0|c128|p49;Ｖ型}
 73
     1
 44
1.0
  0
LINE
  5
178
330
1F
100
AcDbEntity
  8
0-B
  6
Continuous
 62
   120
370
     5
100
AcDbLine
 10
-2596.844621429941
 20
288.6138937106801
 30
0.0
 11
-2546.844621429941
 21
288.6138937106801
 31
0.0
  0
LINE
  5
179
330
1F
100
AcDbEntity
  8
0-B
  6
Continuous
 62
   120
370
     5
100
AcDbLine
 10
-2596.844621429941
 20
376.6138937106803
 30
0.0
 11
-2546.844621429941
 21
376.6138937106803
 31
0.0
  0
LWPOLYLINE
  5
17A
330
1F
100
AcDbEntity
  8
0-B
  6
Continuous
 62
     7
370
     9
100
AcDbPolyline
 90
        4
 70
     1
 43
2.0
 10
-2595.844621429941
 20
288.6138937106801
 42
0.4142135623731
 10
-2596.844621429941
 20
289.6138937106801
 42
0.4142135623731
 10
-2597.844621429941
 20
288.6138937106801
 42
0.4142135623731
 10
-2596.844621429941
 20
287.6138937106801
 42
0.4142135623731
  0
LWPOLYLINE
  5
17B
330
1F
100
AcDbEntity
  8
0-B
  6
Continuous
 62
     7
370
     9
100
AcDbPolyline
 90
        4
 70
     1
 43
2.0
 10
-2595.844621429941
 20
376.6138937106803
 42
0.4142135623731
 10
-2596.844621429941
 20
377.6138937106803
 42
0.4142135623731
 10
-2597.844621429941
 20
376.6138937106803
 42
0.4142135623731
 10
-2596.844621429941
 20
375.6138937106803
 42
0.4142135623731
  0
LINE
  5
17C
330
1F
100
AcDbEntity
  8
0-B
  6
Continuous
 62
   120
370
     5
100
AcDbLine
 10
-2596.844621429941
 20
376.6138937106803
 30
0.0
 11
-2596.844621429941
 21
288.6138937106801
 31
0.0
  0
LINE
  5
17D
330
1F
100
AcDbEntity
  8
0-B
  6
Continuous
 62
   120
370
     5
100
AcDbLine
 10
-2496.844621429941
 20
476.6138937106803
 30
0.0
 11
-2496.844621429941
 21
426.6138937106803
 31
0.0
  0
LWPOLYLINE
  5
17E
330
1F
100
AcDbEntity
  8
0-B
  6
Continuous
 62
     7
370
     9
100
AcDbPolyline
 90
        4
 70
     1
 43
2.0
 10
-2495.844621429941
 20
476.6138937106803
 42
0.4142135623731
 10
-2496.844621429941
 20
477.6138937106803
 42
0.4142135623731
 10
-2497.844621429941
 20
476.6138937106803
 42
0.4142135623731
 10
-2496.844621429941
 20
475.6138937106803
 42
0.4142135623731
  0
LINE
  5
17F
330
1F
100
AcDbEntity
  8
0-B
  6
Continuous
 62
   120
370
     5
100
AcDbLine
 10
-2496.844621429941
 20
476.6138937106803
 30
0.0
 11
-2126.844621429941
 21
476.6138937106803
 31
0.0
  0
LINE
  5
180
330
1F
100
AcDbEntity
  8
0-0
  6
JWW_HOJO
 62
     7
370
     9
100
AcDbLine
 10
-2546.844621429941
 20
426.6138937106803
 30
0.0
 11
-2141.489282370615
 21
426.6138937106803
 31
0.0
  0
LINE
  5
181
330
1F
100
AcDbEntity
  8
0-0
  6
JWW_HOJO
 62
     7
370
     9
100
AcDbLine
 10
-2596.844621429941
 20
476.6138937106803
 30
0.0
 11
-2120.778604251959
 21
476.6138937106803
 31
0.0
  0
LINE
  5
182
330
1F
100
AcDbEntity
  8
0-4
  6
Continuous
 62
    92
370
    13
100
AcDbLine
 10
-2496.844621429941
 20
371.6138937106803
 30
0.0
 11
-2164.271028301134
 21
371.6138937106803
 31
0.0
  0
LINE
  5
183
330
1F
100
AcDbEntity
  8
0-4
  6
Continuous
 62
    92
370
    13
100
AcDbLine
 10
-2496.844621429941
 20
376.6138937106803
 30
0.0
 11
-2162.19996048927
 21
376.6138937106803
 31
0.0
  0
LINE
  5
184
330
1F
100
AcDbEntity
  8
0-4
  6
Continuous
 62
    92
370
    13
100
AcDbLine
 10
-2496.844621429941
 20
288.6138937106801
 30
0.0
 11
-2246.844621429941
 21
288.6138937106801
 31
0.0
  0
LINE
  5
185
330
1F
100
AcDbEntity
  8
0-4
  6
Continuous
 62
    92
370
    13
100
AcDbLine
 10
-2496.844621429941
 20
376.6138937106803
 30
0.0
 11
-2496.844621429941
 21
288.6138937106801
 31
0.0
  0
LINE
  5
186
330
1F
100
AcDbEntity
  8
0-B
  6
Continuous
 62
   120
370
     5
100
AcDbLine
 10
-2059.166951900279
 20
408.9362241810164
 30
0.0
 11
-2091.489282370615
 21
376.6138937106803
 31
0.0
  0
LINE
  5
187
330
1F
100
AcDbEntity
  8
0-B
  6
Continuous
 62
   120
370
     5
100
AcDbLine
 10
-2094.522290959605
 20
444.2915632403441
 30
0.0
 11
-2126.844621429941
 21
411.9692327700079
 31
0.0
  0
LWPOLYLINE
  5
188
330
1F
100
AcDbEntity
  8
0-B
  6
Continuous
 62
     7
370
     9
100
AcDbPolyline
 90
        4
 70
     1
 43
2.0
 10
-2058.166951900279
 20
408.9362241810164
 42
0.4142135623731
 10
-2059.166951900279
 20
409.9362241810164
 42
0.4142135623731
 10
-2060.166951900279
 20
408.9362241810164
 42
0.4142135623731
 10
-2059.166951900279
 20
407.9362241810164
 42
0.4142135623731
  0
LWPOLYLINE
  5
189
330
1F
100
AcDbEntity
  8
0-B
  6
Continuous
 62
     7
370
     9
100
AcDbPolyline
 90
        4
 70
     1
 43
2.0
 10
-2093.522290959605
 20
444.2915632403441
 42
0.4142135623731
 10
-2094.522290959605
 20
445.2915632403441
 42
0.4142135623731
 10
-2095.522290959605
 20
444.2915632403441
 42
0.4142135623731
 10
-2094.522290959605
 20
443.2915632403441
 42
0.4142135623731
  0
LINE
  5
18A
330
1F
100
AcDbEntity
  8
0-B
  6
Continuous
 62
   120
370
     5
100
AcDbLine
 10
-2094.522290959605
 20
444.2915632403441
 30
0.0
 11
-2059.166951900279
 21
408.9362241810164
 31
0.0
  0
LINE
  5
18B
330
1F
100
AcDbEntity
  8
0-B
  6
Continuous
 62
   120
370
     5
100
AcDbLine
 10
-2026.844621429941
 20
376.6138937106803
 30
0.0
 11
-2076.844621429941
 21
376.6138937106803
 31
0.0
  0
LWPOLYLINE
  5
18C
330
1F
100
AcDbEntity
  8
0-B
  6
Continuous
 62
     7
370
     9
100
AcDbPolyline
 90
        4
 70
     1
 43
2.0
 10
-2025.844621429941
 20
376.6138937106803
 42
0.4142135623731
 10
-2026.844621429941
 20
377.6138937106803
 42
0.4142135623731
 10
-2027.844621429941
 20
376.6138937106803
 42
0.4142135623731
 10
-2026.844621429941
 20
375.6138937106803
 42
0.4142135623731
  0
LINE
  5
18D
330
1F
100
AcDbEntity
  8
0-B
  6
Continuous
 62
   120
370
     5
100
AcDbLine
 10
-2126.844621429941
 20
476.6138937106803
 30
0.0
 11
-2126.844621429941
 21
426.6138937106803
 31
0.0
  0
LWPOLYLINE
  5
18E
330
1F
100
AcDbEntity
  8
0-B
  6
Continuous
 62
     7
370
     9
100
AcDbPolyline
 90
        4
 70
     1
 43
2.0
 10
-2125.844621429941
 20
476.6138937106803
 42
0.4142135623731
 10
-2126.844621429941
 20
477.6138937106803
 42
0.4142135623731
 10
-2127.844621429941
 20
476.6138937106803
 42
0.4142135623731
 10
-2126.844621429941
 20
475.6138937106803
 42
0.4142135623731
  0
LINE
  5
18F
330
1F
100
AcDbEntity
  8
0-0
  6
JWW_HOJO
 62
     7
370
     9
100
AcDbLine
 10
-2141.489282370615
 20
426.6138937106803
 30
0.0
 11
-2076.844621429941
 21
361.9692327700079
 31
0.0
  0
LINE
  5
190
330
1F
100
AcDbEntity
  8
0-0
  6
JWW_HOJO
 62
     7
370
     9
100
AcDbLine
 10
-2120.778604251959
 20
476.6138937106803
 30
0.0
 11
-2026.844621429941
 21
382.6799108886627
 31
0.0
  0
LINE
  5
191
330
1F
100
AcDbEntity
  8
0-4
  6
Continuous
 62
    92
370
    13
100
AcDbLine
 10
-2164.271028301134
 20
371.6138937106803
 30
0.0
 11
-2131.844621429941
 21
339.1874868394871
 31
0.0
  0
LINE
  5
192
330
1F
100
AcDbEntity
  8
0-4
  6
Continuous
 62
    92
370
    13
100
AcDbLine
 10
-2162.19996048927
 20
376.6138937106803
 30
0.0
 11
-2126.844621429941
 21
341.2585546513526
 31
0.0
  0
MTEXT
  5
193
330
1F
100
AcDbEntity
  8
0-A
  6
Continuous
 62
     7
370
     9
100
AcDbMText
 10
-368.333839210303
 20
510.2039203410664
 30
0.0
 40
45.72
 41
210.0
 46
0.0
 71
     7
 72
     1
  1
{\fＭＳ ゴシック|b0|i0|c128|p49;2(偶数)}
 73
     1
 44
1.0
  0
MTEXT
  5
194
330
1F
100
AcDbEntity
  8
0-A
  6
Continuous
 62
     7
370
     9
100
AcDbMText
 10
-368.333839210303
 20
404.9435114169768
 30
0.0
 40
45.72
 41
210.0
 46
0.0
 71
     7
 72
     1
  1
{\fＭＳ ゴシック|b0|i0|c128|p49;2(偶数)}
 73
     1
 44
1.0
  0
MTEXT
  5
195
330
1F
100
AcDbEntity
  8
0-A
  6
Continuous
 62
     7
370
     9
100
AcDbMText
 10
-368.333839210303
 20
300.7768380917724
 30
0.0
 40
45.72
 41
210.0
 46
0.0
 71
     7
 72
     1
  1
{\fＭＳ ゴシック|b0|i0|c128|p49;2(偶数)}
 73
     1
 44
1.0
  0
MTEXT
  5
196
330
1F
100
AcDbEntity
  8
0-B
  6
Continuous
 62
     7
370
   211
100
AcDbMText
 10
-2344.344621429941
 20
479.4738937106803
 30
0.0
 40
45.72
 41
60.0
 46
0.0
 71
     7
 72
     1
  1
{\fＭＳ ゴシック|b0|i0|c128|p49;37}
 73
     1
 44
1.0
  0
MTEXT
  5
197
330
1F
100
AcDbEntity
  8
0-B
  6
Continuous
 62
     7
370
   211
100
AcDbMText
 10
-2080.380155335873
 20
437.1515632403433
 30
0.0
 40
45.7199999999996
 41
29.99999999999974
 46
0.0
 71
     7
 72
     1
  1
{\fＭＳ ゴシック|b0|i0|c128|p49;5}
 11
0.7071067811865285
 21
-0.7071067811865666
 31
0.0
 73
     1
 44
1.0
  0
MTEXT
  5
198
330
1F
100
AcDbEntity
  8
0-B
  6
Continuous
 62
     7
370
   211
100
AcDbMText
 10
-2606.844621429941
 20
275.4738937106799
 30
0.0
 40
45.72
 41
90.0
 46
0.0
 71
     7
 72
     1
  1
{\fＭＳ ゴシック|b0|i0|c128|p49;8.8}
 11
6.123031769111886E-17
 21
1.0
 31
0.0
 73
     1
 44
1.0
  0
LINE
  5
199
330
1F
100
AcDbEntity
  8
0-B
  6
Continuous
 62
   120
370
     5
100
AcDbLine
 10
-2556.844621429941
 20
-652.5305646411965
 30
0.0
 11
-2506.844621429941
 21
-652.5305646411965
 31
0.0
  0
LINE
  5
19A
330
1F
100
AcDbEntity
  8
0-B
  6
Continuous
 62
   120
370
     5
100
AcDbLine
 10
-2556.844621429941
 20
-564.5305646411964
 30
0.0
 11
-2506.844621429941
 21
-564.5305646411964
 31
0.0
  0
LWPOLYLINE
  5
19B
330
1F
100
AcDbEntity
  8
0-B
  6
Continuous
 62
     7
370
     9
100
AcDbPolyline
 90
        4
 70
     1
 43
2.0
 10
-2555.844621429941
 20
-652.5305646411965
 42
0.4142135623731
 10
-2556.844621429941
 20
-651.5305646411966
 42
0.4142135623731
 10
-2557.844621429941
 20
-652.5305646411965
 42
0.4142135623731
 10
-2556.844621429941
 20
-653.5305646411964
 42
0.4142135623731
  0
LWPOLYLINE
  5
19C
330
1F
100
AcDbEntity
  8
0-B
  6
Continuous
 62
     7
370
     9
100
AcDbPolyline
 90
        4
 70
     1
 43
2.0
 10
-2555.844621429941
 20
-564.5305646411964
 42
0.4142135623731
 10
-2556.844621429941
 20
-563.5305646411964
 42
0.4142135623731
 10
-2557.844621429941
 20
-564.5305646411964
 42
0.4142135623731
 10
-2556.844621429941
 20
-565.5305646411964
 42
0.4142135623731
  0
LINE
  5
19D
330
1F
100
AcDbEntity
  8
0-B
  6
Continuous
 62
   120
370
     5
100
AcDbLine
 10
-2556.844621429941
 20
-564.5305646411964
 30
0.0
 11
-2556.844621429941
 21
-652.5305646411965
 31
0.0
  0
LINE
  5
19E
330
1F
100
AcDbEntity
  8
0-B
  6
Continuous
 62
   120
370
     5
100
AcDbLine
 10
-2456.844621429941
 20
-464.5305646411964
 30
0.0
 11
-2456.844621429941
 21
-514.5305646411964
 31
0.0
  0
LWPOLYLINE
  5
19F
330
1F
100
AcDbEntity
  8
0-B
  6
Continuous
 62
     7
370
     9
100
AcDbPolyline
 90
        4
 70
     1
 43
2.0
 10
-2455.844621429941
 20
-464.5305646411964
 42
0.4142135623731
 10
-2456.844621429941
 20
-463.5305646411964
 42
0.4142135623731
 10
-2457.844621429941
 20
-464.5305646411964
 42
0.4142135623731
 10
-2456.844621429941
 20
-465.5305646411964
 42
0.4142135623731
  0
LINE
  5
1A0
330
1F
100
AcDbEntity
  8
0-B
  6
Continuous
 62
   120
370
     5
100
AcDbLine
 10
-2456.844621429941
 20
-464.5305646411964
 30
0.0
 11
-2126.844621429941
 21
-464.5305646411964
 31
0.0
  0
LINE
  5
1A1
330
1F
100
AcDbEntity
  8
0-0
  6
JWW_HOJO
 62
     7
370
     9
100
AcDbLine
 10
-2506.844621429941
 20
-514.5305646411964
 30
0.0
 11
-2120.276078935017
 21
-514.5305646411964
 31
0.0
  0
LINE
  5
1A2
330
1F
100
AcDbEntity
  8
0-0
  6
JWW_HOJO
 62
     7
370
     9
100
AcDbLine
 10
-2556.844621429941
 20
-464.5305646411964
 30
0.0
 11
-2099.565400816364
 21
-464.5305646411964
 31
0.0
  0
LINE
  5
1A3
330
1F
100
AcDbEntity
  8
0-4
  6
Continuous
 62
    92
370
    13
100
AcDbLine
 10
-2456.844621429941
 20
-569.5305646411964
 30
0.0
 11
-2143.057824865539
 21
-569.5305646411964
 31
0.0
  0
LINE
  5
1A4
330
1F
100
AcDbEntity
  8
0-4
  6
Continuous
 62
    92
370
    13
100
AcDbLine
 10
-2456.844621429941
 20
-564.5305646411964
 30
0.0
 11
-2140.986757053672
 21
-564.5305646411964
 31
0.0
  0
LINE
  5
1A5
330
1F
100
AcDbEntity
  8
0-4
  6
Continuous
 62
    92
370
    13
100
AcDbLine
 10
-2456.844621429941
 20
-652.5305646411965
 30
0.0
 11
-2206.844621429941
 21
-652.5305646411965
 31
0.0
  0
LINE
  5
1A6
330
1F
100
AcDbEntity
  8
0-4
  6
Continuous
 62
    92
370
    13
100
AcDbLine
 10
-2456.844621429941
 20
-564.5305646411964
 30
0.0
 11
-2456.844621429941
 21
-652.5305646411965
 31
0.0
  0
LINE
  5
1A7
330
1F
100
AcDbEntity
  8
0-B
  6
Continuous
 62
   120
370
     5
100
AcDbLine
 10
-2056.133943311286
 20
-507.9620221462727
 30
0.0
 11
-2091.489282370615
 21
-543.3173612056004
 31
0.0
  0
LINE
  5
1A8
330
1F
100
AcDbEntity
  8
0-B
  6
Continuous
 62
   120
370
     5
100
AcDbLine
 10
-2070.276078935017
 20
-493.8198865225417
 30
0.0
 11
-2105.631417994346
 21
-529.1752255818693
 31
0.0
  0
LWPOLYLINE
  5
1A9
330
1F
100
AcDbEntity
  8
0-B
  6
Continuous
 62
     7
370
     9
100
AcDbPolyline
 90
        4
 70
     1
 43
2.0
 10
-2055.133943311286
 20
-507.9620221462727
 42
0.4142135623731
 10
-2056.133943311286
 20
-506.9620221462727
 42
0.4142135623731
 10
-2057.133943311286
 20
-507.9620221462727
 42
0.4142135623731
 10
-2056.133943311286
 20
-508.9620221462727
 42
0.4142135623731
  0
LWPOLYLINE
  5
1AA
330
1F
100
AcDbEntity
  8
0-B
  6
Continuous
 62
     7
370
     9
100
AcDbPolyline
 90
        4
 70
     1
 43
2.0
 10
-2069.276078935017
 20
-493.8198865225417
 42
0.4142135623731
 10
-2070.276078935017
 20
-492.8198865225417
 42
0.4142135623731
 10
-2071.276078935017
 20
-493.8198865225417
 42
0.4142135623731
 10
-2070.276078935017
 20
-494.8198865225417
 42
0.4142135623731
  0
LINE
  5
1AB
330
1F
100
AcDbEntity
  8
0-B
  6
Continuous
 62
   120
370
     5
100
AcDbLine
 10
-2070.276078935017
 20
-493.8198865225417
 30
0.0
 11
-2056.133943311286
 21
-507.9620221462727
 31
0.0
  0
LINE
  5
1AC
330
1F
100
AcDbEntity
  8
0-B
  6
Continuous
 62
   120
370
     5
100
AcDbLine
 10
-2026.844621429941
 20
-564.5305646411964
 30
0.0
 11
-2076.844621429941
 21
-564.5305646411964
 31
0.0
  0
LWPOLYLINE
  5
1AD
330
1F
100
AcDbEntity
  8
0-B
  6
Continuous
 62
     7
370
     9
100
AcDbPolyline
 90
        4
 70
     1
 43
2.0
 10
-2025.844621429941
 20
-564.5305646411964
 42
0.4142135623731
 10
-2026.844621429941
 20
-563.5305646411964
 42
0.4142135623731
 10
-2027.844621429941
 20
-564.5305646411964
 42
0.4142135623731
 10
-2026.844621429941
 20
-565.5305646411964
 42
0.4142135623731
  0
LINE
  5
1AE
330
1F
100
AcDbEntity
  8
0-B
  6
Continuous
 62
   120
370
     5
100
AcDbLine
 10
-2126.844621429941
 20
-464.5305646411964
 30
0.0
 11
-2126.844621429941
 21
-514.5305646411964
 31
0.0
  0
LWPOLYLINE
  5
1AF
330
1F
100
AcDbEntity
  8
0-B
  6
Continuous
 62
     7
370
     9
100
AcDbPolyline
 90
        4
 70
     1
 43
2.0
 10
-2125.844621429941
 20
-464.5305646411964
 42
0.4142135623731
 10
-2126.844621429941
 20
-463.5305646411964
 42
0.4142135623731
 10
-2127.844621429941
 20
-464.5305646411964
 42
0.4142135623731
 10
-2126.844621429941
 20
-465.5305646411964
 42
0.4142135623731
  0
LINE
  5
1B0
330
1F
100
AcDbEntity
  8
0-0
  6
JWW_HOJO
 62
     7
370
     9
100
AcDbLine
 10
-2120.276078935017
 20
-514.5305646411964
 30
0.0
 11
-2076.844621429941
 21
-557.9620221462727
 31
0.0
  0
LINE
  5
1B1
330
1F
100
AcDbEntity
  8
0-0
  6
JWW_HOJO
 62
     7
370
     9
100
AcDbLine
 10
-2099.565400816364
 20
-464.5305646411964
 30
0.0
 11
-2026.844621429941
 21
-537.251344027618
 31
0.0
  0
LINE
  5
1B2
330
1F
100
AcDbEntity
  8
0-4
  6
Continuous
 62
    92
370
    13
100
AcDbLine
 10
-2143.057824865539
 20
-569.5305646411964
 30
0.0
 11
-2131.844621429941
 21
-580.743768076793
 31
0.0
  0
LINE
  5
1B3
330
1F
100
AcDbEntity
  8
0-4
  6
Continuous
 62
    92
370
    13
100
AcDbLine
 10
-2140.986757053672
 20
-564.5305646411964
 30
0.0
 11
-2126.844621429941
 21
-578.6727002649275
 31
0.0
  0
MTEXT
  5
1B4
330
1F
100
AcDbEntity
  8
0-A
  6
Continuous
 62
     7
370
     9
100
AcDbMText
 10
-368.333839210303
 20
-427.2961395857652
 30
0.0
 40
45.72
 41
210.0
 46
0.0
 71
     7
 72
     1
  1
{\fＭＳ ゴシック|b0|i0|c128|p49;2(偶数)}
 73
     1
 44
1.0
  0
MTEXT
  5
1B5
330
1F
100
AcDbEntity
  8
0-B
  6
Continuous
 62
     7
370
   211
100
AcDbMText
 10
-2324.344312130163
 20
-461.6705646411964
 30
0.0
 40
45.72
 41
60.0
 46
0.0
 71
     7
 72
     1
  1
{\fＭＳ ゴシック|b0|i0|c128|p49;33}
 73
     1
 44
1.0
  0
MTEXT
  5
1B6
330
1F
100
AcDbEntity
  8
0-B
  6
Continuous
 62
     7
370
   211
100
AcDbMText
 10
-2066.740545029086
 20
-490.3532848047438
 30
0.0
 40
45.72000000000021
 41
30.00000000000014
 46
0.0
 71
     7
 72
     1
  1
{\fＭＳ ゴシック|b0|i0|c128|p49;2}
 11
0.707106781186585
 21
-0.7071067811865099
 31
0.0
 73
     1
 44
1.0
  0
MTEXT
  5
1B7
330
1F
100
AcDbEntity
  8
0-B
  6
Continuous
 62
     7
370
   211
100
AcDbMText
 10
-2566.844621429941
 20
-665.6705646411967
 30
0.0
 40
45.72
 41
90.0
 46
0.0
 71
     7
 72
     1
  1
{\fＭＳ ゴシック|b0|i0|c128|p49;8.8}
 11
6.123031769111886E-17
 21
1.0
 31
0.0
 73
     1
 44
1.0
  0
MTEXT
  5
1B8
330
1F
100
AcDbEntity
  8
0-A
  6
Continuous
 62
     7
370
     9
100
AcDbMText
 10
-3843.333339691162
 20
-299.8618342802354
 30
0.0
 40
60.96
 41
400.0
 46
0.0
 71
     7
 72
     1
  1
{\fＭＳ ゴシック|b0|i0|c128|p49;ケーシング}
 73
     1
 44
1.0
  0
MTEXT
  5
1B9
330
1F
100
AcDbEntity
  8
0-A
  6
Continuous
 62
     7
370
     9
100
AcDbMText
 10
-3723.333339691162
 20
-419.8618342802359
 30
0.0
 40
60.96
 41
160.0
 46
0.0
 71
     7
 72
     1
  1
{\fＭＳ ゴシック|b0|i0|c128|p49;Ｗ型}
 73
     1
 44
1.0
  0
MTEXT
  5
1BA
330
1F
100
AcDbEntity
  8
0-A
  6
Continuous
 62
     7
370
     0
100
AcDbMText
 10
-3263.333352578653
 20
266.3135014291709
 30
0.0
 40
60.96
 41
240.0
 46
0.0
 71
     7
 72
     1
  1
{\f@ＭＳ ゴシック|b0|i0|c128|p49;竪用・}
 11
-1.836909530733566E-16
 21
-1.0
 31
0.0
 73
     1
 44
1.0
  0
MTEXT
  5
1BB
330
1F
100
AcDbEntity
  8
0-A
  6
Continuous
 62
     7
370
     0
100
AcDbMText
 10
-3263.333352578653
 20
-511.1865584976607
 30
0.0
 40
60.96
 41
560.0
 46
0.0
 71
     7
 72
     1
  1
{\f@ＭＳ ゴシック|b0|i0|c128|p49;横 用（竪勝ち)}
 11
-1.836909530733566E-16
 21
-1.0
 31
0.0
 73
     1
 44
1.0
  0
MTEXT
  5
1BC
330
1F
100
AcDbEntity
  8
0-A
  6
Continuous
 62
     7
370
     9
100
AcDbMText
 10
-1443.333839210304
 20
509.11018474218
 30
0.0
 40
45.71999999999999
 41
390.0
 46
0.0
 71
     7
 72
     1
  1
{\fＭＳ ゴシック|b0|i0|c128|p49;3,900×37×50}
 73
     1
 44
1.0
  0
MTEXT
  5
1BD
330
1F
100
AcDbEntity
  8
0-A
  6
Continuous
 62
     7
370
     9
100
AcDbMText
 10
-1443.333839210304
 20
404.9435114169762
 30
0.0
 40
45.71999999999999
 41
390.0
 46
0.0
 71
     7
 72
     1
  1
{\fＭＳ ゴシック|b0|i0|c128|p49;2,450×37×50}
 73
     1
 44
1.0
  0
MTEXT
  5
1BE
330
1F
100
AcDbEntity
  8
0-A
  6
Continuous
 62
     7
370
     9
100
AcDbMText
 10
-1443.333839210304
 20
300.776838091773
 30
0.0
 40
45.71999999999999
 41
390.0
 46
0.0
 71
     7
 72
     1
  1
{\fＭＳ ゴシック|b0|i0|c128|p49;2,075×37×50}
 73
     1
 44
1.0
  0
MTEXT
  5
1BF
330
1F
100
AcDbEntity
  8
0-A
  6
Continuous
 62
     7
370
     9
100
AcDbMText
 10
-933.3338392103042
 20
509.11018474218
 30
0.0
 40
45.71999999999999
 41
390.0
 46
0.0
 71
     7
 72
     1
  1
{\fＭＳ ゴシック|b0|i0|c128|p49;ＤＧＢＷ16-□}
 73
     1
 44
1.0
  0
MTEXT
  5
1C0
330
1F
100
AcDbEntity
  8
0-A
  6
Continuous
 62
     7
370
     9
100
AcDbMText
 10
-933.3338392103042
 20
404.9435114169762
 30
0.0
 40
45.71999999999999
 41
390.0
 46
0.0
 71
     7
 72
     1
  1
{\fＭＳ ゴシック|b0|i0|c128|p49;ＤＧＢＷ14-□}
 73
     1
 44
1.0
  0
MTEXT
  5
1C1
330
1F
100
AcDbEntity
  8
0-A
  6
Continuous
 62
     7
370
     9
100
AcDbMText
 10
-933.3338392103042
 20
300.776838091773
 30
0.0
 40
45.71999999999999
 41
390.0
 46
0.0
 71
     7
 72
     1
  1
{\fＭＳ ゴシック|b0|i0|c128|p49;ＤＧＢＷ13-□}
 73
     1
 44
1.0
  0
MTEXT
  5
1C2
330
1F
100
AcDbEntity
  8
0-A
  6
Continuous
 62
     7
370
     9
100
AcDbMText
 10
-933.3338392103042
 20
-428.3898751846516
 30
0.0
 40
45.71999999999999
 41
390.0
 46
0.0
 71
     7
 72
     1
  1
{\fＭＳ ゴシック|b0|i0|c128|p49;ＤＧＢＷ26-□}
 73
     1
 44
1.0
  0
MTEXT
  5
1C3
330
1F
100
AcDbEntity
  8
0-A
  6
Continuous
 62
     7
370
     9
100
AcDbMText
 10
-1443.333839210304
 20
-428.3898751846516
 30
0.0
 40
45.71999999999999
 41
390.0
 46
0.0
 71
     7
 72
     1
  1
{\fＭＳ ゴシック|b0|i0|c128|p49;3,900×33×50}
 73
     1
 44
1.0
  0
MTEXT
  5
1C4
330
1F
100
AcDbEntity
  8
0-A
  6
Continuous
 62
     7
370
     9
100
AcDbMText
 10
-1443.333839210304
 20
-532.5565485098551
 30
0.0
 40
45.71999999999999
 41
390.0
 46
0.0
 71
     7
 72
     1
  1
{\fＭＳ ゴシック|b0|i0|c128|p49;2,075×33×50}
 73
     1
 44
1.0
  0
MTEXT
  5
1C5
330
1F
100
AcDbEntity
  8
0-A
  6
Continuous
 62
     7
370
     9
100
AcDbMText
 10
-933.3338392103042
 20
-532.5565485098551
 30
0.0
 40
45.71999999999999
 41
390.0
 46
0.0
 71
     7
 72
     1
  1
{\fＭＳ ゴシック|b0|i0|c128|p49;ＤＧＢＷ23-□}
 73
     1
 44
1.0
  0
MTEXT
  5
1C6
330
1F
100
AcDbEntity
  8
0-A
  6
Continuous
 62
     7
370
     9
100
AcDbMText
 10
-368.333839210303
 20
-532.5565485098556
 30
0.0
 40
45.72
 41
210.0
 46
0.0
 71
     7
 72
     1
  1
{\fＭＳ ゴシック|b0|i0|c128|p49;2(偶数)}
 73
     1
 44
1.0
  0
LINE
  5
1C7
330
1F
100
AcDbEntity
  8
0-B
  6
Continuous
 62
   120
370
     5
100
AcDbLine
 10
-2496.844621429941
 20
-223.3861062893197
 30
0.0
 11
-2496.844621429941
 21
-173.3861062893197
 31
0.0
  0
LWPOLYLINE
  5
1C8
330
1F
100
AcDbEntity
  8
0-B
  6
Continuous
 62
     7
370
     9
100
AcDbPolyline
 90
        4
 70
     1
 43
2.0
 10
-2495.844621429941
 20
-223.3861062893197
 42
0.4142135623731
 10
-2496.844621429941
 20
-222.3861062893197
 42
0.4142135623731
 10
-2497.844621429941
 20
-223.3861062893197
 42
0.4142135623731
 10
-2496.844621429941
 20
-224.3861062893197
 42
0.4142135623731
  0
LINE
  5
1C9
330
1F
100
AcDbEntity
  8
0-0
  6
JWW_HOJO
 62
     7
370
     9
100
AcDbLine
 10
-2546.844621429941
 20
426.6138937106803
 30
0.0
 11
-2546.844621429941
 21
-173.3861062893197
 31
0.0
  0
LINE
  5
1CA
330
1F
100
AcDbEntity
  8
0-0
  6
JWW_HOJO
 62
     7
370
     9
100
AcDbLine
 10
-2076.844621429941
 20
-173.3861062893197
 30
0.0
 11
-2546.844621429941
 21
-173.3861062893197
 31
0.0
  0
LINE
  5
1CB
330
1F
100
AcDbEntity
  8
0-0
  6
JWW_HOJO
 62
     7
370
     9
100
AcDbLine
 10
-2596.844621429941
 20
476.6138937106803
 30
0.0
 11
-2596.844621429941
 21
-223.3861062893197
 31
0.0
  0
LINE
  5
1CC
330
1F
100
AcDbEntity
  8
0-0
  6
JWW_HOJO
 62
     7
370
     9
100
AcDbLine
 10
-2026.844621429941
 20
-223.3861062893197
 30
0.0
 11
-2596.844621429941
 21
-223.3861062893197
 31
0.0
  0
LINE
  5
1CD
330
1F
100
AcDbEntity
  8
0-B
  6
Continuous
 62
   120
370
     5
100
AcDbLine
 10
-2026.844621429941
 20
-123.3861062893197
 30
0.0
 11
-2076.844621429941
 21
-123.3861062893197
 31
0.0
  0
LWPOLYLINE
  5
1CE
330
1F
100
AcDbEntity
  8
0-B
  6
Continuous
 62
     7
370
     9
100
AcDbPolyline
 90
        4
 70
     1
 43
2.0
 10
-2025.844621429941
 20
-123.3861062893197
 42
0.4142135623731
 10
-2026.844621429941
 20
-122.3861062893197
 42
0.4142135623731
 10
-2027.844621429941
 20
-123.3861062893197
 42
0.4142135623731
 10
-2026.844621429941
 20
-124.3861062893197
 42
0.4142135623731
  0
LINE
  5
1CF
330
1F
100
AcDbEntity
  8
0-B
  6
Continuous
 62
   120
370
     5
100
AcDbLine
 10
-2026.844621429941
 20
376.6138937106803
 30
0.0
 11
-2026.844621429941
 21
-123.3861062893197
 31
0.0
  0
LINE
  5
1D0
330
1F
100
AcDbEntity
  8
0-B
  6
Continuous
 62
   120
370
     5
100
AcDbLine
 10
-2126.844621429941
 20
-223.3861062893197
 30
0.0
 11
-2126.844621429941
 21
-173.3861062893197
 31
0.0
  0
LWPOLYLINE
  5
1D1
330
1F
100
AcDbEntity
  8
0-B
  6
Continuous
 62
     7
370
     9
100
AcDbPolyline
 90
        4
 70
     1
 43
2.0
 10
-2125.844621429941
 20
-223.3861062893197
 42
0.4142135623731
 10
-2126.844621429941
 20
-222.3861062893197
 42
0.4142135623731
 10
-2127.844621429941
 20
-223.3861062893197
 42
0.4142135623731
 10
-2126.844621429941
 20
-224.3861062893197
 42
0.4142135623731
  0
LINE
  5
1D2
330
1F
100
AcDbEntity
  8
0-B
  6
Continuous
 62
   120
370
     5
100
AcDbLine
 10
-2496.844621429941
 20
-223.3861062893197
 30
0.0
 11
-2126.844621429941
 21
-223.3861062893197
 31
0.0
  0
LINE
  5
1D3
330
1F
100
AcDbEntity
  8
0-B
  6
Continuous
 62
   120
370
     5
100
AcDbLine
 10
-2246.844621429941
 20
-223.3861062893197
 30
0.0
 11
-2246.844621429941
 21
-173.3861062893197
 31
0.0
  0
LWPOLYLINE
  5
1D4
330
1F
100
AcDbEntity
  8
0-B
  6
Continuous
 62
     7
370
     9
100
AcDbPolyline
 90
        4
 70
     1
 43
2.0
 10
-2245.844621429941
 20
-223.3861062893197
 42
0.4142135623731
 10
-2246.844621429941
 20
-222.3861062893197
 42
0.4142135623731
 10
-2247.844621429941
 20
-223.3861062893197
 42
0.4142135623731
 10
-2246.844621429941
 20
-224.3861062893197
 42
0.4142135623731
  0
LINE
  5
1D5
330
1F
100
AcDbEntity
  8
0-0
  6
JWW_HOJO
 62
     7
370
     9
100
AcDbLine
 10
-2076.844621429941
 20
-173.3861062893197
 30
0.0
 11
-2076.844621429941
 21
361.9692327700079
 31
0.0
  0
LINE
  5
1D6
330
1F
100
AcDbEntity
  8
0-0
  6
JWW_HOJO
 62
     7
370
     9
100
AcDbLine
 10
-2026.844621429941
 20
-223.3861062893197
 30
0.0
 11
-2026.844621429941
 21
382.6799108886627
 31
0.0
  0
LINE
  5
1D7
330
1F
100
AcDbEntity
  8
0-4
  6
Continuous
 62
    92
370
    13
100
AcDbLine
 10
-2131.844621429941
 20
-123.3861062893197
 30
0.0
 11
-2131.844621429941
 21
339.1874868394871
 31
0.0
  0
LINE
  5
1D8
330
1F
100
AcDbEntity
  8
0-4
  6
Continuous
 62
    92
370
    13
100
AcDbLine
 10
-2126.844621429941
 20
-123.3861062893197
 30
0.0
 11
-2126.844621429941
 21
341.2585546513526
 31
0.0
  0
LINE
  5
1D9
330
1F
100
AcDbEntity
  8
0-4
  6
Continuous
 62
    92
370
    13
100
AcDbLine
 10
-2246.844621429941
 20
-123.3861062893197
 30
0.0
 11
-2246.844621429941
 21
288.6138937106801
 31
0.0
  0
LINE
  5
1DA
330
1F
100
AcDbEntity
  8
0-4
  6
Continuous
 62
    92
370
    13
100
AcDbLine
 10
-2126.844621429941
 20
-123.3861062893197
 30
0.0
 11
-2246.844621429941
 21
-123.3861062893197
 31
0.0
  0
MTEXT
  5
1DB
330
1F
100
AcDbEntity
  8
0-B
  6
Continuous
 62
     7
370
   211
100
AcDbMText
 10
-2404.344621429941
 20
-220.5261062893197
 30
0.0
 40
45.72
 41
60.0
 46
0.0
 71
     7
 72
     1
  1
{\fＭＳ ゴシック|b0|i0|c128|p49;25}
 73
     1
 44
1.0
  0
MTEXT
  5
1DC
330
1F
100
AcDbEntity
  8
0-B
  6
Continuous
 62
     7
370
   211
100
AcDbMText
 10
-2219.344621429941
 20
-220.5261062893197
 30
0.0
 40
45.72
 41
60.0
 46
0.0
 71
     7
 72
     1
  1
{\fＭＳ ゴシック|b0|i0|c128|p49;12}
 73
     1
 44
1.0
  0
LINE
  5
1DD
330
1F
100
AcDbEntity
  8
0-B
  6
Continuous
 62
   120
370
     5
100
AcDbLine
 10
-2456.844621429941
 20
-1164.530564641196
 30
0.0
 11
-2456.844621429941
 21
-1114.530564641196
 31
0.0
  0
LWPOLYLINE
  5
1DE
330
1F
100
AcDbEntity
  8
0-B
  6
Continuous
 62
     7
370
     9
100
AcDbPolyline
 90
        4
 70
     1
 43
2.0
 10
-2455.844621429941
 20
-1164.530564641196
 42
0.4142135623731
 10
-2456.844621429941
 20
-1163.530564641196
 42
0.4142135623731
 10
-2457.844621429941
 20
-1164.530564641196
 42
0.4142135623731
 10
-2456.844621429941
 20
-1165.530564641196
 42
0.4142135623731
  0
LINE
  5
1DF
330
1F
100
AcDbEntity
  8
0-0
  6
JWW_HOJO
 62
     7
370
     9
100
AcDbLine
 10
-2076.844621429941
 20
-1114.530564641196
 30
0.0
 11
-2506.844621429941
 21
-1114.530564641196
 31
0.0
  0
LINE
  5
1E0
330
1F
100
AcDbEntity
  8
0-0
  6
JWW_HOJO
 62
     7
370
     9
100
AcDbLine
 10
-2506.844621429941
 20
-514.5305646411964
 30
0.0
 11
-2506.844621429941
 21
-1114.530564641196
 31
0.0
  0
LINE
  5
1E1
330
1F
100
AcDbEntity
  8
0-0
  6
JWW_HOJO
 62
     7
370
     9
100
AcDbLine
 10
-2026.844621429941
 20
-1164.530564641196
 30
0.0
 11
-2556.844621429941
 21
-1164.530564641196
 31
0.0
  0
LINE
  5
1E2
330
1F
100
AcDbEntity
  8
0-0
  6
JWW_HOJO
 62
     7
370
     9
100
AcDbLine
 10
-2556.844621429941
 20
-464.5305646411964
 30
0.0
 11
-2556.844621429941
 21
-1164.530564641196
 31
0.0
  0
LINE
  5
1E3
330
1F
100
AcDbEntity
  8
0-B
  6
Continuous
 62
   120
370
     5
100
AcDbLine
 10
-2026.844621429941
 20
-1064.530564641196
 30
0.0
 11
-2076.844621429941
 21
-1064.530564641196
 31
0.0
  0
LWPOLYLINE
  5
1E4
330
1F
100
AcDbEntity
  8
0-B
  6
Continuous
 62
     7
370
     9
100
AcDbPolyline
 90
        4
 70
     1
 43
2.0
 10
-2025.844621429941
 20
-1064.530564641196
 42
0.4142135623731
 10
-2026.844621429941
 20
-1063.530564641196
 42
0.4142135623731
 10
-2027.844621429941
 20
-1064.530564641196
 42
0.4142135623731
 10
-2026.844621429941
 20
-1065.530564641196
 42
0.4142135623731
  0
LINE
  5
1E5
330
1F
100
AcDbEntity
  8
0-B
  6
Continuous
 62
   120
370
     5
100
AcDbLine
 10
-2026.844621429941
 20
-564.5305646411964
 30
0.0
 11
-2026.844621429941
 21
-1064.530564641196
 31
0.0
  0
LINE
  5
1E6
330
1F
100
AcDbEntity
  8
0-B
  6
Continuous
 62
   120
370
     5
100
AcDbLine
 10
-2126.844621429941
 20
-1164.530564641196
 30
0.0
 11
-2126.844621429941
 21
-1114.530564641196
 31
0.0
  0
LWPOLYLINE
  5
1E7
330
1F
100
AcDbEntity
  8
0-B
  6
Continuous
 62
     7
370
     9
100
AcDbPolyline
 90
        4
 70
     1
 43
2.0
 10
-2125.844621429941
 20
-1164.530564641196
 42
0.4142135623731
 10
-2126.844621429941
 20
-1163.530564641196
 42
0.4142135623731
 10
-2127.844621429941
 20
-1164.530564641196
 42
0.4142135623731
 10
-2126.844621429941
 20
-1165.530564641196
 42
0.4142135623731
  0
LINE
  5
1E8
330
1F
100
AcDbEntity
  8
0-B
  6
Continuous
 62
   120
370
     5
100
AcDbLine
 10
-2456.844621429941
 20
-1164.530564641196
 30
0.0
 11
-2126.844621429941
 21
-1164.530564641196
 31
0.0
  0
LINE
  5
1E9
330
1F
100
AcDbEntity
  8
0-B
  6
Continuous
 62
   120
370
     5
100
AcDbLine
 10
-2206.844621429941
 20
-1164.530564641196
 30
0.0
 11
-2206.844621429941
 21
-1114.530564641196
 31
0.0
  0
LWPOLYLINE
  5
1EA
330
1F
100
AcDbEntity
  8
0-B
  6
Continuous
 62
     7
370
     9
100
AcDbPolyline
 90
        4
 70
     1
 43
2.0
 10
-2205.844621429941
 20
-1164.530564641196
 42
0.4142135623731
 10
-2206.844621429941
 20
-1163.530564641196
 42
0.4142135623731
 10
-2207.844621429941
 20
-1164.530564641196
 42
0.4142135623731
 10
-2206.844621429941
 20
-1165.530564641196
 42
0.4142135623731
  0
LINE
  5
1EB
330
1F
100
AcDbEntity
  8
0-0
  6
JWW_HOJO
 62
     7
370
     9
100
AcDbLine
 10
-2076.844621429941
 20
-1114.530564641196
 30
0.0
 11
-2076.844621429941
 21
-557.9620221462727
 31
0.0
  0
LINE
  5
1EC
330
1F
100
AcDbEntity
  8
0-0
  6
JWW_HOJO
 62
     7
370
     9
100
AcDbLine
 10
-2026.844621429941
 20
-1164.530564641196
 30
0.0
 11
-2026.844621429941
 21
-537.251344027618
 31
0.0
  0
LINE
  5
1ED
330
1F
100
AcDbEntity
  8
0-4
  6
Continuous
 62
    92
370
    13
100
AcDbLine
 10
-2131.844621429941
 20
-1064.530564641196
 30
0.0
 11
-2131.844621429941
 21
-580.743768076793
 31
0.0
  0
LINE
  5
1EE
330
1F
100
AcDbEntity
  8
0-4
  6
Continuous
 62
    92
370
    13
100
AcDbLine
 10
-2126.844621429941
 20
-1064.530564641196
 30
0.0
 11
-2126.844621429941
 21
-578.6727002649275
 31
0.0
  0
LINE
  5
1EF
330
1F
100
AcDbEntity
  8
0-4
  6
Continuous
 62
    92
370
    13
100
AcDbLine
 10
-2206.844621429941
 20
-1064.530564641196
 30
0.0
 11
-2206.844621429941
 21
-652.5305646411965
 31
0.0
  0
LINE
  5
1F0
330
1F
100
AcDbEntity
  8
0-4
  6
Continuous
 62
    92
370
    13
100
AcDbLine
 10
-2126.844621429941
 20
-1064.530564641196
 30
0.0
 11
-2206.844621429941
 21
-1064.530564641196
 31
0.0
  0
MTEXT
  5
1F1
330
1F
100
AcDbEntity
  8
0-B
  6
Continuous
 62
     7
370
   211
100
AcDbMText
 10
-2364.344621429941
 20
-1161.670564641197
 30
0.0
 40
45.72
 41
60.0
 46
0.0
 71
     7
 72
     1
  1
{\fＭＳ ゴシック|b0|i0|c128|p49;25}
 73
     1
 44
1.0
  0
MTEXT
  5
1F2
330
1F
100
AcDbEntity
  8
0-B
  6
Continuous
 62
     7
370
   211
100
AcDbMText
 10
-2181.844621429941
 20
-1161.670564641197
 30
0.0
 40
45.72
 41
30.0
 46
0.0
 71
     7
 72
     1
  1
{\fＭＳ ゴシック|b0|i0|c128|p49;8}
 73
     1
 44
1.0
  0
MTEXT
  5
1F3
330
1F
100
AcDbEntity
  8
0-B
  6
Continuous
 62
     7
370
   211
100
AcDbMText
 10
-2036.844621429941
 20
86.97389371068026
 30
0.0
 40
45.72
 41
60.0
 46
0.0
 71
     7
 72
     1
  1
{\fＭＳ ゴシック|b0|i0|c128|p49;50}
 11
6.123031769111886E-17
 21
1.0
 31
0.0
 73
     1
 44
1.0
  0
MTEXT
  5
1F4
330
1F
100
AcDbEntity
  8
0-B
  6
Continuous
 62
     7
370
   211
100
AcDbMText
 10
-2036.844621429941
 20
-854.1705646411964
 30
0.0
 40
45.72
 41
60.0
 46
0.0
 71
     7
 72
     1
  1
{\fＭＳ ゴシック|b0|i0|c128|p49;50}
 11
6.123031769111886E-17
 21
1.0
 31
0.0
 73
     1
 44
1.0
  0
LINE
  5
1F5
330
1F
100
AcDbEntity
  8
F-1
  6
JWW_DASHED1
 62
     7
370
     9
100
AcDbLine
 10
603.3330144108953
 20
-339.16653852205
 30
0.0
 11
3793.332651499156
 21
-339.16653852205
 31
0.0
  0
LINE
  5
1F6
330
1F
100
AcDbEntity
  8
F-1
  6
JWW_DASHED1
 62
     7
370
     9
100
AcDbLine
 10
3793.332651499156
 20
-26.66651854643931
 30
0.0
 11
2373.332651499156
 21
-26.66651854643931
 31
0.0
  0
LINE
  5
1F7
330
1F
100
AcDbEntity
  8
F-1
  6
JWW_DASHED1
 62
     7
370
     9
100
AcDbLine
 10
3793.332651499156
 20
-651.6665584976613
 30
0.0
 11
2373.332651499156
 21
-651.6665584976613
 31
0.0
  0
LINE
  5
1F8
330
1F
100
AcDbEntity
  8
0-B
  6
Continuous
 62
   120
370
     5
100
AcDbLine
 10
1169.821745559607
 20
2166.888678939661
 30
0.0
 11
1219.821745559607
 21
2166.888678939661
 31
0.0
  0
LINE
  5
1F9
330
1F
100
AcDbEntity
  8
0-B
  6
Continuous
 62
   120
370
     5
100
AcDbLine
 10
1169.821745559607
 20
2254.888678939661
 30
0.0
 11
1219.821745559607
 21
2254.888678939661
 31
0.0
  0
LWPOLYLINE
  5
1FA
330
1F
100
AcDbEntity
  8
0-B
  6
Continuous
 62
     7
370
     9
100
AcDbPolyline
 90
        4
 70
     1
 43
2.0
 10
1170.821745559607
 20
2166.888678939661
 42
0.4142135623731
 10
1169.821745559607
 20
2167.888678939661
 42
0.4142135623731
 10
1168.821745559608
 20
2166.888678939661
 42
0.4142135623731
 10
1169.821745559607
 20
2165.888678939661
 42
0.4142135623731
  0
LWPOLYLINE
  5
1FB
330
1F
100
AcDbEntity
  8
0-B
  6
Continuous
 62
     7
370
     9
100
AcDbPolyline
 90
        4
 70
     1
 43
2.0
 10
1170.821745559607
 20
2254.888678939661
 42
0.4142135623731
 10
1169.821745559607
 20
2255.888678939661
 42
0.4142135623731
 10
1168.821745559608
 20
2254.888678939661
 42
0.4142135623731
 10
1169.821745559607
 20
2253.888678939662
 42
0.4142135623731
  0
LINE
  5
1FC
330
1F
100
AcDbEntity
  8
0-B
  6
Continuous
 62
   120
370
     5
100
AcDbLine
 10
1169.821745559607
 20
2254.888678939661
 30
0.0
 11
1169.821745559607
 21
2166.888678939661
 31
0.0
  0
LINE
  5
1FD
330
1F
100
AcDbEntity
  8
0-B
  6
Continuous
 62
   120
370
     5
100
AcDbLine
 10
1269.821745559607
 20
2354.888678939661
 30
0.0
 11
1269.821745559607
 21
2304.888678939661
 31
0.0
  0
LWPOLYLINE
  5
1FE
330
1F
100
AcDbEntity
  8
0-B
  6
Continuous
 62
     7
370
     9
100
AcDbPolyline
 90
        4
 70
     1
 43
2.0
 10
1270.821745559607
 20
2354.888678939661
 42
0.4142135623731
 10
1269.821745559607
 20
2355.888678939661
 42
0.4142135623731
 10
1268.821745559608
 20
2354.888678939661
 42
0.4142135623731
 10
1269.821745559607
 20
2353.888678939662
 42
0.4142135623731
  0
LINE
  5
1FF
330
1F
100
AcDbEntity
  8
0-B
  6
Continuous
 62
   120
370
     5
100
AcDbLine
 10
1269.821745559607
 20
2354.888678939661
 30
0.0
 11
1769.821745559607
 21
2354.888678939661
 31
0.0
  0
LINE
  5
200
330
1F
100
AcDbEntity
  8
0-0
  6
JWW_HOJO
 62
     7
370
     9
100
AcDbLine
 10
1219.821745559607
 20
2304.888678939661
 30
0.0
 11
1755.177084618934
 21
2304.888678939661
 31
0.0
  0
LINE
  5
201
330
1F
100
AcDbEntity
  8
0-0
  6
JWW_HOJO
 62
     7
370
     9
100
AcDbLine
 10
1169.821745559607
 20
2354.888678939661
 30
0.0
 11
1775.887762737589
 21
2354.888678939661
 31
0.0
  0
LINE
  5
202
330
1F
100
AcDbEntity
  8
0-4
  6
Continuous
 62
    92
370
    13
100
AcDbLine
 10
1269.821745559607
 20
2249.888678939661
 30
0.0
 11
1732.395338688414
 21
2249.888678939661
 31
0.0
  0
LINE
  5
203
330
1F
100
AcDbEntity
  8
0-4
  6
Continuous
 62
    92
370
    13
100
AcDbLine
 10
1269.821745559607
 20
2254.888678939661
 30
0.0
 11
1734.466406500278
 21
2254.888678939661
 31
0.0
  0
LINE
  5
204
330
1F
100
AcDbEntity
  8
0-4
  6
Continuous
 62
    92
370
    13
100
AcDbLine
 10
1269.821745559607
 20
2166.888678939661
 30
0.0
 11
1649.821745559607
 21
2166.888678939661
 31
0.0
  0
LINE
  5
205
330
1F
100
AcDbEntity
  8
0-4
  6
Continuous
 62
    92
370
    13
100
AcDbLine
 10
1269.821745559607
 20
2254.888678939661
 30
0.0
 11
1269.821745559607
 21
2166.888678939661
 31
0.0
  0
LINE
  5
206
330
1F
100
AcDbEntity
  8
0-B
  6
Continuous
 62
   120
370
     5
100
AcDbLine
 10
1837.499415089269
 20
2287.211009409998
 30
0.0
 11
1805.177084618934
 21
2254.888678939661
 31
0.0
  0
LINE
  5
207
330
1F
100
AcDbEntity
  8
0-B
  6
Continuous
 62
   120
370
     5
100
AcDbLine
 10
1802.144076029943
 20
2322.566348469325
 30
0.0
 11
1769.821745559607
 21
2290.244017998989
 31
0.0
  0
LWPOLYLINE
  5
208
330
1F
100
AcDbEntity
  8
0-B
  6
Continuous
 62
     7
370
     9
100
AcDbPolyline
 90
        4
 70
     1
 43
2.0
 10
1838.499415089269
 20
2287.211009409998
 42
0.4142135623731
 10
1837.499415089269
 20
2288.211009409998
 42
0.4142135623731
 10
1836.49941508927
 20
2287.211009409998
 42
0.4142135623731
 10
1837.499415089269
 20
2286.211009409998
 42
0.4142135623731
  0
LWPOLYLINE
  5
209
330
1F
100
AcDbEntity
  8
0-B
  6
Continuous
 62
     7
370
     9
100
AcDbPolyline
 90
        4
 70
     1
 43
2.0
 10
1803.144076029943
 20
2322.566348469325
 42
0.4142135623731
 10
1802.144076029943
 20
2323.566348469325
 42
0.4142135623731
 10
1801.144076029943
 20
2322.566348469325
 42
0.4142135623731
 10
1802.144076029943
 20
2321.566348469325
 42
0.4142135623731
  0
LINE
  5
20A
330
1F
100
AcDbEntity
  8
0-B
  6
Continuous
 62
   120
370
     5
100
AcDbLine
 10
1802.144076029943
 20
2322.566348469325
 30
0.0
 11
1837.499415089269
 21
2287.211009409998
 31
0.0
  0
LINE
  5
20B
330
1F
100
AcDbEntity
  8
0-B
  6
Continuous
 62
   120
370
     5
100
AcDbLine
 10
1869.821745559607
 20
2254.888678939661
 30
0.0
 11
1819.821745559607
 21
2254.888678939661
 31
0.0
  0
LWPOLYLINE
  5
20C
330
1F
100
AcDbEntity
  8
0-B
  6
Continuous
 62
     7
370
     9
100
AcDbPolyline
 90
        4
 70
     1
 43
2.0
 10
1870.821745559607
 20
2254.888678939661
 42
0.4142135623731
 10
1869.821745559607
 20
2255.888678939661
 42
0.4142135623731
 10
1868.821745559608
 20
2254.888678939661
 42
0.4142135623731
 10
1869.821745559607
 20
2253.888678939662
 42
0.4142135623731
  0
LINE
  5
20D
330
1F
100
AcDbEntity
  8
0-B
  6
Continuous
 62
   120
370
     5
100
AcDbLine
 10
1769.821745559607
 20
2354.888678939661
 30
0.0
 11
1769.821745559607
 21
2304.888678939661
 31
0.0
  0
LWPOLYLINE
  5
20E
330
1F
100
AcDbEntity
  8
0-B
  6
Continuous
 62
     7
370
     9
100
AcDbPolyline
 90
        4
 70
     1
 43
2.0
 10
1770.821745559607
 20
2354.888678939661
 42
0.4142135623731
 10
1769.821745559607
 20
2355.888678939661
 42
0.4142135623731
 10
1768.821745559608
 20
2354.888678939661
 42
0.4142135623731
 10
1769.821745559607
 20
2353.888678939662
 42
0.4142135623731
  0
LINE
  5
20F
330
1F
100
AcDbEntity
  8
0-0
  6
JWW_HOJO
 62
     7
370
     9
100
AcDbLine
 10
1755.177084618934
 20
2304.888678939661
 30
0.0
 11
1819.821745559607
 21
2240.244017998989
 31
0.0
  0
LINE
  5
210
330
1F
100
AcDbEntity
  8
0-0
  6
JWW_HOJO
 62
     7
370
     9
100
AcDbLine
 10
1775.887762737589
 20
2354.888678939661
 30
0.0
 11
1869.821745559607
 21
2260.954696117644
 31
0.0
  0
LINE
  5
211
330
1F
100
AcDbEntity
  8
0-4
  6
Continuous
 62
    92
370
    13
100
AcDbLine
 10
1732.395338688414
 20
2249.888678939661
 30
0.0
 11
1764.821745559607
 21
2217.462272068468
 31
0.0
  0
LINE
  5
212
330
1F
100
AcDbEntity
  8
0-4
  6
Continuous
 62
    92
370
    13
100
AcDbLine
 10
1734.466406500278
 20
2254.888678939661
 30
0.0
 11
1769.821745559607
 21
2219.533339880334
 31
0.0
  0
MTEXT
  5
213
330
1F
100
AcDbEntity
  8
0-A
  6
Continuous
 62
     7
370
     9
100
AcDbMText
 10
3528.332527779246
 20
2385.204040194731
 30
0.0
 40
45.72
 41
210.0
 46
0.0
 71
     7
 72
     1
  1
{\fＭＳ ゴシック|b0|i0|c128|p49;2(偶数)}
 73
     1
 44
1.0
  0
MTEXT
  5
214
330
1F
100
AcDbEntity
  8
0-A
  6
Continuous
 62
     7
370
     9
100
AcDbMText
 10
3528.332527779246
 20
2279.943631270641
 30
0.0
 40
45.72
 41
210.0
 46
0.0
 71
     7
 72
     1
  1
{\fＭＳ ゴシック|b0|i0|c128|p49;2(偶数)}
 73
     1
 44
1.0
  0
MTEXT
  5
215
330
1F
100
AcDbEntity
  8
0-A
  6
Continuous
 62
     7
370
     9
100
AcDbMText
 10
3528.332527779246
 20
2175.776957945438
 30
0.0
 40
45.72
 41
210.0
 46
0.0
 71
     7
 72
     1
  1
{\fＭＳ ゴシック|b0|i0|c128|p49;2(偶数)}
 73
     1
 44
1.0
  0
MTEXT
  5
216
330
1F
100
AcDbEntity
  8
0-B
  6
Continuous
 62
     7
370
   211
100
AcDbMText
 10
1487.321745559607
 20
2357.748678939661
 30
0.0
 40
45.72
 41
60.0
 46
0.0
 71
     7
 72
     1
  1
{\fＭＳ ゴシック|b0|i0|c128|p49;50}
 73
     1
 44
1.0
  0
MTEXT
  5
217
330
1F
100
AcDbEntity
  8
0-B
  6
Continuous
 62
     7
370
   211
100
AcDbMText
 10
1816.286211653675
 20
2315.426348469324
 30
0.0
 40
45.71999999999945
 41
29.99999999999964
 46
0.0
 71
     7
 72
     1
  1
{\fＭＳ ゴシック|b0|i0|c128|p49;5}
 11
0.7071067811865285
 21
-0.7071067811865666
 31
0.0
 73
     1
 44
1.0
  0
MTEXT
  5
218
330
1F
100
AcDbEntity
  8
0-B
  6
Continuous
 62
     7
370
   211
100
AcDbMText
 10
1159.821745559607
 20
2153.748678939661
 30
0.0
 40
45.72
 41
90.0
 46
0.0
 71
     7
 72
     1
  1
{\fＭＳ ゴシック|b0|i0|c128|p49;8.8}
 11
6.123031769111886E-17
 21
1.0
 31
0.0
 73
     1
 44
1.0
  0
LINE
  5
219
330
1F
100
AcDbEntity
  8
0-B
  6
Continuous
 62
   120
370
     5
100
AcDbLine
 10
1220.110813068591
 20
1236.30768281319
 30
0.0
 11
1270.110813068591
 21
1236.30768281319
 31
0.0
  0
LINE
  5
21A
330
1F
100
AcDbEntity
  8
0-B
  6
Continuous
 62
   120
370
     5
100
AcDbLine
 10
1220.110813068591
 20
1324.30768281319
 30
0.0
 11
1270.110813068591
 21
1324.30768281319
 31
0.0
  0
LWPOLYLINE
  5
21B
330
1F
100
AcDbEntity
  8
0-B
  6
Continuous
 62
     7
370
     9
100
AcDbPolyline
 90
        4
 70
     1
 43
2.0
 10
1221.110813068591
 20
1236.30768281319
 42
0.4142135623731
 10
1220.110813068591
 20
1237.30768281319
 42
0.4142135623731
 10
1219.110813068591
 20
1236.30768281319
 42
0.4142135623731
 10
1220.110813068591
 20
1235.30768281319
 42
0.4142135623731
  0
LWPOLYLINE
  5
21C
330
1F
100
AcDbEntity
  8
0-B
  6
Continuous
 62
     7
370
     9
100
AcDbPolyline
 90
        4
 70
     1
 43
2.0
 10
1221.110813068591
 20
1324.30768281319
 42
0.4142135623731
 10
1220.110813068591
 20
1325.30768281319
 42
0.4142135623731
 10
1219.110813068591
 20
1324.30768281319
 42
0.4142135623731
 10
1220.110813068591
 20
1323.30768281319
 42
0.4142135623731
  0
LINE
  5
21D
330
1F
100
AcDbEntity
  8
0-B
  6
Continuous
 62
   120
370
     5
100
AcDbLine
 10
1220.110813068591
 20
1324.30768281319
 30
0.0
 11
1220.110813068591
 21
1236.30768281319
 31
0.0
  0
LINE
  5
21E
330
1F
100
AcDbEntity
  8
0-B
  6
Continuous
 62
   120
370
     5
100
AcDbLine
 10
1320.110813068591
 20
1424.30768281319
 30
0.0
 11
1320.110813068591
 21
1374.30768281319
 31
0.0
  0
LWPOLYLINE
  5
21F
330
1F
100
AcDbEntity
  8
0-B
  6
Continuous
 62
     7
370
     9
100
AcDbPolyline
 90
        4
 70
     1
 43
2.0
 10
1321.110813068591
 20
1424.30768281319
 42
0.4142135623731
 10
1320.110813068591
 20
1425.30768281319
 42
0.4142135623731
 10
1319.110813068591
 20
1424.30768281319
 42
0.4142135623731
 10
1320.110813068591
 20
1423.30768281319
 42
0.4142135623731
  0
LINE
  5
220
330
1F
100
AcDbEntity
  8
0-B
  6
Continuous
 62
   120
370
     5
100
AcDbLine
 10
1320.110813068591
 20
1424.30768281319
 30
0.0
 11
1780.110813068591
 21
1424.30768281319
 31
0.0
  0
LINE
  5
221
330
1F
100
AcDbEntity
  8
0-0
  6
JWW_HOJO
 62
     7
370
     9
100
AcDbLine
 10
1270.110813068591
 20
1374.30768281319
 30
0.0
 11
1786.679355563515
 21
1374.30768281319
 31
0.0
  0
LINE
  5
222
330
1F
100
AcDbEntity
  8
0-0
  6
JWW_HOJO
 62
     7
370
     9
100
AcDbLine
 10
1220.110813068591
 20
1424.30768281319
 30
0.0
 11
1807.390033682171
 21
1424.30768281319
 31
0.0
  0
LINE
  5
223
330
1F
100
AcDbEntity
  8
0-4
  6
Continuous
 62
    92
370
    13
100
AcDbLine
 10
1320.110813068591
 20
1319.30768281319
 30
0.0
 11
1763.897609632996
 21
1319.30768281319
 31
0.0
  0
LINE
  5
224
330
1F
100
AcDbEntity
  8
0-4
  6
Continuous
 62
    92
370
    13
100
AcDbLine
 10
1320.110813068591
 20
1324.30768281319
 30
0.0
 11
1765.96867744486
 21
1324.30768281319
 31
0.0
  0
LINE
  5
225
330
1F
100
AcDbEntity
  8
0-4
  6
Continuous
 62
    92
370
    13
100
AcDbLine
 10
1320.110813068591
 20
1236.30768281319
 30
0.0
 11
1700.110813068591
 21
1236.30768281319
 31
0.0
  0
LINE
  5
226
330
1F
100
AcDbEntity
  8
0-4
  6
Continuous
 62
    92
370
    13
100
AcDbLine
 10
1320.110813068591
 20
1324.30768281319
 30
0.0
 11
1320.110813068591
 21
1236.30768281319
 31
0.0
  0
LINE
  5
227
330
1F
100
AcDbEntity
  8
0-B
  6
Continuous
 62
   120
370
     5
100
AcDbLine
 10
1850.821491187246
 20
1380.876225308114
 30
0.0
 11
1815.46615212792
 21
1345.520886248787
 31
0.0
  0
LINE
  5
228
330
1F
100
AcDbEntity
  8
0-B
  6
Continuous
 62
   120
370
     5
100
AcDbLine
 10
1836.679355563515
 20
1395.018360931845
 30
0.0
 11
1801.324016504189
 21
1359.663021872518
 31
0.0
  0
LWPOLYLINE
  5
229
330
1F
100
AcDbEntity
  8
0-B
  6
Continuous
 62
     7
370
     9
100
AcDbPolyline
 90
        4
 70
     1
 43
2.0
 10
1851.821491187246
 20
1380.876225308114
 42
0.4142135623731
 10
1850.821491187246
 20
1381.876225308114
 42
0.4142135623731
 10
1849.821491187247
 20
1380.876225308114
 42
0.4142135623731
 10
1850.821491187246
 20
1379.876225308114
 42
0.4142135623731
  0
LWPOLYLINE
  5
22A
330
1F
100
AcDbEntity
  8
0-B
  6
Continuous
 62
     7
370
     9
100
AcDbPolyline
 90
        4
 70
     1
 43
2.0
 10
1837.679355563515
 20
1395.018360931845
 42
0.4142135623731
 10
1836.679355563515
 20
1396.018360931845
 42
0.4142135623731
 10
1835.679355563516
 20
1395.018360931845
 42
0.4142135623731
 10
1836.679355563515
 20
1394.018360931845
 42
0.4142135623731
  0
LINE
  5
22B
330
1F
100
AcDbEntity
  8
0-B
  6
Continuous
 62
   120
370
     5
100
AcDbLine
 10
1836.679355563515
 20
1395.018360931845
 30
0.0
 11
1850.821491187246
 21
1380.876225308114
 31
0.0
  0
LINE
  5
22C
330
1F
100
AcDbEntity
  8
0-B
  6
Continuous
 62
   120
370
     5
100
AcDbLine
 10
1880.110813068591
 20
1324.30768281319
 30
0.0
 11
1830.110813068591
 21
1324.30768281319
 31
0.0
  0
LWPOLYLINE
  5
22D
330
1F
100
AcDbEntity
  8
0-B
  6
Continuous
 62
     7
370
     9
100
AcDbPolyline
 90
        4
 70
     1
 43
2.0
 10
1881.110813068591
 20
1324.30768281319
 42
0.4142135623731
 10
1880.110813068591
 20
1325.30768281319
 42
0.4142135623731
 10
1879.110813068591
 20
1324.30768281319
 42
0.4142135623731
 10
1880.110813068591
 20
1323.30768281319
 42
0.4142135623731
  0
LINE
  5
22E
330
1F
100
AcDbEntity
  8
0-B
  6
Continuous
 62
   120
370
     5
100
AcDbLine
 10
1780.110813068591
 20
1424.30768281319
 30
0.0
 11
1780.110813068591
 21
1374.30768281319
 31
0.0
  0
LWPOLYLINE
  5
22F
330
1F
100
AcDbEntity
  8
0-B
  6
Continuous
 62
     7
370
     9
100
AcDbPolyline
 90
        4
 70
     1
 43
2.0
 10
1781.110813068591
 20
1424.30768281319
 42
0.4142135623731
 10
1780.110813068591
 20
1425.30768281319
 42
0.4142135623731
 10
1779.110813068591
 20
1424.30768281319
 42
0.4142135623731
 10
1780.110813068591
 20
1423.30768281319
 42
0.4142135623731
  0
LINE
  5
230
330
1F
100
AcDbEntity
  8
0-0
  6
JWW_HOJO
 62
     7
370
     9
100
AcDbLine
 10
1786.679355563515
 20
1374.30768281319
 30
0.0
 11
1830.110813068591
 21
1330.876225308114
 31
0.0
  0
LINE
  5
231
330
1F
100
AcDbEntity
  8
0-0
  6
JWW_HOJO
 62
     7
370
     9
100
AcDbLine
 10
1807.390033682171
 20
1424.30768281319
 30
0.0
 11
1880.110813068591
 21
1351.586903426769
 31
0.0
  0
LINE
  5
232
330
1F
100
AcDbEntity
  8
0-4
  6
Continuous
 62
    92
370
    13
100
AcDbLine
 10
1763.897609632996
 20
1319.30768281319
 30
0.0
 11
1775.110813068591
 21
1308.094479377594
 31
0.0
  0
LINE
  5
233
330
1F
100
AcDbEntity
  8
0-4
  6
Continuous
 62
    92
370
    13
100
AcDbLine
 10
1765.96867744486
 20
1324.30768281319
 30
0.0
 11
1780.110813068591
 21
1310.165547189459
 31
0.0
  0
MTEXT
  5
234
330
1F
100
AcDbEntity
  8
0-A
  6
Continuous
 62
     7
370
     9
100
AcDbMText
 10
3528.332527779246
 20
1447.703980267898
 30
0.0
 40
45.72
 41
210.0
 46
0.0
 71
     7
 72
     1
  1
{\fＭＳ ゴシック|b0|i0|c128|p49;2(偶数)}
 73
     1
 44
1.0
  0
MTEXT
  5
235
330
1F
100
AcDbEntity
  8
0-B
  6
Continuous
 62
     7
370
   211
100
AcDbMText
 10
1517.611122368369
 20
1427.16768281319
 30
0.0
 40
45.72
 41
60.0
 46
0.0
 71
     7
 72
     1
  1
{\fＭＳ ゴシック|b0|i0|c128|p49;46}
 73
     1
 44
1.0
  0
MTEXT
  5
236
330
1F
100
AcDbEntity
  8
0-B
  6
Continuous
 62
     7
370
   211
100
AcDbMText
 10
1840.214889469449
 20
1398.484962649644
 30
0.0
 40
45.72000000000067
 41
30.00000000000044
 46
0.0
 71
     7
 72
     1
  1
{\fＭＳ ゴシック|b0|i0|c128|p49;2}
 11
0.7071067811865374
 21
-0.7071067811865577
 31
0.0
 73
     1
 44
1.0
  0
MTEXT
  5
237
330
1F
100
AcDbEntity
  8
0-B
  6
Continuous
 62
     7
370
   211
100
AcDbMText
 10
1210.110813068591
 20
1223.16768281319
 30
0.0
 40
45.72
 41
90.0
 46
0.0
 71
     7
 72
     1
  1
{\fＭＳ ゴシック|b0|i0|c128|p49;8.8}
 11
6.123031769111886E-17
 21
1.0
 31
0.0
 73
     1
 44
1.0
  0
MTEXT
  5
238
330
1F
100
AcDbEntity
  8
0-A
  6
Continuous
 62
     7
370
     9
100
AcDbMText
 10
173.3330272983864
 20
1455.138285573429
 30
0.0
 40
60.96
 41
160.0
 46
0.0
 71
     7
 72
     1
  1
{\fＭＳ ゴシック|b0|i0|c128|p49;Ｘ型}
 73
     1
 44
1.0
  0
MTEXT
  5
239
330
1F
100
AcDbEntity
  8
0-A
  6
Continuous
 62
     7
370
     9
100
AcDbMText
 10
53.33302729838636
 20
1575.138285573429
 30
0.0
 40
60.96
 41
400.0
 46
0.0
 71
     7
 72
     1
  1
{\fＭＳ ゴシック|b0|i0|c128|p49;ケーシング}
 73
     1
 44
1.0
  0
MTEXT
  5
23A
330
1F
100
AcDbEntity
  8
0-A
  6
Continuous
 62
     7
370
     0
100
AcDbMText
 10
633.3330144108953
 20
1363.813561356003
 30
0.0
 40
60.96
 41
560.0
 46
0.0
 71
     7
 72
     1
  1
{\f@ＭＳ ゴシック|b0|i0|c128|p49;横 用（竪勝ち)}
 11
-1.836909530733566E-16
 21
-1.0
 31
0.0
 73
     1
 44
1.0
  0
MTEXT
  5
23B
330
1F
100
AcDbEntity
  8
0-A
  6
Continuous
 62
     7
370
     0
100
AcDbMText
 10
633.3330144108953
 20
2141.313621282835
 30
0.0
 40
60.96
 41
240.0
 46
0.0
 71
     7
 72
     1
  1
{\f@ＭＳ ゴシック|b0|i0|c128|p49;竪用・}
 11
-1.836909530733566E-16
 21
-1.0
 31
0.0
 73
     1
 44
1.0
  0
LINE
  5
23C
330
1F
100
AcDbEntity
  8
0-B
  6
Continuous
 62
   120
370
     5
100
AcDbLine
 10
1269.821745559607
 20
1654.888678939661
 30
0.0
 11
1269.821745559607
 21
1704.888678939661
 31
0.0
  0
LWPOLYLINE
  5
23D
330
1F
100
AcDbEntity
  8
0-B
  6
Continuous
 62
     7
370
     9
100
AcDbPolyline
 90
        4
 70
     1
 43
2.0
 10
1270.821745559607
 20
1654.888678939661
 42
0.4142135623731
 10
1269.821745559607
 20
1655.888678939661
 42
0.4142135623731
 10
1268.821745559608
 20
1654.888678939661
 42
0.4142135623731
 10
1269.821745559607
 20
1653.888678939661
 42
0.4142135623731
  0
LINE
  5
23E
330
1F
100
AcDbEntity
  8
0-0
  6
JWW_HOJO
 62
     7
370
     9
100
AcDbLine
 10
1219.821745559607
 20
2304.888678939661
 30
0.0
 11
1219.821745559607
 21
1704.888678939661
 31
0.0
  0
LINE
  5
23F
330
1F
100
AcDbEntity
  8
0-0
  6
JWW_HOJO
 62
     7
370
     9
100
AcDbLine
 10
1819.821745559607
 20
1704.888678939661
 30
0.0
 11
1219.821745559607
 21
1704.888678939661
 31
0.0
  0
LINE
  5
240
330
1F
100
AcDbEntity
  8
0-0
  6
JWW_HOJO
 62
     7
370
     9
100
AcDbLine
 10
1169.821745559607
 20
2354.888678939661
 30
0.0
 11
1169.821745559607
 21
1654.888678939661
 31
0.0
  0
LINE
  5
241
330
1F
100
AcDbEntity
  8
0-0
  6
JWW_HOJO
 62
     7
370
     9
100
AcDbLine
 10
1869.821745559607
 20
1654.888678939661
 30
0.0
 11
1169.821745559607
 21
1654.888678939661
 31
0.0
  0
LINE
  5
242
330
1F
100
AcDbEntity
  8
0-B
  6
Continuous
 62
   120
370
     5
100
AcDbLine
 10
1869.821745559607
 20
1754.888678939661
 30
0.0
 11
1819.821745559607
 21
1754.888678939661
 31
0.0
  0
LWPOLYLINE
  5
243
330
1F
100
AcDbEntity
  8
0-B
  6
Continuous
 62
     7
370
     9
100
AcDbPolyline
 90
        4
 70
     1
 43
2.0
 10
1870.821745559607
 20
1754.888678939661
 42
0.4142135623731
 10
1869.821745559607
 20
1755.888678939661
 42
0.4142135623731
 10
1868.821745559608
 20
1754.888678939661
 42
0.4142135623731
 10
1869.821745559607
 20
1753.888678939661
 42
0.4142135623731
  0
LINE
  5
244
330
1F
100
AcDbEntity
  8
0-B
  6
Continuous
 62
   120
370
     5
100
AcDbLine
 10
1869.821745559607
 20
2254.888678939661
 30
0.0
 11
1869.821745559607
 21
1754.888678939661
 31
0.0
  0
LINE
  5
245
330
1F
100
AcDbEntity
  8
0-B
  6
Continuous
 62
   120
370
     5
100
AcDbLine
 10
1769.821745559607
 20
1654.888678939661
 30
0.0
 11
1769.821745559607
 21
1704.888678939661
 31
0.0
  0
LWPOLYLINE
  5
246
330
1F
100
AcDbEntity
  8
0-B
  6
Continuous
 62
     7
370
     9
100
AcDbPolyline
 90
        4
 70
     1
 43
2.0
 10
1770.821745559607
 20
1654.888678939661
 42
0.4142135623731
 10
1769.821745559607
 20
1655.888678939661
 42
0.4142135623731
 10
1768.821745559608
 20
1654.888678939661
 42
0.4142135623731
 10
1769.821745559607
 20
1653.888678939661
 42
0.4142135623731
  0
LINE
  5
247
330
1F
100
AcDbEntity
  8
0-B
  6
Continuous
 62
   120
370
     5
100
AcDbLine
 10
1269.821745559607
 20
1654.888678939661
 30
0.0
 11
1769.821745559607
 21
1654.888678939661
 31
0.0
  0
LINE
  5
248
330
1F
100
AcDbEntity
  8
0-B
  6
Continuous
 62
   120
370
     5
100
AcDbLine
 10
1649.821745559607
 20
1654.888678939661
 30
0.0
 11
1649.821745559607
 21
1704.888678939661
 31
0.0
  0
LWPOLYLINE
  5
249
330
1F
100
AcDbEntity
  8
0-B
  6
Continuous
 62
     7
370
     9
100
AcDbPolyline
 90
        4
 70
     1
 43
2.0
 10
1650.821745559607
 20
1654.888678939661
 42
0.4142135623731
 10
1649.821745559607
 20
1655.888678939661
 42
0.4142135623731
 10
1648.821745559608
 20
1654.888678939661
 42
0.4142135623731
 10
1649.821745559607
 20
1653.888678939661
 42
0.4142135623731
  0
LINE
  5
24A
330
1F
100
AcDbEntity
  8
0-0
  6
JWW_HOJO
 62
     7
370
     9
100
AcDbLine
 10
1819.821745559607
 20
1704.888678939661
 30
0.0
 11
1819.821745559607
 21
2240.244017998989
 31
0.0
  0
LINE
  5
24B
330
1F
100
AcDbEntity
  8
0-0
  6
JWW_HOJO
 62
     7
370
     9
100
AcDbLine
 10
1869.821745559607
 20
1654.888678939661
 30
0.0
 11
1869.821745559607
 21
2260.954696117644
 31
0.0
  0
LINE
  5
24C
330
1F
100
AcDbEntity
  8
0-4
  6
Continuous
 62
    92
370
    13
100
AcDbLine
 10
1764.821745559607
 20
1754.888678939661
 30
0.0
 11
1764.821745559607
 21
2217.462272068468
 31
0.0
  0
LINE
  5
24D
330
1F
100
AcDbEntity
  8
0-4
  6
Continuous
 62
    92
370
    13
100
AcDbLine
 10
1769.821745559607
 20
1754.888678939661
 30
0.0
 11
1769.821745559607
 21
2219.533339880334
 31
0.0
  0
LINE
  5
24E
330
1F
100
AcDbEntity
  8
0-4
  6
Continuous
 62
    92
370
    13
100
AcDbLine
 10
1649.821745559607
 20
1754.888678939661
 30
0.0
 11
1649.821745559607
 21
2166.888678939661
 31
0.0
  0
LINE
  5
24F
330
1F
100
AcDbEntity
  8
0-4
  6
Continuous
 62
    92
370
    13
100
AcDbLine
 10
1769.821745559607
 20
1754.888678939661
 30
0.0
 11
1649.821745559607
 21
1754.888678939661
 31
0.0
  0
MTEXT
  5
250
330
1F
100
AcDbEntity
  8
0-B
  6
Continuous
 62
     7
370
   211
100
AcDbMText
 10
1427.321745559607
 20
1657.748678939661
 30
0.0
 40
45.72
 41
60.0
 46
0.0
 71
     7
 72
     1
  1
{\fＭＳ ゴシック|b0|i0|c128|p49;38}
 73
     1
 44
1.0
  0
MTEXT
  5
251
330
1F
100
AcDbEntity
  8
0-B
  6
Continuous
 62
     7
370
   211
100
AcDbMText
 10
1677.321745559607
 20
1657.748678939661
 30
0.0
 40
45.72
 41
60.0
 46
0.0
 71
     7
 72
     1
  1
{\fＭＳ ゴシック|b0|i0|c128|p49;12}
 73
     1
 44
1.0
  0
LINE
  5
252
330
1F
100
AcDbEntity
  8
0-B
  6
Continuous
 62
   120
370
     5
100
AcDbLine
 10
1320.110813068591
 20
724.3076828131905
 30
0.0
 11
1320.110813068591
 21
774.3076828131905
 31
0.0
  0
LWPOLYLINE
  5
253
330
1F
100
AcDbEntity
  8
0-B
  6
Continuous
 62
     7
370
     9
100
AcDbPolyline
 90
        4
 70
     1
 43
2.0
 10
1321.110813068591
 20
724.3076828131905
 42
0.4142135623731
 10
1320.110813068591
 20
725.3076828131905
 42
0.4142135623731
 10
1319.110813068591
 20
724.3076828131905
 42
0.4142135623731
 10
1320.110813068591
 20
723.3076828131905
 42
0.4142135623731
  0
LINE
  5
254
330
1F
100
AcDbEntity
  8
0-0
  6
JWW_HOJO
 62
     7
370
     9
100
AcDbLine
 10
1830.110813068591
 20
774.3076828131905
 30
0.0
 11
1270.110813068591
 21
774.3076828131905
 31
0.0
  0
LINE
  5
255
330
1F
100
AcDbEntity
  8
0-0
  6
JWW_HOJO
 62
     7
370
     9
100
AcDbLine
 10
1270.110813068591
 20
1374.30768281319
 30
0.0
 11
1270.110813068591
 21
774.3076828131905
 31
0.0
  0
LINE
  5
256
330
1F
100
AcDbEntity
  8
0-0
  6
JWW_HOJO
 62
     7
370
     9
100
AcDbLine
 10
1880.110813068591
 20
724.3076828131905
 30
0.0
 11
1220.110813068591
 21
724.3076828131905
 31
0.0
  0
LINE
  5
257
330
1F
100
AcDbEntity
  8
0-0
  6
JWW_HOJO
 62
     7
370
     9
100
AcDbLine
 10
1220.110813068591
 20
1424.30768281319
 30
0.0
 11
1220.110813068591
 21
724.3076828131905
 31
0.0
  0
LINE
  5
258
330
1F
100
AcDbEntity
  8
0-B
  6
Continuous
 62
   120
370
     5
100
AcDbLine
 10
1880.110813068591
 20
824.3076828131905
 30
0.0
 11
1830.110813068591
 21
824.3076828131905
 31
0.0
  0
LWPOLYLINE
  5
259
330
1F
100
AcDbEntity
  8
0-B
  6
Continuous
 62
     7
370
     9
100
AcDbPolyline
 90
        4
 70
     1
 43
2.0
 10
1881.110813068591
 20
824.3076828131905
 42
0.4142135623731
 10
1880.110813068591
 20
825.3076828131905
 42
0.4142135623731
 10
1879.110813068591
 20
824.3076828131905
 42
0.4142135623731
 10
1880.110813068591
 20
823.3076828131905
 42
0.4142135623731
  0
LINE
  5
25A
330
1F
100
AcDbEntity
  8
0-B
  6
Continuous
 62
   120
370
     5
100
AcDbLine
 10
1880.110813068591
 20
1324.30768281319
 30
0.0
 11
1880.110813068591
 21
824.3076828131905
 31
0.0
  0
LINE
  5
25B
330
1F
100
AcDbEntity
  8
0-B
  6
Continuous
 62
   120
370
     5
100
AcDbLine
 10
1780.110813068591
 20
724.3076828131905
 30
0.0
 11
1780.110813068591
 21
774.3076828131905
 31
0.0
  0
LWPOLYLINE
  5
25C
330
1F
100
AcDbEntity
  8
0-B
  6
Continuous
 62
     7
370
     9
100
AcDbPolyline
 90
        4
 70
     1
 43
2.0
 10
1781.110813068591
 20
724.3076828131905
 42
0.4142135623731
 10
1780.110813068591
 20
725.3076828131905
 42
0.4142135623731
 10
1779.110813068591
 20
724.3076828131905
 42
0.4142135623731
 10
1780.110813068591
 20
723.3076828131905
 42
0.4142135623731
  0
LINE
  5
25D
330
1F
100
AcDbEntity
  8
0-B
  6
Continuous
 62
   120
370
     5
100
AcDbLine
 10
1320.110813068591
 20
724.3076828131905
 30
0.0
 11
1780.110813068591
 21
724.3076828131905
 31
0.0
  0
LINE
  5
25E
330
1F
100
AcDbEntity
  8
0-B
  6
Continuous
 62
   120
370
     5
100
AcDbLine
 10
1700.110813068591
 20
724.3076828131905
 30
0.0
 11
1700.110813068591
 21
774.3076828131905
 31
0.0
  0
LWPOLYLINE
  5
25F
330
1F
100
AcDbEntity
  8
0-B
  6
Continuous
 62
     7
370
     9
100
AcDbPolyline
 90
        4
 70
     1
 43
2.0
 10
1701.110813068591
 20
724.3076828131905
 42
0.4142135623731
 10
1700.110813068591
 20
725.3076828131905
 42
0.4142135623731
 10
1699.110813068591
 20
724.3076828131905
 42
0.4142135623731
 10
1700.110813068591
 20
723.3076828131905
 42
0.4142135623731
  0
LINE
  5
260
330
1F
100
AcDbEntity
  8
0-0
  6
JWW_HOJO
 62
     7
370
     9
100
AcDbLine
 10
1830.110813068591
 20
774.3076828131905
 30
0.0
 11
1830.110813068591
 21
1330.876225308114
 31
0.0
  0
LINE
  5
261
330
1F
100
AcDbEntity
  8
0-0
  6
JWW_HOJO
 62
     7
370
     9
100
AcDbLine
 10
1880.110813068591
 20
724.3076828131905
 30
0.0
 11
1880.110813068591
 21
1351.586903426769
 31
0.0
  0
LINE
  5
262
330
1F
100
AcDbEntity
  8
0-4
  6
Continuous
 62
    92
370
    13
100
AcDbLine
 10
1775.110813068591
 20
824.3076828131905
 30
0.0
 11
1775.110813068591
 21
1308.094479377594
 31
0.0
  0
LINE
  5
263
330
1F
100
AcDbEntity
  8
0-4
  6
Continuous
 62
    92
370
    13
100
AcDbLine
 10
1780.110813068591
 20
824.3076828131905
 30
0.0
 11
1780.110813068591
 21
1310.165547189459
 31
0.0
  0
LINE
  5
264
330
1F
100
AcDbEntity
  8
0-4
  6
Continuous
 62
    92
370
    13
100
AcDbLine
 10
1700.110813068591
 20
824.3076828131905
 30
0.0
 11
1700.110813068591
 21
1236.30768281319
 31
0.0
  0
LINE
  5
265
330
1F
100
AcDbEntity
  8
0-4
  6
Continuous
 62
    92
370
    13
100
AcDbLine
 10
1780.110813068591
 20
824.3076828131905
 30
0.0
 11
1700.110813068591
 21
824.3076828131905
 31
0.0
  0
MTEXT
  5
266
330
1F
100
AcDbEntity
  8
0-B
  6
Continuous
 62
     7
370
   211
100
AcDbMText
 10
1477.610813068591
 20
727.1676828131905
 30
0.0
 40
45.72
 41
60.0
 46
0.0
 71
     7
 72
     1
  1
{\fＭＳ ゴシック|b0|i0|c128|p49;38}
 73
     1
 44
1.0
  0
MTEXT
  5
267
330
1F
100
AcDbEntity
  8
0-B
  6
Continuous
 62
     7
370
   211
100
AcDbMText
 10
1725.110813068591
 20
727.1676828131905
 30
0.0
 40
45.72
 41
30.0
 46
0.0
 71
     7
 72
     1
  1
{\fＭＳ ゴシック|b0|i0|c128|p49;8}
 73
     1
 44
1.0
  0
MTEXT
  5
268
330
1F
100
AcDbEntity
  8
0-B
  6
Continuous
 62
     7
370
   211
100
AcDbMText
 10
1859.821745559607
 20
1965.248678939661
 30
0.0
 40
45.72
 41
60.0
 46
0.0
 71
     7
 72
     1
  1
{\fＭＳ ゴシック|b0|i0|c128|p49;50}
 11
6.123031769111886E-17
 21
1.0
 31
0.0
 73
     1
 44
1.0
  0
MTEXT
  5
269
330
1F
100
AcDbEntity
  8
0-B
  6
Continuous
 62
     7
370
   211
100
AcDbMText
 10
1870.110813068591
 20
1034.66768281319
 30
0.0
 40
45.72
 41
60.0
 46
0.0
 71
     7
 72
     1
  1
{\fＭＳ ゴシック|b0|i0|c128|p49;50}
 11
6.123031769111886E-17
 21
1.0
 31
0.0
 73
     1
 44
1.0
  0
MTEXT
  5
26A
330
1F
100
AcDbEntity
  8
0-A
  6
Continuous
 62
     7
370
     9
100
AcDbMText
 10
2963.332527779244
 20
2384.110304595844
 30
0.0
 40
45.72000000000006
 41
390.0000000000006
 46
0.0
 71
     7
 72
     1
  1
{\fＭＳ ゴシック|b0|i0|c128|p49;ＤＧＢＸ16-□}
 73
     1
 44
1.0
  0
MTEXT
  5
26B
330
1F
100
AcDbEntity
  8
0-A
  6
Continuous
 62
     7
370
     9
100
AcDbMText
 10
2963.332527779244
 20
2279.943631270641
 30
0.0
 40
45.71999999999993
 41
389.9999999999994
 46
0.0
 71
     7
 72
     1
  1
{\fＭＳ ゴシック|b0|i0|c128|p49;ＤＧＢＸ14-□}
 73
     1
 44
1.0
  0
MTEXT
  5
26C
330
1F
100
AcDbEntity
  8
0-A
  6
Continuous
 62
     7
370
     9
100
AcDbMText
 10
2963.332527779244
 20
2175.776957945438
 30
0.0
 40
45.71999999999999
 41
390.0
 46
0.0
 71
     7
 72
     1
  1
{\fＭＳ ゴシック|b0|i0|c128|p49;ＤＧＢＸ13-□}
 73
     1
 44
1.0
  0
MTEXT
  5
26D
330
1F
100
AcDbEntity
  8
0-A
  6
Continuous
 62
     7
370
     9
100
AcDbMText
 10
2963.332527779244
 20
1446.610244669012
 30
0.0
 40
45.72000000000006
 41
390.0000000000006
 46
0.0
 71
     7
 72
     1
  1
{\fＭＳ ゴシック|b0|i0|c128|p49;ＤＧＢＸ26-□}
 73
     1
 44
1.0
  0
MTEXT
  5
26E
330
1F
100
AcDbEntity
  8
0-A
  6
Continuous
 62
     7
370
     9
100
AcDbMText
 10
2453.332527779244
 20
1446.610244669012
 30
0.0
 40
45.71999999999999
 41
390.0
 46
0.0
 71
     7
 72
     1
  1
{\fＭＳ ゴシック|b0|i0|c128|p49;3,900×46×50}
 73
     1
 44
1.0
  0
MTEXT
  5
26F
330
1F
100
AcDbEntity
  8
0-A
  6
Continuous
 62
     7
370
     9
100
AcDbMText
 10
2453.332527779244
 20
2384.110304595844
 30
0.0
 40
45.71999999999993
 41
389.9999999999994
 46
0.0
 71
     7
 72
     1
  1
{\fＭＳ ゴシック|b0|i0|c128|p49;3,900×50×50}
 73
     1
 44
1.0
  0
MTEXT
  5
270
330
1F
100
AcDbEntity
  8
0-A
  6
Continuous
 62
     7
370
     9
100
AcDbMText
 10
2453.332527779244
 20
2279.943631270641
 30
0.0
 40
45.71999999999999
 41
390.0
 46
0.0
 71
     7
 72
     1
  1
{\fＭＳ ゴシック|b0|i0|c128|p49;2,450×50×50}
 73
     1
 44
1.0
  0
MTEXT
  5
271
330
1F
100
AcDbEntity
  8
0-A
  6
Continuous
 62
     7
370
     9
100
AcDbMText
 10
2453.332527779244
 20
2175.776957945438
 30
0.0
 40
45.71999999999999
 41
390.0
 46
0.0
 71
     7
 72
     1
  1
{\fＭＳ ゴシック|b0|i0|c128|p49;2,075×50×50}
 73
     1
 44
1.0
  0
MTEXT
  5
272
330
1F
100
AcDbEntity
  8
0-A
  6
Continuous
 62
     7
370
     9
100
AcDbMText
 10
2963.332527779244
 20
1342.443571343808
 30
0.0
 40
45.71999999999999
 41
390.0
 46
0.0
 71
     7
 72
     1
  1
{\fＭＳ ゴシック|b0|i0|c128|p49;ＤＧＢＸ23-□}
 73
     1
 44
1.0
  0
MTEXT
  5
273
330
1F
100
AcDbEntity
  8
0-A
  6
Continuous
 62
     7
370
     9
100
AcDbMText
 10
2453.332527779244
 20
1342.443571343808
 30
0.0
 40
45.72000000000006
 41
390.0000000000006
 46
0.0
 71
     7
 72
     1
  1
{\fＭＳ ゴシック|b0|i0|c128|p49;2,075×46×50}
 73
     1
 44
1.0
  0
MTEXT
  5
274
330
1F
100
AcDbEntity
  8
0-A
  6
Continuous
 62
     7
370
     9
100
AcDbMText
 10
3528.332527779246
 20
1342.443571343808
 30
0.0
 40
45.72
 41
210.0
 46
0.0
 71
     7
 72
     1
  1
{\fＭＳ ゴシック|b0|i0|c128|p49;2(偶数)}
 73
     1
 44
1.0
  0
LINE
  5
275
330
1F
100
AcDbEntity
  8
0-0
  6
JWW_HOJO
 62
   131
370
     5
100
AcDbLine
 10
603.3330144108953
 20
-339.16653852205
 30
0.0
 11
-50.25792727514443
 21
-339.16653852205
 31
0.0
  0
MTEXT
  5
276
330
1F
100
AcDbEntity
  8
0-A
  6
Continuous
 62
     7
370
     9
100
AcDbMText
 10
53.33302729838636
 20
-272.9189721260735
 30
0.0
 40
60.96
 41
400.0
 46
0.0
 71
     7
 72
     1
  1
{\fＭＳ ゴシック|b0|i0|c128|p49;ケーシング}
 73
     1
 44
1.0
  0
MTEXT
  5
277
330
1F
100
AcDbEntity
  8
0-A
  6
Continuous
 62
     7
370
     9
100
AcDbMText
 10
53.33302729838636
 20
-392.9189721260735
 30
0.0
 40
60.96
 41
400.0
 46
0.0
 71
     7
 72
     1
  1
{\fＭＳ ゴシック|b0|i0|c128|p49;ラフカット}
 73
     1
 44
1.0
  0
MTEXT
  5
278
330
1F
100
AcDbEntity
  8
0-A
  6
Continuous
 62
     7
370
     9
100
AcDbMText
 10
173.3330272983864
 20
-509.2652984521007
 30
0.0
 40
60.96
 41
160.0
 46
0.0
 71
     7
 72
     1
  1
{\fＭＳ ゴシック|b0|i0|c128|p49;Ｙ型}
 73
     1
 44
1.0
  0
LINE
  5
279
330
1F
100
AcDbEntity
  8
0-B
  6
Continuous
 62
   120
370
     5
100
AcDbLine
 10
1837.499415089269
 20
412.2108895563338
 30
0.0
 11
1805.177084618934
 21
379.8885590859976
 31
0.0
  0
LINE
  5
27A
330
1F
100
AcDbEntity
  8
0-B
  6
Continuous
 62
   120
370
     5
100
AcDbLine
 10
1802.144076029943
 20
447.5662286156614
 30
0.0
 11
1769.821745559607
 21
415.2438981453253
 31
0.0
  0
LWPOLYLINE
  5
27B
330
1F
100
AcDbEntity
  8
0-B
  6
Continuous
 62
     7
370
     9
100
AcDbPolyline
 90
        4
 70
     1
 43
2.0
 10
1838.499415089269
 20
412.2108895563338
 42
0.4142135623731
 10
1837.499415089269
 20
413.2108895563338
 42
0.4142135623731
 10
1836.49941508927
 20
412.2108895563338
 42
0.4142135623731
 10
1837.499415089269
 20
411.2108895563338
 42
0.4142135623731
  0
LWPOLYLINE
  5
27C
330
1F
100
AcDbEntity
  8
0-B
  6
Continuous
 62
     7
370
     9
100
AcDbPolyline
 90
        4
 70
     1
 43
2.0
 10
1803.144076029943
 20
447.5662286156614
 42
0.4142135623731
 10
1802.144076029943
 20
448.5662286156614
 42
0.4142135623731
 10
1801.144076029943
 20
447.5662286156614
 42
0.4142135623731
 10
1802.144076029943
 20
446.5662286156614
 42
0.4142135623731
  0
LINE
  5
27D
330
1F
100
AcDbEntity
  8
0-B
  6
Continuous
 62
   120
370
     5
100
AcDbLine
 10
1802.144076029943
 20
447.5662286156614
 30
0.0
 11
1837.499415089269
 21
412.2108895563338
 31
0.0
  0
LINE
  5
27E
330
1F
100
AcDbEntity
  8
0-B
  6
Continuous
 62
   120
370
     5
100
AcDbLine
 10
1869.821745559607
 20
379.8885590859976
 30
0.0
 11
1819.821745559607
 21
379.8885590859976
 31
0.0
  0
LWPOLYLINE
  5
27F
330
1F
100
AcDbEntity
  8
0-B
  6
Continuous
 62
     7
370
     9
100
AcDbPolyline
 90
        4
 70
     1
 43
2.0
 10
1870.821745559607
 20
379.8885590859976
 42
0.4142135623731
 10
1869.821745559607
 20
380.8885590859976
 42
0.4142135623731
 10
1868.821745559608
 20
379.8885590859976
 42
0.4142135623731
 10
1869.821745559607
 20
378.8885590859976
 42
0.4142135623731
  0
LINE
  5
280
330
1F
100
AcDbEntity
  8
0-B
  6
Continuous
 62
   120
370
     5
100
AcDbLine
 10
1769.821745559607
 20
479.8885590859976
 30
0.0
 11
1769.821745559607
 21
429.8885590859976
 31
0.0
  0
LWPOLYLINE
  5
281
330
1F
100
AcDbEntity
  8
0-B
  6
Continuous
 62
     7
370
     9
100
AcDbPolyline
 90
        4
 70
     1
 43
2.0
 10
1770.821745559607
 20
479.8885590859976
 42
0.4142135623731
 10
1769.821745559607
 20
480.8885590859976
 42
0.4142135623731
 10
1768.821745559608
 20
479.8885590859976
 42
0.4142135623731
 10
1769.821745559607
 20
478.8885590859976
 42
0.4142135623731
  0
LINE
  5
282
330
1F
100
AcDbEntity
  8
0-0
  6
JWW_HOJO
 62
     7
370
     9
100
AcDbLine
 10
1755.177084618934
 20
429.8885590859976
 30
0.0
 11
1819.821745559607
 21
365.2438981453253
 31
0.0
  0
LINE
  5
283
330
1F
100
AcDbEntity
  8
0-0
  6
JWW_HOJO
 62
     7
370
     9
100
AcDbLine
 10
1775.887762737589
 20
479.8885590859976
 30
0.0
 11
1869.821745559607
 21
385.95457626398
 31
0.0
  0
LINE
  5
284
330
1F
100
AcDbEntity
  8
0-4
  6
Continuous
 62
    92
370
    13
100
AcDbLine
 10
1732.395338688414
 20
374.8885590859976
 30
0.0
 11
1764.821745559607
 21
342.4621522148044
 31
0.0
  0
LINE
  5
285
330
1F
100
AcDbEntity
  8
0-4
  6
Continuous
 62
    92
370
    13
100
AcDbLine
 10
1734.466406500278
 20
379.8885590859976
 30
0.0
 11
1769.821745559607
 21
344.5332200266699
 31
0.0
  0
MTEXT
  5
286
330
1F
100
AcDbEntity
  8
0-B
  6
Continuous
 62
     7
370
   211
100
AcDbMText
 10
1816.286211653675
 20
440.4262286156606
 30
0.0
 40
45.71999999999945
 41
29.99999999999964
 46
0.0
 71
     7
 72
     1
  1
{\fＭＳ ゴシック|b0|i0|c128|p49;5}
 11
0.7071067811865285
 21
-0.7071067811865666
 31
0.0
 73
     1
 44
1.0
  0
LINE
  5
287
330
1F
100
AcDbEntity
  8
0-B
  6
Continuous
 62
   120
370
     5
100
AcDbLine
 10
1850.821491187246
 20
-494.1238945455495
 30
0.0
 11
1815.46615212792
 21
-529.479233604877
 31
0.0
  0
LINE
  5
288
330
1F
100
AcDbEntity
  8
0-B
  6
Continuous
 62
   120
370
     5
100
AcDbLine
 10
1836.679355563515
 20
-479.9817589218185
 30
0.0
 11
1801.324016504189
 21
-515.3370979811459
 31
0.0
  0
LWPOLYLINE
  5
289
330
1F
100
AcDbEntity
  8
0-B
  6
Continuous
 62
     7
370
     9
100
AcDbPolyline
 90
        4
 70
     1
 43
2.0
 10
1851.821491187246
 20
-494.1238945455495
 42
0.4142135623731
 10
1850.821491187246
 20
-493.1238945455495
 42
0.4142135623731
 10
1849.821491187247
 20
-494.1238945455495
 42
0.4142135623731
 10
1850.821491187246
 20
-495.1238945455495
 42
0.4142135623731
  0
LWPOLYLINE
  5
28A
330
1F
100
AcDbEntity
  8
0-B
  6
Continuous
 62
     7
370
     9
100
AcDbPolyline
 90
        4
 70
     1
 43
2.0
 10
1837.679355563515
 20
-479.9817589218185
 42
0.4142135623731
 10
1836.679355563515
 20
-478.9817589218185
 42
0.4142135623731
 10
1835.679355563516
 20
-479.9817589218185
 42
0.4142135623731
 10
1836.679355563515
 20
-480.9817589218185
 42
0.4142135623731
  0
LINE
  5
28B
330
1F
100
AcDbEntity
  8
0-B
  6
Continuous
 62
   120
370
     5
100
AcDbLine
 10
1836.679355563515
 20
-479.9817589218185
 30
0.0
 11
1850.821491187246
 21
-494.1238945455495
 31
0.0
  0
LINE
  5
28C
330
1F
100
AcDbEntity
  8
0-B
  6
Continuous
 62
   120
370
     5
100
AcDbLine
 10
1880.110813068591
 20
-550.6924370404732
 30
0.0
 11
1830.110813068591
 21
-550.6924370404732
 31
0.0
  0
LWPOLYLINE
  5
28D
330
1F
100
AcDbEntity
  8
0-B
  6
Continuous
 62
     7
370
     9
100
AcDbPolyline
 90
        4
 70
     1
 43
2.0
 10
1881.110813068591
 20
-550.6924370404732
 42
0.4142135623731
 10
1880.110813068591
 20
-549.6924370404732
 42
0.4142135623731
 10
1879.110813068591
 20
-550.6924370404732
 42
0.4142135623731
 10
1880.110813068591
 20
-551.6924370404732
 42
0.4142135623731
  0
LINE
  5
28E
330
1F
100
AcDbEntity
  8
0-B
  6
Continuous
 62
   120
370
     5
100
AcDbLine
 10
1780.110813068591
 20
-450.6924370404732
 30
0.0
 11
1780.110813068591
 21
-500.6924370404732
 31
0.0
  0
LWPOLYLINE
  5
28F
330
1F
100
AcDbEntity
  8
0-B
  6
Continuous
 62
     7
370
     9
100
AcDbPolyline
 90
        4
 70
     1
 43
2.0
 10
1781.110813068591
 20
-450.6924370404732
 42
0.4142135623731
 10
1780.110813068591
 20
-449.6924370404732
 42
0.4142135623731
 10
1779.110813068591
 20
-450.6924370404732
 42
0.4142135623731
 10
1780.110813068591
 20
-451.6924370404732
 42
0.4142135623731
  0
LINE
  5
290
330
1F
100
AcDbEntity
  8
0-0
  6
JWW_HOJO
 62
     7
370
     9
100
AcDbLine
 10
1786.679355563515
 20
-500.6924370404732
 30
0.0
 11
1830.110813068591
 21
-544.1238945455495
 31
0.0
  0
LINE
  5
291
330
1F
100
AcDbEntity
  8
0-0
  6
JWW_HOJO
 62
     7
370
     9
100
AcDbLine
 10
1807.390033682171
 20
-450.6924370404732
 30
0.0
 11
1880.110813068591
 21
-523.4132164268948
 31
0.0
  0
LINE
  5
292
330
1F
100
AcDbEntity
  8
0-4
  6
Continuous
 62
    92
370
    13
100
AcDbLine
 10
1763.897609632996
 20
-555.6924370404732
 30
0.0
 11
1775.110813068591
 21
-566.9056404760698
 31
0.0
  0
LINE
  5
293
330
1F
100
AcDbEntity
  8
0-4
  6
Continuous
 62
    92
370
    13
100
AcDbLine
 10
1765.96867744486
 20
-550.6924370404732
 30
0.0
 11
1780.110813068591
 21
-564.8345726642043
 31
0.0
  0
MTEXT
  5
294
330
1F
100
AcDbEntity
  8
0-B
  6
Continuous
 62
     7
370
   211
100
AcDbMText
 10
1840.214889469449
 20
-476.5151572040201
 30
0.0
 40
45.72000000000067
 41
30.00000000000044
 46
0.0
 71
     7
 72
     1
  1
{\fＭＳ ゴシック|b0|i0|c128|p49;2}
 11
0.7071067811865374
 21
-0.7071067811865577
 31
0.0
 73
     1
 44
1.0
  0
MTEXT
  5
295
330
1F
100
AcDbEntity
  8
0-A
  6
Continuous
 62
     7
370
     0
100
AcDbMText
 10
633.3330144108953
 20
-511.1865584976607
 30
0.0
 40
60.96
 41
560.0
 46
0.0
 71
     7
 72
     1
  1
{\f@ＭＳ ゴシック|b0|i0|c128|p49;横 用（竪勝ち)}
 11
-1.836909530733566E-16
 21
-1.0
 31
0.0
 73
     1
 44
1.0
  0
MTEXT
  5
296
330
1F
100
AcDbEntity
  8
0-A
  6
Continuous
 62
     7
370
     0
100
AcDbMText
 10
633.3330144108953
 20
266.3135014291714
 30
0.0
 40
60.96
 41
240.0
 46
0.0
 71
     7
 72
     1
  1
{\f@ＭＳ ゴシック|b0|i0|c128|p49;竪用・}
 11
-1.836909530733566E-16
 21
-1.0
 31
0.0
 73
     1
 44
1.0
  0
LINE
  5
297
330
1F
100
AcDbEntity
  8
0-B
  6
Continuous
 62
   120
370
     5
100
AcDbLine
 10
1869.821745559607
 20
-120.1114409140024
 30
0.0
 11
1819.821745559607
 21
-120.1114409140024
 31
0.0
  0
LWPOLYLINE
  5
298
330
1F
100
AcDbEntity
  8
0-B
  6
Continuous
 62
     7
370
     9
100
AcDbPolyline
 90
        4
 70
     1
 43
2.0
 10
1870.821745559607
 20
-120.1114409140024
 42
0.4142135623731
 10
1869.821745559607
 20
-119.1114409140024
 42
0.4142135623731
 10
1868.821745559608
 20
-120.1114409140024
 42
0.4142135623731
 10
1869.821745559607
 20
-121.1114409140024
 42
0.4142135623731
  0
LINE
  5
299
330
1F
100
AcDbEntity
  8
0-B
  6
Continuous
 62
   120
370
     5
100
AcDbLine
 10
1869.821745559607
 20
379.8885590859976
 30
0.0
 11
1869.821745559607
 21
-120.1114409140024
 31
0.0
  0
LINE
  5
29A
330
1F
100
AcDbEntity
  8
0-B
  6
Continuous
 62
   120
370
     5
100
AcDbLine
 10
1769.821745559607
 20
-220.1114409140024
 30
0.0
 11
1769.821745559607
 21
-170.1114409140024
 31
0.0
  0
LWPOLYLINE
  5
29B
330
1F
100
AcDbEntity
  8
0-B
  6
Continuous
 62
     7
370
     9
100
AcDbPolyline
 90
        4
 70
     1
 43
2.0
 10
1770.821745559607
 20
-220.1114409140024
 42
0.4142135623731
 10
1769.821745559607
 20
-219.1114409140024
 42
0.4142135623731
 10
1768.821745559608
 20
-220.1114409140024
 42
0.4142135623731
 10
1769.821745559607
 20
-221.1114409140024
 42
0.4142135623731
  0
LINE
  5
29C
330
1F
100
AcDbEntity
  8
0-B
  6
Continuous
 62
   120
370
     5
100
AcDbLine
 10
1649.821745559607
 20
-220.1114409140024
 30
0.0
 11
1649.821745559607
 21
-170.1114409140024
 31
0.0
  0
LWPOLYLINE
  5
29D
330
1F
100
AcDbEntity
  8
0-B
  6
Continuous
 62
     7
370
     9
100
AcDbPolyline
 90
        4
 70
     1
 43
2.0
 10
1650.821745559607
 20
-220.1114409140024
 42
0.4142135623731
 10
1649.821745559607
 20
-219.1114409140024
 42
0.4142135623731
 10
1648.821745559608
 20
-220.1114409140024
 42
0.4142135623731
 10
1649.821745559607
 20
-221.1114409140024
 42
0.4142135623731
  0
LINE
  5
29E
330
1F
100
AcDbEntity
  8
0-0
  6
JWW_HOJO
 62
     7
370
     9
100
AcDbLine
 10
1819.821745559607
 20
-170.1114409140024
 30
0.0
 11
1819.821745559607
 21
365.2438981453253
 31
0.0
  0
LINE
  5
29F
330
1F
100
AcDbEntity
  8
0-0
  6
JWW_HOJO
 62
     7
370
     9
100
AcDbLine
 10
1869.821745559607
 20
-220.1114409140024
 30
0.0
 11
1869.821745559607
 21
385.95457626398
 31
0.0
  0
LINE
  5
2A0
330
1F
100
AcDbEntity
  8
0-4
  6
Continuous
 62
    92
370
    13
100
AcDbLine
 10
1764.821745559607
 20
-120.1114409140024
 30
0.0
 11
1764.821745559607
 21
342.4621522148044
 31
0.0
  0
LINE
  5
2A1
330
1F
100
AcDbEntity
  8
0-4
  6
Continuous
 62
    92
370
    13
100
AcDbLine
 10
1769.821745559607
 20
-120.1114409140024
 30
0.0
 11
1769.821745559607
 21
344.5332200266699
 31
0.0
  0
LINE
  5
2A2
330
1F
100
AcDbEntity
  8
0-4
  6
Continuous
 62
    92
370
    13
100
AcDbLine
 10
1649.821745559607
 20
-120.1114409140024
 30
0.0
 11
1649.821745559607
 21
291.8885590859975
 31
0.0
  0
LINE
  5
2A3
330
1F
100
AcDbEntity
  8
0-4
  6
Continuous
 62
    92
370
    13
100
AcDbLine
 10
1769.821745559607
 20
-120.1114409140024
 30
0.0
 11
1649.821745559607
 21
-120.1114409140024
 31
0.0
  0
MTEXT
  5
2A4
330
1F
100
AcDbEntity
  8
0-B
  6
Continuous
 62
     7
370
   211
100
AcDbMText
 10
1677.321745559607
 20
-217.2514409140024
 30
0.0
 40
45.72
 41
60.0
 46
0.0
 71
     7
 72
     1
  1
{\fＭＳ ゴシック|b0|i0|c128|p49;12}
 73
     1
 44
1.0
  0
LINE
  5
2A5
330
1F
100
AcDbEntity
  8
0-B
  6
Continuous
 62
   120
370
     5
100
AcDbLine
 10
1880.110813068591
 20
-1050.692437040473
 30
0.0
 11
1830.110813068591
 21
-1050.692437040473
 31
0.0
  0
LWPOLYLINE
  5
2A6
330
1F
100
AcDbEntity
  8
0-B
  6
Continuous
 62
     7
370
     9
100
AcDbPolyline
 90
        4
 70
     1
 43
2.0
 10
1881.110813068591
 20
-1050.692437040473
 42
0.4142135623731
 10
1880.110813068591
 20
-1049.692437040473
 42
0.4142135623731
 10
1879.110813068591
 20
-1050.692437040473
 42
0.4142135623731
 10
1880.110813068591
 20
-1051.692437040473
 42
0.4142135623731
  0
LINE
  5
2A7
330
1F
100
AcDbEntity
  8
0-B
  6
Continuous
 62
   120
370
     5
100
AcDbLine
 10
1880.110813068591
 20
-550.6924370404732
 30
0.0
 11
1880.110813068591
 21
-1050.692437040473
 31
0.0
  0
LINE
  5
2A8
330
1F
100
AcDbEntity
  8
0-B
  6
Continuous
 62
   120
370
     5
100
AcDbLine
 10
1780.110813068591
 20
-1150.692437040473
 30
0.0
 11
1780.110813068591
 21
-1100.692437040473
 31
0.0
  0
LWPOLYLINE
  5
2A9
330
1F
100
AcDbEntity
  8
0-B
  6
Continuous
 62
     7
370
     9
100
AcDbPolyline
 90
        4
 70
     1
 43
2.0
 10
1781.110813068591
 20
-1150.692437040473
 42
0.4142135623731
 10
1780.110813068591
 20
-1149.692437040473
 42
0.4142135623731
 10
1779.110813068591
 20
-1150.692437040473
 42
0.4142135623731
 10
1780.110813068591
 20
-1151.692437040473
 42
0.4142135623731
  0
LINE
  5
2AA
330
1F
100
AcDbEntity
  8
0-B
  6
Continuous
 62
   120
370
     5
100
AcDbLine
 10
1700.110813068591
 20
-1150.692437040473
 30
0.0
 11
1700.110813068591
 21
-1100.692437040473
 31
0.0
  0
LWPOLYLINE
  5
2AB
330
1F
100
AcDbEntity
  8
0-B
  6
Continuous
 62
     7
370
     9
100
AcDbPolyline
 90
        4
 70
     1
 43
2.0
 10
1701.110813068591
 20
-1150.692437040473
 42
0.4142135623731
 10
1700.110813068591
 20
-1149.692437040473
 42
0.4142135623731
 10
1699.110813068591
 20
-1150.692437040473
 42
0.4142135623731
 10
1700.110813068591
 20
-1151.692437040473
 42
0.4142135623731
  0
LINE
  5
2AC
330
1F
100
AcDbEntity
  8
0-0
  6
JWW_HOJO
 62
     7
370
     9
100
AcDbLine
 10
1830.110813068591
 20
-1100.692437040473
 30
0.0
 11
1830.110813068591
 21
-544.1238945455495
 31
0.0
  0
LINE
  5
2AD
330
1F
100
AcDbEntity
  8
0-0
  6
JWW_HOJO
 62
     7
370
     9
100
AcDbLine
 10
1880.110813068591
 20
-1150.692437040473
 30
0.0
 11
1880.110813068591
 21
-523.4132164268948
 31
0.0
  0
LINE
  5
2AE
330
1F
100
AcDbEntity
  8
0-4
  6
Continuous
 62
    92
370
    13
100
AcDbLine
 10
1775.110813068591
 20
-1050.692437040473
 30
0.0
 11
1775.110813068591
 21
-566.9056404760698
 31
0.0
  0
LINE
  5
2AF
330
1F
100
AcDbEntity
  8
0-4
  6
Continuous
 62
    92
370
    13
100
AcDbLine
 10
1780.110813068591
 20
-1050.692437040473
 30
0.0
 11
1780.110813068591
 21
-564.8345726642043
 31
0.0
  0
LINE
  5
2B0
330
1F
100
AcDbEntity
  8
0-4
  6
Continuous
 62
    92
370
    13
100
AcDbLine
 10
1700.110813068591
 20
-1050.692437040473
 30
0.0
 11
1700.110813068591
 21
-638.6924370404734
 31
0.0
  0
LINE
  5
2B1
330
1F
100
AcDbEntity
  8
0-4
  6
Continuous
 62
    92
370
    13
100
AcDbLine
 10
1780.110813068591
 20
-1050.692437040473
 30
0.0
 11
1700.110813068591
 21
-1050.692437040473
 31
0.0
  0
MTEXT
  5
2B2
330
1F
100
AcDbEntity
  8
0-B
  6
Continuous
 62
     7
370
   211
100
AcDbMText
 10
1725.110813068591
 20
-1147.832437040473
 30
0.0
 40
45.72
 41
30.0
 46
0.0
 71
     7
 72
     1
  1
{\fＭＳ ゴシック|b0|i0|c128|p49;8}
 73
     1
 44
1.0
  0
MTEXT
  5
2B3
330
1F
100
AcDbEntity
  8
0-B
  6
Continuous
 62
     7
370
   211
100
AcDbMText
 10
1859.821745559607
 20
90.2485590859976
 30
0.0
 40
45.72
 41
60.0
 46
0.0
 71
     7
 72
     1
  1
{\fＭＳ ゴシック|b0|i0|c128|p49;50}
 11
6.123031769111886E-17
 21
1.0
 31
0.0
 73
     1
 44
1.0
  0
MTEXT
  5
2B4
330
1F
100
AcDbEntity
  8
0-B
  6
Continuous
 62
     7
370
   211
100
AcDbMText
 10
1870.110813068591
 20
-840.3324370404732
 30
0.0
 40
45.72
 41
60.0
 46
0.0
 71
     7
 72
     1
  1
{\fＭＳ ゴシック|b0|i0|c128|p49;50}
 11
6.123031769111886E-17
 21
1.0
 31
0.0
 73
     1
 44
1.0
  0
MTEXT
  5
2B5
330
1F
100
AcDbEntity
  8
0-A
  6
Continuous
 62
     7
370
     9
100
AcDbMText
 10
3528.332527779246
 20
510.2039203410675
 30
0.0
 40
45.72
 41
210.0
 46
0.0
 71
     7
 72
     1
  1
{\fＭＳ ゴシック|b0|i0|c128|p49;2(偶数)}
 73
     1
 44
1.0
  0
MTEXT
  5
2B6
330
1F
100
AcDbEntity
  8
0-A
  6
Continuous
 62
     7
370
     9
100
AcDbMText
 10
3528.332527779246
 20
404.9435114169773
 30
0.0
 40
45.72
 41
210.0
 46
0.0
 71
     7
 72
     1
  1
{\fＭＳ ゴシック|b0|i0|c128|p49;2(偶数)}
 73
     1
 44
1.0
  0
MTEXT
  5
2B7
330
1F
100
AcDbEntity
  8
0-A
  6
Continuous
 62
     7
370
     9
100
AcDbMText
 10
3528.332527779246
 20
300.7768380917736
 30
0.0
 40
45.72
 41
210.0
 46
0.0
 71
     7
 72
     1
  1
{\fＭＳ ゴシック|b0|i0|c128|p49;2(偶数)}
 73
     1
 44
1.0
  0
MTEXT
  5
2B8
330
1F
100
AcDbEntity
  8
0-A
  6
Continuous
 62
     7
370
     9
100
AcDbMText
 10
3528.332527779246
 20
-427.2961395857655
 30
0.0
 40
45.72
 41
210.0
 46
0.0
 71
     7
 72
     1
  1
{\fＭＳ ゴシック|b0|i0|c128|p49;2(偶数)}
 73
     1
 44
1.0
  0
MTEXT
  5
2B9
330
1F
100
AcDbEntity
  8
0-A
  6
Continuous
 62
     7
370
     9
100
AcDbMText
 10
3528.332527779246
 20
-532.5565485098559
 30
0.0
 40
45.72
 41
210.0
 46
0.0
 71
     7
 72
     1
  1
{\fＭＳ ゴシック|b0|i0|c128|p49;2(偶数)}
 73
     1
 44
1.0
  0
LINE
  5
2BA
330
1F
100
AcDbEntity
  8
0-B
  6
Continuous
 62
   120
370
     5
100
AcDbLine
 10
1069.821745559607
 20
291.8885590859975
 30
0.0
 11
1119.821745559607
 21
291.8885590859975
 31
0.0
  0
LINE
  5
2BB
330
1F
100
AcDbEntity
  8
0-B
  6
Continuous
 62
   120
370
     5
100
AcDbLine
 10
1069.821745559607
 20
379.8885590859976
 30
0.0
 11
1119.821745559607
 21
379.8885590859976
 31
0.0
  0
LWPOLYLINE
  5
2BC
330
1F
100
AcDbEntity
  8
0-B
  6
Continuous
 62
     7
370
     9
100
AcDbPolyline
 90
        4
 70
     1
 43
2.0
 10
1070.821745559607
 20
291.8885590859975
 42
0.4142135623731
 10
1069.821745559607
 20
292.8885590859975
 42
0.4142135623731
 10
1068.821745559608
 20
291.8885590859975
 42
0.4142135623731
 10
1069.821745559607
 20
290.8885590859975
 42
0.4142135623731
  0
LWPOLYLINE
  5
2BD
330
1F
100
AcDbEntity
  8
0-B
  6
Continuous
 62
     7
370
     9
100
AcDbPolyline
 90
        4
 70
     1
 43
2.0
 10
1070.821745559607
 20
379.8885590859976
 42
0.4142135623731
 10
1069.821745559607
 20
380.8885590859976
 42
0.4142135623731
 10
1068.821745559608
 20
379.8885590859976
 42
0.4142135623731
 10
1069.821745559607
 20
378.8885590859976
 42
0.4142135623731
  0
LINE
  5
2BE
330
1F
100
AcDbEntity
  8
0-B
  6
Continuous
 62
   120
370
     5
100
AcDbLine
 10
1069.821745559607
 20
379.8885590859976
 30
0.0
 11
1069.821745559607
 21
291.8885590859975
 31
0.0
  0
LINE
  5
2BF
330
1F
100
AcDbEntity
  8
0-B
  6
Continuous
 62
   120
370
     5
100
AcDbLine
 10
1169.821745559607
 20
479.8885590859976
 30
0.0
 11
1169.821745559607
 21
429.8885590859976
 31
0.0
  0
LWPOLYLINE
  5
2C0
330
1F
100
AcDbEntity
  8
0-B
  6
Continuous
 62
     7
370
     9
100
AcDbPolyline
 90
        4
 70
     1
 43
2.0
 10
1170.821745559607
 20
479.8885590859976
 42
0.4142135623731
 10
1169.821745559607
 20
480.8885590859976
 42
0.4142135623731
 10
1168.821745559608
 20
479.8885590859976
 42
0.4142135623731
 10
1169.821745559607
 20
478.8885590859976
 42
0.4142135623731
  0
LINE
  5
2C1
330
1F
100
AcDbEntity
  8
0-B
  6
Continuous
 62
   120
370
     5
100
AcDbLine
 10
1169.821745559607
 20
479.8885590859976
 30
0.0
 11
1769.821745559607
 21
479.8885590859976
 31
0.0
  0
LINE
  5
2C2
330
1F
100
AcDbEntity
  8
0-0
  6
JWW_HOJO
 62
     7
370
     9
100
AcDbLine
 10
1119.821745559607
 20
429.8885590859976
 30
0.0
 11
1755.177084618934
 21
429.8885590859976
 31
0.0
  0
LINE
  5
2C3
330
1F
100
AcDbEntity
  8
0-0
  6
JWW_HOJO
 62
     7
370
     9
100
AcDbLine
 10
1069.821745559607
 20
479.8885590859976
 30
0.0
 11
1775.887762737589
 21
479.8885590859976
 31
0.0
  0
LINE
  5
2C4
330
1F
100
AcDbEntity
  8
0-4
  6
Continuous
 62
    92
370
    13
100
AcDbLine
 10
1169.821745559607
 20
374.8885590859976
 30
0.0
 11
1732.395338688414
 21
374.8885590859976
 31
0.0
  0
LINE
  5
2C5
330
1F
100
AcDbEntity
  8
0-4
  6
Continuous
 62
    92
370
    13
100
AcDbLine
 10
1169.821745559607
 20
379.8885590859976
 30
0.0
 11
1734.466406500278
 21
379.8885590859976
 31
0.0
  0
LINE
  5
2C6
330
1F
100
AcDbEntity
  8
0-4
  6
Continuous
 62
    92
370
    13
100
AcDbLine
 10
1169.821745559607
 20
291.8885590859975
 30
0.0
 11
1649.821745559607
 21
291.8885590859975
 31
0.0
  0
LINE
  5
2C7
330
1F
100
AcDbEntity
  8
0-4
  6
Continuous
 62
    92
370
    13
100
AcDbLine
 10
1169.821745559607
 20
379.8885590859976
 30
0.0
 11
1169.821745559607
 21
291.8885590859975
 31
0.0
  0
MTEXT
  5
2C8
330
1F
100
AcDbEntity
  8
0-B
  6
Continuous
 62
     7
370
   211
100
AcDbMText
 10
1059.821745559607
 20
278.7485590859973
 30
0.0
 40
45.72
 41
90.0
 46
0.0
 71
     7
 72
     1
  1
{\fＭＳ ゴシック|b0|i0|c128|p49;8.8}
 11
6.123031769111886E-17
 21
1.0
 31
0.0
 73
     1
 44
1.0
  0
LINE
  5
2C9
330
1F
100
AcDbEntity
  8
0-B
  6
Continuous
 62
   120
370
     5
100
AcDbLine
 10
1120.110813068591
 20
-638.6924370404734
 30
0.0
 11
1170.110813068591
 21
-638.6924370404734
 31
0.0
  0
LINE
  5
2CA
330
1F
100
AcDbEntity
  8
0-B
  6
Continuous
 62
   120
370
     5
100
AcDbLine
 10
1120.110813068591
 20
-550.6924370404732
 30
0.0
 11
1170.110813068591
 21
-550.6924370404732
 31
0.0
  0
LWPOLYLINE
  5
2CB
330
1F
100
AcDbEntity
  8
0-B
  6
Continuous
 62
     7
370
     9
100
AcDbPolyline
 90
        4
 70
     1
 43
2.0
 10
1121.110813068591
 20
-638.6924370404734
 42
0.4142135623731
 10
1120.110813068591
 20
-637.6924370404734
 42
0.4142135623731
 10
1119.110813068591
 20
-638.6924370404734
 42
0.4142135623731
 10
1120.110813068591
 20
-639.6924370404734
 42
0.4142135623731
  0
LWPOLYLINE
  5
2CC
330
1F
100
AcDbEntity
  8
0-B
  6
Continuous
 62
     7
370
     9
100
AcDbPolyline
 90
        4
 70
     1
 43
2.0
 10
1121.110813068591
 20
-550.6924370404732
 42
0.4142135623731
 10
1120.110813068591
 20
-549.6924370404732
 42
0.4142135623731
 10
1119.110813068591
 20
-550.6924370404732
 42
0.4142135623731
 10
1120.110813068591
 20
-551.6924370404732
 42
0.4142135623731
  0
LINE
  5
2CD
330
1F
100
AcDbEntity
  8
0-B
  6
Continuous
 62
   120
370
     5
100
AcDbLine
 10
1120.110813068591
 20
-550.6924370404732
 30
0.0
 11
1120.110813068591
 21
-638.6924370404734
 31
0.0
  0
LINE
  5
2CE
330
1F
100
AcDbEntity
  8
0-B
  6
Continuous
 62
   120
370
     5
100
AcDbLine
 10
1220.110813068591
 20
-450.6924370404732
 30
0.0
 11
1220.110813068591
 21
-500.6924370404732
 31
0.0
  0
LWPOLYLINE
  5
2CF
330
1F
100
AcDbEntity
  8
0-B
  6
Continuous
 62
     7
370
     9
100
AcDbPolyline
 90
        4
 70
     1
 43
2.0
 10
1221.110813068591
 20
-450.6924370404732
 42
0.4142135623731
 10
1220.110813068591
 20
-449.6924370404732
 42
0.4142135623731
 10
1219.110813068591
 20
-450.6924370404732
 42
0.4142135623731
 10
1220.110813068591
 20
-451.6924370404732
 42
0.4142135623731
  0
LINE
  5
2D0
330
1F
100
AcDbEntity
  8
0-B
  6
Continuous
 62
   120
370
     5
100
AcDbLine
 10
1220.110813068591
 20
-450.6924370404732
 30
0.0
 11
1780.110813068591
 21
-450.6924370404732
 31
0.0
  0
LINE
  5
2D1
330
1F
100
AcDbEntity
  8
0-0
  6
JWW_HOJO
 62
     7
370
     9
100
AcDbLine
 10
1170.110813068591
 20
-500.6924370404732
 30
0.0
 11
1786.679355563515
 21
-500.6924370404732
 31
0.0
  0
LINE
  5
2D2
330
1F
100
AcDbEntity
  8
0-0
  6
JWW_HOJO
 62
     7
370
     9
100
AcDbLine
 10
1120.110813068591
 20
-450.6924370404732
 30
0.0
 11
1807.390033682171
 21
-450.6924370404732
 31
0.0
  0
LINE
  5
2D3
330
1F
100
AcDbEntity
  8
0-4
  6
Continuous
 62
    92
370
    13
100
AcDbLine
 10
1220.110813068591
 20
-555.6924370404732
 30
0.0
 11
1763.897609632996
 21
-555.6924370404732
 31
0.0
  0
LINE
  5
2D4
330
1F
100
AcDbEntity
  8
0-4
  6
Continuous
 62
    92
370
    13
100
AcDbLine
 10
1220.110813068591
 20
-550.6924370404732
 30
0.0
 11
1765.96867744486
 21
-550.6924370404732
 31
0.0
  0
LINE
  5
2D5
330
1F
100
AcDbEntity
  8
0-4
  6
Continuous
 62
    92
370
    13
100
AcDbLine
 10
1220.110813068591
 20
-638.6924370404734
 30
0.0
 11
1700.110813068591
 21
-638.6924370404734
 31
0.0
  0
LINE
  5
2D6
330
1F
100
AcDbEntity
  8
0-4
  6
Continuous
 62
    92
370
    13
100
AcDbLine
 10
1220.110813068591
 20
-550.6924370404732
 30
0.0
 11
1220.110813068591
 21
-638.6924370404734
 31
0.0
  0
MTEXT
  5
2D7
330
1F
100
AcDbEntity
  8
0-B
  6
Continuous
 62
     7
370
   211
100
AcDbMText
 10
1110.110813068591
 20
-651.8324370404733
 30
0.0
 40
45.72
 41
90.0
 46
0.0
 71
     7
 72
     1
  1
{\fＭＳ ゴシック|b0|i0|c128|p49;8.8}
 11
6.123031769111886E-17
 21
1.0
 31
0.0
 73
     1
 44
1.0
  0
LINE
  5
2D8
330
1F
100
AcDbEntity
  8
0-B
  6
Continuous
 62
   120
370
     5
100
AcDbLine
 10
1169.821745559607
 20
-220.1114409140024
 30
0.0
 11
1169.821745559607
 21
-170.1114409140024
 31
0.0
  0
LWPOLYLINE
  5
2D9
330
1F
100
AcDbEntity
  8
0-B
  6
Continuous
 62
     7
370
     9
100
AcDbPolyline
 90
        4
 70
     1
 43
2.0
 10
1170.821745559607
 20
-220.1114409140024
 42
0.4142135623731
 10
1169.821745559607
 20
-219.1114409140024
 42
0.4142135623731
 10
1168.821745559608
 20
-220.1114409140024
 42
0.4142135623731
 10
1169.821745559607
 20
-221.1114409140024
 42
0.4142135623731
  0
LINE
  5
2DA
330
1F
100
AcDbEntity
  8
0-0
  6
JWW_HOJO
 62
     7
370
     9
100
AcDbLine
 10
1119.821745559607
 20
429.8885590859976
 30
0.0
 11
1119.821745559607
 21
-170.1114409140024
 31
0.0
  0
LINE
  5
2DB
330
1F
100
AcDbEntity
  8
0-0
  6
JWW_HOJO
 62
     7
370
     9
100
AcDbLine
 10
1819.821745559607
 20
-170.1114409140024
 30
0.0
 11
1119.821745559607
 21
-170.1114409140024
 31
0.0
  0
LINE
  5
2DC
330
1F
100
AcDbEntity
  8
0-0
  6
JWW_HOJO
 62
     7
370
     9
100
AcDbLine
 10
1069.821745559607
 20
479.8885590859976
 30
0.0
 11
1069.821745559607
 21
-220.1114409140024
 31
0.0
  0
LINE
  5
2DD
330
1F
100
AcDbEntity
  8
0-0
  6
JWW_HOJO
 62
     7
370
     9
100
AcDbLine
 10
1869.821745559607
 20
-220.1114409140024
 30
0.0
 11
1069.821745559607
 21
-220.1114409140024
 31
0.0
  0
LINE
  5
2DE
330
1F
100
AcDbEntity
  8
0-B
  6
Continuous
 62
   120
370
     5
100
AcDbLine
 10
1169.821745559607
 20
-220.1114409140024
 30
0.0
 11
1769.821745559607
 21
-220.1114409140024
 31
0.0
  0
LINE
  5
2DF
330
1F
100
AcDbEntity
  8
0-B
  6
Continuous
 62
   120
370
     5
100
AcDbLine
 10
1220.110813068591
 20
-1150.692437040473
 30
0.0
 11
1220.110813068591
 21
-1100.692437040473
 31
0.0
  0
LWPOLYLINE
  5
2E0
330
1F
100
AcDbEntity
  8
0-B
  6
Continuous
 62
     7
370
     9
100
AcDbPolyline
 90
        4
 70
     1
 43
2.0
 10
1221.110813068591
 20
-1150.692437040473
 42
0.4142135623731
 10
1220.110813068591
 20
-1149.692437040473
 42
0.4142135623731
 10
1219.110813068591
 20
-1150.692437040473
 42
0.4142135623731
 10
1220.110813068591
 20
-1151.692437040473
 42
0.4142135623731
  0
LINE
  5
2E1
330
1F
100
AcDbEntity
  8
0-0
  6
JWW_HOJO
 62
     7
370
     9
100
AcDbLine
 10
1830.110813068591
 20
-1100.692437040473
 30
0.0
 11
1170.110813068591
 21
-1100.692437040473
 31
0.0
  0
LINE
  5
2E2
330
1F
100
AcDbEntity
  8
0-0
  6
JWW_HOJO
 62
     7
370
     9
100
AcDbLine
 10
1170.110813068591
 20
-500.6924370404732
 30
0.0
 11
1170.110813068591
 21
-1100.692437040473
 31
0.0
  0
LINE
  5
2E3
330
1F
100
AcDbEntity
  8
0-0
  6
JWW_HOJO
 62
     7
370
     9
100
AcDbLine
 10
1880.110813068591
 20
-1150.692437040473
 30
0.0
 11
1120.110813068591
 21
-1150.692437040473
 31
0.0
  0
LINE
  5
2E4
330
1F
100
AcDbEntity
  8
0-0
  6
JWW_HOJO
 62
     7
370
     9
100
AcDbLine
 10
1120.110813068591
 20
-450.6924370404732
 30
0.0
 11
1120.110813068591
 21
-1150.692437040473
 31
0.0
  0
LINE
  5
2E5
330
1F
100
AcDbEntity
  8
0-B
  6
Continuous
 62
   120
370
     5
100
AcDbLine
 10
1220.110813068591
 20
-1150.692437040473
 30
0.0
 11
1780.110813068591
 21
-1150.692437040473
 31
0.0
  0
MTEXT
  5
2E6
330
1F
100
AcDbEntity
  8
0-B
  6
Continuous
 62
     7
370
   211
100
AcDbMText
 10
1437.321745559607
 20
482.7485590859976
 30
0.0
 40
45.72
 41
60.0
 46
0.0
 71
     7
 72
     1
  1
{\fＭＳ ゴシック|b0|i0|c128|p49;60}
 73
     1
 44
1.0
  0
MTEXT
  5
2E7
330
1F
100
AcDbEntity
  8
0-B
  6
Continuous
 62
     7
370
   211
100
AcDbMText
 10
1377.321745559607
 20
-217.2514409140024
 30
0.0
 40
45.72
 41
60.0
 46
0.0
 71
     7
 72
     1
  1
{\fＭＳ ゴシック|b0|i0|c128|p49;48}
 73
     1
 44
1.0
  0
MTEXT
  5
2E8
330
1F
100
AcDbEntity
  8
0-B
  6
Continuous
 62
     7
370
   211
100
AcDbMText
 10
1467.611122368369
 20
-447.8324370404732
 30
0.0
 40
45.72
 41
60.0
 46
0.0
 71
     7
 72
     1
  1
{\fＭＳ ゴシック|b0|i0|c128|p49;56}
 73
     1
 44
1.0
  0
MTEXT
  5
2E9
330
1F
100
AcDbEntity
  8
0-B
  6
Continuous
 62
     7
370
   211
100
AcDbMText
 10
1427.610813068591
 20
-1147.832437040473
 30
0.0
 40
45.72
 41
60.0
 46
0.0
 71
     7
 72
     1
  1
{\fＭＳ ゴシック|b0|i0|c128|p49;48}
 73
     1
 44
1.0
  0
MTEXT
  5
2EA
330
1F
100
AcDbEntity
  8
0-A
  6
Continuous
 62
     7
370
     9
100
AcDbMText
 10
2453.332527779244
 20
509.1101847421805
 30
0.0
 40
45.71999999999999
 41
390.0
 46
0.0
 71
     7
 72
     1
  1
{\fＭＳ ゴシック|b0|i0|c128|p49;3,900×60×50}
 73
     1
 44
1.0
  0
MTEXT
  5
2EB
330
1F
100
AcDbEntity
  8
0-A
  6
Continuous
 62
     7
370
     9
100
AcDbMText
 10
2453.332527779244
 20
404.9435114169773
 30
0.0
 40
45.71999999999999
 41
390.0
 46
0.0
 71
     7
 72
     1
  1
{\fＭＳ ゴシック|b0|i0|c128|p49;2,450×60×50}
 73
     1
 44
1.0
  0
MTEXT
  5
2EC
330
1F
100
AcDbEntity
  8
0-A
  6
Continuous
 62
     7
370
     9
100
AcDbMText
 10
2453.332527779244
 20
300.7768380917736
 30
0.0
 40
45.71999999999999
 41
390.0
 46
0.0
 71
     7
 72
     1
  1
{\fＭＳ ゴシック|b0|i0|c128|p49;2,075×60×50}
 73
     1
 44
1.0
  0
MTEXT
  5
2ED
330
1F
100
AcDbEntity
  8
0-A
  6
Continuous
 62
     7
370
     9
100
AcDbMText
 10
2453.332527779244
 20
-428.3898751846518
 30
0.0
 40
45.71999999999999
 41
390.0
 46
0.0
 71
     7
 72
     1
  1
{\fＭＳ ゴシック|b0|i0|c128|p49;3,900×56×50}
 73
     1
 44
1.0
  0
MTEXT
  5
2EE
330
1F
100
AcDbEntity
  8
0-A
  6
Continuous
 62
     7
370
     9
100
AcDbMText
 10
2453.332527779244
 20
-532.5565485098556
 30
0.0
 40
45.71999999999999
 41
390.0
 46
0.0
 71
     7
 72
     1
  1
{\fＭＳ ゴシック|b0|i0|c128|p49;2,075×56×50}
 73
     1
 44
1.0
  0
MTEXT
  5
2EF
330
1F
100
AcDbEntity
  8
0-A
  6
Continuous
 62
     7
370
     9
100
AcDbMText
 10
2963.332527779244
 20
509.1101847421805
 30
0.0
 40
45.71999999999999
 41
390.0
 46
0.0
 71
     7
 72
     1
  1
{\fＭＳ ゴシック|b0|i0|c128|p49;ＤＧＢＹ16-□}
 73
     1
 44
1.0
  0
MTEXT
  5
2F0
330
1F
100
AcDbEntity
  8
0-A
  6
Continuous
 62
     7
370
     9
100
AcDbMText
 10
2963.332527779244
 20
404.9435114169773
 30
0.0
 40
45.71999999999999
 41
390.0
 46
0.0
 71
     7
 72
     1
  1
{\fＭＳ ゴシック|b0|i0|c128|p49;ＤＧＢＹ14-□}
 73
     1
 44
1.0
  0
MTEXT
  5
2F1
330
1F
100
AcDbEntity
  8
0-A
  6
Continuous
 62
     7
370
     9
100
AcDbMText
 10
2963.332527779244
 20
300.7768380917736
 30
0.0
 40
45.71999999999999
 41
390.0
 46
0.0
 71
     7
 72
     1
  1
{\fＭＳ ゴシック|b0|i0|c128|p49;ＤＧＢＹ13-□}
 73
     1
 44
1.0
  0
MTEXT
  5
2F2
330
1F
100
AcDbEntity
  8
0-A
  6
Continuous
 62
     7
370
     9
100
AcDbMText
 10
2963.332527779244
 20
-428.3898751846518
 30
0.0
 40
45.71999999999999
 41
390.0
 46
0.0
 71
     7
 72
     1
  1
{\fＭＳ ゴシック|b0|i0|c128|p49;ＤＧＢＹ26-□}
 73
     1
 44
1.0
  0
MTEXT
  5
2F3
330
1F
100
AcDbEntity
  8
0-A
  6
Continuous
 62
     7
370
     9
100
AcDbMText
 10
2963.332527779244
 20
-532.5565485098557
 30
0.0
 40
45.71999999999999
 41
390.0
 46
0.0
 71
     7
 72
     1
  1
{\fＭＳ ゴシック|b0|i0|c128|p49;ＤＧＢＹ23-□}
 73
     1
 44
1.0
  0
LINE
  5
2F4
330
1F
100
AcDbEntity
  8
0-0
  6
JWW_HOJO
 62
     7
370
     9
100
AcDbLine
 10
-2544.443621875056
 20
-1988.21501524505
 30
0.0
 11
-2257.164401261479
 21
-1988.21501524505
 31
0.0
  0
LINE
  5
2F5
330
1F
100
AcDbEntity
  8
0-0
  6
JWW_HOJO
 62
     7
370
     9
100
AcDbLine
 10
-2184.443621875056
 20
-2038.687204545429
 30
0.0
 11
-2234.915811175437
 21
-1988.21501524505
 31
0.0
  0
LINE
  5
2F6
330
1F
100
AcDbEntity
  8
0-0
  6
JWW_HOJO
 62
     7
370
     9
100
AcDbLine
 10
-2277.875079380132
 20
-2038.21501524505
 30
0.0
 11
-2494.443621875056
 21
-2038.21501524505
 31
0.0
  0
LINE
  5
2F7
330
1F
100
AcDbEntity
  8
0-0
  6
JWW_HOJO
 62
     7
370
     9
100
AcDbLine
 10
-2494.443621875056
 20
-2451.087564523589
 30
0.0
 11
-2494.443621875056
 21
-2038.21501524505
 31
0.0
  0
LINE
  5
2F8
330
1F
100
AcDbEntity
  8
0-0
  6
JWW_HOJO
 62
     7
370
     9
100
AcDbLine
 10
-2544.443621875056
 20
-2501.087564523589
 30
0.0
 11
-2544.443621875056
 21
-1988.21501524505
 31
0.0
  0
LINE
  5
2F9
330
1F
100
AcDbEntity
  8
0-B
  6
Continuous
 62
   120
370
     5
100
AcDbLine
 10
-2284.443621875056
 20
-1988.21501524505
 30
0.0
 11
-2284.443621875056
 21
-2038.21501524505
 31
0.0
  0
LINE
  5
2FA
330
1F
100
AcDbEntity
  8
0-B
  6
Continuous
 62
   120
370
     5
100
AcDbLine
 10
-2444.443621875056
 20
-1988.21501524505
 30
0.0
 11
-2444.443621875056
 21
-2038.21501524505
 31
0.0
  0
LWPOLYLINE
  5
2FB
330
1F
100
AcDbEntity
  8
0-B
  6
Continuous
 62
     7
370
     9
100
AcDbPolyline
 90
        4
 70
     1
 43
2.0
 10
-2283.443621875056
 20
-1988.21501524505
 42
0.4142135623731
 10
-2284.443621875056
 20
-1987.21501524505
 42
0.4142135623731
 10
-2285.443621875056
 20
-1988.21501524505
 42
0.4142135623731
 10
-2284.443621875056
 20
-1989.21501524505
 42
0.4142135623731
  0
LWPOLYLINE
  5
2FC
330
1F
100
AcDbEntity
  8
0-B
  6
Continuous
 62
     7
370
     9
100
AcDbPolyline
 90
        4
 70
     1
 43
2.0
 10
-2443.443621875056
 20
-1988.21501524505
 42
0.4142135623731
 10
-2444.443621875056
 20
-1987.21501524505
 42
0.4142135623731
 10
-2445.443621875056
 20
-1988.21501524505
 42
0.4142135623731
 10
-2444.443621875056
 20
-1989.21501524505
 42
0.4142135623731
  0
LINE
  5
2FD
330
1F
100
AcDbEntity
  8
0-B
  6
Continuous
 62
   120
370
     5
100
AcDbLine
 10
-2444.443621875056
 20
-1988.21501524505
 30
0.0
 11
-2284.443621875056
 21
-1988.21501524505
 31
0.0
  0
LINE
  5
2FE
330
1F
100
AcDbEntity
  8
0-B
  6
Continuous
 62
   120
370
     5
100
AcDbLine
 10
-2444.443621875056
 20
-2501.087564523589
 30
0.0
 11
-2444.443621875056
 21
-2451.087564523589
 31
0.0
  0
LWPOLYLINE
  5
2FF
330
1F
100
AcDbEntity
  8
0-B
  6
Continuous
 62
     7
370
     9
100
AcDbPolyline
 90
        4
 70
     1
 43
2.0
 10
-2443.443621875056
 20
-2501.087564523589
 42
0.4142135623731
 10
-2444.443621875056
 20
-2500.087564523589
 42
0.4142135623731
 10
-2445.443621875056
 20
-2501.087564523589
 42
0.4142135623731
 10
-2444.443621875056
 20
-2502.087564523589
 42
0.4142135623731
  0
LINE
  5
300
330
1F
100
AcDbEntity
  8
0-B
  6
Continuous
 62
   120
370
     5
100
AcDbLine
 10
-2284.443621875056
 20
-2501.087564523589
 30
0.0
 11
-2284.443621875056
 21
-2451.087564523589
 31
0.0
  0
LINE
  5
301
330
1F
100
AcDbEntity
  8
0-B
  6
Continuous
 62
   120
370
     5
100
AcDbLine
 10
-2364.443621875056
 20
-2501.087564523589
 30
0.0
 11
-2364.443621875056
 21
-2451.087564523589
 31
0.0
  0
LWPOLYLINE
  5
302
330
1F
100
AcDbEntity
  8
0-B
  6
Continuous
 62
     7
370
     9
100
AcDbPolyline
 90
        4
 70
     1
 43
2.0
 10
-2283.443621875056
 20
-2501.087564523589
 42
0.4142135623731
 10
-2284.443621875056
 20
-2500.087564523589
 42
0.4142135623731
 10
-2285.443621875056
 20
-2501.087564523589
 42
0.4142135623731
 10
-2284.443621875056
 20
-2502.087564523589
 42
0.4142135623731
  0
LWPOLYLINE
  5
303
330
1F
100
AcDbEntity
  8
0-B
  6
Continuous
 62
     7
370
     9
100
AcDbPolyline
 90
        4
 70
     1
 43
2.0
 10
-2363.443621875056
 20
-2501.087564523589
 42
0.4142135623731
 10
-2364.443621875056
 20
-2500.087564523589
 42
0.4142135623731
 10
-2365.443621875056
 20
-2501.087564523589
 42
0.4142135623731
 10
-2364.443621875056
 20
-2502.087564523589
 42
0.4142135623731
  0
LINE
  5
304
330
1F
100
AcDbEntity
  8
0-B
  6
Continuous
 62
   120
370
     5
100
AcDbLine
 10
-2444.443621875056
 20
-2501.087564523589
 30
0.0
 11
-2284.443621875056
 21
-2501.087564523589
 31
0.0
  0
LINE
  5
305
330
1F
100
AcDbEntity
  8
0-0
  6
JWW_HOJO
 62
     7
370
     9
100
AcDbLine
 10
-2184.443621875056
 20
-2038.687204545429
 30
0.0
 11
-2184.443621875056
 21
-2501.087564523589
 31
0.0
  0
LINE
  5
306
330
1F
100
AcDbEntity
  8
0-0
  6
JWW_HOJO
 62
     7
370
     9
100
AcDbLine
 10
-2544.443621875056
 20
-2501.087564523589
 30
0.0
 11
-2184.443621875056
 21
-2501.087564523589
 31
0.0
  0
LINE
  5
307
330
1F
100
AcDbEntity
  8
0-0
  6
JWW_HOJO
 62
     7
370
     9
100
AcDbLine
 10
-2234.443621875056
 20
-2059.397882664084
 30
0.0
 11
-2234.443621875056
 21
-2451.087564523589
 31
0.0
  0
LINE
  5
308
330
1F
100
AcDbEntity
  8
0-0
  6
JWW_HOJO
 62
     7
370
     9
100
AcDbLine
 10
-2494.443621875056
 20
-2451.087564523589
 30
0.0
 11
-2234.443621875056
 21
-2451.087564523589
 31
0.0
  0
LINE
  5
309
330
1F
100
AcDbEntity
  8
0-B
  6
Continuous
 62
   120
370
     5
100
AcDbLine
 10
-2213.7329437564
 20
-2009.397882664084
 30
0.0
 11
-2249.088282815728
 21
-2044.753221723412
 31
0.0
  0
LINE
  5
30A
330
1F
100
AcDbEntity
  8
0-B
  6
Continuous
 62
   120
370
     5
100
AcDbLine
 10
-2227.875079380132
 20
-1995.255747040353
 30
0.0
 11
-2263.230418439459
 21
-2030.611086099681
 31
0.0
  0
LWPOLYLINE
  5
30B
330
1F
100
AcDbEntity
  8
0-B
  6
Continuous
 62
     7
370
     9
100
AcDbPolyline
 90
        4
 70
     1
 43
2.0
 10
-2212.732943756401
 20
-2009.397882664084
 42
0.4142135623731
 10
-2213.7329437564
 20
-2008.397882664084
 42
0.4142135623731
 10
-2214.7329437564
 20
-2009.397882664084
 42
0.4142135623731
 10
-2213.7329437564
 20
-2010.397882664084
 42
0.4142135623731
  0
LWPOLYLINE
  5
30C
330
1F
100
AcDbEntity
  8
0-B
  6
Continuous
 62
     7
370
     9
100
AcDbPolyline
 90
        4
 70
     1
 43
2.0
 10
-2226.875079380132
 20
-1995.255747040353
 42
0.4142135623731
 10
-2227.875079380132
 20
-1994.255747040354
 42
0.4142135623731
 10
-2228.875079380131
 20
-1995.255747040353
 42
0.4142135623731
 10
-2227.875079380132
 20
-1996.255747040353
 42
0.4142135623731
  0
LINE
  5
30D
330
1F
100
AcDbEntity
  8
0-B
  6
Continuous
 62
   120
370
     5
100
AcDbLine
 10
-2227.875079380132
 20
-1995.255747040353
 30
0.0
 11
-2213.7329437564
 21
-2009.397882664084
 31
0.0
  0
LINE
  5
30E
330
1F
100
AcDbEntity
  8
0-B
  6
Continuous
 62
   120
370
     5
100
AcDbLine
 10
-2184.443621875056
 20
-2415.966425159008
 30
0.0
 11
-2234.443621875056
 21
-2415.966425159008
 31
0.0
  0
LINE
  5
30F
330
1F
100
AcDbEntity
  8
0-B
  6
Continuous
 62
   120
370
     5
100
AcDbLine
 10
-2184.443621875056
 20
-2065.966425159008
 30
0.0
 11
-2234.443621875056
 21
-2065.966425159008
 31
0.0
  0
LWPOLYLINE
  5
310
330
1F
100
AcDbEntity
  8
0-B
  6
Continuous
 62
     7
370
     9
100
AcDbPolyline
 90
        4
 70
     1
 43
2.0
 10
-2183.443621875056
 20
-2415.966425159008
 42
0.4142135623731
 10
-2184.443621875056
 20
-2414.966425159008
 42
0.4142135623731
 10
-2185.443621875056
 20
-2415.966425159008
 42
0.4142135623731
 10
-2184.443621875056
 20
-2416.966425159008
 42
0.4142135623731
  0
LWPOLYLINE
  5
311
330
1F
100
AcDbEntity
  8
0-B
  6
Continuous
 62
     7
370
     9
100
AcDbPolyline
 90
        4
 70
     1
 43
2.0
 10
-2183.443621875056
 20
-2065.966425159008
 42
0.4142135623731
 10
-2184.443621875056
 20
-2064.966425159008
 42
0.4142135623731
 10
-2185.443621875056
 20
-2065.966425159008
 42
0.4142135623731
 10
-2184.443621875056
 20
-2066.966425159008
 42
0.4142135623731
  0
LINE
  5
312
330
1F
100
AcDbEntity
  8
0-B
  6
Continuous
 62
   120
370
     5
100
AcDbLine
 10
-2184.443621875056
 20
-2065.966425159008
 30
0.0
 11
-2184.443621875056
 21
-2415.966425159008
 31
0.0
  0
LINE
  5
313
330
1F
100
AcDbEntity
  8
0-B
  6
Continuous
 62
   120
370
     5
100
AcDbLine
 10
-2544.443621875056
 20
-2153.966425159008
 30
0.0
 11
-2494.443621875056
 21
-2153.966425159008
 31
0.0
  0
LINE
  5
314
330
1F
100
AcDbEntity
  8
0-B
  6
Continuous
 62
   120
370
     5
100
AcDbLine
 10
-2544.443621875056
 20
-2065.966425159008
 30
0.0
 11
-2494.443621875056
 21
-2065.966425159008
 31
0.0
  0
LWPOLYLINE
  5
315
330
1F
100
AcDbEntity
  8
0-B
  6
Continuous
 62
     7
370
     9
100
AcDbPolyline
 90
        4
 70
     1
 43
2.0
 10
-2543.443621875056
 20
-2153.966425159008
 42
0.4142135623731
 10
-2544.443621875056
 20
-2152.966425159008
 42
0.4142135623731
 10
-2545.443621875056
 20
-2153.966425159008
 42
0.4142135623731
 10
-2544.443621875056
 20
-2154.966425159008
 42
0.4142135623731
  0
LWPOLYLINE
  5
316
330
1F
100
AcDbEntity
  8
0-B
  6
Continuous
 62
     7
370
     9
100
AcDbPolyline
 90
        4
 70
     1
 43
2.0
 10
-2543.443621875056
 20
-2065.966425159008
 42
0.4142135623731
 10
-2544.443621875056
 20
-2064.966425159008
 42
0.4142135623731
 10
-2545.443621875056
 20
-2065.966425159008
 42
0.4142135623731
 10
-2544.443621875056
 20
-2066.966425159008
 42
0.4142135623731
  0
LINE
  5
317
330
1F
100
AcDbEntity
  8
0-B
  6
Continuous
 62
   120
370
     5
100
AcDbLine
 10
-2544.443621875056
 20
-2065.966425159008
 30
0.0
 11
-2544.443621875056
 21
-2153.966425159008
 31
0.0
  0
LINE
  5
318
330
1F
100
AcDbEntity
  8
0-0
  6
JWW_HOJO
 62
     7
370
     9
100
AcDbLine
 10
-2277.875079380132
 20
-2015.966425159008
 30
0.0
 11
-2234.443621875056
 21
-2059.397882664084
 31
0.0
  0
LINE
  5
319
330
1F
100
AcDbEntity
  8
0-4
  6
Continuous
 62
    92
370
    13
100
AcDbLine
 10
-2289.443621875056
 20
-2082.179628594604
 30
0.0
 11
-2289.443621875056
 21
-2410.966425159008
 31
0.0
  0
LINE
  5
31A
330
1F
100
AcDbEntity
  8
0-4
  6
Continuous
 62
    92
370
    13
100
AcDbLine
 10
-2284.443621875056
 20
-2080.108560782739
 30
0.0
 11
-2284.443621875056
 21
-2415.966425159008
 31
0.0
  0
LINE
  5
31B
330
1F
100
AcDbEntity
  8
0-4
  6
Continuous
 62
    92
370
    13
100
AcDbLine
 10
-2364.443621875056
 20
-2410.966425159008
 30
0.0
 11
-2289.443621875056
 21
-2410.966425159008
 31
0.0
  0
LINE
  5
31C
330
1F
100
AcDbEntity
  8
0-4
  6
Continuous
 62
    92
370
    13
100
AcDbLine
 10
-2364.443621875056
 20
-2415.966425159008
 30
0.0
 11
-2284.443621875056
 21
-2415.966425159008
 31
0.0
  0
LINE
  5
31D
330
1F
100
AcDbEntity
  8
0-4
  6
Continuous
 62
    92
370
    13
100
AcDbLine
 10
-2300.656825310652
 20
-2070.966425159008
 30
0.0
 11
-2289.443621875056
 21
-2082.179628594604
 31
0.0
  0
LINE
  5
31E
330
1F
100
AcDbEntity
  8
0-4
  6
Continuous
 62
    92
370
    13
100
AcDbLine
 10
-2298.585757498787
 20
-2065.966425159008
 30
0.0
 11
-2284.443621875056
 21
-2080.108560782739
 31
0.0
  0
LINE
  5
31F
330
1F
100
AcDbEntity
  8
0-4
  6
Continuous
 62
    92
370
    13
100
AcDbLine
 10
-2444.443621875056
 20
-2070.966425159008
 30
0.0
 11
-2300.656825310652
 21
-2070.966425159008
 31
0.0
  0
LINE
  5
320
330
1F
100
AcDbEntity
  8
0-4
  6
Continuous
 62
    92
370
    13
100
AcDbLine
 10
-2444.443621875056
 20
-2065.966425159008
 30
0.0
 11
-2298.585757498787
 21
-2065.966425159008
 31
0.0
  0
LINE
  5
321
330
1F
100
AcDbEntity
  8
0-4
  6
Continuous
 62
    92
370
    13
100
AcDbLine
 10
-2444.443621875056
 20
-2153.966425159008
 30
0.0
 11
-2444.443621875056
 21
-2065.966425159008
 31
0.0
  0
LINE
  5
322
330
1F
100
AcDbEntity
  8
0-4
  6
Continuous
 62
    92
370
    13
100
AcDbLine
 10
-2364.443621875056
 20
-2415.966425159008
 30
0.0
 11
-2364.443621875056
 21
-2153.966425159008
 31
0.0
  0
LINE
  5
323
330
1F
100
AcDbEntity
  8
0-4
  6
Continuous
 62
    92
370
    13
100
AcDbLine
 10
-2444.443621875056
 20
-2153.966425159008
 30
0.0
 11
-2364.443621875056
 21
-2153.966425159008
 31
0.0
  0
LINE
  5
324
330
1F
100
AcDbEntity
  8
0-B
  6
Continuous
 62
   120
370
     5
100
AcDbLine
 10
-2217.501169936929
 20
-1415.846429244623
 30
0.0
 11
-2252.856508996256
 21
-1451.20176830395
 31
0.0
  0
LINE
  5
325
330
1F
100
AcDbEntity
  8
0-B
  6
Continuous
 62
   120
370
     5
100
AcDbLine
 10
-2252.856508996256
 20
-1380.491090185295
 30
0.0
 11
-2288.211848055582
 21
-1415.846429244623
 31
0.0
  0
LWPOLYLINE
  5
326
330
1F
100
AcDbEntity
  8
0-B
  6
Continuous
 62
     7
370
     9
100
AcDbPolyline
 90
        4
 70
     1
 43
2.0
 10
-2216.501169936929
 20
-1415.846429244623
 42
0.4142135623731
 10
-2217.501169936929
 20
-1414.846429244623
 42
0.4142135623731
 10
-2218.501169936929
 20
-1415.846429244623
 42
0.4142135623731
 10
-2217.501169936929
 20
-1416.846429244622
 42
0.4142135623731
  0
LWPOLYLINE
  5
327
330
1F
100
AcDbEntity
  8
0-B
  6
Continuous
 62
     7
370
     9
100
AcDbPolyline
 90
        4
 70
     1
 43
2.0
 10
-2251.856508996256
 20
-1380.491090185295
 42
0.4142135623731
 10
-2252.856508996256
 20
-1379.491090185295
 42
0.4142135623731
 10
-2253.856508996256
 20
-1380.491090185295
 42
0.4142135623731
 10
-2252.856508996256
 20
-1381.491090185295
 42
0.4142135623731
  0
LINE
  5
328
330
1F
100
AcDbEntity
  8
0-B
  6
Continuous
 62
   120
370
     5
100
AcDbLine
 10
-2252.856508996256
 20
-1380.491090185295
 30
0.0
 11
-2217.501169936929
 21
-1415.846429244623
 31
0.0
  0
LINE
  5
329
330
1F
100
AcDbEntity
  8
0-0
  6
JWW_HOJO
 62
     7
370
     9
100
AcDbLine
 10
-2534.443621875056
 20
-1418.122270532826
 30
0.0
 11
-2534.443621875056
 21
-1823.659338382706
 31
0.0
  0
LINE
  5
32A
330
1F
100
AcDbEntity
  8
0-0
  6
JWW_HOJO
 62
     7
370
     9
100
AcDbLine
 10
-2584.443621875056
 20
-1368.122270532826
 30
0.0
 11
-2584.443621875056
 21
-1873.659338382706
 31
0.0
  0
LINE
  5
32B
330
1F
100
AcDbEntity
  8
0-B
  6
Continuous
 62
   120
370
     5
100
AcDbLine
 10
-2284.443621875056
 20
-1368.122270532826
 30
0.0
 11
-2284.443621875056
 21
-1418.122270532826
 31
0.0
  0
LINE
  5
32C
330
1F
100
AcDbEntity
  8
0-B
  6
Continuous
 62
   120
370
     5
100
AcDbLine
 10
-2484.443621875056
 20
-1368.122270532826
 30
0.0
 11
-2484.443621875056
 21
-1418.122270532826
 31
0.0
  0
LWPOLYLINE
  5
32D
330
1F
100
AcDbEntity
  8
0-B
  6
Continuous
 62
     7
370
     9
100
AcDbPolyline
 90
        4
 70
     1
 43
2.0
 10
-2283.443621875056
 20
-1368.122270532826
 42
0.4142135623731
 10
-2284.443621875056
 20
-1367.122270532826
 42
0.4142135623731
 10
-2285.443621875056
 20
-1368.122270532826
 42
0.4142135623731
 10
-2284.443621875056
 20
-1369.122270532826
 42
0.4142135623731
  0
LWPOLYLINE
  5
32E
330
1F
100
AcDbEntity
  8
0-B
  6
Continuous
 62
     7
370
     9
100
AcDbPolyline
 90
        4
 70
     1
 43
2.0
 10
-2483.443621875056
 20
-1368.122270532826
 42
0.4142135623731
 10
-2484.443621875056
 20
-1367.122270532826
 42
0.4142135623731
 10
-2485.443621875056
 20
-1368.122270532826
 42
0.4142135623731
 10
-2484.443621875056
 20
-1369.122270532826
 42
0.4142135623731
  0
LINE
  5
32F
330
1F
100
AcDbEntity
  8
0-B
  6
Continuous
 62
   120
370
     5
100
AcDbLine
 10
-2484.443621875056
 20
-1368.122270532826
 30
0.0
 11
-2284.443621875056
 21
-1368.122270532826
 31
0.0
  0
LINE
  5
330
330
1F
100
AcDbEntity
  8
0-0
  6
JWW_HOJO
 62
     7
370
     9
100
AcDbLine
 10
-2534.443621875056
 20
-1418.122270532826
 30
0.0
 11
-2299.088282815729
 21
-1418.122270532826
 31
0.0
  0
LINE
  5
331
330
1F
100
AcDbEntity
  8
0-0
  6
JWW_HOJO
 62
     7
370
     9
100
AcDbLine
 10
-2584.443621875056
 20
-1368.122270532826
 30
0.0
 11
-2278.377604697074
 21
-1368.122270532826
 31
0.0
  0
LINE
  5
332
330
1F
100
AcDbEntity
  8
0-B
  6
Continuous
 62
   120
370
     5
100
AcDbLine
 10
-2284.443621875056
 20
-1873.659338382706
 30
0.0
 11
-2284.443621875056
 21
-1823.659338382706
 31
0.0
  0
LWPOLYLINE
  5
333
330
1F
100
AcDbEntity
  8
0-B
  6
Continuous
 62
     7
370
     9
100
AcDbPolyline
 90
        4
 70
     1
 43
2.0
 10
-2283.443621875056
 20
-1873.659338382706
 42
0.4142135623731
 10
-2284.443621875056
 20
-1872.659338382706
 42
0.4142135623731
 10
-2285.443621875056
 20
-1873.659338382706
 42
0.4142135623731
 10
-2284.443621875056
 20
-1874.659338382706
 42
0.4142135623731
  0
LINE
  5
334
330
1F
100
AcDbEntity
  8
0-B
  6
Continuous
 62
   120
370
     5
100
AcDbLine
 10
-2404.443621875056
 20
-1873.659338382706
 30
0.0
 11
-2404.443621875056
 21
-1823.659338382706
 31
0.0
  0
LINE
  5
335
330
1F
100
AcDbEntity
  8
0-B
  6
Continuous
 62
   120
370
     5
100
AcDbLine
 10
-2484.443621875056
 20
-1873.659338382706
 30
0.0
 11
-2484.443621875056
 21
-1823.659338382706
 31
0.0
  0
LWPOLYLINE
  5
336
330
1F
100
AcDbEntity
  8
0-B
  6
Continuous
 62
     7
370
     9
100
AcDbPolyline
 90
        4
 70
     1
 43
2.0
 10
-2403.443621875056
 20
-1873.659338382706
 42
0.4142135623731
 10
-2404.443621875056
 20
-1872.659338382706
 42
0.4142135623731
 10
-2405.443621875056
 20
-1873.659338382706
 42
0.4142135623731
 10
-2404.443621875056
 20
-1874.659338382706
 42
0.4142135623731
  0
LWPOLYLINE
  5
337
330
1F
100
AcDbEntity
  8
0-B
  6
Continuous
 62
     7
370
     9
100
AcDbPolyline
 90
        4
 70
     1
 43
2.0
 10
-2483.443621875056
 20
-1873.659338382706
 42
0.4142135623731
 10
-2484.443621875056
 20
-1872.659338382706
 42
0.4142135623731
 10
-2485.443621875056
 20
-1873.659338382706
 42
0.4142135623731
 10
-2484.443621875056
 20
-1874.659338382706
 42
0.4142135623731
  0
LINE
  5
338
330
1F
100
AcDbEntity
  8
0-B
  6
Continuous
 62
   120
370
     5
100
AcDbLine
 10
-2484.443621875056
 20
-1873.659338382706
 30
0.0
 11
-2284.443621875056
 21
-1873.659338382706
 31
0.0
  0
LINE
  5
339
330
1F
100
AcDbEntity
  8
0-0
  6
JWW_HOJO
 62
     7
370
     9
100
AcDbLine
 10
-2234.443621875056
 20
-1461.526320560326
 30
0.0
 11
-2234.443621875056
 21
-1823.659338382706
 31
0.0
  0
LINE
  5
33A
330
1F
100
AcDbEntity
  8
0-0
  6
JWW_HOJO
 62
     7
370
     9
100
AcDbLine
 10
-2234.443621875056
 20
-1823.659338382706
 30
0.0
 11
-2534.443621875056
 21
-1823.659338382706
 31
0.0
  0
LINE
  5
33B
330
1F
100
AcDbEntity
  8
0-0
  6
JWW_HOJO
 62
     7
370
     9
100
AcDbLine
 10
-2184.443621875056
 20
-1440.815642441672
 30
0.0
 11
-2184.443621875056
 21
-1873.659338382706
 31
0.0
  0
LINE
  5
33C
330
1F
100
AcDbEntity
  8
0-0
  6
JWW_HOJO
 62
     7
370
     9
100
AcDbLine
 10
-2184.443621875056
 20
-1873.659338382706
 30
0.0
 11
-2584.443621875056
 21
-1873.659338382706
 31
0.0
  0
LINE
  5
33D
330
1F
100
AcDbEntity
  8
0-4
  6
Continuous
 62
    92
370
    13
100
AcDbLine
 10
-2289.443621875056
 20
-1484.308066490846
 30
0.0
 11
-2321.870028746249
 21
-1451.881659619653
 31
0.0
  0
LINE
  5
33E
330
1F
100
AcDbEntity
  8
0-4
  6
Continuous
 62
    92
370
    13
100
AcDbLine
 10
-2284.443621875056
 20
-1482.236998678981
 30
0.0
 11
-2319.798960934385
 21
-1446.881659619653
 31
0.0
  0
LINE
  5
33F
330
1F
100
AcDbEntity
  8
0-4
  6
Continuous
 62
    92
370
    13
100
AcDbLine
 10
-2484.443621875056
 20
-1451.881659619653
 30
0.0
 11
-2321.870028746249
 21
-1451.881659619653
 31
0.0
  0
LINE
  5
340
330
1F
100
AcDbEntity
  8
0-4
  6
Continuous
 62
    92
370
    13
100
AcDbLine
 10
-2484.443621875056
 20
-1446.881659619653
 30
0.0
 11
-2319.798960934385
 21
-1446.881659619653
 31
0.0
  0
LINE
  5
341
330
1F
100
AcDbEntity
  8
0-4
  6
Continuous
 62
    92
370
    13
100
AcDbLine
 10
-2289.443621875056
 20
-1791.881659619653
 30
0.0
 11
-2289.443621875056
 21
-1484.308066490846
 31
0.0
  0
LINE
  5
342
330
1F
100
AcDbEntity
  8
0-4
  6
Continuous
 62
    92
370
    13
100
AcDbLine
 10
-2284.443621875056
 20
-1796.881659619653
 30
0.0
 11
-2284.443621875056
 21
-1482.236998678981
 31
0.0
  0
LINE
  5
343
330
1F
100
AcDbEntity
  8
0-4
  6
Continuous
 62
    92
370
    13
100
AcDbLine
 10
-2404.443621875056
 20
-1791.881659619653
 30
0.0
 11
-2289.443621875056
 21
-1791.881659619653
 31
0.0
  0
LINE
  5
344
330
1F
100
AcDbEntity
  8
0-4
  6
Continuous
 62
    92
370
    13
100
AcDbLine
 10
-2404.443621875056
 20
-1796.881659619653
 30
0.0
 11
-2284.443621875056
 21
-1796.881659619653
 31
0.0
  0
LINE
  5
345
330
1F
100
AcDbEntity
  8
0-B
  6
Continuous
 62
   120
370
     5
100
AcDbLine
 10
-2184.443621875056
 20
-1796.881659619653
 30
0.0
 11
-2234.443621875056
 21
-1796.881659619653
 31
0.0
  0
LINE
  5
346
330
1F
100
AcDbEntity
  8
0-B
  6
Continuous
 62
   120
370
     5
100
AcDbLine
 10
-2184.443621875056
 20
-1446.881659619653
 30
0.0
 11
-2234.443621875056
 21
-1446.881659619653
 31
0.0
  0
LWPOLYLINE
  5
347
330
1F
100
AcDbEntity
  8
0-B
  6
Continuous
 62
     7
370
     9
100
AcDbPolyline
 90
        4
 70
     1
 43
2.0
 10
-2183.443621875056
 20
-1796.881659619653
 42
0.4142135623731
 10
-2184.443621875056
 20
-1795.881659619653
 42
0.4142135623731
 10
-2185.443621875056
 20
-1796.881659619653
 42
0.4142135623731
 10
-2184.443621875056
 20
-1797.881659619653
 42
0.4142135623731
  0
LWPOLYLINE
  5
348
330
1F
100
AcDbEntity
  8
0-B
  6
Continuous
 62
     7
370
     9
100
AcDbPolyline
 90
        4
 70
     1
 43
2.0
 10
-2183.443621875056
 20
-1446.881659619653
 42
0.4142135623731
 10
-2184.443621875056
 20
-1445.881659619653
 42
0.4142135623731
 10
-2185.443621875056
 20
-1446.881659619653
 42
0.4142135623731
 10
-2184.443621875056
 20
-1447.881659619653
 42
0.4142135623731
  0
LINE
  5
349
330
1F
100
AcDbEntity
  8
0-B
  6
Continuous
 62
   120
370
     5
100
AcDbLine
 10
-2184.443621875056
 20
-1446.881659619653
 30
0.0
 11
-2184.443621875056
 21
-1796.881659619653
 31
0.0
  0
LINE
  5
34A
330
1F
100
AcDbEntity
  8
0-B
  6
Continuous
 62
   120
370
     5
100
AcDbLine
 10
-2584.443621875056
 20
-1534.881659619653
 30
0.0
 11
-2534.443621875056
 21
-1534.881659619653
 31
0.0
  0
LINE
  5
34B
330
1F
100
AcDbEntity
  8
0-B
  6
Continuous
 62
   120
370
     5
100
AcDbLine
 10
-2584.443621875056
 20
-1446.881659619653
 30
0.0
 11
-2534.443621875056
 21
-1446.881659619653
 31
0.0
  0
LWPOLYLINE
  5
34C
330
1F
100
AcDbEntity
  8
0-B
  6
Continuous
 62
     7
370
     9
100
AcDbPolyline
 90
        4
 70
     1
 43
2.0
 10
-2583.443621875056
 20
-1534.881659619653
 42
0.4142135623731
 10
-2584.443621875056
 20
-1533.881659619653
 42
0.4142135623731
 10
-2585.443621875056
 20
-1534.881659619653
 42
0.4142135623731
 10
-2584.443621875056
 20
-1535.881659619653
 42
0.4142135623731
  0
LWPOLYLINE
  5
34D
330
1F
100
AcDbEntity
  8
0-B
  6
Continuous
 62
     7
370
     9
100
AcDbPolyline
 90
        4
 70
     1
 43
2.0
 10
-2583.443621875056
 20
-1446.881659619653
 42
0.4142135623731
 10
-2584.443621875056
 20
-1445.881659619653
 42
0.4142135623731
 10
-2585.443621875056
 20
-1446.881659619653
 42
0.4142135623731
 10
-2584.443621875056
 20
-1447.881659619653
 42
0.4142135623731
  0
LINE
  5
34E
330
1F
100
AcDbEntity
  8
0-B
  6
Continuous
 62
   120
370
     5
100
AcDbLine
 10
-2584.443621875056
 20
-1446.881659619653
 30
0.0
 11
-2584.443621875056
 21
-1534.881659619653
 31
0.0
  0
LINE
  5
34F
330
1F
100
AcDbEntity
  8
0-4
  6
Continuous
 62
    92
370
    13
100
AcDbLine
 10
-2404.443621875056
 20
-1796.881659619653
 30
0.0
 11
-2404.443621875056
 21
-1534.881659619653
 31
0.0
  0
LINE
  5
350
330
1F
100
AcDbEntity
  8
0-4
  6
Continuous
 62
    92
370
    13
100
AcDbLine
 10
-2484.443621875056
 20
-1534.881659619653
 30
0.0
 11
-2404.443621875056
 21
-1534.881659619653
 31
0.0
  0
LINE
  5
351
330
1F
100
AcDbEntity
  8
0-4
  6
Continuous
 62
    92
370
    13
100
AcDbLine
 10
-2484.443621875056
 20
-1446.881659619653
 30
0.0
 11
-2484.443621875056
 21
-1534.881659619653
 31
0.0
  0
MTEXT
  5
352
330
1F
100
AcDbEntity
  8
0-A
  6
Continuous
 62
     7
370
     0
100
AcDbMText
 10
-3263.333352578653
 20
-1478.686618424493
 30
0.0
 40
60.96
 41
240.0
 46
0.0
 71
     7
 72
     1
  1
{\f@ＭＳ ゴシック|b0|i0|c128|p49;竪用・}
 11
-1.836909530733566E-16
 21
-1.0
 31
0.0
 73
     1
 44
1.0
  0
MTEXT
  5
353
330
1F
100
AcDbEntity
  8
0-A
  6
Continuous
 62
     7
370
     9
100
AcDbMText
 10
-3843.333339691162
 20
-1864.8619541339
 30
0.0
 40
60.96
 41
400.0
 46
0.0
 71
     7
 72
     1
  1
{\fＭＳ ゴシック|b0|i0|c128|p49;ケーシング}
 73
     1
 44
1.0
  0
MTEXT
  5
354
330
1F
100
AcDbEntity
  8
0-A
  6
Continuous
 62
     7
370
     0
100
AcDbMText
 10
-3263.333352578653
 20
-1943.686658375715
 30
0.0
 40
60.96
 41
560.0
 46
0.0
 71
     7
 72
     1
  1
{\f@ＭＳ ゴシック|b0|i0|c128|p49;横 用（竪勝ち)}
 11
-1.836909530733566E-16
 21
-1.0
 31
0.0
 73
     1
 44
1.0
  0
MTEXT
  5
355
330
1F
100
AcDbEntity
  8
0-A
  6
Continuous
 62
     7
370
     9
100
AcDbMText
 10
-3723.333339691162
 20
-1984.8619541339
 30
0.0
 40
60.96
 41
160.0
 46
0.0
 71
     7
 72
     1
  1
{\fＭＳ ゴシック|b0|i0|c128|p49;Ｒ型}
 73
     1
 44
1.0
  0
MTEXT
  5
356
330
1F
100
AcDbEntity
  8
0-B
  6
Continuous
 62
     7
370
   211
100
AcDbMText
 10
-2416.943621875056
 20
-1365.262270532826
 30
0.0
 40
45.72
 41
60.0
 46
0.0
 71
     7
 72
     1
  1
{\fＭＳ ゴシック|b0|i0|c128|p49;20}
 73
     1
 44
1.0
  0
MTEXT
  5
357
330
1F
100
AcDbEntity
  8
0-B
  6
Continuous
 62
     7
370
   211
100
AcDbMText
 10
-2238.714373372525
 20
-1387.631090185296
 30
0.0
 40
45.71999999999975
 41
29.99999999999984
 46
0.0
 71
     7
 72
     1
  1
{\fＭＳ ゴシック|b0|i0|c128|p49;5}
 11
0.7071067811865285
 21
-0.7071067811865666
 31
0.0
 73
     1
 44
1.0
  0
MTEXT
  5
358
330
1F
100
AcDbEntity
  8
0-B
  6
Continuous
 62
     7
370
   211
100
AcDbMText
 10
-2594.443621875056
 20
-1548.021659619654
 30
0.0
 40
45.72
 41
90.0
 46
0.0
 71
     7
 72
     1
  1
{\fＭＳ ゴシック|b0|i0|c128|p49;8.8}
 11
6.123031769111886E-17
 21
1.0
 31
0.0
 73
     1
 44
1.0
  0
MTEXT
  5
359
330
1F
100
AcDbEntity
  8
0-B
  6
Continuous
 62
     7
370
   211
100
AcDbMText
 10
-2194.443621875056
 20
-1661.521659619653
 30
0.0
 40
45.72
 41
60.0
 46
0.0
 71
     7
 72
     1
  1
{\fＭＳ ゴシック|b0|i0|c128|p49;35}
 11
6.123031769111886E-17
 21
1.0
 31
0.0
 73
     1
 44
1.0
  0
MTEXT
  5
35A
330
1F
100
AcDbEntity
  8
0-B
  6
Continuous
 62
     7
370
   211
100
AcDbMText
 10
-2459.443621875056
 20
-1870.799338382706
 30
0.0
 40
45.72
 41
30.0
 46
0.0
 71
     7
 72
     1
  1
{\fＭＳ ゴシック|b0|i0|c128|p49;8}
 73
     1
 44
1.0
  0
MTEXT
  5
35B
330
1F
100
AcDbEntity
  8
0-B
  6
Continuous
 62
     7
370
   211
100
AcDbMText
 10
-2376.943621875056
 20
-1870.799338382706
 30
0.0
 40
45.72
 41
60.0
 46
0.0
 71
     7
 72
     1
  1
{\fＭＳ ゴシック|b0|i0|c128|p49;12}
 73
     1
 44
1.0
  0
MTEXT
  5
35C
330
1F
100
AcDbEntity
  8
0-B
  6
Continuous
 62
     7
370
   211
100
AcDbMText
 10
-2396.943621875056
 20
-1985.35501524505
 30
0.0
 40
45.72
 41
60.0
 46
0.0
 71
     7
 72
     1
  1
{\fＭＳ ゴシック|b0|i0|c128|p49;16}
 73
     1
 44
1.0
  0
MTEXT
  5
35D
330
1F
100
AcDbEntity
  8
0-B
  6
Continuous
 62
     7
370
   211
100
AcDbMText
 10
-2224.339545474199
 20
-1991.789145322555
 30
0.0
 40
45.71999999999976
 41
29.99999999999984
 46
0.0
 71
     7
 72
     1
  1
{\fＭＳ ゴシック|b0|i0|c128|p49;2}
 11
0.7071067811865374
 21
-0.7071067811865577
 31
0.0
 73
     1
 44
1.0
  0
MTEXT
  5
35E
330
1F
100
AcDbEntity
  8
0-B
  6
Continuous
 62
     7
370
   211
100
AcDbMText
 10
-2554.443621875056
 20
-2167.106425159008
 30
0.0
 40
45.72
 41
90.0
 46
0.0
 71
     7
 72
     1
  1
{\fＭＳ ゴシック|b0|i0|c128|p49;8.8}
 11
6.123031769111886E-17
 21
1.0
 31
0.0
 73
     1
 44
1.0
  0
MTEXT
  5
35F
330
1F
100
AcDbEntity
  8
0-B
  6
Continuous
 62
     7
370
   211
100
AcDbMText
 10
-2194.443621875056
 20
-2280.606425159008
 30
0.0
 40
45.72
 41
60.0
 46
0.0
 71
     7
 72
     1
  1
{\fＭＳ ゴシック|b0|i0|c128|p49;35}
 11
6.123031769111886E-17
 21
1.0
 31
0.0
 73
     1
 44
1.0
  0
MTEXT
  5
360
330
1F
100
AcDbEntity
  8
0-B
  6
Continuous
 62
     7
370
   211
100
AcDbMText
 10
-2419.443621875056
 20
-2498.227564523589
 30
0.0
 40
45.72
 41
30.0
 46
0.0
 71
     7
 72
     1
  1
{\fＭＳ ゴシック|b0|i0|c128|p49;8}
 73
     1
 44
1.0
  0
MTEXT
  5
361
330
1F
100
AcDbEntity
  8
0-B
  6
Continuous
 62
     7
370
   211
100
AcDbMText
 10
-2339.443621875056
 20
-2498.227564523589
 30
0.0
 40
45.72
 41
30.0
 46
0.0
 71
     7
 72
     1
  1
{\fＭＳ ゴシック|b0|i0|c128|p49;8}
 73
     1
 44
1.0
  0
MTEXT
  5
362
330
1F
100
AcDbEntity
  8
0-A
  6
Continuous
 62
     7
370
     9
100
AcDbMText
 10
-368.3338392103036
 20
-1364.796199512597
 30
0.0
 40
45.72
 41
210.0
 46
0.0
 71
     7
 72
     1
  1
{\fＭＳ ゴシック|b0|i0|c128|p49;2(偶数)}
 73
     1
 44
1.0
  0
MTEXT
  5
363
330
1F
100
AcDbEntity
  8
0-A
  6
Continuous
 62
     7
370
     9
100
AcDbMText
 10
-1443.333839210304
 20
-1365.889935111484
 30
0.0
 40
45.71999999999999
 41
390.0
 46
0.0
 71
     7
 72
     1
  1
{\fＭＳ ゴシック|b0|i0|c128|p49;3,900×20×35}
 73
     1
 44
1.0
  0
MTEXT
  5
364
330
1F
100
AcDbEntity
  8
0-A
  6
Continuous
 62
     7
370
     9
100
AcDbMText
 10
-1443.333839210304
 20
-1470.056608436688
 30
0.0
 40
45.71999999999999
 41
390.0
 46
0.0
 71
     7
 72
     1
  1
{\fＭＳ ゴシック|b0|i0|c128|p49;2,450×20×35}
 73
     1
 44
1.0
  0
MTEXT
  5
365
330
1F
100
AcDbEntity
  8
0-A
  6
Continuous
 62
     7
370
     9
100
AcDbMText
 10
-368.3338392103036
 20
-1470.056608436687
 30
0.0
 40
45.72
 41
210.0
 46
0.0
 71
     7
 72
     1
  1
{\fＭＳ ゴシック|b0|i0|c128|p49;2(偶数)}
 73
     1
 44
1.0
  0
MTEXT
  5
366
330
1F
100
AcDbEntity
  8
0-A
  6
Continuous
 62
     7
370
     9
100
AcDbMText
 10
-1443.333839210304
 20
-1574.223281761892
 30
0.0
 40
45.71999999999999
 41
390.0
 46
0.0
 71
     7
 72
     1
  1
{\fＭＳ ゴシック|b0|i0|c128|p49;2,075×20×35}
 73
     1
 44
1.0
  0
MTEXT
  5
367
330
1F
100
AcDbEntity
  8
0-A
  6
Continuous
 62
     7
370
     9
100
AcDbMText
 10
-368.3338392103036
 20
-1574.223281761891
 30
0.0
 40
45.72
 41
210.0
 46
0.0
 71
     7
 72
     1
  1
{\fＭＳ ゴシック|b0|i0|c128|p49;2(偶数)}
 73
     1
 44
1.0
  0
MTEXT
  5
368
330
1F
100
AcDbEntity
  8
0-A
  6
Continuous
 62
     7
370
     9
100
AcDbMText
 10
-368.3338392103036
 20
-1989.796239463819
 30
0.0
 40
45.72
 41
210.0
 46
0.0
 71
     7
 72
     1
  1
{\fＭＳ ゴシック|b0|i0|c128|p49;2(偶数)}
 73
     1
 44
1.0
  0
MTEXT
  5
369
330
1F
100
AcDbEntity
  8
0-A
  6
Continuous
 62
     7
370
     9
100
AcDbMText
 10
-1443.333839210304
 20
-1990.889975062706
 30
0.0
 40
45.71999999999999
 41
390.0
 46
0.0
 71
     7
 72
     1
  1
{\fＭＳ ゴシック|b0|i0|c128|p49;3,900×16×35}
 73
     1
 44
1.0
  0
MTEXT
  5
36A
330
1F
100
AcDbEntity
  8
0-A
  6
Continuous
 62
     7
370
     9
100
AcDbMText
 10
-1443.333839210304
 20
-2095.056648387909
 30
0.0
 40
45.71999999999999
 41
390.0
 46
0.0
 71
     7
 72
     1
  1
{\fＭＳ ゴシック|b0|i0|c128|p49;2,075×16×35}
 73
     1
 44
1.0
  0
MTEXT
  5
36B
330
1F
100
AcDbEntity
  8
0-A
  6
Continuous
 62
     7
370
     9
100
AcDbMText
 10
-368.3338392103036
 20
-2095.056648387908
 30
0.0
 40
45.72
 41
210.0
 46
0.0
 71
     7
 72
     1
  1
{\fＭＳ ゴシック|b0|i0|c128|p49;2(偶数)}
 73
     1
 44
1.0
  0
MTEXT
  5
36C
330
1F
100
AcDbEntity
  8
0-A
  6
Continuous
 62
     7
370
     9
100
AcDbMText
 10
-933.3338392103042
 20
-1365.889935111484
 30
0.0
 40
45.71999999999999
 41
390.0
 46
0.0
 71
     7
 72
     1
  1
{\fＭＳ ゴシック|b0|i0|c128|p49;ＤＧＢＲ16-□}
 73
     1
 44
1.0
  0
MTEXT
  5
36D
330
1F
100
AcDbEntity
  8
0-A
  6
Continuous
 62
     7
370
     9
100
AcDbMText
 10
-933.3338392103042
 20
-1470.056608436688
 30
0.0
 40
45.71999999999999
 41
390.0
 46
0.0
 71
     7
 72
     1
  1
{\fＭＳ ゴシック|b0|i0|c128|p49;ＤＧＢＲ14-□}
 73
     1
 44
1.0
  0
MTEXT
  5
36E
330
1F
100
AcDbEntity
  8
0-A
  6
Continuous
 62
     7
370
     9
100
AcDbMText
 10
-933.3338392103041
 20
-1574.223281761891
 30
0.0
 40
45.71999999999999
 41
390.0
 46
0.0
 71
     7
 72
     1
  1
{\fＭＳ ゴシック|b0|i0|c128|p49;ＤＧＢＲ13-□}
 73
     1
 44
1.0
  0
MTEXT
  5
36F
330
1F
100
AcDbEntity
  8
0-A
  6
Continuous
 62
     7
370
     9
100
AcDbMText
 10
-933.3338392103042
 20
-1990.889975062705
 30
0.0
 40
45.71999999999999
 41
390.0
 46
0.0
 71
     7
 72
     1
  1
{\fＭＳ ゴシック|b0|i0|c128|p49;ＤＧＢＲ26-□}
 73
     1
 44
1.0
  0
MTEXT
  5
370
330
1F
100
AcDbEntity
  8
0-A
  6
Continuous
 62
     7
370
     9
100
AcDbMText
 10
-933.3338392103043
 20
-2095.056648387908
 30
0.0
 40
45.71999999999999
 41
390.0
 46
0.0
 71
     7
 72
     1
  1
{\fＭＳ ゴシック|b0|i0|c128|p49;ＤＧＢＲ23-□}
 73
     1
 44
1.0
  0
LWPOLYLINE
  5
371
330
1F
100
AcDbEntity
  8
0-B
  6
Continuous
 62
     7
370
     9
100
AcDbPolyline
 90
        4
 70
     1
 43
2.0
 10
1431.098601096938
 20
-1855.089274784676
 42
0.4142135623731
 10
1430.098601096938
 20
-1854.089274784676
 42
0.4142135623731
 10
1429.098601096938
 20
-1855.089274784676
 42
0.4142135623731
 10
1430.098601096938
 20
-1856.089274784676
 42
0.4142135623731
  0
LINE
  5
372
330
1F
100
AcDbEntity
  8
0-B
  6
Continuous
 62
   120
370
     5
100
AcDbLine
 10
1550.098601096938
 20
-1935.572121515867
 30
0.0
 11
1550.098601096938
 21
-1805.089274784676
 31
0.0
  0
LINE
  5
373
330
1F
100
AcDbEntity
  8
0-B
  6
Continuous
 62
   120
370
     5
100
AcDbLine
 10
1430.098601096938
 20
-1935.572121515867
 30
0.0
 11
1430.098601096938
 21
-1855.089274784676
 31
0.0
  0
LINE
  5
374
330
1F
100
AcDbEntity
  8
0-B
  6
Continuous
 62
   120
370
     5
100
AcDbLine
 10
1350.098601096938
 20
-1935.572121515867
 30
0.0
 11
1350.098601096938
 21
-1855.089274784676
 31
0.0
  0
LINE
  5
375
330
1F
100
AcDbEntity
  8
0-0
  6
JWW_HOJO
 62
     7
370
     9
100
AcDbLine
 10
1235.098601096938
 20
-1390.626092547967
 30
0.0
 11
1635.098601096938
 21
-1390.626092547967
 31
0.0
  0
LINE
  5
376
330
1F
100
AcDbEntity
  8
0-0
  6
JWW_HOJO
 62
     7
370
     9
100
AcDbLine
 10
1635.098601096938
 20
-1907.55799250595
 30
0.0
 11
1635.098601096938
 21
-1390.626092547967
 31
0.0
  0
LINE
  5
377
330
1F
100
AcDbEntity
  8
0-0
  6
JWW_HOJO
 62
     7
370
     9
100
AcDbLine
 10
1235.098601096938
 20
-1907.55799250595
 30
0.0
 11
1235.098601096938
 21
-1390.626092547967
 31
0.0
  0
LINE
  5
378
330
1F
100
AcDbEntity
  8
0-B
  6
Continuous
 62
   120
370
     5
100
AcDbLine
 10
1550.098601096938
 20
-1390.626092547967
 30
0.0
 11
1550.098601096938
 21
-1421.934175229711
 31
0.0
  0
LINE
  5
379
330
1F
100
AcDbEntity
  8
0-B
  6
Continuous
 62
   120
370
     5
100
AcDbLine
 10
1350.098601096938
 20
-1390.626092547967
 30
0.0
 11
1350.098601096938
 21
-1421.934175229711
 31
0.0
  0
LWPOLYLINE
  5
37A
330
1F
100
AcDbEntity
  8
0-B
  6
Continuous
 62
     7
370
     9
100
AcDbPolyline
 90
        4
 70
     1
 43
2.0
 10
1551.098601096938
 20
-1390.626092547967
 42
0.4142135623731
 10
1550.098601096938
 20
-1389.626092547967
 42
0.4142135623731
 10
1549.098601096938
 20
-1390.626092547967
 42
0.4142135623731
 10
1550.098601096938
 20
-1391.626092547967
 42
0.4142135623731
  0
LWPOLYLINE
  5
37B
330
1F
100
AcDbEntity
  8
0-B
  6
Continuous
 62
     7
370
     9
100
AcDbPolyline
 90
        4
 70
     1
 43
2.0
 10
1351.098601096938
 20
-1390.626092547967
 42
0.4142135623731
 10
1350.098601096938
 20
-1389.626092547967
 42
0.4142135623731
 10
1349.098601096938
 20
-1390.626092547967
 42
0.4142135623731
 10
1350.098601096938
 20
-1391.626092547967
 42
0.4142135623731
  0
LINE
  5
37C
330
1F
100
AcDbEntity
  8
0-B
  6
Continuous
 62
   120
370
     5
100
AcDbLine
 10
1350.098601096938
 20
-1390.626092547967
 30
0.0
 11
1550.098601096938
 21
-1390.626092547967
 31
0.0
  0
LINE
  5
37D
330
1F
100
AcDbEntity
  8
0-0
  6
JWW_HOJO
 62
     7
370
     9
100
AcDbLine
 10
1285.098601096938
 20
-1421.934175229711
 30
0.0
 11
1585.098601096938
 21
-1421.934175229711
 31
0.0
  0
LINE
  5
37E
330
1F
100
AcDbEntity
  8
0-0
  6
JWW_HOJO
 62
     7
370
     9
100
AcDbLine
 10
1585.098601096938
 20
-1805.089274784676
 30
0.0
 11
1585.098601096938
 21
-1421.934175229711
 31
0.0
  0
LINE
  5
37F
330
1F
100
AcDbEntity
  8
0-0
  6
JWW_HOJO
 62
     7
370
     9
100
AcDbLine
 10
1285.098601096938
 20
-1805.089274784676
 30
0.0
 11
1285.098601096938
 21
-1421.934175229711
 31
0.0
  0
LWPOLYLINE
  5
380
330
1F
100
AcDbEntity
  8
0-B
  6
Continuous
 62
     7
370
     9
100
AcDbPolyline
 90
        4
 70
     1
 43
2.0
 10
1551.098601096938
 20
-1926.300928514703
 42
0.4142135623731
 10
1550.098601096938
 20
-1925.300928514703
 42
0.4142135623731
 10
1549.098601096938
 20
-1926.300928514703
 42
0.4142135623731
 10
1550.098601096938
 20
-1927.300928514703
 42
0.4142135623731
  0
LWPOLYLINE
  5
381
330
1F
100
AcDbEntity
  8
0-B
  6
Continuous
 62
     7
370
     9
100
AcDbPolyline
 90
        4
 70
     1
 43
2.0
 10
1431.098601096938
 20
-1926.300928514703
 42
0.4142135623731
 10
1430.098601096938
 20
-1925.300928514703
 42
0.4142135623731
 10
1429.098601096938
 20
-1926.300928514703
 42
0.4142135623731
 10
1430.098601096938
 20
-1927.300928514703
 42
0.4142135623731
  0
LWPOLYLINE
  5
382
330
1F
100
AcDbEntity
  8
0-B
  6
Continuous
 62
     7
370
     9
100
AcDbPolyline
 90
        4
 70
     1
 43
2.0
 10
1351.098601096938
 20
-1926.300928514703
 42
0.4142135623731
 10
1350.098601096938
 20
-1925.300928514703
 42
0.4142135623731
 10
1349.098601096938
 20
-1926.300928514703
 42
0.4142135623731
 10
1350.098601096938
 20
-1927.300928514703
 42
0.4142135623731
  0
LINE
  5
383
330
1F
100
AcDbEntity
  8
0-B
  6
Continuous
 62
   120
370
     5
100
AcDbLine
 10
1350.098601096938
 20
-1926.300928514703
 30
0.0
 11
1550.098601096938
 21
-1926.300928514703
 31
0.0
  0
LINE
  5
384
330
1F
100
AcDbEntity
  8
0-0
  6
JWW_HOJO
 62
     7
370
     9
100
AcDbLine
 10
1235.098601096938
 20
-1907.55799250595
 30
0.0
 11
1635.098601096938
 21
-1907.55799250595
 31
0.0
  0
LINE
  5
385
330
1F
100
AcDbEntity
  8
0-0
  6
Continuous
 62
   120
370
     5
100
AcDbLine
 10
1430.098601096938
 20
-1855.089274784676
 30
0.0
 11
1430.098601096938
 21
-1805.089274784676
 31
0.0
  0
LINE
  5
386
330
1F
100
AcDbEntity
  8
0-B
  6
Continuous
 62
   120
370
     5
100
AcDbLine
 10
1535.098601096938
 20
-1855.089274784676
 30
0.0
 11
1535.098601096938
 21
-1805.089274784676
 31
0.0
  0
LWPOLYLINE
  5
387
330
1F
100
AcDbEntity
  8
0-B
  6
Continuous
 62
     7
370
     9
100
AcDbPolyline
 90
        4
 70
     1
 43
2.0
 10
1536.098601096938
 20
-1855.089274784676
 42
0.4142135623731
 10
1535.098601096938
 20
-1854.089274784676
 42
0.4142135623731
 10
1534.098601096938
 20
-1855.089274784676
 42
0.4142135623731
 10
1535.098601096938
 20
-1856.089274784676
 42
0.4142135623731
  0
LINE
  5
388
330
1F
100
AcDbEntity
  8
0-B
  6
Continuous
 62
   120
370
     5
100
AcDbLine
 10
1430.098601096938
 20
-1855.089274784676
 30
0.0
 11
1535.098601096938
 21
-1855.089274784676
 31
0.0
  0
ARC
  5
389
330
1F
100
AcDbEntity
  8
0-4
  6
Continuous
 62
    92
370
    13
100
AcDbCircle
 10
1571.431115257457
 20
-1559.74462154982
 30
0.0
 40
105.0
100
AcDbArc
 50
180.647936085232
 51
233.2093841148354
  0
LINE
  5
38A
330
1F
100
AcDbEntity
  8
0-4
  6
Continuous
 62
    92
370
    13
100
AcDbLine
 10
1465.833276660307
 20
-1507.474831837069
 30
0.0
 11
1466.437829140098
 21
-1560.932001134595
 31
0.0
  0
ARC
  5
38B
330
1F
100
AcDbEntity
  8
0-4
  6
Continuous
 62
    92
370
    13
100
AcDbCircle
 10
1571.431115257457
 20
-1559.74462154982
 30
0.0
 40
110.0
100
AcDbArc
 50
180.647936085232
 51
232.9034258573231
  0
LINE
  5
38C
330
1F
100
AcDbEntity
  8
0-4
  6
Continuous
 62
    92
370
    13
100
AcDbLine
 10
1460.833596369004
 20
-1507.531373722059
 30
0.0
 11
1461.438148848795
 21
-1560.988543019584
 31
0.0
  0
ARC
  5
38D
330
1F
100
AcDbEntity
  8
0-4
  6
Continuous
 62
    92
370
    13
100
AcDbCircle
 10
1477.60789048958
 20
-1453.243488902565
 30
0.0
 40
14.07653849930577
100
AcDbArc
 50
297.3429837129435
 51
69.14395892388458
  0
LINE
  5
38E
330
1F
100
AcDbEntity
  8
0-4
  6
Continuous
 62
    92
370
    13
100
AcDbLine
 10
1482.619435866324
 20
-1440.089274784676
 30
0.0
 11
1350.098601096938
 21
-1440.089274784676
 31
0.0
  0
ARC
  5
38F
330
1F
100
AcDbEntity
  8
0-4
  6
Continuous
 62
    92
370
    13
100
AcDbCircle
 10
1477.60789048958
 20
-1453.243488902565
 30
0.0
 40
19.07653849930578
100
AcDbArc
 50
297.3429837129435
 51
72.1106235436088
  0
LINE
  5
390
330
1F
100
AcDbEntity
  8
0-4
  6
Continuous
 62
    92
370
    13
100
AcDbLine
 10
1483.467824864411
 20
-1435.089274784676
 30
0.0
 11
1350.098601096938
 21
-1435.089274784676
 31
0.0
  0
ARC
  5
391
330
1F
100
AcDbEntity
  8
0-4
  6
Continuous
 62
    92
370
    13
100
AcDbCircle
 10
1503.067405429162
 20
-1502.479730635237
 30
0.0
 40
36.35264515801401
100
AcDbArc
 50
117.3429837129441
 51
157.5263571515131
  0
ARC
  5
392
330
1F
100
AcDbEntity
  8
0-4
  6
Continuous
 62
    92
370
    13
100
AcDbCircle
 10
1503.067405429162
 20
-1502.479730635237
 30
0.0
 40
41.35264515801401
100
AcDbArc
 50
117.3429837129441
 51
157.5263571515131
  0
ARC
  5
393
330
1F
100
AcDbEntity
  8
0-4
  6
Continuous
 62
    92
370
    13
100
AcDbCircle
 10
1513.830207456813
 20
-1506.932029741172
 30
0.0
 40
48.0
100
AcDbArc
 50
157.526357151513
 51
180.6479360852318
  0
ARC
  5
394
330
1F
100
AcDbEntity
  8
0-4
  6
Continuous
 62
    92
370
    13
100
AcDbCircle
 10
1513.830207456813
 20
-1506.932029741172
 30
0.0
 40
53.0
100
AcDbArc
 50
157.526357151513
 51
180.6479360852318
  0
LINE
  5
395
330
1F
100
AcDbEntity
  8
0-B
  6
Continuous
 62
   120
370
     5
100
AcDbLine
 10
1635.098601096938
 20
-1785.089274784676
 30
0.0
 11
1585.098601096938
 21
-1785.089274784676
 31
0.0
  0
LINE
  5
396
330
1F
100
AcDbEntity
  8
0-B
  6
Continuous
 62
   120
370
     5
100
AcDbLine
 10
1635.098601096938
 20
-1435.089274784676
 30
0.0
 11
1585.098601096938
 21
-1435.089274784676
 31
0.0
  0
LWPOLYLINE
  5
397
330
1F
100
AcDbEntity
  8
0-B
  6
Continuous
 62
     7
370
     9
100
AcDbPolyline
 90
        4
 70
     1
 43
2.0
 10
1636.098601096938
 20
-1785.089274784676
 42
0.4142135623731
 10
1635.098601096938
 20
-1784.089274784676
 42
0.4142135623731
 10
1634.098601096938
 20
-1785.089274784676
 42
0.4142135623731
 10
1635.098601096938
 20
-1786.089274784676
 42
0.4142135623731
  0
LWPOLYLINE
  5
398
330
1F
100
AcDbEntity
  8
0-B
  6
Continuous
 62
     7
370
     9
100
AcDbPolyline
 90
        4
 70
     1
 43
2.0
 10
1636.098601096938
 20
-1435.089274784676
 42
0.4142135623731
 10
1635.098601096938
 20
-1434.089274784676
 42
0.4142135623731
 10
1634.098601096938
 20
-1435.089274784676
 42
0.4142135623731
 10
1635.098601096938
 20
-1436.089274784676
 42
0.4142135623731
  0
LINE
  5
399
330
1F
100
AcDbEntity
  8
0-B
  6
Continuous
 62
   120
370
     5
100
AcDbLine
 10
1635.098601096938
 20
-1435.089274784676
 30
0.0
 11
1635.098601096938
 21
-1785.089274784676
 31
0.0
  0
LINE
  5
39A
330
1F
100
AcDbEntity
  8
0-B
  6
Continuous
 62
   120
370
     5
100
AcDbLine
 10
1235.098601096938
 20
-1523.089274784676
 30
0.0
 11
1285.098601096938
 21
-1523.089274784676
 31
0.0
  0
LINE
  5
39B
330
1F
100
AcDbEntity
  8
0-B
  6
Continuous
 62
   120
370
     5
100
AcDbLine
 10
1235.098601096938
 20
-1435.089274784676
 30
0.0
 11
1285.098601096938
 21
-1435.089274784676
 31
0.0
  0
LWPOLYLINE
  5
39C
330
1F
100
AcDbEntity
  8
0-B
  6
Continuous
 62
     7
370
     9
100
AcDbPolyline
 90
        4
 70
     1
 43
2.0
 10
1236.098601096938
 20
-1523.089274784676
 42
0.4142135623731
 10
1235.098601096938
 20
-1522.089274784676
 42
0.4142135623731
 10
1234.098601096938
 20
-1523.089274784676
 42
0.4142135623731
 10
1235.098601096938
 20
-1524.089274784676
 42
0.4142135623731
  0
LWPOLYLINE
  5
39D
330
1F
100
AcDbEntity
  8
0-B
  6
Continuous
 62
     7
370
     9
100
AcDbPolyline
 90
        4
 70
     1
 43
2.0
 10
1236.098601096938
 20
-1435.089274784676
 42
0.4142135623731
 10
1235.098601096938
 20
-1434.089274784676
 42
0.4142135623731
 10
1234.098601096938
 20
-1435.089274784676
 42
0.4142135623731
 10
1235.098601096938
 20
-1436.089274784676
 42
0.4142135623731
  0
LINE
  5
39E
330
1F
100
AcDbEntity
  8
0-B
  6
Continuous
 62
   120
370
     5
100
AcDbLine
 10
1235.098601096938
 20
-1435.089274784676
 30
0.0
 11
1235.098601096938
 21
-1523.089274784676
 31
0.0
  0
LINE
  5
39F
330
1F
100
AcDbEntity
  8
0-4
  6
Continuous
 62
    92
370
    13
100
AcDbLine
 10
1350.098601096938
 20
-1435.089274784676
 30
0.0
 11
1350.098601096938
 21
-1523.089274784676
 31
0.0
  0
LINE
  5
3A0
330
1F
100
AcDbEntity
  8
0-4
  6
Continuous
 62
    92
370
    13
100
AcDbLine
 10
1430.098601096938
 20
-1523.089274784676
 30
0.0
 11
1350.098601096938
 21
-1523.089274784676
 31
0.0
  0
LINE
  5
3A1
330
1F
100
AcDbEntity
  8
0-0
  6
JWW_HOJO
 62
     7
370
     9
100
AcDbLine
 10
1550.098601096938
 20
-1765.508875869178
 30
0.0
 11
1550.098601096938
 21
-1818.482746939155
 31
0.0
  0
LINE
  5
3A2
330
1F
100
AcDbEntity
  8
0-0
  6
JWW_HOJO
 62
     7
370
     9
100
AcDbLine
 10
1235.098601096938
 20
-1855.089274784676
 30
0.0
 11
1635.098601096938
 21
-1855.089274784676
 31
0.0
  0
LINE
  5
3A3
330
1F
100
AcDbEntity
  8
0-0
  6
JWW_HOJO
 62
     7
370
     9
100
AcDbLine
 10
1285.098601096938
 20
-1805.089274784676
 30
0.0
 11
1585.098601096938
 21
-1805.089274784676
 31
0.0
  0
LINE
  5
3A4
330
1F
100
AcDbEntity
  8
0-4
  6
Continuous
 62
    92
370
    13
100
AcDbLine
 10
1430.098601096938
 20
-1785.089274784676
 30
0.0
 11
1545.098601096938
 21
-1785.089274784676
 31
0.0
  0
ARC
  5
3A5
330
1F
100
AcDbEntity
  8
0-4
  6
Continuous
 62
    92
370
    13
100
AcDbCircle
 10
1509.259398927933
 20
-1765.508875869178
 30
0.0
 40
35.83920216900385
100
AcDbArc
 50
335.9942561877092
 51
95.72068499403127
  0
ARC
  5
3A6
330
1F
100
AcDbEntity
  8
0-4
  6
Continuous
 62
    92
370
    13
100
AcDbCircle
 10
1455.098601096938
 20
-1689.033762030036
 30
0.0
 40
65.0
100
AcDbArc
 50
321.103618999259
 51
42.26842321318818
  0
LINE
  5
3A7
330
1F
100
AcDbEntity
  8
0-4
  6
Continuous
 62
    92
370
    13
100
AcDbLine
 10
1430.098601096938
 20
-1780.089274784676
 30
0.0
 11
1541.998677777286
 21
-1780.089274784676
 31
0.0
  0
ARC
  5
3A8
330
1F
100
AcDbEntity
  8
0-4
  6
Continuous
 62
    92
370
    13
100
AcDbCircle
 10
1509.259398927933
 20
-1765.508875869178
 30
0.0
 40
40.83920216900385
100
AcDbArc
 50
331.35044375098
 51
81.77965860317579
  0
ARC
  5
3A9
330
1F
100
AcDbEntity
  8
0-4
  6
Continuous
 62
    92
370
    13
100
AcDbCircle
 10
1455.098601096938
 20
-1689.033762030036
 30
0.0
 40
70.0
100
AcDbArc
 50
328.9972808661259
 51
40.22144461144457
  0
LINE
  5
3AA
330
1F
100
AcDbEntity
  8
0-4
  6
Continuous
 62
    92
370
    13
100
AcDbLine
 10
1430.098601096938
 20
-1785.089274784676
 30
0.0
 11
1430.098601096938
 21
-1523.089274784676
 31
0.0
  0
MTEXT
  5
3AB
330
1F
100
AcDbEntity
  8
0-A
  6
Continuous
 62
     7
370
     9
100
AcDbMText
 10
53.33302729838636
 20
-1630.769955087095
 30
0.0
 40
60.96
 41
400.0
 46
0.0
 71
     7
 72
     1
  1
{\fＭＳ ゴシック|b0|i0|c128|p49;ケーシング}
 73
     1
 44
1.0
  0
MTEXT
  5
3AC
330
1F
100
AcDbEntity
  8
0-A
  6
Continuous
 62
     7
370
     9
100
AcDbMText
 10
173.3330272983864
 20
-1750.769955087095
 30
0.0
 40
60.96
 41
160.0
 46
0.0
 71
     7
 72
     1
  1
{\fＭＳ ゴシック|b0|i0|c128|p49;Ｅ型}
 73
     1
 44
1.0
  0
MTEXT
  5
3AD
330
1F
100
AcDbEntity
  8
0-B
  6
Continuous
 62
     7
370
   211
100
AcDbMText
 10
1417.598601096938
 20
-1399.748877309989
 30
0.0
 40
49.53
 41
65.0
 46
0.0
 71
     7
 72
     1
  1
{\fＭＳ ゴシック|b0|i0|c128|p49;20}
 73
     1
 44
1.0
  0
MTEXT
  5
3AE
330
1F
100
AcDbEntity
  8
0-B
  6
Continuous
 62
     7
370
   211
100
AcDbMText
 10
1225.098601096938
 20
-1533.689274784676
 30
0.0
 40
50.8
 41
100.0
 46
0.0
 71
     7
 72
     1
  1
{\fＭＳ ゴシック|b0|i0|c128|p49;8.8}
 11
6.123031769111886E-17
 21
1.0
 31
0.0
 73
     1
 44
1.0
  0
MTEXT
  5
3AF
330
1F
100
AcDbEntity
  8
0-B
  6
Continuous
 62
     7
370
   211
100
AcDbMText
 10
1625.098601096938
 20
-1647.824274784675
 30
0.0
 40
49.53
 41
65.0
 46
0.0
 71
     7
 72
     1
  1
{\fＭＳ ゴシック|b0|i0|c128|p49;35}
 11
6.123031769111886E-17
 21
1.0
 31
0.0
 73
     1
 44
1.0
  0
MTEXT
  5
3B0
330
1F
100
AcDbEntity
  8
0-B
  6
Continuous
 62
     7
370
   211
100
AcDbMText
 10
1415.098601096938
 20
-1860.642383753913
 30
0.0
 40
51.435
 41
135.0
 46
0.0
 71
     7
 72
     1
  1
{\fＭＳ ゴシック|b0|i0|c128|p49;10.5}
 73
     1
 44
1.0
  0
MTEXT
  5
3B1
330
1F
100
AcDbEntity
  8
0-B
  6
Continuous
 62
     7
370
   211
100
AcDbMText
 10
1375.098601096938
 20
-1937.888933554315
 30
0.0
 40
45.72
 41
30.0
 46
0.0
 71
     7
 72
     1
  1
{\fＭＳ ゴシック|b0|i0|c128|p49;8}
 73
     1
 44
1.0
  0
MTEXT
  5
3B2
330
1F
100
AcDbEntity
  8
0-B
  6
Continuous
 62
     7
370
   211
100
AcDbMText
 10
1457.598601096938
 20
-1935.983933554314
 30
0.0
 40
49.53
 41
65.0
 46
0.0
 71
     7
 72
     1
  1
{\fＭＳ ゴシック|b0|i0|c128|p49;12}
 73
     1
 44
1.0
  0
LINE
  5
3B3
330
1F
100
AcDbEntity
  8
F-1
  6
Continuous
 62
     7
370
     9
100
AcDbLine
 10
743.3330144108953
 20
2473.333641258446
 30
0.0
 11
743.3330144108953
 21
-1276.666598448883
 31
0.0
  0
LINE
  5
3B4
330
1F
100
AcDbEntity
  8
F-1
  6
JWW_DASHED1
 62
     7
370
     9
100
AcDbLine
 10
2373.332651499156
 20
-1901.666638400104
 30
0.0
 11
3793.332651499156
 21
-1901.666638400104
 31
0.0
  0
LINE
  5
3B5
330
1F
100
AcDbEntity
  8
F-1
  6
Continuous
 62
     7
370
     9
100
AcDbLine
 10
3793.332651499156
 20
-2005.833311725307
 30
0.0
 11
-103.3338392103036
 21
-2005.833311725307
 31
0.0
  0
MTEXT
  5
3B6
330
1F
100
AcDbEntity
  8
0-A
  6
Continuous
 62
     7
370
     9
100
AcDbMText
 10
3528.332651499156
 20
-1364.796199512597
 30
0.0
 40
45.72
 41
210.0
 46
0.0
 71
     7
 72
     1
  1
{\fＭＳ ゴシック|b0|i0|c128|p49;2(偶数)}
 73
     1
 44
1.0
  0
MTEXT
  5
3B7
330
1F
100
AcDbEntity
  8
0-A
  6
Continuous
 62
     7
370
     9
100
AcDbMText
 10
2453.332651499156
 20
-1365.889935111484
 30
0.0
 40
45.71999999999999
 41
390.0
 46
0.0
 71
     7
 72
     1
  1
{\fＭＳ ゴシック|b0|i0|c128|p49;3,900×20×35}
 73
     1
 44
1.0
  0
MTEXT
  5
3B8
330
1F
100
AcDbEntity
  8
0-A
  6
Continuous
 62
     7
370
     9
100
AcDbMText
 10
2453.332651499156
 20
-1470.056608436688
 30
0.0
 40
45.71999999999999
 41
390.0
 46
0.0
 71
     7
 72
     1
  1
{\fＭＳ ゴシック|b0|i0|c128|p49;2,450×20×35}
 73
     1
 44
1.0
  0
MTEXT
  5
3B9
330
1F
100
AcDbEntity
  8
0-A
  6
Continuous
 62
     7
370
     9
100
AcDbMText
 10
3528.332651499156
 20
-1470.056608436687
 30
0.0
 40
45.72
 41
210.0
 46
0.0
 71
     7
 72
     1
  1
{\fＭＳ ゴシック|b0|i0|c128|p49;2(偶数)}
 73
     1
 44
1.0
  0
MTEXT
  5
3BA
330
1F
100
AcDbEntity
  8
0-A
  6
Continuous
 62
     7
370
     9
100
AcDbMText
 10
2453.332651499156
 20
-1574.223281761892
 30
0.0
 40
45.71999999999999
 41
390.0
 46
0.0
 71
     7
 72
     1
  1
{\fＭＳ ゴシック|b0|i0|c128|p49;2,075×20×35}
 73
     1
 44
1.0
  0
MTEXT
  5
3BB
330
1F
100
AcDbEntity
  8
0-A
  6
Continuous
 62
     7
370
     9
100
AcDbMText
 10
3528.332651499156
 20
-1574.223281761891
 30
0.0
 40
45.72
 41
210.0
 46
0.0
 71
     7
 72
     1
  1
{\fＭＳ ゴシック|b0|i0|c128|p49;2(偶数)}
 73
     1
 44
1.0
  0
MTEXT
  5
3BC
330
1F
100
AcDbEntity
  8
0-A
  6
Continuous
 62
     7
370
     9
100
AcDbMText
 10
2963.332651499156
 20
-1365.889935111484
 30
0.0
 40
45.71999999999999
 41
390.0
 46
0.0
 71
     7
 72
     1
  1
{\fＭＳ ゴシック|b0|i0|c128|p49;ＤＧＢＥ16-□}
 73
     1
 44
1.0
  0
MTEXT
  5
3BD
330
1F
100
AcDbEntity
  8
0-A
  6
Continuous
 62
     7
370
     9
100
AcDbMText
 10
2963.332651499155
 20
-1470.056608436688
 30
0.0
 40
45.71999999999999
 41
390.0
 46
0.0
 71
     7
 72
     1
  1
{\fＭＳ ゴシック|b0|i0|c128|p49;ＤＧＢＥ14-□}
 73
     1
 44
1.0
  0
MTEXT
  5
3BE
330
1F
100
AcDbEntity
  8
0-A
  6
Continuous
 62
     7
370
     9
100
AcDbMText
 10
2963.332651499156
 20
-1574.223281761892
 30
0.0
 40
45.71999999999999
 41
390.0
 46
0.0
 71
     7
 72
     1
  1
{\fＭＳ ゴシック|b0|i0|c128|p49;ＤＧＢＥ13-□}
 73
     1
 44
1.0
  0
MTEXT
  5
3BF
330
1F
100
AcDbEntity
  8
F-A
  6
Continuous
 62
     7
370
     0
100
AcDbMText
 10
3185.832751019777
 20
-2625.380673426644
 30
0.0
 40
52.57799999999999
 41
345.0
 46
0.0
 71
     7
 72
     1
  1
{\fＭＳ ゴシック|b0|i0|c128|p49;2023.03.17}
 73
     1
 44
1.0
  0
MTEXT
  5
3C0
330
1F
100
AcDbEntity
  8
F-A
  6
Continuous
 62
     7
370
     0
100
AcDbMText
 10
-3498.364917835225
 20
-2696.772147861784
 30
0.0
 40
53.12228571428572
 41
2440.0
 46
0.0
 71
     7
 72
     1
  1
{\fＭＳ ゴシック|b0|i0|c128|p49;ドレタス　洋風造作材　ケーシング（Ｖ・Ｗ・Ｘ・ラフカットＹ・Ｒ・Ｅ型）}
 73
     1
 44
1.0
  0
ENDSEC
  0
SECTION
  2
OBJECTS
  0
DICTIONARY
  5
C
330
0
100
AcDbDictionary
281
     1
  3
ACAD_GROUP
350
D
  3
ACAD_LAYOUT
350
1A
  3
ACAD_MATERIAL
350
3B
  3
ACAD_MLEADERSTYLE
350
3C2
  3
ACAD_MLINESTYLE
350
17
  3
ACAD_PLOTSETTINGS
350
19
  3
ACAD_PLOTSTYLENAME
350
E
  3
ACAD_TABLESTYLE
350
3C1
  3
ACAD_VISUALSTYLE
350
2A
  0
DICTIONARY
  5
D
102
{ACAD_REACTORS
330
C
102
}
330
C
100
AcDbDictionary
281
     1
  0
DICTIONARY
  5
1A
102
{ACAD_REACTORS
330
C
102
}
330
C
100
AcDbDictionary
281
     1
  3
Layout1
350
1E
  3
Layout2
350
26
  3
Model
350
22
  0
DICTIONARY
  5
3B
102
{ACAD_REACTORS
330
C
102
}
330
C
100
AcDbDictionary
281
     1
  3
ByBlock
350
3D
  3
ByLayer
350
3C
  3
Global
350
3E
  0
DICTIONARY
  5
3C2
102
{ACAD_REACTORS
330
C
102
}
330
C
100
AcDbDictionary
281
     1
  0
DICTIONARY
  5
17
102
{ACAD_REACTORS
330
C
102
}
330
C
100
AcDbDictionary
281
     1
  3
Standard
350
18
  0
DICTIONARY
  5
19
102
{ACAD_REACTORS
330
C
102
}
330
C
100
AcDbDictionary
281
     1
  0
ACDBDICTIONARYWDFLT
  5
E
102
{ACAD_REACTORS
330
C
102
}
330
C
100
AcDbDictionary
281
     1
  3
Normal
350
F
100
AcDbDictionaryWithDefault
340
F
  0
DICTIONARY
  5
3C1
102
{ACAD_REACTORS
330
C
102
}
330
C
100
AcDbDictionary
281
     1
  0
DICTIONARY
  5
2A
102
{ACAD_REACTORS
330
C
102
}
330
C
100
AcDbDictionary
281
     1
  3
2dWireframe
350
2F
  3
3D Hidden
350
31
  3
3dWireframe
350
30
  3
Basic
350
32
  3
Brighten
350
36
  3
ColorChange
350
3A
  3
Conceptual
350
34
  3
Dim
350
35
  3
Facepattern
350
39
  3
Flat
350
2B
  3
FlatWithEdges
350
2C
  3
Gouraud
350
2D
  3
GouraudWithEdges
350
2E
  3
Linepattern
350
38
  3
Realistic
350
33
  3
Thicken
350
37
  0
LAYOUT
  5
1E
102
{ACAD_REACTORS
330
1A
102
}
330
1A
100
AcDbPlotSettings
  1

  2
none_device
  4

  6

 40
0.0
 41
0.0
 42
0.0
 43
0.0
 44
0.0
 45
0.0
 46
0.0
 47
0.0
 48
0.0
 49
0.0
140
0.0
141
0.0
142
1.0
143
1.0
 70
   688
 72
     0
 73
     0
 74
     5
  7

 75
    16
 76
     0
 77
     5
 78
   300
147
1.0
148
0.0
149
0.0
100
AcDbLayout
  1
Layout1
 70
     1
 71
     1
 10
0.0
 20
0.0
 11
420.0
 21
297.0
 12
0.0
 22
0.0
 32
0.0
 14
1.000000000000000E+20
 24
1.000000000000000E+20
 34
1.000000000000000E+20
 15
-1.000000000000000E+20
 25
-1.000000000000000E+20
 35
-1.000000000000000E+20
146
0.0
 13
0.0
 23
0.0
 33
0.0
 16
1.0
 26
0.0
 36
0.0
 17
0.0
 27
1.0
 37
0.0
 76
     0
330
1B
  0
LAYOUT
  5
26
102
{ACAD_REACTORS
330
1A
102
}
330
1A
100
AcDbPlotSettings
  1

  2
none_device
  4

  6

 40
0.0
 41
0.0
 42
0.0
 43
0.0
 44
0.0
 45
0.0
 46
0.0
 47
0.0
 48
0.0
 49
0.0
140
0.0
141
0.0
142
1.0
143
1.0
 70
   688
 72
     0
 73
     0
 74
     5
  7

 75
    16
 76
     0
 77
     5
 78
   300
147
1.0
148
0.0
149
0.0
100
AcDbLayout
  1
Layout2
 70
     1
 71
     2
 10
0.0
 20
0.0
 11
0.0
 21
0.0
 12
0.0
 22
0.0
 32
0.0
 14
0.0
 24
0.0
 34
0.0
 15
0.0
 25
0.0
 35
0.0
146
0.0
 13
0.0
 23
0.0
 33
0.0
 16
1.0
 26
0.0
 36
0.0
 17
0.0
 27
1.0
 37
0.0
 76
     0
330
23
  0
LAYOUT
  5
22
102
{ACAD_REACTORS
330
1A
102
}
330
1A
100
AcDbPlotSettings
  1

  2
none_device
  4

  6

 40
0.0
 41
0.0
 42
0.0
 43
0.0
 44
0.0
 45
0.0
 46
0.0
 47
0.0
 48
0.0
 49
0.0
140
0.0
141
0.0
142
1.0
143
1.0
 70
  1712
 72
     0
 73
     0
 74
     0
  7

 75
     0
 76
     0
 77
     5
 78
   300
147
1.0
148
0.0
149
0.0
100
AcDbLayout
  1
Model
 70
     1
 71
     0
 10
-5940.0
 20
-4200.0
 11
5940.0
 21
4200.0
 12
0.0
 22
0.0
 32
0.0
 14
-5940.0
 24
-4200.0
 34
0.0
 15
5940.0
 25
4200.0
 35
0.0
146
0.0
 13
0.0
 23
0.0
 33
0.0
 16
1.0
 26
0.0
 36
0.0
 17
0.0
 27
1.0
 37
0.0
 76
     0
330
1F
331
29
  0
MATERIAL
  5
3D
102
{ACAD_REACTORS
330
3B
102
}
330
3B
100
AcDbMaterial
  1
ByBlock
 72
     1
 94
      127
  0
MATERIAL
  5
3C
102
{ACAD_REACTORS
330
3B
102
}
330
3B
100
AcDbMaterial
  1
ByLayer
 72
     1
 94
      127
  0
MATERIAL
  5
3E
102
{ACAD_REACTORS
330
3B
102
}
330
3B
100
AcDbMaterial
  1
Global
 72
     1
 94
      127
  0
MLINESTYLE
  5
18
102
{ACAD_REACTORS
330
17
102
}
330
17
100
AcDbMlineStyle
  2
Standard
 70
     0
  3

 62
   256
 51
90.0
 52
90.0
 71
     2
 49
0.5
 62
   256
  6
BYLAYER
 49
-0.5
 62
   256
  6
BYLAYER
  0
ACDBPLACEHOLDER
  5
F
102
{ACAD_REACTORS
330
E
102
}
330
E
  0
VISUALSTYLE
  5
2F
102
{ACAD_REACTORS
330
2A
102
}
330
2A
100
AcDbVisualStyle
  2
2dWireframe
 70
     4
177
     2
291
     0
 71
     0
176
     1
 72
     2
176
     1
 73
     0
176
     1
 90
        0
176
     1
 40
-0.6
176
     1
 41
-30.0
176
     1
 62
     5
 63
     7
421
 16777215
176
     1
 74
     1
176
     1
 91
        4
176
     1
 64
     7
176
     1
 65
   257
176
     1
 75
     1
176
     1
175
     1
176
     1
 42
1.0
176
     1
 92
        0
176
     1
 66
   257
176
     1
 43
1.0
176
     1
 76
     1
176
     1
 77
     6
176
     1
 78
     2
176
     1
 67
     7
176
     1
 79
     5
176
     1
170
     0
176
     1
171
     0
176
     1
290
     0
176
     1
 93
        1
176
     1
 44
0.0
176
     1
173
     0
176
     1
  0
VISUALSTYLE
  5
31
102
{ACAD_REACTORS
330
2A
102
}
330
2A
100
AcDbVisualStyle
  2
3D Hidden
 70
     6
177
     2
291
     0
 71
     1
176
     1
 72
     2
176
     1
 73
     2
176
     1
 90
        0
176
     1
 40
-0.6
176
     1
 41
-30.0
176
     1
 62
     5
 63
     7
421
 16777215
176
     1
 74
     2
176
     1
 91
        2
176
     1
 64
     7
176
     1
 65
   257
176
     1
 75
     2
176
     1
175
     1
176
     1
 42
40.0
176
     1
 92
        0
176
     1
 66
   257
176
     1
 43
1.0
176
     1
 76
     1
176
     1
 77
     6
176
     1
 78
     2
176
     1
 67
     7
176
     1
 79
     3
176
     1
170
     0
176
     1
171
     0
176
     1
290
     0
176
     1
 93
        1
176
     1
 44
0.0
176
     1
173
     0
176
     1
  0
VISUALSTYLE
  5
30
102
{ACAD_REACTORS
330
2A
102
}
330
2A
100
AcDbVisualStyle
  2
3dWireframe
 70
     5
177
     2
291
     0
 71
     0
176
     1
 72
     2
176
     1
 73
     0
176
     1
 90
        0
176
     1
 40
-0.6
176
     1
 41
-30.0
176
     1
 62
     5
 63
     7
421
 16777215
176
     1
 74
     1
176
     1
 91
        4
176
     1
 64
     7
176
     1
 65
   257
176
     1
 75
     1
176
     1
175
     1
176
     1
 42
1.0
176
     1
 92
        0
176
     1
 66
   257
176
     1
 43
1.0
176
     1
 76
     1
176
     1
 77
     6
176
     1
 78
     2
176
     1
 67
     7
176
     1
 79
     5
176
     1
170
     0
176
     1
171
     0
176
     1
290
     0
176
     1
 93
        1
176
     1
 44
0.0
176
     1
173
     0
176
     1
  0
VISUALSTYLE
  5
32
102
{ACAD_REACTORS
330
2A
102
}
330
2A
100
AcDbVisualStyle
  2
Basic
 70
     7
177
     2
291
     1
 71
     1
176
     1
 72
     0
176
     1
 73
     1
176
     1
 90
        0
176
     1
 40
-0.6
176
     1
 41
-30.0
176
     1
 62
     5
 63
     7
421
 16777215
176
     1
 74
     0
176
     1
 91
        4
176
     1
 64
     7
176
     1
 65
   257
176
     1
 75
     1
176
     1
175
     1
176
     1
 42
1.0
176
     1
 92
        8
176
     1
 66
     7
176
     1
 43
1.0
176
     1
 76
     1
176
     1
 77
     6
176
     1
 78
     2
176
     1
 67
     7
176
     1
 79
     5
176
     1
170
     0
176
     1
171
     0
176
     1
290
     0
176
     1
 93
        1
176
     1
 44
0.0
176
     1
173
     0
176
     1
  0
VISUALSTYLE
  5
36
102
{ACAD_REACTORS
330
2A
102
}
330
2A
100
AcDbVisualStyle
  2
Brighten
 70
    12
177
     2
291
     1
 71
     2
176
     1
 72
     2
176
     1
 73
     0
176
     1
 90
        0
176
     1
 40
-0.6
176
     1
 41
-30.0
176
     1
 62
     5
 63
     7
421
 16777215
176
     1
 74
     1
176
     1
 91
        4
176
     1
 64
     7
176
     1
 65
   257
176
     1
 75
     1
176
     1
175
     1
176
     1
 42
1.0
176
     1
 92
        8
176
     1
 66
     7
176
     1
 43
1.0
176
     1
 76
     1
176
     1
 77
     6
176
     1
 78
     2
176
     1
 67
     7
176
     1
 79
     5
176
     1
170
     0
176
     1
171
     0
176
     1
290
     0
176
     1
 93
        1
176
     1
 44
50.0
176
     1
173
     0
176
     1
  0
VISUALSTYLE
  5
3A
102
{ACAD_REACTORS
330
2A
102
}
330
2A
100
AcDbVisualStyle
  2
ColorChange
 70
    16
177
     2
291
     1
 71
     2
176
     1
 72
     2
176
     1
 73
     3
176
     1
 90
        0
176
     1
 40
-0.6
176
     1
 41
-30.0
176
     1
 62
     5
 63
     8
421
  8421504
176
     1
 74
     1
176
     1
 91
        4
176
     1
 64
     7
176
     1
 65
   257
176
     1
 75
     1
176
     1
175
     1
176
     1
 42
1.0
176
     1
 92
        8
176
     1
 66
     8
424
  8421504
176
     1
 43
1.0
176
     1
 76
     1
176
     1
 77
     6
176
     1
 78
     2
176
     1
 67
     7
176
     1
 79
     5
176
     1
170
     0
176
     1
171
     0
176
     1
290
     0
176
     1
 93
        1
176
     1
 44
0.0
176
     1
173
     0
176
     1
  0
VISUALSTYLE
  5
34
102
{ACAD_REACTORS
330
2A
102
}
330
2A
100
AcDbVisualStyle
  2
Conceptual
 70
     9
177
     2
291
     0
 71
     3
176
     1
 72
     2
176
     1
 73
     0
176
     1
 90
        0
176
     1
 40
-0.6
176
     1
 41
-30.0
176
     1
 62
     5
 63
     7
421
 16777215
176
     1
 74
     2
176
     1
 91
        2
176
     1
 64
     7
176
     1
 65
   257
176
     1
 75
     1
176
     1
175
     1
176
     1
 42
40.0
176
     1
 92
        8
176
     1
 66
     7
176
     1
 43
1.0
176
     1
 76
     1
176
     1
 77
     6
176
     1
 78
     2
176
     1
 67
     7
176
     1
 79
     3
176
     1
170
     0
176
     1
171
     0
176
     1
290
     0
176
     1
 93
        1
176
     1
 44
0.0
176
     1
173
     0
176
     1
  0
VISUALSTYLE
  5
35
102
{ACAD_REACTORS
330
2A
102
}
330
2A
100
AcDbVisualStyle
  2
Dim
 70
    11
177
     2
291
     1
 71
     2
176
     1
 72
     2
176
     1
 73
     0
176
     1
 90
        0
176
     1
 40
-0.6
176
     1
 41
-30.0
176
     1
 62
     5
 63
     7
421
 16777215
176
     1
 74
     1
176
     1
 91
        4
176
     1
 64
     7
176
     1
 65
   257
176
     1
 75
     1
176
     1
175
     1
176
     1
 42
1.0
176
     1
 92
        8
176
     1
 66
     7
176
     1
 43
1.0
176
     1
 76
     1
176
     1
 77
     6
176
     1
 78
     2
176
     1
 67
     7
176
     1
 79
     5
176
     1
170
     0
176
     1
171
     0
176
     1
290
     0
176
     1
 93
        1
176
     1
 44
-50.0
176
     1
173
     0
176
     1
  0
VISUALSTYLE
  5
39
102
{ACAD_REACTORS
330
2A
102
}
330
2A
100
AcDbVisualStyle
  2
Facepattern
 70
    15
177
     2
291
     1
 71
     2
176
     1
 72
     2
176
     1
 73
     0
176
     1
 90
        0
176
     1
 40
-0.6
176
     1
 41
-30.0
176
     1
 62
     5
 63
     7
421
 16777215
176
     1
 74
     1
176
     1
 91
        4
176
     1
 64
     7
176
     1
 65
   257
176
     1
 75
     1
176
     1
175
     1
176
     1
 42
1.0
176
     1
 92
        8
176
     1
 66
     7
176
     1
 43
1.0
176
     1
 76
     1
176
     1
 77
     6
176
     1
 78
     2
176
     1
 67
     7
176
     1
 79
     5
176
     1
170
     0
176
     1
171
     0
176
     1
290
     0
176
     1
 93
        1
176
     1
 44
0.0
176
     1
173
     0
176
     1
  0
VISUALSTYLE
  5
2B
102
{ACAD_REACTORS
330
2A
102
}
330
2A
100
AcDbVisualStyle
  2
Flat
 70
     0
177
     2
291
     1
 71
     2
176
     1
 72
     1
176
     1
 73
     1
176
     1
 90
        2
176
     1
 40
-0.6
176
     1
 41
30.0
176
     1
 62
     5
 63
     7
421
 16777215
176
     1
 74
     0
176
     1
 91
        4
176
     1
 64
     7
176
     1
 65
   257
176
     1
 75
     1
176
     1
175
     1
176
     1
 42
1.0
176
     1
 92
        8
176
     1
 66
     7
176
     1
 43
1.0
176
     1
 76
     1
176
     1
 77
     6
176
     1
 78
     2
176
     1
 67
     7
176
     1
 79
     5
176
     1
170
     0
176
     1
171
     0
176
     1
290
     0
176
     1
 93
       13
176
     1
 44
0.0
176
     1
173
     0
176
     1
  0
VISUALSTYLE
  5
2C
102
{ACAD_REACTORS
330
2A
102
}
330
2A
100
AcDbVisualStyle
  2
FlatWithEdges
 70
     1
177
     2
291
     1
 71
     2
176
     1
 72
     1
176
     1
 73
     1
176
     1
 90
        2
176
     1
 40
-0.6
176
     1
 41
30.0
176
     1
 62
     5
 63
     7
421
 16777215
176
     1
 74
     1
176
     1
 91
        4
176
     1
 64
     7
176
     1
 65
   257
176
     1
 75
     1
176
     1
175
     1
176
     1
 42
1.0
176
     1
 92
        0
176
     1
 66
   257
176
     1
 43
1.0
176
     1
 76
     1
176
     1
 77
     6
176
     1
 78
     2
176
     1
 67
     7
176
     1
 79
     5
176
     1
170
     0
176
     1
171
     0
176
     1
290
     0
176
     1
 93
       13
176
     1
 44
0.0
176
     1
173
     0
176
     1
  0
VISUALSTYLE
  5
2D
102
{ACAD_REACTORS
330
2A
102
}
330
2A
100
AcDbVisualStyle
  2
Gouraud
 70
     2
177
     2
291
     1
 71
     2
176
     1
 72
     2
176
     1
 73
     1
176
     1
 90
        2
176
     1
 40
-0.6
176
     1
 41
30.0
176
     1
 62
     5
 63
     7
421
 16777215
176
     1
 74
     0
176
     1
 91
        4
176
     1
 64
     7
176
     1
 65
   257
176
     1
 75
     1
176
     1
175
     1
176
     1
 42
1.0
176
     1
 92
        0
176
     1
 66
     7
176
     1
 43
1.0
176
     1
 76
     1
176
     1
 77
     6
176
     1
 78
     2
176
     1
 67
     7
176
     1
 79
     5
176
     1
170
     0
176
     1
171
     0
176
     1
290
     0
176
     1
 93
       13
176
     1
 44
0.0
176
     1
173
     0
176
     1
  0
VISUALSTYLE
  5
2E
102
{ACAD_REACTORS
330
2A
102
}
330
2A
100
AcDbVisualStyle
  2
GouraudWithEdges
 70
     3
177
     2
291
     1
 71
     2
176
     1
 72
     2
176
     1
 73
     1
176
     1
 90
        2
176
     1
 40
-0.6
176
     1
 41
30.0
176
     1
 62
     5
 63
     7
421
 16777215
176
     1
 74
     1
176
     1
 91
        4
176
     1
 64
     7
176
     1
 65
   257
176
     1
 75
     1
176
     1
175
     1
176
     1
 42
1.0
176
     1
 92
        0
176
     1
 66
   257
176
     1
 43
1.0
176
     1
 76
     1
176
     1
 77
     6
176
     1
 78
     2
176
     1
 67
     7
176
     1
 79
     5
176
     1
170
     0
176
     1
171
     0
176
     1
290
     0
176
     1
 93
       13
176
     1
 44
0.0
176
     1
173
     0
176
     1
  0
VISUALSTYLE
  5
38
102
{ACAD_REACTORS
330
2A
102
}
330
2A
100
AcDbVisualStyle
  2
Linepattern
 70
    14
177
     2
291
     1
 71
     2
176
     1
 72
     2
176
     1
 73
     0
176
     1
 90
        0
176
     1
 40
-0.6
176
     1
 41
-30.0
176
     1
 62
     5
 63
     7
421
 16777215
176
     1
 74
     1
176
     1
 91
        4
176
     1
 64
     7
176
     1
 65
   257
176
     1
 75
     7
176
     1
175
     7
176
     1
 42
1.0
176
     1
 92
        8
176
     1
 66
     7
176
     1
 43
1.0
176
     1
 76
     1
176
     1
 77
     6
176
     1
 78
     2
176
     1
 67
     7
176
     1
 79
     5
176
     1
170
     0
176
     1
171
     0
176
     1
290
     0
176
     1
 93
        1
176
     1
 44
0.0
176
     1
173
     0
176
     1
  0
VISUALSTYLE
  5
33
102
{ACAD_REACTORS
330
2A
102
}
330
2A
100
AcDbVisualStyle
  2
Realistic
 70
     8
177
     2
291
     0
 71
     2
176
     1
 72
     2
176
     1
 73
     0
176
     1
 90
        0
176
     1
 40
-0.6
176
     1
 41
-30.0
176
     1
 62
     5
 63
     7
421
 16777215
176
     1
 74
     1
176
     1
 91
        0
176
     1
 64
     7
176
     1
 65
   257
176
     1
 75
     1
176
     1
175
     1
176
     1
 42
1.0
176
     1
 92
        8
176
     1
 66
     8
424
  7895160
176
     1
 43
1.0
176
     1
 76
     1
176
     1
 77
     6
176
     1
 78
     2
176
     1
 67
     7
176
     1
 79
     5
176
     1
170
     0
176
     1
171
     0
176
     1
290
     0
176
     1
 93
       13
176
     1
 44
0.0
176
     1
173
     0
176
     1
  0
VISUALSTYLE
  5
37
102
{ACAD_REACTORS
330
2A
102
}
330
2A
100
AcDbVisualStyle
  2
Thicken
 70
    13
177
     2
291
     1
 71
     2
176
     1
 72
     2
176
     1
 73
     0
176
     1
 90
        0
176
     1
 40
-0.6
176
     1
 41
-30.0
176
     1
 62
     5
 63
     7
421
 16777215
176
     1
 74
     1
176
     1
 91
        4
176
     1
 64
     7
176
     1
 65
   257
176
     1
 75
     1
176
     1
175
     1
176
     1
 42
1.0
176
     1
 92
       12
176
     1
 66
     7
176
     1
 43
1.0
176
     1
 76
     1
176
     1
 77
     6
176
     1
 78
     2
176
     1
 67
     7
176
     1
 79
     5
176
     1
170
     0
176
     1
171
     0
176
     1
290
     0
176
     1
 93
        1
176
     1
 44
0.0
176
     1
173
     0
176
     1
  0
ENDSEC
  0
EOF
