  0
SECTION
  2
HEADER
  9
$ACADVER
  1
AC1024
  9
$ACADMAINTVER
 70
     6
  9
$DWGCODEPAGE
  3
ANSI_932
  9
$INSBASE
 10
0.0
 20
0.0
 30
0.0
  9
$EXTMIN
 10
-5940.0
 20
-4200.0
 30
0.0
  9
$EXTMAX
 10
5940.0
 20
4200.0
 30
0.0
  9
$LIMMIN
 10
-5940.0
 20
-4200.0
  9
$LIMMAX
 10
5940.0
 20
4200.0
  9
$ORTHOMODE
 70
     0
  9
$REGENMODE
 70
     1
  9
$FILLMODE
 70
     1
  9
$QTEXTMODE
 70
     0
  9
$MIRRTEXT
 70
     1
  9
$LTSCALE
 40
20.0
  9
$ATTMODE
 70
     1
  9
$TEXTSIZE
 40
2.5
  9
$TRACEWID
 40
1.0
  9
$TEXTSTYLE
  7
Standard
  9
$CLAYER
  8
0
  9
$CELTYPE
  6
ByLayer
  9
$CECOLOR
 62
   256
  9
$CELTSCALE
 40
1.0
  9
$DISPSILH
 70
     0
  9
$DIMSCALE
 40
1.0
  9
$DIMASZ
 40
2.5
  9
$DIMEXO
 40
0.625
  9
$DIMDLI
 40
3.75
  9
$DIMRND
 40
0.0
  9
$DIMDLE
 40
0.0
  9
$DIMEXE
 40
1.25
  9
$DIMTP
 40
0.0
  9
$DIMTM
 40
0.0
  9
$DIMTXT
 40
2.5
  9
$DIMCEN
 40
2.5
  9
$DIMTSZ
 40
0.0
  9
$DIMTOL
 70
     0
  9
$DIMLIM
 70
     0
  9
$DIMTIH
 70
     0
  9
$DIMTOH
 70
     0
  9
$DIMSE1
 70
     0
  9
$DIMSE2
 70
     0
  9
$DIMTAD
 70
     1
  9
$DIMZIN
 70
     8
  9
$DIMBLK
  1

  9
$DIMASO
 70
     1
  9
$DIMSHO
 70
     1
  9
$DIMPOST
  1

  9
$DIMAPOST
  1

  9
$DIMALT
 70
     0
  9
$DIMALTD
 70
     3
  9
$DIMALTF
 40
0.03937007874016
  9
$DIMLFAC
 40
1.0
  9
$DIMTOFL
 70
     1
  9
$DIMTVP
 40
0.0
  9
$DIMTIX
 70
     0
  9
$DIMSOXD
 70
     0
  9
$DIMSAH
 70
     0
  9
$DIMBLK1
  1

  9
$DIMBLK2
  1

  9
$DIMSTYLE
  2
ISO-25
  9
$DIMCLRD
 70
     0
  9
$DIMCLRE
 70
     0
  9
$DIMCLRT
 70
     0
  9
$DIMTFAC
 40
1.0
  9
$DIMGAP
 40
0.625
  9
$DIMJUST
 70
     0
  9
$DIMSD1
 70
     0
  9
$DIMSD2
 70
     0
  9
$DIMTOLJ
 70
     0
  9
$DIMTZIN
 70
     8
  9
$DIMALTZ
 70
     0
  9
$DIMALTTZ
 70
     0
  9
$DIMUPT
 70
     0
  9
$DIMDEC
 70
     2
  9
$DIMTDEC
 70
     2
  9
$DIMALTU
 70
     2
  9
$DIMALTTD
 70
     3
  9
$DIMTXSTY
  7
Standard
  9
$DIMAUNIT
 70
     0
  9
$DIMADEC
 70
     0
  9
$DIMALTRND
 40
0.0
  9
$DIMAZIN
 70
     0
  9
$DIMDSEP
 70
    44
  9
$DIMATFIT
 70
     3
  9
$DIMFRAC
 70
     0
  9
$DIMLDRBLK
  1

  9
$DIMLUNIT
 70
     2
  9
$DIMLWD
 70
    -2
  9
$DIMLWE
 70
    -2
  9
$DIMTMOVE
 70
     0
  9
$DIMFXL
 40
1.0
  9
$DIMFXLON
 70
     0
  9
$DIMJOGANG
 40
0.7853981633974483
  9
$DIMTFILL
 70
     0
  9
$DIMTFILLCLR
 70
     0
  9
$DIMARCSYM
 70
     0
  9
$DIMLTYPE
  6

  9
$DIMLTEX1
  6

  9
$DIMLTEX2
  6

  9
$DIMTXTDIRECTION
 70
     0
  9
$LUNITS
 70
     2
  9
$LUPREC
 70
     4
  9
$SKETCHINC
 40
1.0
  9
$FILLETRAD
 40
10.0
  9
$AUNITS
 70
     0
  9
$AUPREC
 70
     0
  9
$MENU
  1
.
  9
$ELEVATION
 40
0.0
  9
$PELEVATION
 40
0.0
  9
$THICKNESS
 40
0.0
  9
$LIMCHECK
 70
     0
  9
$CHAMFERA
 40
10.0
  9
$CHAMFERB
 40
10.0
  9
$CHAMFERC
 40
20.0
  9
$CHAMFERD
 40
0.0
  9
$SKPOLY
 70
     0
  9
$TDCREATE
 40
2460021.546408889
  9
$TDUCREATE
 40
2460021.171408889
  9
$TDUPDATE
 40
2460021.546408901
  9
$TDUUPDATE
 40
2460021.171408901
  9
$TDINDWG
 40
0.0000000116
  9
$TDUSRTIMER
 40
0.0000000116
  9
$USRTIMER
 70
     1
  9
$ANGBASE
 50
0.0
  9
$ANGDIR
 70
     0
  9
$PDMODE
 70
     0
  9
$PDSIZE
 40
0.0
  9
$PLINEWID
 40
0.0
  9
$SPLFRAME
 70
     0
  9
$SPLINETYPE
 70
     6
  9
$SPLINESEGS
 70
     8
  9
$HANDSEED
  5
502
  9
$SURFTAB1
 70
     6
  9
$SURFTAB2
 70
     6
  9
$SURFTYPE
 70
     6
  9
$SURFU
 70
     6
  9
$SURFV
 70
     6
  9
$UCSBASE
  2

  9
$UCSNAME
  2

  9
$UCSORG
 10
0.0
 20
0.0
 30
0.0
  9
$UCSXDIR
 10
1.0
 20
0.0
 30
0.0
  9
$UCSYDIR
 10
0.0
 20
1.0
 30
0.0
  9
$UCSORTHOREF
  2

  9
$UCSORTHOVIEW
 70
     0
  9
$UCSORGTOP
 10
0.0
 20
0.0
 30
0.0
  9
$UCSORGBOTTOM
 10
0.0
 20
0.0
 30
0.0
  9
$UCSORGLEFT
 10
0.0
 20
0.0
 30
0.0
  9
$UCSORGRIGHT
 10
0.0
 20
0.0
 30
0.0
  9
$UCSORGFRONT
 10
0.0
 20
0.0
 30
0.0
  9
$UCSORGBACK
 10
0.0
 20
0.0
 30
0.0
  9
$PUCSBASE
  2

  9
$PUCSNAME
  2

  9
$PUCSORG
 10
0.0
 20
0.0
 30
0.0
  9
$PUCSXDIR
 10
1.0
 20
0.0
 30
0.0
  9
$PUCSYDIR
 10
0.0
 20
1.0
 30
0.0
  9
$PUCSORTHOREF
  2

  9
$PUCSORTHOVIEW
 70
     0
  9
$PUCSORGTOP
 10
0.0
 20
0.0
 30
0.0
  9
$PUCSORGBOTTOM
 10
0.0
 20
0.0
 30
0.0
  9
$PUCSORGLEFT
 10
0.0
 20
0.0
 30
0.0
  9
$PUCSORGRIGHT
 10
0.0
 20
0.0
 30
0.0
  9
$PUCSORGFRONT
 10
0.0
 20
0.0
 30
0.0
  9
$PUCSORGBACK
 10
0.0
 20
0.0
 30
0.0
  9
$USERI1
 70
     0
  9
$USERI2
 70
     0
  9
$USERI3
 70
     0
  9
$USERI4
 70
     0
  9
$USERI5
 70
     0
  9
$USERR1
 40
0.0
  9
$USERR2
 40
0.0
  9
$USERR3
 40
0.0
  9
$USERR4
 40
0.0
  9
$USERR5
 40
0.0
  9
$WORLDVIEW
 70
     1
  9
$SHADEDGE
 70
     3
  9
$SHADEDIF
 70
    70
  9
$TILEMODE
 70
     1
  9
$MAXACTVP
 70
    64
  9
$PINSBASE
 10
0.0
 20
0.0
 30
0.0
  9
$PLIMCHECK
 70
     0
  9
$PEXTMIN
 10
1.000000000000000E+20
 20
1.000000000000000E+20
 30
1.000000000000000E+20
  9
$PEXTMAX
 10
-1.000000000000000E+20
 20
-1.000000000000000E+20
 30
-1.000000000000000E+20
  9
$PLIMMIN
 10
0.0
 20
0.0
  9
$PLIMMAX
 10
420.0
 20
297.0
  9
$UNITMODE
 70
     0
  9
$VISRETAIN
 70
     1
  9
$PLINEGEN
 70
     0
  9
$PSLTSCALE
 70
     1
  9
$TREEDEPTH
 70
  3020
  9
$CMLSTYLE
  2
Standard
  9
$CMLJUST
 70
     0
  9
$CMLSCALE
 40
20.0
  9
$PROXYGRAPHICS
 70
     1
  9
$MEASUREMENT
 70
     1
  9
$CELWEIGHT
370
    -1
  9
$ENDCAPS
280
     0
  9
$JOINSTYLE
280
     0
  9
$LWDISPLAY
290
     0
  9
$INSUNITS
 70
     4
  9
$HYPERLINKBASE
  1

  9
$STYLESHEET
  1

  9
$XEDIT
290
     1
  9
$CEPSNTYPE
380
     0
  9
$PSTYLEMODE
290
     1
  9
$FINGERPRINTGUID
  2
{1D9EA117-765A-4C59-9735-937E7436A033}
  9
$VERSIONGUID
  2
{FAEB1C32-E019-11D5-929B-00C0DF256EC4}
  9
$EXTNAMES
290
     1
  9
$PSVPSCALE
 40
0.0
  9
$OLESTARTUP
290
     0
  9
$SORTENTS
280
   127
  9
$INDEXCTL
280
     0
  9
$HIDETEXT
280
     1
  9
$XCLIPFRAME
280
     2
  9
$HALOGAP
280
     0
  9
$OBSCOLOR
 70
   257
  9
$OBSLTYPE
280
     0
  9
$INTERSECTIONDISPLAY
280
     0
  9
$INTERSECTIONCOLOR
 70
   257
  9
$DIMASSOC
280
     2
  9
$PROJECTNAME
  1

  9
$CAMERADISPLAY
290
     0
  9
$LENSLENGTH
 40
50.0
  9
$CAMERAHEIGHT
 40
0.0
  9
$STEPSPERSEC
 40
2.0
  9
$STEPSIZE
 40
6.0
  9
$3DDWFPREC
 40
2.0
  9
$PSOLWIDTH
 40
5.0
  9
$PSOLHEIGHT
 40
80.0
  9
$LOFTANG1
 40
1.570796326794897
  9
$LOFTANG2
 40
1.570796326794897
  9
$LOFTMAG1
 40
0.0
  9
$LOFTMAG2
 40
0.0
  9
$LOFTPARAM
 70
     7
  9
$LOFTNORMALS
280
     1
  9
$LATITUDE
 40
37.795
  9
$LONGITUDE
 40
-122.394
  9
$NORTHDIRECTION
 40
0.0
  9
$TIMEZONE
 70
 -8000
  9
$LIGHTGLYPHDISPLAY
280
     1
  9
$TILEMODELIGHTSYNCH
280
     1
  9
$SOLIDHIST
280
     1
  9
$SHOWHIST
280
     1
  9
$DWFFRAME
280
     2
  9
$DGNFRAME
280
     2
  9
$REALWORLDSCALE
290
     1
  9
$INTERFERECOLOR
 62
   256
  9
$CSHADOW
280
     0
  9
$SHADOWPLANELOCATION
 40
0.0
  0
ENDSEC
  0
SECTION
  2
CLASSES
  0
CLASS
  1
ACDBDICTIONARYWDFLT
  2
AcDbDictionaryWithDefault
  3
ObjectDBX Classes
 90
        0
 91
        4
280
     0
281
     0
  0
CLASS
  1
VISUALSTYLE
  2
AcDbVisualStyle
  3
ObjectDBX Classes
 90
     4095
 91
        4
280
     0
281
     0
  0
CLASS
  1
MATERIAL
  2
AcDbMaterial
  3
ObjectDBX Classes
 90
     1153
 91
        4
280
     0
281
     0
  0
ENDSEC
  0
SECTION
  2
TABLES
  0
TABLE
  2
VPORT
  5
8
330
0
100
AcDbSymbolTable
 70
     1
  0
VPORT
  5
29
330
8
100
AcDbSymbolTableRecord
100
AcDbViewportTableRecord
  2
*Active
 70
     0
 10
0.0
 20
0.0
 11
1.0
 21
1.0
 12
0.0
 22
0.0
 13
0.0
 23
0.0
 14
10.0
 24
10.0
 15
10.0
 25
10.0
 16
0.0
 26
0.0
 36
1.0
 17
0.0
 27
0.0
 37
0.0
 40
9240.0
 41
1.414285714285715
 42
50.0
 43
0.0
 44
0.0
 50
0.0
 51
0.0
 71
     0
 72
 10000
 73
     1
 74
     3
 75
     0
 76
     0
 77
     0
 78
     0
281
     0
 65
     1
110
0.0
120
0.0
130
0.0
111
1.0
121
0.0
131
0.0
112
0.0
122
1.0
132
0.0
 79
     0
146
0.0
 60
     3
 61
     5
292
     1
282
     1
141
0.0
142
0.0
 63
   250
  0
ENDTAB
  0
TABLE
  2
LTYPE
  5
5
330
0
100
AcDbSymbolTable
 70
     3
  0
LTYPE
  5
14
330
5
100
AcDbSymbolTableRecord
100
AcDbLinetypeTableRecord
  2
ByBlock
 70
     0
  3

 72
    65
 73
     0
 40
0.0
  0
LTYPE
  5
15
330
5
100
AcDbSymbolTableRecord
100
AcDbLinetypeTableRecord
  2
ByLayer
 70
     0
  3

 72
    65
 73
     0
 40
0.0
  0
LTYPE
  5
16
330
5
100
AcDbSymbolTableRecord
100
AcDbLinetypeTableRecord
  2
Continuous
 70
     0
  3
Solid line
 72
    65
 73
     0
 40
0.0
  0
LTYPE
  5
3F
330
5
100
AcDbSymbolTableRecord
100
AcDbLinetypeTableRecord
  2
JWW_HOJO
 70
     0
  3
  -   -   -   -   -   -   -   - 
 72
    65
 73
     2
 40
1.693333333333333
 49
-1.27
 74
     0
 49
0.4233333333333333
 74
     0
  0
LTYPE
  5
40
330
5
100
AcDbSymbolTableRecord
100
AcDbLinetypeTableRecord
  2
JWW_DASHED1
 70
     0
  3
-  --  --  --  --  --  --  --  -
 72
    65
 73
     2
 40
1.693333333333333
 49
0.8466666666666667
 74
     0
 49
-0.8466666666666667
 74
     0
  0
ENDTAB
  0
TABLE
  2
LAYER
  5
2
330
0
100
AcDbSymbolTable
 70
     8
  0
LAYER
  5
10
330
2
100
AcDbSymbolTableRecord
100
AcDbLayerTableRecord
  2
0
 70
     0
 62
     7
  6
Continuous
370
    -3
390
F
347
3E
  0
LAYER
  5
41
330
2
100
AcDbSymbolTableRecord
100
AcDbLayerTableRecord
  2
0-B
 70
     0
 62
     7
  6
Continuous
370
    -3
390
F
347
3E
  0
LAYER
  5
42
330
2
100
AcDbSymbolTableRecord
100
AcDbLayerTableRecord
  2
0-0
 70
     0
 62
     7
  6
Continuous
370
    -3
390
F
347
3E
  0
LAYER
  5
43
330
2
100
AcDbSymbolTableRecord
100
AcDbLayerTableRecord
  2
0-4
 70
     0
 62
     7
  6
Continuous
370
    -3
390
F
347
3E
  0
LAYER
  5
44
330
2
100
AcDbSymbolTableRecord
100
AcDbLayerTableRecord
  2
F-0
 70
     0
 62
     7
  6
Continuous
370
    -3
390
F
347
3E
  0
LAYER
  5
45
330
2
100
AcDbSymbolTableRecord
100
AcDbLayerTableRecord
  2
F-1
 70
     0
 62
     7
  6
Continuous
370
    -3
390
F
347
3E
  0
LAYER
  5
46
330
2
100
AcDbSymbolTableRecord
100
AcDbLayerTableRecord
  2
0-A
 70
     0
 62
     7
  6
Continuous
370
    -3
390
F
347
3E
  0
LAYER
  5
47
330
2
100
AcDbSymbolTableRecord
100
AcDbLayerTableRecord
  2
F-A
 70
     0
 62
     7
  6
Continuous
370
    -3
390
F
347
3E
  0
ENDTAB
  0
TABLE
  2
STYLE
  5
3
330
0
100
AcDbSymbolTable
 70
     1
  0
STYLE
  5
11
330
3
100
AcDbSymbolTableRecord
100
AcDbTextStyleTableRecord
  2
Standard
 70
     0
 40
0.0
 41
1.0
 50
0.0
 71
     0
 42
2.5
  3
txt
  4

  0
ENDTAB
  0
TABLE
  2
VIEW
  5
6
330
0
100
AcDbSymbolTable
 70
     0
  0
ENDTAB
  0
TABLE
  2
UCS
  5
7
330
0
100
AcDbSymbolTable
 70
     0
  0
ENDTAB
  0
TABLE
  2
APPID
  5
9
330
0
100
AcDbSymbolTable
 70
     1
  0
APPID
  5
12
330
9
100
AcDbSymbolTableRecord
100
AcDbRegAppTableRecord
  2
ACAD
 70
     0
  0
ENDTAB
  0
TABLE
  2
DIMSTYLE
  5
A
330
0
100
AcDbSymbolTable
 70
     1
100
AcDbDimStyleTable
  0
DIMSTYLE
105
27
330
A
100
AcDbSymbolTableRecord
100
AcDbDimStyleTableRecord
  2
ISO-25
 70
     0
 41
2.5
 42
0.625
 43
3.75
 44
1.25
 73
     0
 74
     0
 77
     1
 78
     8
140
2.5
141
2.5
143
0.03937007874016
147
0.625
171
     3
172
     1
178
     0
271
     2
272
     2
274
     3
278
    44
283
     0
284
     8
340
11
  0
ENDTAB
  0
TABLE
  2
BLOCK_RECORD
  5
1
330
0
100
AcDbSymbolTable
 70
     1
  0
BLOCK_RECORD
  5
1F
330
1
100
AcDbSymbolTableRecord
100
AcDbBlockTableRecord
  2
*Model_Space
340
22
 70
     0
280
     1
281
     0
  0
BLOCK_RECORD
  5
1B
330
1
100
AcDbSymbolTableRecord
100
AcDbBlockTableRecord
  2
*Paper_Space
340
1E
 70
     0
280
     1
281
     0
  0
BLOCK_RECORD
  5
23
330
1
100
AcDbSymbolTableRecord
100
AcDbBlockTableRecord
  2
*Paper_Space0
340
26
 70
     0
280
     1
281
     0
  0
ENDTAB
  0
ENDSEC
  0
SECTION
  2
BLOCKS
  0
BLOCK
  5
20
330
1F
100
AcDbEntity
  8
0
100
AcDbBlockBegin
  2
*Model_Space
 70
     0
 10
0.0
 20
0.0
 30
0.0
  3
*Model_Space
  1

  0
ENDBLK
  5
21
330
1F
100
AcDbEntity
  8
0
100
AcDbBlockEnd
  0
BLOCK
  5
1C
330
1B
100
AcDbEntity
 67
     1
  8
0
100
AcDbBlockBegin
  2
*Paper_Space
 70
     0
 10
0.0
 20
0.0
 30
0.0
  3
*Paper_Space
  1

  0
ENDBLK
  5
1D
330
1B
100
AcDbEntity
 67
     1
  8
0
100
AcDbBlockEnd
  0
BLOCK
  5
24
330
23
100
AcDbEntity
  8
0
100
AcDbBlockBegin
  2
*Paper_Space0
 70
     0
 10
0.0
 20
0.0
 30
0.0
  3
*Paper_Space0
  1

  0
ENDBLK
  5
25
330
23
100
AcDbEntity
  8
0
100
AcDbBlockEnd
  0
ENDSEC
  0
SECTION
  2
ENTITIES
  0
LINE
  5
48
330
1F
100
AcDbEntity
  8
0-B
  6
Continuous
 62
   120
370
     5
100
AcDbLine
 10
1808.259208346053
 20
-776.5488544946248
 30
0.0
 11
1772.903869286726
 21
-811.9041935539522
 31
0.0
  0
LINE
  5
49
330
1F
100
AcDbEntity
  8
0-B
  6
Continuous
 62
   120
370
     5
100
AcDbLine
 10
1794.117072722322
 20
-762.4067188708941
 30
0.0
 11
1758.761733662995
 21
-797.7620579302214
 31
0.0
  0
LWPOLYLINE
  5
4A
330
1F
100
AcDbEntity
  8
0-B
  6
Continuous
 62
     7
370
     9
100
AcDbPolyline
 90
        4
 70
     1
 43
2.0
 10
1809.259208346053
 20
-776.5488544946248
 42
0.4142135623731
 10
1808.259208346053
 20
-775.548854494625
 42
0.4142135623731
 10
1807.259208346054
 20
-776.5488544946248
 42
0.4142135623731
 10
1808.259208346053
 20
-777.5488544946247
 42
0.4142135623731
  0
LWPOLYLINE
  5
4B
330
1F
100
AcDbEntity
  8
0-B
  6
Continuous
 62
     7
370
     9
100
AcDbPolyline
 90
        4
 70
     1
 43
2.0
 10
1795.117072722322
 20
-762.4067188708941
 42
0.4142135623731
 10
1794.117072722322
 20
-761.4067188708941
 42
0.4142135623731
 10
1793.117072722323
 20
-762.4067188708941
 42
0.4142135623731
 10
1794.117072722322
 20
-763.406718870894
 42
0.4142135623731
  0
LINE
  5
4C
330
1F
100
AcDbEntity
  8
0-B
  6
Continuous
 62
   120
370
     5
100
AcDbLine
 10
1794.117072722322
 20
-762.4067188708941
 30
0.0
 11
1808.259208346053
 21
-776.5488544946248
 31
0.0
  0
LINE
  5
4D
330
1F
100
AcDbEntity
  8
0-B
  6
Continuous
 62
   120
370
     5
100
AcDbLine
 10
1737.548530227399
 20
-733.1173969895485
 30
0.0
 11
1737.548530227399
 21
-783.1173969895485
 31
0.0
  0
LINE
  5
4E
330
1F
100
AcDbEntity
  8
0-B
  6
Continuous
 62
   120
370
     5
100
AcDbLine
 10
1277.548530227399
 20
-733.1173969895485
 30
0.0
 11
1277.548530227399
 21
-783.1173969895485
 31
0.0
  0
LWPOLYLINE
  5
4F
330
1F
100
AcDbEntity
  8
0-B
  6
Continuous
 62
     7
370
     9
100
AcDbPolyline
 90
        4
 70
     1
 43
2.0
 10
1738.548530227399
 20
-733.1173969895485
 42
0.4142135623731
 10
1737.548530227399
 20
-732.1173969895485
 42
0.4142135623731
 10
1736.548530227399
 20
-733.1173969895485
 42
0.4142135623731
 10
1737.548530227399
 20
-734.1173969895485
 42
0.4142135623731
  0
LINE
  5
50
330
1F
100
AcDbEntity
  8
0-B
  6
Continuous
 62
   120
370
     5
100
AcDbLine
 10
1277.548530227399
 20
-733.1173969895485
 30
0.0
 11
1737.548530227399
 21
-733.1173969895485
 31
0.0
  0
LWPOLYLINE
  5
51
330
1F
100
AcDbEntity
  8
0-B
  6
Continuous
 62
     7
370
     9
100
AcDbPolyline
 90
        4
 70
     1
 43
2.0
 10
1278.548530227399
 20
-733.1173969895485
 42
0.4142135623731
 10
1277.548530227399
 20
-732.1173969895485
 42
0.4142135623731
 10
1276.548530227399
 20
-733.1173969895485
 42
0.4142135623731
 10
1277.548530227399
 20
-734.1173969895485
 42
0.4142135623731
  0
LINE
  5
52
330
1F
100
AcDbEntity
  8
0-0
  6
JWW_HOJO
 62
     7
370
     9
100
AcDbLine
 10
1177.548530227399
 20
-733.1173969895485
 30
0.0
 11
1177.548530227399
 21
-1256.381951917277
 31
0.0
  0
LINE
  5
53
330
1F
100
AcDbEntity
  8
0-0
  6
JWW_HOJO
 62
     7
370
     9
100
AcDbLine
 10
1764.827750840977
 20
-733.1173969895485
 30
0.0
 11
1177.548530227399
 21
-733.1173969895485
 31
0.0
  0
LINE
  5
54
330
1F
100
AcDbEntity
  8
0-0
  6
JWW_HOJO
 62
     7
370
     9
100
AcDbLine
 10
1744.117072722322
 20
-783.1173969895485
 30
0.0
 11
1227.548530227399
 21
-783.1173969895485
 31
0.0
  0
LINE
  5
55
330
1F
100
AcDbEntity
  8
0-0
  6
JWW_HOJO
 62
     7
370
     9
100
AcDbLine
 10
1227.548530227399
 20
-783.1173969895485
 30
0.0
 11
1227.548530227399
 21
-1206.381951917277
 31
0.0
  0
LINE
  5
56
330
1F
100
AcDbEntity
  8
0-0
  6
JWW_HOJO
 62
     7
370
     9
100
AcDbLine
 10
1837.548530227399
 20
-805.8381763759701
 30
0.0
 11
1837.548530227399
 21
-1256.381951917277
 31
0.0
  0
LINE
  5
57
330
1F
100
AcDbEntity
  8
0-0
  6
JWW_HOJO
 62
     7
370
     9
100
AcDbLine
 10
1837.548530227399
 20
-805.8381763759701
 30
0.0
 11
1764.827750840977
 21
-733.1173969895485
 31
0.0
  0
LINE
  5
58
330
1F
100
AcDbEntity
  8
0-0
  6
JWW_HOJO
 62
     7
370
     9
100
AcDbLine
 10
1787.548530227399
 20
-826.5488544946248
 30
0.0
 11
1744.117072722322
 21
-783.1173969895485
 31
0.0
  0
LINE
  5
59
330
1F
100
AcDbEntity
  8
0-0
  6
JWW_HOJO
 62
     7
370
     9
100
AcDbLine
 10
1787.548530227399
 20
-826.5488544946248
 30
0.0
 11
1787.548530227399
 21
-1206.381951917277
 31
0.0
  0
LINE
  5
5A
330
1F
100
AcDbEntity
  8
0-4
  6
Continuous
 62
    92
370
    13
100
AcDbLine
 10
1732.548530227399
 20
-1178.117396989549
 30
0.0
 11
1732.548530227399
 21
-849.3306004251451
 31
0.0
  0
LINE
  5
5B
330
1F
100
AcDbEntity
  8
0-4
  6
Continuous
 62
    92
370
    13
100
AcDbLine
 10
1732.548530227399
 20
-849.3306004251451
 30
0.0
 11
1721.335326791802
 21
-838.1173969895485
 31
0.0
  0
LINE
  5
5C
330
1F
100
AcDbEntity
  8
0-4
  6
Continuous
 62
    92
370
    13
100
AcDbLine
 10
1277.548530227399
 20
-838.1173969895485
 30
0.0
 11
1721.335326791802
 21
-838.1173969895485
 31
0.0
  0
LINE
  5
5D
330
1F
100
AcDbEntity
  8
0-4
  6
Continuous
 62
    92
370
    13
100
AcDbLine
 10
1737.548530227399
 20
-847.2595326132796
 30
0.0
 11
1723.406394603668
 21
-833.1173969895485
 31
0.0
  0
LINE
  5
5E
330
1F
100
AcDbEntity
  8
0-4
  6
Continuous
 62
    92
370
    13
100
AcDbLine
 10
1723.406394603668
 20
-833.1173969895485
 30
0.0
 11
1277.548530227399
 21
-833.1173969895485
 31
0.0
  0
LINE
  5
5F
330
1F
100
AcDbEntity
  8
0-4
  6
Continuous
 62
    92
370
    13
100
AcDbLine
 10
1737.548530227399
 20
-847.2595326132796
 30
0.0
 11
1737.548530227399
 21
-1183.117396989549
 31
0.0
  0
LINE
  5
60
330
1F
100
AcDbEntity
  8
0-B
  6
Continuous
 62
   120
370
     5
100
AcDbLine
 10
1769.870860697735
 20
-139.1094427136358
 30
0.0
 11
1737.548530227399
 21
-171.4317731839719
 31
0.0
  0
LINE
  5
61
330
1F
100
AcDbEntity
  8
0-B
  6
Continuous
 62
   120
370
     5
100
AcDbLine
 10
1805.226199757062
 20
-174.4647817729629
 30
0.0
 11
1772.903869286726
 21
-206.787112243299
 31
0.0
  0
LWPOLYLINE
  5
62
330
1F
100
AcDbEntity
  8
0-B
  6
Continuous
 62
     7
370
     9
100
AcDbPolyline
 90
        4
 70
     1
 43
2.0
 10
1770.870860697735
 20
-139.1094427136358
 42
0.4142135623731
 10
1769.870860697735
 20
-138.1094427136358
 42
0.4142135623731
 10
1768.870860697735
 20
-139.1094427136358
 42
0.4142135623731
 10
1769.870860697735
 20
-140.1094427136358
 42
0.4142135623731
  0
LWPOLYLINE
  5
63
330
1F
100
AcDbEntity
  8
0-B
  6
Continuous
 62
     7
370
     9
100
AcDbPolyline
 90
        4
 70
     1
 43
2.0
 10
1806.226199757062
 20
-174.4647817729629
 42
0.4142135623731
 10
1805.226199757062
 20
-173.4647817729629
 42
0.4142135623731
 10
1804.226199757063
 20
-174.4647817729629
 42
0.4142135623731
 10
1805.226199757062
 20
-175.4647817729629
 42
0.4142135623731
  0
LINE
  5
64
330
1F
100
AcDbEntity
  8
0-B
  6
Continuous
 62
   120
370
     5
100
AcDbLine
 10
1805.226199757062
 20
-174.4647817729629
 30
0.0
 11
1769.870860697735
 21
-139.1094427136358
 31
0.0
  0
LINE
  5
65
330
1F
100
AcDbEntity
  8
0-B
  6
Continuous
 62
   120
370
     5
100
AcDbLine
 10
1737.548530227399
 20
-106.787112243299
 30
0.0
 11
1737.548530227399
 21
-156.787112243299
 31
0.0
  0
LINE
  5
66
330
1F
100
AcDbEntity
  8
0-B
  6
Continuous
 62
   120
370
     5
100
AcDbLine
 10
1237.548530227399
 20
-106.787112243299
 30
0.0
 11
1237.548530227399
 21
-156.787112243299
 31
0.0
  0
LWPOLYLINE
  5
67
330
1F
100
AcDbEntity
  8
0-B
  6
Continuous
 62
     7
370
     9
100
AcDbPolyline
 90
        4
 70
     1
 43
2.0
 10
1238.548530227399
 20
-106.787112243299
 42
0.4142135623731
 10
1237.548530227399
 20
-105.787112243299
 42
0.4142135623731
 10
1236.548530227399
 20
-106.787112243299
 42
0.4142135623731
 10
1237.548530227399
 20
-107.787112243299
 42
0.4142135623731
  0
LINE
  5
68
330
1F
100
AcDbEntity
  8
0-B
  6
Continuous
 62
   120
370
     5
100
AcDbLine
 10
1237.548530227399
 20
-106.787112243299
 30
0.0
 11
1737.548530227399
 21
-106.787112243299
 31
0.0
  0
LWPOLYLINE
  5
69
330
1F
100
AcDbEntity
  8
0-B
  6
Continuous
 62
     7
370
     9
100
AcDbPolyline
 90
        4
 70
     1
 43
2.0
 10
1738.548530227399
 20
-106.787112243299
 42
0.4142135623731
 10
1737.548530227399
 20
-105.787112243299
 42
0.4142135623731
 10
1736.548530227399
 20
-106.787112243299
 42
0.4142135623731
 10
1737.548530227399
 20
-107.787112243299
 42
0.4142135623731
  0
LINE
  5
6A
330
1F
100
AcDbEntity
  8
0-0
  6
JWW_HOJO
 62
     7
370
     9
100
AcDbLine
 10
1187.548530227399
 20
-156.787112243299
 30
0.0
 11
1187.548530227399
 21
-580.0516671710284
 31
0.0
  0
LINE
  5
6B
330
1F
100
AcDbEntity
  8
0-0
  6
JWW_HOJO
 62
     7
370
     9
100
AcDbLine
 10
1722.903869286726
 20
-156.787112243299
 30
0.0
 11
1187.548530227399
 21
-156.787112243299
 31
0.0
  0
LINE
  5
6C
330
1F
100
AcDbEntity
  8
0-0
  6
JWW_HOJO
 62
     7
370
     9
100
AcDbLine
 10
1722.903869286726
 20
-156.787112243299
 30
0.0
 11
1787.548530227399
 21
-221.4317731839719
 31
0.0
  0
LINE
  5
6D
330
1F
100
AcDbEntity
  8
0-0
  6
JWW_HOJO
 62
     7
370
     9
100
AcDbLine
 10
1787.548530227399
 20
-221.4317731839719
 30
0.0
 11
1787.548530227399
 21
-580.0516671710284
 31
0.0
  0
LINE
  5
6E
330
1F
100
AcDbEntity
  8
0-0
  6
JWW_HOJO
 62
     7
370
     9
100
AcDbLine
 10
1837.548530227399
 20
-200.7210950653172
 30
0.0
 11
1837.548530227399
 21
-630.0516671710284
 31
0.0
  0
LINE
  5
6F
330
1F
100
AcDbEntity
  8
0-0
  6
JWW_HOJO
 62
     7
370
     9
100
AcDbLine
 10
1743.614547405381
 20
-106.787112243299
 30
0.0
 11
1837.548530227399
 21
-200.7210950653172
 31
0.0
  0
LINE
  5
70
330
1F
100
AcDbEntity
  8
0-0
  6
JWW_HOJO
 62
     7
370
     9
100
AcDbLine
 10
1743.614547405381
 20
-106.787112243299
 30
0.0
 11
1137.548530227399
 21
-106.787112243299
 31
0.0
  0
LINE
  5
71
330
1F
100
AcDbEntity
  8
0-0
  6
JWW_HOJO
 62
     7
370
     9
100
AcDbLine
 10
1137.548530227399
 20
-106.787112243299
 30
0.0
 11
1137.548530227399
 21
-630.0516671710284
 31
0.0
  0
LINE
  5
72
330
1F
100
AcDbEntity
  8
0-4
  6
Continuous
 62
    92
370
    13
100
AcDbLine
 10
1237.548530227399
 20
-211.787112243299
 30
0.0
 11
1700.122123356206
 21
-211.787112243299
 31
0.0
  0
LINE
  5
73
330
1F
100
AcDbEntity
  8
0-4
  6
Continuous
 62
    92
370
    13
100
AcDbLine
 10
1700.122123356206
 20
-211.787112243299
 30
0.0
 11
1732.548530227399
 21
-244.2135191144922
 31
0.0
  0
LINE
  5
74
330
1F
100
AcDbEntity
  8
0-4
  6
Continuous
 62
    92
370
    13
100
AcDbLine
 10
1732.548530227399
 20
-551.7871122432994
 30
0.0
 11
1732.548530227399
 21
-244.2135191144922
 31
0.0
  0
LINE
  5
75
330
1F
100
AcDbEntity
  8
0-4
  6
Continuous
 62
    92
370
    13
100
AcDbLine
 10
1702.193191168072
 20
-206.787112243299
 30
0.0
 11
1737.548530227399
 21
-242.1424513026267
 31
0.0
  0
LINE
  5
76
330
1F
100
AcDbEntity
  8
0-4
  6
Continuous
 62
    92
370
    13
100
AcDbLine
 10
1737.548530227399
 20
-242.1424513026267
 30
0.0
 11
1737.548530227399
 21
-556.7871122432994
 31
0.0
  0
LINE
  5
77
330
1F
100
AcDbEntity
  8
0-4
  6
Continuous
 62
    92
370
    13
100
AcDbLine
 10
1702.193191168072
 20
-206.787112243299
 30
0.0
 11
1237.548530227399
 21
-206.787112243299
 31
0.0
  0
LINE
  5
78
330
1F
100
AcDbEntity
  8
0-B
  6
Continuous
 62
   120
370
     5
100
AcDbLine
 10
1808.259208346053
 20
479.613067157519
 30
0.0
 11
1772.903869286726
 21
444.2577280981919
 31
0.0
  0
LINE
  5
79
330
1F
100
AcDbEntity
  8
0-B
  6
Continuous
 62
   120
370
     5
100
AcDbLine
 10
1794.117072722322
 20
493.7552027812501
 30
0.0
 11
1758.761733662995
 21
458.399863721923
 31
0.0
  0
LWPOLYLINE
  5
7A
330
1F
100
AcDbEntity
  8
0-B
  6
Continuous
 62
     7
370
     9
100
AcDbPolyline
 90
        4
 70
     1
 43
2.0
 10
1809.259208346053
 20
479.613067157519
 42
0.4142135623731
 10
1808.259208346053
 20
480.613067157519
 42
0.4142135623731
 10
1807.259208346054
 20
479.613067157519
 42
0.4142135623731
 10
1808.259208346053
 20
478.613067157519
 42
0.4142135623731
  0
LWPOLYLINE
  5
7B
330
1F
100
AcDbEntity
  8
0-B
  6
Continuous
 62
     7
370
     9
100
AcDbPolyline
 90
        4
 70
     1
 43
2.0
 10
1795.117072722322
 20
493.7552027812501
 42
0.4142135623731
 10
1794.117072722322
 20
494.7552027812501
 42
0.4142135623731
 10
1793.117072722323
 20
493.7552027812501
 42
0.4142135623731
 10
1794.117072722322
 20
492.7552027812501
 42
0.4142135623731
  0
LINE
  5
7C
330
1F
100
AcDbEntity
  8
0-B
  6
Continuous
 62
   120
370
     5
100
AcDbLine
 10
1794.117072722322
 20
493.7552027812501
 30
0.0
 11
1808.259208346053
 21
479.613067157519
 31
0.0
  0
LINE
  5
7D
330
1F
100
AcDbEntity
  8
0-B
  6
Continuous
 62
   120
370
     5
100
AcDbLine
 10
1737.548530227399
 20
523.0445246625959
 30
0.0
 11
1737.548530227399
 21
473.0445246625959
 31
0.0
  0
LINE
  5
7E
330
1F
100
AcDbEntity
  8
0-B
  6
Continuous
 62
   120
370
     5
100
AcDbLine
 10
1407.548530227399
 20
523.0445246625959
 30
0.0
 11
1407.548530227399
 21
473.0445246625959
 31
0.0
  0
LWPOLYLINE
  5
7F
330
1F
100
AcDbEntity
  8
0-B
  6
Continuous
 62
     7
370
     9
100
AcDbPolyline
 90
        4
 70
     1
 43
2.0
 10
1738.548530227399
 20
523.0445246625959
 42
0.4142135623731
 10
1737.548530227399
 20
524.0445246625959
 42
0.4142135623731
 10
1736.548530227399
 20
523.0445246625959
 42
0.4142135623731
 10
1737.548530227399
 20
522.0445246625959
 42
0.4142135623731
  0
LINE
  5
80
330
1F
100
AcDbEntity
  8
0-B
  6
Continuous
 62
   120
370
     5
100
AcDbLine
 10
1407.548530227399
 20
523.0445246625959
 30
0.0
 11
1737.548530227399
 21
523.0445246625959
 31
0.0
  0
LWPOLYLINE
  5
81
330
1F
100
AcDbEntity
  8
0-B
  6
Continuous
 62
     7
370
     9
100
AcDbPolyline
 90
        4
 70
     1
 43
2.0
 10
1408.548530227399
 20
523.0445246625959
 42
0.4142135623731
 10
1407.548530227399
 20
524.0445246625959
 42
0.4142135623731
 10
1406.548530227399
 20
523.0445246625959
 42
0.4142135623731
 10
1407.548530227399
 20
522.0445246625959
 42
0.4142135623731
  0
LINE
  5
82
330
1F
100
AcDbEntity
  8
0-0
  6
JWW_HOJO
 62
     7
370
     9
100
AcDbLine
 10
1837.548530227399
 20
450.3237452761743
 30
0.0
 11
1837.548530227399
 21
-10.32960083170167
 31
0.0
  0
LINE
  5
83
330
1F
100
AcDbEntity
  8
0-0
  6
JWW_HOJO
 62
     7
370
     9
100
AcDbLine
 10
1837.548530227399
 20
450.3237452761743
 30
0.0
 11
1764.827750840977
 21
523.0445246625959
 31
0.0
  0
LINE
  5
84
330
1F
100
AcDbEntity
  8
0-0
  6
JWW_HOJO
 62
     7
370
     9
100
AcDbLine
 10
1764.827750840977
 20
523.0445246625959
 30
0.0
 11
1307.548530227399
 21
523.0445246625959
 31
0.0
  0
LINE
  5
85
330
1F
100
AcDbEntity
  8
0-0
  6
JWW_HOJO
 62
     7
370
     9
100
AcDbLine
 10
1307.548530227399
 20
523.0445246625959
 30
0.0
 11
1307.548530227399
 21
-10.32960083170167
 31
0.0
  0
LINE
  5
86
330
1F
100
AcDbEntity
  8
0-0
  6
JWW_HOJO
 62
     7
370
     9
100
AcDbLine
 10
1357.548530227399
 20
473.0445246625959
 30
0.0
 11
1357.548530227399
 21
39.67039916829833
 31
0.0
  0
LINE
  5
87
330
1F
100
AcDbEntity
  8
0-0
  6
JWW_HOJO
 62
     7
370
     9
100
AcDbLine
 10
1744.117072722322
 20
473.0445246625959
 30
0.0
 11
1357.548530227399
 21
473.0445246625959
 31
0.0
  0
LINE
  5
88
330
1F
100
AcDbEntity
  8
0-0
  6
JWW_HOJO
 62
     7
370
     9
100
AcDbLine
 10
1787.548530227399
 20
429.6130671575196
 30
0.0
 11
1787.548530227399
 21
39.67039916829833
 31
0.0
  0
LINE
  5
89
330
1F
100
AcDbEntity
  8
0-0
  6
JWW_HOJO
 62
     7
370
     9
100
AcDbLine
 10
1787.548530227399
 20
429.6130671575196
 30
0.0
 11
1744.117072722322
 21
473.0445246625959
 31
0.0
  0
LINE
  5
8A
330
1F
100
AcDbEntity
  8
0-4
  6
Continuous
 62
    92
370
    13
100
AcDbLine
 10
1407.548530227399
 20
418.0445246625959
 30
0.0
 11
1721.335326791802
 21
418.0445246625959
 31
0.0
  0
LINE
  5
8B
330
1F
100
AcDbEntity
  8
0-4
  6
Continuous
 62
    92
370
    13
100
AcDbLine
 10
1732.548530227399
 20
406.8313212269993
 30
0.0
 11
1721.335326791802
 21
418.0445246625959
 31
0.0
  0
LINE
  5
8C
330
1F
100
AcDbEntity
  8
0-4
  6
Continuous
 62
    92
370
    13
100
AcDbLine
 10
1732.548530227399
 20
78.0445246625959
 30
0.0
 11
1732.548530227399
 21
406.8313212269993
 31
0.0
  0
LINE
  5
8D
330
1F
100
AcDbEntity
  8
0-4
  6
Continuous
 62
    92
370
    13
100
AcDbLine
 10
1737.548530227399
 20
408.9023890388648
 30
0.0
 11
1723.406394603668
 21
423.0445246625959
 31
0.0
  0
LINE
  5
8E
330
1F
100
AcDbEntity
  8
0-4
  6
Continuous
 62
    92
370
    13
100
AcDbLine
 10
1723.406394603668
 20
423.0445246625959
 30
0.0
 11
1407.548530227399
 21
423.0445246625959
 31
0.0
  0
LINE
  5
8F
330
1F
100
AcDbEntity
  8
0-4
  6
Continuous
 62
    92
370
    13
100
AcDbLine
 10
1737.548530227399
 20
408.9023890388648
 30
0.0
 11
1737.548530227399
 21
73.0445246625959
 31
0.0
  0
LINE
  5
90
330
1F
100
AcDbEntity
  8
0-B
  6
Continuous
 62
   120
370
     5
100
AcDbLine
 10
1791.188140534188
 20
1739.537578190484
 30
0.0
 11
1755.832801474861
 21
1704.182239131157
 31
0.0
  0
LINE
  5
91
330
1F
100
AcDbEntity
  8
0-B
  6
Continuous
 62
   120
370
     5
100
AcDbLine
 10
1805.330276157919
 20
1725.395442566753
 30
0.0
 11
1769.974937098592
 21
1690.040103507426
 31
0.0
  0
LWPOLYLINE
  5
92
330
1F
100
AcDbEntity
  8
0-B
  6
Continuous
 62
     7
370
     9
100
AcDbPolyline
 90
        4
 70
     1
 43
2.0
 10
1792.188140534188
 20
1739.537578190484
 42
0.4142135623731
 10
1791.188140534188
 20
1740.537578190484
 42
0.4142135623731
 10
1790.188140534188
 20
1739.537578190484
 42
0.4142135623731
 10
1791.188140534188
 20
1738.537578190484
 42
0.4142135623731
  0
LWPOLYLINE
  5
93
330
1F
100
AcDbEntity
  8
0-B
  6
Continuous
 62
     7
370
     9
100
AcDbPolyline
 90
        4
 70
     1
 43
2.0
 10
1806.330276157919
 20
1725.395442566753
 42
0.4142135623731
 10
1805.330276157919
 20
1726.395442566753
 42
0.4142135623731
 10
1804.330276157919
 20
1725.395442566753
 42
0.4142135623731
 10
1805.330276157919
 20
1724.395442566753
 42
0.4142135623731
  0
LINE
  5
94
330
1F
100
AcDbEntity
  8
0-B
  6
Continuous
 62
   120
370
     5
100
AcDbLine
 10
1805.330276157919
 20
1725.395442566753
 30
0.0
 11
1791.188140534188
 21
1739.537578190484
 31
0.0
  0
LINE
  5
95
330
1F
100
AcDbEntity
  8
0-B
  6
Continuous
 62
   120
370
     5
100
AcDbLine
 10
1737.548530227399
 20
1771.755832259964
 30
0.0
 11
1737.548530227399
 21
1721.755832259964
 31
0.0
  0
LWPOLYLINE
  5
96
330
1F
100
AcDbEntity
  8
0-B
  6
Continuous
 62
     7
370
     9
100
AcDbPolyline
 90
        4
 70
     1
 43
2.0
 10
1738.548530227399
 20
1771.755832259964
 42
0.4142135623731
 10
1737.548530227399
 20
1772.755832259964
 42
0.4142135623731
 10
1736.548530227399
 20
1771.755832259964
 42
0.4142135623731
 10
1737.548530227399
 20
1770.755832259964
 42
0.4142135623731
  0
LINE
  5
97
330
1F
100
AcDbEntity
  8
0-B
  6
Continuous
 62
   120
370
     5
100
AcDbLine
 10
1805.226199757062
 20
1085.715047919879
 30
0.0
 11
1770.58153881639
 21
1051.070386979206
 31
0.0
  0
LINE
  5
98
330
1F
100
AcDbEntity
  8
0-B
  6
Continuous
 62
   120
370
     5
100
AcDbLine
 10
1769.870860697735
 20
1121.070386979206
 30
0.0
 11
1735.226199757062
 21
1086.425726038534
 31
0.0
  0
LWPOLYLINE
  5
99
330
1F
100
AcDbEntity
  8
0-B
  6
Continuous
 62
     7
370
     9
100
AcDbPolyline
 90
        4
 70
     1
 43
2.0
 10
1806.226199757062
 20
1085.715047919879
 42
0.4142135623731
 10
1805.226199757062
 20
1086.715047919879
 42
0.4142135623731
 10
1804.226199757063
 20
1085.715047919879
 42
0.4142135623731
 10
1805.226199757062
 20
1084.715047919879
 42
0.4142135623731
  0
LWPOLYLINE
  5
9A
330
1F
100
AcDbEntity
  8
0-B
  6
Continuous
 62
     7
370
     9
100
AcDbPolyline
 90
        4
 70
     1
 43
2.0
 10
1770.870860697735
 20
1121.070386979206
 42
0.4142135623731
 10
1769.870860697735
 20
1122.070386979206
 42
0.4142135623731
 10
1768.870860697735
 20
1121.070386979206
 42
0.4142135623731
 10
1769.870860697735
 20
1120.070386979206
 42
0.4142135623731
  0
LINE
  5
9B
330
1F
100
AcDbEntity
  8
0-B
  6
Continuous
 62
   120
370
     5
100
AcDbLine
 10
1769.870860697735
 20
1121.070386979206
 30
0.0
 11
1805.226199757062
 21
1085.715047919879
 31
0.0
  0
LINE
  5
9C
330
1F
100
AcDbEntity
  8
0-4
  6
Continuous
 62
    92
370
    13
100
AcDbLine
 10
1732.548530227399
 20
708.3927174495426
 30
0.0
 11
1732.548530227399
 21
1015.96631057835
 31
0.0
  0
LINE
  5
9D
330
1F
100
AcDbEntity
  8
0-4
  6
Continuous
 62
    92
370
    13
100
AcDbLine
 10
1732.548530227399
 20
1015.96631057835
 30
0.0
 11
1700.122123356206
 21
1048.392717449542
 31
0.0
  0
LINE
  5
9E
330
1F
100
AcDbEntity
  8
0-4
  6
Continuous
 62
    92
370
    13
100
AcDbLine
 10
1367.548530227399
 20
1048.392717449542
 30
0.0
 11
1700.122123356206
 21
1048.392717449542
 31
0.0
  0
LINE
  5
9F
330
1F
100
AcDbEntity
  8
0-4
  6
Continuous
 62
    92
370
    13
100
AcDbLine
 10
1737.548530227399
 20
1018.037378390216
 30
0.0
 11
1702.193191168072
 21
1053.392717449542
 31
0.0
  0
LINE
  5
A0
330
1F
100
AcDbEntity
  8
0-4
  6
Continuous
 62
    92
370
    13
100
AcDbLine
 10
1702.193191168072
 20
1053.392717449542
 30
0.0
 11
1367.548530227399
 21
1053.392717449542
 31
0.0
  0
LINE
  5
A1
330
1F
100
AcDbEntity
  8
0-4
  6
Continuous
 62
    92
370
    13
100
AcDbLine
 10
1737.548530227399
 20
1018.037378390216
 30
0.0
 11
1737.548530227399
 21
703.3927174495426
 31
0.0
  0
LINE
  5
A2
330
1F
100
AcDbEntity
  8
0-0
  6
JWW_HOJO
 62
     7
370
     9
100
AcDbLine
 10
1837.548530227399
 20
1054.814073686852
 30
0.0
 11
1837.548530227399
 21
620.018591955245
 31
0.0
  0
LINE
  5
A3
330
1F
100
AcDbEntity
  8
0-0
  6
JWW_HOJO
 62
     7
370
     9
100
AcDbLine
 10
1738.969886464708
 20
1153.392717449542
 30
0.0
 11
1837.548530227399
 21
1054.814073686852
 31
0.0
  0
LINE
  5
A4
330
1F
100
AcDbEntity
  8
0-0
  6
JWW_HOJO
 62
     7
370
     9
100
AcDbLine
 10
1267.548530227399
 20
1153.392717449542
 30
0.0
 11
1738.969886464708
 21
1153.392717449542
 31
0.0
  0
LINE
  5
A5
330
1F
100
AcDbEntity
  8
0-0
  6
JWW_HOJO
 62
     7
370
     9
100
AcDbLine
 10
1787.548530227399
 20
1034.103395568197
 30
0.0
 11
1787.548530227399
 21
670.018591955245
 31
0.0
  0
LINE
  5
A6
330
1F
100
AcDbEntity
  8
0-0
  6
JWW_HOJO
 62
     7
370
     9
100
AcDbLine
 10
1718.259208346054
 20
1103.392717449542
 30
0.0
 11
1787.548530227399
 21
1034.103395568197
 31
0.0
  0
LINE
  5
A7
330
1F
100
AcDbEntity
  8
0-0
  6
JWW_HOJO
 62
     7
370
     9
100
AcDbLine
 10
1317.548530227399
 20
1103.392717449542
 30
0.0
 11
1718.259208346054
 21
1103.392717449542
 31
0.0
  0
LINE
  5
A8
330
1F
100
AcDbEntity
  8
0-0
  6
JWW_HOJO
 62
     7
370
     9
100
AcDbLine
 10
1267.548530227399
 20
1153.392717449542
 30
0.0
 11
1267.548530227399
 21
620.018591955245
 31
0.0
  0
LINE
  5
A9
330
1F
100
AcDbEntity
  8
0-0
  6
JWW_HOJO
 62
     7
370
     9
100
AcDbLine
 10
1317.548530227399
 20
1103.392717449542
 30
0.0
 11
1317.548530227399
 21
670.018591955245
 31
0.0
  0
LINE
  5
AA
330
1F
100
AcDbEntity
  8
0-B
  6
Continuous
 62
   120
370
     5
100
AcDbLine
 10
1737.548530227399
 20
1153.392717449542
 30
0.0
 11
1737.548530227399
 21
1103.392717449542
 31
0.0
  0
LINE
  5
AB
330
1F
100
AcDbEntity
  8
0-B
  6
Continuous
 62
   120
370
     5
100
AcDbLine
 10
1367.548530227399
 20
1153.392717449542
 30
0.0
 11
1367.548530227399
 21
1103.392717449542
 31
0.0
  0
LINE
  5
AC
330
1F
100
AcDbEntity
  8
0-B
  6
Continuous
 62
   120
370
     5
100
AcDbLine
 10
1367.548530227399
 20
1153.392717449542
 30
0.0
 11
1737.548530227399
 21
1153.392717449542
 31
0.0
  0
LWPOLYLINE
  5
AD
330
1F
100
AcDbEntity
  8
0-B
  6
Continuous
 62
     7
370
     9
100
AcDbPolyline
 90
        4
 70
     1
 43
2.0
 10
1368.548530227399
 20
1153.392717449542
 42
0.4142135623731
 10
1367.548530227399
 20
1154.392717449542
 42
0.4142135623731
 10
1366.548530227399
 20
1153.392717449542
 42
0.4142135623731
 10
1367.548530227399
 20
1152.392717449543
 42
0.4142135623731
  0
LWPOLYLINE
  5
AE
330
1F
100
AcDbEntity
  8
0-B
  6
Continuous
 62
     7
370
     9
100
AcDbPolyline
 90
        4
 70
     1
 43
2.0
 10
1738.548530227399
 20
1153.392717449542
 42
0.4142135623731
 10
1737.548530227399
 20
1154.392717449542
 42
0.4142135623731
 10
1736.548530227399
 20
1153.392717449542
 42
0.4142135623731
 10
1737.548530227399
 20
1152.392717449543
 42
0.4142135623731
  0
LINE
  5
AF
330
1F
100
AcDbEntity
  8
0-4
  6
Continuous
 62
    92
370
    13
100
AcDbLine
 10
1507.548530227399
 20
1666.755832259964
 30
0.0
 11
1721.335326791802
 21
1666.755832259964
 31
0.0
  0
LINE
  5
B0
330
1F
100
AcDbEntity
  8
0-4
  6
Continuous
 62
    92
370
    13
100
AcDbLine
 10
1732.548530227399
 20
1655.542628824368
 30
0.0
 11
1721.335326791802
 21
1666.755832259964
 31
0.0
  0
LINE
  5
B1
330
1F
100
AcDbEntity
  8
0-4
  6
Continuous
 62
    92
370
    13
100
AcDbLine
 10
1732.548530227399
 20
1326.755832259964
 30
0.0
 11
1732.548530227399
 21
1655.542628824368
 31
0.0
  0
LINE
  5
B2
330
1F
100
AcDbEntity
  8
0-4
  6
Continuous
 62
    92
370
    13
100
AcDbLine
 10
1737.548530227399
 20
1657.613696636233
 30
0.0
 11
1723.406394603668
 21
1671.755832259964
 31
0.0
  0
LINE
  5
B3
330
1F
100
AcDbEntity
  8
0-4
  6
Continuous
 62
    92
370
    13
100
AcDbLine
 10
1723.406394603668
 20
1671.755832259964
 30
0.0
 11
1507.548530227399
 21
1671.755832259964
 31
0.0
  0
LINE
  5
B4
330
1F
100
AcDbEntity
  8
0-4
  6
Continuous
 62
    92
370
    13
100
AcDbLine
 10
1737.548530227399
 20
1657.613696636233
 30
0.0
 11
1737.548530227399
 21
1321.755832259964
 31
0.0
  0
LINE
  5
B5
330
1F
100
AcDbEntity
  8
0-B
  6
Continuous
 62
   120
370
     5
100
AcDbLine
 10
1507.548530227399
 20
1771.755832259964
 30
0.0
 11
1507.548530227399
 21
1721.755832259964
 31
0.0
  0
LINE
  5
B6
330
1F
100
AcDbEntity
  8
0-B
  6
Continuous
 62
   120
370
     5
100
AcDbLine
 10
1507.548530227399
 20
1771.755832259964
 30
0.0
 11
1737.548530227399
 21
1771.755832259964
 31
0.0
  0
LWPOLYLINE
  5
B7
330
1F
100
AcDbEntity
  8
0-B
  6
Continuous
 62
     7
370
     9
100
AcDbPolyline
 90
        4
 70
     1
 43
2.0
 10
1508.548530227399
 20
1771.755832259964
 42
0.4142135623731
 10
1507.548530227399
 20
1772.755832259964
 42
0.4142135623731
 10
1506.548530227399
 20
1771.755832259964
 42
0.4142135623731
 10
1507.548530227399
 20
1770.755832259964
 42
0.4142135623731
  0
LINE
  5
B8
330
1F
100
AcDbEntity
  8
0-0
  6
JWW_HOJO
 62
     7
370
     9
100
AcDbLine
 10
1457.548530227399
 20
1721.755832259964
 30
0.0
 11
1457.548530227399
 21
1302.514978847701
 31
0.0
  0
LINE
  5
B9
330
1F
100
AcDbEntity
  8
0-0
  6
JWW_HOJO
 62
     7
370
     9
100
AcDbLine
 10
1457.548530227399
 20
1721.755832259964
 30
0.0
 11
1738.259208346054
 21
1721.755832259964
 31
0.0
  0
LINE
  5
BA
330
1F
100
AcDbEntity
  8
0-0
  6
JWW_HOJO
 62
     7
370
     9
100
AcDbLine
 10
1738.259208346054
 20
1721.755832259964
 30
0.0
 11
1787.548530227399
 21
1672.466510378619
 31
0.0
  0
LINE
  5
BB
330
1F
100
AcDbEntity
  8
0-0
  6
JWW_HOJO
 62
     7
370
     9
100
AcDbLine
 10
1407.548530227399
 20
1771.755832259964
 30
0.0
 11
1407.548530227399
 21
1252.514978847701
 31
0.0
  0
LINE
  5
BC
330
1F
100
AcDbEntity
  8
0-0
  6
JWW_HOJO
 62
     7
370
     9
100
AcDbLine
 10
1407.548530227399
 20
1771.755832259964
 30
0.0
 11
1758.969886464708
 21
1771.755832259964
 31
0.0
  0
LINE
  5
BD
330
1F
100
AcDbEntity
  8
0-0
  6
JWW_HOJO
 62
     7
370
     9
100
AcDbLine
 10
1758.969886464708
 20
1771.755832259964
 30
0.0
 11
1837.548530227399
 21
1693.177188497274
 31
0.0
  0
LINE
  5
BE
330
1F
100
AcDbEntity
  8
0-0
  6
JWW_HOJO
 62
     7
370
     9
100
AcDbLine
 10
1837.548530227399
 20
1693.177188497274
 30
0.0
 11
1837.548530227399
 21
1252.514978847701
 31
0.0
  0
LINE
  5
BF
330
1F
100
AcDbEntity
  8
0-0
  6
JWW_HOJO
 62
     7
370
     9
100
AcDbLine
 10
1787.548530227399
 20
1672.466510378619
 30
0.0
 11
1787.548530227399
 21
1302.514978847701
 31
0.0
  0
LINE
  5
C0
330
1F
100
AcDbEntity
  8
0-B
  6
Continuous
 62
   120
370
     5
100
AcDbLine
 10
1837.548530227399
 20
1948.378792495291
 30
0.0
 11
1787.548530227399
 21
1948.378792495291
 31
0.0
  0
LINE
  5
C1
330
1F
100
AcDbEntity
  8
0-B
  6
Continuous
 62
   120
370
     5
100
AcDbLine
 10
1837.548530227399
 20
2298.378792495291
 30
0.0
 11
1787.548530227399
 21
2298.378792495291
 31
0.0
  0
LINE
  5
C2
330
1F
100
AcDbEntity
  8
0-B
  6
Continuous
 62
   120
370
     5
100
AcDbLine
 10
1737.548530227399
 20
2399.535162881639
 30
0.0
 11
1737.548530227399
 21
2348.378792495291
 31
0.0
  0
LINE
  5
C3
330
1F
100
AcDbEntity
  8
0-B
  6
Continuous
 62
   120
370
     5
100
AcDbLine
 10
1467.548530227399
 20
2399.535162881639
 30
0.0
 11
1467.548530227399
 21
2348.378792495291
 31
0.0
  0
LINE
  5
C4
330
1F
100
AcDbEntity
  8
0-0
  6
JWW_HOJO
 62
     7
370
     9
100
AcDbLine
 10
1708.259208346054
 20
2348.378792495291
 30
0.0
 11
1417.548530227399
 21
2348.378792495291
 31
0.0
  0
LINE
  5
C5
330
1F
100
AcDbEntity
  8
0-0
  6
JWW_HOJO
 62
     7
370
     9
100
AcDbLine
 10
1417.548530227399
 20
1925.469107671933
 30
0.0
 11
1417.548530227399
 21
2348.378792495291
 31
0.0
  0
LINE
  5
C6
330
1F
100
AcDbEntity
  8
0-0
  6
JWW_HOJO
 62
     7
370
     9
100
AcDbLine
 10
1787.548530227399
 20
2269.089470613947
 30
0.0
 11
1708.259208346054
 21
2348.378792495291
 31
0.0
  0
LINE
  5
C7
330
1F
100
AcDbEntity
  8
0-B
  6
Continuous
 62
   120
370
     5
100
AcDbLine
 10
1800.936877875717
 20
2326.411801084282
 30
0.0
 11
1765.58153881639
 21
2291.056462024954
 31
0.0
  0
LINE
  5
C8
330
1F
100
AcDbEntity
  8
0-B
  6
Continuous
 62
   120
370
     5
100
AcDbLine
 10
1765.58153881639
 20
2361.76714014361
 30
0.0
 11
1730.226199757062
 21
2326.411801084282
 31
0.0
  0
LWPOLYLINE
  5
C9
330
1F
100
AcDbEntity
  8
0-B
  6
Continuous
 62
     7
370
     9
100
AcDbPolyline
 90
        4
 70
     1
 43
2.0
 10
1801.936877875717
 20
2326.411801084282
 42
0.4142135623731
 10
1800.936877875717
 20
2327.411801084282
 42
0.4142135623731
 10
1799.936877875717
 20
2326.411801084282
 42
0.4142135623731
 10
1800.936877875717
 20
2325.411801084282
 42
0.4142135623731
  0
LWPOLYLINE
  5
CA
330
1F
100
AcDbEntity
  8
0-B
  6
Continuous
 62
     7
370
     9
100
AcDbPolyline
 90
        4
 70
     1
 43
2.0
 10
1766.58153881639
 20
2361.76714014361
 42
0.4142135623731
 10
1765.58153881639
 20
2362.76714014361
 42
0.4142135623731
 10
1764.58153881639
 20
2361.76714014361
 42
0.4142135623731
 10
1765.58153881639
 20
2360.76714014361
 42
0.4142135623731
  0
LINE
  5
CB
330
1F
100
AcDbEntity
  8
0-B
  6
Continuous
 62
   120
370
     5
100
AcDbLine
 10
1765.58153881639
 20
2361.76714014361
 30
0.0
 11
1800.936877875717
 21
2326.411801084282
 31
0.0
  0
LINE
  5
CC
330
1F
100
AcDbEntity
  8
0-4
  6
Continuous
 62
    92
370
    13
100
AcDbLine
 10
1732.548530227399
 20
2260.952385624098
 30
0.0
 11
1732.548530227399
 21
1953.378792495291
 31
0.0
  0
LINE
  5
CD
330
1F
100
AcDbEntity
  8
0-4
  6
Continuous
 62
    92
370
    13
100
AcDbLine
 10
1732.548530227399
 20
2260.952385624098
 30
0.0
 11
1700.122123356206
 21
2293.378792495291
 31
0.0
  0
LINE
  5
CE
330
1F
100
AcDbEntity
  8
0-4
  6
Continuous
 62
    92
370
    13
100
AcDbLine
 10
1700.122123356206
 20
2293.378792495291
 30
0.0
 11
1467.548530227399
 21
2293.378792495291
 31
0.0
  0
LINE
  5
CF
330
1F
100
AcDbEntity
  8
0-4
  6
Continuous
 62
    92
370
    13
100
AcDbLine
 10
1737.548530227399
 20
2263.023453435963
 30
0.0
 11
1702.193191168072
 21
2298.378792495291
 31
0.0
  0
LINE
  5
D0
330
1F
100
AcDbEntity
  8
0-4
  6
Continuous
 62
    92
370
    13
100
AcDbLine
 10
1702.193191168072
 20
2298.378792495291
 30
0.0
 11
1467.548530227399
 21
2298.378792495291
 31
0.0
  0
LINE
  5
D1
330
1F
100
AcDbEntity
  8
0-4
  6
Continuous
 62
    92
370
    13
100
AcDbLine
 10
1737.548530227399
 20
2263.023453435963
 30
0.0
 11
1737.548530227399
 21
1948.378792495291
 31
0.0
  0
LINE
  5
D2
330
1F
100
AcDbEntity
  8
0-0
  6
JWW_HOJO
 62
     7
370
     9
100
AcDbLine
 10
1837.548530227399
 20
2289.800148732601
 30
0.0
 11
1837.548530227399
 21
1875.469107671933
 31
0.0
  0
LINE
  5
D3
330
1F
100
AcDbEntity
  8
0-0
  6
JWW_HOJO
 62
     7
370
     9
100
AcDbLine
 10
1837.548530227399
 20
2289.800148732601
 30
0.0
 11
1727.813516078361
 21
2399.535162881639
 31
0.0
  0
LINE
  5
D4
330
1F
100
AcDbEntity
  8
0-0
  6
JWW_HOJO
 62
     7
370
     9
100
AcDbLine
 10
1727.813516078361
 20
2399.535162881639
 30
0.0
 11
1367.548530227399
 21
2399.535162881639
 31
0.0
  0
LINE
  5
D5
330
1F
100
AcDbEntity
  8
0-0
  6
JWW_HOJO
 62
     7
370
     9
100
AcDbLine
 10
1787.548530227399
 20
2269.089470613947
 30
0.0
 11
1787.548530227399
 21
1925.469107671933
 31
0.0
  0
LINE
  5
D6
330
1F
100
AcDbEntity
  8
F-0
  6
JWW_HOJO
 62
     7
370
     9
100
AcDbLine
 10
-140.0000824799406
 20
-2530.000002061998
 30
0.0
 11
-140.0000824799406
 21
-2796.666672165329
 31
0.0
  0
LINE
  5
D7
330
1F
100
AcDbEntity
  8
F-0
  6
JWW_HOJO
 62
     7
370
     9
100
AcDbLine
 10
-3498.364917835225
 20
-2530.000002061999
 30
0.0
 11
-3498.364917835225
 21
-2803.333443306588
 31
0.0
  0
LINE
  5
D8
330
1F
100
AcDbEntity
  8
F-1
  6
Continuous
 62
   200
370
    20
100
AcDbLine
 10
3799.999175200592
 20
-2526.666678351325
 30
0.0
 11
-3999.999835040119
 21
-2526.666678351325
 31
0.0
  0
LINE
  5
D9
330
1F
100
AcDbEntity
  8
F-1
  6
Continuous
 62
   200
370
    20
100
AcDbLine
 10
3799.999175200592
 20
-2530.000002061998
 30
0.0
 11
-3999.999835040119
 21
-2530.000002061998
 31
0.0
  0
LINE
  5
DA
330
1F
100
AcDbEntity
  8
F-0
  6
JWW_HOJO
 62
     7
370
     9
100
AcDbLine
 10
2853.332816459038
 20
-2530.000002061998
 30
0.0
 11
2853.332816459038
 21
-2796.666672165329
 31
0.0
  0
LINE
  5
DB
330
1F
100
AcDbEntity
  8
F-0
  6
JWW_HOJO
 62
     7
370
     9
100
AcDbLine
 10
-40.0000824799406
 20
-2530.000002061998
 30
0.0
 11
-40.0000824799406
 21
-2796.666672165329
 31
0.0
  0
LINE
  5
DC
330
1F
100
AcDbEntity
  8
F-0
  6
JWW_HOJO
 62
     7
370
     9
100
AcDbLine
 10
1853.332486539274
 20
-2530.000002061998
 30
0.0
 11
1853.332486539274
 21
-2796.666672165329
 31
0.0
  0
LINE
  5
DD
330
1F
100
AcDbEntity
  8
F-0
  6
JWW_HOJO
 62
     7
370
     9
100
AcDbLine
 10
-99.99999262927702
 20
-2566.66649147874
 30
0.0
 11
3793.332741349819
 21
-2566.670110286145
 31
0.0
  0
LINE
  5
DE
330
1F
100
AcDbEntity
  8
F-0
  6
JWW_HOJO
 62
     7
370
     9
100
AcDbLine
 10
-100.0000483985781
 20
-2626.666491478713
 30
0.0
 11
3793.332685580518
 21
-2626.670110286119
 31
0.0
  0
LINE
  5
DF
330
1F
100
AcDbEntity
  8
F-0
  6
JWW_HOJO
 62
     7
370
     9
100
AcDbLine
 10
-100.0001165610581
 20
-2699.999826518681
 30
0.0
 11
3793.332617418037
 21
-2700.003445326087
 31
0.0
  0
LINE
  5
E0
330
1F
100
AcDbEntity
  8
F-0
  6
JWW_HOJO
 62
     7
370
     9
100
AcDbLine
 10
-100.0001723303592
 20
-2759.999826518655
 30
0.0
 11
3793.332561648736
 21
-2760.003445326061
 31
0.0
  0
LINE
  5
E1
330
1F
100
AcDbEntity
  8
F-0
  6
JWW_HOJO
 62
     7
370
     9
100
AcDbLine
 10
-3993.333326803671
 20
-2723.333290718927
 30
0.0
 11
-100.0000824799406
 21
-2723.333290718927
 31
0.0
  0
LINE
  5
E2
330
1F
100
AcDbEntity
  8
F-0
  6
JWW_HOJO
 62
     7
370
     9
100
AcDbLine
 10
-3993.333326803671
 20
-2603.333290718927
 30
0.0
 11
-100.0000824799406
 21
-2603.333290718927
 31
0.0
  0
LINE
  5
E3
330
1F
100
AcDbEntity
  8
F-0
  6
JWW_HOJO
 62
     7
370
     9
100
AcDbLine
 10
-3993.333326803671
 20
-2663.333290718927
 30
0.0
 11
-100.0000824799406
 21
-2663.333290718927
 31
0.0
  0
LINE
  5
E4
330
1F
100
AcDbEntity
  8
F-1
  6
Continuous
 62
   200
370
    20
100
AcDbLine
 10
-100.0000824799406
 20
-2663.333290718697
 30
0.0
 11
3793.332651499156
 21
-2663.336909526103
 31
0.0
  0
LINE
  5
E5
330
1F
100
AcDbEntity
  8
F-1
  6
Continuous
 62
   200
370
    20
100
AcDbLine
 10
-100.0000824799406
 20
-2530.000002061998
 30
0.0
 11
-100.0000824799406
 21
-2796.666672165329
 31
0.0
  0
LINE
  5
E6
330
1F
100
AcDbEntity
  8
F-1
  6
Continuous
 62
   200
370
    20
100
AcDbLine
 10
1793.332486539274
 20
-2530.000002061998
 30
0.0
 11
1793.332486539274
 21
-2796.666672165329
 31
0.0
  0
LINE
  5
E7
330
1F
100
AcDbEntity
  8
F-1
  6
Continuous
 62
   200
370
    20
100
AcDbLine
 10
2793.332816459038
 20
-2530.000002061998
 30
0.0
 11
2793.332816459038
 21
-2796.666672165329
 31
0.0
  0
LINE
  5
E8
330
1F
100
AcDbEntity
  8
F-1
  6
Continuous
 62
   200
370
    20
100
AcDbLine
 10
3799.999175200592
 20
-2796.666672165329
 30
0.0
 11
-3999.999835040119
 21
-2796.666672165329
 31
0.0
  0
LINE
  5
E9
330
1F
100
AcDbEntity
  8
F-1
  6
Continuous
 62
   200
370
    20
100
AcDbLine
 10
3799.999175200592
 20
-2799.999995876003
 30
0.0
 11
-3999.999835040119
 21
-2799.999995876003
 31
0.0
  0
LINE
  5
EA
330
1F
100
AcDbEntity
  8
F-1
  6
Continuous
 62
   200
370
    20
100
AcDbLine
 10
3799.999175200592
 20
-2803.333335051665
 30
0.0
 11
-3999.999835040119
 21
-2803.333335051665
 31
0.0
  0
LINE
  5
EB
330
1F
100
AcDbEntity
  8
F-0
  6
JWW_HOJO
 62
     7
370
     9
100
AcDbLine
 10
233.3332783467063
 20
-2530.000002061998
 30
0.0
 11
233.3332783467063
 21
-2796.666672165329
 31
0.0
  0
LINE
  5
EC
330
1F
100
AcDbEntity
  8
F-0
  6
JWW_HOJO
 62
     7
370
     9
100
AcDbLine
 10
566.6663917335308
 20
-2530.000002061998
 30
0.0
 11
566.6663917335308
 21
-2796.666672165329
 31
0.0
  0
LINE
  5
ED
330
1F
100
AcDbEntity
  8
0-B
  6
Continuous
 62
   120
370
     5
100
AcDbLine
 10
1277.548530227399
 20
-1256.381951917277
 30
0.0
 11
1277.548530227399
 21
-1206.381951917277
 31
0.0
  0
LWPOLYLINE
  5
EE
330
1F
100
AcDbEntity
  8
0-B
  6
Continuous
 62
     7
370
     9
100
AcDbPolyline
 90
        4
 70
     1
 43
2.0
 10
1278.548530227399
 20
-1256.381951917277
 42
0.4142135623731
 10
1277.548530227399
 20
-1255.381951917277
 42
0.4142135623731
 10
1276.548530227399
 20
-1256.381951917277
 42
0.4142135623731
 10
1277.548530227399
 20
-1257.381951917277
 42
0.4142135623731
  0
LINE
  5
EF
330
1F
100
AcDbEntity
  8
0-B
  6
Continuous
 62
   120
370
     5
100
AcDbLine
 10
1737.548530227399
 20
-1256.381951917277
 30
0.0
 11
1737.548530227399
 21
-1206.381951917277
 31
0.0
  0
LWPOLYLINE
  5
F0
330
1F
100
AcDbEntity
  8
0-B
  6
Continuous
 62
     7
370
     9
100
AcDbPolyline
 90
        4
 70
     1
 43
2.0
 10
1738.548530227399
 20
-1256.381951917277
 42
0.4142135623731
 10
1737.548530227399
 20
-1255.381951917277
 42
0.4142135623731
 10
1736.548530227399
 20
-1256.381951917277
 42
0.4142135623731
 10
1737.548530227399
 20
-1257.381951917277
 42
0.4142135623731
  0
LINE
  5
F1
330
1F
100
AcDbEntity
  8
0-B
  6
Continuous
 62
   120
370
     5
100
AcDbLine
 10
1277.548530227399
 20
-1256.381951917277
 30
0.0
 11
1737.548530227399
 21
-1256.381951917277
 31
0.0
  0
LINE
  5
F2
330
1F
100
AcDbEntity
  8
0-B
  6
Continuous
 62
   120
370
     5
100
AcDbLine
 10
1657.548530227399
 20
-1256.381951917277
 30
0.0
 11
1657.548530227399
 21
-1206.381951917277
 31
0.0
  0
LWPOLYLINE
  5
F3
330
1F
100
AcDbEntity
  8
0-B
  6
Continuous
 62
     7
370
     9
100
AcDbPolyline
 90
        4
 70
     1
 43
2.0
 10
1658.548530227399
 20
-1256.381951917277
 42
0.4142135623731
 10
1657.548530227399
 20
-1255.381951917277
 42
0.4142135623731
 10
1656.548530227399
 20
-1256.381951917277
 42
0.4142135623731
 10
1657.548530227399
 20
-1257.381951917277
 42
0.4142135623731
  0
LINE
  5
F4
330
1F
100
AcDbEntity
  8
0-0
  6
JWW_HOJO
 62
     7
370
     9
100
AcDbLine
 10
1177.548530227399
 20
-1256.381951917277
 30
0.0
 11
1837.548530227399
 21
-1256.381951917277
 31
0.0
  0
LINE
  5
F5
330
1F
100
AcDbEntity
  8
0-0
  6
JWW_HOJO
 62
     7
370
     9
100
AcDbLine
 10
1227.548530227399
 20
-1206.381951917277
 30
0.0
 11
1787.548530227399
 21
-1206.381951917277
 31
0.0
  0
LINE
  5
F6
330
1F
100
AcDbEntity
  8
0-B
  6
Continuous
 62
   120
370
     5
100
AcDbLine
 10
1177.548530227399
 20
-921.1173969895486
 30
0.0
 11
1227.548530227399
 21
-921.1173969895486
 31
0.0
  0
LINE
  5
F7
330
1F
100
AcDbEntity
  8
0-B
  6
Continuous
 62
   120
370
     5
100
AcDbLine
 10
1177.548530227399
 20
-833.1173969895485
 30
0.0
 11
1227.548530227399
 21
-833.1173969895485
 31
0.0
  0
LWPOLYLINE
  5
F8
330
1F
100
AcDbEntity
  8
0-B
  6
Continuous
 62
     7
370
     9
100
AcDbPolyline
 90
        4
 70
     1
 43
2.0
 10
1178.548530227399
 20
-921.1173969895486
 42
0.4142135623731
 10
1177.548530227399
 20
-920.1173969895488
 42
0.4142135623731
 10
1176.548530227399
 20
-921.1173969895486
 42
0.4142135623731
 10
1177.548530227399
 20
-922.1173969895485
 42
0.4142135623731
  0
LWPOLYLINE
  5
F9
330
1F
100
AcDbEntity
  8
0-B
  6
Continuous
 62
     7
370
     9
100
AcDbPolyline
 90
        4
 70
     1
 43
2.0
 10
1178.548530227399
 20
-833.1173969895485
 42
0.4142135623731
 10
1177.548530227399
 20
-832.1173969895485
 42
0.4142135623731
 10
1176.548530227399
 20
-833.1173969895485
 42
0.4142135623731
 10
1177.548530227399
 20
-834.1173969895485
 42
0.4142135623731
  0
LINE
  5
FA
330
1F
100
AcDbEntity
  8
0-B
  6
Continuous
 62
   120
370
     5
100
AcDbLine
 10
1177.548530227399
 20
-833.1173969895485
 30
0.0
 11
1177.548530227399
 21
-921.1173969895486
 31
0.0
  0
LINE
  5
FB
330
1F
100
AcDbEntity
  8
0-B
  6
Continuous
 62
   120
370
     5
100
AcDbLine
 10
1837.548530227399
 20
-1183.117396989549
 30
0.0
 11
1787.548530227399
 21
-1183.117396989549
 31
0.0
  0
LINE
  5
FC
330
1F
100
AcDbEntity
  8
0-B
  6
Continuous
 62
   120
370
     5
100
AcDbLine
 10
1837.548530227399
 20
-833.1173969895485
 30
0.0
 11
1787.548530227399
 21
-833.1173969895485
 31
0.0
  0
LWPOLYLINE
  5
FD
330
1F
100
AcDbEntity
  8
0-B
  6
Continuous
 62
     7
370
     9
100
AcDbPolyline
 90
        4
 70
     1
 43
2.0
 10
1838.548530227399
 20
-1183.117396989549
 42
0.4142135623731
 10
1837.548530227399
 20
-1182.117396989549
 42
0.4142135623731
 10
1836.548530227399
 20
-1183.117396989549
 42
0.4142135623731
 10
1837.548530227399
 20
-1184.117396989549
 42
0.4142135623731
  0
LWPOLYLINE
  5
FE
330
1F
100
AcDbEntity
  8
0-B
  6
Continuous
 62
     7
370
     9
100
AcDbPolyline
 90
        4
 70
     1
 43
2.0
 10
1838.548530227399
 20
-833.1173969895485
 42
0.4142135623731
 10
1837.548530227399
 20
-832.1173969895485
 42
0.4142135623731
 10
1836.548530227399
 20
-833.1173969895485
 42
0.4142135623731
 10
1837.548530227399
 20
-834.1173969895485
 42
0.4142135623731
  0
LINE
  5
FF
330
1F
100
AcDbEntity
  8
0-B
  6
Continuous
 62
   120
370
     5
100
AcDbLine
 10
1837.548530227399
 20
-833.1173969895485
 30
0.0
 11
1837.548530227399
 21
-1183.117396989549
 31
0.0
  0
LINE
  5
100
330
1F
100
AcDbEntity
  8
0-4
  6
Continuous
 62
    92
370
    13
100
AcDbLine
 10
1277.548530227399
 20
-921.1173969895486
 30
0.0
 11
1657.548530227399
 21
-921.1173969895486
 31
0.0
  0
LINE
  5
101
330
1F
100
AcDbEntity
  8
0-4
  6
Continuous
 62
    92
370
    13
100
AcDbLine
 10
1277.548530227399
 20
-833.1173969895485
 30
0.0
 11
1277.548530227399
 21
-921.1173969895486
 31
0.0
  0
LINE
  5
102
330
1F
100
AcDbEntity
  8
0-4
  6
Continuous
 62
    92
370
    13
100
AcDbLine
 10
1657.548530227399
 20
-1178.117396989549
 30
0.0
 11
1732.548530227399
 21
-1178.117396989549
 31
0.0
  0
LINE
  5
103
330
1F
100
AcDbEntity
  8
0-4
  6
Continuous
 62
    92
370
    13
100
AcDbLine
 10
1657.548530227399
 20
-1183.117396989549
 30
0.0
 11
1737.548530227399
 21
-1183.117396989549
 31
0.0
  0
LINE
  5
104
330
1F
100
AcDbEntity
  8
0-4
  6
Continuous
 62
    92
370
    13
100
AcDbLine
 10
1657.548530227399
 20
-1183.117396989549
 30
0.0
 11
1657.548530227399
 21
-921.1173969895486
 31
0.0
  0
LINE
  5
105
330
1F
100
AcDbEntity
  8
0-B
  6
Continuous
 62
   120
370
     5
100
AcDbLine
 10
1407.548530227399
 20
-10.32960083170167
 30
0.0
 11
1407.548530227399
 21
39.67039916829833
 31
0.0
  0
LWPOLYLINE
  5
106
330
1F
100
AcDbEntity
  8
0-B
  6
Continuous
 62
     7
370
     9
100
AcDbPolyline
 90
        4
 70
     1
 43
2.0
 10
1408.548530227399
 20
-10.32960083170167
 42
0.4142135623731
 10
1407.548530227399
 20
-9.329600831701669
 42
0.4142135623731
 10
1406.548530227399
 20
-10.32960083170167
 42
0.4142135623731
 10
1407.548530227399
 20
-11.32960083170167
 42
0.4142135623731
  0
LINE
  5
107
330
1F
100
AcDbEntity
  8
0-B
  6
Continuous
 62
   120
370
     5
100
AcDbLine
 10
1737.548530227399
 20
-10.32960083170167
 30
0.0
 11
1737.548530227399
 21
39.67039916829833
 31
0.0
  0
LWPOLYLINE
  5
108
330
1F
100
AcDbEntity
  8
0-B
  6
Continuous
 62
     7
370
     9
100
AcDbPolyline
 90
        4
 70
     1
 43
2.0
 10
1738.548530227399
 20
-10.32960083170167
 42
0.4142135623731
 10
1737.548530227399
 20
-9.329600831701669
 42
0.4142135623731
 10
1736.548530227399
 20
-10.32960083170167
 42
0.4142135623731
 10
1737.548530227399
 20
-11.32960083170167
 42
0.4142135623731
  0
LINE
  5
109
330
1F
100
AcDbEntity
  8
0-B
  6
Continuous
 62
   120
370
     5
100
AcDbLine
 10
1407.548530227399
 20
-10.32960083170167
 30
0.0
 11
1737.548530227399
 21
-10.32960083170167
 31
0.0
  0
LINE
  5
10A
330
1F
100
AcDbEntity
  8
0-B
  6
Continuous
 62
   120
370
     5
100
AcDbLine
 10
1657.548530227399
 20
-10.32960083170167
 30
0.0
 11
1657.548530227399
 21
39.67039916829833
 31
0.0
  0
LWPOLYLINE
  5
10B
330
1F
100
AcDbEntity
  8
0-B
  6
Continuous
 62
     7
370
     9
100
AcDbPolyline
 90
        4
 70
     1
 43
2.0
 10
1658.548530227399
 20
-10.32960083170167
 42
0.4142135623731
 10
1657.548530227399
 20
-9.329600831701669
 42
0.4142135623731
 10
1656.548530227399
 20
-10.32960083170167
 42
0.4142135623731
 10
1657.548530227399
 20
-11.32960083170167
 42
0.4142135623731
  0
LINE
  5
10C
330
1F
100
AcDbEntity
  8
0-0
  6
JWW_HOJO
 62
     7
370
     9
100
AcDbLine
 10
1307.548530227399
 20
-10.32960083170167
 30
0.0
 11
1837.548530227399
 21
-10.32960083170167
 31
0.0
  0
LINE
  5
10D
330
1F
100
AcDbEntity
  8
0-0
  6
JWW_HOJO
 62
     7
370
     9
100
AcDbLine
 10
1357.548530227399
 20
39.67039916829833
 30
0.0
 11
1787.548530227399
 21
39.67039916829833
 31
0.0
  0
LINE
  5
10E
330
1F
100
AcDbEntity
  8
0-B
  6
Continuous
 62
   120
370
     5
100
AcDbLine
 10
1307.548530227399
 20
335.0445246625952
 30
0.0
 11
1357.548530227399
 21
335.0445246625952
 31
0.0
  0
LINE
  5
10F
330
1F
100
AcDbEntity
  8
0-B
  6
Continuous
 62
   120
370
     5
100
AcDbLine
 10
1307.548530227399
 20
423.0445246625959
 30
0.0
 11
1357.548530227399
 21
423.0445246625959
 31
0.0
  0
LWPOLYLINE
  5
110
330
1F
100
AcDbEntity
  8
0-B
  6
Continuous
 62
     7
370
     9
100
AcDbPolyline
 90
        4
 70
     1
 43
2.0
 10
1308.548530227399
 20
335.0445246625952
 42
0.4142135623731
 10
1307.548530227399
 20
336.0445246625952
 42
0.4142135623731
 10
1306.548530227399
 20
335.0445246625952
 42
0.4142135623731
 10
1307.548530227399
 20
334.0445246625952
 42
0.4142135623731
  0
LWPOLYLINE
  5
111
330
1F
100
AcDbEntity
  8
0-B
  6
Continuous
 62
     7
370
     9
100
AcDbPolyline
 90
        4
 70
     1
 43
2.0
 10
1308.548530227399
 20
423.0445246625959
 42
0.4142135623731
 10
1307.548530227399
 20
424.0445246625959
 42
0.4142135623731
 10
1306.548530227399
 20
423.0445246625959
 42
0.4142135623731
 10
1307.548530227399
 20
422.0445246625959
 42
0.4142135623731
  0
LINE
  5
112
330
1F
100
AcDbEntity
  8
0-B
  6
Continuous
 62
   120
370
     5
100
AcDbLine
 10
1307.548530227399
 20
423.0445246625959
 30
0.0
 11
1307.548530227399
 21
335.0445246625952
 31
0.0
  0
LINE
  5
113
330
1F
100
AcDbEntity
  8
0-B
  6
Continuous
 62
   120
370
     5
100
AcDbLine
 10
1837.548530227399
 20
73.0445246625959
 30
0.0
 11
1787.548530227399
 21
73.0445246625959
 31
0.0
  0
LINE
  5
114
330
1F
100
AcDbEntity
  8
0-B
  6
Continuous
 62
   120
370
     5
100
AcDbLine
 10
1837.548530227399
 20
423.0445246625959
 30
0.0
 11
1787.548530227399
 21
423.0445246625959
 31
0.0
  0
LWPOLYLINE
  5
115
330
1F
100
AcDbEntity
  8
0-B
  6
Continuous
 62
     7
370
     9
100
AcDbPolyline
 90
        4
 70
     1
 43
2.0
 10
1838.548530227399
 20
73.0445246625959
 42
0.4142135623731
 10
1837.548530227399
 20
74.0445246625959
 42
0.4142135623731
 10
1836.548530227399
 20
73.0445246625959
 42
0.4142135623731
 10
1837.548530227399
 20
72.0445246625959
 42
0.4142135623731
  0
LWPOLYLINE
  5
116
330
1F
100
AcDbEntity
  8
0-B
  6
Continuous
 62
     7
370
     9
100
AcDbPolyline
 90
        4
 70
     1
 43
2.0
 10
1838.548530227399
 20
423.0445246625959
 42
0.4142135623731
 10
1837.548530227399
 20
424.0445246625959
 42
0.4142135623731
 10
1836.548530227399
 20
423.0445246625959
 42
0.4142135623731
 10
1837.548530227399
 20
422.0445246625959
 42
0.4142135623731
  0
LINE
  5
117
330
1F
100
AcDbEntity
  8
0-B
  6
Continuous
 62
   120
370
     5
100
AcDbLine
 10
1837.548530227399
 20
423.0445246625959
 30
0.0
 11
1837.548530227399
 21
73.0445246625959
 31
0.0
  0
LINE
  5
118
330
1F
100
AcDbEntity
  8
0-4
  6
Continuous
 62
    92
370
    13
100
AcDbLine
 10
1407.548530227399
 20
335.0445246625952
 30
0.0
 11
1657.548530227399
 21
335.0445246625952
 31
0.0
  0
LINE
  5
119
330
1F
100
AcDbEntity
  8
0-4
  6
Continuous
 62
    92
370
    13
100
AcDbLine
 10
1407.548530227399
 20
423.0445246625959
 30
0.0
 11
1407.548530227399
 21
335.0445246625952
 31
0.0
  0
LINE
  5
11A
330
1F
100
AcDbEntity
  8
0-4
  6
Continuous
 62
    92
370
    13
100
AcDbLine
 10
1657.548530227399
 20
78.0445246625959
 30
0.0
 11
1732.548530227399
 21
78.0445246625959
 31
0.0
  0
LINE
  5
11B
330
1F
100
AcDbEntity
  8
0-4
  6
Continuous
 62
    92
370
    13
100
AcDbLine
 10
1657.548530227399
 20
73.0445246625959
 30
0.0
 11
1737.548530227399
 21
73.0445246625959
 31
0.0
  0
LINE
  5
11C
330
1F
100
AcDbEntity
  8
0-4
  6
Continuous
 62
    92
370
    13
100
AcDbLine
 10
1657.548530227399
 20
73.0445246625959
 30
0.0
 11
1657.548530227399
 21
335.0445246625952
 31
0.0
  0
LINE
  5
11D
330
1F
100
AcDbEntity
  8
0-B
  6
Continuous
 62
   120
370
     5
100
AcDbLine
 10
1737.548530227399
 20
1252.514978847701
 30
0.0
 11
1737.548530227399
 21
1302.514978847701
 31
0.0
  0
LWPOLYLINE
  5
11E
330
1F
100
AcDbEntity
  8
0-B
  6
Continuous
 62
     7
370
     9
100
AcDbPolyline
 90
        4
 70
     1
 43
2.0
 10
1738.548530227399
 20
1252.514978847701
 42
0.4142135623731
 10
1737.548530227399
 20
1253.514978847701
 42
0.4142135623731
 10
1736.548530227399
 20
1252.514978847701
 42
0.4142135623731
 10
1737.548530227399
 20
1251.514978847701
 42
0.4142135623731
  0
LINE
  5
11F
330
1F
100
AcDbEntity
  8
0-B
  6
Continuous
 62
   120
370
     5
100
AcDbLine
 10
1657.548530227399
 20
1252.514978847701
 30
0.0
 11
1657.548530227399
 21
1302.514978847701
 31
0.0
  0
LINE
  5
120
330
1F
100
AcDbEntity
  8
0-B
  6
Continuous
 62
   120
370
     5
100
AcDbLine
 10
1507.548530227399
 20
1252.514978847701
 30
0.0
 11
1507.548530227399
 21
1302.514978847701
 31
0.0
  0
LWPOLYLINE
  5
121
330
1F
100
AcDbEntity
  8
0-B
  6
Continuous
 62
     7
370
     9
100
AcDbPolyline
 90
        4
 70
     1
 43
2.0
 10
1658.548530227399
 20
1252.514978847701
 42
0.4142135623731
 10
1657.548530227399
 20
1253.514978847701
 42
0.4142135623731
 10
1656.548530227399
 20
1252.514978847701
 42
0.4142135623731
 10
1657.548530227399
 20
1251.514978847701
 42
0.4142135623731
  0
LWPOLYLINE
  5
122
330
1F
100
AcDbEntity
  8
0-B
  6
Continuous
 62
     7
370
     9
100
AcDbPolyline
 90
        4
 70
     1
 43
2.0
 10
1508.548530227399
 20
1252.514978847701
 42
0.4142135623731
 10
1507.548530227399
 20
1253.514978847701
 42
0.4142135623731
 10
1506.548530227399
 20
1252.514978847701
 42
0.4142135623731
 10
1507.548530227399
 20
1251.514978847701
 42
0.4142135623731
  0
LINE
  5
123
330
1F
100
AcDbEntity
  8
0-B
  6
Continuous
 62
   120
370
     5
100
AcDbLine
 10
1507.548530227399
 20
1252.514978847701
 30
0.0
 11
1737.548530227399
 21
1252.514978847701
 31
0.0
  0
LINE
  5
124
330
1F
100
AcDbEntity
  8
0-0
  6
JWW_HOJO
 62
     7
370
     9
100
AcDbLine
 10
1407.548530227399
 20
1252.514978847701
 30
0.0
 11
1837.548530227399
 21
1252.514978847701
 31
0.0
  0
LINE
  5
125
330
1F
100
AcDbEntity
  8
0-0
  6
JWW_HOJO
 62
     7
370
     9
100
AcDbLine
 10
1457.548530227399
 20
1302.514978847701
 30
0.0
 11
1787.548530227399
 21
1302.514978847701
 31
0.0
  0
LINE
  5
126
330
1F
100
AcDbEntity
  8
0-B
  6
Continuous
 62
   120
370
     5
100
AcDbLine
 10
1837.548530227399
 20
1321.755832259964
 30
0.0
 11
1787.548530227399
 21
1321.755832259964
 31
0.0
  0
LINE
  5
127
330
1F
100
AcDbEntity
  8
0-B
  6
Continuous
 62
   120
370
     5
100
AcDbLine
 10
1837.548530227399
 20
1671.755832259964
 30
0.0
 11
1787.548530227399
 21
1671.755832259964
 31
0.0
  0
LWPOLYLINE
  5
128
330
1F
100
AcDbEntity
  8
0-B
  6
Continuous
 62
     7
370
     9
100
AcDbPolyline
 90
        4
 70
     1
 43
2.0
 10
1838.548530227399
 20
1321.755832259964
 42
0.4142135623731
 10
1837.548530227399
 20
1322.755832259964
 42
0.4142135623731
 10
1836.548530227399
 20
1321.755832259964
 42
0.4142135623731
 10
1837.548530227399
 20
1320.755832259964
 42
0.4142135623731
  0
LWPOLYLINE
  5
129
330
1F
100
AcDbEntity
  8
0-B
  6
Continuous
 62
     7
370
     9
100
AcDbPolyline
 90
        4
 70
     1
 43
2.0
 10
1838.548530227399
 20
1671.755832259964
 42
0.4142135623731
 10
1837.548530227399
 20
1672.755832259964
 42
0.4142135623731
 10
1836.548530227399
 20
1671.755832259964
 42
0.4142135623731
 10
1837.548530227399
 20
1670.755832259964
 42
0.4142135623731
  0
LINE
  5
12A
330
1F
100
AcDbEntity
  8
0-B
  6
Continuous
 62
   120
370
     5
100
AcDbLine
 10
1837.548530227399
 20
1671.755832259964
 30
0.0
 11
1837.548530227399
 21
1321.755832259964
 31
0.0
  0
LINE
  5
12B
330
1F
100
AcDbEntity
  8
0-B
  6
Continuous
 62
   120
370
     5
100
AcDbLine
 10
1407.548530227399
 20
1583.755832259964
 30
0.0
 11
1457.548530227399
 21
1583.755832259964
 31
0.0
  0
LINE
  5
12C
330
1F
100
AcDbEntity
  8
0-B
  6
Continuous
 62
   120
370
     5
100
AcDbLine
 10
1407.548530227399
 20
1671.755832259964
 30
0.0
 11
1457.548530227399
 21
1671.755832259964
 31
0.0
  0
LWPOLYLINE
  5
12D
330
1F
100
AcDbEntity
  8
0-B
  6
Continuous
 62
     7
370
     9
100
AcDbPolyline
 90
        4
 70
     1
 43
2.0
 10
1408.548530227399
 20
1583.755832259964
 42
0.4142135623731
 10
1407.548530227399
 20
1584.755832259964
 42
0.4142135623731
 10
1406.548530227399
 20
1583.755832259964
 42
0.4142135623731
 10
1407.548530227399
 20
1582.755832259964
 42
0.4142135623731
  0
LWPOLYLINE
  5
12E
330
1F
100
AcDbEntity
  8
0-B
  6
Continuous
 62
     7
370
     9
100
AcDbPolyline
 90
        4
 70
     1
 43
2.0
 10
1408.548530227399
 20
1671.755832259964
 42
0.4142135623731
 10
1407.548530227399
 20
1672.755832259964
 42
0.4142135623731
 10
1406.548530227399
 20
1671.755832259964
 42
0.4142135623731
 10
1407.548530227399
 20
1670.755832259964
 42
0.4142135623731
  0
LINE
  5
12F
330
1F
100
AcDbEntity
  8
0-B
  6
Continuous
 62
   120
370
     5
100
AcDbLine
 10
1407.548530227399
 20
1671.755832259964
 30
0.0
 11
1407.548530227399
 21
1583.755832259964
 31
0.0
  0
LINE
  5
130
330
1F
100
AcDbEntity
  8
0-4
  6
Continuous
 62
    92
370
    13
100
AcDbLine
 10
1657.548530227399
 20
1326.755832259964
 30
0.0
 11
1732.548530227399
 21
1326.755832259964
 31
0.0
  0
LINE
  5
131
330
1F
100
AcDbEntity
  8
0-4
  6
Continuous
 62
    92
370
    13
100
AcDbLine
 10
1657.548530227399
 20
1321.755832259964
 30
0.0
 11
1737.548530227399
 21
1321.755832259964
 31
0.0
  0
LINE
  5
132
330
1F
100
AcDbEntity
  8
0-4
  6
Continuous
 62
    92
370
    13
100
AcDbLine
 10
1657.548530227399
 20
1321.755832259964
 30
0.0
 11
1657.548530227399
 21
1583.755832259964
 31
0.0
  0
LINE
  5
133
330
1F
100
AcDbEntity
  8
0-4
  6
Continuous
 62
    92
370
    13
100
AcDbLine
 10
1507.548530227399
 20
1583.755832259964
 30
0.0
 11
1657.548530227399
 21
1583.755832259964
 31
0.0
  0
LINE
  5
134
330
1F
100
AcDbEntity
  8
0-4
  6
Continuous
 62
    92
370
    13
100
AcDbLine
 10
1507.548530227399
 20
1671.755832259964
 30
0.0
 11
1507.548530227399
 21
1583.755832259964
 31
0.0
  0
LINE
  5
135
330
1F
100
AcDbEntity
  8
0-B
  6
Continuous
 62
   120
370
     5
100
AcDbLine
 10
1237.548530227399
 20
-630.0516671710284
 30
0.0
 11
1237.548530227399
 21
-580.0516671710284
 31
0.0
  0
LWPOLYLINE
  5
136
330
1F
100
AcDbEntity
  8
0-B
  6
Continuous
 62
     7
370
     9
100
AcDbPolyline
 90
        4
 70
     1
 43
2.0
 10
1238.548530227399
 20
-630.0516671710284
 42
0.4142135623731
 10
1237.548530227399
 20
-629.0516671710284
 42
0.4142135623731
 10
1236.548530227399
 20
-630.0516671710284
 42
0.4142135623731
 10
1237.548530227399
 20
-631.0516671710284
 42
0.4142135623731
  0
LINE
  5
137
330
1F
100
AcDbEntity
  8
0-0
  6
JWW_HOJO
 62
     7
370
     9
100
AcDbLine
 10
1137.548530227399
 20
-630.0516671710284
 30
0.0
 11
1837.548530227399
 21
-630.0516671710284
 31
0.0
  0
LINE
  5
138
330
1F
100
AcDbEntity
  8
0-0
  6
JWW_HOJO
 62
     7
370
     9
100
AcDbLine
 10
1187.548530227399
 20
-580.0516671710284
 30
0.0
 11
1787.548530227399
 21
-580.0516671710284
 31
0.0
  0
LINE
  5
139
330
1F
100
AcDbEntity
  8
0-B
  6
Continuous
 62
   120
370
     5
100
AcDbLine
 10
1737.548530227399
 20
-630.0516671710284
 30
0.0
 11
1737.548530227399
 21
-580.0516671710284
 31
0.0
  0
LWPOLYLINE
  5
13A
330
1F
100
AcDbEntity
  8
0-B
  6
Continuous
 62
     7
370
     9
100
AcDbPolyline
 90
        4
 70
     1
 43
2.0
 10
1738.548530227399
 20
-630.0516671710284
 42
0.4142135623731
 10
1737.548530227399
 20
-629.0516671710284
 42
0.4142135623731
 10
1736.548530227399
 20
-630.0516671710284
 42
0.4142135623731
 10
1737.548530227399
 20
-631.0516671710284
 42
0.4142135623731
  0
LINE
  5
13B
330
1F
100
AcDbEntity
  8
0-B
  6
Continuous
 62
   120
370
     5
100
AcDbLine
 10
1237.548530227399
 20
-630.0516671710284
 30
0.0
 11
1737.548530227399
 21
-630.0516671710284
 31
0.0
  0
LINE
  5
13C
330
1F
100
AcDbEntity
  8
0-B
  6
Continuous
 62
   120
370
     5
100
AcDbLine
 10
1617.548530227399
 20
-630.0516671710284
 30
0.0
 11
1617.548530227399
 21
-580.0516671710284
 31
0.0
  0
LWPOLYLINE
  5
13D
330
1F
100
AcDbEntity
  8
0-B
  6
Continuous
 62
     7
370
     9
100
AcDbPolyline
 90
        4
 70
     1
 43
2.0
 10
1618.548530227399
 20
-630.0516671710284
 42
0.4142135623731
 10
1617.548530227399
 20
-629.0516671710284
 42
0.4142135623731
 10
1616.548530227399
 20
-630.0516671710284
 42
0.4142135623731
 10
1617.548530227399
 20
-631.0516671710284
 42
0.4142135623731
  0
LINE
  5
13E
330
1F
100
AcDbEntity
  8
0-B
  6
Continuous
 62
   120
370
     5
100
AcDbLine
 10
1137.548530227399
 20
-294.7871122432991
 30
0.0
 11
1187.548530227399
 21
-294.7871122432991
 31
0.0
  0
LINE
  5
13F
330
1F
100
AcDbEntity
  8
0-B
  6
Continuous
 62
   120
370
     5
100
AcDbLine
 10
1137.548530227399
 20
-206.787112243299
 30
0.0
 11
1187.548530227399
 21
-206.787112243299
 31
0.0
  0
LWPOLYLINE
  5
140
330
1F
100
AcDbEntity
  8
0-B
  6
Continuous
 62
     7
370
     9
100
AcDbPolyline
 90
        4
 70
     1
 43
2.0
 10
1138.548530227399
 20
-294.7871122432991
 42
0.4142135623731
 10
1137.548530227399
 20
-293.7871122432991
 42
0.4142135623731
 10
1136.548530227399
 20
-294.7871122432991
 42
0.4142135623731
 10
1137.548530227399
 20
-295.7871122432991
 42
0.4142135623731
  0
LWPOLYLINE
  5
141
330
1F
100
AcDbEntity
  8
0-B
  6
Continuous
 62
     7
370
     9
100
AcDbPolyline
 90
        4
 70
     1
 43
2.0
 10
1138.548530227399
 20
-206.787112243299
 42
0.4142135623731
 10
1137.548530227399
 20
-205.787112243299
 42
0.4142135623731
 10
1136.548530227399
 20
-206.787112243299
 42
0.4142135623731
 10
1137.548530227399
 20
-207.787112243299
 42
0.4142135623731
  0
LINE
  5
142
330
1F
100
AcDbEntity
  8
0-B
  6
Continuous
 62
   120
370
     5
100
AcDbLine
 10
1137.548530227399
 20
-206.787112243299
 30
0.0
 11
1137.548530227399
 21
-294.7871122432991
 31
0.0
  0
LINE
  5
143
330
1F
100
AcDbEntity
  8
0-4
  6
Continuous
 62
    92
370
    13
100
AcDbLine
 10
1237.548530227399
 20
-294.7871122432991
 30
0.0
 11
1617.548530227399
 21
-294.7871122432991
 31
0.0
  0
LINE
  5
144
330
1F
100
AcDbEntity
  8
0-4
  6
Continuous
 62
    92
370
    13
100
AcDbLine
 10
1237.548530227399
 20
-206.787112243299
 30
0.0
 11
1237.548530227399
 21
-294.7871122432991
 31
0.0
  0
LINE
  5
145
330
1F
100
AcDbEntity
  8
0-B
  6
Continuous
 62
   120
370
     5
100
AcDbLine
 10
1837.548530227399
 20
-556.7871122432994
 30
0.0
 11
1787.548530227399
 21
-556.7871122432994
 31
0.0
  0
LINE
  5
146
330
1F
100
AcDbEntity
  8
0-B
  6
Continuous
 62
   120
370
     5
100
AcDbLine
 10
1837.548530227399
 20
-206.787112243299
 30
0.0
 11
1787.548530227399
 21
-206.787112243299
 31
0.0
  0
LWPOLYLINE
  5
147
330
1F
100
AcDbEntity
  8
0-B
  6
Continuous
 62
     7
370
     9
100
AcDbPolyline
 90
        4
 70
     1
 43
2.0
 10
1838.548530227399
 20
-556.7871122432994
 42
0.4142135623731
 10
1837.548530227399
 20
-555.7871122432992
 42
0.4142135623731
 10
1836.548530227399
 20
-556.7871122432994
 42
0.4142135623731
 10
1837.548530227399
 20
-557.7871122432994
 42
0.4142135623731
  0
LWPOLYLINE
  5
148
330
1F
100
AcDbEntity
  8
0-B
  6
Continuous
 62
     7
370
     9
100
AcDbPolyline
 90
        4
 70
     1
 43
2.0
 10
1838.548530227399
 20
-206.787112243299
 42
0.4142135623731
 10
1837.548530227399
 20
-205.787112243299
 42
0.4142135623731
 10
1836.548530227399
 20
-206.787112243299
 42
0.4142135623731
 10
1837.548530227399
 20
-207.787112243299
 42
0.4142135623731
  0
LINE
  5
149
330
1F
100
AcDbEntity
  8
0-B
  6
Continuous
 62
   120
370
     5
100
AcDbLine
 10
1837.548530227399
 20
-206.787112243299
 30
0.0
 11
1837.548530227399
 21
-556.7871122432994
 31
0.0
  0
LINE
  5
14A
330
1F
100
AcDbEntity
  8
0-4
  6
Continuous
 62
    92
370
    13
100
AcDbLine
 10
1617.548530227399
 20
-551.7871122432994
 30
0.0
 11
1732.548530227399
 21
-551.7871122432994
 31
0.0
  0
LINE
  5
14B
330
1F
100
AcDbEntity
  8
0-4
  6
Continuous
 62
    92
370
    13
100
AcDbLine
 10
1617.548530227399
 20
-556.7871122432994
 30
0.0
 11
1737.548530227399
 21
-556.7871122432994
 31
0.0
  0
LINE
  5
14C
330
1F
100
AcDbEntity
  8
0-4
  6
Continuous
 62
    92
370
    13
100
AcDbLine
 10
1617.548530227399
 20
-556.7871122432994
 30
0.0
 11
1617.548530227399
 21
-294.7871122432991
 31
0.0
  0
LINE
  5
14D
330
1F
100
AcDbEntity
  8
0-B
  6
Continuous
 62
   120
370
     5
100
AcDbLine
 10
1367.548530227399
 20
620.018591955245
 30
0.0
 11
1367.548530227399
 21
670.018591955245
 31
0.0
  0
LWPOLYLINE
  5
14E
330
1F
100
AcDbEntity
  8
0-B
  6
Continuous
 62
     7
370
     9
100
AcDbPolyline
 90
        4
 70
     1
 43
2.0
 10
1368.548530227399
 20
620.018591955245
 42
0.4142135623731
 10
1367.548530227399
 20
621.018591955245
 42
0.4142135623731
 10
1366.548530227399
 20
620.018591955245
 42
0.4142135623731
 10
1367.548530227399
 20
619.018591955245
 42
0.4142135623731
  0
LINE
  5
14F
330
1F
100
AcDbEntity
  8
0-0
  6
JWW_HOJO
 62
     7
370
     9
100
AcDbLine
 10
1267.548530227399
 20
620.018591955245
 30
0.0
 11
1837.548530227399
 21
620.018591955245
 31
0.0
  0
LINE
  5
150
330
1F
100
AcDbEntity
  8
0-0
  6
JWW_HOJO
 62
     7
370
     9
100
AcDbLine
 10
1317.548530227399
 20
670.018591955245
 30
0.0
 11
1787.548530227399
 21
670.018591955245
 31
0.0
  0
LINE
  5
151
330
1F
100
AcDbEntity
  8
0-B
  6
Continuous
 62
   120
370
     5
100
AcDbLine
 10
1737.548530227399
 20
620.018591955245
 30
0.0
 11
1737.548530227399
 21
670.018591955245
 31
0.0
  0
LWPOLYLINE
  5
152
330
1F
100
AcDbEntity
  8
0-B
  6
Continuous
 62
     7
370
     9
100
AcDbPolyline
 90
        4
 70
     1
 43
2.0
 10
1738.548530227399
 20
620.018591955245
 42
0.4142135623731
 10
1737.548530227399
 20
621.018591955245
 42
0.4142135623731
 10
1736.548530227399
 20
620.018591955245
 42
0.4142135623731
 10
1737.548530227399
 20
619.018591955245
 42
0.4142135623731
  0
LINE
  5
153
330
1F
100
AcDbEntity
  8
0-B
  6
Continuous
 62
   120
370
     5
100
AcDbLine
 10
1367.548530227399
 20
620.018591955245
 30
0.0
 11
1737.548530227399
 21
620.018591955245
 31
0.0
  0
LINE
  5
154
330
1F
100
AcDbEntity
  8
0-B
  6
Continuous
 62
   120
370
     5
100
AcDbLine
 10
1617.548530227399
 20
620.018591955245
 30
0.0
 11
1617.548530227399
 21
670.018591955245
 31
0.0
  0
LWPOLYLINE
  5
155
330
1F
100
AcDbEntity
  8
0-B
  6
Continuous
 62
     7
370
     9
100
AcDbPolyline
 90
        4
 70
     1
 43
2.0
 10
1618.548530227399
 20
620.018591955245
 42
0.4142135623731
 10
1617.548530227399
 20
621.018591955245
 42
0.4142135623731
 10
1616.548530227399
 20
620.018591955245
 42
0.4142135623731
 10
1617.548530227399
 20
619.018591955245
 42
0.4142135623731
  0
LINE
  5
156
330
1F
100
AcDbEntity
  8
0-B
  6
Continuous
 62
   120
370
     5
100
AcDbLine
 10
1267.548530227399
 20
965.3927174495425
 30
0.0
 11
1317.548530227399
 21
965.3927174495425
 31
0.0
  0
LINE
  5
157
330
1F
100
AcDbEntity
  8
0-B
  6
Continuous
 62
   120
370
     5
100
AcDbLine
 10
1267.548530227399
 20
1053.392717449542
 30
0.0
 11
1317.548530227399
 21
1053.392717449542
 31
0.0
  0
LWPOLYLINE
  5
158
330
1F
100
AcDbEntity
  8
0-B
  6
Continuous
 62
     7
370
     9
100
AcDbPolyline
 90
        4
 70
     1
 43
2.0
 10
1268.548530227399
 20
965.3927174495425
 42
0.4142135623731
 10
1267.548530227399
 20
966.3927174495425
 42
0.4142135623731
 10
1266.548530227399
 20
965.3927174495425
 42
0.4142135623731
 10
1267.548530227399
 20
964.3927174495425
 42
0.4142135623731
  0
LWPOLYLINE
  5
159
330
1F
100
AcDbEntity
  8
0-B
  6
Continuous
 62
     7
370
     9
100
AcDbPolyline
 90
        4
 70
     1
 43
2.0
 10
1268.548530227399
 20
1053.392717449542
 42
0.4142135623731
 10
1267.548530227399
 20
1054.392717449542
 42
0.4142135623731
 10
1266.548530227399
 20
1053.392717449542
 42
0.4142135623731
 10
1267.548530227399
 20
1052.392717449543
 42
0.4142135623731
  0
LINE
  5
15A
330
1F
100
AcDbEntity
  8
0-B
  6
Continuous
 62
   120
370
     5
100
AcDbLine
 10
1267.548530227399
 20
1053.392717449542
 30
0.0
 11
1267.548530227399
 21
965.3927174495425
 31
0.0
  0
LINE
  5
15B
330
1F
100
AcDbEntity
  8
0-4
  6
Continuous
 62
    92
370
    13
100
AcDbLine
 10
1367.548530227399
 20
965.3927174495425
 30
0.0
 11
1617.548530227399
 21
965.3927174495425
 31
0.0
  0
LINE
  5
15C
330
1F
100
AcDbEntity
  8
0-4
  6
Continuous
 62
    92
370
    13
100
AcDbLine
 10
1367.548530227399
 20
1053.392717449542
 30
0.0
 11
1367.548530227399
 21
965.3927174495425
 31
0.0
  0
LINE
  5
15D
330
1F
100
AcDbEntity
  8
0-B
  6
Continuous
 62
   120
370
     5
100
AcDbLine
 10
1837.548530227399
 20
703.3927174495426
 30
0.0
 11
1787.548530227399
 21
703.3927174495426
 31
0.0
  0
LINE
  5
15E
330
1F
100
AcDbEntity
  8
0-B
  6
Continuous
 62
   120
370
     5
100
AcDbLine
 10
1837.548530227399
 20
1053.392717449542
 30
0.0
 11
1787.548530227399
 21
1053.392717449542
 31
0.0
  0
LWPOLYLINE
  5
15F
330
1F
100
AcDbEntity
  8
0-B
  6
Continuous
 62
     7
370
     9
100
AcDbPolyline
 90
        4
 70
     1
 43
2.0
 10
1838.548530227399
 20
703.3927174495426
 42
0.4142135623731
 10
1837.548530227399
 20
704.3927174495425
 42
0.4142135623731
 10
1836.548530227399
 20
703.3927174495426
 42
0.4142135623731
 10
1837.548530227399
 20
702.3927174495427
 42
0.4142135623731
  0
LWPOLYLINE
  5
160
330
1F
100
AcDbEntity
  8
0-B
  6
Continuous
 62
     7
370
     9
100
AcDbPolyline
 90
        4
 70
     1
 43
2.0
 10
1838.548530227399
 20
1053.392717449542
 42
0.4142135623731
 10
1837.548530227399
 20
1054.392717449542
 42
0.4142135623731
 10
1836.548530227399
 20
1053.392717449542
 42
0.4142135623731
 10
1837.548530227399
 20
1052.392717449543
 42
0.4142135623731
  0
LINE
  5
161
330
1F
100
AcDbEntity
  8
0-B
  6
Continuous
 62
   120
370
     5
100
AcDbLine
 10
1837.548530227399
 20
1053.392717449542
 30
0.0
 11
1837.548530227399
 21
703.3927174495426
 31
0.0
  0
LINE
  5
162
330
1F
100
AcDbEntity
  8
0-4
  6
Continuous
 62
    92
370
    13
100
AcDbLine
 10
1617.548530227399
 20
708.3927174495426
 30
0.0
 11
1732.548530227399
 21
708.3927174495426
 31
0.0
  0
LINE
  5
163
330
1F
100
AcDbEntity
  8
0-4
  6
Continuous
 62
    92
370
    13
100
AcDbLine
 10
1617.548530227399
 20
703.3927174495426
 30
0.0
 11
1737.548530227399
 21
703.3927174495426
 31
0.0
  0
LINE
  5
164
330
1F
100
AcDbEntity
  8
0-4
  6
Continuous
 62
    92
370
    13
100
AcDbLine
 10
1617.548530227399
 20
703.3927174495426
 30
0.0
 11
1617.548530227399
 21
965.3927174495425
 31
0.0
  0
LWPOLYLINE
  5
165
330
1F
100
AcDbEntity
  8
0-B
  6
Continuous
 62
     7
370
     9
100
AcDbPolyline
 90
        4
 70
     1
 43
2.0
 10
1738.548530227399
 20
2399.535162881639
 42
0.4142135623731
 10
1737.548530227399
 20
2400.535162881639
 42
0.4142135623731
 10
1736.548530227399
 20
2399.535162881639
 42
0.4142135623731
 10
1737.548530227399
 20
2398.535162881639
 42
0.4142135623731
  0
LWPOLYLINE
  5
166
330
1F
100
AcDbEntity
  8
0-B
  6
Continuous
 62
     7
370
     9
100
AcDbPolyline
 90
        4
 70
     1
 43
2.0
 10
1468.548530227399
 20
2399.535162881639
 42
0.4142135623731
 10
1467.548530227399
 20
2400.535162881639
 42
0.4142135623731
 10
1466.548530227399
 20
2399.535162881639
 42
0.4142135623731
 10
1467.548530227399
 20
2398.535162881639
 42
0.4142135623731
  0
LINE
  5
167
330
1F
100
AcDbEntity
  8
0-B
  6
Continuous
 62
   120
370
     5
100
AcDbLine
 10
1467.548530227399
 20
2399.535162881639
 30
0.0
 11
1737.548530227399
 21
2399.535162881639
 31
0.0
  0
LINE
  5
168
330
1F
100
AcDbEntity
  8
0-0
  6
JWW_HOJO
 62
     7
370
     9
100
AcDbLine
 10
1367.548530227399
 20
1875.469107671933
 30
0.0
 11
1367.548530227399
 21
2399.535162881639
 31
0.0
  0
LINE
  5
169
330
1F
100
AcDbEntity
  8
0-B
  6
Continuous
 62
   120
370
     5
100
AcDbLine
 10
1737.548530227399
 20
1875.469107671933
 30
0.0
 11
1737.548530227399
 21
1925.469107671933
 31
0.0
  0
LWPOLYLINE
  5
16A
330
1F
100
AcDbEntity
  8
0-B
  6
Continuous
 62
     7
370
     9
100
AcDbPolyline
 90
        4
 70
     1
 43
2.0
 10
1738.548530227399
 20
1875.469107671933
 42
0.4142135623731
 10
1737.548530227399
 20
1876.469107671933
 42
0.4142135623731
 10
1736.548530227399
 20
1875.469107671933
 42
0.4142135623731
 10
1737.548530227399
 20
1874.469107671933
 42
0.4142135623731
  0
LINE
  5
16B
330
1F
100
AcDbEntity
  8
0-B
  6
Continuous
 62
   120
370
     5
100
AcDbLine
 10
1617.548530227399
 20
1875.469107671933
 30
0.0
 11
1617.548530227399
 21
1925.469107671933
 31
0.0
  0
LINE
  5
16C
330
1F
100
AcDbEntity
  8
0-B
  6
Continuous
 62
   120
370
     5
100
AcDbLine
 10
1467.548530227399
 20
1875.469107671933
 30
0.0
 11
1467.548530227399
 21
1925.469107671933
 31
0.0
  0
LWPOLYLINE
  5
16D
330
1F
100
AcDbEntity
  8
0-B
  6
Continuous
 62
     7
370
     9
100
AcDbPolyline
 90
        4
 70
     1
 43
2.0
 10
1618.548530227399
 20
1875.469107671933
 42
0.4142135623731
 10
1617.548530227399
 20
1876.469107671933
 42
0.4142135623731
 10
1616.548530227399
 20
1875.469107671933
 42
0.4142135623731
 10
1617.548530227399
 20
1874.469107671933
 42
0.4142135623731
  0
LWPOLYLINE
  5
16E
330
1F
100
AcDbEntity
  8
0-B
  6
Continuous
 62
     7
370
     9
100
AcDbPolyline
 90
        4
 70
     1
 43
2.0
 10
1468.548530227399
 20
1875.469107671933
 42
0.4142135623731
 10
1467.548530227399
 20
1876.469107671933
 42
0.4142135623731
 10
1466.548530227399
 20
1875.469107671933
 42
0.4142135623731
 10
1467.548530227399
 20
1874.469107671933
 42
0.4142135623731
  0
LINE
  5
16F
330
1F
100
AcDbEntity
  8
0-B
  6
Continuous
 62
   120
370
     5
100
AcDbLine
 10
1467.548530227399
 20
1875.469107671933
 30
0.0
 11
1737.548530227399
 21
1875.469107671933
 31
0.0
  0
LINE
  5
170
330
1F
100
AcDbEntity
  8
0-0
  6
JWW_HOJO
 62
     7
370
     9
100
AcDbLine
 10
1367.548530227399
 20
1875.469107671933
 30
0.0
 11
1837.548530227399
 21
1875.469107671933
 31
0.0
  0
LINE
  5
171
330
1F
100
AcDbEntity
  8
0-0
  6
JWW_HOJO
 62
     7
370
     9
100
AcDbLine
 10
1417.548530227399
 20
1925.469107671933
 30
0.0
 11
1787.548530227399
 21
1925.469107671933
 31
0.0
  0
LWPOLYLINE
  5
172
330
1F
100
AcDbEntity
  8
0-B
  6
Continuous
 62
     7
370
     9
100
AcDbPolyline
 90
        4
 70
     1
 43
2.0
 10
1838.548530227399
 20
1948.378792495291
 42
0.4142135623731
 10
1837.548530227399
 20
1949.378792495291
 42
0.4142135623731
 10
1836.548530227399
 20
1948.378792495291
 42
0.4142135623731
 10
1837.548530227399
 20
1947.378792495291
 42
0.4142135623731
  0
LWPOLYLINE
  5
173
330
1F
100
AcDbEntity
  8
0-B
  6
Continuous
 62
     7
370
     9
100
AcDbPolyline
 90
        4
 70
     1
 43
2.0
 10
1838.548530227399
 20
2298.378792495291
 42
0.4142135623731
 10
1837.548530227399
 20
2299.378792495291
 42
0.4142135623731
 10
1836.548530227399
 20
2298.378792495291
 42
0.4142135623731
 10
1837.548530227399
 20
2297.378792495291
 42
0.4142135623731
  0
LINE
  5
174
330
1F
100
AcDbEntity
  8
0-B
  6
Continuous
 62
   120
370
     5
100
AcDbLine
 10
1837.548530227399
 20
2298.378792495291
 30
0.0
 11
1837.548530227399
 21
1948.378792495291
 31
0.0
  0
LINE
  5
175
330
1F
100
AcDbEntity
  8
0-B
  6
Continuous
 62
   120
370
     5
100
AcDbLine
 10
1367.548530227399
 20
2210.378792495292
 30
0.0
 11
1417.548530227399
 21
2210.378792495292
 31
0.0
  0
LINE
  5
176
330
1F
100
AcDbEntity
  8
0-B
  6
Continuous
 62
   120
370
     5
100
AcDbLine
 10
1367.548530227399
 20
2298.378792495291
 30
0.0
 11
1417.548530227399
 21
2298.378792495291
 31
0.0
  0
LWPOLYLINE
  5
177
330
1F
100
AcDbEntity
  8
0-B
  6
Continuous
 62
     7
370
     9
100
AcDbPolyline
 90
        4
 70
     1
 43
2.0
 10
1368.548530227399
 20
2210.378792495292
 42
0.4142135623731
 10
1367.548530227399
 20
2211.378792495292
 42
0.4142135623731
 10
1366.548530227399
 20
2210.378792495292
 42
0.4142135623731
 10
1367.548530227399
 20
2209.378792495292
 42
0.4142135623731
  0
LWPOLYLINE
  5
178
330
1F
100
AcDbEntity
  8
0-B
  6
Continuous
 62
     7
370
     9
100
AcDbPolyline
 90
        4
 70
     1
 43
2.0
 10
1368.548530227399
 20
2298.378792495291
 42
0.4142135623731
 10
1367.548530227399
 20
2299.378792495291
 42
0.4142135623731
 10
1366.548530227399
 20
2298.378792495291
 42
0.4142135623731
 10
1367.548530227399
 20
2297.378792495291
 42
0.4142135623731
  0
LINE
  5
179
330
1F
100
AcDbEntity
  8
0-B
  6
Continuous
 62
   120
370
     5
100
AcDbLine
 10
1367.548530227399
 20
2298.378792495291
 30
0.0
 11
1367.548530227399
 21
2210.378792495292
 31
0.0
  0
LINE
  5
17A
330
1F
100
AcDbEntity
  8
0-4
  6
Continuous
 62
    92
370
    13
100
AcDbLine
 10
1617.548530227399
 20
1953.378792495291
 30
0.0
 11
1732.548530227399
 21
1953.378792495291
 31
0.0
  0
LINE
  5
17B
330
1F
100
AcDbEntity
  8
0-4
  6
Continuous
 62
    92
370
    13
100
AcDbLine
 10
1617.548530227399
 20
1948.378792495291
 30
0.0
 11
1737.548530227399
 21
1948.378792495291
 31
0.0
  0
LINE
  5
17C
330
1F
100
AcDbEntity
  8
0-4
  6
Continuous
 62
    92
370
    13
100
AcDbLine
 10
1617.548530227399
 20
1948.378792495291
 30
0.0
 11
1617.548530227399
 21
2210.378792495292
 31
0.0
  0
LINE
  5
17D
330
1F
100
AcDbEntity
  8
0-4
  6
Continuous
 62
    92
370
    13
100
AcDbLine
 10
1467.548530227399
 20
2210.378792495292
 30
0.0
 11
1617.548530227399
 21
2210.378792495292
 31
0.0
  0
LINE
  5
17E
330
1F
100
AcDbEntity
  8
0-4
  6
Continuous
 62
    92
370
    13
100
AcDbLine
 10
1467.548530227399
 20
2298.378792495291
 30
0.0
 11
1467.548530227399
 21
2210.378792495292
 31
0.0
  0
LINE
  5
17F
330
1F
100
AcDbEntity
  8
F-0
  6
JWW_HOJO
 62
   120
370
     5
100
AcDbLine
 10
1448.33277109507
 20
2505.160166293153
 30
0.0
 11
1448.33277109507
 21
-2526.666678351325
 31
0.0
  0
LINE
  5
180
330
1F
100
AcDbEntity
  8
F-1
  6
JWW_DASHED1
 62
     7
370
     9
100
AcDbLine
 10
603.3330144108953
 20
1848.333601307224
 30
0.0
 11
3793.332651499156
 21
1848.333601307224
 31
0.0
  0
LINE
  5
181
330
1F
100
AcDbEntity
  8
F-1
  6
JWW_DASHED1
 62
     7
370
     9
100
AcDbLine
 10
603.3330144108953
 20
598.3335214047815
 30
0.0
 11
3793.332651499156
 21
598.3335214047815
 31
0.0
  0
LINE
  5
182
330
1F
100
AcDbEntity
  8
F-1
  6
JWW_DASHED1
 62
     7
370
     9
100
AcDbLine
 10
603.3330144108953
 20
-651.6665584976611
 30
0.0
 11
3793.332651499156
 21
-651.6665584976611
 31
0.0
  0
LINE
  5
183
330
1F
100
AcDbEntity
  8
F-1
  6
JWW_DASHED1
 62
     7
370
     9
100
AcDbLine
 10
-3293.333352578653
 20
-1901.666638400104
 30
0.0
 11
-103.3338392103036
 21
-1901.666638400104
 31
0.0
  0
LINE
  5
184
330
1F
100
AcDbEntity
  8
F-1
  6
JWW_DASHED1
 62
     7
370
     9
100
AcDbLine
 10
-3293.333352578653
 20
-651.6665584976611
 30
0.0
 11
-96.66731550886823
 21
-651.6665584976611
 31
0.0
  0
LINE
  5
185
330
1F
100
AcDbEntity
  8
F-1
  6
JWW_DASHED1
 62
     7
370
     9
100
AcDbLine
 10
-3293.333352578653
 20
598.3335214047815
 30
0.0
 11
-96.66731550886823
 21
598.3335214047815
 31
0.0
  0
LINE
  5
186
330
1F
100
AcDbEntity
  8
F-1
  6
JWW_DASHED1
 62
     7
370
     9
100
AcDbLine
 10
-3293.333352578653
 20
1848.333601307224
 30
0.0
 11
-103.3338392103036
 21
1848.333601307224
 31
0.0
  0
LINE
  5
187
330
1F
100
AcDbEntity
  8
0-B
  6
Continuous
 62
   120
370
     5
100
AcDbLine
 10
-2676.555553920957
 20
-951.1924570160843
 30
0.0
 11
-2626.555553920957
 21
-951.1924570160843
 31
0.0
  0
LINE
  5
188
330
1F
100
AcDbEntity
  8
0-B
  6
Continuous
 62
   120
370
     5
100
AcDbLine
 10
-2676.555553920957
 20
-863.1924570160843
 30
0.0
 11
-2626.555553920957
 21
-863.1924570160843
 31
0.0
  0
LWPOLYLINE
  5
189
330
1F
100
AcDbEntity
  8
0-B
  6
Continuous
 62
     7
370
     9
100
AcDbPolyline
 90
        4
 70
     1
 43
2.0
 10
-2675.555553920957
 20
-951.1924570160843
 42
0.4142135623731
 10
-2676.555553920957
 20
-950.1924570160844
 42
0.4142135623731
 10
-2677.555553920957
 20
-951.1924570160843
 42
0.4142135623731
 10
-2676.555553920957
 20
-952.1924570160843
 42
0.4142135623731
  0
LWPOLYLINE
  5
18A
330
1F
100
AcDbEntity
  8
0-B
  6
Continuous
 62
     7
370
     9
100
AcDbPolyline
 90
        4
 70
     1
 43
2.0
 10
-2675.555553920957
 20
-863.1924570160843
 42
0.4142135623731
 10
-2676.555553920957
 20
-862.1924570160843
 42
0.4142135623731
 10
-2677.555553920957
 20
-863.1924570160843
 42
0.4142135623731
 10
-2676.555553920957
 20
-864.1924570160842
 42
0.4142135623731
  0
LINE
  5
18B
330
1F
100
AcDbEntity
  8
0-B
  6
Continuous
 62
   120
370
     5
100
AcDbLine
 10
-2676.555553920957
 20
-863.1924570160843
 30
0.0
 11
-2676.555553920957
 21
-951.1924570160843
 31
0.0
  0
LINE
  5
18C
330
1F
100
AcDbEntity
  8
0-B
  6
Continuous
 62
   120
370
     5
100
AcDbLine
 10
-2576.555553920957
 20
-1203.192457016084
 30
0.0
 11
-2576.555553920957
 21
-1153.192457016084
 31
0.0
  0
LWPOLYLINE
  5
18D
330
1F
100
AcDbEntity
  8
0-B
  6
Continuous
 62
     7
370
     9
100
AcDbPolyline
 90
        4
 70
     1
 43
2.0
 10
-2575.555553920957
 20
-1203.192457016084
 42
0.4142135623731
 10
-2576.555553920957
 20
-1202.192457016084
 42
0.4142135623731
 10
-2577.555553920957
 20
-1203.192457016084
 42
0.4142135623731
 10
-2576.555553920957
 20
-1204.192457016084
 42
0.4142135623731
  0
LINE
  5
18E
330
1F
100
AcDbEntity
  8
0-B
  6
Continuous
 62
   120
370
     5
100
AcDbLine
 10
-2576.555553920957
 20
-763.1924570160843
 30
0.0
 11
-2576.555553920957
 21
-813.1924570160843
 31
0.0
  0
LWPOLYLINE
  5
18F
330
1F
100
AcDbEntity
  8
0-B
  6
Continuous
 62
     7
370
     9
100
AcDbPolyline
 90
        4
 70
     1
 43
2.0
 10
-2575.555553920957
 20
-763.1924570160843
 42
0.4142135623731
 10
-2576.555553920957
 20
-762.1924570160843
 42
0.4142135623731
 10
-2577.555553920957
 20
-763.1924570160843
 42
0.4142135623731
 10
-2576.555553920957
 20
-764.1924570160842
 42
0.4142135623731
  0
LINE
  5
190
330
1F
100
AcDbEntity
  8
0-B
  6
Continuous
 62
   120
370
     5
100
AcDbLine
 10
-2576.555553920957
 20
-763.1924570160843
 30
0.0
 11
-2116.555553920957
 21
-763.1924570160843
 31
0.0
  0
LINE
  5
191
330
1F
100
AcDbEntity
  8
0-0
  6
JWW_HOJO
 62
     7
370
     9
100
AcDbLine
 10
-2626.555553920957
 20
-813.1924570160843
 30
0.0
 11
-2109.987011426033
 21
-813.1924570160843
 31
0.0
  0
LINE
  5
192
330
1F
100
AcDbEntity
  8
0-0
  6
JWW_HOJO
 62
     7
370
     9
100
AcDbLine
 10
-2066.555553920957
 20
-1153.192457016084
 30
0.0
 11
-2626.555553920957
 21
-1153.192457016084
 31
0.0
  0
LINE
  5
193
330
1F
100
AcDbEntity
  8
0-0
  6
JWW_HOJO
 62
     7
370
     9
100
AcDbLine
 10
-2626.555553920957
 20
-813.1924570160843
 30
0.0
 11
-2626.555553920957
 21
-1153.192457016084
 31
0.0
  0
LINE
  5
194
330
1F
100
AcDbEntity
  8
0-0
  6
JWW_HOJO
 62
     7
370
     9
100
AcDbLine
 10
-2676.555553920957
 20
-763.1924570160843
 30
0.0
 11
-2089.276333307378
 21
-763.1924570160843
 31
0.0
  0
LINE
  5
195
330
1F
100
AcDbEntity
  8
0-0
  6
JWW_HOJO
 62
     7
370
     9
100
AcDbLine
 10
-2016.555553920957
 20
-1203.192457016084
 30
0.0
 11
-2676.555553920957
 21
-1203.192457016084
 31
0.0
  0
LINE
  5
196
330
1F
100
AcDbEntity
  8
0-0
  6
JWW_HOJO
 62
     7
370
     9
100
AcDbLine
 10
-2676.555553920957
 20
-763.1924570160843
 30
0.0
 11
-2676.555553920957
 21
-1203.192457016084
 31
0.0
  0
LINE
  5
197
330
1F
100
AcDbEntity
  8
0-4
  6
Continuous
 62
    92
370
    13
100
AcDbLine
 10
-2576.555553920957
 20
-868.1924570160843
 30
0.0
 11
-2132.768757356553
 21
-868.1924570160843
 31
0.0
  0
LINE
  5
198
330
1F
100
AcDbEntity
  8
0-4
  6
Continuous
 62
    92
370
    13
100
AcDbLine
 10
-2576.555553920957
 20
-863.1924570160843
 30
0.0
 11
-2130.697689544688
 21
-863.1924570160843
 31
0.0
  0
LINE
  5
199
330
1F
100
AcDbEntity
  8
0-4
  6
Continuous
 62
    92
370
    13
100
AcDbLine
 10
-2576.555553920957
 20
-951.1924570160843
 30
0.0
 11
-2196.555553920957
 21
-951.1924570160843
 31
0.0
  0
LINE
  5
19A
330
1F
100
AcDbEntity
  8
0-4
  6
Continuous
 62
    92
370
    13
100
AcDbLine
 10
-2576.555553920957
 20
-863.1924570160843
 30
0.0
 11
-2576.555553920957
 21
-951.1924570160843
 31
0.0
  0
LINE
  5
19B
330
1F
100
AcDbEntity
  8
0-B
  6
Continuous
 62
   120
370
     5
100
AcDbLine
 10
-2045.844875802302
 20
-806.6239145211605
 30
0.0
 11
-2081.200214861628
 21
-841.9792535804879
 31
0.0
  0
LINE
  5
19C
330
1F
100
AcDbEntity
  8
0-B
  6
Continuous
 62
   120
370
     5
100
AcDbLine
 10
-2059.987011426033
 20
-792.4817788974294
 30
0.0
 11
-2095.342350485359
 21
-827.8371179567569
 31
0.0
  0
LWPOLYLINE
  5
19D
330
1F
100
AcDbEntity
  8
0-B
  6
Continuous
 62
     7
370
     9
100
AcDbPolyline
 90
        4
 70
     1
 43
2.0
 10
-2044.844875802302
 20
-806.6239145211605
 42
0.4142135623731
 10
-2045.844875802302
 20
-805.6239145211606
 42
0.4142135623731
 10
-2046.844875802302
 20
-806.6239145211605
 42
0.4142135623731
 10
-2045.844875802302
 20
-807.6239145211605
 42
0.4142135623731
  0
LWPOLYLINE
  5
19E
330
1F
100
AcDbEntity
  8
0-B
  6
Continuous
 62
     7
370
     9
100
AcDbPolyline
 90
        4
 70
     1
 43
2.0
 10
-2058.987011426033
 20
-792.4817788974294
 42
0.4142135623731
 10
-2059.987011426033
 20
-791.4817788974295
 42
0.4142135623731
 10
-2060.987011426033
 20
-792.4817788974294
 42
0.4142135623731
 10
-2059.987011426033
 20
-793.4817788974294
 42
0.4142135623731
  0
LINE
  5
19F
330
1F
100
AcDbEntity
  8
0-B
  6
Continuous
 62
   120
370
     5
100
AcDbLine
 10
-2059.987011426033
 20
-792.4817788974294
 30
0.0
 11
-2045.844875802302
 21
-806.6239145211605
 31
0.0
  0
LINE
  5
1A0
330
1F
100
AcDbEntity
  8
0-B
  6
Continuous
 62
   120
370
     5
100
AcDbLine
 10
-2016.555553920957
 20
-1103.192457016084
 30
0.0
 11
-2066.555553920957
 21
-1103.192457016084
 31
0.0
  0
LINE
  5
1A1
330
1F
100
AcDbEntity
  8
0-B
  6
Continuous
 62
   120
370
     5
100
AcDbLine
 10
-2016.555553920957
 20
-863.1924570160843
 30
0.0
 11
-2066.555553920957
 21
-863.1924570160843
 31
0.0
  0
LWPOLYLINE
  5
1A2
330
1F
100
AcDbEntity
  8
0-B
  6
Continuous
 62
     7
370
     9
100
AcDbPolyline
 90
        4
 70
     1
 43
2.0
 10
-2015.555553920957
 20
-1103.192457016084
 42
0.4142135623731
 10
-2016.555553920957
 20
-1102.192457016084
 42
0.4142135623731
 10
-2017.555553920957
 20
-1103.192457016084
 42
0.4142135623731
 10
-2016.555553920957
 20
-1104.192457016084
 42
0.4142135623731
  0
LWPOLYLINE
  5
1A3
330
1F
100
AcDbEntity
  8
0-B
  6
Continuous
 62
     7
370
     9
100
AcDbPolyline
 90
        4
 70
     1
 43
2.0
 10
-2015.555553920957
 20
-863.1924570160843
 42
0.4142135623731
 10
-2016.555553920957
 20
-862.1924570160843
 42
0.4142135623731
 10
-2017.555553920957
 20
-863.1924570160843
 42
0.4142135623731
 10
-2016.555553920957
 20
-864.1924570160842
 42
0.4142135623731
  0
LINE
  5
1A4
330
1F
100
AcDbEntity
  8
0-B
  6
Continuous
 62
   120
370
     5
100
AcDbLine
 10
-2016.555553920957
 20
-863.1924570160843
 30
0.0
 11
-2016.555553920957
 21
-1103.192457016084
 31
0.0
  0
LINE
  5
1A5
330
1F
100
AcDbEntity
  8
0-B
  6
Continuous
 62
   120
370
     5
100
AcDbLine
 10
-2116.555553920957
 20
-1203.192457016084
 30
0.0
 11
-2116.555553920957
 21
-1153.192457016084
 31
0.0
  0
LWPOLYLINE
  5
1A6
330
1F
100
AcDbEntity
  8
0-B
  6
Continuous
 62
     7
370
     9
100
AcDbPolyline
 90
        4
 70
     1
 43
2.0
 10
-2115.555553920957
 20
-1203.192457016084
 42
0.4142135623731
 10
-2116.555553920957
 20
-1202.192457016084
 42
0.4142135623731
 10
-2117.555553920957
 20
-1203.192457016084
 42
0.4142135623731
 10
-2116.555553920957
 20
-1204.192457016084
 42
0.4142135623731
  0
LINE
  5
1A7
330
1F
100
AcDbEntity
  8
0-B
  6
Continuous
 62
   120
370
     5
100
AcDbLine
 10
-2576.555553920957
 20
-1203.192457016084
 30
0.0
 11
-2116.555553920957
 21
-1203.192457016084
 31
0.0
  0
LINE
  5
1A8
330
1F
100
AcDbEntity
  8
0-B
  6
Continuous
 62
   120
370
     5
100
AcDbLine
 10
-2196.555553920957
 20
-1203.192457016084
 30
0.0
 11
-2196.555553920957
 21
-1153.192457016084
 31
0.0
  0
LWPOLYLINE
  5
1A9
330
1F
100
AcDbEntity
  8
0-B
  6
Continuous
 62
     7
370
     9
100
AcDbPolyline
 90
        4
 70
     1
 43
2.0
 10
-2195.555553920957
 20
-1203.192457016084
 42
0.4142135623731
 10
-2196.555553920957
 20
-1202.192457016084
 42
0.4142135623731
 10
-2197.555553920957
 20
-1203.192457016084
 42
0.4142135623731
 10
-2196.555553920957
 20
-1204.192457016084
 42
0.4142135623731
  0
LINE
  5
1AA
330
1F
100
AcDbEntity
  8
0-B
  6
Continuous
 62
   120
370
     5
100
AcDbLine
 10
-2116.555553920957
 20
-763.1924570160843
 30
0.0
 11
-2116.555553920957
 21
-813.1924570160843
 31
0.0
  0
LWPOLYLINE
  5
1AB
330
1F
100
AcDbEntity
  8
0-B
  6
Continuous
 62
     7
370
     9
100
AcDbPolyline
 90
        4
 70
     1
 43
2.0
 10
-2115.555553920957
 20
-763.1924570160843
 42
0.4142135623731
 10
-2116.555553920957
 20
-762.1924570160843
 42
0.4142135623731
 10
-2117.555553920957
 20
-763.1924570160843
 42
0.4142135623731
 10
-2116.555553920957
 20
-764.1924570160842
 42
0.4142135623731
  0
LINE
  5
1AC
330
1F
100
AcDbEntity
  8
0-0
  6
JWW_HOJO
 62
     7
370
     9
100
AcDbLine
 10
-2109.987011426033
 20
-813.1924570160843
 30
0.0
 11
-2066.555553920957
 21
-856.6239145211605
 31
0.0
  0
LINE
  5
1AD
330
1F
100
AcDbEntity
  8
0-0
  6
JWW_HOJO
 62
     7
370
     9
100
AcDbLine
 10
-2066.555553920957
 20
-1153.192457016084
 30
0.0
 11
-2066.555553920957
 21
-856.6239145211605
 31
0.0
  0
LINE
  5
1AE
330
1F
100
AcDbEntity
  8
0-0
  6
JWW_HOJO
 62
     7
370
     9
100
AcDbLine
 10
-2089.276333307378
 20
-763.1924570160843
 30
0.0
 11
-2016.555553920957
 21
-835.9132364025058
 31
0.0
  0
LINE
  5
1AF
330
1F
100
AcDbEntity
  8
0-0
  6
JWW_HOJO
 62
     7
370
     9
100
AcDbLine
 10
-2016.555553920957
 20
-1203.192457016084
 30
0.0
 11
-2016.555553920957
 21
-835.9132364025058
 31
0.0
  0
LINE
  5
1B0
330
1F
100
AcDbEntity
  8
0-4
  6
Continuous
 62
    92
370
    13
100
AcDbLine
 10
-2132.768757356553
 20
-868.1924570160843
 30
0.0
 11
-2121.555553920957
 21
-879.4056604516809
 31
0.0
  0
LINE
  5
1B1
330
1F
100
AcDbEntity
  8
0-4
  6
Continuous
 62
    92
370
    13
100
AcDbLine
 10
-2130.697689544688
 20
-863.1924570160843
 30
0.0
 11
-2116.555553920957
 21
-877.3345926398154
 31
0.0
  0
LINE
  5
1B2
330
1F
100
AcDbEntity
  8
0-4
  6
Continuous
 62
    92
370
    13
100
AcDbLine
 10
-2121.555553920957
 20
-1103.192457016084
 30
0.0
 11
-2121.555553920957
 21
-879.4056604516809
 31
0.0
  0
LINE
  5
1B3
330
1F
100
AcDbEntity
  8
0-4
  6
Continuous
 62
    92
370
    13
100
AcDbLine
 10
-2116.555553920957
 20
-1103.192457016084
 30
0.0
 11
-2116.555553920957
 21
-877.3345926398154
 31
0.0
  0
LINE
  5
1B4
330
1F
100
AcDbEntity
  8
0-4
  6
Continuous
 62
    92
370
    13
100
AcDbLine
 10
-2196.555553920957
 20
-1103.192457016084
 30
0.0
 11
-2196.555553920957
 21
-951.1924570160843
 31
0.0
  0
LINE
  5
1B5
330
1F
100
AcDbEntity
  8
0-4
  6
Continuous
 62
    92
370
    13
100
AcDbLine
 10
-2116.555553920957
 20
-1103.192457016084
 30
0.0
 11
-2196.555553920957
 21
-1103.192457016084
 31
0.0
  0
LINE
  5
1B6
330
1F
100
AcDbEntity
  8
0-B
  6
Continuous
 62
   120
370
     5
100
AcDbLine
 10
-2726.844621429941
 20
-333.1114808652245
 30
0.0
 11
-2676.844621429941
 21
-333.1114808652245
 31
0.0
  0
LINE
  5
1B7
330
1F
100
AcDbEntity
  8
0-B
  6
Continuous
 62
   120
370
     5
100
AcDbLine
 10
-2726.844621429941
 20
-245.1114808652244
 30
0.0
 11
-2676.844621429941
 21
-245.1114808652244
 31
0.0
  0
LWPOLYLINE
  5
1B8
330
1F
100
AcDbEntity
  8
0-B
  6
Continuous
 62
     7
370
     9
100
AcDbPolyline
 90
        4
 70
     1
 43
2.0
 10
-2725.844621429941
 20
-333.1114808652245
 42
0.4142135623731
 10
-2726.844621429941
 20
-332.1114808652245
 42
0.4142135623731
 10
-2727.844621429941
 20
-333.1114808652245
 42
0.4142135623731
 10
-2726.844621429941
 20
-334.1114808652245
 42
0.4142135623731
  0
LWPOLYLINE
  5
1B9
330
1F
100
AcDbEntity
  8
0-B
  6
Continuous
 62
     7
370
     9
100
AcDbPolyline
 90
        4
 70
     1
 43
2.0
 10
-2725.844621429941
 20
-245.1114808652244
 42
0.4142135623731
 10
-2726.844621429941
 20
-244.1114808652244
 42
0.4142135623731
 10
-2727.844621429941
 20
-245.1114808652244
 42
0.4142135623731
 10
-2726.844621429941
 20
-246.1114808652244
 42
0.4142135623731
  0
LINE
  5
1BA
330
1F
100
AcDbEntity
  8
0-B
  6
Continuous
 62
   120
370
     5
100
AcDbLine
 10
-2726.844621429941
 20
-245.1114808652244
 30
0.0
 11
-2726.844621429941
 21
-333.1114808652245
 31
0.0
  0
LINE
  5
1BB
330
1F
100
AcDbEntity
  8
0-B
  6
Continuous
 62
   120
370
     5
100
AcDbLine
 10
-2626.844621429941
 20
-585.1114808652244
 30
0.0
 11
-2626.844621429941
 21
-535.1114808652244
 31
0.0
  0
LWPOLYLINE
  5
1BC
330
1F
100
AcDbEntity
  8
0-B
  6
Continuous
 62
     7
370
     9
100
AcDbPolyline
 90
        4
 70
     1
 43
2.0
 10
-2625.844621429941
 20
-585.1114808652244
 42
0.4142135623731
 10
-2626.844621429941
 20
-584.1114808652244
 42
0.4142135623731
 10
-2627.844621429941
 20
-585.1114808652244
 42
0.4142135623731
 10
-2626.844621429941
 20
-586.1114808652244
 42
0.4142135623731
  0
LINE
  5
1BD
330
1F
100
AcDbEntity
  8
0-B
  6
Continuous
 62
   120
370
     5
100
AcDbLine
 10
-2626.844621429941
 20
-145.1114808652244
 30
0.0
 11
-2626.844621429941
 21
-195.1114808652244
 31
0.0
  0
LWPOLYLINE
  5
1BE
330
1F
100
AcDbEntity
  8
0-B
  6
Continuous
 62
     7
370
     9
100
AcDbPolyline
 90
        4
 70
     1
 43
2.0
 10
-2625.844621429941
 20
-145.1114808652244
 42
0.4142135623731
 10
-2626.844621429941
 20
-144.1114808652244
 42
0.4142135623731
 10
-2627.844621429941
 20
-145.1114808652244
 42
0.4142135623731
 10
-2626.844621429941
 20
-146.1114808652244
 42
0.4142135623731
  0
LINE
  5
1BF
330
1F
100
AcDbEntity
  8
0-B
  6
Continuous
 62
   120
370
     5
100
AcDbLine
 10
-2626.844621429941
 20
-145.1114808652244
 30
0.0
 11
-2126.844621429941
 21
-145.1114808652244
 31
0.0
  0
LINE
  5
1C0
330
1F
100
AcDbEntity
  8
0-0
  6
JWW_HOJO
 62
     7
370
     9
100
AcDbLine
 10
-2676.844621429941
 20
-195.1114808652244
 30
0.0
 11
-2676.844621429941
 21
-535.1114808652244
 31
0.0
  0
LINE
  5
1C1
330
1F
100
AcDbEntity
  8
0-0
  6
JWW_HOJO
 62
     7
370
     9
100
AcDbLine
 10
-2676.844621429941
 20
-195.1114808652244
 30
0.0
 11
-2141.489282370615
 21
-195.1114808652244
 31
0.0
  0
LINE
  5
1C2
330
1F
100
AcDbEntity
  8
0-0
  6
JWW_HOJO
 62
     7
370
     9
100
AcDbLine
 10
-2076.844621429941
 20
-535.1114808652244
 30
0.0
 11
-2676.844621429941
 21
-535.1114808652244
 31
0.0
  0
LINE
  5
1C3
330
1F
100
AcDbEntity
  8
0-0
  6
JWW_HOJO
 62
     7
370
     9
100
AcDbLine
 10
-2726.844621429941
 20
-145.1114808652244
 30
0.0
 11
-2726.844621429941
 21
-585.1114808652244
 31
0.0
  0
LINE
  5
1C4
330
1F
100
AcDbEntity
  8
0-0
  6
JWW_HOJO
 62
     7
370
     9
100
AcDbLine
 10
-2726.844621429941
 20
-145.1114808652244
 30
0.0
 11
-2120.778604251959
 21
-145.1114808652244
 31
0.0
  0
LINE
  5
1C5
330
1F
100
AcDbEntity
  8
0-0
  6
JWW_HOJO
 62
     7
370
     9
100
AcDbLine
 10
-2026.844621429941
 20
-585.1114808652244
 30
0.0
 11
-2726.844621429941
 21
-585.1114808652244
 31
0.0
  0
LINE
  5
1C6
330
1F
100
AcDbEntity
  8
0-4
  6
Continuous
 62
    92
370
    13
100
AcDbLine
 10
-2626.844621429941
 20
-250.1114808652244
 30
0.0
 11
-2164.271028301134
 21
-250.1114808652244
 31
0.0
  0
LINE
  5
1C7
330
1F
100
AcDbEntity
  8
0-4
  6
Continuous
 62
    92
370
    13
100
AcDbLine
 10
-2626.844621429941
 20
-245.1114808652244
 30
0.0
 11
-2162.19996048927
 21
-245.1114808652244
 31
0.0
  0
LINE
  5
1C8
330
1F
100
AcDbEntity
  8
0-4
  6
Continuous
 62
    92
370
    13
100
AcDbLine
 10
-2626.844621429941
 20
-333.1114808652245
 30
0.0
 11
-2246.844621429941
 21
-333.1114808652245
 31
0.0
  0
LINE
  5
1C9
330
1F
100
AcDbEntity
  8
0-4
  6
Continuous
 62
    92
370
    13
100
AcDbLine
 10
-2626.844621429941
 20
-245.1114808652244
 30
0.0
 11
-2626.844621429941
 21
-333.1114808652245
 31
0.0
  0
LINE
  5
1CA
330
1F
100
AcDbEntity
  8
0-B
  6
Continuous
 62
   120
370
     5
100
AcDbLine
 10
-2059.166951900279
 20
-212.7891503948882
 30
0.0
 11
-2091.489282370615
 21
-245.1114808652244
 31
0.0
  0
LINE
  5
1CB
330
1F
100
AcDbEntity
  8
0-B
  6
Continuous
 62
   120
370
     5
100
AcDbLine
 10
-2094.522290959605
 20
-177.4338113355606
 30
0.0
 11
-2126.844621429941
 21
-209.7561418058967
 31
0.0
  0
LWPOLYLINE
  5
1CC
330
1F
100
AcDbEntity
  8
0-B
  6
Continuous
 62
     7
370
     9
100
AcDbPolyline
 90
        4
 70
     1
 43
2.0
 10
-2058.166951900279
 20
-212.7891503948882
 42
0.4142135623731
 10
-2059.166951900279
 20
-211.7891503948882
 42
0.4142135623731
 10
-2060.166951900279
 20
-212.7891503948882
 42
0.4142135623731
 10
-2059.166951900279
 20
-213.7891503948882
 42
0.4142135623731
  0
LWPOLYLINE
  5
1CD
330
1F
100
AcDbEntity
  8
0-B
  6
Continuous
 62
     7
370
     9
100
AcDbPolyline
 90
        4
 70
     1
 43
2.0
 10
-2093.522290959605
 20
-177.4338113355606
 42
0.4142135623731
 10
-2094.522290959605
 20
-176.4338113355606
 42
0.4142135623731
 10
-2095.522290959605
 20
-177.4338113355606
 42
0.4142135623731
 10
-2094.522290959605
 20
-178.4338113355606
 42
0.4142135623731
  0
LINE
  5
1CE
330
1F
100
AcDbEntity
  8
0-B
  6
Continuous
 62
   120
370
     5
100
AcDbLine
 10
-2094.522290959605
 20
-177.4338113355606
 30
0.0
 11
-2059.166951900279
 21
-212.7891503948882
 31
0.0
  0
LINE
  5
1CF
330
1F
100
AcDbEntity
  8
0-B
  6
Continuous
 62
   120
370
     5
100
AcDbLine
 10
-2026.844621429941
 20
-485.1114808652244
 30
0.0
 11
-2076.844621429941
 21
-485.1114808652244
 31
0.0
  0
LINE
  5
1D0
330
1F
100
AcDbEntity
  8
0-B
  6
Continuous
 62
   120
370
     5
100
AcDbLine
 10
-2026.844621429941
 20
-245.1114808652244
 30
0.0
 11
-2076.844621429941
 21
-245.1114808652244
 31
0.0
  0
LWPOLYLINE
  5
1D1
330
1F
100
AcDbEntity
  8
0-B
  6
Continuous
 62
     7
370
     9
100
AcDbPolyline
 90
        4
 70
     1
 43
2.0
 10
-2025.844621429941
 20
-485.1114808652244
 42
0.4142135623731
 10
-2026.844621429941
 20
-484.1114808652244
 42
0.4142135623731
 10
-2027.844621429941
 20
-485.1114808652244
 42
0.4142135623731
 10
-2026.844621429941
 20
-486.1114808652244
 42
0.4142135623731
  0
LWPOLYLINE
  5
1D2
330
1F
100
AcDbEntity
  8
0-B
  6
Continuous
 62
     7
370
     9
100
AcDbPolyline
 90
        4
 70
     1
 43
2.0
 10
-2025.844621429941
 20
-245.1114808652244
 42
0.4142135623731
 10
-2026.844621429941
 20
-244.1114808652244
 42
0.4142135623731
 10
-2027.844621429941
 20
-245.1114808652244
 42
0.4142135623731
 10
-2026.844621429941
 20
-246.1114808652244
 42
0.4142135623731
  0
LINE
  5
1D3
330
1F
100
AcDbEntity
  8
0-B
  6
Continuous
 62
   120
370
     5
100
AcDbLine
 10
-2026.844621429941
 20
-245.1114808652244
 30
0.0
 11
-2026.844621429941
 21
-485.1114808652244
 31
0.0
  0
LINE
  5
1D4
330
1F
100
AcDbEntity
  8
0-B
  6
Continuous
 62
   120
370
     5
100
AcDbLine
 10
-2126.844621429941
 20
-585.1114808652244
 30
0.0
 11
-2126.844621429941
 21
-535.1114808652244
 31
0.0
  0
LWPOLYLINE
  5
1D5
330
1F
100
AcDbEntity
  8
0-B
  6
Continuous
 62
     7
370
     9
100
AcDbPolyline
 90
        4
 70
     1
 43
2.0
 10
-2125.844621429941
 20
-585.1114808652244
 42
0.4142135623731
 10
-2126.844621429941
 20
-584.1114808652244
 42
0.4142135623731
 10
-2127.844621429941
 20
-585.1114808652244
 42
0.4142135623731
 10
-2126.844621429941
 20
-586.1114808652244
 42
0.4142135623731
  0
LINE
  5
1D6
330
1F
100
AcDbEntity
  8
0-B
  6
Continuous
 62
   120
370
     5
100
AcDbLine
 10
-2626.844621429941
 20
-585.1114808652244
 30
0.0
 11
-2126.844621429941
 21
-585.1114808652244
 31
0.0
  0
LINE
  5
1D7
330
1F
100
AcDbEntity
  8
0-B
  6
Continuous
 62
   120
370
     5
100
AcDbLine
 10
-2246.844621429941
 20
-585.1114808652244
 30
0.0
 11
-2246.844621429941
 21
-535.1114808652244
 31
0.0
  0
LWPOLYLINE
  5
1D8
330
1F
100
AcDbEntity
  8
0-B
  6
Continuous
 62
     7
370
     9
100
AcDbPolyline
 90
        4
 70
     1
 43
2.0
 10
-2245.844621429941
 20
-585.1114808652244
 42
0.4142135623731
 10
-2246.844621429941
 20
-584.1114808652244
 42
0.4142135623731
 10
-2247.844621429941
 20
-585.1114808652244
 42
0.4142135623731
 10
-2246.844621429941
 20
-586.1114808652244
 42
0.4142135623731
  0
LINE
  5
1D9
330
1F
100
AcDbEntity
  8
0-B
  6
Continuous
 62
   120
370
     5
100
AcDbLine
 10
-2126.844621429941
 20
-145.1114808652244
 30
0.0
 11
-2126.844621429941
 21
-195.1114808652244
 31
0.0
  0
LWPOLYLINE
  5
1DA
330
1F
100
AcDbEntity
  8
0-B
  6
Continuous
 62
     7
370
     9
100
AcDbPolyline
 90
        4
 70
     1
 43
2.0
 10
-2125.844621429941
 20
-145.1114808652244
 42
0.4142135623731
 10
-2126.844621429941
 20
-144.1114808652244
 42
0.4142135623731
 10
-2127.844621429941
 20
-145.1114808652244
 42
0.4142135623731
 10
-2126.844621429941
 20
-146.1114808652244
 42
0.4142135623731
  0
LINE
  5
1DB
330
1F
100
AcDbEntity
  8
0-0
  6
JWW_HOJO
 62
     7
370
     9
100
AcDbLine
 10
-2141.489282370615
 20
-195.1114808652244
 30
0.0
 11
-2076.844621429941
 21
-259.7561418058967
 31
0.0
  0
LINE
  5
1DC
330
1F
100
AcDbEntity
  8
0-0
  6
JWW_HOJO
 62
     7
370
     9
100
AcDbLine
 10
-2076.844621429941
 20
-535.1114808652244
 30
0.0
 11
-2076.844621429941
 21
-259.7561418058967
 31
0.0
  0
LINE
  5
1DD
330
1F
100
AcDbEntity
  8
0-0
  6
JWW_HOJO
 62
     7
370
     9
100
AcDbLine
 10
-2120.778604251959
 20
-145.1114808652244
 30
0.0
 11
-2026.844621429941
 21
-239.045463687242
 31
0.0
  0
LINE
  5
1DE
330
1F
100
AcDbEntity
  8
0-0
  6
JWW_HOJO
 62
     7
370
     9
100
AcDbLine
 10
-2026.844621429941
 20
-585.1114808652244
 30
0.0
 11
-2026.844621429941
 21
-239.045463687242
 31
0.0
  0
LINE
  5
1DF
330
1F
100
AcDbEntity
  8
0-4
  6
Continuous
 62
    92
370
    13
100
AcDbLine
 10
-2164.271028301134
 20
-250.1114808652244
 30
0.0
 11
-2131.844621429941
 21
-282.5378877364176
 31
0.0
  0
LINE
  5
1E0
330
1F
100
AcDbEntity
  8
0-4
  6
Continuous
 62
    92
370
    13
100
AcDbLine
 10
-2162.19996048927
 20
-245.1114808652244
 30
0.0
 11
-2126.844621429941
 21
-280.4668199245521
 31
0.0
  0
LINE
  5
1E1
330
1F
100
AcDbEntity
  8
0-4
  6
Continuous
 62
    92
370
    13
100
AcDbLine
 10
-2131.844621429941
 20
-485.1114808652244
 30
0.0
 11
-2131.844621429941
 21
-282.5378877364176
 31
0.0
  0
LINE
  5
1E2
330
1F
100
AcDbEntity
  8
0-4
  6
Continuous
 62
    92
370
    13
100
AcDbLine
 10
-2126.844621429941
 20
-485.1114808652244
 30
0.0
 11
-2126.844621429941
 21
-280.4668199245521
 31
0.0
  0
LINE
  5
1E3
330
1F
100
AcDbEntity
  8
0-4
  6
Continuous
 62
    92
370
    13
100
AcDbLine
 10
-2246.844621429941
 20
-485.1114808652244
 30
0.0
 11
-2246.844621429941
 21
-333.1114808652245
 31
0.0
  0
LINE
  5
1E4
330
1F
100
AcDbEntity
  8
0-4
  6
Continuous
 62
    92
370
    13
100
AcDbLine
 10
-2126.844621429941
 20
-485.1114808652244
 30
0.0
 11
-2246.844621429941
 21
-485.1114808652244
 31
0.0
  0
LINE
  5
1E5
330
1F
100
AcDbEntity
  8
0-B
  6
Continuous
 62
   120
370
     5
100
AcDbLine
 10
-2556.844621429941
 20
284.969495285635
 30
0.0
 11
-2506.844621429941
 21
284.969495285635
 31
0.0
  0
LINE
  5
1E6
330
1F
100
AcDbEntity
  8
0-B
  6
Continuous
 62
   120
370
     5
100
AcDbLine
 10
-2556.844621429941
 20
372.9694952856352
 30
0.0
 11
-2506.844621429941
 21
372.9694952856352
 31
0.0
  0
LWPOLYLINE
  5
1E7
330
1F
100
AcDbEntity
  8
0-B
  6
Continuous
 62
     7
370
     9
100
AcDbPolyline
 90
        4
 70
     1
 43
2.0
 10
-2555.844621429941
 20
284.969495285635
 42
0.4142135623731
 10
-2556.844621429941
 20
285.969495285635
 42
0.4142135623731
 10
-2557.844621429941
 20
284.969495285635
 42
0.4142135623731
 10
-2556.844621429941
 20
283.969495285635
 42
0.4142135623731
  0
LWPOLYLINE
  5
1E8
330
1F
100
AcDbEntity
  8
0-B
  6
Continuous
 62
     7
370
     9
100
AcDbPolyline
 90
        4
 70
     1
 43
2.0
 10
-2555.844621429941
 20
372.9694952856352
 42
0.4142135623731
 10
-2556.844621429941
 20
373.9694952856352
 42
0.4142135623731
 10
-2557.844621429941
 20
372.9694952856352
 42
0.4142135623731
 10
-2556.844621429941
 20
371.9694952856352
 42
0.4142135623731
  0
LINE
  5
1E9
330
1F
100
AcDbEntity
  8
0-B
  6
Continuous
 62
   120
370
     5
100
AcDbLine
 10
-2556.844621429941
 20
372.9694952856352
 30
0.0
 11
-2556.844621429941
 21
284.969495285635
 31
0.0
  0
LINE
  5
1EA
330
1F
100
AcDbEntity
  8
0-B
  6
Continuous
 62
   120
370
     5
100
AcDbLine
 10
-2456.844621429941
 20
32.96949528563516
 30
0.0
 11
-2456.844621429941
 21
82.96949528563516
 31
0.0
  0
LWPOLYLINE
  5
1EB
330
1F
100
AcDbEntity
  8
0-B
  6
Continuous
 62
     7
370
     9
100
AcDbPolyline
 90
        4
 70
     1
 43
2.0
 10
-2455.844621429941
 20
32.96949528563516
 42
0.4142135623731
 10
-2456.844621429941
 20
33.96949528563516
 42
0.4142135623731
 10
-2457.844621429941
 20
32.96949528563516
 42
0.4142135623731
 10
-2456.844621429941
 20
31.96949528563516
 42
0.4142135623731
  0
LINE
  5
1EC
330
1F
100
AcDbEntity
  8
0-B
  6
Continuous
 62
   120
370
     5
100
AcDbLine
 10
-2456.844621429941
 20
472.9694952856352
 30
0.0
 11
-2456.844621429941
 21
422.9694952856352
 31
0.0
  0
LWPOLYLINE
  5
1ED
330
1F
100
AcDbEntity
  8
0-B
  6
Continuous
 62
     7
370
     9
100
AcDbPolyline
 90
        4
 70
     1
 43
2.0
 10
-2455.844621429941
 20
472.9694952856352
 42
0.4142135623731
 10
-2456.844621429941
 20
473.9694952856352
 42
0.4142135623731
 10
-2457.844621429941
 20
472.9694952856352
 42
0.4142135623731
 10
-2456.844621429941
 20
471.9694952856352
 42
0.4142135623731
  0
LINE
  5
1EE
330
1F
100
AcDbEntity
  8
0-B
  6
Continuous
 62
   120
370
     5
100
AcDbLine
 10
-2456.844621429941
 20
472.9694952856352
 30
0.0
 11
-2126.844621429941
 21
472.9694952856352
 31
0.0
  0
LINE
  5
1EF
330
1F
100
AcDbEntity
  8
0-0
  6
JWW_HOJO
 62
     7
370
     9
100
AcDbLine
 10
-2506.844621429941
 20
422.9694952856352
 30
0.0
 11
-2120.276078935017
 21
422.9694952856352
 31
0.0
  0
LINE
  5
1F0
330
1F
100
AcDbEntity
  8
0-0
  6
JWW_HOJO
 62
     7
370
     9
100
AcDbLine
 10
-2076.844621429941
 20
82.96949528563516
 30
0.0
 11
-2506.844621429941
 21
82.96949528563516
 31
0.0
  0
LINE
  5
1F1
330
1F
100
AcDbEntity
  8
0-0
  6
JWW_HOJO
 62
     7
370
     9
100
AcDbLine
 10
-2506.844621429941
 20
422.9694952856352
 30
0.0
 11
-2506.844621429941
 21
82.96949528563516
 31
0.0
  0
LINE
  5
1F2
330
1F
100
AcDbEntity
  8
0-0
  6
JWW_HOJO
 62
     7
370
     9
100
AcDbLine
 10
-2556.844621429941
 20
472.9694952856352
 30
0.0
 11
-2099.565400816364
 21
472.9694952856352
 31
0.0
  0
LINE
  5
1F3
330
1F
100
AcDbEntity
  8
0-0
  6
JWW_HOJO
 62
     7
370
     9
100
AcDbLine
 10
-2026.844621429941
 20
32.96949528563516
 30
0.0
 11
-2556.844621429941
 21
32.96949528563516
 31
0.0
  0
LINE
  5
1F4
330
1F
100
AcDbEntity
  8
0-0
  6
JWW_HOJO
 62
     7
370
     9
100
AcDbLine
 10
-2556.844621429941
 20
472.9694952856352
 30
0.0
 11
-2556.844621429941
 21
32.96949528563516
 31
0.0
  0
LINE
  5
1F5
330
1F
100
AcDbEntity
  8
0-4
  6
Continuous
 62
    92
370
    13
100
AcDbLine
 10
-2456.844621429941
 20
367.9694952856352
 30
0.0
 11
-2143.057824865539
 21
367.9694952856352
 31
0.0
  0
LINE
  5
1F6
330
1F
100
AcDbEntity
  8
0-4
  6
Continuous
 62
    92
370
    13
100
AcDbLine
 10
-2456.844621429941
 20
372.9694952856352
 30
0.0
 11
-2140.986757053672
 21
372.9694952856352
 31
0.0
  0
LINE
  5
1F7
330
1F
100
AcDbEntity
  8
0-4
  6
Continuous
 62
    92
370
    13
100
AcDbLine
 10
-2456.844621429941
 20
284.969495285635
 30
0.0
 11
-2206.844621429941
 21
284.969495285635
 31
0.0
  0
LINE
  5
1F8
330
1F
100
AcDbEntity
  8
0-4
  6
Continuous
 62
    92
370
    13
100
AcDbLine
 10
-2456.844621429941
 20
372.9694952856352
 30
0.0
 11
-2456.844621429941
 21
284.969495285635
 31
0.0
  0
LINE
  5
1F9
330
1F
100
AcDbEntity
  8
0-B
  6
Continuous
 62
   120
370
     5
100
AcDbLine
 10
-2056.133943311286
 20
429.5380377805589
 30
0.0
 11
-2091.489282370615
 21
394.1826987212312
 31
0.0
  0
LINE
  5
1FA
330
1F
100
AcDbEntity
  8
0-B
  6
Continuous
 62
   120
370
     5
100
AcDbLine
 10
-2070.276078935017
 20
443.6801734042899
 30
0.0
 11
-2105.631417994346
 21
408.3248343449623
 31
0.0
  0
LWPOLYLINE
  5
1FB
330
1F
100
AcDbEntity
  8
0-B
  6
Continuous
 62
     7
370
     9
100
AcDbPolyline
 90
        4
 70
     1
 43
2.0
 10
-2055.133943311286
 20
429.5380377805589
 42
0.4142135623731
 10
-2056.133943311286
 20
430.5380377805589
 42
0.4142135623731
 10
-2057.133943311286
 20
429.5380377805589
 42
0.4142135623731
 10
-2056.133943311286
 20
428.5380377805589
 42
0.4142135623731
  0
LWPOLYLINE
  5
1FC
330
1F
100
AcDbEntity
  8
0-B
  6
Continuous
 62
     7
370
     9
100
AcDbPolyline
 90
        4
 70
     1
 43
2.0
 10
-2069.276078935017
 20
443.6801734042899
 42
0.4142135623731
 10
-2070.276078935017
 20
444.6801734042899
 42
0.4142135623731
 10
-2071.276078935017
 20
443.6801734042899
 42
0.4142135623731
 10
-2070.276078935017
 20
442.6801734042899
 42
0.4142135623731
  0
LINE
  5
1FD
330
1F
100
AcDbEntity
  8
0-B
  6
Continuous
 62
   120
370
     5
100
AcDbLine
 10
-2070.276078935017
 20
443.6801734042899
 30
0.0
 11
-2056.133943311286
 21
429.5380377805589
 31
0.0
  0
LINE
  5
1FE
330
1F
100
AcDbEntity
  8
0-B
  6
Continuous
 62
   120
370
     5
100
AcDbLine
 10
-2026.844621429941
 20
132.9694952856352
 30
0.0
 11
-2076.844621429941
 21
132.9694952856352
 31
0.0
  0
LINE
  5
1FF
330
1F
100
AcDbEntity
  8
0-B
  6
Continuous
 62
   120
370
     5
100
AcDbLine
 10
-2026.844621429941
 20
372.9694952856352
 30
0.0
 11
-2076.844621429941
 21
372.9694952856352
 31
0.0
  0
LWPOLYLINE
  5
200
330
1F
100
AcDbEntity
  8
0-B
  6
Continuous
 62
     7
370
     9
100
AcDbPolyline
 90
        4
 70
     1
 43
2.0
 10
-2025.844621429941
 20
132.9694952856352
 42
0.4142135623731
 10
-2026.844621429941
 20
133.9694952856352
 42
0.4142135623731
 10
-2027.844621429941
 20
132.9694952856352
 42
0.4142135623731
 10
-2026.844621429941
 20
131.9694952856352
 42
0.4142135623731
  0
LWPOLYLINE
  5
201
330
1F
100
AcDbEntity
  8
0-B
  6
Continuous
 62
     7
370
     9
100
AcDbPolyline
 90
        4
 70
     1
 43
2.0
 10
-2025.844621429941
 20
372.9694952856352
 42
0.4142135623731
 10
-2026.844621429941
 20
373.9694952856352
 42
0.4142135623731
 10
-2027.844621429941
 20
372.9694952856352
 42
0.4142135623731
 10
-2026.844621429941
 20
371.9694952856352
 42
0.4142135623731
  0
LINE
  5
202
330
1F
100
AcDbEntity
  8
0-B
  6
Continuous
 62
   120
370
     5
100
AcDbLine
 10
-2026.844621429941
 20
372.9694952856352
 30
0.0
 11
-2026.844621429941
 21
132.9694952856352
 31
0.0
  0
LINE
  5
203
330
1F
100
AcDbEntity
  8
0-B
  6
Continuous
 62
   120
370
     5
100
AcDbLine
 10
-2126.844621429941
 20
32.96949528563516
 30
0.0
 11
-2126.844621429941
 21
82.96949528563516
 31
0.0
  0
LWPOLYLINE
  5
204
330
1F
100
AcDbEntity
  8
0-B
  6
Continuous
 62
     7
370
     9
100
AcDbPolyline
 90
        4
 70
     1
 43
2.0
 10
-2125.844621429941
 20
32.96949528563516
 42
0.4142135623731
 10
-2126.844621429941
 20
33.96949528563516
 42
0.4142135623731
 10
-2127.844621429941
 20
32.96949528563516
 42
0.4142135623731
 10
-2126.844621429941
 20
31.96949528563516
 42
0.4142135623731
  0
LINE
  5
205
330
1F
100
AcDbEntity
  8
0-B
  6
Continuous
 62
   120
370
     5
100
AcDbLine
 10
-2456.844621429941
 20
32.96949528563516
 30
0.0
 11
-2126.844621429941
 21
32.96949528563516
 31
0.0
  0
LINE
  5
206
330
1F
100
AcDbEntity
  8
0-B
  6
Continuous
 62
   120
370
     5
100
AcDbLine
 10
-2206.844621429941
 20
32.96949528563516
 30
0.0
 11
-2206.844621429941
 21
82.96949528563516
 31
0.0
  0
LWPOLYLINE
  5
207
330
1F
100
AcDbEntity
  8
0-B
  6
Continuous
 62
     7
370
     9
100
AcDbPolyline
 90
        4
 70
     1
 43
2.0
 10
-2205.844621429941
 20
32.96949528563516
 42
0.4142135623731
 10
-2206.844621429941
 20
33.96949528563516
 42
0.4142135623731
 10
-2207.844621429941
 20
32.96949528563516
 42
0.4142135623731
 10
-2206.844621429941
 20
31.96949528563516
 42
0.4142135623731
  0
LINE
  5
208
330
1F
100
AcDbEntity
  8
0-B
  6
Continuous
 62
   120
370
     5
100
AcDbLine
 10
-2126.844621429941
 20
472.9694952856352
 30
0.0
 11
-2126.844621429941
 21
422.9694952856352
 31
0.0
  0
LWPOLYLINE
  5
209
330
1F
100
AcDbEntity
  8
0-B
  6
Continuous
 62
     7
370
     9
100
AcDbPolyline
 90
        4
 70
     1
 43
2.0
 10
-2125.844621429941
 20
472.9694952856352
 42
0.4142135623731
 10
-2126.844621429941
 20
473.9694952856352
 42
0.4142135623731
 10
-2127.844621429941
 20
472.9694952856352
 42
0.4142135623731
 10
-2126.844621429941
 20
471.9694952856352
 42
0.4142135623731
  0
LINE
  5
20A
330
1F
100
AcDbEntity
  8
0-0
  6
JWW_HOJO
 62
     7
370
     9
100
AcDbLine
 10
-2120.276078935017
 20
422.9694952856352
 30
0.0
 11
-2076.844621429941
 21
379.5380377805589
 31
0.0
  0
LINE
  5
20B
330
1F
100
AcDbEntity
  8
0-0
  6
JWW_HOJO
 62
     7
370
     9
100
AcDbLine
 10
-2076.844621429941
 20
82.96949528563516
 30
0.0
 11
-2076.844621429941
 21
379.5380377805589
 31
0.0
  0
LINE
  5
20C
330
1F
100
AcDbEntity
  8
0-0
  6
JWW_HOJO
 62
     7
370
     9
100
AcDbLine
 10
-2099.565400816364
 20
472.9694952856352
 30
0.0
 11
-2026.844621429941
 21
400.2487158992136
 31
0.0
  0
LINE
  5
20D
330
1F
100
AcDbEntity
  8
0-0
  6
JWW_HOJO
 62
     7
370
     9
100
AcDbLine
 10
-2026.844621429941
 20
32.96949528563516
 30
0.0
 11
-2026.844621429941
 21
400.2487158992136
 31
0.0
  0
LINE
  5
20E
330
1F
100
AcDbEntity
  8
0-4
  6
Continuous
 62
    92
370
    13
100
AcDbLine
 10
-2143.057824865539
 20
367.9694952856352
 30
0.0
 11
-2131.844621429941
 21
356.7562918500386
 31
0.0
  0
LINE
  5
20F
330
1F
100
AcDbEntity
  8
0-4
  6
Continuous
 62
    92
370
    13
100
AcDbLine
 10
-2140.986757053672
 20
372.9694952856352
 30
0.0
 11
-2126.844621429941
 21
358.8273596619041
 31
0.0
  0
LINE
  5
210
330
1F
100
AcDbEntity
  8
0-4
  6
Continuous
 62
    92
370
    13
100
AcDbLine
 10
-2131.844621429941
 20
132.9694952856352
 30
0.0
 11
-2131.844621429941
 21
356.7562918500386
 31
0.0
  0
LINE
  5
211
330
1F
100
AcDbEntity
  8
0-4
  6
Continuous
 62
    92
370
    13
100
AcDbLine
 10
-2126.844621429941
 20
132.9694952856352
 30
0.0
 11
-2126.844621429941
 21
358.8273596619041
 31
0.0
  0
LINE
  5
212
330
1F
100
AcDbEntity
  8
0-4
  6
Continuous
 62
    92
370
    13
100
AcDbLine
 10
-2206.844621429941
 20
132.9694952856352
 30
0.0
 11
-2206.844621429941
 21
284.969495285635
 31
0.0
  0
LINE
  5
213
330
1F
100
AcDbEntity
  8
0-4
  6
Continuous
 62
    92
370
    13
100
AcDbLine
 10
-2126.844621429941
 20
132.9694952856352
 30
0.0
 11
-2206.844621429941
 21
132.9694952856352
 31
0.0
  0
LINE
  5
214
330
1F
100
AcDbEntity
  8
0-B
  6
Continuous
 62
   120
370
     5
100
AcDbLine
 10
-2596.844621429941
 20
913.6139336619016
 30
0.0
 11
-2546.844621429941
 21
913.6139336619016
 31
0.0
  0
LINE
  5
215
330
1F
100
AcDbEntity
  8
0-B
  6
Continuous
 62
   120
370
     5
100
AcDbLine
 10
-2596.844621429941
 20
1001.613933661902
 30
0.0
 11
-2546.844621429941
 21
1001.613933661902
 31
0.0
  0
LWPOLYLINE
  5
216
330
1F
100
AcDbEntity
  8
0-B
  6
Continuous
 62
     7
370
     9
100
AcDbPolyline
 90
        4
 70
     1
 43
2.0
 10
-2595.844621429941
 20
913.6139336619016
 42
0.4142135623731
 10
-2596.844621429941
 20
914.6139336619015
 42
0.4142135623731
 10
-2597.844621429941
 20
913.6139336619016
 42
0.4142135623731
 10
-2596.844621429941
 20
912.6139336619017
 42
0.4142135623731
  0
LWPOLYLINE
  5
217
330
1F
100
AcDbEntity
  8
0-B
  6
Continuous
 62
     7
370
     9
100
AcDbPolyline
 90
        4
 70
     1
 43
2.0
 10
-2595.844621429941
 20
1001.613933661902
 42
0.4142135623731
 10
-2596.844621429941
 20
1002.613933661902
 42
0.4142135623731
 10
-2597.844621429941
 20
1001.613933661902
 42
0.4142135623731
 10
-2596.844621429941
 20
1000.613933661902
 42
0.4142135623731
  0
LINE
  5
218
330
1F
100
AcDbEntity
  8
0-B
  6
Continuous
 62
   120
370
     5
100
AcDbLine
 10
-2596.844621429941
 20
1001.613933661902
 30
0.0
 11
-2596.844621429941
 21
913.6139336619016
 31
0.0
  0
LINE
  5
219
330
1F
100
AcDbEntity
  8
0-B
  6
Continuous
 62
   120
370
     5
100
AcDbLine
 10
-2496.844621429941
 20
661.6139336619017
 30
0.0
 11
-2496.844621429941
 21
711.6139336619017
 31
0.0
  0
LWPOLYLINE
  5
21A
330
1F
100
AcDbEntity
  8
0-B
  6
Continuous
 62
     7
370
     9
100
AcDbPolyline
 90
        4
 70
     1
 43
2.0
 10
-2495.844621429941
 20
661.6139336619017
 42
0.4142135623731
 10
-2496.844621429941
 20
662.6139336619017
 42
0.4142135623731
 10
-2497.844621429941
 20
661.6139336619017
 42
0.4142135623731
 10
-2496.844621429941
 20
660.6139336619017
 42
0.4142135623731
  0
LINE
  5
21B
330
1F
100
AcDbEntity
  8
0-B
  6
Continuous
 62
   120
370
     5
100
AcDbLine
 10
-2496.844621429941
 20
1101.613933661902
 30
0.0
 11
-2496.844621429941
 21
1051.613933661902
 31
0.0
  0
LWPOLYLINE
  5
21C
330
1F
100
AcDbEntity
  8
0-B
  6
Continuous
 62
     7
370
     9
100
AcDbPolyline
 90
        4
 70
     1
 43
2.0
 10
-2495.844621429941
 20
1101.613933661902
 42
0.4142135623731
 10
-2496.844621429941
 20
1102.613933661902
 42
0.4142135623731
 10
-2497.844621429941
 20
1101.613933661902
 42
0.4142135623731
 10
-2496.844621429941
 20
1100.613933661902
 42
0.4142135623731
  0
LINE
  5
21D
330
1F
100
AcDbEntity
  8
0-B
  6
Continuous
 62
   120
370
     5
100
AcDbLine
 10
-2496.844621429941
 20
1101.613933661902
 30
0.0
 11
-2126.844621429941
 21
1101.613933661902
 31
0.0
  0
LINE
  5
21E
330
1F
100
AcDbEntity
  8
0-0
  6
JWW_HOJO
 62
     7
370
     9
100
AcDbLine
 10
-2546.844621429941
 20
1051.613933661902
 30
0.0
 11
-2546.844621429941
 21
711.6139336619017
 31
0.0
  0
LINE
  5
21F
330
1F
100
AcDbEntity
  8
0-0
  6
JWW_HOJO
 62
     7
370
     9
100
AcDbLine
 10
-2546.844621429941
 20
1051.613933661902
 30
0.0
 11
-2141.489282370615
 21
1051.613933661902
 31
0.0
  0
LINE
  5
220
330
1F
100
AcDbEntity
  8
0-0
  6
JWW_HOJO
 62
     7
370
     9
100
AcDbLine
 10
-2076.844621429941
 20
711.6139336619017
 30
0.0
 11
-2546.844621429941
 21
711.6139336619017
 31
0.0
  0
LINE
  5
221
330
1F
100
AcDbEntity
  8
0-0
  6
JWW_HOJO
 62
     7
370
     9
100
AcDbLine
 10
-2596.844621429941
 20
1101.613933661902
 30
0.0
 11
-2596.844621429941
 21
661.6139336619017
 31
0.0
  0
LINE
  5
222
330
1F
100
AcDbEntity
  8
0-0
  6
JWW_HOJO
 62
     7
370
     9
100
AcDbLine
 10
-2596.844621429941
 20
1101.613933661902
 30
0.0
 11
-2120.778604251959
 21
1101.613933661902
 31
0.0
  0
LINE
  5
223
330
1F
100
AcDbEntity
  8
0-0
  6
JWW_HOJO
 62
     7
370
     9
100
AcDbLine
 10
-2026.844621429941
 20
661.6139336619017
 30
0.0
 11
-2596.844621429941
 21
661.6139336619017
 31
0.0
  0
LINE
  5
224
330
1F
100
AcDbEntity
  8
0-4
  6
Continuous
 62
    92
370
    13
100
AcDbLine
 10
-2496.844621429941
 20
996.6139336619017
 30
0.0
 11
-2164.271028301134
 21
996.6139336619017
 31
0.0
  0
LINE
  5
225
330
1F
100
AcDbEntity
  8
0-4
  6
Continuous
 62
    92
370
    13
100
AcDbLine
 10
-2496.844621429941
 20
1001.613933661902
 30
0.0
 11
-2162.19996048927
 21
1001.613933661902
 31
0.0
  0
LINE
  5
226
330
1F
100
AcDbEntity
  8
0-4
  6
Continuous
 62
    92
370
    13
100
AcDbLine
 10
-2496.844621429941
 20
913.6139336619016
 30
0.0
 11
-2246.844621429941
 21
913.6139336619016
 31
0.0
  0
LINE
  5
227
330
1F
100
AcDbEntity
  8
0-4
  6
Continuous
 62
    92
370
    13
100
AcDbLine
 10
-2496.844621429941
 20
1001.613933661902
 30
0.0
 11
-2496.844621429941
 21
913.6139336619016
 31
0.0
  0
LINE
  5
228
330
1F
100
AcDbEntity
  8
0-B
  6
Continuous
 62
   120
370
     5
100
AcDbLine
 10
-2059.166951900279
 20
1033.936264132238
 30
0.0
 11
-2091.489282370615
 21
1001.613933661902
 31
0.0
  0
LINE
  5
229
330
1F
100
AcDbEntity
  8
0-B
  6
Continuous
 62
   120
370
     5
100
AcDbLine
 10
-2094.522290959605
 20
1069.291603191566
 30
0.0
 11
-2126.844621429941
 21
1036.969272721229
 31
0.0
  0
LWPOLYLINE
  5
22A
330
1F
100
AcDbEntity
  8
0-B
  6
Continuous
 62
     7
370
     9
100
AcDbPolyline
 90
        4
 70
     1
 43
2.0
 10
-2058.166951900279
 20
1033.936264132238
 42
0.4142135623731
 10
-2059.166951900279
 20
1034.936264132238
 42
0.4142135623731
 10
-2060.166951900279
 20
1033.936264132238
 42
0.4142135623731
 10
-2059.166951900279
 20
1032.936264132238
 42
0.4142135623731
  0
LWPOLYLINE
  5
22B
330
1F
100
AcDbEntity
  8
0-B
  6
Continuous
 62
     7
370
     9
100
AcDbPolyline
 90
        4
 70
     1
 43
2.0
 10
-2093.522290959605
 20
1069.291603191566
 42
0.4142135623731
 10
-2094.522290959605
 20
1070.291603191565
 42
0.4142135623731
 10
-2095.522290959605
 20
1069.291603191566
 42
0.4142135623731
 10
-2094.522290959605
 20
1068.291603191566
 42
0.4142135623731
  0
LINE
  5
22C
330
1F
100
AcDbEntity
  8
0-B
  6
Continuous
 62
   120
370
     5
100
AcDbLine
 10
-2094.522290959605
 20
1069.291603191566
 30
0.0
 11
-2059.166951900279
 21
1033.936264132238
 31
0.0
  0
LINE
  5
22D
330
1F
100
AcDbEntity
  8
0-B
  6
Continuous
 62
   120
370
     5
100
AcDbLine
 10
-2026.844621429941
 20
761.6139336619017
 30
0.0
 11
-2076.844621429941
 21
761.6139336619017
 31
0.0
  0
LINE
  5
22E
330
1F
100
AcDbEntity
  8
0-B
  6
Continuous
 62
   120
370
     5
100
AcDbLine
 10
-2026.844621429941
 20
1001.613933661902
 30
0.0
 11
-2076.844621429941
 21
1001.613933661902
 31
0.0
  0
LWPOLYLINE
  5
22F
330
1F
100
AcDbEntity
  8
0-B
  6
Continuous
 62
     7
370
     9
100
AcDbPolyline
 90
        4
 70
     1
 43
2.0
 10
-2025.844621429941
 20
761.6139336619017
 42
0.4142135623731
 10
-2026.844621429941
 20
762.6139336619017
 42
0.4142135623731
 10
-2027.844621429941
 20
761.6139336619017
 42
0.4142135623731
 10
-2026.844621429941
 20
760.6139336619017
 42
0.4142135623731
  0
LWPOLYLINE
  5
230
330
1F
100
AcDbEntity
  8
0-B
  6
Continuous
 62
     7
370
     9
100
AcDbPolyline
 90
        4
 70
     1
 43
2.0
 10
-2025.844621429941
 20
1001.613933661902
 42
0.4142135623731
 10
-2026.844621429941
 20
1002.613933661902
 42
0.4142135623731
 10
-2027.844621429941
 20
1001.613933661902
 42
0.4142135623731
 10
-2026.844621429941
 20
1000.613933661902
 42
0.4142135623731
  0
LINE
  5
231
330
1F
100
AcDbEntity
  8
0-B
  6
Continuous
 62
   120
370
     5
100
AcDbLine
 10
-2026.844621429941
 20
1001.613933661902
 30
0.0
 11
-2026.844621429941
 21
761.6139336619017
 31
0.0
  0
LINE
  5
232
330
1F
100
AcDbEntity
  8
0-B
  6
Continuous
 62
   120
370
     5
100
AcDbLine
 10
-2126.844621429941
 20
661.6139336619017
 30
0.0
 11
-2126.844621429941
 21
711.6139336619017
 31
0.0
  0
LWPOLYLINE
  5
233
330
1F
100
AcDbEntity
  8
0-B
  6
Continuous
 62
     7
370
     9
100
AcDbPolyline
 90
        4
 70
     1
 43
2.0
 10
-2125.844621429941
 20
661.6139336619017
 42
0.4142135623731
 10
-2126.844621429941
 20
662.6139336619017
 42
0.4142135623731
 10
-2127.844621429941
 20
661.6139336619017
 42
0.4142135623731
 10
-2126.844621429941
 20
660.6139336619017
 42
0.4142135623731
  0
LINE
  5
234
330
1F
100
AcDbEntity
  8
0-B
  6
Continuous
 62
   120
370
     5
100
AcDbLine
 10
-2496.844621429941
 20
661.6139336619017
 30
0.0
 11
-2126.844621429941
 21
661.6139336619017
 31
0.0
  0
LINE
  5
235
330
1F
100
AcDbEntity
  8
0-B
  6
Continuous
 62
   120
370
     5
100
AcDbLine
 10
-2246.844621429941
 20
661.6139336619017
 30
0.0
 11
-2246.844621429941
 21
711.6139336619017
 31
0.0
  0
LWPOLYLINE
  5
236
330
1F
100
AcDbEntity
  8
0-B
  6
Continuous
 62
     7
370
     9
100
AcDbPolyline
 90
        4
 70
     1
 43
2.0
 10
-2245.844621429941
 20
661.6139336619017
 42
0.4142135623731
 10
-2246.844621429941
 20
662.6139336619017
 42
0.4142135623731
 10
-2247.844621429941
 20
661.6139336619017
 42
0.4142135623731
 10
-2246.844621429941
 20
660.6139336619017
 42
0.4142135623731
  0
LINE
  5
237
330
1F
100
AcDbEntity
  8
0-B
  6
Continuous
 62
   120
370
     5
100
AcDbLine
 10
-2126.844621429941
 20
1101.613933661902
 30
0.0
 11
-2126.844621429941
 21
1051.613933661902
 31
0.0
  0
LWPOLYLINE
  5
238
330
1F
100
AcDbEntity
  8
0-B
  6
Continuous
 62
     7
370
     9
100
AcDbPolyline
 90
        4
 70
     1
 43
2.0
 10
-2125.844621429941
 20
1101.613933661902
 42
0.4142135623731
 10
-2126.844621429941
 20
1102.613933661902
 42
0.4142135623731
 10
-2127.844621429941
 20
1101.613933661902
 42
0.4142135623731
 10
-2126.844621429941
 20
1100.613933661902
 42
0.4142135623731
  0
LINE
  5
239
330
1F
100
AcDbEntity
  8
0-0
  6
JWW_HOJO
 62
     7
370
     9
100
AcDbLine
 10
-2141.489282370615
 20
1051.613933661902
 30
0.0
 11
-2076.844621429941
 21
986.9692727212293
 31
0.0
  0
LINE
  5
23A
330
1F
100
AcDbEntity
  8
0-0
  6
JWW_HOJO
 62
     7
370
     9
100
AcDbLine
 10
-2076.844621429941
 20
711.6139336619017
 30
0.0
 11
-2076.844621429941
 21
986.9692727212293
 31
0.0
  0
LINE
  5
23B
330
1F
100
AcDbEntity
  8
0-0
  6
JWW_HOJO
 62
     7
370
     9
100
AcDbLine
 10
-2120.778604251959
 20
1101.613933661902
 30
0.0
 11
-2026.844621429941
 21
1007.679950839884
 31
0.0
  0
LINE
  5
23C
330
1F
100
AcDbEntity
  8
0-0
  6
JWW_HOJO
 62
     7
370
     9
100
AcDbLine
 10
-2026.844621429941
 20
661.6139336619017
 30
0.0
 11
-2026.844621429941
 21
1007.679950839884
 31
0.0
  0
LINE
  5
23D
330
1F
100
AcDbEntity
  8
0-4
  6
Continuous
 62
    92
370
    13
100
AcDbLine
 10
-2164.271028301134
 20
996.6139336619017
 30
0.0
 11
-2131.844621429941
 21
964.1875267907085
 31
0.0
  0
LINE
  5
23E
330
1F
100
AcDbEntity
  8
0-4
  6
Continuous
 62
    92
370
    13
100
AcDbLine
 10
-2162.19996048927
 20
1001.613933661902
 30
0.0
 11
-2126.844621429941
 21
966.258594602574
 31
0.0
  0
LINE
  5
23F
330
1F
100
AcDbEntity
  8
0-4
  6
Continuous
 62
    92
370
    13
100
AcDbLine
 10
-2131.844621429941
 20
761.6139336619017
 30
0.0
 11
-2131.844621429941
 21
964.1875267907085
 31
0.0
  0
LINE
  5
240
330
1F
100
AcDbEntity
  8
0-4
  6
Continuous
 62
    92
370
    13
100
AcDbLine
 10
-2126.844621429941
 20
761.6139336619017
 30
0.0
 11
-2126.844621429941
 21
966.258594602574
 31
0.0
  0
LINE
  5
241
330
1F
100
AcDbEntity
  8
0-4
  6
Continuous
 62
    92
370
    13
100
AcDbLine
 10
-2246.844621429941
 20
761.6139336619017
 30
0.0
 11
-2246.844621429941
 21
913.6139336619016
 31
0.0
  0
LINE
  5
242
330
1F
100
AcDbEntity
  8
0-4
  6
Continuous
 62
    92
370
    13
100
AcDbLine
 10
-2126.844621429941
 20
761.6139336619017
 30
0.0
 11
-2246.844621429941
 21
761.6139336619017
 31
0.0
  0
LINE
  5
243
330
1F
100
AcDbEntity
  8
0-B
  6
Continuous
 62
   120
370
     5
100
AcDbLine
 10
-2056.133943311286
 20
1696.624328080673
 30
0.0
 11
-2091.489282370615
 21
1661.268989021345
 31
0.0
  0
LINE
  5
244
330
1F
100
AcDbEntity
  8
0-B
  6
Continuous
 62
   120
370
     5
100
AcDbLine
 10
-2070.276078935017
 20
1710.766463704404
 30
0.0
 11
-2105.631417994346
 21
1675.411124645076
 31
0.0
  0
LWPOLYLINE
  5
245
330
1F
100
AcDbEntity
  8
0-B
  6
Continuous
 62
     7
370
     9
100
AcDbPolyline
 90
        4
 70
     1
 43
2.0
 10
-2055.133943311286
 20
1696.624328080673
 42
0.4142135623731
 10
-2056.133943311286
 20
1697.624328080673
 42
0.4142135623731
 10
-2057.133943311286
 20
1696.624328080673
 42
0.4142135623731
 10
-2056.133943311286
 20
1695.624328080673
 42
0.4142135623731
  0
LWPOLYLINE
  5
246
330
1F
100
AcDbEntity
  8
0-B
  6
Continuous
 62
     7
370
     9
100
AcDbPolyline
 90
        4
 70
     1
 43
2.0
 10
-2069.276078935017
 20
1710.766463704404
 42
0.4142135623731
 10
-2070.276078935017
 20
1711.766463704404
 42
0.4142135623731
 10
-2071.276078935017
 20
1710.766463704404
 42
0.4142135623731
 10
-2070.276078935017
 20
1709.766463704404
 42
0.4142135623731
  0
LINE
  5
247
330
1F
100
AcDbEntity
  8
0-B
  6
Continuous
 62
   120
370
     5
100
AcDbLine
 10
-2070.276078935017
 20
1710.766463704404
 30
0.0
 11
-2056.133943311286
 21
1696.624328080673
 31
0.0
  0
LINE
  5
248
330
1F
100
AcDbEntity
  8
0-B
  6
Continuous
 62
   120
370
     5
100
AcDbLine
 10
-2026.844621429941
 20
1400.055785585748
 30
0.0
 11
-2076.844621429941
 21
1400.055785585748
 31
0.0
  0
LINE
  5
249
330
1F
100
AcDbEntity
  8
0-B
  6
Continuous
 62
   120
370
     5
100
AcDbLine
 10
-2026.844621429941
 20
1640.055785585748
 30
0.0
 11
-2076.844621429941
 21
1640.055785585748
 31
0.0
  0
LWPOLYLINE
  5
24A
330
1F
100
AcDbEntity
  8
0-B
  6
Continuous
 62
     7
370
     9
100
AcDbPolyline
 90
        4
 70
     1
 43
2.0
 10
-2025.844621429941
 20
1400.055785585748
 42
0.4142135623731
 10
-2026.844621429941
 20
1401.055785585748
 42
0.4142135623731
 10
-2027.844621429941
 20
1400.055785585748
 42
0.4142135623731
 10
-2026.844621429941
 20
1399.055785585748
 42
0.4142135623731
  0
LWPOLYLINE
  5
24B
330
1F
100
AcDbEntity
  8
0-B
  6
Continuous
 62
     7
370
     9
100
AcDbPolyline
 90
        4
 70
     1
 43
2.0
 10
-2025.844621429941
 20
1640.055785585748
 42
0.4142135623731
 10
-2026.844621429941
 20
1641.055785585748
 42
0.4142135623731
 10
-2027.844621429941
 20
1640.055785585748
 42
0.4142135623731
 10
-2026.844621429941
 20
1639.055785585748
 42
0.4142135623731
  0
LINE
  5
24C
330
1F
100
AcDbEntity
  8
0-B
  6
Continuous
 62
   120
370
     5
100
AcDbLine
 10
-2026.844621429941
 20
1640.055785585748
 30
0.0
 11
-2026.844621429941
 21
1400.055785585748
 31
0.0
  0
LINE
  5
24D
330
1F
100
AcDbEntity
  8
0-B
  6
Continuous
 62
   120
370
     5
100
AcDbLine
 10
-2456.844621429941
 20
1552.055785585749
 30
0.0
 11
-2406.844621429941
 21
1552.055785585749
 31
0.0
  0
LINE
  5
24E
330
1F
100
AcDbEntity
  8
0-B
  6
Continuous
 62
   120
370
     5
100
AcDbLine
 10
-2456.844621429941
 20
1640.055785585748
 30
0.0
 11
-2406.844621429941
 21
1640.055785585748
 31
0.0
  0
LWPOLYLINE
  5
24F
330
1F
100
AcDbEntity
  8
0-B
  6
Continuous
 62
     7
370
     9
100
AcDbPolyline
 90
        4
 70
     1
 43
2.0
 10
-2455.844621429941
 20
1552.055785585749
 42
0.4142135623731
 10
-2456.844621429941
 20
1553.055785585749
 42
0.4142135623731
 10
-2457.844621429941
 20
1552.055785585749
 42
0.4142135623731
 10
-2456.844621429941
 20
1551.055785585749
 42
0.4142135623731
  0
LWPOLYLINE
  5
250
330
1F
100
AcDbEntity
  8
0-B
  6
Continuous
 62
     7
370
     9
100
AcDbPolyline
 90
        4
 70
     1
 43
2.0
 10
-2455.844621429941
 20
1640.055785585748
 42
0.4142135623731
 10
-2456.844621429941
 20
1641.055785585748
 42
0.4142135623731
 10
-2457.844621429941
 20
1640.055785585748
 42
0.4142135623731
 10
-2456.844621429941
 20
1639.055785585748
 42
0.4142135623731
  0
LINE
  5
251
330
1F
100
AcDbEntity
  8
0-B
  6
Continuous
 62
   120
370
     5
100
AcDbLine
 10
-2456.844621429941
 20
1640.055785585748
 30
0.0
 11
-2456.844621429941
 21
1552.055785585749
 31
0.0
  0
LINE
  5
252
330
1F
100
AcDbEntity
  8
0-B
  6
Continuous
 62
   120
370
     5
100
AcDbLine
 10
-2126.844621429941
 20
1300.055785585748
 30
0.0
 11
-2126.844621429941
 21
1350.055785585748
 31
0.0
  0
LWPOLYLINE
  5
253
330
1F
100
AcDbEntity
  8
0-B
  6
Continuous
 62
     7
370
     9
100
AcDbPolyline
 90
        4
 70
     1
 43
2.0
 10
-2125.844621429941
 20
1300.055785585748
 42
0.4142135623731
 10
-2126.844621429941
 20
1301.055785585748
 42
0.4142135623731
 10
-2127.844621429941
 20
1300.055785585748
 42
0.4142135623731
 10
-2126.844621429941
 20
1299.055785585748
 42
0.4142135623731
  0
LINE
  5
254
330
1F
100
AcDbEntity
  8
0-B
  6
Continuous
 62
   120
370
     5
100
AcDbLine
 10
-2206.844621429941
 20
1300.055785585748
 30
0.0
 11
-2206.844621429941
 21
1350.055785585748
 31
0.0
  0
LINE
  5
255
330
1F
100
AcDbEntity
  8
0-B
  6
Continuous
 62
   120
370
     5
100
AcDbLine
 10
-2356.844621429941
 20
1300.055785585748
 30
0.0
 11
-2356.844621429941
 21
1350.055785585748
 31
0.0
  0
LWPOLYLINE
  5
256
330
1F
100
AcDbEntity
  8
0-B
  6
Continuous
 62
     7
370
     9
100
AcDbPolyline
 90
        4
 70
     1
 43
2.0
 10
-2205.844621429941
 20
1300.055785585748
 42
0.4142135623731
 10
-2206.844621429941
 20
1301.055785585748
 42
0.4142135623731
 10
-2207.844621429941
 20
1300.055785585748
 42
0.4142135623731
 10
-2206.844621429941
 20
1299.055785585748
 42
0.4142135623731
  0
LWPOLYLINE
  5
257
330
1F
100
AcDbEntity
  8
0-B
  6
Continuous
 62
     7
370
     9
100
AcDbPolyline
 90
        4
 70
     1
 43
2.0
 10
-2355.844621429941
 20
1300.055785585748
 42
0.4142135623731
 10
-2356.844621429941
 20
1301.055785585748
 42
0.4142135623731
 10
-2357.844621429941
 20
1300.055785585748
 42
0.4142135623731
 10
-2356.844621429941
 20
1299.055785585748
 42
0.4142135623731
  0
LINE
  5
258
330
1F
100
AcDbEntity
  8
0-B
  6
Continuous
 62
   120
370
     5
100
AcDbLine
 10
-2356.844621429941
 20
1300.055785585748
 30
0.0
 11
-2126.844621429941
 21
1300.055785585748
 31
0.0
  0
LINE
  5
259
330
1F
100
AcDbEntity
  8
0-B
  6
Continuous
 62
   120
370
     5
100
AcDbLine
 10
-2126.844621429941
 20
1740.055785585748
 30
0.0
 11
-2126.844621429941
 21
1690.055785585748
 31
0.0
  0
LINE
  5
25A
330
1F
100
AcDbEntity
  8
0-B
  6
Continuous
 62
   120
370
     5
100
AcDbLine
 10
-2356.844621429941
 20
1740.055785585748
 30
0.0
 11
-2356.844621429941
 21
1690.055785585748
 31
0.0
  0
LWPOLYLINE
  5
25B
330
1F
100
AcDbEntity
  8
0-B
  6
Continuous
 62
     7
370
     9
100
AcDbPolyline
 90
        4
 70
     1
 43
2.0
 10
-2125.844621429941
 20
1740.055785585748
 42
0.4142135623731
 10
-2126.844621429941
 20
1741.055785585748
 42
0.4142135623731
 10
-2127.844621429941
 20
1740.055785585748
 42
0.4142135623731
 10
-2126.844621429941
 20
1739.055785585748
 42
0.4142135623731
  0
LWPOLYLINE
  5
25C
330
1F
100
AcDbEntity
  8
0-B
  6
Continuous
 62
     7
370
     9
100
AcDbPolyline
 90
        4
 70
     1
 43
2.0
 10
-2355.844621429941
 20
1740.055785585748
 42
0.4142135623731
 10
-2356.844621429941
 20
1741.055785585748
 42
0.4142135623731
 10
-2357.844621429941
 20
1740.055785585748
 42
0.4142135623731
 10
-2356.844621429941
 20
1739.055785585748
 42
0.4142135623731
  0
LINE
  5
25D
330
1F
100
AcDbEntity
  8
0-B
  6
Continuous
 62
   120
370
     5
100
AcDbLine
 10
-2356.844621429941
 20
1740.055785585748
 30
0.0
 11
-2126.844621429941
 21
1740.055785585748
 31
0.0
  0
LINE
  5
25E
330
1F
100
AcDbEntity
  8
0-0
  6
JWW_HOJO
 62
     7
370
     9
100
AcDbLine
 10
-2406.844621429941
 20
1690.055785585748
 30
0.0
 11
-2120.276078935017
 21
1690.055785585748
 31
0.0
  0
LINE
  5
25F
330
1F
100
AcDbEntity
  8
0-0
  6
JWW_HOJO
 62
     7
370
     9
100
AcDbLine
 10
-2120.276078935017
 20
1690.055785585748
 30
0.0
 11
-2076.844621429941
 21
1646.624328080673
 31
0.0
  0
LINE
  5
260
330
1F
100
AcDbEntity
  8
0-0
  6
JWW_HOJO
 62
     7
370
     9
100
AcDbLine
 10
-2076.844621429941
 20
1350.055785585748
 30
0.0
 11
-2076.844621429941
 21
1646.624328080673
 31
0.0
  0
LINE
  5
261
330
1F
100
AcDbEntity
  8
0-0
  6
JWW_HOJO
 62
     7
370
     9
100
AcDbLine
 10
-2076.844621429941
 20
1350.055785585748
 30
0.0
 11
-2406.844621429941
 21
1350.055785585748
 31
0.0
  0
LINE
  5
262
330
1F
100
AcDbEntity
  8
0-0
  6
JWW_HOJO
 62
     7
370
     9
100
AcDbLine
 10
-2406.844621429941
 20
1690.055785585748
 30
0.0
 11
-2406.844621429941
 21
1350.055785585748
 31
0.0
  0
LINE
  5
263
330
1F
100
AcDbEntity
  8
0-0
  6
JWW_HOJO
 62
     7
370
     9
100
AcDbLine
 10
-2456.844621429941
 20
1740.055785585748
 30
0.0
 11
-2099.565400816364
 21
1740.055785585748
 31
0.0
  0
LINE
  5
264
330
1F
100
AcDbEntity
  8
0-0
  6
JWW_HOJO
 62
     7
370
     9
100
AcDbLine
 10
-2099.565400816364
 20
1740.055785585748
 30
0.0
 11
-2026.844621429941
 21
1667.335006199327
 31
0.0
  0
LINE
  5
265
330
1F
100
AcDbEntity
  8
0-0
  6
JWW_HOJO
 62
     7
370
     9
100
AcDbLine
 10
-2026.844621429941
 20
1300.055785585748
 30
0.0
 11
-2026.844621429941
 21
1667.335006199327
 31
0.0
  0
LINE
  5
266
330
1F
100
AcDbEntity
  8
0-0
  6
JWW_HOJO
 62
     7
370
     9
100
AcDbLine
 10
-2026.844621429941
 20
1300.055785585748
 30
0.0
 11
-2456.844621429941
 21
1300.055785585748
 31
0.0
  0
LINE
  5
267
330
1F
100
AcDbEntity
  8
0-0
  6
JWW_HOJO
 62
     7
370
     9
100
AcDbLine
 10
-2456.844621429941
 20
1740.055785585748
 30
0.0
 11
-2456.844621429941
 21
1300.055785585748
 31
0.0
  0
LINE
  5
268
330
1F
100
AcDbEntity
  8
0-4
  6
Continuous
 62
    92
370
    13
100
AcDbLine
 10
-2143.057824865539
 20
1635.055785585748
 30
0.0
 11
-2131.844621429941
 21
1623.842582150152
 31
0.0
  0
LINE
  5
269
330
1F
100
AcDbEntity
  8
0-4
  6
Continuous
 62
    92
370
    13
100
AcDbLine
 10
-2140.986757053672
 20
1640.055785585748
 30
0.0
 11
-2126.844621429941
 21
1625.913649962017
 31
0.0
  0
LINE
  5
26A
330
1F
100
AcDbEntity
  8
0-4
  6
Continuous
 62
    92
370
    13
100
AcDbLine
 10
-2131.844621429941
 20
1400.055785585748
 30
0.0
 11
-2131.844621429941
 21
1623.842582150152
 31
0.0
  0
LINE
  5
26B
330
1F
100
AcDbEntity
  8
0-4
  6
Continuous
 62
    92
370
    13
100
AcDbLine
 10
-2126.844621429941
 20
1400.055785585748
 30
0.0
 11
-2126.844621429941
 21
1625.913649962017
 31
0.0
  0
LINE
  5
26C
330
1F
100
AcDbEntity
  8
0-4
  6
Continuous
 62
    92
370
    13
100
AcDbLine
 10
-2356.844621429941
 20
1635.055785585748
 30
0.0
 11
-2143.057824865539
 21
1635.055785585748
 31
0.0
  0
LINE
  5
26D
330
1F
100
AcDbEntity
  8
0-4
  6
Continuous
 62
    92
370
    13
100
AcDbLine
 10
-2356.844621429941
 20
1640.055785585748
 30
0.0
 11
-2140.986757053672
 21
1640.055785585748
 31
0.0
  0
LINE
  5
26E
330
1F
100
AcDbEntity
  8
0-4
  6
Continuous
 62
    92
370
    13
100
AcDbLine
 10
-2206.844621429941
 20
1400.055785585748
 30
0.0
 11
-2206.844621429941
 21
1552.055785585749
 31
0.0
  0
LINE
  5
26F
330
1F
100
AcDbEntity
  8
0-4
  6
Continuous
 62
    92
370
    13
100
AcDbLine
 10
-2356.844621429941
 20
1552.055785585749
 30
0.0
 11
-2206.844621429941
 21
1552.055785585749
 31
0.0
  0
LINE
  5
270
330
1F
100
AcDbEntity
  8
0-4
  6
Continuous
 62
    92
370
    13
100
AcDbLine
 10
-2126.844621429941
 20
1400.055785585748
 30
0.0
 11
-2206.844621429941
 21
1400.055785585748
 31
0.0
  0
LINE
  5
271
330
1F
100
AcDbEntity
  8
0-4
  6
Continuous
 62
    92
370
    13
100
AcDbLine
 10
-2356.844621429941
 20
1640.055785585748
 30
0.0
 11
-2356.844621429941
 21
1552.055785585749
 31
0.0
  0
LINE
  5
272
330
1F
100
AcDbEntity
  8
0-0
  6
JWW_HOJO
 62
   120
370
     5
100
AcDbLine
 10
-2446.844621429941
 20
2305.748246843636
 30
0.0
 11
-2446.844621429941
 21
1965.748246843636
 31
0.0
  0
LINE
  5
273
330
1F
100
AcDbEntity
  8
0-0
  6
JWW_HOJO
 62
   120
370
     5
100
AcDbLine
 10
-2446.844621429941
 20
2305.748246843636
 30
0.0
 11
-2141.489282370615
 21
2305.748246843636
 31
0.0
  0
LINE
  5
274
330
1F
100
AcDbEntity
  8
0-0
  6
JWW_HOJO
 62
   120
370
     5
100
AcDbLine
 10
-2141.489282370615
 20
2305.748246843636
 30
0.0
 11
-2076.844621429941
 21
2241.103585902964
 31
0.0
  0
LINE
  5
275
330
1F
100
AcDbEntity
  8
0-0
  6
JWW_HOJO
 62
   120
370
     5
100
AcDbLine
 10
-2076.844621429941
 20
1965.748246843636
 30
0.0
 11
-2076.844621429941
 21
2241.103585902964
 31
0.0
  0
LINE
  5
276
330
1F
100
AcDbEntity
  8
0-0
  6
JWW_HOJO
 62
   120
370
     5
100
AcDbLine
 10
-2076.844621429941
 20
1965.748246843636
 30
0.0
 11
-2446.844621429941
 21
1965.748246843636
 31
0.0
  0
LINE
  5
277
330
1F
100
AcDbEntity
  8
0-0
  6
JWW_HOJO
 62
   120
370
     5
100
AcDbLine
 10
-2496.844621429941
 20
2355.748246843636
 30
0.0
 11
-2496.844621429941
 21
1915.748246843636
 31
0.0
  0
LINE
  5
278
330
1F
100
AcDbEntity
  8
0-0
  6
JWW_HOJO
 62
   120
370
     5
100
AcDbLine
 10
-2496.844621429941
 20
2355.748246843636
 30
0.0
 11
-2120.778604251959
 21
2355.748246843636
 31
0.0
  0
LINE
  5
279
330
1F
100
AcDbEntity
  8
0-0
  6
JWW_HOJO
 62
   120
370
     5
100
AcDbLine
 10
-2120.778604251959
 20
2355.748246843636
 30
0.0
 11
-2026.844621429941
 21
2261.814264021619
 31
0.0
  0
LINE
  5
27A
330
1F
100
AcDbEntity
  8
0-0
  6
JWW_HOJO
 62
   120
370
     5
100
AcDbLine
 10
-2026.844621429941
 20
1915.748246843636
 30
0.0
 11
-2026.844621429941
 21
2261.814264021619
 31
0.0
  0
LINE
  5
27B
330
1F
100
AcDbEntity
  8
0-0
  6
JWW_HOJO
 62
   120
370
     5
100
AcDbLine
 10
-2026.844621429941
 20
1915.748246843636
 30
0.0
 11
-2496.844621429941
 21
1915.748246843636
 31
0.0
  0
LINE
  5
27C
330
1F
100
AcDbEntity
  8
0-B
  6
Continuous
 62
   120
370
     5
100
AcDbLine
 10
-2059.166951900279
 20
2288.070577313973
 30
0.0
 11
-2091.489282370615
 21
2255.748246843636
 31
0.0
  0
LINE
  5
27D
330
1F
100
AcDbEntity
  8
0-B
  6
Continuous
 62
   120
370
     5
100
AcDbLine
 10
-2094.522290959605
 20
2323.425916373301
 30
0.0
 11
-2126.844621429941
 21
2291.103585902964
 31
0.0
  0
LWPOLYLINE
  5
27E
330
1F
100
AcDbEntity
  8
0-B
  6
Continuous
 62
     7
370
     9
100
AcDbPolyline
 90
        4
 70
     1
 43
2.0
 10
-2058.166951900279
 20
2288.070577313973
 42
0.4142135623731
 10
-2059.166951900279
 20
2289.070577313973
 42
0.4142135623731
 10
-2060.166951900279
 20
2288.070577313973
 42
0.4142135623731
 10
-2059.166951900279
 20
2287.070577313973
 42
0.4142135623731
  0
LWPOLYLINE
  5
27F
330
1F
100
AcDbEntity
  8
0-B
  6
Continuous
 62
     7
370
     9
100
AcDbPolyline
 90
        4
 70
     1
 43
2.0
 10
-2093.522290959605
 20
2323.425916373301
 42
0.4142135623731
 10
-2094.522290959605
 20
2324.425916373301
 42
0.4142135623731
 10
-2095.522290959605
 20
2323.425916373301
 42
0.4142135623731
 10
-2094.522290959605
 20
2322.425916373301
 42
0.4142135623731
  0
LINE
  5
280
330
1F
100
AcDbEntity
  8
0-B
  6
Continuous
 62
   120
370
     5
100
AcDbLine
 10
-2094.522290959605
 20
2323.425916373301
 30
0.0
 11
-2059.166951900279
 21
2288.070577313973
 31
0.0
  0
LINE
  5
281
330
1F
100
AcDbEntity
  8
0-B
  6
Continuous
 62
   120
370
     5
100
AcDbLine
 10
-2496.844621429941
 20
2167.748246843637
 30
0.0
 11
-2446.844621429941
 21
2167.748246843637
 31
0.0
  0
LINE
  5
282
330
1F
100
AcDbEntity
  8
0-B
  6
Continuous
 62
   120
370
     5
100
AcDbLine
 10
-2496.844621429941
 20
2255.748246843636
 30
0.0
 11
-2446.844621429941
 21
2255.748246843636
 31
0.0
  0
LWPOLYLINE
  5
283
330
1F
100
AcDbEntity
  8
0-B
  6
Continuous
 62
     7
370
     9
100
AcDbPolyline
 90
        4
 70
     1
 43
2.0
 10
-2495.844621429941
 20
2167.748246843637
 42
0.4142135623731
 10
-2496.844621429941
 20
2168.748246843637
 42
0.4142135623731
 10
-2497.844621429941
 20
2167.748246843637
 42
0.4142135623731
 10
-2496.844621429941
 20
2166.748246843637
 42
0.4142135623731
  0
LWPOLYLINE
  5
284
330
1F
100
AcDbEntity
  8
0-B
  6
Continuous
 62
     7
370
     9
100
AcDbPolyline
 90
        4
 70
     1
 43
2.0
 10
-2495.844621429941
 20
2255.748246843636
 42
0.4142135623731
 10
-2496.844621429941
 20
2256.748246843636
 42
0.4142135623731
 10
-2497.844621429941
 20
2255.748246843636
 42
0.4142135623731
 10
-2496.844621429941
 20
2254.748246843636
 42
0.4142135623731
  0
LINE
  5
285
330
1F
100
AcDbEntity
  8
0-B
  6
Continuous
 62
   120
370
     5
100
AcDbLine
 10
-2496.844621429941
 20
2255.748246843636
 30
0.0
 11
-2496.844621429941
 21
2167.748246843637
 31
0.0
  0
LINE
  5
286
330
1F
100
AcDbEntity
  8
0-B
  6
Continuous
 62
   120
370
     5
100
AcDbLine
 10
-2026.844621429941
 20
2015.748246843636
 30
0.0
 11
-2076.844621429941
 21
2015.748246843636
 31
0.0
  0
LINE
  5
287
330
1F
100
AcDbEntity
  8
0-B
  6
Continuous
 62
   120
370
     5
100
AcDbLine
 10
-2026.844621429941
 20
2255.748246843636
 30
0.0
 11
-2076.844621429941
 21
2255.748246843636
 31
0.0
  0
LWPOLYLINE
  5
288
330
1F
100
AcDbEntity
  8
0-B
  6
Continuous
 62
     7
370
     9
100
AcDbPolyline
 90
        4
 70
     1
 43
2.0
 10
-2025.844621429941
 20
2015.748246843636
 42
0.4142135623731
 10
-2026.844621429941
 20
2016.748246843636
 42
0.4142135623731
 10
-2027.844621429941
 20
2015.748246843636
 42
0.4142135623731
 10
-2026.844621429941
 20
2014.748246843636
 42
0.4142135623731
  0
LWPOLYLINE
  5
289
330
1F
100
AcDbEntity
  8
0-B
  6
Continuous
 62
     7
370
     9
100
AcDbPolyline
 90
        4
 70
     1
 43
2.0
 10
-2025.844621429941
 20
2255.748246843636
 42
0.4142135623731
 10
-2026.844621429941
 20
2256.748246843636
 42
0.4142135623731
 10
-2027.844621429941
 20
2255.748246843636
 42
0.4142135623731
 10
-2026.844621429941
 20
2254.748246843636
 42
0.4142135623731
  0
LINE
  5
28A
330
1F
100
AcDbEntity
  8
0-B
  6
Continuous
 62
   120
370
     5
100
AcDbLine
 10
-2026.844621429941
 20
2255.748246843636
 30
0.0
 11
-2026.844621429941
 21
2015.748246843636
 31
0.0
  0
LINE
  5
28B
330
1F
100
AcDbEntity
  8
0-B
  6
Continuous
 62
   120
370
     5
100
AcDbLine
 10
-2126.844621429941
 20
1915.748246843636
 30
0.0
 11
-2126.844621429941
 21
1965.748246843636
 31
0.0
  0
LWPOLYLINE
  5
28C
330
1F
100
AcDbEntity
  8
0-B
  6
Continuous
 62
     7
370
     9
100
AcDbPolyline
 90
        4
 70
     1
 43
2.0
 10
-2125.844621429941
 20
1915.748246843636
 42
0.4142135623731
 10
-2126.844621429941
 20
1916.748246843636
 42
0.4142135623731
 10
-2127.844621429941
 20
1915.748246843636
 42
0.4142135623731
 10
-2126.844621429941
 20
1914.748246843636
 42
0.4142135623731
  0
LINE
  5
28D
330
1F
100
AcDbEntity
  8
0-B
  6
Continuous
 62
   120
370
     5
100
AcDbLine
 10
-2246.844621429941
 20
1915.748246843636
 30
0.0
 11
-2246.844621429941
 21
1965.748246843636
 31
0.0
  0
LINE
  5
28E
330
1F
100
AcDbEntity
  8
0-B
  6
Continuous
 62
   120
370
     5
100
AcDbLine
 10
-2396.844621429941
 20
1915.748246843636
 30
0.0
 11
-2396.844621429941
 21
1965.748246843636
 31
0.0
  0
LWPOLYLINE
  5
28F
330
1F
100
AcDbEntity
  8
0-B
  6
Continuous
 62
     7
370
     9
100
AcDbPolyline
 90
        4
 70
     1
 43
2.0
 10
-2245.844621429941
 20
1915.748246843636
 42
0.4142135623731
 10
-2246.844621429941
 20
1916.748246843636
 42
0.4142135623731
 10
-2247.844621429941
 20
1915.748246843636
 42
0.4142135623731
 10
-2246.844621429941
 20
1914.748246843636
 42
0.4142135623731
  0
LWPOLYLINE
  5
290
330
1F
100
AcDbEntity
  8
0-B
  6
Continuous
 62
     7
370
     9
100
AcDbPolyline
 90
        4
 70
     1
 43
2.0
 10
-2395.844621429941
 20
1915.748246843636
 42
0.4142135623731
 10
-2396.844621429941
 20
1916.748246843636
 42
0.4142135623731
 10
-2397.844621429941
 20
1915.748246843636
 42
0.4142135623731
 10
-2396.844621429941
 20
1914.748246843636
 42
0.4142135623731
  0
LINE
  5
291
330
1F
100
AcDbEntity
  8
0-B
  6
Continuous
 62
   120
370
     5
100
AcDbLine
 10
-2396.844621429941
 20
1915.748246843636
 30
0.0
 11
-2126.844621429941
 21
1915.748246843636
 31
0.0
  0
LINE
  5
292
330
1F
100
AcDbEntity
  8
0-B
  6
Continuous
 62
   120
370
     5
100
AcDbLine
 10
-2126.844621429941
 20
2355.748246843636
 30
0.0
 11
-2126.844621429941
 21
2305.748246843636
 31
0.0
  0
LINE
  5
293
330
1F
100
AcDbEntity
  8
0-B
  6
Continuous
 62
   120
370
     5
100
AcDbLine
 10
-2396.844621429941
 20
2355.748246843636
 30
0.0
 11
-2396.844621429941
 21
2305.748246843636
 31
0.0
  0
LWPOLYLINE
  5
294
330
1F
100
AcDbEntity
  8
0-B
  6
Continuous
 62
     7
370
     9
100
AcDbPolyline
 90
        4
 70
     1
 43
2.0
 10
-2125.844621429941
 20
2355.748246843636
 42
0.4142135623731
 10
-2126.844621429941
 20
2356.748246843636
 42
0.4142135623731
 10
-2127.844621429941
 20
2355.748246843636
 42
0.4142135623731
 10
-2126.844621429941
 20
2354.748246843636
 42
0.4142135623731
  0
LWPOLYLINE
  5
295
330
1F
100
AcDbEntity
  8
0-B
  6
Continuous
 62
     7
370
     9
100
AcDbPolyline
 90
        4
 70
     1
 43
2.0
 10
-2395.844621429941
 20
2355.748246843636
 42
0.4142135623731
 10
-2396.844621429941
 20
2356.748246843636
 42
0.4142135623731
 10
-2397.844621429941
 20
2355.748246843636
 42
0.4142135623731
 10
-2396.844621429941
 20
2354.748246843636
 42
0.4142135623731
  0
LINE
  5
296
330
1F
100
AcDbEntity
  8
0-B
  6
Continuous
 62
   120
370
     5
100
AcDbLine
 10
-2396.844621429941
 20
2355.748246843636
 30
0.0
 11
-2126.844621429941
 21
2355.748246843636
 31
0.0
  0
LINE
  5
297
330
1F
100
AcDbEntity
  8
0-4
  6
Continuous
 62
    92
370
    13
100
AcDbLine
 10
-2164.271028301134
 20
2250.748246843636
 30
0.0
 11
-2131.844621429941
 21
2218.321839972443
 31
0.0
  0
LINE
  5
298
330
1F
100
AcDbEntity
  8
0-4
  6
Continuous
 62
    92
370
    13
100
AcDbLine
 10
-2162.19996048927
 20
2255.748246843636
 30
0.0
 11
-2126.844621429941
 21
2220.39290778431
 31
0.0
  0
LINE
  5
299
330
1F
100
AcDbEntity
  8
0-4
  6
Continuous
 62
    92
370
    13
100
AcDbLine
 10
-2131.844621429941
 20
2015.748246843636
 30
0.0
 11
-2131.844621429941
 21
2218.321839972443
 31
0.0
  0
LINE
  5
29A
330
1F
100
AcDbEntity
  8
0-4
  6
Continuous
 62
    92
370
    13
100
AcDbLine
 10
-2126.844621429941
 20
2015.748246843636
 30
0.0
 11
-2126.844621429941
 21
2220.39290778431
 31
0.0
  0
LINE
  5
29B
330
1F
100
AcDbEntity
  8
0-4
  6
Continuous
 62
    92
370
    13
100
AcDbLine
 10
-2396.844621429941
 20
2250.748246843636
 30
0.0
 11
-2164.271028301134
 21
2250.748246843636
 31
0.0
  0
LINE
  5
29C
330
1F
100
AcDbEntity
  8
0-4
  6
Continuous
 62
    92
370
    13
100
AcDbLine
 10
-2396.844621429941
 20
2255.748246843636
 30
0.0
 11
-2162.19996048927
 21
2255.748246843636
 31
0.0
  0
LINE
  5
29D
330
1F
100
AcDbEntity
  8
0-4
  6
Continuous
 62
    92
370
    13
100
AcDbLine
 10
-2246.844621429941
 20
2015.748246843636
 30
0.0
 11
-2246.844621429941
 21
2167.748246843637
 31
0.0
  0
LINE
  5
29E
330
1F
100
AcDbEntity
  8
0-4
  6
Continuous
 62
    92
370
    13
100
AcDbLine
 10
-2396.844621429941
 20
2167.748246843637
 30
0.0
 11
-2246.844621429941
 21
2167.748246843637
 31
0.0
  0
LINE
  5
29F
330
1F
100
AcDbEntity
  8
0-4
  6
Continuous
 62
    92
370
    13
100
AcDbLine
 10
-2126.844621429941
 20
2015.748246843636
 30
0.0
 11
-2246.844621429941
 21
2015.748246843636
 31
0.0
  0
LINE
  5
2A0
330
1F
100
AcDbEntity
  8
0-4
  6
Continuous
 62
    92
370
    13
100
AcDbLine
 10
-2396.844621429941
 20
2255.748246843636
 30
0.0
 11
-2396.844621429941
 21
2167.748246843637
 31
0.0
  0
LINE
  5
2A1
330
1F
100
AcDbEntity
  8
F-1
  6
JWW_DASHED1
 62
     7
370
     9
100
AcDbLine
 10
3793.332651499156
 20
-2318.333331700917
 30
0.0
 11
2373.332651499156
 21
-2318.333331700917
 31
0.0
  0
LINE
  5
2A2
330
1F
100
AcDbEntity
  8
F-1
  6
JWW_DASHED1
 62
     7
370
     9
100
AcDbLine
 10
3793.332651499156
 20
-2214.166658375714
 30
0.0
 11
2373.332651499156
 21
-2214.166658375714
 31
0.0
  0
LINE
  5
2A3
330
1F
100
AcDbEntity
  8
F-1
  6
JWW_DASHED1
 62
     7
370
     9
100
AcDbLine
 10
3793.332651499156
 20
-2109.999985050511
 30
0.0
 11
2373.332651499156
 21
-2109.999985050511
 31
0.0
  0
LINE
  5
2A4
330
1F
100
AcDbEntity
  8
F-1
  6
JWW_DASHED1
 62
     7
370
     9
100
AcDbLine
 10
3793.332651499156
 20
-2422.500005026121
 30
0.0
 11
2373.332651499156
 21
-2422.500005026121
 31
0.0
  0
LINE
  5
2A5
330
1F
100
AcDbEntity
  8
F-1
  6
JWW_DASHED1
 62
     7
370
     9
100
AcDbLine
 10
3793.332651499156
 20
-2005.833311725307
 30
0.0
 11
2373.332651499156
 21
-2005.833311725307
 31
0.0
  0
LINE
  5
2A6
330
1F
100
AcDbEntity
  8
F-1
  6
JWW_DASHED1
 62
     7
370
     9
100
AcDbLine
 10
3793.332651499156
 20
-1693.333291749697
 30
0.0
 11
2373.332651499156
 21
-1693.333291749697
 31
0.0
  0
LINE
  5
2A7
330
1F
100
AcDbEntity
  8
F-1
  6
JWW_DASHED1
 62
     7
370
     9
100
AcDbLine
 10
3793.332651499156
 20
-1589.166618424493
 30
0.0
 11
2373.332651499156
 21
-1589.166618424493
 31
0.0
  0
LINE
  5
2A8
330
1F
100
AcDbEntity
  8
F-1
  6
JWW_DASHED1
 62
     7
370
     9
100
AcDbLine
 10
3793.332651499156
 20
-1484.99994509929
 30
0.0
 11
2373.332651499156
 21
-1484.99994509929
 31
0.0
  0
LINE
  5
2A9
330
1F
100
AcDbEntity
  8
F-1
  6
JWW_DASHED1
 62
     7
370
     9
100
AcDbLine
 10
3793.332651499156
 20
-1797.4999650749
 30
0.0
 11
2373.332651499156
 21
-1797.4999650749
 31
0.0
  0
LINE
  5
2AA
330
1F
100
AcDbEntity
  8
F-1
  6
JWW_DASHED1
 62
     7
370
     9
100
AcDbLine
 10
3793.332651499156
 20
-1380.833271774086
 30
0.0
 11
2373.332651499156
 21
-1380.833271774086
 31
0.0
  0
LINE
  5
2AB
330
1F
100
AcDbEntity
  8
F-1
  6
JWW_DASHED1
 62
     7
370
     9
100
AcDbLine
 10
3793.332651499156
 20
-1068.333251798475
 30
0.0
 11
2373.332651499156
 21
-1068.333251798475
 31
0.0
  0
LINE
  5
2AC
330
1F
100
AcDbEntity
  8
F-1
  6
JWW_DASHED1
 62
     7
370
     9
100
AcDbLine
 10
3793.332651499156
 20
-964.1665784732718
 30
0.0
 11
2373.332651499156
 21
-964.1665784732718
 31
0.0
  0
LINE
  5
2AD
330
1F
100
AcDbEntity
  8
F-1
  6
JWW_DASHED1
 62
     7
370
     9
100
AcDbLine
 10
3793.332651499156
 20
-859.9999051480683
 30
0.0
 11
2373.332651499156
 21
-859.9999051480683
 31
0.0
  0
LINE
  5
2AE
330
1F
100
AcDbEntity
  8
F-1
  6
JWW_DASHED1
 62
     7
370
     9
100
AcDbLine
 10
3793.332651499156
 20
-1172.499925123679
 30
0.0
 11
2373.332651499156
 21
-1172.499925123679
 31
0.0
  0
LINE
  5
2AF
330
1F
100
AcDbEntity
  8
F-1
  6
JWW_DASHED1
 62
     7
370
     9
100
AcDbLine
 10
3793.332651499156
 20
-755.8332318228647
 30
0.0
 11
2373.332651499156
 21
-755.8332318228647
 31
0.0
  0
LINE
  5
2B0
330
1F
100
AcDbEntity
  8
F-1
  6
JWW_DASHED1
 62
     7
370
     9
100
AcDbLine
 10
3793.332651499156
 20
-443.3332118472535
 30
0.0
 11
2373.332651499156
 21
-443.3332118472535
 31
0.0
  0
LINE
  5
2B1
330
1F
100
AcDbEntity
  8
F-1
  6
JWW_DASHED1
 62
     7
370
     9
100
AcDbLine
 10
3793.332651499156
 20
-339.16653852205
 30
0.0
 11
2373.332651499156
 21
-339.16653852205
 31
0.0
  0
LINE
  5
2B2
330
1F
100
AcDbEntity
  8
F-1
  6
JWW_DASHED1
 62
     7
370
     9
100
AcDbLine
 10
3793.332651499156
 20
-234.9998651968463
 30
0.0
 11
2373.332651499156
 21
-234.9998651968463
 31
0.0
  0
LINE
  5
2B3
330
1F
100
AcDbEntity
  8
F-1
  6
JWW_DASHED1
 62
     7
370
     9
100
AcDbLine
 10
3793.332651499156
 20
-547.499885172457
 30
0.0
 11
2373.332651499156
 21
-547.499885172457
 31
0.0
  0
LINE
  5
2B4
330
1F
100
AcDbEntity
  8
F-1
  6
JWW_DASHED1
 62
     7
370
     9
100
AcDbLine
 10
3793.332651499156
 20
-130.8331918716431
 30
0.0
 11
2373.332651499156
 21
-130.8331918716431
 31
0.0
  0
LINE
  5
2B5
330
1F
100
AcDbEntity
  8
F-1
  6
JWW_DASHED1
 62
     7
370
     9
100
AcDbLine
 10
3793.332651499156
 20
181.6668281039676
 30
0.0
 11
2373.332651499156
 21
181.6668281039676
 31
0.0
  0
LINE
  5
2B6
330
1F
100
AcDbEntity
  8
F-1
  6
JWW_DASHED1
 62
     7
370
     9
100
AcDbLine
 10
3793.332651499156
 20
285.8335014291708
 30
0.0
 11
2373.332651499156
 21
285.8335014291708
 31
0.0
  0
LINE
  5
2B7
330
1F
100
AcDbEntity
  8
F-1
  6
JWW_DASHED1
 62
     7
370
     9
100
AcDbLine
 10
3793.332651499156
 20
390.0001747543746
 30
0.0
 11
2373.332651499156
 21
390.0001747543746
 31
0.0
  0
LINE
  5
2B8
330
1F
100
AcDbEntity
  8
F-1
  6
JWW_DASHED1
 62
     7
370
     9
100
AcDbLine
 10
3793.332651499156
 20
77.50015477876445
 30
0.0
 11
2373.332651499156
 21
77.50015477876445
 31
0.0
  0
LINE
  5
2B9
330
1F
100
AcDbEntity
  8
F-1
  6
JWW_DASHED1
 62
     7
370
     9
100
AcDbLine
 10
3793.332651499156
 20
494.1668480795784
 30
0.0
 11
2373.332651499156
 21
494.1668480795784
 31
0.0
  0
LINE
  5
2BA
330
1F
100
AcDbEntity
  8
F-1
  6
JWW_DASHED1
 62
     7
370
     9
100
AcDbLine
 10
3793.332651499156
 20
806.6668680551891
 30
0.0
 11
2373.332651499156
 21
806.6668680551891
 31
0.0
  0
LINE
  5
2BB
330
1F
100
AcDbEntity
  8
F-1
  6
JWW_DASHED1
 62
     7
370
     9
100
AcDbLine
 10
3793.332651499156
 20
910.8335413803923
 30
0.0
 11
2373.332651499156
 21
910.8335413803923
 31
0.0
  0
LINE
  5
2BC
330
1F
100
AcDbEntity
  8
F-1
  6
JWW_DASHED1
 62
     7
370
     9
100
AcDbLine
 10
3793.332651499156
 20
1015.000214705596
 30
0.0
 11
2373.332651499156
 21
1015.000214705596
 31
0.0
  0
LINE
  5
2BD
330
1F
100
AcDbEntity
  8
F-1
  6
JWW_DASHED1
 62
     7
370
     9
100
AcDbLine
 10
3793.332651499156
 20
702.5001947299859
 30
0.0
 11
2373.332651499156
 21
702.5001947299859
 31
0.0
  0
LINE
  5
2BE
330
1F
100
AcDbEntity
  8
F-1
  6
JWW_DASHED1
 62
     7
370
     9
100
AcDbLine
 10
3793.332651499156
 20
1119.1668880308
 30
0.0
 11
2373.332651499156
 21
1119.1668880308
 31
0.0
  0
LINE
  5
2BF
330
1F
100
AcDbEntity
  8
F-1
  6
JWW_DASHED1
 62
     7
370
     9
100
AcDbLine
 10
3793.332651499156
 20
1431.66690800641
 30
0.0
 11
2373.332651499156
 21
1431.66690800641
 31
0.0
  0
LINE
  5
2C0
330
1F
100
AcDbEntity
  8
F-1
  6
JWW_DASHED1
 62
     7
370
     9
100
AcDbLine
 10
3793.332651499156
 20
1535.833581331614
 30
0.0
 11
2373.332651499156
 21
1535.833581331614
 31
0.0
  0
LINE
  5
2C1
330
1F
100
AcDbEntity
  8
F-1
  6
JWW_DASHED1
 62
     7
370
     9
100
AcDbLine
 10
3793.332651499156
 20
1640.000254656818
 30
0.0
 11
2373.332651499156
 21
1640.000254656818
 31
0.0
  0
LINE
  5
2C2
330
1F
100
AcDbEntity
  8
F-1
  6
JWW_DASHED1
 62
     7
370
     9
100
AcDbLine
 10
3793.332651499156
 20
1327.500234681207
 30
0.0
 11
2373.332651499156
 21
1327.500234681207
 31
0.0
  0
LINE
  5
2C3
330
1F
100
AcDbEntity
  8
F-1
  6
JWW_DASHED1
 62
     7
370
     9
100
AcDbLine
 10
3793.332651499156
 20
1744.166927982021
 30
0.0
 11
2373.332651499156
 21
1744.166927982021
 31
0.0
  0
LINE
  5
2C4
330
1F
100
AcDbEntity
  8
F-1
  6
JWW_DASHED1
 62
     7
370
     9
100
AcDbLine
 10
3793.332651499156
 20
2056.666947957632
 30
0.0
 11
2373.332651499156
 21
2056.666947957632
 31
0.0
  0
LINE
  5
2C5
330
1F
100
AcDbEntity
  8
F-1
  6
JWW_DASHED1
 62
     7
370
     9
100
AcDbLine
 10
3793.332651499156
 20
2160.833621282835
 30
0.0
 11
2373.332651499156
 21
2160.833621282835
 31
0.0
  0
LINE
  5
2C6
330
1F
100
AcDbEntity
  8
F-1
  6
JWW_DASHED1
 62
     7
370
     9
100
AcDbLine
 10
3793.332651499156
 20
2265.000294608039
 30
0.0
 11
2373.332651499156
 21
2265.000294608039
 31
0.0
  0
LINE
  5
2C7
330
1F
100
AcDbEntity
  8
F-1
  6
JWW_DASHED1
 62
     7
370
     9
100
AcDbLine
 10
3793.332651499156
 20
1952.500274632429
 30
0.0
 11
2373.332651499156
 21
1952.500274632429
 31
0.0
  0
LINE
  5
2C8
330
1F
100
AcDbEntity
  8
F-1
  6
JWW_DASHED1
 62
     7
370
     9
100
AcDbLine
 10
3793.332651499156
 20
2369.166967933243
 30
0.0
 11
2373.332651499156
 21
2369.166967933243
 31
0.0
  0
LINE
  5
2C9
330
1F
100
AcDbEntity
  8
F-1
  6
JWW_DASHED1
 62
     7
370
     9
100
AcDbLine
 10
-103.3338392103036
 20
-2318.333331700917
 30
0.0
 11
-1523.333839210304
 21
-2318.333331700917
 31
0.0
  0
LINE
  5
2CA
330
1F
100
AcDbEntity
  8
F-1
  6
JWW_DASHED1
 62
     7
370
     9
100
AcDbLine
 10
-103.3338392103036
 20
-2214.166658375714
 30
0.0
 11
-1523.333839210304
 21
-2214.166658375714
 31
0.0
  0
LINE
  5
2CB
330
1F
100
AcDbEntity
  8
F-1
  6
JWW_DASHED1
 62
     7
370
     9
100
AcDbLine
 10
-103.3338392103036
 20
-2109.999985050511
 30
0.0
 11
-1523.333839210304
 21
-2109.999985050511
 31
0.0
  0
LINE
  5
2CC
330
1F
100
AcDbEntity
  8
F-1
  6
JWW_DASHED1
 62
     7
370
     9
100
AcDbLine
 10
-103.3338392103036
 20
-2422.500005026121
 30
0.0
 11
-1523.333839210304
 21
-2422.500005026121
 31
0.0
  0
LINE
  5
2CD
330
1F
100
AcDbEntity
  8
F-1
  6
JWW_DASHED1
 62
     7
370
     9
100
AcDbLine
 10
-103.3338392103036
 20
-2005.833311725307
 30
0.0
 11
-1523.333839210304
 21
-2005.833311725307
 31
0.0
  0
LINE
  5
2CE
330
1F
100
AcDbEntity
  8
F-1
  6
JWW_DASHED1
 62
     7
370
     9
100
AcDbLine
 10
-103.3338392103036
 20
-1693.333291749697
 30
0.0
 11
-1523.333839210304
 21
-1693.333291749697
 31
0.0
  0
LINE
  5
2CF
330
1F
100
AcDbEntity
  8
F-1
  6
JWW_DASHED1
 62
     7
370
     9
100
AcDbLine
 10
-103.3338392103036
 20
-1589.166618424493
 30
0.0
 11
-1523.333839210304
 21
-1589.166618424493
 31
0.0
  0
LINE
  5
2D0
330
1F
100
AcDbEntity
  8
F-1
  6
JWW_DASHED1
 62
     7
370
     9
100
AcDbLine
 10
-103.3338392103036
 20
-1484.99994509929
 30
0.0
 11
-1523.333839210304
 21
-1484.99994509929
 31
0.0
  0
LINE
  5
2D1
330
1F
100
AcDbEntity
  8
F-1
  6
JWW_DASHED1
 62
     7
370
     9
100
AcDbLine
 10
-103.3338392103036
 20
-1797.4999650749
 30
0.0
 11
-1523.333839210304
 21
-1797.4999650749
 31
0.0
  0
LINE
  5
2D2
330
1F
100
AcDbEntity
  8
F-1
  6
JWW_DASHED1
 62
     7
370
     9
100
AcDbLine
 10
-103.3338392103036
 20
-1380.833271774086
 30
0.0
 11
-1523.333839210304
 21
-1380.833271774086
 31
0.0
  0
LINE
  5
2D3
330
1F
100
AcDbEntity
  8
F-1
  6
JWW_DASHED1
 62
     7
370
     9
100
AcDbLine
 10
-103.3338392103036
 20
-1068.333251798475
 30
0.0
 11
-1523.333839210304
 21
-1068.333251798475
 31
0.0
  0
LINE
  5
2D4
330
1F
100
AcDbEntity
  8
F-1
  6
JWW_DASHED1
 62
     7
370
     9
100
AcDbLine
 10
-103.3338392103036
 20
-964.1665784732718
 30
0.0
 11
-1523.333839210304
 21
-964.1665784732718
 31
0.0
  0
LINE
  5
2D5
330
1F
100
AcDbEntity
  8
F-1
  6
JWW_DASHED1
 62
     7
370
     9
100
AcDbLine
 10
-103.3338392103036
 20
-859.9999051480683
 30
0.0
 11
-1523.333839210304
 21
-859.9999051480683
 31
0.0
  0
LINE
  5
2D6
330
1F
100
AcDbEntity
  8
F-1
  6
JWW_DASHED1
 62
     7
370
     9
100
AcDbLine
 10
-103.3338392103036
 20
-1172.499925123679
 30
0.0
 11
-1523.333839210304
 21
-1172.499925123679
 31
0.0
  0
LINE
  5
2D7
330
1F
100
AcDbEntity
  8
F-1
  6
JWW_DASHED1
 62
     7
370
     9
100
AcDbLine
 10
-103.3338392103036
 20
-755.8332318228647
 30
0.0
 11
-1523.333839210304
 21
-755.8332318228647
 31
0.0
  0
LINE
  5
2D8
330
1F
100
AcDbEntity
  8
F-1
  6
JWW_DASHED1
 62
     7
370
     9
100
AcDbLine
 10
-103.3338392103036
 20
-443.3332118472535
 30
0.0
 11
-1523.333839210304
 21
-443.3332118472535
 31
0.0
  0
LINE
  5
2D9
330
1F
100
AcDbEntity
  8
F-1
  6
JWW_DASHED1
 62
     7
370
     9
100
AcDbLine
 10
-103.3338392103036
 20
-339.16653852205
 30
0.0
 11
-1523.333839210304
 21
-339.16653852205
 31
0.0
  0
LINE
  5
2DA
330
1F
100
AcDbEntity
  8
F-1
  6
JWW_DASHED1
 62
     7
370
     9
100
AcDbLine
 10
-103.3338392103036
 20
-234.9998651968463
 30
0.0
 11
-1523.333839210304
 21
-234.9998651968463
 31
0.0
  0
LINE
  5
2DB
330
1F
100
AcDbEntity
  8
F-1
  6
JWW_DASHED1
 62
     7
370
     9
100
AcDbLine
 10
-103.3338392103036
 20
-547.499885172457
 30
0.0
 11
-1523.333839210304
 21
-547.499885172457
 31
0.0
  0
LINE
  5
2DC
330
1F
100
AcDbEntity
  8
F-1
  6
JWW_DASHED1
 62
     7
370
     9
100
AcDbLine
 10
-103.3338392103036
 20
-130.8331918716431
 30
0.0
 11
-1523.333839210304
 21
-130.8331918716431
 31
0.0
  0
LINE
  5
2DD
330
1F
100
AcDbEntity
  8
F-1
  6
JWW_DASHED1
 62
     7
370
     9
100
AcDbLine
 10
-103.3338392103036
 20
181.6668281039676
 30
0.0
 11
-1523.333839210304
 21
181.6668281039676
 31
0.0
  0
LINE
  5
2DE
330
1F
100
AcDbEntity
  8
F-1
  6
JWW_DASHED1
 62
     7
370
     9
100
AcDbLine
 10
-103.3338392103036
 20
285.8335014291708
 30
0.0
 11
-1523.333839210304
 21
285.8335014291708
 31
0.0
  0
LINE
  5
2DF
330
1F
100
AcDbEntity
  8
F-1
  6
JWW_DASHED1
 62
     7
370
     9
100
AcDbLine
 10
-103.3338392103036
 20
390.0001747543746
 30
0.0
 11
-1523.333839210304
 21
390.0001747543746
 31
0.0
  0
LINE
  5
2E0
330
1F
100
AcDbEntity
  8
F-1
  6
JWW_DASHED1
 62
     7
370
     9
100
AcDbLine
 10
-103.3338392103036
 20
77.50015477876445
 30
0.0
 11
-1523.333839210304
 21
77.50015477876445
 31
0.0
  0
LINE
  5
2E1
330
1F
100
AcDbEntity
  8
F-1
  6
JWW_DASHED1
 62
     7
370
     9
100
AcDbLine
 10
-103.3338392103036
 20
494.1668480795784
 30
0.0
 11
-1523.333839210304
 21
494.1668480795784
 31
0.0
  0
LINE
  5
2E2
330
1F
100
AcDbEntity
  8
F-1
  6
JWW_DASHED1
 62
     7
370
     9
100
AcDbLine
 10
-103.3338392103036
 20
806.6668680551891
 30
0.0
 11
-1523.333839210304
 21
806.6668680551891
 31
0.0
  0
LINE
  5
2E3
330
1F
100
AcDbEntity
  8
F-1
  6
JWW_DASHED1
 62
     7
370
     9
100
AcDbLine
 10
-103.3338392103036
 20
910.8335413803923
 30
0.0
 11
-1523.333839210304
 21
910.8335413803923
 31
0.0
  0
LINE
  5
2E4
330
1F
100
AcDbEntity
  8
F-1
  6
JWW_DASHED1
 62
     7
370
     9
100
AcDbLine
 10
-103.3338392103036
 20
1015.000214705596
 30
0.0
 11
-1523.333839210304
 21
1015.000214705596
 31
0.0
  0
LINE
  5
2E5
330
1F
100
AcDbEntity
  8
F-1
  6
JWW_DASHED1
 62
     7
370
     9
100
AcDbLine
 10
-103.3338392103036
 20
702.5001947299859
 30
0.0
 11
-1523.333839210304
 21
702.5001947299859
 31
0.0
  0
LINE
  5
2E6
330
1F
100
AcDbEntity
  8
F-1
  6
JWW_DASHED1
 62
     7
370
     9
100
AcDbLine
 10
-103.3338392103036
 20
1119.1668880308
 30
0.0
 11
-1523.333839210304
 21
1119.1668880308
 31
0.0
  0
LINE
  5
2E7
330
1F
100
AcDbEntity
  8
F-1
  6
JWW_DASHED1
 62
     7
370
     9
100
AcDbLine
 10
-103.3338392103036
 20
1431.66690800641
 30
0.0
 11
-1523.333839210304
 21
1431.66690800641
 31
0.0
  0
LINE
  5
2E8
330
1F
100
AcDbEntity
  8
F-1
  6
JWW_DASHED1
 62
     7
370
     9
100
AcDbLine
 10
-103.3338392103036
 20
1535.833581331614
 30
0.0
 11
-1523.333839210304
 21
1535.833581331614
 31
0.0
  0
LINE
  5
2E9
330
1F
100
AcDbEntity
  8
F-1
  6
JWW_DASHED1
 62
     7
370
     9
100
AcDbLine
 10
-103.3338392103036
 20
1640.000254656818
 30
0.0
 11
-1523.333839210304
 21
1640.000254656818
 31
0.0
  0
LINE
  5
2EA
330
1F
100
AcDbEntity
  8
F-1
  6
JWW_DASHED1
 62
     7
370
     9
100
AcDbLine
 10
-103.3338392103036
 20
1327.500234681207
 30
0.0
 11
-1523.333839210304
 21
1327.500234681207
 31
0.0
  0
LINE
  5
2EB
330
1F
100
AcDbEntity
  8
F-1
  6
JWW_DASHED1
 62
     7
370
     9
100
AcDbLine
 10
-103.3338392103036
 20
1744.166927982021
 30
0.0
 11
-1523.333839210304
 21
1744.166927982021
 31
0.0
  0
LINE
  5
2EC
330
1F
100
AcDbEntity
  8
F-0
  6
JWW_HOJO
 62
   120
370
     5
100
AcDbLine
 10
-3993.33306389886
 20
2631.666919605152
 30
0.0
 11
3793.558316617399
 21
2631.666919605152
 31
0.0
  0
LINE
  5
2ED
330
1F
100
AcDbEntity
  8
F-1
  6
Continuous
 62
     7
370
     9
100
AcDbLine
 10
2373.332651499156
 20
2783.365346547719
 30
0.0
 11
2373.332651499156
 21
-2530.000032991976
 31
0.0
  0
LINE
  5
2EE
330
1F
100
AcDbEntity
  8
F-1
  6
Continuous
 62
     7
370
     9
100
AcDbLine
 10
2923.332651499156
 20
2631.634752428209
 30
0.0
 11
2373.332651499156
 21
2631.634752428209
 31
0.0
  0
LINE
  5
2EF
330
1F
100
AcDbEntity
  8
F-1
  6
JWW_HOJO
 62
     7
370
     9
100
AcDbLine
 10
2963.332651499156
 20
2783.365346547719
 30
0.0
 11
2963.332651499156
 21
-2530.000032991977
 31
0.0
  0
LINE
  5
2F0
330
1F
100
AcDbEntity
  8
F-1
  6
Continuous
 62
     7
370
     9
100
AcDbLine
 10
2923.332651499156
 20
2783.365346547719
 30
0.0
 11
2923.332651499156
 21
-2530.000032991977
 31
0.0
  0
LINE
  5
2F1
330
1F
100
AcDbEntity
  8
F-1
  6
Continuous
 62
     7
370
     9
100
AcDbLine
 10
3473.332651499156
 20
2783.365346547719
 30
0.0
 11
3473.332651499156
 21
-2530.000032991977
 31
0.0
  0
LINE
  5
2F2
330
1F
100
AcDbEntity
  8
F-1
  6
Continuous
 62
     7
370
     9
100
AcDbLine
 10
-3153.333352578653
 20
2473.333641258446
 30
0.0
 11
-3153.333352578653
 21
-2526.666678351325
 31
0.0
  0
LINE
  5
2F3
330
1F
100
AcDbEntity
  8
F-1
  6
JWW_DASHED1
 62
     7
370
     9
100
AcDbLine
 10
-103.3338392103036
 20
2056.666947957632
 30
0.0
 11
-1523.333839210304
 21
2056.666947957632
 31
0.0
  0
LINE
  5
2F4
330
1F
100
AcDbEntity
  8
F-1
  6
JWW_DASHED1
 62
     7
370
     9
100
AcDbLine
 10
-103.3338392103036
 20
2160.833621282835
 30
0.0
 11
-1523.333839210304
 21
2160.833621282835
 31
0.0
  0
LINE
  5
2F5
330
1F
100
AcDbEntity
  8
F-1
  6
JWW_DASHED1
 62
     7
370
     9
100
AcDbLine
 10
-103.3338392103036
 20
2265.000294608039
 30
0.0
 11
-1523.333839210304
 21
2265.000294608039
 31
0.0
  0
LINE
  5
2F6
330
1F
100
AcDbEntity
  8
F-1
  6
JWW_DASHED1
 62
     7
370
     9
100
AcDbLine
 10
-103.3338392103036
 20
1952.500274632429
 30
0.0
 11
-1523.333839210304
 21
1952.500274632429
 31
0.0
  0
LINE
  5
2F7
330
1F
100
AcDbEntity
  8
F-1
  6
JWW_DASHED1
 62
     7
370
     9
100
AcDbLine
 10
-103.3338392103036
 20
2369.166967933243
 30
0.0
 11
-1523.333839210304
 21
2369.166967933243
 31
0.0
  0
LINE
  5
2F8
330
1F
100
AcDbEntity
  8
F-1
  6
Continuous
 62
     7
370
     9
100
AcDbLine
 10
-3993.333326803671
 20
-1276.666598448882
 30
0.0
 11
3793.332651499156
 21
-1276.666598448882
 31
0.0
  0
LINE
  5
2F9
330
1F
100
AcDbEntity
  8
F-1
  6
Continuous
 62
     7
370
     9
100
AcDbLine
 10
-3993.333326803671
 20
-26.66651854643987
 30
0.0
 11
3793.332651499156
 21
-26.66651854643987
 31
0.0
  0
LINE
  5
2FA
330
1F
100
AcDbEntity
  8
F-1
  6
Continuous
 62
     7
370
     9
100
AcDbLine
 10
-3993.333326803671
 20
1223.333561356003
 30
0.0
 11
3793.332651499156
 21
1223.333561356003
 31
0.0
  0
LINE
  5
2FB
330
1F
100
AcDbEntity
  8
F-1
  6
Continuous
 62
   200
370
    20
100
AcDbLine
 10
3799.999175200592
 20
2480.000164960446
 30
0.0
 11
-3999.999835040119
 21
2480.000164960446
 31
0.0
  0
LINE
  5
2FC
330
1F
100
AcDbEntity
  8
F-1
  6
Continuous
 62
     7
370
     9
100
AcDbLine
 10
-1523.333839210304
 20
2783.365346547719
 30
0.0
 11
-1523.333839210304
 21
-2530.000032991976
 31
0.0
  0
LINE
  5
2FD
330
1F
100
AcDbEntity
  8
F-1
  6
Continuous
 62
     7
370
     9
100
AcDbLine
 10
-973.3338392103042
 20
2631.666919605152
 30
0.0
 11
-1523.333839210304
 21
2631.666919605152
 31
0.0
  0
LINE
  5
2FE
330
1F
100
AcDbEntity
  8
F-1
  6
JWW_HOJO
 62
     7
370
     9
100
AcDbLine
 10
-933.3338392103042
 20
2783.365346547719
 30
0.0
 11
-933.3338392103042
 21
-2530.000032991977
 31
0.0
  0
LINE
  5
2FF
330
1F
100
AcDbEntity
  8
F-1
  6
Continuous
 62
     7
370
     9
100
AcDbLine
 10
-973.3338392103042
 20
2783.365346547719
 30
0.0
 11
-973.3338392103042
 21
-2530.000032991977
 31
0.0
  0
LINE
  5
300
330
1F
100
AcDbEntity
  8
F-1
  6
Continuous
 62
     7
370
     9
100
AcDbLine
 10
-3293.333352578653
 20
2783.333179370777
 30
0.0
 11
-3293.333352578653
 21
-2526.666678351325
 31
0.0
  0
LINE
  5
301
330
1F
100
AcDbEntity
  8
F-1
  6
Continuous
 62
     7
370
     9
100
AcDbLine
 10
-423.3338392103036
 20
2783.365346547719
 30
0.0
 11
-423.3338392103036
 21
-2530.000032991977
 31
0.0
  0
LINE
  5
302
330
1F
100
AcDbEntity
  8
F-1
  6
Continuous
 62
     7
370
     9
100
AcDbLine
 10
603.3330144108953
 20
2783.36534654772
 30
0.0
 11
603.3330144108953
 21
-2530.000032991976
 31
0.0
  0
LINE
  5
303
330
1F
100
AcDbEntity
  8
F-1
  6
Continuous
 62
   200
370
    20
100
AcDbLine
 10
3799.999175200592
 20
2473.333641258446
 30
0.0
 11
-3999.999835040119
 21
2473.333641258446
 31
0.0
  0
LINE
  5
304
330
1F
100
AcDbEntity
  8
F-1
  6
Continuous
 62
   200
370
    20
100
AcDbLine
 10
-103.3338392103036
 20
2783.36534654772
 30
0.0
 11
-103.3338392103036
 21
-2530.000032991976
 31
0.0
  0
LINE
  5
305
330
1F
100
AcDbEntity
  8
F-1
  6
Continuous
 62
   200
370
    20
100
AcDbLine
 10
-96.66731550886823
 20
2783.36534654772
 30
0.0
 11
-96.66731550886823
 21
-2530.000032991976
 31
0.0
  0
LINE
  5
306
330
1F
100
AcDbEntity
  8
F-1
  6
Continuous
 62
   200
370
    20
100
AcDbLine
 10
-100.0005773595859
 20
2783.333179370777
 30
0.0
 11
-100.0005773595859
 21
-2530.000032991976
 31
0.0
  0
LINE
  5
307
330
1F
100
AcDbEntity
  8
F-1
  6
Continuous
 62
   200
370
    20
100
AcDbLine
 10
3793.332651499156
 20
2783.333179370777
 30
0.0
 11
3793.332651499156
 21
-2803.333443306588
 31
0.0
  0
LINE
  5
308
330
1F
100
AcDbEntity
  8
F-1
  6
Continuous
 62
   200
370
    20
100
AcDbLine
 10
3796.665665910051
 20
2783.333179370777
 30
0.0
 11
3796.665665910051
 21
-2803.333443306588
 31
0.0
  0
LINE
  5
309
330
1F
100
AcDbEntity
  8
F-1
  6
Continuous
 62
   200
370
    20
100
AcDbLine
 10
-3996.666650514345
 20
2783.333179370777
 30
0.0
 11
-3996.666650514345
 21
-2803.333443306588
 31
0.0
  0
LINE
  5
30A
330
1F
100
AcDbEntity
  8
F-1
  6
Continuous
 62
   200
370
    20
100
AcDbLine
 10
-3999.999835040119
 20
2779.999670080237
 30
0.0
 11
3799.999175200592
 21
2779.999670080237
 31
0.0
  0
LINE
  5
30B
330
1F
100
AcDbEntity
  8
F-1
  6
Continuous
 62
   200
370
    20
100
AcDbLine
 10
-3999.999835040119
 20
2776.666655669342
 30
0.0
 11
3799.999175200592
 21
2776.666655669342
 31
0.0
  0
LINE
  5
30C
330
1F
100
AcDbEntity
  8
F-1
  6
Continuous
 62
   200
370
    20
100
AcDbLine
 10
-3999.999989690007
 20
2783.333179370777
 30
0.0
 11
-3999.999989690007
 21
-2803.333443306588
 31
0.0
  0
LINE
  5
30D
330
1F
100
AcDbEntity
  8
F-1
  6
Continuous
 62
   200
370
    20
100
AcDbLine
 10
3799.999175200592
 20
2783.333179370777
 30
0.0
 11
3799.999175200592
 21
-2803.333443306588
 31
0.0
  0
LINE
  5
30E
330
1F
100
AcDbEntity
  8
F-1
  6
Continuous
 62
   200
370
    20
100
AcDbLine
 10
-3999.999835040119
 20
2783.333179370777
 30
0.0
 11
3799.999175200592
 21
2783.333179370777
 31
0.0
  0
LINE
  5
30F
330
1F
100
AcDbEntity
  8
F-0
  6
JWW_HOJO
 62
   120
370
     5
100
AcDbLine
 10
3999.999340160473
 20
-2970.0
 30
0.0
 11
-4200.0
 21
-2970.0
 31
0.0
  0
LINE
  5
310
330
1F
100
AcDbEntity
  8
F-0
  6
JWW_HOJO
 62
   120
370
     5
100
AcDbLine
 10
3999.999340160473
 20
2949.99973606419
 30
0.0
 11
3999.999340160473
 21
-2970.0
 31
0.0
  0
LINE
  5
311
330
1F
100
AcDbEntity
  8
F-0
  6
JWW_HOJO
 62
   120
370
     5
100
AcDbLine
 10
-4200.0
 20
-2970.0
 30
0.0
 11
-4200.0
 21
2949.99973606419
 31
0.0
  0
LINE
  5
312
330
1F
100
AcDbEntity
  8
F-0
  6
JWW_HOJO
 62
   120
370
     5
100
AcDbLine
 10
-4200.0
 20
2949.99973606419
 30
0.0
 11
3999.999340160473
 21
2949.99973606419
 31
0.0
  0
LINE
  5
313
330
1F
100
AcDbEntity
  8
F-0
  6
JWW_HOJO
 62
   120
370
     5
100
AcDbLine
 10
1.666259765625
 20
2776.666655669342
 30
0.0
 11
1.666259765625
 21
-2526.72046558277
 31
0.0
  0
LINE
  5
314
330
1F
100
AcDbEntity
  8
F-1
  6
Continuous
 62
   200
370
    20
100
AcDbLine
 10
-3993.333326803671
 20
2783.333179370777
 30
0.0
 11
-3993.333326803671
 21
-2803.333443306588
 31
0.0
  0
LINE
  5
315
330
1F
100
AcDbEntity
  8
F-0
  6
JWW_HOJO
 62
   120
370
     5
100
AcDbLine
 10
-3893.333321648674
 20
2776.666655669342
 30
0.0
 11
-3893.333321648674
 21
-2523.647262985642
 31
0.0
  0
MTEXT
  5
316
330
1F
100
AcDbEntity
  8
0-A
  6
Continuous
 62
     7
370
     9
100
AcDbMText
 10
-368.3338392103036
 20
2385.20404019473
 30
0.0
 40
45.72
 41
210.0
 46
0.0
 71
     7
 72
     1
  1
{\fＭＳ ゴシック|b0|i0|c128|p49;2(偶数)}
 73
     1
 44
1.0
  0
MTEXT
  5
317
330
1F
100
AcDbEntity
  8
0-A
  6
Continuous
 62
     7
370
     9
100
AcDbMText
 10
3528.332651499156
 20
2385.204040194731
 30
0.0
 40
45.72
 41
210.0
 46
0.0
 71
     7
 72
     1
  1
{\fＭＳ ゴシック|b0|i0|c128|p49;2(偶数)}
 73
     1
 44
1.0
  0
MTEXT
  5
318
330
1F
100
AcDbEntity
  8
0-A
  6
Continuous
 62
     7
370
     9
100
AcDbMText
 10
-1443.333839210304
 20
2384.110304595844
 30
0.0
 40
45.71999999999999
 41
390.0
 46
0.0
 71
     7
 72
     1
  1
{\fＭＳ ゴシック|b0|i0|c128|p49;3,900×27×24}
 73
     1
 44
1.0
  0
MTEXT
  5
319
330
1F
100
AcDbEntity
  8
0-A
  6
Continuous
 62
     7
370
     9
100
AcDbMText
 10
2453.332651499155
 20
2384.110304595844
 30
0.0
 40
45.71999999999996
 41
389.9999999999997
 46
0.0
 71
     7
 72
     1
  1
{\fＭＳ ゴシック|b0|i0|c128|p49;3,900×27×35}
 73
     1
 44
1.0
  0
MTEXT
  5
31A
330
1F
100
AcDbEntity
  8
0-A
  6
Continuous
 62
     7
370
     9
100
AcDbMText
 10
-1443.333839210304
 20
2279.943631270641
 30
0.0
 40
45.71999999999999
 41
390.0
 46
0.0
 71
     7
 72
     1
  1
{\fＭＳ ゴシック|b0|i0|c128|p49;2,450×27×24}
 73
     1
 44
1.0
  0
MTEXT
  5
31B
330
1F
100
AcDbEntity
  8
0-A
  6
Continuous
 62
     7
370
     9
100
AcDbMText
 10
-368.3338392103036
 20
2279.943631270641
 30
0.0
 40
45.72
 41
210.0
 46
0.0
 71
     7
 72
     1
  1
{\fＭＳ ゴシック|b0|i0|c128|p49;2(偶数)}
 73
     1
 44
1.0
  0
MTEXT
  5
31C
330
1F
100
AcDbEntity
  8
0-A
  6
Continuous
 62
     7
370
     9
100
AcDbMText
 10
2453.332651499156
 20
2279.943631270641
 30
0.0
 40
45.71999999999999
 41
390.0
 46
0.0
 71
     7
 72
     1
  1
{\fＭＳ ゴシック|b0|i0|c128|p49;2,450×27×35}
 73
     1
 44
1.0
  0
MTEXT
  5
31D
330
1F
100
AcDbEntity
  8
0-A
  6
Continuous
 62
     7
370
     9
100
AcDbMText
 10
3528.332651499156
 20
2279.943631270641
 30
0.0
 40
45.72
 41
210.0
 46
0.0
 71
     7
 72
     1
  1
{\fＭＳ ゴシック|b0|i0|c128|p49;2(偶数)}
 73
     1
 44
1.0
  0
MTEXT
  5
31E
330
1F
100
AcDbEntity
  8
0-A
  6
Continuous
 62
     7
370
     0
100
AcDbMText
 10
-3263.333352578653
 20
2271.313621282835
 30
0.0
 40
60.96
 41
240.0
 46
0.0
 71
     7
 72
     1
  1
{\f@ＭＳ ゴシック|b0|i0|c128|p49;竪用・}
 11
-1.836909530733566E-16
 21
-1.0
 31
0.0
 73
     1
 44
1.0
  0
MTEXT
  5
31F
330
1F
100
AcDbEntity
  8
0-A
  6
Continuous
 62
     7
370
     0
100
AcDbMText
 10
633.3330144108953
 20
2271.313621282835
 30
0.0
 40
60.96
 41
240.0
 46
0.0
 71
     7
 72
     1
  1
{\f@ＭＳ ゴシック|b0|i0|c128|p49;竪用・}
 11
-1.836909530733566E-16
 21
-1.0
 31
0.0
 73
     1
 44
1.0
  0
MTEXT
  5
320
330
1F
100
AcDbEntity
  8
0-A
  6
Continuous
 62
     7
370
     9
100
AcDbMText
 10
-1443.333839210304
 20
2175.776957945437
 30
0.0
 40
45.71999999999999
 41
390.0
 46
0.0
 71
     7
 72
     1
  1
{\fＭＳ ゴシック|b0|i0|c128|p49;2,075×27×24}
 73
     1
 44
1.0
  0
MTEXT
  5
321
330
1F
100
AcDbEntity
  8
0-A
  6
Continuous
 62
     7
370
     9
100
AcDbMText
 10
-368.3338392103036
 20
2175.776957945437
 30
0.0
 40
45.72
 41
210.0
 46
0.0
 71
     7
 72
     1
  1
{\fＭＳ ゴシック|b0|i0|c128|p49;2(偶数)}
 73
     1
 44
1.0
  0
MTEXT
  5
322
330
1F
100
AcDbEntity
  8
0-A
  6
Continuous
 62
     7
370
     9
100
AcDbMText
 10
2453.332651499156
 20
2175.776957945437
 30
0.0
 40
45.71999999999999
 41
390.0
 46
0.0
 71
     7
 72
     1
  1
{\fＭＳ ゴシック|b0|i0|c128|p49;2,075×27×35}
 73
     1
 44
1.0
  0
MTEXT
  5
323
330
1F
100
AcDbEntity
  8
0-A
  6
Continuous
 62
     7
370
     9
100
AcDbMText
 10
3528.332651499156
 20
2175.776957945438
 30
0.0
 40
45.72
 41
210.0
 46
0.0
 71
     7
 72
     1
  1
{\fＭＳ ゴシック|b0|i0|c128|p49;2(偶数)}
 73
     1
 44
1.0
  0
MTEXT
  5
324
330
1F
100
AcDbEntity
  8
0-A
  6
Continuous
 62
     7
370
     9
100
AcDbMText
 10
-3843.333339691162
 20
1885.138285573429
 30
0.0
 40
60.96
 41
400.0
 46
0.0
 71
     7
 72
     1
  1
{\fＭＳ ゴシック|b0|i0|c128|p49;ケーシング}
 73
     1
 44
1.0
  0
MTEXT
  5
325
330
1F
100
AcDbEntity
  8
0-A
  6
Continuous
 62
     7
370
     9
100
AcDbMText
 10
53.33302729838636
 20
1879.621839521187
 30
0.0
 40
60.96
 41
400.0
 46
0.0
 71
     7
 72
     1
  1
{\fＭＳ ゴシック|b0|i0|c128|p49;ケーシング}
 73
     1
 44
1.0
  0
MTEXT
  5
326
330
1F
100
AcDbEntity
  8
0-A
  6
Continuous
 62
     7
370
     0
100
AcDbMText
 10
-3263.333352578653
 20
1806.313581331614
 30
0.0
 40
60.96
 41
560.0
 46
0.0
 71
     7
 72
     1
  1
{\f@ＭＳ ゴシック|b0|i0|c128|p49;横 用（竪勝ち)}
 11
-1.836909530733566E-16
 21
-1.0
 31
0.0
 73
     1
 44
1.0
  0
MTEXT
  5
327
330
1F
100
AcDbEntity
  8
0-A
  6
Continuous
 62
     7
370
     0
100
AcDbMText
 10
633.3330144108953
 20
1806.313581331614
 30
0.0
 40
60.96
 41
560.0
 46
0.0
 71
     7
 72
     1
  1
{\f@ＭＳ ゴシック|b0|i0|c128|p49;横 用（竪勝ち)}
 11
-1.836909530733566E-16
 21
-1.0
 31
0.0
 73
     1
 44
1.0
  0
MTEXT
  5
328
330
1F
100
AcDbEntity
  8
0-A
  6
Continuous
 62
     7
370
     9
100
AcDbMText
 10
-3723.333339691162
 20
1765.138285573429
 30
0.0
 40
60.96
 41
160.0
 46
0.0
 71
     7
 72
     1
  1
{\fＭＳ ゴシック|b0|i0|c128|p49;Ａ型}
 73
     1
 44
1.0
  0
MTEXT
  5
329
330
1F
100
AcDbEntity
  8
0-A
  6
Continuous
 62
     7
370
     9
100
AcDbMText
 10
173.3330272983864
 20
1759.621839521187
 30
0.0
 40
60.96
 41
160.0
 46
0.0
 71
     7
 72
     1
  1
{\fＭＳ ゴシック|b0|i0|c128|p49;Ｌ型}
 73
     1
 44
1.0
  0
MTEXT
  5
32A
330
1F
100
AcDbEntity
  8
0-A
  6
Continuous
 62
     7
370
     9
100
AcDbMText
 10
-368.3338392103036
 20
1760.204000243509
 30
0.0
 40
45.72
 41
210.0
 46
0.0
 71
     7
 72
     1
  1
{\fＭＳ ゴシック|b0|i0|c128|p49;2(偶数)}
 73
     1
 44
1.0
  0
MTEXT
  5
32B
330
1F
100
AcDbEntity
  8
0-A
  6
Continuous
 62
     7
370
     9
100
AcDbMText
 10
3528.332651499156
 20
1760.20400024351
 30
0.0
 40
45.72
 41
210.0
 46
0.0
 71
     7
 72
     1
  1
{\fＭＳ ゴシック|b0|i0|c128|p49;2(偶数)}
 73
     1
 44
1.0
  0
MTEXT
  5
32C
330
1F
100
AcDbEntity
  8
0-A
  6
Continuous
 62
     7
370
     9
100
AcDbMText
 10
-1443.333839210304
 20
1759.110264644623
 30
0.0
 40
45.71999999999999
 41
390.0
 46
0.0
 71
     7
 72
     1
  1
{\fＭＳ ゴシック|b0|i0|c128|p49;3,900×23×24}
 73
     1
 44
1.0
  0
MTEXT
  5
32D
330
1F
100
AcDbEntity
  8
0-A
  6
Continuous
 62
     7
370
     9
100
AcDbMText
 10
2453.332651499156
 20
1759.110264644623
 30
0.0
 40
45.71999999999999
 41
390.0
 46
0.0
 71
     7
 72
     1
  1
{\fＭＳ ゴシック|b0|i0|c128|p49;3,900×23×35}
 73
     1
 44
1.0
  0
MTEXT
  5
32E
330
1F
100
AcDbEntity
  8
0-A
  6
Continuous
 62
     7
370
     9
100
AcDbMText
 10
-1443.333839210304
 20
1654.94359131942
 30
0.0
 40
45.71999999999999
 41
390.0
 46
0.0
 71
     7
 72
     1
  1
{\fＭＳ ゴシック|b0|i0|c128|p49;2,450×23×24}
 73
     1
 44
1.0
  0
MTEXT
  5
32F
330
1F
100
AcDbEntity
  8
0-A
  6
Continuous
 62
     7
370
     9
100
AcDbMText
 10
-368.3338392103036
 20
1654.94359131942
 30
0.0
 40
45.72
 41
210.0
 46
0.0
 71
     7
 72
     1
  1
{\fＭＳ ゴシック|b0|i0|c128|p49;2(偶数)}
 73
     1
 44
1.0
  0
MTEXT
  5
330
330
1F
100
AcDbEntity
  8
0-A
  6
Continuous
 62
     7
370
     9
100
AcDbMText
 10
2453.332651499156
 20
1654.943591319419
 30
0.0
 40
45.71999999999999
 41
390.0
 46
0.0
 71
     7
 72
     1
  1
{\fＭＳ ゴシック|b0|i0|c128|p49;2,075×23×35}
 73
     1
 44
1.0
  0
MTEXT
  5
331
330
1F
100
AcDbEntity
  8
0-A
  6
Continuous
 62
     7
370
     9
100
AcDbMText
 10
3528.332651499156
 20
1654.94359131942
 30
0.0
 40
45.72
 41
210.0
 46
0.0
 71
     7
 72
     1
  1
{\fＭＳ ゴシック|b0|i0|c128|p49;2(偶数)}
 73
     1
 44
1.0
  0
MTEXT
  5
332
330
1F
100
AcDbEntity
  8
0-A
  6
Continuous
 62
     7
370
     9
100
AcDbMText
 10
-1443.333839210304
 20
1550.776917994215
 30
0.0
 40
45.71999999999999
 41
390.0
 46
0.0
 71
     7
 72
     1
  1
{\fＭＳ ゴシック|b0|i0|c128|p49;2,075×23×24}
 73
     1
 44
1.0
  0
MTEXT
  5
333
330
1F
100
AcDbEntity
  8
0-A
  6
Continuous
 62
     7
370
     9
100
AcDbMText
 10
-368.3338392103036
 20
1550.776917994215
 30
0.0
 40
45.72
 41
210.0
 46
0.0
 71
     7
 72
     1
  1
{\fＭＳ ゴシック|b0|i0|c128|p49;2(偶数)}
 73
     1
 44
1.0
  0
MTEXT
  5
334
330
1F
100
AcDbEntity
  8
0-A
  6
Continuous
 62
     7
370
     9
100
AcDbMText
 10
-368.3338392103036
 20
1135.203960292288
 30
0.0
 40
45.72
 41
210.0
 46
0.0
 71
     7
 72
     1
  1
{\fＭＳ ゴシック|b0|i0|c128|p49;2(偶数)}
 73
     1
 44
1.0
  0
MTEXT
  5
335
330
1F
100
AcDbEntity
  8
0-A
  6
Continuous
 62
     7
370
     9
100
AcDbMText
 10
3528.332651499156
 20
1135.203960292288
 30
0.0
 40
45.72
 41
210.0
 46
0.0
 71
     7
 72
     1
  1
{\fＭＳ ゴシック|b0|i0|c128|p49;2(偶数)}
 73
     1
 44
1.0
  0
MTEXT
  5
336
330
1F
100
AcDbEntity
  8
0-A
  6
Continuous
 62
     7
370
     9
100
AcDbMText
 10
-1443.333839210304
 20
1134.110224693401
 30
0.0
 40
45.71999999999999
 41
390.0
 46
0.0
 71
     7
 72
     1
  1
{\fＭＳ ゴシック|b0|i0|c128|p49;3,900×37×24}
 73
     1
 44
1.0
  0
MTEXT
  5
337
330
1F
100
AcDbEntity
  8
0-A
  6
Continuous
 62
     7
370
     9
100
AcDbMText
 10
2453.332651499156
 20
1134.110224693401
 30
0.0
 40
45.71999999999999
 41
390.0
 46
0.0
 71
     7
 72
     1
  1
{\fＭＳ ゴシック|b0|i0|c128|p49;3,900×37×35}
 73
     1
 44
1.0
  0
MTEXT
  5
338
330
1F
100
AcDbEntity
  8
0-A
  6
Continuous
 62
     7
370
     9
100
AcDbMText
 10
-1443.333839210304
 20
1029.943551368198
 30
0.0
 40
45.71999999999999
 41
390.0
 46
0.0
 71
     7
 72
     1
  1
{\fＭＳ ゴシック|b0|i0|c128|p49;2,450×37×24}
 73
     1
 44
1.0
  0
MTEXT
  5
339
330
1F
100
AcDbEntity
  8
0-A
  6
Continuous
 62
     7
370
     9
100
AcDbMText
 10
-368.3338392103036
 20
1029.943551368198
 30
0.0
 40
45.72
 41
210.0
 46
0.0
 71
     7
 72
     1
  1
{\fＭＳ ゴシック|b0|i0|c128|p49;2(偶数)}
 73
     1
 44
1.0
  0
MTEXT
  5
33A
330
1F
100
AcDbEntity
  8
0-A
  6
Continuous
 62
     7
370
     9
100
AcDbMText
 10
2453.332651499155
 20
1029.943551368198
 30
0.0
 40
45.71999999999996
 41
389.9999999999997
 46
0.0
 71
     7
 72
     1
  1
{\fＭＳ ゴシック|b0|i0|c128|p49;2,450×37×35}
 73
     1
 44
1.0
  0
MTEXT
  5
33B
330
1F
100
AcDbEntity
  8
0-A
  6
Continuous
 62
     7
370
     9
100
AcDbMText
 10
3528.332651499156
 20
1029.943551368198
 30
0.0
 40
45.72
 41
210.0
 46
0.0
 71
     7
 72
     1
  1
{\fＭＳ ゴシック|b0|i0|c128|p49;2(偶数)}
 73
     1
 44
1.0
  0
MTEXT
  5
33C
330
1F
100
AcDbEntity
  8
0-A
  6
Continuous
 62
     7
370
     0
100
AcDbMText
 10
-3263.333352578653
 20
1021.313541380392
 30
0.0
 40
60.96
 41
240.0
 46
0.0
 71
     7
 72
     1
  1
{\f@ＭＳ ゴシック|b0|i0|c128|p49;竪用・}
 11
-1.836909530733566E-16
 21
-1.0
 31
0.0
 73
     1
 44
1.0
  0
MTEXT
  5
33D
330
1F
100
AcDbEntity
  8
0-A
  6
Continuous
 62
     7
370
     0
100
AcDbMText
 10
633.3330144108953
 20
1021.313541380392
 30
0.0
 40
60.96
 41
240.0
 46
0.0
 71
     7
 72
     1
  1
{\f@ＭＳ ゴシック|b0|i0|c128|p49;竪用・}
 11
-1.836909530733566E-16
 21
-1.0
 31
0.0
 73
     1
 44
1.0
  0
MTEXT
  5
33E
330
1F
100
AcDbEntity
  8
0-A
  6
Continuous
 62
     7
370
     9
100
AcDbMText
 10
-1443.333839210304
 20
925.7768780429944
 30
0.0
 40
45.71999999999999
 41
390.0
 46
0.0
 71
     7
 72
     1
  1
{\fＭＳ ゴシック|b0|i0|c128|p49;2,075×37×24}
 73
     1
 44
1.0
  0
MTEXT
  5
33F
330
1F
100
AcDbEntity
  8
0-A
  6
Continuous
 62
     7
370
     9
100
AcDbMText
 10
-368.3338392103036
 20
925.7768780429939
 30
0.0
 40
45.72
 41
210.0
 46
0.0
 71
     7
 72
     1
  1
{\fＭＳ ゴシック|b0|i0|c128|p49;2(偶数)}
 73
     1
 44
1.0
  0
MTEXT
  5
340
330
1F
100
AcDbEntity
  8
0-A
  6
Continuous
 62
     7
370
     9
100
AcDbMText
 10
2453.332651499156
 20
925.7768780429944
 30
0.0
 40
45.71999999999999
 41
390.0
 46
0.0
 71
     7
 72
     1
  1
{\fＭＳ ゴシック|b0|i0|c128|p49;2,075×37×35}
 73
     1
 44
1.0
  0
MTEXT
  5
341
330
1F
100
AcDbEntity
  8
0-A
  6
Continuous
 62
     7
370
     9
100
AcDbMText
 10
3528.332651499156
 20
925.7768780429944
 30
0.0
 40
45.72
 41
210.0
 46
0.0
 71
     7
 72
     1
  1
{\fＭＳ ゴシック|b0|i0|c128|p49;2(偶数)}
 73
     1
 44
1.0
  0
MTEXT
  5
342
330
1F
100
AcDbEntity
  8
0-A
  6
Continuous
 62
     7
370
     9
100
AcDbMText
 10
-3843.333339691162
 20
635.138205670986
 30
0.0
 40
60.96
 41
400.0
 46
0.0
 71
     7
 72
     1
  1
{\fＭＳ ゴシック|b0|i0|c128|p49;ケーシング}
 73
     1
 44
1.0
  0
MTEXT
  5
343
330
1F
100
AcDbEntity
  8
0-A
  6
Continuous
 62
     7
370
     9
100
AcDbMText
 10
53.33302729838636
 20
629.6217596187438
 30
0.0
 40
60.96
 41
400.0
 46
0.0
 71
     7
 72
     1
  1
{\fＭＳ ゴシック|b0|i0|c128|p49;ケーシング}
 73
     1
 44
1.0
  0
MTEXT
  5
344
330
1F
100
AcDbEntity
  8
0-A
  6
Continuous
 62
     7
370
     0
100
AcDbMText
 10
-3263.333352578653
 20
556.3135014291709
 30
0.0
 40
60.96
 41
560.0
 46
0.0
 71
     7
 72
     1
  1
{\f@ＭＳ ゴシック|b0|i0|c128|p49;横 用（竪勝ち)}
 11
-1.836909530733566E-16
 21
-1.0
 31
0.0
 73
     1
 44
1.0
  0
MTEXT
  5
345
330
1F
100
AcDbEntity
  8
0-A
  6
Continuous
 62
     7
370
     0
100
AcDbMText
 10
633.3330144108953
 20
556.3135014291709
 30
0.0
 40
60.96
 41
560.0
 46
0.0
 71
     7
 72
     1
  1
{\f@ＭＳ ゴシック|b0|i0|c128|p49;横 用（竪勝ち)}
 11
-1.836909530733566E-16
 21
-1.0
 31
0.0
 73
     1
 44
1.0
  0
MTEXT
  5
346
330
1F
100
AcDbEntity
  8
0-A
  6
Continuous
 62
     7
370
     9
100
AcDbMText
 10
-3723.333339691162
 20
515.1382056709855
 30
0.0
 40
60.96
 41
160.0
 46
0.0
 71
     7
 72
     1
  1
{\fＭＳ ゴシック|b0|i0|c128|p49;Ｂ型}
 73
     1
 44
1.0
  0
MTEXT
  5
347
330
1F
100
AcDbEntity
  8
0-A
  6
Continuous
 62
     7
370
     9
100
AcDbMText
 10
173.3330272983864
 20
509.6217596187438
 30
0.0
 40
60.96
 41
160.0
 46
0.0
 71
     7
 72
     1
  1
{\fＭＳ ゴシック|b0|i0|c128|p49;Ｍ型}
 73
     1
 44
1.0
  0
MTEXT
  5
348
330
1F
100
AcDbEntity
  8
0-A
  6
Continuous
 62
     7
370
     9
100
AcDbMText
 10
-368.3338392103036
 20
510.2039203410664
 30
0.0
 40
45.72
 41
210.0
 46
0.0
 71
     7
 72
     1
  1
{\fＭＳ ゴシック|b0|i0|c128|p49;2(偶数)}
 73
     1
 44
1.0
  0
MTEXT
  5
349
330
1F
100
AcDbEntity
  8
0-A
  6
Continuous
 62
     7
370
     9
100
AcDbMText
 10
3528.332651499156
 20
510.2039203410669
 30
0.0
 40
45.72
 41
210.0
 46
0.0
 71
     7
 72
     1
  1
{\fＭＳ ゴシック|b0|i0|c128|p49;2(偶数)}
 73
     1
 44
1.0
  0
MTEXT
  5
34A
330
1F
100
AcDbEntity
  8
0-A
  6
Continuous
 62
     7
370
     9
100
AcDbMText
 10
-1443.333839210304
 20
509.11018474218
 30
0.0
 40
45.71999999999999
 41
390.0
 46
0.0
 71
     7
 72
     1
  1
{\fＭＳ ゴシック|b0|i0|c128|p49;3,900×33×24}
 73
     1
 44
1.0
  0
MTEXT
  5
34B
330
1F
100
AcDbEntity
  8
0-A
  6
Continuous
 62
     7
370
     9
100
AcDbMText
 10
2453.332651499156
 20
509.11018474218
 30
0.0
 40
45.72000000000003
 41
390.0000000000003
 46
0.0
 71
     7
 72
     1
  1
{\fＭＳ ゴシック|b0|i0|c128|p49;3,900×33×35}
 73
     1
 44
1.0
  0
MTEXT
  5
34C
330
1F
100
AcDbEntity
  8
0-A
  6
Continuous
 62
     7
370
     9
100
AcDbMText
 10
-1443.333839210304
 20
404.9435114169762
 30
0.0
 40
45.71999999999999
 41
390.0
 46
0.0
 71
     7
 72
     1
  1
{\fＭＳ ゴシック|b0|i0|c128|p49;2,450×33×24}
 73
     1
 44
1.0
  0
MTEXT
  5
34D
330
1F
100
AcDbEntity
  8
0-A
  6
Continuous
 62
     7
370
     9
100
AcDbMText
 10
-368.3338392103036
 20
404.9435114169768
 30
0.0
 40
45.72
 41
210.0
 46
0.0
 71
     7
 72
     1
  1
{\fＭＳ ゴシック|b0|i0|c128|p49;2(偶数)}
 73
     1
 44
1.0
  0
MTEXT
  5
34E
330
1F
100
AcDbEntity
  8
0-A
  6
Continuous
 62
     7
370
     9
100
AcDbMText
 10
2453.332651499156
 20
404.9435114169762
 30
0.0
 40
45.72000000000003
 41
390.0000000000003
 46
0.0
 71
     7
 72
     1
  1
{\fＭＳ ゴシック|b0|i0|c128|p49;2,075×33×35}
 73
     1
 44
1.0
  0
MTEXT
  5
34F
330
1F
100
AcDbEntity
  8
0-A
  6
Continuous
 62
     7
370
     9
100
AcDbMText
 10
3528.332651499156
 20
404.9435114169768
 30
0.0
 40
45.72
 41
210.0
 46
0.0
 71
     7
 72
     1
  1
{\fＭＳ ゴシック|b0|i0|c128|p49;2(偶数)}
 73
     1
 44
1.0
  0
MTEXT
  5
350
330
1F
100
AcDbEntity
  8
0-A
  6
Continuous
 62
     7
370
     9
100
AcDbMText
 10
-1443.333839210304
 20
300.776838091773
 30
0.0
 40
45.71999999999999
 41
390.0
 46
0.0
 71
     7
 72
     1
  1
{\fＭＳ ゴシック|b0|i0|c128|p49;2,075×33×24}
 73
     1
 44
1.0
  0
MTEXT
  5
351
330
1F
100
AcDbEntity
  8
0-A
  6
Continuous
 62
     7
370
     9
100
AcDbMText
 10
-368.3338392103036
 20
300.7768380917724
 30
0.0
 40
45.72
 41
210.0
 46
0.0
 71
     7
 72
     1
  1
{\fＭＳ ゴシック|b0|i0|c128|p49;2(偶数)}
 73
     1
 44
1.0
  0
MTEXT
  5
352
330
1F
100
AcDbEntity
  8
0-A
  6
Continuous
 62
     7
370
     9
100
AcDbMText
 10
-368.3338392103036
 20
-114.7961196101545
 30
0.0
 40
45.72
 41
210.0
 46
0.0
 71
     7
 72
     1
  1
{\fＭＳ ゴシック|b0|i0|c128|p49;2(偶数)}
 73
     1
 44
1.0
  0
MTEXT
  5
353
330
1F
100
AcDbEntity
  8
0-A
  6
Continuous
 62
     7
370
     9
100
AcDbMText
 10
3528.332651499156
 20
-114.7961196101545
 30
0.0
 40
45.72
 41
210.0
 46
0.0
 71
     7
 72
     1
  1
{\fＭＳ ゴシック|b0|i0|c128|p49;2(偶数)}
 73
     1
 44
1.0
  0
MTEXT
  5
354
330
1F
100
AcDbEntity
  8
0-A
  6
Continuous
 62
     7
370
     9
100
AcDbMText
 10
-1443.333839210304
 20
-115.8898552090415
 30
0.0
 40
45.71999999999999
 41
390.0
 46
0.0
 71
     7
 72
     1
  1
{\fＭＳ ゴシック|b0|i0|c128|p49;3,900×50×24}
 73
     1
 44
1.0
  0
MTEXT
  5
355
330
1F
100
AcDbEntity
  8
0-A
  6
Continuous
 62
     7
370
     9
100
AcDbMText
 10
2453.332651499155
 20
-115.8898552090415
 30
0.0
 40
45.71999999999996
 41
389.9999999999997
 46
0.0
 71
     7
 72
     1
  1
{\fＭＳ ゴシック|b0|i0|c128|p49;3,900×50×35}
 73
     1
 44
1.0
  0
MTEXT
  5
356
330
1F
100
AcDbEntity
  8
0-A
  6
Continuous
 62
     7
370
     9
100
AcDbMText
 10
-1443.333839210304
 20
-220.0565285342447
 30
0.0
 40
45.71999999999999
 41
390.0
 46
0.0
 71
     7
 72
     1
  1
{\fＭＳ ゴシック|b0|i0|c128|p49;2,450×50×24}
 73
     1
 44
1.0
  0
MTEXT
  5
357
330
1F
100
AcDbEntity
  8
0-A
  6
Continuous
 62
     7
370
     9
100
AcDbMText
 10
-368.3338392103036
 20
-220.0565285342446
 30
0.0
 40
45.72
 41
210.0
 46
0.0
 71
     7
 72
     1
  1
{\fＭＳ ゴシック|b0|i0|c128|p49;2(偶数)}
 73
     1
 44
1.0
  0
MTEXT
  5
358
330
1F
100
AcDbEntity
  8
0-A
  6
Continuous
 62
     7
370
     9
100
AcDbMText
 10
2453.332651499156
 20
-220.0565285342446
 30
0.0
 40
45.72000000000003
 41
390.0000000000003
 46
0.0
 71
     7
 72
     1
  1
{\fＭＳ ゴシック|b0|i0|c128|p49;2,450×50×35}
 73
     1
 44
1.0
  0
MTEXT
  5
359
330
1F
100
AcDbEntity
  8
0-A
  6
Continuous
 62
     7
370
     9
100
AcDbMText
 10
3528.332651499156
 20
-220.0565285342446
 30
0.0
 40
45.72
 41
210.0
 46
0.0
 71
     7
 72
     1
  1
{\fＭＳ ゴシック|b0|i0|c128|p49;2(偶数)}
 73
     1
 44
1.0
  0
MTEXT
  5
35A
330
1F
100
AcDbEntity
  8
0-A
  6
Continuous
 62
     7
370
     0
100
AcDbMText
 10
-3263.333352578653
 20
-228.6865385220506
 30
0.0
 40
60.96
 41
240.0
 46
0.0
 71
     7
 72
     1
  1
{\f@ＭＳ ゴシック|b0|i0|c128|p49;竪用・}
 11
-1.836909530733566E-16
 21
-1.0
 31
0.0
 73
     1
 44
1.0
  0
MTEXT
  5
35B
330
1F
100
AcDbEntity
  8
0-A
  6
Continuous
 62
     7
370
     0
100
AcDbMText
 10
633.3330144108953
 20
-228.6865385220506
 30
0.0
 40
60.96
 41
240.0
 46
0.0
 71
     7
 72
     1
  1
{\f@ＭＳ ゴシック|b0|i0|c128|p49;竪用・}
 11
-1.836909530733566E-16
 21
-1.0
 31
0.0
 73
     1
 44
1.0
  0
MTEXT
  5
35C
330
1F
100
AcDbEntity
  8
0-A
  6
Continuous
 62
     7
370
     9
100
AcDbMText
 10
-1443.333839210304
 20
-324.2232018594484
 30
0.0
 40
45.71999999999999
 41
390.0
 46
0.0
 71
     7
 72
     1
  1
{\fＭＳ ゴシック|b0|i0|c128|p49;2,075×50×24}
 73
     1
 44
1.0
  0
MTEXT
  5
35D
330
1F
100
AcDbEntity
  8
0-A
  6
Continuous
 62
     7
370
     9
100
AcDbMText
 10
-368.3338392103036
 20
-324.2232018594484
 30
0.0
 40
45.72
 41
210.0
 46
0.0
 71
     7
 72
     1
  1
{\fＭＳ ゴシック|b0|i0|c128|p49;2(偶数)}
 73
     1
 44
1.0
  0
MTEXT
  5
35E
330
1F
100
AcDbEntity
  8
0-A
  6
Continuous
 62
     7
370
     9
100
AcDbMText
 10
2453.332651499155
 20
-324.2232018594485
 30
0.0
 40
45.71999999999996
 41
389.9999999999997
 46
0.0
 71
     7
 72
     1
  1
{\fＭＳ ゴシック|b0|i0|c128|p49;2,075×50×35}
 73
     1
 44
1.0
  0
MTEXT
  5
35F
330
1F
100
AcDbEntity
  8
0-A
  6
Continuous
 62
     7
370
     9
100
AcDbMText
 10
3528.332651499156
 20
-324.2232018594484
 30
0.0
 40
45.72
 41
210.0
 46
0.0
 71
     7
 72
     1
  1
{\fＭＳ ゴシック|b0|i0|c128|p49;2(偶数)}
 73
     1
 44
1.0
  0
MTEXT
  5
360
330
1F
100
AcDbEntity
  8
0-A
  6
Continuous
 62
     7
370
     9
100
AcDbMText
 10
-3843.333339691162
 20
-614.8618742314568
 30
0.0
 40
60.96
 41
400.0
 46
0.0
 71
     7
 72
     1
  1
{\fＭＳ ゴシック|b0|i0|c128|p49;ケーシング}
 73
     1
 44
1.0
  0
MTEXT
  5
361
330
1F
100
AcDbEntity
  8
0-A
  6
Continuous
 62
     7
370
     9
100
AcDbMText
 10
53.33302729838636
 20
-620.3783202836987
 30
0.0
 40
60.96
 41
400.0
 46
0.0
 71
     7
 72
     1
  1
{\fＭＳ ゴシック|b0|i0|c128|p49;ケーシング}
 73
     1
 44
1.0
  0
MTEXT
  5
362
330
1F
100
AcDbEntity
  8
0-A
  6
Continuous
 62
     7
370
     0
100
AcDbMText
 10
-3263.333352578653
 20
-693.6865784732718
 30
0.0
 40
60.96
 41
560.0
 46
0.0
 71
     7
 72
     1
  1
{\f@ＭＳ ゴシック|b0|i0|c128|p49;横 用（竪勝ち)}
 11
-1.836909530733566E-16
 21
-1.0
 31
0.0
 73
     1
 44
1.0
  0
MTEXT
  5
363
330
1F
100
AcDbEntity
  8
0-A
  6
Continuous
 62
     7
370
     0
100
AcDbMText
 10
633.3330144108953
 20
-693.6865784732718
 30
0.0
 40
60.96
 41
560.0
 46
0.0
 71
     7
 72
     1
  1
{\f@ＭＳ ゴシック|b0|i0|c128|p49;横 用（竪勝ち)}
 11
-1.836909530733566E-16
 21
-1.0
 31
0.0
 73
     1
 44
1.0
  0
MTEXT
  5
364
330
1F
100
AcDbEntity
  8
0-A
  6
Continuous
 62
     7
370
     9
100
AcDbMText
 10
-3723.333339691162
 20
-734.8618742314568
 30
0.0
 40
60.96
 41
160.0
 46
0.0
 71
     7
 72
     1
  1
{\fＭＳ ゴシック|b0|i0|c128|p49;Ｃ型}
 73
     1
 44
1.0
  0
MTEXT
  5
365
330
1F
100
AcDbEntity
  8
0-A
  6
Continuous
 62
     7
370
     9
100
AcDbMText
 10
173.3330272983864
 20
-740.3783202836987
 30
0.0
 40
60.96
 41
160.0
 46
0.0
 71
     7
 72
     1
  1
{\fＭＳ ゴシック|b0|i0|c128|p49;Ｎ型}
 73
     1
 44
1.0
  0
MTEXT
  5
366
330
1F
100
AcDbEntity
  8
0-A
  6
Continuous
 62
     7
370
     9
100
AcDbMText
 10
-368.3338392103036
 20
-739.7961595613765
 30
0.0
 40
45.72
 41
210.0
 46
0.0
 71
     7
 72
     1
  1
{\fＭＳ ゴシック|b0|i0|c128|p49;2(偶数)}
 73
     1
 44
1.0
  0
MTEXT
  5
367
330
1F
100
AcDbEntity
  8
0-A
  6
Continuous
 62
     7
370
     9
100
AcDbMText
 10
3528.332651499156
 20
-739.7961595613759
 30
0.0
 40
45.72
 41
210.0
 46
0.0
 71
     7
 72
     1
  1
{\fＭＳ ゴシック|b0|i0|c128|p49;2(偶数)}
 73
     1
 44
1.0
  0
MTEXT
  5
368
330
1F
100
AcDbEntity
  8
0-A
  6
Continuous
 62
     7
370
     9
100
AcDbMText
 10
-1443.333839210304
 20
-740.8898951602629
 30
0.0
 40
45.71999999999999
 41
390.0
 46
0.0
 71
     7
 72
     1
  1
{\fＭＳ ゴシック|b0|i0|c128|p49;3,900×46×24}
 73
     1
 44
1.0
  0
MTEXT
  5
369
330
1F
100
AcDbEntity
  8
0-A
  6
Continuous
 62
     7
370
     9
100
AcDbMText
 10
2453.332651499156
 20
-740.8898951602629
 30
0.0
 40
45.71999999999999
 41
390.0
 46
0.0
 71
     7
 72
     1
  1
{\fＭＳ ゴシック|b0|i0|c128|p49;3,900×46×35}
 73
     1
 44
1.0
  0
MTEXT
  5
36A
330
1F
100
AcDbEntity
  8
0-A
  6
Continuous
 62
     7
370
     9
100
AcDbMText
 10
-1443.333839210304
 20
-845.0565684854666
 30
0.0
 40
45.71999999999999
 41
390.0
 46
0.0
 71
     7
 72
     1
  1
{\fＭＳ ゴシック|b0|i0|c128|p49;2,450×46×24}
 73
     1
 44
1.0
  0
MTEXT
  5
36B
330
1F
100
AcDbEntity
  8
0-A
  6
Continuous
 62
     7
370
     9
100
AcDbMText
 10
-368.3338392103036
 20
-845.0565684854663
 30
0.0
 40
45.72
 41
210.0
 46
0.0
 71
     7
 72
     1
  1
{\fＭＳ ゴシック|b0|i0|c128|p49;2(偶数)}
 73
     1
 44
1.0
  0
MTEXT
  5
36C
330
1F
100
AcDbEntity
  8
0-A
  6
Continuous
 62
     7
370
     9
100
AcDbMText
 10
2453.332651499156
 20
-845.0565684854666
 30
0.0
 40
45.72000000000003
 41
390.0000000000003
 46
0.0
 71
     7
 72
     1
  1
{\fＭＳ ゴシック|b0|i0|c128|p49;2,075×46×35}
 73
     1
 44
1.0
  0
MTEXT
  5
36D
330
1F
100
AcDbEntity
  8
0-A
  6
Continuous
 62
     7
370
     9
100
AcDbMText
 10
3528.332651499156
 20
-845.0565684854655
 30
0.0
 40
45.72
 41
210.0
 46
0.0
 71
     7
 72
     1
  1
{\fＭＳ ゴシック|b0|i0|c128|p49;2(偶数)}
 73
     1
 44
1.0
  0
MTEXT
  5
36E
330
1F
100
AcDbEntity
  8
0-A
  6
Continuous
 62
     7
370
     9
100
AcDbMText
 10
-1443.333839210304
 20
-949.2232418106698
 30
0.0
 40
45.71999999999999
 41
390.0
 46
0.0
 71
     7
 72
     1
  1
{\fＭＳ ゴシック|b0|i0|c128|p49;2,075×46×24}
 73
     1
 44
1.0
  0
MTEXT
  5
36F
330
1F
100
AcDbEntity
  8
0-A
  6
Continuous
 62
     7
370
     9
100
AcDbMText
 10
-368.3338392103036
 20
-949.2232418106702
 30
0.0
 40
45.72
 41
210.0
 46
0.0
 71
     7
 72
     1
  1
{\fＭＳ ゴシック|b0|i0|c128|p49;2(偶数)}
 73
     1
 44
1.0
  0
MTEXT
  5
370
330
1F
100
AcDbEntity
  8
0-A
  6
Continuous
 62
     7
370
     9
100
AcDbMText
 10
-368.3338392103036
 20
-1364.796199512597
 30
0.0
 40
45.72
 41
210.0
 46
0.0
 71
     7
 72
     1
  1
{\fＭＳ ゴシック|b0|i0|c128|p49;2(偶数)}
 73
     1
 44
1.0
  0
MTEXT
  5
371
330
1F
100
AcDbEntity
  8
0-A
  6
Continuous
 62
     7
370
     9
100
AcDbMText
 10
3528.332651499156
 20
-1364.796199512597
 30
0.0
 40
45.72
 41
210.0
 46
0.0
 71
     7
 72
     1
  1
{\fＭＳ ゴシック|b0|i0|c128|p49;2(偶数)}
 73
     1
 44
1.0
  0
MTEXT
  5
372
330
1F
100
AcDbEntity
  8
0-A
  6
Continuous
 62
     7
370
     9
100
AcDbMText
 10
-368.3338392103036
 20
-1470.056608436687
 30
0.0
 40
45.72
 41
210.0
 46
0.0
 71
     7
 72
     1
  1
{\fＭＳ ゴシック|b0|i0|c128|p49;2(偶数)}
 73
     1
 44
1.0
  0
MTEXT
  5
373
330
1F
100
AcDbEntity
  8
0-A
  6
Continuous
 62
     7
370
     9
100
AcDbMText
 10
3528.332651499156
 20
-1470.056608436687
 30
0.0
 40
45.72
 41
210.0
 46
0.0
 71
     7
 72
     1
  1
{\fＭＳ ゴシック|b0|i0|c128|p49;2(偶数)}
 73
     1
 44
1.0
  0
MTEXT
  5
374
330
1F
100
AcDbEntity
  8
0-A
  6
Continuous
 62
     7
370
     0
100
AcDbMText
 10
-3263.333352578653
 20
-1478.686618424493
 30
0.0
 40
60.96
 41
240.0
 46
0.0
 71
     7
 72
     1
  1
{\f@ＭＳ ゴシック|b0|i0|c128|p49;竪用・}
 11
-1.836909530733566E-16
 21
-1.0
 31
0.0
 73
     1
 44
1.0
  0
MTEXT
  5
375
330
1F
100
AcDbEntity
  8
0-A
  6
Continuous
 62
     7
370
     9
100
AcDbMText
 10
-368.3338392103036
 20
-1574.223281761891
 30
0.0
 40
45.72
 41
210.0
 46
0.0
 71
     7
 72
     1
  1
{\fＭＳ ゴシック|b0|i0|c128|p49;2(偶数)}
 73
     1
 44
1.0
  0
MTEXT
  5
376
330
1F
100
AcDbEntity
  8
0-A
  6
Continuous
 62
     7
370
     9
100
AcDbMText
 10
3528.332651499156
 20
-1574.223281761891
 30
0.0
 40
45.72
 41
210.0
 46
0.0
 71
     7
 72
     1
  1
{\fＭＳ ゴシック|b0|i0|c128|p49;2(偶数)}
 73
     1
 44
1.0
  0
MTEXT
  5
377
330
1F
100
AcDbEntity
  8
0-A
  6
Continuous
 62
     7
370
     0
100
AcDbMText
 10
-3263.333352578653
 20
-1943.686658375715
 30
0.0
 40
60.96
 41
560.0
 46
0.0
 71
     7
 72
     1
  1
{\f@ＭＳ ゴシック|b0|i0|c128|p49;横 用（竪勝ち)}
 11
-1.836909530733566E-16
 21
-1.0
 31
0.0
 73
     1
 44
1.0
  0
MTEXT
  5
378
330
1F
100
AcDbEntity
  8
0-A
  6
Continuous
 62
     7
370
     9
100
AcDbMText
 10
-368.3338392103036
 20
-1989.796239463819
 30
0.0
 40
45.72
 41
210.0
 46
0.0
 71
     7
 72
     1
  1
{\fＭＳ ゴシック|b0|i0|c128|p49;2(偶数)}
 73
     1
 44
1.0
  0
MTEXT
  5
379
330
1F
100
AcDbEntity
  8
0-A
  6
Continuous
 62
     7
370
     9
100
AcDbMText
 10
-368.3338392103036
 20
-2095.056648387908
 30
0.0
 40
45.72
 41
210.0
 46
0.0
 71
     7
 72
     1
  1
{\fＭＳ ゴシック|b0|i0|c128|p49;2(偶数)}
 73
     1
 44
1.0
  0
MTEXT
  5
37A
330
1F
100
AcDbEntity
  8
0-B
  6
Continuous
 62
     7
370
   211
100
AcDbMText
 10
1570.048530227399
 20
2396.69423970608
 30
0.0
 40
49.53
 41
65.0
 46
0.0
 71
     7
 72
     1
  1
{\fＭＳ ゴシック|b0|i0|c128|p49;27}
 73
     1
 44
1.0
  0
MTEXT
  5
37B
330
1F
100
AcDbEntity
  8
0-B
  6
Continuous
 62
     7
370
   211
100
AcDbMText
 10
-2294.344621429941
 20
2358.608246843637
 30
0.0
 40
45.72
 41
60.0
 46
0.0
 71
     7
 72
     1
  1
{\fＭＳ ゴシック|b0|i0|c128|p49;27}
 73
     1
 44
1.0
  0
MTEXT
  5
37C
330
1F
100
AcDbEntity
  8
0-B
  6
Continuous
 62
     7
370
   211
100
AcDbMText
 10
1779.723674440121
 20
2354.62714014361
 30
0.0
 40
45.71999999999976
 41
29.99999999999984
 46
0.0
 71
     7
 72
     1
  1
{\fＭＳ ゴシック|b0|i0|c128|p49;5}
 11
0.7071067811865568
 21
-0.7071067811865382
 31
0.0
 73
     1
 44
1.0
  0
MTEXT
  5
37D
330
1F
100
AcDbEntity
  8
0-B
  6
Continuous
 62
     7
370
   211
100
AcDbMText
 10
-2080.380155335874
 20
2316.285916373302
 30
0.0
 40
45.71999999999976
 41
29.99999999999984
 46
0.0
 71
     7
 72
     1
  1
{\fＭＳ ゴシック|b0|i0|c128|p49;5}
 11
0.7071067811865097
 21
-0.7071067811865853
 31
0.0
 73
     1
 44
1.0
  0
MTEXT
  5
37E
330
1F
100
AcDbEntity
  8
0-B
  6
Continuous
 62
     7
370
   211
100
AcDbMText
 10
1357.548530227399
 20
2199.778792495291
 30
0.0
 40
50.8
 41
100.0
 46
0.0
 71
     7
 72
     1
  1
{\fＭＳ ゴシック|b0|i0|c128|p49;8.8}
 11
6.123031769111886E-17
 21
1.0
 31
0.0
 73
     1
 44
1.0
  0
MTEXT
  5
37F
330
1F
100
AcDbEntity
  8
0-B
  6
Continuous
 62
     7
370
   211
100
AcDbMText
 10
-2506.844621429941
 20
2154.608246843637
 30
0.0
 40
45.72
 41
90.0
 46
0.0
 71
     7
 72
     1
  1
{\fＭＳ ゴシック|b0|i0|c128|p49;8.8}
 11
6.123031769111886E-17
 21
1.0
 31
0.0
 73
     1
 44
1.0
  0
MTEXT
  5
380
330
1F
100
AcDbEntity
  8
0-B
  6
Continuous
 62
     7
370
   211
100
AcDbMText
 10
-2036.844621429941
 20
2096.108246843637
 30
0.0
 40
45.72
 41
60.0
 46
0.0
 71
     7
 72
     1
  1
{\fＭＳ ゴシック|b0|i0|c128|p49;24}
 11
6.123031769111886E-17
 21
1.0
 31
0.0
 73
     1
 44
1.0
  0
MTEXT
  5
381
330
1F
100
AcDbEntity
  8
0-B
  6
Continuous
 62
     7
370
   211
100
AcDbMText
 10
1827.548530227399
 20
2085.643792495291
 30
0.0
 40
49.53
 41
65.0
 46
0.0
 71
     7
 72
     1
  1
{\fＭＳ ゴシック|b0|i0|c128|p49;35}
 11
6.123031769111886E-17
 21
1.0
 31
0.0
 73
     1
 44
1.0
  0
MTEXT
  5
382
330
1F
100
AcDbEntity
  8
0-B
  6
Continuous
 62
     7
370
   211
100
AcDbMText
 10
-2354.344621429941
 20
1918.608246843636
 30
0.0
 40
45.72
 41
60.0
 46
0.0
 71
     7
 72
     1
  1
{\fＭＳ ゴシック|b0|i0|c128|p49;15}
 73
     1
 44
1.0
  0
MTEXT
  5
383
330
1F
100
AcDbEntity
  8
0-B
  6
Continuous
 62
     7
370
   211
100
AcDbMText
 10
-2219.344621429941
 20
1918.608246843636
 30
0.0
 40
45.72
 41
60.0
 46
0.0
 71
     7
 72
     1
  1
{\fＭＳ ゴシック|b0|i0|c128|p49;12}
 73
     1
 44
1.0
  0
MTEXT
  5
384
330
1F
100
AcDbEntity
  8
0-B
  6
Continuous
 62
     7
370
   211
100
AcDbMText
 10
1510.048530227399
 20
1872.074661481428
 30
0.0
 40
49.53
 41
65.0
 46
0.0
 71
     7
 72
     1
  1
{\fＭＳ ゴシック|b0|i0|c128|p49;15}
 73
     1
 44
1.0
  0
MTEXT
  5
385
330
1F
100
AcDbEntity
  8
0-B
  6
Continuous
 62
     7
370
   211
100
AcDbMText
 10
1645.048530227399
 20
1872.074661481428
 30
0.0
 40
49.53
 41
65.0
 46
0.0
 71
     7
 72
     1
  1
{\fＭＳ ゴシック|b0|i0|c128|p49;12}
 73
     1
 44
1.0
  0
MTEXT
  5
386
330
1F
100
AcDbEntity
  8
0-B
  6
Continuous
 62
     7
370
   211
100
AcDbMText
 10
1590.048530227399
 20
1768.914909084405
 30
0.0
 40
49.53
 41
65.0
 46
0.0
 71
     7
 72
     1
  1
{\fＭＳ ゴシック|b0|i0|c128|p49;23}
 73
     1
 44
1.0
  0
MTEXT
  5
387
330
1F
100
AcDbEntity
  8
0-B
  6
Continuous
 62
     7
370
   211
100
AcDbMText
 10
1794.723674440121
 20
1743.004179908283
 30
0.0
 40
45.71999999999976
 41
29.99999999999984
 46
0.0
 71
     7
 72
     1
  1
{\fＭＳ ゴシック|b0|i0|c128|p49;2}
 11
0.7071067811865374
 21
-0.7071067811865577
 31
0.0
 73
     1
 44
1.0
  0
MTEXT
  5
388
330
1F
100
AcDbEntity
  8
0-B
  6
Continuous
 62
     7
370
   211
100
AcDbMText
 10
-2274.344621429941
 20
1742.915785585748
 30
0.0
 40
45.72
 41
60.0
 46
0.0
 71
     7
 72
     1
  1
{\fＭＳ ゴシック|b0|i0|c128|p49;23}
 73
     1
 44
1.0
  0
MTEXT
  5
389
330
1F
100
AcDbEntity
  8
0-B
  6
Continuous
 62
     7
370
   211
100
AcDbMText
 10
-2066.740545029086
 20
1714.233065422201
 30
0.0
 40
45.71999999999976
 41
29.99999999999984
 46
0.0
 71
     7
 72
     1
  1
{\fＭＳ ゴシック|b0|i0|c128|p49;2}
 11
0.707106781186585
 21
-0.7071067811865099
 31
0.0
 73
     1
 44
1.0
  0
MTEXT
  5
38A
330
1F
100
AcDbEntity
  8
0-B
  6
Continuous
 62
     7
370
   211
100
AcDbMText
 10
1397.548530227399
 20
1573.155832259964
 30
0.0
 40
50.8
 41
100.0
 46
0.0
 71
     7
 72
     1
  1
{\fＭＳ ゴシック|b0|i0|c128|p49;8.8}
 11
6.123031769111886E-17
 21
1.0
 31
0.0
 73
     1
 44
1.0
  0
MTEXT
  5
38B
330
1F
100
AcDbEntity
  8
0-B
  6
Continuous
 62
     7
370
   211
100
AcDbMText
 10
-2466.844621429941
 20
1538.915785585748
 30
0.0
 40
45.72
 41
90.0
 46
0.0
 71
     7
 72
     1
  1
{\fＭＳ ゴシック|b0|i0|c128|p49;8.8}
 11
6.123031769111886E-17
 21
1.0
 31
0.0
 73
     1
 44
1.0
  0
MTEXT
  5
38C
330
1F
100
AcDbEntity
  8
0-B
  6
Continuous
 62
     7
370
   211
100
AcDbMText
 10
-2036.844621429941
 20
1480.415785585748
 30
0.0
 40
45.72
 41
60.0
 46
0.0
 71
     7
 72
     1
  1
{\fＭＳ ゴシック|b0|i0|c128|p49;24}
 11
6.123031769111886E-17
 21
1.0
 31
0.0
 73
     1
 44
1.0
  0
MTEXT
  5
38D
330
1F
100
AcDbEntity
  8
0-B
  6
Continuous
 62
     7
370
   211
100
AcDbMText
 10
1827.548530227399
 20
1459.020832259964
 30
0.0
 40
49.53
 41
65.0
 46
0.0
 71
     7
 72
     1
  1
{\fＭＳ ゴシック|b0|i0|c128|p49;35}
 11
6.123031769111886E-17
 21
1.0
 31
0.0
 73
     1
 44
1.0
  0
MTEXT
  5
38E
330
1F
100
AcDbEntity
  8
0-B
  6
Continuous
 62
     7
370
   211
100
AcDbMText
 10
-2314.344621429941
 20
1302.915785585748
 30
0.0
 40
45.72
 41
60.0
 46
0.0
 71
     7
 72
     1
  1
{\fＭＳ ゴシック|b0|i0|c128|p49;15}
 73
     1
 44
1.0
  0
MTEXT
  5
38F
330
1F
100
AcDbEntity
  8
0-B
  6
Continuous
 62
     7
370
   211
100
AcDbMText
 10
-2181.844621429941
 20
1302.915785585748
 30
0.0
 40
45.72
 41
30.0
 46
0.0
 71
     7
 72
     1
  1
{\fＭＳ ゴシック|b0|i0|c128|p49;8}
 73
     1
 44
1.0
  0
MTEXT
  5
390
330
1F
100
AcDbEntity
  8
0-B
  6
Continuous
 62
     7
370
   211
100
AcDbMText
 10
1550.048530227399
 20
1244.293927103439
 30
0.0
 40
49.53
 41
65.0
 46
0.0
 71
     7
 72
     1
  1
{\fＭＳ ゴシック|b0|i0|c128|p49;15}
 73
     1
 44
1.0
  0
MTEXT
  5
391
330
1F
100
AcDbEntity
  8
0-B
  6
Continuous
 62
     7
370
   211
100
AcDbMText
 10
1682.548530227399
 20
1242.388927103439
 30
0.0
 40
45.72
 41
30.0
 46
0.0
 71
     7
 72
     1
  1
{\fＭＳ ゴシック|b0|i0|c128|p49;8}
 73
     1
 44
1.0
  0
MTEXT
  5
392
330
1F
100
AcDbEntity
  8
0-B
  6
Continuous
 62
     7
370
   211
100
AcDbMText
 10
1520.048530227399
 20
1150.551794273984
 30
0.0
 40
49.53
 41
65.0
 46
0.0
 71
     7
 72
     1
  1
{\fＭＳ ゴシック|b0|i0|c128|p49;37}
 73
     1
 44
1.0
  0
MTEXT
  5
393
330
1F
100
AcDbEntity
  8
0-B
  6
Continuous
 62
     7
370
   211
100
AcDbMText
 10
1784.012996321466
 20
1113.930386979206
 30
0.0
 40
45.71999999999991
 41
29.99999999999994
 46
0.0
 71
     7
 72
     1
  1
{\fＭＳ ゴシック|b0|i0|c128|p49;5}
 11
0.7071067811865374
 21
-0.7071067811865577
 31
0.0
 73
     1
 44
1.0
  0
MTEXT
  5
394
330
1F
100
AcDbEntity
  8
0-B
  6
Continuous
 62
     7
370
   211
100
AcDbMText
 10
-2344.344621429941
 20
1104.473933661902
 30
0.0
 40
45.72
 41
60.0
 46
0.0
 71
     7
 72
     1
  1
{\fＭＳ ゴシック|b0|i0|c128|p49;37}
 73
     1
 44
1.0
  0
MTEXT
  5
395
330
1F
100
AcDbEntity
  8
0-B
  6
Continuous
 62
     7
370
   211
100
AcDbMText
 10
-2080.380155335873
 20
1062.151603191565
 30
0.0
 40
45.71999999999991
 41
29.99999999999994
 46
0.0
 71
     7
 72
     1
  1
{\fＭＳ ゴシック|b0|i0|c128|p49;5}
 11
0.7071067811865285
 21
-0.7071067811865666
 31
0.0
 73
     1
 44
1.0
  0
MTEXT
  5
396
330
1F
100
AcDbEntity
  8
0-B
  6
Continuous
 62
     7
370
   211
100
AcDbMText
 10
1257.548530227399
 20
954.7927174495428
 30
0.0
 40
50.8
 41
100.0
 46
0.0
 71
     7
 72
     1
  1
{\fＭＳ ゴシック|b0|i0|c128|p49;8.8}
 11
6.123031769111886E-17
 21
1.0
 31
0.0
 73
     1
 44
1.0
  0
MTEXT
  5
397
330
1F
100
AcDbEntity
  8
0-B
  6
Continuous
 62
     7
370
   211
100
AcDbMText
 10
-2606.844621429941
 20
900.4739336619014
 30
0.0
 40
45.72
 41
90.0
 46
0.0
 71
     7
 72
     1
  1
{\fＭＳ ゴシック|b0|i0|c128|p49;8.8}
 11
6.123031769111886E-17
 21
1.0
 31
0.0
 73
     1
 44
1.0
  0
MTEXT
  5
398
330
1F
100
AcDbEntity
  8
0-B
  6
Continuous
 62
     7
370
   211
100
AcDbMText
 10
-2036.844621429941
 20
841.9739336619017
 30
0.0
 40
45.72
 41
60.0
 46
0.0
 71
     7
 72
     1
  1
{\fＭＳ ゴシック|b0|i0|c128|p49;24}
 11
6.123031769111886E-17
 21
1.0
 31
0.0
 73
     1
 44
1.0
  0
MTEXT
  5
399
330
1F
100
AcDbEntity
  8
0-B
  6
Continuous
 62
     7
370
   211
100
AcDbMText
 10
1827.548530227399
 20
840.6577174495426
 30
0.0
 40
49.53
 41
65.0
 46
0.0
 71
     7
 72
     1
  1
{\fＭＳ ゴシック|b0|i0|c128|p49;35}
 11
6.123031769111886E-17
 21
1.0
 31
0.0
 73
     1
 44
1.0
  0
MTEXT
  5
39A
330
1F
100
AcDbEntity
  8
0-B
  6
Continuous
 62
     7
370
   211
100
AcDbMText
 10
-2404.344621429941
 20
664.4739336619017
 30
0.0
 40
45.72
 41
60.0
 46
0.0
 71
     7
 72
     1
  1
{\fＭＳ ゴシック|b0|i0|c128|p49;25}
 73
     1
 44
1.0
  0
MTEXT
  5
39B
330
1F
100
AcDbEntity
  8
0-B
  6
Continuous
 62
     7
370
   211
100
AcDbMText
 10
-2219.344621429941
 20
664.4739336619017
 30
0.0
 40
45.72
 41
60.0
 46
0.0
 71
     7
 72
     1
  1
{\fＭＳ ゴシック|b0|i0|c128|p49;12}
 73
     1
 44
1.0
  0
MTEXT
  5
39C
330
1F
100
AcDbEntity
  8
0-B
  6
Continuous
 62
     7
370
   211
100
AcDbMText
 10
1460.048530227399
 20
617.9023486942624
 30
0.0
 40
49.53
 41
65.0
 46
0.0
 71
     7
 72
     1
  1
{\fＭＳ ゴシック|b0|i0|c128|p49;25}
 73
     1
 44
1.0
  0
MTEXT
  5
39D
330
1F
100
AcDbEntity
  8
0-B
  6
Continuous
 62
     7
370
   211
100
AcDbMText
 10
1645.048530227399
 20
617.9023486942624
 30
0.0
 40
49.53
 41
65.0
 46
0.0
 71
     7
 72
     1
  1
{\fＭＳ ゴシック|b0|i0|c128|p49;12}
 73
     1
 44
1.0
  0
MTEXT
  5
39E
330
1F
100
AcDbEntity
  8
0-B
  6
Continuous
 62
     7
370
   211
100
AcDbMText
 10
1540.048530227399
 20
520.2036014870363
 30
0.0
 40
49.53
 41
65.0
 46
0.0
 71
     7
 72
     1
  1
{\fＭＳ ゴシック|b0|i0|c128|p49;33}
 73
     1
 44
1.0
  0
MTEXT
  5
39F
330
1F
100
AcDbEntity
  8
0-B
  6
Continuous
 62
     7
370
   211
100
AcDbMText
 10
1797.652606628255
 20
497.2218044990489
 30
0.0
 40
45.71999999999991
 41
29.99999999999994
 46
0.0
 71
     7
 72
     1
  1
{\fＭＳ ゴシック|b0|i0|c128|p49;2}
 11
0.7071067811865474
 21
-0.7071067811865477
 31
0.0
 73
     1
 44
1.0
  0
MTEXT
  5
3A0
330
1F
100
AcDbEntity
  8
0-B
  6
Continuous
 62
     7
370
   211
100
AcDbMText
 10
-2324.344312130163
 20
475.8294952856352
 30
0.0
 40
45.72
 41
60.0
 46
0.0
 71
     7
 72
     1
  1
{\fＭＳ ゴシック|b0|i0|c128|p49;33}
 73
     1
 44
1.0
  0
MTEXT
  5
3A1
330
1F
100
AcDbEntity
  8
0-B
  6
Continuous
 62
     7
370
   211
100
AcDbMText
 10
-2066.740545029086
 20
447.1467751220876
 30
0.0
 40
45.71999999999991
 41
29.99999999999994
 46
0.0
 71
     7
 72
     1
  1
{\fＭＳ ゴシック|b0|i0|c128|p49;2}
 11
0.707106781186585
 21
-0.7071067811865099
 31
0.0
 73
     1
 44
1.0
  0
MTEXT
  5
3A2
330
1F
100
AcDbEntity
  8
0-B
  6
Continuous
 62
     7
370
   211
100
AcDbMText
 10
1297.548530227399
 20
324.4445246625955
 30
0.0
 40
50.8
 41
100.0
 46
0.0
 71
     7
 72
     1
  1
{\fＭＳ ゴシック|b0|i0|c128|p49;8.8}
 11
6.123031769111886E-17
 21
1.0
 31
0.0
 73
     1
 44
1.0
  0
MTEXT
  5
3A3
330
1F
100
AcDbEntity
  8
0-B
  6
Continuous
 62
     7
370
   211
100
AcDbMText
 10
-2566.844621429941
 20
271.8294952856348
 30
0.0
 40
45.72
 41
90.0
 46
0.0
 71
     7
 72
     1
  1
{\fＭＳ ゴシック|b0|i0|c128|p49;8.8}
 11
6.123031769111886E-17
 21
1.0
 31
0.0
 73
     1
 44
1.0
  0
MTEXT
  5
3A4
330
1F
100
AcDbEntity
  8
0-B
  6
Continuous
 62
     7
370
   211
100
AcDbMText
 10
-2036.844621429941
 20
213.3294952856352
 30
0.0
 40
45.72
 41
60.0
 46
0.0
 71
     7
 72
     1
  1
{\fＭＳ ゴシック|b0|i0|c128|p49;24}
 11
6.123031769111886E-17
 21
1.0
 31
0.0
 73
     1
 44
1.0
  0
MTEXT
  5
3A5
330
1F
100
AcDbEntity
  8
0-B
  6
Continuous
 62
     7
370
   211
100
AcDbMText
 10
1827.548530227399
 20
210.3095246625959
 30
0.0
 40
49.53
 41
65.0
 46
0.0
 71
     7
 72
     1
  1
{\fＭＳ ゴシック|b0|i0|c128|p49;35}
 11
6.123031769111886E-17
 21
1.0
 31
0.0
 73
     1
 44
1.0
  0
MTEXT
  5
3A6
330
1F
100
AcDbEntity
  8
0-B
  6
Continuous
 62
     7
370
   211
100
AcDbMText
 10
-2364.344621429941
 20
35.82949528563516
 30
0.0
 40
45.72
 41
60.0
 46
0.0
 71
     7
 72
     1
  1
{\fＭＳ ゴシック|b0|i0|c128|p49;25}
 73
     1
 44
1.0
  0
MTEXT
  5
3A7
330
1F
100
AcDbEntity
  8
0-B
  6
Continuous
 62
     7
370
   211
100
AcDbMText
 10
-2181.844621429941
 20
35.82949528563516
 30
0.0
 40
45.72
 41
30.0
 46
0.0
 71
     7
 72
     1
  1
{\fＭＳ ゴシック|b0|i0|c128|p49;8}
 73
     1
 44
1.0
  0
MTEXT
  5
3A8
330
1F
100
AcDbEntity
  8
0-B
  6
Continuous
 62
     7
370
   211
100
AcDbMText
 10
1500.048530227399
 20
-12.44584409268485
 30
0.0
 40
49.53
 41
65.0
 46
0.0
 71
     7
 72
     1
  1
{\fＭＳ ゴシック|b0|i0|c128|p49;25}
 73
     1
 44
1.0
  0
MTEXT
  5
3A9
330
1F
100
AcDbEntity
  8
0-B
  6
Continuous
 62
     7
370
   211
100
AcDbMText
 10
1682.548530227399
 20
-14.35084409268485
 30
0.0
 40
45.72
 41
30.0
 46
0.0
 71
     7
 72
     1
  1
{\fＭＳ ゴシック|b0|i0|c128|p49;8}
 73
     1
 44
1.0
  0
MTEXT
  5
3AA
330
1F
100
AcDbEntity
  8
0-B
  6
Continuous
 62
     7
370
   211
100
AcDbMText
 10
1455.048530227399
 20
-109.6280354188581
 30
0.0
 40
49.53
 41
65.0
 46
0.0
 71
     7
 72
     1
  1
{\fＭＳ ゴシック|b0|i0|c128|p49;50}
 73
     1
 44
1.0
  0
MTEXT
  5
3AB
330
1F
100
AcDbEntity
  8
0-B
  6
Continuous
 62
     7
370
   211
100
AcDbMText
 10
-2409.344621429941
 20
-142.2514808652244
 30
0.0
 40
45.72
 41
60.0
 46
0.0
 71
     7
 72
     1
  1
{\fＭＳ ゴシック|b0|i0|c128|p49;50}
 73
     1
 44
1.0
  0
MTEXT
  5
3AC
330
1F
100
AcDbEntity
  8
0-B
  6
Continuous
 62
     7
370
   211
100
AcDbMText
 10
1784.012996321466
 20
-146.2494427136353
 30
0.0
 40
45.71999999999987
 41
29.99999999999991
 46
0.0
 71
     7
 72
     1
  1
{\fＭＳ ゴシック|b0|i0|c128|p49;5}
 11
0.7071067811865474
 21
-0.7071067811865477
 31
0.0
 73
     1
 44
1.0
  0
MTEXT
  5
3AD
330
1F
100
AcDbEntity
  8
0-B
  6
Continuous
 62
     7
370
   211
100
AcDbMText
 10
-2080.380155335873
 20
-184.5738113355612
 30
0.0
 40
45.71999999999987
 41
29.99999999999991
 46
0.0
 71
     7
 72
     1
  1
{\fＭＳ ゴシック|b0|i0|c128|p49;5}
 11
0.7071067811865285
 21
-0.7071067811865666
 31
0.0
 73
     1
 44
1.0
  0
MTEXT
  5
3AE
330
1F
100
AcDbEntity
  8
0-B
  6
Continuous
 62
     7
370
   211
100
AcDbMText
 10
1127.548530227399
 20
-305.3871122432994
 30
0.0
 40
50.8
 41
100.0
 46
0.0
 71
     7
 72
     1
  1
{\fＭＳ ゴシック|b0|i0|c128|p49;8.8}
 11
6.123031769111886E-17
 21
1.0
 31
0.0
 73
     1
 44
1.0
  0
MTEXT
  5
3AF
330
1F
100
AcDbEntity
  8
0-B
  6
Continuous
 62
     7
370
   211
100
AcDbMText
 10
-2736.844621429941
 20
-346.2514808652247
 30
0.0
 40
45.72
 41
90.0
 46
0.0
 71
     7
 72
     1
  1
{\fＭＳ ゴシック|b0|i0|c128|p49;8.8}
 11
6.123031769111886E-17
 21
1.0
 31
0.0
 73
     1
 44
1.0
  0
MTEXT
  5
3B0
330
1F
100
AcDbEntity
  8
0-B
  6
Continuous
 62
     7
370
   211
100
AcDbMText
 10
-2036.844621429941
 20
-404.7514808652244
 30
0.0
 40
45.72
 41
60.0
 46
0.0
 71
     7
 72
     1
  1
{\fＭＳ ゴシック|b0|i0|c128|p49;24}
 11
6.123031769111886E-17
 21
1.0
 31
0.0
 73
     1
 44
1.0
  0
MTEXT
  5
3B1
330
1F
100
AcDbEntity
  8
0-B
  6
Continuous
 62
     7
370
   211
100
AcDbMText
 10
1827.548530227399
 20
-419.522112243299
 30
0.0
 40
49.53
 41
65.0
 46
0.0
 71
     7
 72
     1
  1
{\fＭＳ ゴシック|b0|i0|c128|p49;35}
 11
6.123031769111886E-17
 21
1.0
 31
0.0
 73
     1
 44
1.0
  0
MTEXT
  5
3B2
330
1F
100
AcDbEntity
  8
0-B
  6
Continuous
 62
     7
370
   211
100
AcDbMText
 10
-2469.344621429941
 20
-582.2514808652244
 30
0.0
 40
45.72
 41
60.0
 46
0.0
 71
     7
 72
     1
  1
{\fＭＳ ゴシック|b0|i0|c128|p49;38}
 73
     1
 44
1.0
  0
MTEXT
  5
3B3
330
1F
100
AcDbEntity
  8
0-B
  6
Continuous
 62
     7
370
   211
100
AcDbMText
 10
-2219.344621429941
 20
-582.2514808652244
 30
0.0
 40
45.72
 41
60.0
 46
0.0
 71
     7
 72
     1
  1
{\fＭＳ ゴシック|b0|i0|c128|p49;12}
 73
     1
 44
1.0
  0
MTEXT
  5
3B4
330
1F
100
AcDbEntity
  8
0-B
  6
Continuous
 62
     7
370
   211
100
AcDbMText
 10
1395.048530227399
 20
-635.0879284277581
 30
0.0
 40
49.53
 41
65.0
 46
0.0
 71
     7
 72
     1
  1
{\fＭＳ ゴシック|b0|i0|c128|p49;38}
 73
     1
 44
1.0
  0
MTEXT
  5
3B5
330
1F
100
AcDbEntity
  8
0-B
  6
Continuous
 62
     7
370
   211
100
AcDbMText
 10
1645.048530227399
 20
-635.0879284277581
 30
0.0
 40
49.53
 41
65.0
 46
0.0
 71
     7
 72
     1
  1
{\fＭＳ ゴシック|b0|i0|c128|p49;12}
 73
     1
 44
1.0
  0
MTEXT
  5
3B6
330
1F
100
AcDbEntity
  8
0-B
  6
Continuous
 62
     7
370
   211
100
AcDbMText
 10
1475.048530227399
 20
-735.9583201651076
 30
0.0
 40
49.53
 41
65.0
 46
0.0
 71
     7
 72
     1
  1
{\fＭＳ ゴシック|b0|i0|c128|p49;46}
 73
     1
 44
1.0
  0
MTEXT
  5
3B7
330
1F
100
AcDbEntity
  8
0-B
  6
Continuous
 62
     7
370
   211
100
AcDbMText
 10
1797.652606628255
 20
-758.9401171530965
 30
0.0
 40
45.71999999999991
 41
29.99999999999994
 46
0.0
 71
     7
 72
     1
  1
{\fＭＳ ゴシック|b0|i0|c128|p49;2}
 11
0.7071067811865568
 21
-0.7071067811865382
 31
0.0
 73
     1
 44
1.0
  0
MTEXT
  5
3B8
330
1F
100
AcDbEntity
  8
0-B
  6
Continuous
 62
     7
370
   211
100
AcDbMText
 10
-2379.055244621179
 20
-760.3324570160843
 30
0.0
 40
45.72
 41
60.0
 46
0.0
 71
     7
 72
     1
  1
{\fＭＳ ゴシック|b0|i0|c128|p49;46}
 73
     1
 44
1.0
  0
MTEXT
  5
3B9
330
1F
100
AcDbEntity
  8
0-B
  6
Continuous
 62
     7
370
   211
100
AcDbMText
 10
-2056.4514775201
 20
-789.0151771796316
 30
0.0
 40
45.71999999999991
 41
29.99999999999994
 46
0.0
 71
     7
 72
     1
  1
{\fＭＳ ゴシック|b0|i0|c128|p49;2}
 11
0.7071067811865374
 21
-0.7071067811865577
 31
0.0
 73
     1
 44
1.0
  0
MTEXT
  5
3BA
330
1F
100
AcDbEntity
  8
0-B
  6
Continuous
 62
     7
370
   211
100
AcDbMText
 10
1167.548530227399
 20
-931.7173969895485
 30
0.0
 40
50.8
 41
100.0
 46
0.0
 71
     7
 72
     1
  1
{\fＭＳ ゴシック|b0|i0|c128|p49;8.8}
 11
6.123031769111886E-17
 21
1.0
 31
0.0
 73
     1
 44
1.0
  0
MTEXT
  5
3BB
330
1F
100
AcDbEntity
  8
0-B
  6
Continuous
 62
     7
370
   211
100
AcDbMText
 10
-2686.555553920957
 20
-964.3324570160843
 30
0.0
 40
45.72
 41
90.0
 46
0.0
 71
     7
 72
     1
  1
{\fＭＳ ゴシック|b0|i0|c128|p49;8.8}
 11
6.123031769111886E-17
 21
1.0
 31
0.0
 73
     1
 44
1.0
  0
MTEXT
  5
3BC
330
1F
100
AcDbEntity
  8
0-B
  6
Continuous
 62
     7
370
   211
100
AcDbMText
 10
-2026.555553920957
 20
-1022.832457016084
 30
0.0
 40
45.72
 41
60.0
 46
0.0
 71
     7
 72
     1
  1
{\fＭＳ ゴシック|b0|i0|c128|p49;24}
 11
6.123031769111886E-17
 21
1.0
 31
0.0
 73
     1
 44
1.0
  0
MTEXT
  5
3BD
330
1F
100
AcDbEntity
  8
0-B
  6
Continuous
 62
     7
370
   211
100
AcDbMText
 10
1827.548530227399
 20
-1045.852396989548
 30
0.0
 40
49.53
 41
65.0
 46
0.0
 71
     7
 72
     1
  1
{\fＭＳ ゴシック|b0|i0|c128|p49;35}
 11
6.123031769111886E-17
 21
1.0
 31
0.0
 73
     1
 44
1.0
  0
MTEXT
  5
3BE
330
1F
100
AcDbEntity
  8
0-B
  6
Continuous
 62
     7
370
   211
100
AcDbMText
 10
-2419.055553920957
 20
-1200.332457016084
 30
0.0
 40
45.72
 41
60.0
 46
0.0
 71
     7
 72
     1
  1
{\fＭＳ ゴシック|b0|i0|c128|p49;38}
 73
     1
 44
1.0
  0
MTEXT
  5
3BF
330
1F
100
AcDbEntity
  8
0-B
  6
Continuous
 62
     7
370
   211
100
AcDbMText
 10
-2171.555553920957
 20
-1200.332457016084
 30
0.0
 40
45.72
 41
30.0
 46
0.0
 71
     7
 72
     1
  1
{\fＭＳ ゴシック|b0|i0|c128|p49;8}
 73
     1
 44
1.0
  0
MTEXT
  5
3C0
330
1F
100
AcDbEntity
  8
0-B
  6
Continuous
 62
     7
370
   211
100
AcDbMText
 10
1435.048530227399
 20
-1261.418213174007
 30
0.0
 40
49.53
 41
65.0
 46
0.0
 71
     7
 72
     1
  1
{\fＭＳ ゴシック|b0|i0|c128|p49;38}
 73
     1
 44
1.0
  0
MTEXT
  5
3C1
330
1F
100
AcDbEntity
  8
0-B
  6
Continuous
 62
     7
370
   211
100
AcDbMText
 10
1682.548530227399
 20
-1263.323213174007
 30
0.0
 40
45.72
 41
30.0
 46
0.0
 71
     7
 72
     1
  1
{\fＭＳ ゴシック|b0|i0|c128|p49;8}
 73
     1
 44
1.0
  0
MTEXT
  5
3C2
330
1F
100
AcDbEntity
  8
F-1
  6
Continuous
 62
     7
370
     0
100
AcDbMText
 10
-1333.333839210304
 20
2656.551787637247
 30
0.0
 40
64.77
 41
170.0
 46
0.0
 71
     7
 72
     1
  1
{\fＭＳ ゴシック|b0|i0|c128|p49;寸法}
 73
     1
 44
1.0
  0
MTEXT
  5
3C3
330
1F
100
AcDbEntity
  8
F-1
  6
Continuous
 62
     7
370
     0
100
AcDbMText
 10
-348.3338392103036
 20
2656.551787637246
 30
0.0
 40
64.77
 41
170.0
 46
0.0
 71
     7
 72
     1
  1
{\fＭＳ ゴシック|b0|i0|c128|p49;発注}
 73
     1
 44
1.0
  0
MTEXT
  5
3C4
330
1F
100
AcDbEntity
  8
F-1
  6
Continuous
 62
     7
370
     0
100
AcDbMText
 10
2563.332651499156
 20
2656.535704048775
 30
0.0
 40
64.77
 41
170.0
 46
0.0
 71
     7
 72
     1
  1
{\fＭＳ ゴシック|b0|i0|c128|p49;寸法}
 73
     1
 44
1.0
  0
MTEXT
  5
3C5
330
1F
100
AcDbEntity
  8
F-1
  6
Continuous
 62
     7
370
     0
100
AcDbMText
 10
3548.333146378802
 20
2656.519620460303
 30
0.0
 40
64.77
 41
170.0
 46
0.0
 71
     7
 72
     1
  1
{\fＭＳ ゴシック|b0|i0|c128|p49;発注}
 73
     1
 44
1.0
  0
MTEXT
  5
3C6
330
1F
100
AcDbEntity
  8
F-1
  6
Continuous
 62
     7
370
     0
100
AcDbMText
 10
-783.3338392103042
 20
2584.051919605152
 30
0.0
 40
64.77
 41
170.0
 46
0.0
 71
     7
 72
     1
  1
{\fＭＳ ゴシック|b0|i0|c128|p49;品番}
 73
     1
 44
1.0
  0
MTEXT
  5
3C7
330
1F
100
AcDbEntity
  8
F-1
  6
Continuous
 62
     7
370
     0
100
AcDbMText
 10
3113.332651499156
 20
2584.035836016682
 30
0.0
 40
64.77
 41
170.0
 46
0.0
 71
     7
 72
     1
  1
{\fＭＳ ゴシック|b0|i0|c128|p49;品番}
 73
     1
 44
1.0
  0
MTEXT
  5
3C8
330
1F
100
AcDbEntity
  8
F-1
  6
Continuous
 62
     7
370
     0
100
AcDbMText
 10
-1518.333839210304
 20
2502.027051573059
 30
0.0
 40
45.72
 41
540.0
 46
0.0
 71
     7
 72
     1
  1
{\fＭＳ ゴシック|b0|i0|c128|p49;長さ×幅×厚さ(㎜)}
 73
     1
 44
1.0
  0
MTEXT
  5
3C9
330
1F
100
AcDbEntity
  8
F-1
  6
Continuous
 62
     7
370
     0
100
AcDbMText
 10
-348.3338392103036
 20
2508.218542282799
 30
0.0
 40
64.77
 41
170.0
 46
0.0
 71
     7
 72
     1
  1
{\fＭＳ ゴシック|b0|i0|c128|p49;単位}
 73
     1
 44
1.0
  0
MTEXT
  5
3CA
330
1F
100
AcDbEntity
  8
F-1
  6
Continuous
 62
     7
370
     0
100
AcDbMText
 10
3548.332651499156
 20
2508.218542282799
 30
0.0
 40
64.77
 41
170.0
 46
0.0
 71
     7
 72
     1
  1
{\fＭＳ ゴシック|b0|i0|c128|p49;単位}
 73
     1
 44
1.0
  0
MTEXT
  5
3CB
330
1F
100
AcDbEntity
  8
F-1
  6
Continuous
 62
     7
370
     0
100
AcDbMText
 10
2378.332651499156
 20
2495.344196843327
 30
0.0
 40
45.72
 41
540.0
 46
0.0
 71
     7
 72
     1
  1
{\fＭＳ ゴシック|b0|i0|c128|p49;長さ×幅×厚さ(㎜)}
 73
     1
 44
1.0
  0
MTEXT
  5
3CC
330
1F
100
AcDbEntity
  8
F-A
  6
Continuous
 62
     7
370
     0
100
AcDbMText
 10
-3773.333208238756
 20
2584.686919605152
 30
0.0
 40
66.04
 41
260.0
 46
0.0
 71
     7
 72
     1
  1
{\fＭＳ ゴシック|b0|i0|c128|p49;部材名}
 73
     1
 44
1.0
  0
MTEXT
  5
3CD
330
1F
100
AcDbEntity
  8
F-A
  6
Continuous
 62
     7
370
     0
100
AcDbMText
 10
123.3328494510135
 20
2584.686919605152
 30
0.0
 40
66.04
 41
260.0
 46
0.0
 71
     7
 72
     1
  1
{\fＭＳ ゴシック|b0|i0|c128|p49;部材名}
 73
     1
 44
1.0
  0
MTEXT
  5
3CE
330
1F
100
AcDbEntity
  8
F-A
  6
Continuous
 62
     7
370
     0
100
AcDbMText
 10
-2623.333719614389
 20
2585.004287637247
 30
0.0
 40
66.675
 41
350.0
 46
0.0
 71
     7
 72
     1
  1
{\fＭＳ ゴシック|b0|i0|c128|p49;断面形状}
 73
     1
 44
1.0
  0
MTEXT
  5
3CF
330
1F
100
AcDbEntity
  8
F-A
  6
Continuous
 62
     7
370
     0
100
AcDbMText
 10
1273.333327834671
 20
2585.004287637247
 30
0.0
 40
66.675
 41
350.0
 46
0.0
 71
     7
 72
     1
  1
{\fＭＳ ゴシック|b0|i0|c128|p49;断面形状}
 73
     1
 44
1.0
  0
MTEXT
  5
3D0
330
1F
100
AcDbEntity
  8
F-A
  6
Continuous
 62
     7
370
     0
100
AcDbMText
 10
-40.0000824799406
 20
-2591.426547247957
 30
0.0
 40
30.48
 41
120.0
 46
0.0
 71
     7
 72
     1
  1
{\fＭＳ ゴシック|b0|i0|c128|p49;図面名}
 73
     1
 44
1.0
  0
MTEXT
  5
3D1
330
1F
100
AcDbEntity
  8
F-A
  6
Continuous
 62
     7
370
     0
100
AcDbMText
 10
1853.332486539274
 20
-2591.428307078516
 30
0.0
 40
30.48
 41
200.0
 46
0.0
 71
     7
 72
     1
  1
{\fＭＳ ゴシック|b0|i0|c128|p49;ＳＣＡＬＥ}
 73
     1
 44
1.0
  0
MTEXT
  5
3D2
330
1F
100
AcDbEntity
  8
F-A
  6
Continuous
 62
     7
370
     0
100
AcDbMText
 10
2853.332816459038
 20
-2591.429236567169
 30
0.0
 40
30.48
 41
160.0
 46
0.0
 71
     7
 72
     1
  1
{\fＭＳ ゴシック|b0|i0|c128|p49;ＤＡＴＥ}
 73
     1
 44
1.0
  0
MTEXT
  5
3D3
330
1F
100
AcDbEntity
  8
F-A
  6
Continuous
 62
     7
370
     0
100
AcDbMText
 10
786.9451346024795
 20
-2630.758774399892
 30
0.0
 40
51.816
 41
340.0
 46
0.0
 71
     7
 72
     1
  1
{\fＭＳ ゴシック|b0|i0|c128|p49;洋風造作材}
 73
     1
 44
1.0
  0
MTEXT
  5
3D4
330
1F
100
AcDbEntity
  8
F-A
  6
Continuous
 62
     7
370
     0
100
AcDbMText
 10
2273.332651499156
 20
-2631.268743938205
 30
0.0
 40
50.8
 41
100.0
 46
0.0
 71
     7
 72
     1
  1
{\fＭＳ ゴシック|b0|i0|c128|p49;1/2}
 73
     1
 44
1.0
  0
MTEXT
  5
3D5
330
1F
100
AcDbEntity
  8
F-A
  6
Continuous
 62
     7
370
     0
100
AcDbMText
 10
233.3332783467063
 20
-2634.331527915002
 30
0.0
 40
45.72
 41
240.0
 46
0.0
 71
     7
 72
     1
  1
{\fＭＳ ゴシック|b0|i0|c128|p49;DOORETUS}
 73
     1
 44
1.0
  0
MTEXT
  5
3D6
330
1F
100
AcDbEntity
  8
F-A
  6
Continuous
 62
     7
370
     0
100
AcDbMText
 10
1853.332486539274
 20
-2724.761642118573
 30
0.0
 40
30.48
 41
160.0
 46
0.0
 71
     7
 72
     1
  1
{\fＭＳ ゴシック|b0|i0|c128|p49;ＦＩＬＥ}
 73
     1
 44
1.0
  0
MTEXT
  5
3D7
330
1F
100
AcDbEntity
  8
F-A
  6
Continuous
 62
     7
370
     0
100
AcDbMText
 10
2853.332816459038
 20
-2724.762571607227
 30
0.0
 40
30.48
 41
120.0
 46
0.0
 71
     7
 72
     1
  1
{\fＭＳ ゴシック|b0|i0|c128|p49;ＮＯ．}
 73
     1
 44
1.0
  0
MTEXT
  5
3D8
330
1F
100
AcDbEntity
  8
F-A
  6
Continuous
 62
     7
370
     0
100
AcDbMText
 10
823.332486539274
 20
-2730.760446177432
 30
0.0
 40
30.48
 41
80.0
 46
0.0
 71
     7
 72
     1
  1
{\fＭＳ ゴシック|b0|i0|c128|p49;株式}
 73
     1
 44
1.0
  0
MTEXT
  5
3D9
330
1F
100
AcDbEntity
  8
F-A
  6
Continuous
 62
     7
370
     0
100
AcDbMText
 10
963.332486539274
 20
-2776.187836349286
 30
0.0
 40
67.6275
 41
710.0
 46
0.0
 71
     7
 72
     1
  1
{\fＭＳ ゴシック|b0|i0|c128|p49;ウッドワン・・・}
 73
     1
 44
1.0
  0
MTEXT
  5
3DA
330
1F
100
AcDbEntity
  8
F-A
  6
Continuous
 62
     7
370
     0
100
AcDbMText
 10
823.332486539274
 20
-2778.760446177458
 30
0.0
 40
30.48
 41
80.0
 46
0.0
 71
     7
 72
     1
  1
{\fＭＳ ゴシック|b0|i0|c128|p49;会社}
 73
     1
 44
1.0
  0
MTEXT
  5
3DB
330
1F
100
AcDbEntity
  8
F-A
  6
Continuous
 62
     7
370
     0
100
AcDbMText
 10
3738.935540739808
 20
-2876.560837759023
 30
0.0
 40
45.72
 41
60.0
 46
0.0
 71
     7
 72
     1
  1
{\fＭＳ ゴシック|b0|i0|c128|p49;）}
 73
     1
 44
1.0
  0
MTEXT
  5
3DC
330
1F
100
AcDbEntity
  8
F-A
  6
Continuous
 62
     7
370
     0
100
AcDbMText
 10
3460.130633894714
 20
-2877.490187658314
 30
0.0
 40
45.72
 41
30.0
 46
0.0
 71
     7
 72
     1
  1
{\fＭＳ ゴシック|b0|i0|c128|p49;,}
 73
     1
 44
1.0
  0
MTEXT
  5
3DD
330
1F
100
AcDbEntity
  8
F-A
  6
Continuous
 62
     7
370
     0
100
AcDbMText
 10
3282.624841276916
 20
-2876.514536603932
 30
0.0
 40
49.53
 41
65.0
 46
0.0
 71
     7
 72
     1
  1
{\fＭＳ ゴシック|b0|i0|c128|p49;$y}
 73
     1
 44
1.0
  0
MTEXT
  5
3DE
330
1F
100
AcDbEntity
  8
F-A
  6
Continuous
 62
     7
370
     0
100
AcDbMText
 10
3385.782655302796
 20
-2876.514536603932
 30
0.0
 40
49.53
 41
65.0
 46
0.0
 71
     7
 72
     1
  1
{\fＭＳ ゴシック|b0|i0|c128|p49;$m}
 73
     1
 44
1.0
  0
MTEXT
  5
3DF
330
1F
100
AcDbEntity
  8
F-A
  6
Continuous
 62
     7
370
     0
100
AcDbMText
 10
3488.940476958069
 20
-2876.514536603932
 30
0.0
 40
49.53
 41
65.0
 46
0.0
 71
     7
 72
     1
  1
{\fＭＳ ゴシック|b0|i0|c128|p49;$d}
 73
     1
 44
1.0
  0
MTEXT
  5
3E0
330
1F
100
AcDbEntity
  8
F-A
  6
Continuous
 62
     7
370
     0
100
AcDbMText
 10
3592.098298613341
 20
-2876.514536603932
 30
0.0
 40
49.53
 41
130.0
 46
0.0
 71
     7
 72
     1
  1
{\fＭＳ ゴシック|b0|i0|c128|p49;印刷}
 73
     1
 44
1.0
  0
MTEXT
  5
3E1
330
1F
100
AcDbEntity
  8
F-A
  6
Continuous
 62
     7
370
     0
100
AcDbMText
 10
3189.355582835333
 20
-2879.348887456898
 30
0.0
 40
45.72
 41
60.0
 46
0.0
 71
     7
 72
     1
  1
{\fＭＳ ゴシック|b0|i0|c128|p49;（}
 73
     1
 44
1.0
  0
MTEXT
  5
3E2
330
1F
100
AcDbEntity
  8
F-A
  6
Continuous
 62
     7
370
     0
100
AcDbMText
 10
3354.184762541563
 20
-2879.348887456898
 30
0.0
 40
45.72
 41
30.0
 46
0.0
 71
     7
 72
     1
  1
{\fＭＳ ゴシック|b0|i0|c128|p49;,}
 73
     1
 44
1.0
  0
MTEXT
  5
3E3
330
1F
100
AcDbEntity
  8
F-A
  6
Continuous
 62
     7
370
     9
100
AcDbMText
 10
3290.832689053887
 20
-2765.238008466657
 30
0.0
 40
49.53
 41
65.0
 46
0.0
 71
     7
 72
     1
  1
{\fＭＳ ゴシック|b0|i0|c128|p49;01}
 73
     1
 44
1.0
  0
MTEXT
  5
3E4
330
1F
100
AcDbEntity
  8
0-A
  6
Continuous
 62
     7
370
     9
100
AcDbMText
 10
-933.3338392103042
 20
2384.110304595844
 30
0.0
 40
45.71999999999999
 41
390.0
 46
0.0
 71
     7
 72
     1
  1
{\fＭＳ ゴシック|b0|i0|c128|p49;ＤＧＢＡ16-□}
 73
     1
 44
1.0
  0
MTEXT
  5
3E5
330
1F
100
AcDbEntity
  8
0-A
  6
Continuous
 62
     7
370
     9
100
AcDbMText
 10
-933.3338392103042
 20
2279.943631270641
 30
0.0
 40
45.71999999999999
 41
390.0
 46
0.0
 71
     7
 72
     1
  1
{\fＭＳ ゴシック|b0|i0|c128|p49;ＤＧＢＡ14-□}
 73
     1
 44
1.0
  0
MTEXT
  5
3E6
330
1F
100
AcDbEntity
  8
0-A
  6
Continuous
 62
     7
370
     9
100
AcDbMText
 10
-933.3338392103042
 20
2175.776957945437
 30
0.0
 40
45.71999999999999
 41
390.0
 46
0.0
 71
     7
 72
     1
  1
{\fＭＳ ゴシック|b0|i0|c128|p49;ＤＧＢＡ13-□}
 73
     1
 44
1.0
  0
MTEXT
  5
3E7
330
1F
100
AcDbEntity
  8
0-A
  6
Continuous
 62
     7
370
     9
100
AcDbMText
 10
-933.3338392103042
 20
1759.110264644623
 30
0.0
 40
45.71999999999999
 41
390.0
 46
0.0
 71
     7
 72
     1
  1
{\fＭＳ ゴシック|b0|i0|c128|p49;ＤＧＢＡ26-□}
 73
     1
 44
1.0
  0
MTEXT
  5
3E8
330
1F
100
AcDbEntity
  8
0-A
  6
Continuous
 62
     7
370
     9
100
AcDbMText
 10
-933.333839210304
 20
1654.94359131942
 30
0.0
 40
45.71999999999999
 41
390.0
 46
0.0
 71
     7
 72
     1
  1
{\fＭＳ ゴシック|b0|i0|c128|p49;ＤＧＢＡ24-□}
 73
     1
 44
1.0
  0
MTEXT
  5
3E9
330
1F
100
AcDbEntity
  8
0-A
  6
Continuous
 62
     7
370
     9
100
AcDbMText
 10
-933.3338392103044
 20
1550.776917994215
 30
0.0
 40
45.72000000000003
 41
390.0000000000003
 46
0.0
 71
     7
 72
     1
  1
{\fＭＳ ゴシック|b0|i0|c128|p49;ＤＧＢＡ23-□}
 73
     1
 44
1.0
  0
MTEXT
  5
3EA
330
1F
100
AcDbEntity
  8
0-A
  6
Continuous
 62
     7
370
     9
100
AcDbMText
 10
-933.3338392103042
 20
1134.110224693401
 30
0.0
 40
45.71999999999999
 41
390.0
 46
0.0
 71
     7
 72
     1
  1
{\fＭＳ ゴシック|b0|i0|c128|p49;ＤＧＢＢ16-□}
 73
     1
 44
1.0
  0
MTEXT
  5
3EB
330
1F
100
AcDbEntity
  8
0-A
  6
Continuous
 62
     7
370
     9
100
AcDbMText
 10
-933.333839210304
 20
1029.943551368198
 30
0.0
 40
45.71999999999996
 41
389.9999999999997
 46
0.0
 71
     7
 72
     1
  1
{\fＭＳ ゴシック|b0|i0|c128|p49;ＤＧＢＢ14-□}
 73
     1
 44
1.0
  0
MTEXT
  5
3EC
330
1F
100
AcDbEntity
  8
0-A
  6
Continuous
 62
     7
370
     9
100
AcDbMText
 10
-933.3338392103044
 20
925.7768780429944
 30
0.0
 40
45.72000000000003
 41
390.0000000000003
 46
0.0
 71
     7
 72
     1
  1
{\fＭＳ ゴシック|b0|i0|c128|p49;ＤＧＢＢ13-□}
 73
     1
 44
1.0
  0
MTEXT
  5
3ED
330
1F
100
AcDbEntity
  8
0-A
  6
Continuous
 62
     7
370
     9
100
AcDbMText
 10
-933.3338392103042
 20
509.11018474218
 30
0.0
 40
45.71999999999999
 41
390.0
 46
0.0
 71
     7
 72
     1
  1
{\fＭＳ ゴシック|b0|i0|c128|p49;ＤＧＢＢ26-□}
 73
     1
 44
1.0
  0
MTEXT
  5
3EE
330
1F
100
AcDbEntity
  8
0-A
  6
Continuous
 62
     7
370
     9
100
AcDbMText
 10
-933.3338392103042
 20
404.9435114169762
 30
0.0
 40
45.71999999999999
 41
390.0
 46
0.0
 71
     7
 72
     1
  1
{\fＭＳ ゴシック|b0|i0|c128|p49;ＤＧＢＢ24-□}
 73
     1
 44
1.0
  0
MTEXT
  5
3EF
330
1F
100
AcDbEntity
  8
0-A
  6
Continuous
 62
     7
370
     9
100
AcDbMText
 10
-933.3338392103042
 20
300.776838091773
 30
0.0
 40
45.71999999999999
 41
390.0
 46
0.0
 71
     7
 72
     1
  1
{\fＭＳ ゴシック|b0|i0|c128|p49;ＤＧＢＢ23-□}
 73
     1
 44
1.0
  0
MTEXT
  5
3F0
330
1F
100
AcDbEntity
  8
0-A
  6
Continuous
 62
     7
370
     9
100
AcDbMText
 10
-933.3338392103044
 20
-115.8898552090415
 30
0.0
 40
45.72000000000003
 41
390.0000000000003
 46
0.0
 71
     7
 72
     1
  1
{\fＭＳ ゴシック|b0|i0|c128|p49;ＤＧＢＣ16-□}
 73
     1
 44
1.0
  0
MTEXT
  5
3F1
330
1F
100
AcDbEntity
  8
0-A
  6
Continuous
 62
     7
370
     9
100
AcDbMText
 10
-933.333839210304
 20
-220.0565285342447
 30
0.0
 40
45.71999999999996
 41
389.9999999999997
 46
0.0
 71
     7
 72
     1
  1
{\fＭＳ ゴシック|b0|i0|c128|p49;ＤＧＢＣ14-□}
 73
     1
 44
1.0
  0
MTEXT
  5
3F2
330
1F
100
AcDbEntity
  8
0-A
  6
Continuous
 62
     7
370
     9
100
AcDbMText
 10
-933.3338392103042
 20
-324.2232018594484
 30
0.0
 40
45.71999999999999
 41
390.0
 46
0.0
 71
     7
 72
     1
  1
{\fＭＳ ゴシック|b0|i0|c128|p49;ＤＧＢＣ13-□}
 73
     1
 44
1.0
  0
MTEXT
  5
3F3
330
1F
100
AcDbEntity
  8
0-A
  6
Continuous
 62
     7
370
     9
100
AcDbMText
 10
-933.3338392103042
 20
-740.8898951602629
 30
0.0
 40
45.71999999999999
 41
390.0
 46
0.0
 71
     7
 72
     1
  1
{\fＭＳ ゴシック|b0|i0|c128|p49;ＤＧＢＣ26-□}
 73
     1
 44
1.0
  0
MTEXT
  5
3F4
330
1F
100
AcDbEntity
  8
0-A
  6
Continuous
 62
     7
370
     9
100
AcDbMText
 10
-933.3338392103044
 20
-845.0565684854666
 30
0.0
 40
45.72000000000003
 41
390.0000000000003
 46
0.0
 71
     7
 72
     1
  1
{\fＭＳ ゴシック|b0|i0|c128|p49;ＤＧＢＣ24-□}
 73
     1
 44
1.0
  0
MTEXT
  5
3F5
330
1F
100
AcDbEntity
  8
0-A
  6
Continuous
 62
     7
370
     9
100
AcDbMText
 10
-933.3338392103042
 20
-949.2232418106698
 30
0.0
 40
45.71999999999999
 41
390.0
 46
0.0
 71
     7
 72
     1
  1
{\fＭＳ ゴシック|b0|i0|c128|p49;ＤＧＢＣ23-□}
 73
     1
 44
1.0
  0
MTEXT
  5
3F6
330
1F
100
AcDbEntity
  8
0-A
  6
Continuous
 62
     7
370
     9
100
AcDbMText
 10
2963.332651499156
 20
2384.110304595844
 30
0.0
 40
45.71999999999999
 41
390.0
 46
0.0
 71
     7
 72
     1
  1
{\fＭＳ ゴシック|b0|i0|c128|p49;ＤＧＢＬ16-□}
 73
     1
 44
1.0
  0
MTEXT
  5
3F7
330
1F
100
AcDbEntity
  8
0-A
  6
Continuous
 62
     7
370
     9
100
AcDbMText
 10
2963.332651499156
 20
2279.943631270641
 30
0.0
 40
45.71999999999999
 41
390.0
 46
0.0
 71
     7
 72
     1
  1
{\fＭＳ ゴシック|b0|i0|c128|p49;ＤＧＢＬ14-□}
 73
     1
 44
1.0
  0
MTEXT
  5
3F8
330
1F
100
AcDbEntity
  8
0-A
  6
Continuous
 62
     7
370
     9
100
AcDbMText
 10
2963.332651499156
 20
2175.776957945437
 30
0.0
 40
45.71999999999999
 41
390.0
 46
0.0
 71
     7
 72
     1
  1
{\fＭＳ ゴシック|b0|i0|c128|p49;ＤＧＢＬ13-□}
 73
     1
 44
1.0
  0
MTEXT
  5
3F9
330
1F
100
AcDbEntity
  8
0-A
  6
Continuous
 62
     7
370
     9
100
AcDbMText
 10
2963.332651499156
 20
1759.110264644623
 30
0.0
 40
45.71999999999999
 41
390.0
 46
0.0
 71
     7
 72
     1
  1
{\fＭＳ ゴシック|b0|i0|c128|p49;ＤＧＢＬ26-□}
 73
     1
 44
1.0
  0
MTEXT
  5
3FA
330
1F
100
AcDbEntity
  8
0-A
  6
Continuous
 62
     7
370
     9
100
AcDbMText
 10
2963.332651499156
 20
1654.943591319419
 30
0.0
 40
45.71999999999999
 41
390.0
 46
0.0
 71
     7
 72
     1
  1
{\fＭＳ ゴシック|b0|i0|c128|p49;ＤＧＢＬ23-□}
 73
     1
 44
1.0
  0
MTEXT
  5
3FB
330
1F
100
AcDbEntity
  8
0-A
  6
Continuous
 62
     7
370
     9
100
AcDbMText
 10
2963.332651499156
 20
1134.110224693401
 30
0.0
 40
45.71999999999999
 41
390.0
 46
0.0
 71
     7
 72
     1
  1
{\fＭＳ ゴシック|b0|i0|c128|p49;ＤＧＢＭ16-□}
 73
     1
 44
1.0
  0
MTEXT
  5
3FC
330
1F
100
AcDbEntity
  8
0-A
  6
Continuous
 62
     7
370
     9
100
AcDbMText
 10
2963.332651499156
 20
1029.943551368198
 30
0.0
 40
45.71999999999993
 41
389.9999999999994
 46
0.0
 71
     7
 72
     1
  1
{\fＭＳ ゴシック|b0|i0|c128|p49;ＤＧＢＭ14-□}
 73
     1
 44
1.0
  0
MTEXT
  5
3FD
330
1F
100
AcDbEntity
  8
0-A
  6
Continuous
 62
     7
370
     9
100
AcDbMText
 10
2963.332651499156
 20
925.7768780429939
 30
0.0
 40
45.71999999999999
 41
390.0
 46
0.0
 71
     7
 72
     1
  1
{\fＭＳ ゴシック|b0|i0|c128|p49;ＤＧＢＭ13-□}
 73
     1
 44
1.0
  0
MTEXT
  5
3FE
330
1F
100
AcDbEntity
  8
0-A
  6
Continuous
 62
     7
370
     9
100
AcDbMText
 10
2963.332651499156
 20
509.11018474218
 30
0.0
 40
45.71999999999999
 41
390.0
 46
0.0
 71
     7
 72
     1
  1
{\fＭＳ ゴシック|b0|i0|c128|p49;ＤＧＢＭ26-□}
 73
     1
 44
1.0
  0
MTEXT
  5
3FF
330
1F
100
AcDbEntity
  8
0-A
  6
Continuous
 62
     7
370
     9
100
AcDbMText
 10
2963.332651499156
 20
404.9435114169762
 30
0.0
 40
45.71999999999993
 41
389.9999999999994
 46
0.0
 71
     7
 72
     1
  1
{\fＭＳ ゴシック|b0|i0|c128|p49;ＤＧＢＭ23-□}
 73
     1
 44
1.0
  0
MTEXT
  5
400
330
1F
100
AcDbEntity
  8
0-A
  6
Continuous
 62
     7
370
     9
100
AcDbMText
 10
2963.332651499156
 20
-115.8898552090415
 30
0.0
 40
45.71999999999999
 41
390.0
 46
0.0
 71
     7
 72
     1
  1
{\fＭＳ ゴシック|b0|i0|c128|p49;ＤＧＢＮ16-□}
 73
     1
 44
1.0
  0
MTEXT
  5
401
330
1F
100
AcDbEntity
  8
0-A
  6
Continuous
 62
     7
370
     9
100
AcDbMText
 10
2963.332651499156
 20
-220.0565285342447
 30
0.0
 40
45.71999999999999
 41
390.0
 46
0.0
 71
     7
 72
     1
  1
{\fＭＳ ゴシック|b0|i0|c128|p49;ＤＧＢＮ14-□}
 73
     1
 44
1.0
  0
MTEXT
  5
402
330
1F
100
AcDbEntity
  8
0-A
  6
Continuous
 62
     7
370
     9
100
AcDbMText
 10
2963.332651499156
 20
-324.2232018594484
 30
0.0
 40
45.72000000000006
 41
390.0000000000006
 46
0.0
 71
     7
 72
     1
  1
{\fＭＳ ゴシック|b0|i0|c128|p49;ＤＧＢＮ13-□}
 73
     1
 44
1.0
  0
MTEXT
  5
403
330
1F
100
AcDbEntity
  8
0-A
  6
Continuous
 62
     7
370
     9
100
AcDbMText
 10
2963.332651499156
 20
-740.8898951602629
 30
0.0
 40
45.71999999999999
 41
390.0
 46
0.0
 71
     7
 72
     1
  1
{\fＭＳ ゴシック|b0|i0|c128|p49;ＤＧＢＮ26-□}
 73
     1
 44
1.0
  0
MTEXT
  5
404
330
1F
100
AcDbEntity
  8
0-A
  6
Continuous
 62
     7
370
     9
100
AcDbMText
 10
2963.332651499156
 20
-845.0565684854666
 30
0.0
 40
45.71999999999999
 41
390.0
 46
0.0
 71
     7
 72
     1
  1
{\fＭＳ ゴシック|b0|i0|c128|p49;ＤＧＢＮ23-□}
 73
     1
 44
1.0
  0
MTEXT
  5
405
330
1F
100
AcDbEntity
  8
F-A
  6
Continuous
 62
     7
370
     0
100
AcDbMText
 10
3185.832751019777
 20
-2625.380673426644
 30
0.0
 40
52.57799999999999
 41
345.0
 46
0.0
 71
     7
 72
     1
  1
{\fＭＳ ゴシック|b0|i0|c128|p49;2023.03.17}
 73
     1
 44
1.0
  0
MTEXT
  5
406
330
1F
100
AcDbEntity
  8
0-A
  6
Continuous
 62
     7
370
     9
100
AcDbMText
 10
-3843.333339691162
 20
-1827.603428937172
 30
0.0
 40
60.96
 41
400.0
 46
0.0
 71
     7
 72
     1
  1
{\fＭＳ ゴシック|b0|i0|c128|p49;ケーシング}
 73
     1
 44
1.0
  0
MTEXT
  5
407
330
1F
100
AcDbEntity
  8
0-A
  6
Continuous
 62
     7
370
     9
100
AcDbMText
 10
-3723.333339691162
 20
-2066.176601355455
 30
0.0
 40
60.96
 41
160.0
 46
0.0
 71
     7
 72
     1
  1
{\fＭＳ ゴシック|b0|i0|c128|p49;Ｄ型}
 73
     1
 44
1.0
  0
MTEXT
  5
408
330
1F
100
AcDbEntity
  8
0-A
  6
Continuous
 62
     7
370
     9
100
AcDbMText
 10
-3843.333339691162
 20
-1947.603428937172
 30
0.0
 40
60.96
 41
400.0
 46
0.0
 71
     7
 72
     1
  1
{\fＭＳ ゴシック|b0|i0|c128|p49;ラフカット}
 73
     1
 44
1.0
  0
LINE
  5
409
330
1F
100
AcDbEntity
  8
0-B
  6
Continuous
 62
   120
370
     5
100
AcDbLine
 10
-2045.844875802302
 20
-2056.623994423604
 30
0.0
 11
-2081.200214861628
 21
-2091.979333482931
 31
0.0
  0
LINE
  5
40A
330
1F
100
AcDbEntity
  8
0-B
  6
Continuous
 62
   120
370
     5
100
AcDbLine
 10
-2059.987011426033
 20
-2042.481858799872
 30
0.0
 11
-2095.342350485359
 21
-2077.837197859199
 31
0.0
  0
LWPOLYLINE
  5
40B
330
1F
100
AcDbEntity
  8
0-B
  6
Continuous
 62
     7
370
     9
100
AcDbPolyline
 90
        4
 70
     1
 43
2.0
 10
-2044.844875802302
 20
-2056.623994423604
 42
0.4142135623731
 10
-2045.844875802302
 20
-2055.623994423604
 42
0.4142135623731
 10
-2046.844875802302
 20
-2056.623994423604
 42
0.4142135623731
 10
-2045.844875802302
 20
-2057.623994423603
 42
0.4142135623731
  0
LWPOLYLINE
  5
40C
330
1F
100
AcDbEntity
  8
0-B
  6
Continuous
 62
     7
370
     9
100
AcDbPolyline
 90
        4
 70
     1
 43
2.0
 10
-2058.987011426033
 20
-2042.481858799872
 42
0.4142135623731
 10
-2059.987011426033
 20
-2041.481858799872
 42
0.4142135623731
 10
-2060.987011426033
 20
-2042.481858799872
 42
0.4142135623731
 10
-2059.987011426033
 20
-2043.481858799872
 42
0.4142135623731
  0
LINE
  5
40D
330
1F
100
AcDbEntity
  8
0-B
  6
Continuous
 62
   120
370
     5
100
AcDbLine
 10
-2059.987011426033
 20
-2042.481858799872
 30
0.0
 11
-2045.844875802302
 21
-2056.623994423604
 31
0.0
  0
LINE
  5
40E
330
1F
100
AcDbEntity
  8
0-B
  6
Continuous
 62
   120
370
     5
100
AcDbLine
 10
-2016.555553920957
 20
-2353.192536918527
 30
0.0
 11
-2066.555553920957
 21
-2353.192536918527
 31
0.0
  0
LINE
  5
40F
330
1F
100
AcDbEntity
  8
0-B
  6
Continuous
 62
   120
370
     5
100
AcDbLine
 10
-2016.555553920957
 20
-2113.192536918527
 30
0.0
 11
-2066.555553920957
 21
-2113.192536918527
 31
0.0
  0
LWPOLYLINE
  5
410
330
1F
100
AcDbEntity
  8
0-B
  6
Continuous
 62
     7
370
     9
100
AcDbPolyline
 90
        4
 70
     1
 43
2.0
 10
-2015.555553920957
 20
-2353.192536918527
 42
0.4142135623731
 10
-2016.555553920957
 20
-2352.192536918527
 42
0.4142135623731
 10
-2017.555553920957
 20
-2353.192536918527
 42
0.4142135623731
 10
-2016.555553920957
 20
-2354.192536918527
 42
0.4142135623731
  0
LWPOLYLINE
  5
411
330
1F
100
AcDbEntity
  8
0-B
  6
Continuous
 62
     7
370
     9
100
AcDbPolyline
 90
        4
 70
     1
 43
2.0
 10
-2015.555553920957
 20
-2113.192536918527
 42
0.4142135623731
 10
-2016.555553920957
 20
-2112.192536918527
 42
0.4142135623731
 10
-2017.555553920957
 20
-2113.192536918527
 42
0.4142135623731
 10
-2016.555553920957
 20
-2114.192536918527
 42
0.4142135623731
  0
LINE
  5
412
330
1F
100
AcDbEntity
  8
0-B
  6
Continuous
 62
   120
370
     5
100
AcDbLine
 10
-2016.555553920957
 20
-2113.192536918527
 30
0.0
 11
-2016.555553920957
 21
-2353.192536918527
 31
0.0
  0
LINE
  5
413
330
1F
100
AcDbEntity
  8
0-B
  6
Continuous
 62
   120
370
     5
100
AcDbLine
 10
-2116.555553920957
 20
-2453.192536918527
 30
0.0
 11
-2116.555553920957
 21
-2403.192536918527
 31
0.0
  0
LWPOLYLINE
  5
414
330
1F
100
AcDbEntity
  8
0-B
  6
Continuous
 62
     7
370
     9
100
AcDbPolyline
 90
        4
 70
     1
 43
2.0
 10
-2115.555553920957
 20
-2453.192536918527
 42
0.4142135623731
 10
-2116.555553920957
 20
-2452.192536918527
 42
0.4142135623731
 10
-2117.555553920957
 20
-2453.192536918527
 42
0.4142135623731
 10
-2116.555553920957
 20
-2454.192536918527
 42
0.4142135623731
  0
LINE
  5
415
330
1F
100
AcDbEntity
  8
0-B
  6
Continuous
 62
   120
370
     5
100
AcDbLine
 10
-2196.555553920957
 20
-2453.192536918527
 30
0.0
 11
-2196.555553920957
 21
-2403.192536918527
 31
0.0
  0
LWPOLYLINE
  5
416
330
1F
100
AcDbEntity
  8
0-B
  6
Continuous
 62
     7
370
     9
100
AcDbPolyline
 90
        4
 70
     1
 43
2.0
 10
-2195.555553920957
 20
-2453.192536918527
 42
0.4142135623731
 10
-2196.555553920957
 20
-2452.192536918527
 42
0.4142135623731
 10
-2197.555553920957
 20
-2453.192536918527
 42
0.4142135623731
 10
-2196.555553920957
 20
-2454.192536918527
 42
0.4142135623731
  0
LINE
  5
417
330
1F
100
AcDbEntity
  8
0-B
  6
Continuous
 62
   120
370
     5
100
AcDbLine
 10
-2116.555553920957
 20
-2013.192536918527
 30
0.0
 11
-2116.555553920957
 21
-2063.192536918527
 31
0.0
  0
LWPOLYLINE
  5
418
330
1F
100
AcDbEntity
  8
0-B
  6
Continuous
 62
     7
370
     9
100
AcDbPolyline
 90
        4
 70
     1
 43
2.0
 10
-2115.555553920957
 20
-2013.192536918527
 42
0.4142135623731
 10
-2116.555553920957
 20
-2012.192536918527
 42
0.4142135623731
 10
-2117.555553920957
 20
-2013.192536918527
 42
0.4142135623731
 10
-2116.555553920957
 20
-2014.192536918527
 42
0.4142135623731
  0
LINE
  5
419
330
1F
100
AcDbEntity
  8
0-0
  6
JWW_HOJO
 62
     7
370
     9
100
AcDbLine
 10
-2109.987011426033
 20
-2063.192536918527
 30
0.0
 11
-2066.555553920957
 21
-2106.623994423604
 31
0.0
  0
LINE
  5
41A
330
1F
100
AcDbEntity
  8
0-0
  6
JWW_HOJO
 62
     7
370
     9
100
AcDbLine
 10
-2066.555553920957
 20
-2403.192536918527
 30
0.0
 11
-2066.555553920957
 21
-2106.623994423604
 31
0.0
  0
LINE
  5
41B
330
1F
100
AcDbEntity
  8
0-0
  6
JWW_HOJO
 62
     7
370
     9
100
AcDbLine
 10
-2089.276333307378
 20
-2013.192536918527
 30
0.0
 11
-2016.555553920957
 21
-2085.913316304949
 31
0.0
  0
LINE
  5
41C
330
1F
100
AcDbEntity
  8
0-0
  6
JWW_HOJO
 62
     7
370
     9
100
AcDbLine
 10
-2016.555553920957
 20
-2453.192536918527
 30
0.0
 11
-2016.555553920957
 21
-2085.913316304949
 31
0.0
  0
LINE
  5
41D
330
1F
100
AcDbEntity
  8
0-4
  6
Continuous
 62
    92
370
    13
100
AcDbLine
 10
-2132.768757356553
 20
-2118.192536918527
 30
0.0
 11
-2121.555553920957
 21
-2129.405740354124
 31
0.0
  0
LINE
  5
41E
330
1F
100
AcDbEntity
  8
0-4
  6
Continuous
 62
    92
370
    13
100
AcDbLine
 10
-2130.697689544688
 20
-2113.192536918527
 30
0.0
 11
-2116.555553920957
 21
-2127.334672542258
 31
0.0
  0
LINE
  5
41F
330
1F
100
AcDbEntity
  8
0-4
  6
Continuous
 62
    92
370
    13
100
AcDbLine
 10
-2121.555553920957
 20
-2353.192536918527
 30
0.0
 11
-2121.555553920957
 21
-2129.405740354124
 31
0.0
  0
LINE
  5
420
330
1F
100
AcDbEntity
  8
0-4
  6
Continuous
 62
    92
370
    13
100
AcDbLine
 10
-2116.555553920957
 20
-2353.192536918527
 30
0.0
 11
-2116.555553920957
 21
-2127.334672542258
 31
0.0
  0
LINE
  5
421
330
1F
100
AcDbEntity
  8
0-4
  6
Continuous
 62
    92
370
    13
100
AcDbLine
 10
-2196.555553920957
 20
-2353.192536918527
 30
0.0
 11
-2196.555553920957
 21
-2201.192536918527
 31
0.0
  0
LINE
  5
422
330
1F
100
AcDbEntity
  8
0-4
  6
Continuous
 62
    92
370
    13
100
AcDbLine
 10
-2116.555553920957
 20
-2353.192536918527
 30
0.0
 11
-2196.555553920957
 21
-2353.192536918527
 31
0.0
  0
LINE
  5
423
330
1F
100
AcDbEntity
  8
0-B
  6
Continuous
 62
   120
370
     5
100
AcDbLine
 10
-2059.166951900279
 20
-1462.789230297331
 30
0.0
 11
-2091.489282370615
 21
-1495.111560767667
 31
0.0
  0
LINE
  5
424
330
1F
100
AcDbEntity
  8
0-B
  6
Continuous
 62
   120
370
     5
100
AcDbLine
 10
-2094.522290959605
 20
-1427.433891238004
 30
0.0
 11
-2126.844621429941
 21
-1459.75622170834
 31
0.0
  0
LWPOLYLINE
  5
425
330
1F
100
AcDbEntity
  8
0-B
  6
Continuous
 62
     7
370
     9
100
AcDbPolyline
 90
        4
 70
     1
 43
2.0
 10
-2058.166951900279
 20
-1462.789230297331
 42
0.4142135623731
 10
-2059.166951900279
 20
-1461.789230297331
 42
0.4142135623731
 10
-2060.166951900279
 20
-1462.789230297331
 42
0.4142135623731
 10
-2059.166951900279
 20
-1463.789230297331
 42
0.4142135623731
  0
LWPOLYLINE
  5
426
330
1F
100
AcDbEntity
  8
0-B
  6
Continuous
 62
     7
370
     9
100
AcDbPolyline
 90
        4
 70
     1
 43
2.0
 10
-2093.522290959605
 20
-1427.433891238004
 42
0.4142135623731
 10
-2094.522290959605
 20
-1426.433891238004
 42
0.4142135623731
 10
-2095.522290959605
 20
-1427.433891238004
 42
0.4142135623731
 10
-2094.522290959605
 20
-1428.433891238003
 42
0.4142135623731
  0
LINE
  5
427
330
1F
100
AcDbEntity
  8
0-B
  6
Continuous
 62
   120
370
     5
100
AcDbLine
 10
-2094.522290959605
 20
-1427.433891238004
 30
0.0
 11
-2059.166951900279
 21
-1462.789230297331
 31
0.0
  0
LINE
  5
428
330
1F
100
AcDbEntity
  8
0-B
  6
Continuous
 62
   120
370
     5
100
AcDbLine
 10
-2026.844621429941
 20
-1735.111560767667
 30
0.0
 11
-2076.844621429941
 21
-1735.111560767667
 31
0.0
  0
LINE
  5
429
330
1F
100
AcDbEntity
  8
0-B
  6
Continuous
 62
   120
370
     5
100
AcDbLine
 10
-2026.844621429941
 20
-1495.111560767667
 30
0.0
 11
-2076.844621429941
 21
-1495.111560767667
 31
0.0
  0
LWPOLYLINE
  5
42A
330
1F
100
AcDbEntity
  8
0-B
  6
Continuous
 62
     7
370
     9
100
AcDbPolyline
 90
        4
 70
     1
 43
2.0
 10
-2025.844621429941
 20
-1735.111560767667
 42
0.4142135623731
 10
-2026.844621429941
 20
-1734.111560767667
 42
0.4142135623731
 10
-2027.844621429941
 20
-1735.111560767667
 42
0.4142135623731
 10
-2026.844621429941
 20
-1736.111560767667
 42
0.4142135623731
  0
LWPOLYLINE
  5
42B
330
1F
100
AcDbEntity
  8
0-B
  6
Continuous
 62
     7
370
     9
100
AcDbPolyline
 90
        4
 70
     1
 43
2.0
 10
-2025.844621429941
 20
-1495.111560767667
 42
0.4142135623731
 10
-2026.844621429941
 20
-1494.111560767667
 42
0.4142135623731
 10
-2027.844621429941
 20
-1495.111560767667
 42
0.4142135623731
 10
-2026.844621429941
 20
-1496.111560767667
 42
0.4142135623731
  0
LINE
  5
42C
330
1F
100
AcDbEntity
  8
0-B
  6
Continuous
 62
   120
370
     5
100
AcDbLine
 10
-2026.844621429941
 20
-1495.111560767667
 30
0.0
 11
-2026.844621429941
 21
-1735.111560767667
 31
0.0
  0
LINE
  5
42D
330
1F
100
AcDbEntity
  8
0-B
  6
Continuous
 62
   120
370
     5
100
AcDbLine
 10
-2126.844621429941
 20
-1835.111560767667
 30
0.0
 11
-2126.844621429941
 21
-1785.111560767667
 31
0.0
  0
LWPOLYLINE
  5
42E
330
1F
100
AcDbEntity
  8
0-B
  6
Continuous
 62
     7
370
     9
100
AcDbPolyline
 90
        4
 70
     1
 43
2.0
 10
-2125.844621429941
 20
-1835.111560767667
 42
0.4142135623731
 10
-2126.844621429941
 20
-1834.111560767667
 42
0.4142135623731
 10
-2127.844621429941
 20
-1835.111560767667
 42
0.4142135623731
 10
-2126.844621429941
 20
-1836.111560767667
 42
0.4142135623731
  0
LINE
  5
42F
330
1F
100
AcDbEntity
  8
0-B
  6
Continuous
 62
   120
370
     5
100
AcDbLine
 10
-2246.844621429941
 20
-1835.111560767667
 30
0.0
 11
-2246.844621429941
 21
-1785.111560767667
 31
0.0
  0
LWPOLYLINE
  5
430
330
1F
100
AcDbEntity
  8
0-B
  6
Continuous
 62
     7
370
     9
100
AcDbPolyline
 90
        4
 70
     1
 43
2.0
 10
-2245.844621429941
 20
-1835.111560767667
 42
0.4142135623731
 10
-2246.844621429941
 20
-1834.111560767667
 42
0.4142135623731
 10
-2247.844621429941
 20
-1835.111560767667
 42
0.4142135623731
 10
-2246.844621429941
 20
-1836.111560767667
 42
0.4142135623731
  0
LINE
  5
431
330
1F
100
AcDbEntity
  8
0-B
  6
Continuous
 62
   120
370
     5
100
AcDbLine
 10
-2126.844621429941
 20
-1395.111560767667
 30
0.0
 11
-2126.844621429941
 21
-1445.111560767667
 31
0.0
  0
LWPOLYLINE
  5
432
330
1F
100
AcDbEntity
  8
0-B
  6
Continuous
 62
     7
370
     9
100
AcDbPolyline
 90
        4
 70
     1
 43
2.0
 10
-2125.844621429941
 20
-1395.111560767667
 42
0.4142135623731
 10
-2126.844621429941
 20
-1394.111560767667
 42
0.4142135623731
 10
-2127.844621429941
 20
-1395.111560767667
 42
0.4142135623731
 10
-2126.844621429941
 20
-1396.111560767667
 42
0.4142135623731
  0
LINE
  5
433
330
1F
100
AcDbEntity
  8
0-0
  6
JWW_HOJO
 62
     7
370
     9
100
AcDbLine
 10
-2141.489282370615
 20
-1445.111560767667
 30
0.0
 11
-2076.844621429941
 21
-1509.75622170834
 31
0.0
  0
LINE
  5
434
330
1F
100
AcDbEntity
  8
0-0
  6
JWW_HOJO
 62
     7
370
     9
100
AcDbLine
 10
-2076.844621429941
 20
-1785.111560767667
 30
0.0
 11
-2076.844621429941
 21
-1509.75622170834
 31
0.0
  0
LINE
  5
435
330
1F
100
AcDbEntity
  8
0-0
  6
JWW_HOJO
 62
     7
370
     9
100
AcDbLine
 10
-2120.778604251959
 20
-1395.111560767667
 30
0.0
 11
-2026.844621429941
 21
-1489.045543589685
 31
0.0
  0
LINE
  5
436
330
1F
100
AcDbEntity
  8
0-0
  6
JWW_HOJO
 62
     7
370
     9
100
AcDbLine
 10
-2026.844621429941
 20
-1835.111560767667
 30
0.0
 11
-2026.844621429941
 21
-1489.045543589685
 31
0.0
  0
LINE
  5
437
330
1F
100
AcDbEntity
  8
0-4
  6
Continuous
 62
    92
370
    13
100
AcDbLine
 10
-2164.271028301134
 20
-1500.111560767667
 30
0.0
 11
-2131.844621429941
 21
-1532.53796763886
 31
0.0
  0
LINE
  5
438
330
1F
100
AcDbEntity
  8
0-4
  6
Continuous
 62
    92
370
    13
100
AcDbLine
 10
-2162.19996048927
 20
-1495.111560767667
 30
0.0
 11
-2126.844621429941
 21
-1530.466899826995
 31
0.0
  0
LINE
  5
439
330
1F
100
AcDbEntity
  8
0-4
  6
Continuous
 62
    92
370
    13
100
AcDbLine
 10
-2131.844621429941
 20
-1735.111560767667
 30
0.0
 11
-2131.844621429941
 21
-1532.53796763886
 31
0.0
  0
LINE
  5
43A
330
1F
100
AcDbEntity
  8
0-4
  6
Continuous
 62
    92
370
    13
100
AcDbLine
 10
-2126.844621429941
 20
-1735.111560767667
 30
0.0
 11
-2126.844621429941
 21
-1530.466899826995
 31
0.0
  0
LINE
  5
43B
330
1F
100
AcDbEntity
  8
0-4
  6
Continuous
 62
    92
370
    13
100
AcDbLine
 10
-2246.844621429941
 20
-1735.111560767667
 30
0.0
 11
-2246.844621429941
 21
-1583.111560767667
 31
0.0
  0
LINE
  5
43C
330
1F
100
AcDbEntity
  8
0-4
  6
Continuous
 62
    92
370
    13
100
AcDbLine
 10
-2126.844621429941
 20
-1735.111560767667
 30
0.0
 11
-2246.844621429941
 21
-1735.111560767667
 31
0.0
  0
MTEXT
  5
43D
330
1F
100
AcDbEntity
  8
0-B
  6
Continuous
 62
     7
370
   211
100
AcDbMText
 10
-2080.380155335873
 20
-1434.573891238004
 30
0.0
 40
45.71999999999976
 41
29.99999999999984
 46
0.0
 71
     7
 72
     1
  1
{\fＭＳ ゴシック|b0|i0|c128|p49;5}
 11
0.7071067811865285
 21
-0.7071067811865666
 31
0.0
 73
     1
 44
1.0
  0
MTEXT
  5
43E
330
1F
100
AcDbEntity
  8
0-B
  6
Continuous
 62
     7
370
   211
100
AcDbMText
 10
-2036.844621429941
 20
-1654.751560767667
 30
0.0
 40
45.72
 41
60.0
 46
0.0
 71
     7
 72
     1
  1
{\fＭＳ ゴシック|b0|i0|c128|p49;24}
 11
6.123031769111886E-17
 21
1.0
 31
0.0
 73
     1
 44
1.0
  0
MTEXT
  5
43F
330
1F
100
AcDbEntity
  8
0-B
  6
Continuous
 62
     7
370
   211
100
AcDbMText
 10
-2219.344621429941
 20
-1832.251560767667
 30
0.0
 40
45.72
 41
60.0
 46
0.0
 71
     7
 72
     1
  1
{\fＭＳ ゴシック|b0|i0|c128|p49;12}
 73
     1
 44
1.0
  0
MTEXT
  5
440
330
1F
100
AcDbEntity
  8
0-B
  6
Continuous
 62
     7
370
   211
100
AcDbMText
 10
-2056.4514775201
 20
-2039.015257082074
 30
0.0
 40
45.71999999999976
 41
29.99999999999984
 46
0.0
 71
     7
 72
     1
  1
{\fＭＳ ゴシック|b0|i0|c128|p49;2}
 11
0.7071067811865374
 21
-0.7071067811865577
 31
0.0
 73
     1
 44
1.0
  0
MTEXT
  5
441
330
1F
100
AcDbEntity
  8
0-B
  6
Continuous
 62
     7
370
   211
100
AcDbMText
 10
-2026.555553920957
 20
-2272.832536918527
 30
0.0
 40
45.72
 41
60.0
 46
0.0
 71
     7
 72
     1
  1
{\fＭＳ ゴシック|b0|i0|c128|p49;24}
 11
6.123031769111886E-17
 21
1.0
 31
0.0
 73
     1
 44
1.0
  0
MTEXT
  5
442
330
1F
100
AcDbEntity
  8
0-B
  6
Continuous
 62
     7
370
   211
100
AcDbMText
 10
-2171.555553920957
 20
-2450.332536918527
 30
0.0
 40
45.72
 41
30.0
 46
0.0
 71
     7
 72
     1
  1
{\fＭＳ ゴシック|b0|i0|c128|p49;8}
 73
     1
 44
1.0
  0
LINE
  5
443
330
1F
100
AcDbEntity
  8
0-B
  6
Continuous
 62
   120
370
     5
100
AcDbLine
 10
-2776.555553920957
 20
-2201.192536918527
 30
0.0
 11
-2726.555553920957
 21
-2201.192536918527
 31
0.0
  0
LINE
  5
444
330
1F
100
AcDbEntity
  8
0-B
  6
Continuous
 62
   120
370
     5
100
AcDbLine
 10
-2776.555553920957
 20
-2113.192536918527
 30
0.0
 11
-2726.555553920957
 21
-2113.192536918527
 31
0.0
  0
LWPOLYLINE
  5
445
330
1F
100
AcDbEntity
  8
0-B
  6
Continuous
 62
     7
370
     9
100
AcDbPolyline
 90
        4
 70
     1
 43
2.0
 10
-2775.555553920957
 20
-2201.192536918527
 42
0.4142135623731
 10
-2776.555553920957
 20
-2200.192536918527
 42
0.4142135623731
 10
-2777.555553920957
 20
-2201.192536918527
 42
0.4142135623731
 10
-2776.555553920957
 20
-2202.192536918527
 42
0.4142135623731
  0
LWPOLYLINE
  5
446
330
1F
100
AcDbEntity
  8
0-B
  6
Continuous
 62
     7
370
     9
100
AcDbPolyline
 90
        4
 70
     1
 43
2.0
 10
-2775.555553920957
 20
-2113.192536918527
 42
0.4142135623731
 10
-2776.555553920957
 20
-2112.192536918527
 42
0.4142135623731
 10
-2777.555553920957
 20
-2113.192536918527
 42
0.4142135623731
 10
-2776.555553920957
 20
-2114.192536918527
 42
0.4142135623731
  0
LINE
  5
447
330
1F
100
AcDbEntity
  8
0-B
  6
Continuous
 62
   120
370
     5
100
AcDbLine
 10
-2776.555553920957
 20
-2113.192536918527
 30
0.0
 11
-2776.555553920957
 21
-2201.192536918527
 31
0.0
  0
LINE
  5
448
330
1F
100
AcDbEntity
  8
0-B
  6
Continuous
 62
   120
370
     5
100
AcDbLine
 10
-2676.555553920957
 20
-2453.192536918527
 30
0.0
 11
-2676.555553920957
 21
-2403.192536918527
 31
0.0
  0
LWPOLYLINE
  5
449
330
1F
100
AcDbEntity
  8
0-B
  6
Continuous
 62
     7
370
     9
100
AcDbPolyline
 90
        4
 70
     1
 43
2.0
 10
-2675.555553920957
 20
-2453.192536918527
 42
0.4142135623731
 10
-2676.555553920957
 20
-2452.192536918527
 42
0.4142135623731
 10
-2677.555553920957
 20
-2453.192536918527
 42
0.4142135623731
 10
-2676.555553920957
 20
-2454.192536918527
 42
0.4142135623731
  0
LINE
  5
44A
330
1F
100
AcDbEntity
  8
0-B
  6
Continuous
 62
   120
370
     5
100
AcDbLine
 10
-2676.555553920957
 20
-2013.192536918527
 30
0.0
 11
-2676.555553920957
 21
-2063.192536918527
 31
0.0
  0
LWPOLYLINE
  5
44B
330
1F
100
AcDbEntity
  8
0-B
  6
Continuous
 62
     7
370
     9
100
AcDbPolyline
 90
        4
 70
     1
 43
2.0
 10
-2675.555553920957
 20
-2013.192536918527
 42
0.4142135623731
 10
-2676.555553920957
 20
-2012.192536918527
 42
0.4142135623731
 10
-2677.555553920957
 20
-2013.192536918527
 42
0.4142135623731
 10
-2676.555553920957
 20
-2014.192536918527
 42
0.4142135623731
  0
LINE
  5
44C
330
1F
100
AcDbEntity
  8
0-B
  6
Continuous
 62
   120
370
     5
100
AcDbLine
 10
-2676.555553920957
 20
-2013.192536918527
 30
0.0
 11
-2116.555553920957
 21
-2013.192536918527
 31
0.0
  0
LINE
  5
44D
330
1F
100
AcDbEntity
  8
0-0
  6
JWW_HOJO
 62
     7
370
     9
100
AcDbLine
 10
-2726.555553920957
 20
-2063.192536918527
 30
0.0
 11
-2109.987011426033
 21
-2063.192536918527
 31
0.0
  0
LINE
  5
44E
330
1F
100
AcDbEntity
  8
0-0
  6
JWW_HOJO
 62
     7
370
     9
100
AcDbLine
 10
-2066.555553920957
 20
-2403.192536918527
 30
0.0
 11
-2726.555553920957
 21
-2403.192536918527
 31
0.0
  0
LINE
  5
44F
330
1F
100
AcDbEntity
  8
0-0
  6
JWW_HOJO
 62
     7
370
     9
100
AcDbLine
 10
-2726.555553920957
 20
-2063.192536918527
 30
0.0
 11
-2726.555553920957
 21
-2403.192536918527
 31
0.0
  0
LINE
  5
450
330
1F
100
AcDbEntity
  8
0-0
  6
JWW_HOJO
 62
     7
370
     9
100
AcDbLine
 10
-2776.555553920957
 20
-2013.192536918527
 30
0.0
 11
-2089.276333307378
 21
-2013.192536918527
 31
0.0
  0
LINE
  5
451
330
1F
100
AcDbEntity
  8
0-0
  6
JWW_HOJO
 62
     7
370
     9
100
AcDbLine
 10
-2016.555553920957
 20
-2453.192536918527
 30
0.0
 11
-2776.555553920957
 21
-2453.192536918527
 31
0.0
  0
LINE
  5
452
330
1F
100
AcDbEntity
  8
0-0
  6
JWW_HOJO
 62
     7
370
     9
100
AcDbLine
 10
-2776.555553920957
 20
-2013.192536918527
 30
0.0
 11
-2776.555553920957
 21
-2453.192536918527
 31
0.0
  0
LINE
  5
453
330
1F
100
AcDbEntity
  8
0-4
  6
Continuous
 62
    92
370
    13
100
AcDbLine
 10
-2676.555553920957
 20
-2118.192536918527
 30
0.0
 11
-2132.768757356553
 21
-2118.192536918527
 31
0.0
  0
LINE
  5
454
330
1F
100
AcDbEntity
  8
0-4
  6
Continuous
 62
    92
370
    13
100
AcDbLine
 10
-2676.555553920957
 20
-2113.192536918527
 30
0.0
 11
-2130.697689544688
 21
-2113.192536918527
 31
0.0
  0
LINE
  5
455
330
1F
100
AcDbEntity
  8
0-4
  6
Continuous
 62
    92
370
    13
100
AcDbLine
 10
-2676.555553920957
 20
-2201.192536918527
 30
0.0
 11
-2196.555553920957
 21
-2201.192536918527
 31
0.0
  0
LINE
  5
456
330
1F
100
AcDbEntity
  8
0-4
  6
Continuous
 62
    92
370
    13
100
AcDbLine
 10
-2676.555553920957
 20
-2113.192536918527
 30
0.0
 11
-2676.555553920957
 21
-2201.192536918527
 31
0.0
  0
LINE
  5
457
330
1F
100
AcDbEntity
  8
0-B
  6
Continuous
 62
   120
370
     5
100
AcDbLine
 10
-2676.555553920957
 20
-2453.192536918527
 30
0.0
 11
-2116.555553920957
 21
-2453.192536918527
 31
0.0
  0
LINE
  5
458
330
1F
100
AcDbEntity
  8
0-B
  6
Continuous
 62
   120
370
     5
100
AcDbLine
 10
-2826.844621429941
 20
-1583.111560767667
 30
0.0
 11
-2776.844621429941
 21
-1583.111560767667
 31
0.0
  0
LINE
  5
459
330
1F
100
AcDbEntity
  8
0-B
  6
Continuous
 62
   120
370
     5
100
AcDbLine
 10
-2826.844621429941
 20
-1495.111560767667
 30
0.0
 11
-2776.844621429941
 21
-1495.111560767667
 31
0.0
  0
LWPOLYLINE
  5
45A
330
1F
100
AcDbEntity
  8
0-B
  6
Continuous
 62
     7
370
     9
100
AcDbPolyline
 90
        4
 70
     1
 43
2.0
 10
-2825.844621429941
 20
-1583.111560767667
 42
0.4142135623731
 10
-2826.844621429941
 20
-1582.111560767667
 42
0.4142135623731
 10
-2827.844621429941
 20
-1583.111560767667
 42
0.4142135623731
 10
-2826.844621429941
 20
-1584.111560767667
 42
0.4142135623731
  0
LWPOLYLINE
  5
45B
330
1F
100
AcDbEntity
  8
0-B
  6
Continuous
 62
     7
370
     9
100
AcDbPolyline
 90
        4
 70
     1
 43
2.0
 10
-2825.844621429941
 20
-1495.111560767667
 42
0.4142135623731
 10
-2826.844621429941
 20
-1494.111560767667
 42
0.4142135623731
 10
-2827.844621429941
 20
-1495.111560767667
 42
0.4142135623731
 10
-2826.844621429941
 20
-1496.111560767667
 42
0.4142135623731
  0
LINE
  5
45C
330
1F
100
AcDbEntity
  8
0-B
  6
Continuous
 62
   120
370
     5
100
AcDbLine
 10
-2826.844621429941
 20
-1495.111560767667
 30
0.0
 11
-2826.844621429941
 21
-1583.111560767667
 31
0.0
  0
LINE
  5
45D
330
1F
100
AcDbEntity
  8
0-B
  6
Continuous
 62
   120
370
     5
100
AcDbLine
 10
-2726.844621429941
 20
-1835.111560767667
 30
0.0
 11
-2726.844621429941
 21
-1785.111560767667
 31
0.0
  0
LWPOLYLINE
  5
45E
330
1F
100
AcDbEntity
  8
0-B
  6
Continuous
 62
     7
370
     9
100
AcDbPolyline
 90
        4
 70
     1
 43
2.0
 10
-2725.844621429941
 20
-1835.111560767667
 42
0.4142135623731
 10
-2726.844621429941
 20
-1834.111560767667
 42
0.4142135623731
 10
-2727.844621429941
 20
-1835.111560767667
 42
0.4142135623731
 10
-2726.844621429941
 20
-1836.111560767667
 42
0.4142135623731
  0
LINE
  5
45F
330
1F
100
AcDbEntity
  8
0-B
  6
Continuous
 62
   120
370
     5
100
AcDbLine
 10
-2726.844621429941
 20
-1395.111560767667
 30
0.0
 11
-2726.844621429941
 21
-1445.111560767667
 31
0.0
  0
LWPOLYLINE
  5
460
330
1F
100
AcDbEntity
  8
0-B
  6
Continuous
 62
     7
370
     9
100
AcDbPolyline
 90
        4
 70
     1
 43
2.0
 10
-2725.844621429941
 20
-1395.111560767667
 42
0.4142135623731
 10
-2726.844621429941
 20
-1394.111560767667
 42
0.4142135623731
 10
-2727.844621429941
 20
-1395.111560767667
 42
0.4142135623731
 10
-2726.844621429941
 20
-1396.111560767667
 42
0.4142135623731
  0
LINE
  5
461
330
1F
100
AcDbEntity
  8
0-B
  6
Continuous
 62
   120
370
     5
100
AcDbLine
 10
-2726.844621429941
 20
-1395.111560767667
 30
0.0
 11
-2126.844621429941
 21
-1395.111560767667
 31
0.0
  0
LINE
  5
462
330
1F
100
AcDbEntity
  8
0-0
  6
JWW_HOJO
 62
     7
370
     9
100
AcDbLine
 10
-2776.844621429941
 20
-1445.111560767667
 30
0.0
 11
-2776.844621429941
 21
-1785.111560767667
 31
0.0
  0
LINE
  5
463
330
1F
100
AcDbEntity
  8
0-0
  6
JWW_HOJO
 62
     7
370
     9
100
AcDbLine
 10
-2776.844621429941
 20
-1445.111560767667
 30
0.0
 11
-2141.489282370615
 21
-1445.111560767667
 31
0.0
  0
LINE
  5
464
330
1F
100
AcDbEntity
  8
0-0
  6
JWW_HOJO
 62
     7
370
     9
100
AcDbLine
 10
-2076.844621429941
 20
-1785.111560767667
 30
0.0
 11
-2776.844621429941
 21
-1785.111560767667
 31
0.0
  0
LINE
  5
465
330
1F
100
AcDbEntity
  8
0-0
  6
JWW_HOJO
 62
     7
370
     9
100
AcDbLine
 10
-2826.844621429941
 20
-1395.111560767667
 30
0.0
 11
-2826.844621429941
 21
-1835.111560767667
 31
0.0
  0
LINE
  5
466
330
1F
100
AcDbEntity
  8
0-0
  6
JWW_HOJO
 62
     7
370
     9
100
AcDbLine
 10
-2826.844621429941
 20
-1395.111560767667
 30
0.0
 11
-2120.778604251959
 21
-1395.111560767667
 31
0.0
  0
LINE
  5
467
330
1F
100
AcDbEntity
  8
0-0
  6
JWW_HOJO
 62
     7
370
     9
100
AcDbLine
 10
-2026.844621429941
 20
-1835.111560767667
 30
0.0
 11
-2826.844621429941
 21
-1835.111560767667
 31
0.0
  0
LINE
  5
468
330
1F
100
AcDbEntity
  8
0-4
  6
Continuous
 62
    92
370
    13
100
AcDbLine
 10
-2726.844621429941
 20
-1500.111560767667
 30
0.0
 11
-2164.271028301134
 21
-1500.111560767667
 31
0.0
  0
LINE
  5
469
330
1F
100
AcDbEntity
  8
0-4
  6
Continuous
 62
    92
370
    13
100
AcDbLine
 10
-2726.844621429941
 20
-1495.111560767667
 30
0.0
 11
-2162.19996048927
 21
-1495.111560767667
 31
0.0
  0
LINE
  5
46A
330
1F
100
AcDbEntity
  8
0-4
  6
Continuous
 62
    92
370
    13
100
AcDbLine
 10
-2726.844621429941
 20
-1583.111560767667
 30
0.0
 11
-2246.844621429941
 21
-1583.111560767667
 31
0.0
  0
LINE
  5
46B
330
1F
100
AcDbEntity
  8
0-4
  6
Continuous
 62
    92
370
    13
100
AcDbLine
 10
-2726.844621429941
 20
-1495.111560767667
 30
0.0
 11
-2726.844621429941
 21
-1583.111560767667
 31
0.0
  0
LINE
  5
46C
330
1F
100
AcDbEntity
  8
0-B
  6
Continuous
 62
   120
370
     5
100
AcDbLine
 10
-2726.844621429941
 20
-1835.111560767667
 30
0.0
 11
-2126.844621429941
 21
-1835.111560767667
 31
0.0
  0
MTEXT
  5
46D
330
1F
100
AcDbEntity
  8
0-B
  6
Continuous
 62
     7
370
   211
100
AcDbMText
 10
-2836.844621429941
 20
-1596.251560767668
 30
0.0
 40
45.72
 41
90.0
 46
0.0
 71
     7
 72
     1
  1
{\fＭＳ ゴシック|b0|i0|c128|p49;8.8}
 11
6.123031769111886E-17
 21
1.0
 31
0.0
 73
     1
 44
1.0
  0
MTEXT
  5
46E
330
1F
100
AcDbEntity
  8
0-B
  6
Continuous
 62
     7
370
   211
100
AcDbMText
 10
-2786.555553920957
 20
-2214.332536918527
 30
0.0
 40
45.72
 41
90.0
 46
0.0
 71
     7
 72
     1
  1
{\fＭＳ ゴシック|b0|i0|c128|p49;8.8}
 11
6.123031769111886E-17
 21
1.0
 31
0.0
 73
     1
 44
1.0
  0
MTEXT
  5
46F
330
1F
100
AcDbEntity
  8
0-B
  6
Continuous
 62
     7
370
   211
100
AcDbMText
 10
-2459.344621429941
 20
-1392.251560767667
 30
0.0
 40
45.72
 41
60.0
 46
0.0
 71
     7
 72
     1
  1
{\fＭＳ ゴシック|b0|i0|c128|p49;60}
 73
     1
 44
1.0
  0
MTEXT
  5
470
330
1F
100
AcDbEntity
  8
0-B
  6
Continuous
 62
     7
370
   211
100
AcDbMText
 10
-2429.055244621179
 20
-2010.332536918527
 30
0.0
 40
45.72
 41
60.0
 46
0.0
 71
     7
 72
     1
  1
{\fＭＳ ゴシック|b0|i0|c128|p49;56}
 73
     1
 44
1.0
  0
MTEXT
  5
471
330
1F
100
AcDbEntity
  8
0-B
  6
Continuous
 62
     7
370
   211
100
AcDbMText
 10
-2469.055553920957
 20
-2450.332536918527
 30
0.0
 40
45.72
 41
60.0
 46
0.0
 71
     7
 72
     1
  1
{\fＭＳ ゴシック|b0|i0|c128|p49;48}
 73
     1
 44
1.0
  0
MTEXT
  5
472
330
1F
100
AcDbEntity
  8
0-B
  6
Continuous
 62
     7
370
   211
100
AcDbMText
 10
-2519.344621429941
 20
-1832.251560767667
 30
0.0
 40
45.72
 41
60.0
 46
0.0
 71
     7
 72
     1
  1
{\fＭＳ ゴシック|b0|i0|c128|p49;48}
 73
     1
 44
1.0
  0
MTEXT
  5
473
330
1F
100
AcDbEntity
  8
0-A
  6
Continuous
 62
     7
370
     9
100
AcDbMText
 10
-1443.333839210304
 20
-1365.889935111484
 30
0.0
 40
45.71999999999999
 41
390.0
 46
0.0
 71
     7
 72
     1
  1
{\fＭＳ ゴシック|b0|i0|c128|p49;3,900×60×24}
 73
     1
 44
1.0
  0
MTEXT
  5
474
330
1F
100
AcDbEntity
  8
0-A
  6
Continuous
 62
     7
370
     9
100
AcDbMText
 10
-1443.333839210304
 20
-1470.056608436688
 30
0.0
 40
45.71999999999999
 41
390.0
 46
0.0
 71
     7
 72
     1
  1
{\fＭＳ ゴシック|b0|i0|c128|p49;2,450×60×24}
 73
     1
 44
1.0
  0
MTEXT
  5
475
330
1F
100
AcDbEntity
  8
0-A
  6
Continuous
 62
     7
370
     9
100
AcDbMText
 10
-1443.333839210304
 20
-1574.223281761891
 30
0.0
 40
45.71999999999999
 41
390.0
 46
0.0
 71
     7
 72
     1
  1
{\fＭＳ ゴシック|b0|i0|c128|p49;2,075×60×24}
 73
     1
 44
1.0
  0
MTEXT
  5
476
330
1F
100
AcDbEntity
  8
0-A
  6
Continuous
 62
     7
370
     9
100
AcDbMText
 10
-933.3338392103044
 20
-1365.889935111484
 30
0.0
 40
45.71999999999999
 41
390.0
 46
0.0
 71
     7
 72
     1
  1
{\fＭＳ ゴシック|b0|i0|c128|p49;ＤＧＢＤ16-□}
 73
     1
 44
1.0
  0
MTEXT
  5
477
330
1F
100
AcDbEntity
  8
0-A
  6
Continuous
 62
     7
370
     9
100
AcDbMText
 10
-933.333839210304
 20
-1470.056608436688
 30
0.0
 40
45.71999999999999
 41
390.0
 46
0.0
 71
     7
 72
     1
  1
{\fＭＳ ゴシック|b0|i0|c128|p49;ＤＧＢＤ14-□}
 73
     1
 44
1.0
  0
MTEXT
  5
478
330
1F
100
AcDbEntity
  8
0-A
  6
Continuous
 62
     7
370
     9
100
AcDbMText
 10
-933.3338392103042
 20
-1574.223281761891
 30
0.0
 40
45.71999999999999
 41
390.0
 46
0.0
 71
     7
 72
     1
  1
{\fＭＳ ゴシック|b0|i0|c128|p49;ＤＧＢＤ13-□}
 73
     1
 44
1.0
  0
MTEXT
  5
479
330
1F
100
AcDbEntity
  8
0-A
  6
Continuous
 62
     7
370
     9
100
AcDbMText
 10
-1443.333839210304
 20
-1990.889975062706
 30
0.0
 40
45.71999999999999
 41
390.0
 46
0.0
 71
     7
 72
     1
  1
{\fＭＳ ゴシック|b0|i0|c128|p49;3,900×56×24}
 73
     1
 44
1.0
  0
MTEXT
  5
47A
330
1F
100
AcDbEntity
  8
0-A
  6
Continuous
 62
     7
370
     9
100
AcDbMText
 10
-1443.333839210304
 20
-2095.056648387909
 30
0.0
 40
45.71999999999999
 41
390.0
 46
0.0
 71
     7
 72
     1
  1
{\fＭＳ ゴシック|b0|i0|c128|p49;2,450×56×24}
 73
     1
 44
1.0
  0
MTEXT
  5
47B
330
1F
100
AcDbEntity
  8
0-A
  6
Continuous
 62
     7
370
     9
100
AcDbMText
 10
-1443.333839210304
 20
-2199.223321713112
 30
0.0
 40
45.71999999999999
 41
390.0
 46
0.0
 71
     7
 72
     1
  1
{\fＭＳ ゴシック|b0|i0|c128|p49;2,075×56×24}
 73
     1
 44
1.0
  0
MTEXT
  5
47C
330
1F
100
AcDbEntity
  8
0-A
  6
Continuous
 62
     7
370
     9
100
AcDbMText
 10
-933.3338392103042
 20
-1990.889975062706
 30
0.0
 40
45.71999999999999
 41
390.0
 46
0.0
 71
     7
 72
     1
  1
{\fＭＳ ゴシック|b0|i0|c128|p49;ＤＧＢＤ26-□}
 73
     1
 44
1.0
  0
MTEXT
  5
47D
330
1F
100
AcDbEntity
  8
0-A
  6
Continuous
 62
     7
370
     9
100
AcDbMText
 10
-933.3338392103044
 20
-2095.056648387909
 30
0.0
 40
45.71999999999999
 41
390.0
 46
0.0
 71
     7
 72
     1
  1
{\fＭＳ ゴシック|b0|i0|c128|p49;ＤＧＢＤ24-□}
 73
     1
 44
1.0
  0
MTEXT
  5
47E
330
1F
100
AcDbEntity
  8
0-A
  6
Continuous
 62
     7
370
     9
100
AcDbMText
 10
-933.3338392103042
 20
-2199.223321713112
 30
0.0
 40
45.71999999999999
 41
390.0
 46
0.0
 71
     7
 72
     1
  1
{\fＭＳ ゴシック|b0|i0|c128|p49;ＤＧＢＤ23-□}
 73
     1
 44
1.0
  0
MTEXT
  5
47F
330
1F
100
AcDbEntity
  8
0-A
  6
Continuous
 62
     7
370
     9
100
AcDbMText
 10
-368.3338392103036
 20
-2199.223321713112
 30
0.0
 40
45.72
 41
210.0
 46
0.0
 71
     7
 72
     1
  1
{\fＭＳ ゴシック|b0|i0|c128|p49;2(偶数)}
 73
     1
 44
1.0
  0
LINE
  5
480
330
1F
100
AcDbEntity
  8
F-1
  6
Continuous
 62
     7
370
     9
100
AcDbLine
 10
743.3330144108953
 20
2473.333641258446
 30
0.0
 11
743.3330144108953
 21
-2530.000002061998
 31
0.0
  0
MTEXT
  5
481
330
1F
100
AcDbEntity
  8
0-A
  6
Continuous
 62
     7
370
     0
100
AcDbMText
 10
633.3330144108953
 20
-1943.686658375714
 30
0.0
 40
60.96
 41
560.0
 46
0.0
 71
     7
 72
     1
  1
{\f@ＭＳ ゴシック|b0|i0|c128|p49;横 用（竪勝ち)}
 11
-1.836909530733566E-16
 21
-1.0
 31
0.0
 73
     1
 44
1.0
  0
MTEXT
  5
482
330
1F
100
AcDbEntity
  8
0-A
  6
Continuous
 62
     7
370
     0
100
AcDbMText
 10
633.3330144108953
 20
-1478.686618424493
 30
0.0
 40
60.96
 41
240.0
 46
0.0
 71
     7
 72
     1
  1
{\f@ＭＳ ゴシック|b0|i0|c128|p49;竪用・}
 11
-1.836909530733566E-16
 21
-1.0
 31
0.0
 73
     1
 44
1.0
  0
LINE
  5
483
330
1F
100
AcDbEntity
  8
F-1
  6
JWW_DASHED1
 62
     7
370
     9
100
AcDbLine
 10
603.3330144108953
 20
-1901.666638400104
 30
0.0
 11
3793.332651499156
 21
-1901.666638400104
 31
0.0
  0
MTEXT
  5
484
330
1F
100
AcDbEntity
  8
0-A
  6
Continuous
 62
     7
370
     9
100
AcDbMText
 10
53.33302729838636
 20
-1827.603428937172
 30
0.0
 40
60.96
 41
400.0
 46
0.0
 71
     7
 72
     1
  1
{\fＭＳ ゴシック|b0|i0|c128|p49;ケーシング}
 73
     1
 44
1.0
  0
MTEXT
  5
485
330
1F
100
AcDbEntity
  8
0-A
  6
Continuous
 62
     7
370
     9
100
AcDbMText
 10
53.33302729838636
 20
-1947.603428937172
 30
0.0
 40
60.96
 41
400.0
 46
0.0
 71
     7
 72
     1
  1
{\fＭＳ ゴシック|b0|i0|c128|p49;ラフカット}
 73
     1
 44
1.0
  0
MTEXT
  5
486
330
1F
100
AcDbEntity
  8
0-A
  6
Continuous
 62
     7
370
     9
100
AcDbMText
 10
173.3330272983864
 20
-2066.176601355455
 30
0.0
 40
60.96
 41
160.0
 46
0.0
 71
     7
 72
     1
  1
{\fＭＳ ゴシック|b0|i0|c128|p49;Ｏ型}
 73
     1
 44
1.0
  0
LINE
  5
487
330
1F
100
AcDbEntity
  8
0-B
  6
Continuous
 62
   120
370
     5
100
AcDbLine
 10
1808.259208346053
 20
-2026.548934397067
 30
0.0
 11
1772.903869286726
 21
-2061.904273456395
 31
0.0
  0
LINE
  5
488
330
1F
100
AcDbEntity
  8
0-B
  6
Continuous
 62
   120
370
     5
100
AcDbLine
 10
1794.117072722322
 20
-2012.406798773337
 30
0.0
 11
1758.761733662995
 21
-2047.762137832664
 31
0.0
  0
LWPOLYLINE
  5
489
330
1F
100
AcDbEntity
  8
0-B
  6
Continuous
 62
     7
370
     9
100
AcDbPolyline
 90
        4
 70
     1
 43
2.0
 10
1809.259208346053
 20
-2026.548934397067
 42
0.4142135623731
 10
1808.259208346053
 20
-2025.548934397068
 42
0.4142135623731
 10
1807.259208346054
 20
-2026.548934397067
 42
0.4142135623731
 10
1808.259208346053
 20
-2027.548934397067
 42
0.4142135623731
  0
LWPOLYLINE
  5
48A
330
1F
100
AcDbEntity
  8
0-B
  6
Continuous
 62
     7
370
     9
100
AcDbPolyline
 90
        4
 70
     1
 43
2.0
 10
1795.117072722322
 20
-2012.406798773337
 42
0.4142135623731
 10
1794.117072722322
 20
-2011.406798773337
 42
0.4142135623731
 10
1793.117072722323
 20
-2012.406798773337
 42
0.4142135623731
 10
1794.117072722322
 20
-2013.406798773337
 42
0.4142135623731
  0
LINE
  5
48B
330
1F
100
AcDbEntity
  8
0-B
  6
Continuous
 62
   120
370
     5
100
AcDbLine
 10
1794.117072722322
 20
-2012.406798773337
 30
0.0
 11
1808.259208346053
 21
-2026.548934397067
 31
0.0
  0
LINE
  5
48C
330
1F
100
AcDbEntity
  8
0-B
  6
Continuous
 62
   120
370
     5
100
AcDbLine
 10
1737.548530227399
 20
-1983.117476891991
 30
0.0
 11
1737.548530227399
 21
-2033.117476891991
 31
0.0
  0
LWPOLYLINE
  5
48D
330
1F
100
AcDbEntity
  8
0-B
  6
Continuous
 62
     7
370
     9
100
AcDbPolyline
 90
        4
 70
     1
 43
2.0
 10
1738.548530227399
 20
-1983.117476891991
 42
0.4142135623731
 10
1737.548530227399
 20
-1982.117476891991
 42
0.4142135623731
 10
1736.548530227399
 20
-1983.117476891991
 42
0.4142135623731
 10
1737.548530227399
 20
-1984.117476891991
 42
0.4142135623731
  0
LINE
  5
48E
330
1F
100
AcDbEntity
  8
0-0
  6
JWW_HOJO
 62
     7
370
     9
100
AcDbLine
 10
1837.548530227399
 20
-2055.838256278413
 30
0.0
 11
1837.548530227399
 21
-2506.38203181972
 31
0.0
  0
LINE
  5
48F
330
1F
100
AcDbEntity
  8
0-0
  6
JWW_HOJO
 62
     7
370
     9
100
AcDbLine
 10
1837.548530227399
 20
-2055.838256278413
 30
0.0
 11
1764.827750840977
 21
-1983.117476891991
 31
0.0
  0
LINE
  5
490
330
1F
100
AcDbEntity
  8
0-0
  6
JWW_HOJO
 62
     7
370
     9
100
AcDbLine
 10
1787.548530227399
 20
-2076.548934397068
 30
0.0
 11
1744.117072722322
 21
-2033.117476891991
 31
0.0
  0
LINE
  5
491
330
1F
100
AcDbEntity
  8
0-0
  6
JWW_HOJO
 62
     7
370
     9
100
AcDbLine
 10
1787.548530227399
 20
-2076.548934397068
 30
0.0
 11
1787.548530227399
 21
-2456.38203181972
 31
0.0
  0
LINE
  5
492
330
1F
100
AcDbEntity
  8
0-4
  6
Continuous
 62
    92
370
    13
100
AcDbLine
 10
1732.548530227399
 20
-2428.117476891991
 30
0.0
 11
1732.548530227399
 21
-2099.330680327588
 31
0.0
  0
LINE
  5
493
330
1F
100
AcDbEntity
  8
0-4
  6
Continuous
 62
    92
370
    13
100
AcDbLine
 10
1732.548530227399
 20
-2099.330680327588
 30
0.0
 11
1721.335326791802
 21
-2088.117476891991
 31
0.0
  0
LINE
  5
494
330
1F
100
AcDbEntity
  8
0-4
  6
Continuous
 62
    92
370
    13
100
AcDbLine
 10
1737.548530227399
 20
-2097.259612515722
 30
0.0
 11
1723.406394603668
 21
-2083.117476891991
 31
0.0
  0
LINE
  5
495
330
1F
100
AcDbEntity
  8
0-4
  6
Continuous
 62
    92
370
    13
100
AcDbLine
 10
1737.548530227399
 20
-2097.259612515722
 30
0.0
 11
1737.548530227399
 21
-2433.117476891991
 31
0.0
  0
LINE
  5
496
330
1F
100
AcDbEntity
  8
0-B
  6
Continuous
 62
   120
370
     5
100
AcDbLine
 10
1769.870860697735
 20
-1389.109522616078
 30
0.0
 11
1737.548530227399
 21
-1421.431853086415
 31
0.0
  0
LINE
  5
497
330
1F
100
AcDbEntity
  8
0-B
  6
Continuous
 62
   120
370
     5
100
AcDbLine
 10
1805.226199757062
 20
-1424.464861675405
 30
0.0
 11
1772.903869286726
 21
-1456.787192145742
 31
0.0
  0
LWPOLYLINE
  5
498
330
1F
100
AcDbEntity
  8
0-B
  6
Continuous
 62
     7
370
     9
100
AcDbPolyline
 90
        4
 70
     1
 43
2.0
 10
1770.870860697735
 20
-1389.109522616078
 42
0.4142135623731
 10
1769.870860697735
 20
-1388.109522616078
 42
0.4142135623731
 10
1768.870860697735
 20
-1389.109522616078
 42
0.4142135623731
 10
1769.870860697735
 20
-1390.109522616078
 42
0.4142135623731
  0
LWPOLYLINE
  5
499
330
1F
100
AcDbEntity
  8
0-B
  6
Continuous
 62
     7
370
     9
100
AcDbPolyline
 90
        4
 70
     1
 43
2.0
 10
1806.226199757062
 20
-1424.464861675405
 42
0.4142135623731
 10
1805.226199757062
 20
-1423.464861675405
 42
0.4142135623731
 10
1804.226199757063
 20
-1424.464861675405
 42
0.4142135623731
 10
1805.226199757062
 20
-1425.464861675405
 42
0.4142135623731
  0
LINE
  5
49A
330
1F
100
AcDbEntity
  8
0-B
  6
Continuous
 62
   120
370
     5
100
AcDbLine
 10
1805.226199757062
 20
-1424.464861675405
 30
0.0
 11
1769.870860697735
 21
-1389.109522616078
 31
0.0
  0
LINE
  5
49B
330
1F
100
AcDbEntity
  8
0-B
  6
Continuous
 62
   120
370
     5
100
AcDbLine
 10
1737.548530227399
 20
-1356.787192145742
 30
0.0
 11
1737.548530227399
 21
-1406.787192145742
 31
0.0
  0
LWPOLYLINE
  5
49C
330
1F
100
AcDbEntity
  8
0-B
  6
Continuous
 62
     7
370
     9
100
AcDbPolyline
 90
        4
 70
     1
 43
2.0
 10
1738.548530227399
 20
-1356.787192145742
 42
0.4142135623731
 10
1737.548530227399
 20
-1355.787192145742
 42
0.4142135623731
 10
1736.548530227399
 20
-1356.787192145742
 42
0.4142135623731
 10
1737.548530227399
 20
-1357.787192145742
 42
0.4142135623731
  0
LINE
  5
49D
330
1F
100
AcDbEntity
  8
0-0
  6
JWW_HOJO
 62
     7
370
     9
100
AcDbLine
 10
1722.903869286726
 20
-1406.787192145742
 30
0.0
 11
1787.548530227399
 21
-1471.431853086415
 31
0.0
  0
LINE
  5
49E
330
1F
100
AcDbEntity
  8
0-0
  6
JWW_HOJO
 62
     7
370
     9
100
AcDbLine
 10
1787.548530227399
 20
-1471.431853086415
 30
0.0
 11
1787.548530227399
 21
-1830.051747073471
 31
0.0
  0
LINE
  5
49F
330
1F
100
AcDbEntity
  8
0-0
  6
JWW_HOJO
 62
     7
370
     9
100
AcDbLine
 10
1837.548530227399
 20
-1450.72117496776
 30
0.0
 11
1837.548530227399
 21
-1880.051747073471
 31
0.0
  0
LINE
  5
4A0
330
1F
100
AcDbEntity
  8
0-0
  6
JWW_HOJO
 62
     7
370
     9
100
AcDbLine
 10
1743.614547405381
 20
-1356.787192145742
 30
0.0
 11
1837.548530227399
 21
-1450.72117496776
 31
0.0
  0
LINE
  5
4A1
330
1F
100
AcDbEntity
  8
0-4
  6
Continuous
 62
    92
370
    13
100
AcDbLine
 10
1700.122123356206
 20
-1461.787192145742
 30
0.0
 11
1732.548530227399
 21
-1494.213599016935
 31
0.0
  0
LINE
  5
4A2
330
1F
100
AcDbEntity
  8
0-4
  6
Continuous
 62
    92
370
    13
100
AcDbLine
 10
1732.548530227399
 20
-1801.787192145742
 30
0.0
 11
1732.548530227399
 21
-1494.213599016935
 31
0.0
  0
LINE
  5
4A3
330
1F
100
AcDbEntity
  8
0-4
  6
Continuous
 62
    92
370
    13
100
AcDbLine
 10
1702.193191168072
 20
-1456.787192145742
 30
0.0
 11
1737.548530227399
 21
-1492.142531205069
 31
0.0
  0
LINE
  5
4A4
330
1F
100
AcDbEntity
  8
0-4
  6
Continuous
 62
    92
370
    13
100
AcDbLine
 10
1737.548530227399
 20
-1492.142531205069
 30
0.0
 11
1737.548530227399
 21
-1806.787192145742
 31
0.0
  0
LINE
  5
4A5
330
1F
100
AcDbEntity
  8
0-B
  6
Continuous
 62
   120
370
     5
100
AcDbLine
 10
1737.548530227399
 20
-2506.38203181972
 30
0.0
 11
1737.548530227399
 21
-2456.38203181972
 31
0.0
  0
LWPOLYLINE
  5
4A6
330
1F
100
AcDbEntity
  8
0-B
  6
Continuous
 62
     7
370
     9
100
AcDbPolyline
 90
        4
 70
     1
 43
2.0
 10
1738.548530227399
 20
-2506.38203181972
 42
0.4142135623731
 10
1737.548530227399
 20
-2505.38203181972
 42
0.4142135623731
 10
1736.548530227399
 20
-2506.38203181972
 42
0.4142135623731
 10
1737.548530227399
 20
-2507.38203181972
 42
0.4142135623731
  0
LINE
  5
4A7
330
1F
100
AcDbEntity
  8
0-B
  6
Continuous
 62
   120
370
     5
100
AcDbLine
 10
1657.548530227399
 20
-2506.38203181972
 30
0.0
 11
1657.548530227399
 21
-2456.38203181972
 31
0.0
  0
LWPOLYLINE
  5
4A8
330
1F
100
AcDbEntity
  8
0-B
  6
Continuous
 62
     7
370
     9
100
AcDbPolyline
 90
        4
 70
     1
 43
2.0
 10
1658.548530227399
 20
-2506.38203181972
 42
0.4142135623731
 10
1657.548530227399
 20
-2505.38203181972
 42
0.4142135623731
 10
1656.548530227399
 20
-2506.38203181972
 42
0.4142135623731
 10
1657.548530227399
 20
-2507.38203181972
 42
0.4142135623731
  0
LINE
  5
4A9
330
1F
100
AcDbEntity
  8
0-B
  6
Continuous
 62
   120
370
     5
100
AcDbLine
 10
1837.548530227399
 20
-2433.117476891991
 30
0.0
 11
1787.548530227399
 21
-2433.117476891991
 31
0.0
  0
LINE
  5
4AA
330
1F
100
AcDbEntity
  8
0-B
  6
Continuous
 62
   120
370
     5
100
AcDbLine
 10
1837.548530227399
 20
-2083.117476891991
 30
0.0
 11
1787.548530227399
 21
-2083.117476891991
 31
0.0
  0
LWPOLYLINE
  5
4AB
330
1F
100
AcDbEntity
  8
0-B
  6
Continuous
 62
     7
370
     9
100
AcDbPolyline
 90
        4
 70
     1
 43
2.0
 10
1838.548530227399
 20
-2433.117476891991
 42
0.4142135623731
 10
1837.548530227399
 20
-2432.117476891991
 42
0.4142135623731
 10
1836.548530227399
 20
-2433.117476891991
 42
0.4142135623731
 10
1837.548530227399
 20
-2434.117476891991
 42
0.4142135623731
  0
LWPOLYLINE
  5
4AC
330
1F
100
AcDbEntity
  8
0-B
  6
Continuous
 62
     7
370
     9
100
AcDbPolyline
 90
        4
 70
     1
 43
2.0
 10
1838.548530227399
 20
-2083.117476891991
 42
0.4142135623731
 10
1837.548530227399
 20
-2082.117476891991
 42
0.4142135623731
 10
1836.548530227399
 20
-2083.117476891991
 42
0.4142135623731
 10
1837.548530227399
 20
-2084.117476891991
 42
0.4142135623731
  0
LINE
  5
4AD
330
1F
100
AcDbEntity
  8
0-B
  6
Continuous
 62
   120
370
     5
100
AcDbLine
 10
1837.548530227399
 20
-2083.117476891991
 30
0.0
 11
1837.548530227399
 21
-2433.117476891991
 31
0.0
  0
LINE
  5
4AE
330
1F
100
AcDbEntity
  8
0-4
  6
Continuous
 62
    92
370
    13
100
AcDbLine
 10
1657.548530227399
 20
-2428.117476891991
 30
0.0
 11
1732.548530227399
 21
-2428.117476891991
 31
0.0
  0
LINE
  5
4AF
330
1F
100
AcDbEntity
  8
0-4
  6
Continuous
 62
    92
370
    13
100
AcDbLine
 10
1657.548530227399
 20
-2433.117476891991
 30
0.0
 11
1737.548530227399
 21
-2433.117476891991
 31
0.0
  0
LINE
  5
4B0
330
1F
100
AcDbEntity
  8
0-4
  6
Continuous
 62
    92
370
    13
100
AcDbLine
 10
1657.548530227399
 20
-2433.117476891991
 30
0.0
 11
1657.548530227399
 21
-2171.117476891991
 31
0.0
  0
LINE
  5
4B1
330
1F
100
AcDbEntity
  8
0-B
  6
Continuous
 62
   120
370
     5
100
AcDbLine
 10
1737.548530227399
 20
-1880.051747073471
 30
0.0
 11
1737.548530227399
 21
-1830.051747073471
 31
0.0
  0
LWPOLYLINE
  5
4B2
330
1F
100
AcDbEntity
  8
0-B
  6
Continuous
 62
     7
370
     9
100
AcDbPolyline
 90
        4
 70
     1
 43
2.0
 10
1738.548530227399
 20
-1880.051747073471
 42
0.4142135623731
 10
1737.548530227399
 20
-1879.051747073471
 42
0.4142135623731
 10
1736.548530227399
 20
-1880.051747073471
 42
0.4142135623731
 10
1737.548530227399
 20
-1881.051747073471
 42
0.4142135623731
  0
LINE
  5
4B3
330
1F
100
AcDbEntity
  8
0-B
  6
Continuous
 62
   120
370
     5
100
AcDbLine
 10
1617.548530227399
 20
-1880.051747073471
 30
0.0
 11
1617.548530227399
 21
-1830.051747073471
 31
0.0
  0
LWPOLYLINE
  5
4B4
330
1F
100
AcDbEntity
  8
0-B
  6
Continuous
 62
     7
370
     9
100
AcDbPolyline
 90
        4
 70
     1
 43
2.0
 10
1618.548530227399
 20
-1880.051747073471
 42
0.4142135623731
 10
1617.548530227399
 20
-1879.051747073471
 42
0.4142135623731
 10
1616.548530227399
 20
-1880.051747073471
 42
0.4142135623731
 10
1617.548530227399
 20
-1881.051747073471
 42
0.4142135623731
  0
LINE
  5
4B5
330
1F
100
AcDbEntity
  8
0-B
  6
Continuous
 62
   120
370
     5
100
AcDbLine
 10
1837.548530227399
 20
-1806.787192145742
 30
0.0
 11
1787.548530227399
 21
-1806.787192145742
 31
0.0
  0
LINE
  5
4B6
330
1F
100
AcDbEntity
  8
0-B
  6
Continuous
 62
   120
370
     5
100
AcDbLine
 10
1837.548530227399
 20
-1456.787192145742
 30
0.0
 11
1787.548530227399
 21
-1456.787192145742
 31
0.0
  0
LWPOLYLINE
  5
4B7
330
1F
100
AcDbEntity
  8
0-B
  6
Continuous
 62
     7
370
     9
100
AcDbPolyline
 90
        4
 70
     1
 43
2.0
 10
1838.548530227399
 20
-1806.787192145742
 42
0.4142135623731
 10
1837.548530227399
 20
-1805.787192145742
 42
0.4142135623731
 10
1836.548530227399
 20
-1806.787192145742
 42
0.4142135623731
 10
1837.548530227399
 20
-1807.787192145742
 42
0.4142135623731
  0
LWPOLYLINE
  5
4B8
330
1F
100
AcDbEntity
  8
0-B
  6
Continuous
 62
     7
370
     9
100
AcDbPolyline
 90
        4
 70
     1
 43
2.0
 10
1838.548530227399
 20
-1456.787192145742
 42
0.4142135623731
 10
1837.548530227399
 20
-1455.787192145742
 42
0.4142135623731
 10
1836.548530227399
 20
-1456.787192145742
 42
0.4142135623731
 10
1837.548530227399
 20
-1457.787192145742
 42
0.4142135623731
  0
LINE
  5
4B9
330
1F
100
AcDbEntity
  8
0-B
  6
Continuous
 62
   120
370
     5
100
AcDbLine
 10
1837.548530227399
 20
-1456.787192145742
 30
0.0
 11
1837.548530227399
 21
-1806.787192145742
 31
0.0
  0
LINE
  5
4BA
330
1F
100
AcDbEntity
  8
0-4
  6
Continuous
 62
    92
370
    13
100
AcDbLine
 10
1617.548530227399
 20
-1801.787192145742
 30
0.0
 11
1732.548530227399
 21
-1801.787192145742
 31
0.0
  0
LINE
  5
4BB
330
1F
100
AcDbEntity
  8
0-4
  6
Continuous
 62
    92
370
    13
100
AcDbLine
 10
1617.548530227399
 20
-1806.787192145742
 30
0.0
 11
1737.548530227399
 21
-1806.787192145742
 31
0.0
  0
LINE
  5
4BC
330
1F
100
AcDbEntity
  8
0-4
  6
Continuous
 62
    92
370
    13
100
AcDbLine
 10
1617.548530227399
 20
-1806.787192145742
 30
0.0
 11
1617.548530227399
 21
-1544.787192145742
 31
0.0
  0
MTEXT
  5
4BD
330
1F
100
AcDbEntity
  8
0-B
  6
Continuous
 62
     7
370
   211
100
AcDbMText
 10
1784.012996321466
 20
-1396.249522616078
 30
0.0
 40
45.71999999999976
 41
29.99999999999984
 46
0.0
 71
     7
 72
     1
  1
{\fＭＳ ゴシック|b0|i0|c128|p49;5}
 11
0.7071067811865474
 21
-0.7071067811865477
 31
0.0
 73
     1
 44
1.0
  0
MTEXT
  5
4BE
330
1F
100
AcDbEntity
  8
0-B
  6
Continuous
 62
     7
370
   211
100
AcDbMText
 10
1827.548530227399
 20
-1669.522192145741
 30
0.0
 40
49.53
 41
65.0
 46
0.0
 71
     7
 72
     1
  1
{\fＭＳ ゴシック|b0|i0|c128|p49;35}
 11
6.123031769111886E-17
 21
1.0
 31
0.0
 73
     1
 44
1.0
  0
MTEXT
  5
4BF
330
1F
100
AcDbEntity
  8
0-B
  6
Continuous
 62
     7
370
   211
100
AcDbMText
 10
1645.048530227399
 20
-1885.088008330201
 30
0.0
 40
49.53
 41
65.0
 46
0.0
 71
     7
 72
     1
  1
{\fＭＳ ゴシック|b0|i0|c128|p49;12}
 73
     1
 44
1.0
  0
MTEXT
  5
4C0
330
1F
100
AcDbEntity
  8
0-B
  6
Continuous
 62
     7
370
   211
100
AcDbMText
 10
1797.652606628255
 20
-2008.940197055539
 30
0.0
 40
45.71999999999976
 41
29.99999999999984
 46
0.0
 71
     7
 72
     1
  1
{\fＭＳ ゴシック|b0|i0|c128|p49;2}
 11
0.7071067811865568
 21
-0.7071067811865382
 31
0.0
 73
     1
 44
1.0
  0
MTEXT
  5
4C1
330
1F
100
AcDbEntity
  8
0-B
  6
Continuous
 62
     7
370
   211
100
AcDbMText
 10
1827.548530227399
 20
-2295.852476891991
 30
0.0
 40
49.53
 41
65.0
 46
0.0
 71
     7
 72
     1
  1
{\fＭＳ ゴシック|b0|i0|c128|p49;35}
 11
6.123031769111886E-17
 21
1.0
 31
0.0
 73
     1
 44
1.0
  0
MTEXT
  5
4C2
330
1F
100
AcDbEntity
  8
0-B
  6
Continuous
 62
     7
370
   211
100
AcDbMText
 10
1682.548530227399
 20
-2513.32329307645
 30
0.0
 40
45.72
 41
30.0
 46
0.0
 71
     7
 72
     1
  1
{\fＭＳ ゴシック|b0|i0|c128|p49;8}
 73
     1
 44
1.0
  0
LINE
  5
4C3
330
1F
100
AcDbEntity
  8
0-B
  6
Continuous
 62
   120
370
     5
100
AcDbLine
 10
1077.548530227399
 20
-1983.117476891991
 30
0.0
 11
1077.548530227399
 21
-2033.117476891991
 31
0.0
  0
LINE
  5
4C4
330
1F
100
AcDbEntity
  8
0-B
  6
Continuous
 62
   120
370
     5
100
AcDbLine
 10
1077.548530227399
 20
-1983.117476891991
 30
0.0
 11
1737.548530227399
 21
-1983.117476891991
 31
0.0
  0
LWPOLYLINE
  5
4C5
330
1F
100
AcDbEntity
  8
0-B
  6
Continuous
 62
     7
370
     9
100
AcDbPolyline
 90
        4
 70
     1
 43
2.0
 10
1078.548530227399
 20
-1983.117476891991
 42
0.4142135623731
 10
1077.548530227399
 20
-1982.117476891991
 42
0.4142135623731
 10
1076.548530227399
 20
-1983.117476891991
 42
0.4142135623731
 10
1077.548530227399
 20
-1984.117476891991
 42
0.4142135623731
  0
LINE
  5
4C6
330
1F
100
AcDbEntity
  8
0-0
  6
JWW_HOJO
 62
     7
370
     9
100
AcDbLine
 10
977.5485302273989
 20
-1983.117476891991
 30
0.0
 11
977.5485302273989
 21
-2506.38203181972
 31
0.0
  0
LINE
  5
4C7
330
1F
100
AcDbEntity
  8
0-0
  6
JWW_HOJO
 62
     7
370
     9
100
AcDbLine
 10
1764.827750840977
 20
-1983.117476891991
 30
0.0
 11
977.5485302273989
 21
-1983.117476891991
 31
0.0
  0
LINE
  5
4C8
330
1F
100
AcDbEntity
  8
0-0
  6
JWW_HOJO
 62
     7
370
     9
100
AcDbLine
 10
1744.117072722322
 20
-2033.117476891991
 30
0.0
 11
1027.548530227399
 21
-2033.117476891991
 31
0.0
  0
LINE
  5
4C9
330
1F
100
AcDbEntity
  8
0-0
  6
JWW_HOJO
 62
     7
370
     9
100
AcDbLine
 10
1027.548530227399
 20
-2033.117476891991
 30
0.0
 11
1027.548530227399
 21
-2456.38203181972
 31
0.0
  0
LINE
  5
4CA
330
1F
100
AcDbEntity
  8
0-4
  6
Continuous
 62
    92
370
    13
100
AcDbLine
 10
1077.548530227399
 20
-2088.117476891991
 30
0.0
 11
1721.335326791802
 21
-2088.117476891991
 31
0.0
  0
LINE
  5
4CB
330
1F
100
AcDbEntity
  8
0-4
  6
Continuous
 62
    92
370
    13
100
AcDbLine
 10
1723.406394603668
 20
-2083.117476891991
 30
0.0
 11
1077.548530227399
 21
-2083.117476891991
 31
0.0
  0
LINE
  5
4CC
330
1F
100
AcDbEntity
  8
0-B
  6
Continuous
 62
   120
370
     5
100
AcDbLine
 10
1037.548530227399
 20
-1356.787192145742
 30
0.0
 11
1037.548530227399
 21
-1406.787192145742
 31
0.0
  0
LWPOLYLINE
  5
4CD
330
1F
100
AcDbEntity
  8
0-B
  6
Continuous
 62
     7
370
     9
100
AcDbPolyline
 90
        4
 70
     1
 43
2.0
 10
1038.548530227399
 20
-1356.787192145742
 42
0.4142135623731
 10
1037.548530227399
 20
-1355.787192145742
 42
0.4142135623731
 10
1036.548530227399
 20
-1356.787192145742
 42
0.4142135623731
 10
1037.548530227399
 20
-1357.787192145742
 42
0.4142135623731
  0
LINE
  5
4CE
330
1F
100
AcDbEntity
  8
0-B
  6
Continuous
 62
   120
370
     5
100
AcDbLine
 10
1037.548530227399
 20
-1356.787192145742
 30
0.0
 11
1737.548530227399
 21
-1356.787192145742
 31
0.0
  0
LINE
  5
4CF
330
1F
100
AcDbEntity
  8
0-0
  6
JWW_HOJO
 62
     7
370
     9
100
AcDbLine
 10
987.5485302273989
 20
-1406.787192145742
 30
0.0
 11
987.5485302273989
 21
-1830.051747073471
 31
0.0
  0
LINE
  5
4D0
330
1F
100
AcDbEntity
  8
0-0
  6
JWW_HOJO
 62
     7
370
     9
100
AcDbLine
 10
1722.903869286726
 20
-1406.787192145742
 30
0.0
 11
987.5485302273989
 21
-1406.787192145742
 31
0.0
  0
LINE
  5
4D1
330
1F
100
AcDbEntity
  8
0-0
  6
JWW_HOJO
 62
     7
370
     9
100
AcDbLine
 10
1743.614547405381
 20
-1356.787192145742
 30
0.0
 11
937.5485302273989
 21
-1356.787192145742
 31
0.0
  0
LINE
  5
4D2
330
1F
100
AcDbEntity
  8
0-0
  6
JWW_HOJO
 62
     7
370
     9
100
AcDbLine
 10
937.5485302273989
 20
-1356.787192145742
 30
0.0
 11
937.5485302273989
 21
-1880.051747073471
 31
0.0
  0
LINE
  5
4D3
330
1F
100
AcDbEntity
  8
0-4
  6
Continuous
 62
    92
370
    13
100
AcDbLine
 10
1037.548530227399
 20
-1461.787192145742
 30
0.0
 11
1700.122123356206
 21
-1461.787192145742
 31
0.0
  0
LINE
  5
4D4
330
1F
100
AcDbEntity
  8
0-4
  6
Continuous
 62
    92
370
    13
100
AcDbLine
 10
1702.193191168072
 20
-1456.787192145742
 30
0.0
 11
1037.548530227399
 21
-1456.787192145742
 31
0.0
  0
LINE
  5
4D5
330
1F
100
AcDbEntity
  8
0-B
  6
Continuous
 62
   120
370
     5
100
AcDbLine
 10
1077.548530227399
 20
-2506.38203181972
 30
0.0
 11
1077.548530227399
 21
-2456.38203181972
 31
0.0
  0
LWPOLYLINE
  5
4D6
330
1F
100
AcDbEntity
  8
0-B
  6
Continuous
 62
     7
370
     9
100
AcDbPolyline
 90
        4
 70
     1
 43
2.0
 10
1078.548530227399
 20
-2506.38203181972
 42
0.4142135623731
 10
1077.548530227399
 20
-2505.38203181972
 42
0.4142135623731
 10
1076.548530227399
 20
-2506.38203181972
 42
0.4142135623731
 10
1077.548530227399
 20
-2507.38203181972
 42
0.4142135623731
  0
LINE
  5
4D7
330
1F
100
AcDbEntity
  8
0-B
  6
Continuous
 62
   120
370
     5
100
AcDbLine
 10
1077.548530227399
 20
-2506.38203181972
 30
0.0
 11
1737.548530227399
 21
-2506.38203181972
 31
0.0
  0
LINE
  5
4D8
330
1F
100
AcDbEntity
  8
0-0
  6
JWW_HOJO
 62
     7
370
     9
100
AcDbLine
 10
977.5485302273989
 20
-2506.38203181972
 30
0.0
 11
1837.548530227399
 21
-2506.38203181972
 31
0.0
  0
LINE
  5
4D9
330
1F
100
AcDbEntity
  8
0-0
  6
JWW_HOJO
 62
     7
370
     9
100
AcDbLine
 10
1027.548530227399
 20
-2456.38203181972
 30
0.0
 11
1787.548530227399
 21
-2456.38203181972
 31
0.0
  0
LINE
  5
4DA
330
1F
100
AcDbEntity
  8
0-B
  6
Continuous
 62
   120
370
     5
100
AcDbLine
 10
977.5485302273989
 20
-2171.117476891991
 30
0.0
 11
1027.548530227399
 21
-2171.117476891991
 31
0.0
  0
LINE
  5
4DB
330
1F
100
AcDbEntity
  8
0-B
  6
Continuous
 62
   120
370
     5
100
AcDbLine
 10
977.5485302273989
 20
-2083.117476891991
 30
0.0
 11
1027.548530227399
 21
-2083.117476891991
 31
0.0
  0
LWPOLYLINE
  5
4DC
330
1F
100
AcDbEntity
  8
0-B
  6
Continuous
 62
     7
370
     9
100
AcDbPolyline
 90
        4
 70
     1
 43
2.0
 10
978.5485302273989
 20
-2171.117476891991
 42
0.4142135623731
 10
977.5485302273989
 20
-2170.117476891991
 42
0.4142135623731
 10
976.5485302273989
 20
-2171.117476891991
 42
0.4142135623731
 10
977.5485302273989
 20
-2172.117476891991
 42
0.4142135623731
  0
LWPOLYLINE
  5
4DD
330
1F
100
AcDbEntity
  8
0-B
  6
Continuous
 62
     7
370
     9
100
AcDbPolyline
 90
        4
 70
     1
 43
2.0
 10
978.5485302273989
 20
-2083.117476891991
 42
0.4142135623731
 10
977.5485302273989
 20
-2082.117476891991
 42
0.4142135623731
 10
976.5485302273989
 20
-2083.117476891991
 42
0.4142135623731
 10
977.5485302273989
 20
-2084.117476891991
 42
0.4142135623731
  0
LINE
  5
4DE
330
1F
100
AcDbEntity
  8
0-B
  6
Continuous
 62
   120
370
     5
100
AcDbLine
 10
977.5485302273989
 20
-2083.117476891991
 30
0.0
 11
977.5485302273989
 21
-2171.117476891991
 31
0.0
  0
LINE
  5
4DF
330
1F
100
AcDbEntity
  8
0-4
  6
Continuous
 62
    92
370
    13
100
AcDbLine
 10
1077.548530227399
 20
-2171.117476891991
 30
0.0
 11
1657.548530227399
 21
-2171.117476891991
 31
0.0
  0
LINE
  5
4E0
330
1F
100
AcDbEntity
  8
0-4
  6
Continuous
 62
    92
370
    13
100
AcDbLine
 10
1077.548530227399
 20
-2083.117476891991
 30
0.0
 11
1077.548530227399
 21
-2171.117476891991
 31
0.0
  0
LINE
  5
4E1
330
1F
100
AcDbEntity
  8
0-B
  6
Continuous
 62
   120
370
     5
100
AcDbLine
 10
1037.548530227399
 20
-1880.051747073471
 30
0.0
 11
1037.548530227399
 21
-1830.051747073471
 31
0.0
  0
LWPOLYLINE
  5
4E2
330
1F
100
AcDbEntity
  8
0-B
  6
Continuous
 62
     7
370
     9
100
AcDbPolyline
 90
        4
 70
     1
 43
2.0
 10
1038.548530227399
 20
-1880.051747073471
 42
0.4142135623731
 10
1037.548530227399
 20
-1879.051747073471
 42
0.4142135623731
 10
1036.548530227399
 20
-1880.051747073471
 42
0.4142135623731
 10
1037.548530227399
 20
-1881.051747073471
 42
0.4142135623731
  0
LINE
  5
4E3
330
1F
100
AcDbEntity
  8
0-0
  6
JWW_HOJO
 62
     7
370
     9
100
AcDbLine
 10
937.5485302273989
 20
-1880.051747073471
 30
0.0
 11
1837.548530227399
 21
-1880.051747073471
 31
0.0
  0
LINE
  5
4E4
330
1F
100
AcDbEntity
  8
0-0
  6
JWW_HOJO
 62
     7
370
     9
100
AcDbLine
 10
987.5485302273989
 20
-1830.051747073471
 30
0.0
 11
1787.548530227399
 21
-1830.051747073471
 31
0.0
  0
LINE
  5
4E5
330
1F
100
AcDbEntity
  8
0-B
  6
Continuous
 62
   120
370
     5
100
AcDbLine
 10
1037.548530227399
 20
-1880.051747073471
 30
0.0
 11
1737.548530227399
 21
-1880.051747073471
 31
0.0
  0
LINE
  5
4E6
330
1F
100
AcDbEntity
  8
0-B
  6
Continuous
 62
   120
370
     5
100
AcDbLine
 10
937.5485302273989
 20
-1544.787192145742
 30
0.0
 11
987.5485302273989
 21
-1544.787192145742
 31
0.0
  0
LINE
  5
4E7
330
1F
100
AcDbEntity
  8
0-B
  6
Continuous
 62
   120
370
     5
100
AcDbLine
 10
937.5485302273989
 20
-1456.787192145742
 30
0.0
 11
987.5485302273989
 21
-1456.787192145742
 31
0.0
  0
LWPOLYLINE
  5
4E8
330
1F
100
AcDbEntity
  8
0-B
  6
Continuous
 62
     7
370
     9
100
AcDbPolyline
 90
        4
 70
     1
 43
2.0
 10
938.5485302273989
 20
-1544.787192145742
 42
0.4142135623731
 10
937.5485302273989
 20
-1543.787192145742
 42
0.4142135623731
 10
936.5485302273989
 20
-1544.787192145742
 42
0.4142135623731
 10
937.5485302273989
 20
-1545.787192145742
 42
0.4142135623731
  0
LWPOLYLINE
  5
4E9
330
1F
100
AcDbEntity
  8
0-B
  6
Continuous
 62
     7
370
     9
100
AcDbPolyline
 90
        4
 70
     1
 43
2.0
 10
938.5485302273989
 20
-1456.787192145742
 42
0.4142135623731
 10
937.5485302273989
 20
-1455.787192145742
 42
0.4142135623731
 10
936.5485302273989
 20
-1456.787192145742
 42
0.4142135623731
 10
937.5485302273989
 20
-1457.787192145742
 42
0.4142135623731
  0
LINE
  5
4EA
330
1F
100
AcDbEntity
  8
0-B
  6
Continuous
 62
   120
370
     5
100
AcDbLine
 10
937.5485302273989
 20
-1456.787192145742
 30
0.0
 11
937.5485302273989
 21
-1544.787192145742
 31
0.0
  0
LINE
  5
4EB
330
1F
100
AcDbEntity
  8
0-4
  6
Continuous
 62
    92
370
    13
100
AcDbLine
 10
1037.548530227399
 20
-1544.787192145742
 30
0.0
 11
1617.548530227399
 21
-1544.787192145742
 31
0.0
  0
LINE
  5
4EC
330
1F
100
AcDbEntity
  8
0-4
  6
Continuous
 62
    92
370
    13
100
AcDbLine
 10
1037.548530227399
 20
-1456.787192145742
 30
0.0
 11
1037.548530227399
 21
-1544.787192145742
 31
0.0
  0
MTEXT
  5
4ED
330
1F
100
AcDbEntity
  8
0-B
  6
Continuous
 62
     7
370
   211
100
AcDbMText
 10
927.5485302273989
 20
-1555.387192145742
 30
0.0
 40
50.8
 41
100.0
 46
0.0
 71
     7
 72
     1
  1
{\fＭＳ ゴシック|b0|i0|c128|p49;8.8}
 11
6.123031769111886E-17
 21
1.0
 31
0.0
 73
     1
 44
1.0
  0
MTEXT
  5
4EE
330
1F
100
AcDbEntity
  8
0-B
  6
Continuous
 62
     7
370
   211
100
AcDbMText
 10
967.5485302273989
 20
-2181.717476891991
 30
0.0
 40
50.8
 41
100.0
 46
0.0
 71
     7
 72
     1
  1
{\fＭＳ ゴシック|b0|i0|c128|p49;8.8}
 11
6.123031769111886E-17
 21
1.0
 31
0.0
 73
     1
 44
1.0
  0
MTEXT
  5
4EF
330
1F
100
AcDbEntity
  8
0-B
  6
Continuous
 62
     7
370
   211
100
AcDbMText
 10
1335.048530227399
 20
-2511.41829307645
 30
0.0
 40
49.53
 41
65.0
 46
0.0
 71
     7
 72
     1
  1
{\fＭＳ ゴシック|b0|i0|c128|p49;48}
 73
     1
 44
1.0
  0
MTEXT
  5
4F0
330
1F
100
AcDbEntity
  8
0-B
  6
Continuous
 62
     7
370
   211
100
AcDbMText
 10
1375.048530227399
 20
-1985.95840006755
 30
0.0
 40
49.53
 41
65.0
 46
0.0
 71
     7
 72
     1
  1
{\fＭＳ ゴシック|b0|i0|c128|p49;56}
 73
     1
 44
1.0
  0
MTEXT
  5
4F1
330
1F
100
AcDbEntity
  8
0-B
  6
Continuous
 62
     7
370
   211
100
AcDbMText
 10
1295.048530227399
 20
-1885.088008330201
 30
0.0
 40
49.53
 41
65.0
 46
0.0
 71
     7
 72
     1
  1
{\fＭＳ ゴシック|b0|i0|c128|p49;48}
 73
     1
 44
1.0
  0
MTEXT
  5
4F2
330
1F
100
AcDbEntity
  8
0-B
  6
Continuous
 62
     7
370
   211
100
AcDbMText
 10
1355.048530227399
 20
-1359.628115321301
 30
0.0
 40
49.53
 41
65.0
 46
0.0
 71
     7
 72
     1
  1
{\fＭＳ ゴシック|b0|i0|c128|p49;60}
 73
     1
 44
1.0
  0
MTEXT
  5
4F3
330
1F
100
AcDbEntity
  8
0-A
  6
Continuous
 62
     7
370
     9
100
AcDbMText
 10
3528.332651499156
 20
-1989.796239463819
 30
0.0
 40
45.72
 41
210.0
 46
0.0
 71
     7
 72
     1
  1
{\fＭＳ ゴシック|b0|i0|c128|p49;2(偶数)}
 73
     1
 44
1.0
  0
MTEXT
  5
4F4
330
1F
100
AcDbEntity
  8
0-A
  6
Continuous
 62
     7
370
     9
100
AcDbMText
 10
3528.332651499156
 20
-2095.056648387908
 30
0.0
 40
45.72
 41
210.0
 46
0.0
 71
     7
 72
     1
  1
{\fＭＳ ゴシック|b0|i0|c128|p49;2(偶数)}
 73
     1
 44
1.0
  0
MTEXT
  5
4F5
330
1F
100
AcDbEntity
  8
0-A
  6
Continuous
 62
     7
370
     9
100
AcDbMText
 10
2453.332651499155
 20
-1365.889935111484
 30
0.0
 40
45.71999999999996
 41
389.9999999999997
 46
0.0
 71
     7
 72
     1
  1
{\fＭＳ ゴシック|b0|i0|c128|p49;3,900×60×35}
 73
     1
 44
1.0
  0
MTEXT
  5
4F6
330
1F
100
AcDbEntity
  8
0-A
  6
Continuous
 62
     7
370
     9
100
AcDbMText
 10
2453.332651499156
 20
-1470.056608436687
 30
0.0
 40
45.72000000000003
 41
390.0000000000003
 46
0.0
 71
     7
 72
     1
  1
{\fＭＳ ゴシック|b0|i0|c128|p49;2,450×60×35}
 73
     1
 44
1.0
  0
MTEXT
  5
4F7
330
1F
100
AcDbEntity
  8
0-A
  6
Continuous
 62
     7
370
     9
100
AcDbMText
 10
2453.332651499155
 20
-1574.223281761891
 30
0.0
 40
45.71999999999996
 41
389.9999999999997
 46
0.0
 71
     7
 72
     1
  1
{\fＭＳ ゴシック|b0|i0|c128|p49;2,075×60×35}
 73
     1
 44
1.0
  0
MTEXT
  5
4F8
330
1F
100
AcDbEntity
  8
0-A
  6
Continuous
 62
     7
370
     9
100
AcDbMText
 10
2453.332651499156
 20
-1990.889975062706
 30
0.0
 40
45.71999999999993
 41
389.9999999999994
 46
0.0
 71
     7
 72
     1
  1
{\fＭＳ ゴシック|b0|i0|c128|p49;3,900×56×35}
 73
     1
 44
1.0
  0
MTEXT
  5
4F9
330
1F
100
AcDbEntity
  8
0-A
  6
Continuous
 62
     7
370
     9
100
AcDbMText
 10
2453.332651499156
 20
-2095.056648387909
 30
0.0
 40
45.72000000000003
 41
390.0000000000003
 46
0.0
 71
     7
 72
     1
  1
{\fＭＳ ゴシック|b0|i0|c128|p49;2,075×56×35}
 73
     1
 44
1.0
  0
MTEXT
  5
4FA
330
1F
100
AcDbEntity
  8
0-A
  6
Continuous
 62
     7
370
     9
100
AcDbMText
 10
2963.332651499156
 20
-1990.889975062706
 30
0.0
 40
45.71999999999999
 41
390.0
 46
0.0
 71
     7
 72
     1
  1
{\fＭＳ ゴシック|b0|i0|c128|p49;ＤＧＢＯ26-□}
 73
     1
 44
1.0
  0
MTEXT
  5
4FB
330
1F
100
AcDbEntity
  8
0-A
  6
Continuous
 62
     7
370
     9
100
AcDbMText
 10
2963.332651499156
 20
-2095.056648387909
 30
0.0
 40
45.71999999999999
 41
390.0
 46
0.0
 71
     7
 72
     1
  1
{\fＭＳ ゴシック|b0|i0|c128|p49;ＤＧＢＯ23-□}
 73
     1
 44
1.0
  0
MTEXT
  5
4FC
330
1F
100
AcDbEntity
  8
0-A
  6
Continuous
 62
     7
370
     9
100
AcDbMText
 10
2963.332651499156
 20
-1365.889935111484
 30
0.0
 40
45.71999999999999
 41
390.0
 46
0.0
 71
     7
 72
     1
  1
{\fＭＳ ゴシック|b0|i0|c128|p49;ＤＧＢＯ16-□}
 73
     1
 44
1.0
  0
MTEXT
  5
4FD
330
1F
100
AcDbEntity
  8
0-A
  6
Continuous
 62
     7
370
     9
100
AcDbMText
 10
2963.332651499156
 20
-1470.056608436687
 30
0.0
 40
45.71999999999999
 41
390.0
 46
0.0
 71
     7
 72
     1
  1
{\fＭＳ ゴシック|b0|i0|c128|p49;ＤＧＢＯ14-□}
 73
     1
 44
1.0
  0
MTEXT
  5
4FE
330
1F
100
AcDbEntity
  8
0-A
  6
Continuous
 62
     7
370
     9
100
AcDbMText
 10
2963.332651499156
 20
-1574.223281761891
 30
0.0
 40
45.71999999999999
 41
390.0
 46
0.0
 71
     7
 72
     1
  1
{\fＭＳ ゴシック|b0|i0|c128|p49;ＤＧＢＯ13-□}
 73
     1
 44
1.0
  0
MTEXT
  5
4FF
330
1F
100
AcDbEntity
  8
F-A
  6
Continuous
 62
     7
370
     0
100
AcDbMText
 10
-3498.364917835225
 20
-2696.749881628018
 30
0.0
 40
53.16681818181821
 41
3070.0
 46
0.0
 71
     7
 72
     1
  1
{\fＭＳ ゴシック|b0|i0|c128|p49;ドレタス　洋風造作材　ケーシング（Ａ・Ｂ・Ｃ・ラフカットＤ・Ｌ・Ｍ・Ｎ・ラフカットＯ型）}
 73
     1
 44
1.0
  0
ENDSEC
  0
SECTION
  2
OBJECTS
  0
DICTIONARY
  5
C
330
0
100
AcDbDictionary
281
     1
  3
ACAD_GROUP
350
D
  3
ACAD_LAYOUT
350
1A
  3
ACAD_MATERIAL
350
3B
  3
ACAD_MLEADERSTYLE
350
501
  3
ACAD_MLINESTYLE
350
17
  3
ACAD_PLOTSETTINGS
350
19
  3
ACAD_PLOTSTYLENAME
350
E
  3
ACAD_TABLESTYLE
350
500
  3
ACAD_VISUALSTYLE
350
2A
  0
DICTIONARY
  5
D
102
{ACAD_REACTORS
330
C
102
}
330
C
100
AcDbDictionary
281
     1
  0
DICTIONARY
  5
1A
102
{ACAD_REACTORS
330
C
102
}
330
C
100
AcDbDictionary
281
     1
  3
Layout1
350
1E
  3
Layout2
350
26
  3
Model
350
22
  0
DICTIONARY
  5
3B
102
{ACAD_REACTORS
330
C
102
}
330
C
100
AcDbDictionary
281
     1
  3
ByBlock
350
3D
  3
ByLayer
350
3C
  3
Global
350
3E
  0
DICTIONARY
  5
501
102
{ACAD_REACTORS
330
C
102
}
330
C
100
AcDbDictionary
281
     1
  0
DICTIONARY
  5
17
102
{ACAD_REACTORS
330
C
102
}
330
C
100
AcDbDictionary
281
     1
  3
Standard
350
18
  0
DICTIONARY
  5
19
102
{ACAD_REACTORS
330
C
102
}
330
C
100
AcDbDictionary
281
     1
  0
ACDBDICTIONARYWDFLT
  5
E
102
{ACAD_REACTORS
330
C
102
}
330
C
100
AcDbDictionary
281
     1
  3
Normal
350
F
100
AcDbDictionaryWithDefault
340
F
  0
DICTIONARY
  5
500
102
{ACAD_REACTORS
330
C
102
}
330
C
100
AcDbDictionary
281
     1
  0
DICTIONARY
  5
2A
102
{ACAD_REACTORS
330
C
102
}
330
C
100
AcDbDictionary
281
     1
  3
2dWireframe
350
2F
  3
3D Hidden
350
31
  3
3dWireframe
350
30
  3
Basic
350
32
  3
Brighten
350
36
  3
ColorChange
350
3A
  3
Conceptual
350
34
  3
Dim
350
35
  3
Facepattern
350
39
  3
Flat
350
2B
  3
FlatWithEdges
350
2C
  3
Gouraud
350
2D
  3
GouraudWithEdges
350
2E
  3
Linepattern
350
38
  3
Realistic
350
33
  3
Thicken
350
37
  0
LAYOUT
  5
1E
102
{ACAD_REACTORS
330
1A
102
}
330
1A
100
AcDbPlotSettings
  1

  2
none_device
  4

  6

 40
0.0
 41
0.0
 42
0.0
 43
0.0
 44
0.0
 45
0.0
 46
0.0
 47
0.0
 48
0.0
 49
0.0
140
0.0
141
0.0
142
1.0
143
1.0
 70
   688
 72
     0
 73
     0
 74
     5
  7

 75
    16
 76
     0
 77
     5
 78
   300
147
1.0
148
0.0
149
0.0
100
AcDbLayout
  1
Layout1
 70
     1
 71
     1
 10
0.0
 20
0.0
 11
420.0
 21
297.0
 12
0.0
 22
0.0
 32
0.0
 14
1.000000000000000E+20
 24
1.000000000000000E+20
 34
1.000000000000000E+20
 15
-1.000000000000000E+20
 25
-1.000000000000000E+20
 35
-1.000000000000000E+20
146
0.0
 13
0.0
 23
0.0
 33
0.0
 16
1.0
 26
0.0
 36
0.0
 17
0.0
 27
1.0
 37
0.0
 76
     0
330
1B
  0
LAYOUT
  5
26
102
{ACAD_REACTORS
330
1A
102
}
330
1A
100
AcDbPlotSettings
  1

  2
none_device
  4

  6

 40
0.0
 41
0.0
 42
0.0
 43
0.0
 44
0.0
 45
0.0
 46
0.0
 47
0.0
 48
0.0
 49
0.0
140
0.0
141
0.0
142
1.0
143
1.0
 70
   688
 72
     0
 73
     0
 74
     5
  7

 75
    16
 76
     0
 77
     5
 78
   300
147
1.0
148
0.0
149
0.0
100
AcDbLayout
  1
Layout2
 70
     1
 71
     2
 10
0.0
 20
0.0
 11
0.0
 21
0.0
 12
0.0
 22
0.0
 32
0.0
 14
0.0
 24
0.0
 34
0.0
 15
0.0
 25
0.0
 35
0.0
146
0.0
 13
0.0
 23
0.0
 33
0.0
 16
1.0
 26
0.0
 36
0.0
 17
0.0
 27
1.0
 37
0.0
 76
     0
330
23
  0
LAYOUT
  5
22
102
{ACAD_REACTORS
330
1A
102
}
330
1A
100
AcDbPlotSettings
  1

  2
none_device
  4

  6

 40
0.0
 41
0.0
 42
0.0
 43
0.0
 44
0.0
 45
0.0
 46
0.0
 47
0.0
 48
0.0
 49
0.0
140
0.0
141
0.0
142
1.0
143
1.0
 70
  1712
 72
     0
 73
     0
 74
     0
  7

 75
     0
 76
     0
 77
     5
 78
   300
147
1.0
148
0.0
149
0.0
100
AcDbLayout
  1
Model
 70
     1
 71
     0
 10
-5940.0
 20
-4200.0
 11
5940.0
 21
4200.0
 12
0.0
 22
0.0
 32
0.0
 14
-5940.0
 24
-4200.0
 34
0.0
 15
5940.0
 25
4200.0
 35
0.0
146
0.0
 13
0.0
 23
0.0
 33
0.0
 16
1.0
 26
0.0
 36
0.0
 17
0.0
 27
1.0
 37
0.0
 76
     0
330
1F
331
29
  0
MATERIAL
  5
3D
102
{ACAD_REACTORS
330
3B
102
}
330
3B
100
AcDbMaterial
  1
ByBlock
 72
     1
 94
      127
  0
MATERIAL
  5
3C
102
{ACAD_REACTORS
330
3B
102
}
330
3B
100
AcDbMaterial
  1
ByLayer
 72
     1
 94
      127
  0
MATERIAL
  5
3E
102
{ACAD_REACTORS
330
3B
102
}
330
3B
100
AcDbMaterial
  1
Global
 72
     1
 94
      127
  0
MLINESTYLE
  5
18
102
{ACAD_REACTORS
330
17
102
}
330
17
100
AcDbMlineStyle
  2
Standard
 70
     0
  3

 62
   256
 51
90.0
 52
90.0
 71
     2
 49
0.5
 62
   256
  6
BYLAYER
 49
-0.5
 62
   256
  6
BYLAYER
  0
ACDBPLACEHOLDER
  5
F
102
{ACAD_REACTORS
330
E
102
}
330
E
  0
VISUALSTYLE
  5
2F
102
{ACAD_REACTORS
330
2A
102
}
330
2A
100
AcDbVisualStyle
  2
2dWireframe
 70
     4
177
     2
291
     0
 71
     0
176
     1
 72
     2
176
     1
 73
     0
176
     1
 90
        0
176
     1
 40
-0.6
176
     1
 41
-30.0
176
     1
 62
     5
 63
     7
421
 16777215
176
     1
 74
     1
176
     1
 91
        4
176
     1
 64
     7
176
     1
 65
   257
176
     1
 75
     1
176
     1
175
     1
176
     1
 42
1.0
176
     1
 92
        0
176
     1
 66
   257
176
     1
 43
1.0
176
     1
 76
     1
176
     1
 77
     6
176
     1
 78
     2
176
     1
 67
     7
176
     1
 79
     5
176
     1
170
     0
176
     1
171
     0
176
     1
290
     0
176
     1
 93
        1
176
     1
 44
0.0
176
     1
173
     0
176
     1
  0
VISUALSTYLE
  5
31
102
{ACAD_REACTORS
330
2A
102
}
330
2A
100
AcDbVisualStyle
  2
3D Hidden
 70
     6
177
     2
291
     0
 71
     1
176
     1
 72
     2
176
     1
 73
     2
176
     1
 90
        0
176
     1
 40
-0.6
176
     1
 41
-30.0
176
     1
 62
     5
 63
     7
421
 16777215
176
     1
 74
     2
176
     1
 91
        2
176
     1
 64
     7
176
     1
 65
   257
176
     1
 75
     2
176
     1
175
     1
176
     1
 42
40.0
176
     1
 92
        0
176
     1
 66
   257
176
     1
 43
1.0
176
     1
 76
     1
176
     1
 77
     6
176
     1
 78
     2
176
     1
 67
     7
176
     1
 79
     3
176
     1
170
     0
176
     1
171
     0
176
     1
290
     0
176
     1
 93
        1
176
     1
 44
0.0
176
     1
173
     0
176
     1
  0
VISUALSTYLE
  5
30
102
{ACAD_REACTORS
330
2A
102
}
330
2A
100
AcDbVisualStyle
  2
3dWireframe
 70
     5
177
     2
291
     0
 71
     0
176
     1
 72
     2
176
     1
 73
     0
176
     1
 90
        0
176
     1
 40
-0.6
176
     1
 41
-30.0
176
     1
 62
     5
 63
     7
421
 16777215
176
     1
 74
     1
176
     1
 91
        4
176
     1
 64
     7
176
     1
 65
   257
176
     1
 75
     1
176
     1
175
     1
176
     1
 42
1.0
176
     1
 92
        0
176
     1
 66
   257
176
     1
 43
1.0
176
     1
 76
     1
176
     1
 77
     6
176
     1
 78
     2
176
     1
 67
     7
176
     1
 79
     5
176
     1
170
     0
176
     1
171
     0
176
     1
290
     0
176
     1
 93
        1
176
     1
 44
0.0
176
     1
173
     0
176
     1
  0
VISUALSTYLE
  5
32
102
{ACAD_REACTORS
330
2A
102
}
330
2A
100
AcDbVisualStyle
  2
Basic
 70
     7
177
     2
291
     1
 71
     1
176
     1
 72
     0
176
     1
 73
     1
176
     1
 90
        0
176
     1
 40
-0.6
176
     1
 41
-30.0
176
     1
 62
     5
 63
     7
421
 16777215
176
     1
 74
     0
176
     1
 91
        4
176
     1
 64
     7
176
     1
 65
   257
176
     1
 75
     1
176
     1
175
     1
176
     1
 42
1.0
176
     1
 92
        8
176
     1
 66
     7
176
     1
 43
1.0
176
     1
 76
     1
176
     1
 77
     6
176
     1
 78
     2
176
     1
 67
     7
176
     1
 79
     5
176
     1
170
     0
176
     1
171
     0
176
     1
290
     0
176
     1
 93
        1
176
     1
 44
0.0
176
     1
173
     0
176
     1
  0
VISUALSTYLE
  5
36
102
{ACAD_REACTORS
330
2A
102
}
330
2A
100
AcDbVisualStyle
  2
Brighten
 70
    12
177
     2
291
     1
 71
     2
176
     1
 72
     2
176
     1
 73
     0
176
     1
 90
        0
176
     1
 40
-0.6
176
     1
 41
-30.0
176
     1
 62
     5
 63
     7
421
 16777215
176
     1
 74
     1
176
     1
 91
        4
176
     1
 64
     7
176
     1
 65
   257
176
     1
 75
     1
176
     1
175
     1
176
     1
 42
1.0
176
     1
 92
        8
176
     1
 66
     7
176
     1
 43
1.0
176
     1
 76
     1
176
     1
 77
     6
176
     1
 78
     2
176
     1
 67
     7
176
     1
 79
     5
176
     1
170
     0
176
     1
171
     0
176
     1
290
     0
176
     1
 93
        1
176
     1
 44
50.0
176
     1
173
     0
176
     1
  0
VISUALSTYLE
  5
3A
102
{ACAD_REACTORS
330
2A
102
}
330
2A
100
AcDbVisualStyle
  2
ColorChange
 70
    16
177
     2
291
     1
 71
     2
176
     1
 72
     2
176
     1
 73
     3
176
     1
 90
        0
176
     1
 40
-0.6
176
     1
 41
-30.0
176
     1
 62
     5
 63
     8
421
  8421504
176
     1
 74
     1
176
     1
 91
        4
176
     1
 64
     7
176
     1
 65
   257
176
     1
 75
     1
176
     1
175
     1
176
     1
 42
1.0
176
     1
 92
        8
176
     1
 66
     8
424
  8421504
176
     1
 43
1.0
176
     1
 76
     1
176
     1
 77
     6
176
     1
 78
     2
176
     1
 67
     7
176
     1
 79
     5
176
     1
170
     0
176
     1
171
     0
176
     1
290
     0
176
     1
 93
        1
176
     1
 44
0.0
176
     1
173
     0
176
     1
  0
VISUALSTYLE
  5
34
102
{ACAD_REACTORS
330
2A
102
}
330
2A
100
AcDbVisualStyle
  2
Conceptual
 70
     9
177
     2
291
     0
 71
     3
176
     1
 72
     2
176
     1
 73
     0
176
     1
 90
        0
176
     1
 40
-0.6
176
     1
 41
-30.0
176
     1
 62
     5
 63
     7
421
 16777215
176
     1
 74
     2
176
     1
 91
        2
176
     1
 64
     7
176
     1
 65
   257
176
     1
 75
     1
176
     1
175
     1
176
     1
 42
40.0
176
     1
 92
        8
176
     1
 66
     7
176
     1
 43
1.0
176
     1
 76
     1
176
     1
 77
     6
176
     1
 78
     2
176
     1
 67
     7
176
     1
 79
     3
176
     1
170
     0
176
     1
171
     0
176
     1
290
     0
176
     1
 93
        1
176
     1
 44
0.0
176
     1
173
     0
176
     1
  0
VISUALSTYLE
  5
35
102
{ACAD_REACTORS
330
2A
102
}
330
2A
100
AcDbVisualStyle
  2
Dim
 70
    11
177
     2
291
     1
 71
     2
176
     1
 72
     2
176
     1
 73
     0
176
     1
 90
        0
176
     1
 40
-0.6
176
     1
 41
-30.0
176
     1
 62
     5
 63
     7
421
 16777215
176
     1
 74
     1
176
     1
 91
        4
176
     1
 64
     7
176
     1
 65
   257
176
     1
 75
     1
176
     1
175
     1
176
     1
 42
1.0
176
     1
 92
        8
176
     1
 66
     7
176
     1
 43
1.0
176
     1
 76
     1
176
     1
 77
     6
176
     1
 78
     2
176
     1
 67
     7
176
     1
 79
     5
176
     1
170
     0
176
     1
171
     0
176
     1
290
     0
176
     1
 93
        1
176
     1
 44
-50.0
176
     1
173
     0
176
     1
  0
VISUALSTYLE
  5
39
102
{ACAD_REACTORS
330
2A
102
}
330
2A
100
AcDbVisualStyle
  2
Facepattern
 70
    15
177
     2
291
     1
 71
     2
176
     1
 72
     2
176
     1
 73
     0
176
     1
 90
        0
176
     1
 40
-0.6
176
     1
 41
-30.0
176
     1
 62
     5
 63
     7
421
 16777215
176
     1
 74
     1
176
     1
 91
        4
176
     1
 64
     7
176
     1
 65
   257
176
     1
 75
     1
176
     1
175
     1
176
     1
 42
1.0
176
     1
 92
        8
176
     1
 66
     7
176
     1
 43
1.0
176
     1
 76
     1
176
     1
 77
     6
176
     1
 78
     2
176
     1
 67
     7
176
     1
 79
     5
176
     1
170
     0
176
     1
171
     0
176
     1
290
     0
176
     1
 93
        1
176
     1
 44
0.0
176
     1
173
     0
176
     1
  0
VISUALSTYLE
  5
2B
102
{ACAD_REACTORS
330
2A
102
}
330
2A
100
AcDbVisualStyle
  2
Flat
 70
     0
177
     2
291
     1
 71
     2
176
     1
 72
     1
176
     1
 73
     1
176
     1
 90
        2
176
     1
 40
-0.6
176
     1
 41
30.0
176
     1
 62
     5
 63
     7
421
 16777215
176
     1
 74
     0
176
     1
 91
        4
176
     1
 64
     7
176
     1
 65
   257
176
     1
 75
     1
176
     1
175
     1
176
     1
 42
1.0
176
     1
 92
        8
176
     1
 66
     7
176
     1
 43
1.0
176
     1
 76
     1
176
     1
 77
     6
176
     1
 78
     2
176
     1
 67
     7
176
     1
 79
     5
176
     1
170
     0
176
     1
171
     0
176
     1
290
     0
176
     1
 93
       13
176
     1
 44
0.0
176
     1
173
     0
176
     1
  0
VISUALSTYLE
  5
2C
102
{ACAD_REACTORS
330
2A
102
}
330
2A
100
AcDbVisualStyle
  2
FlatWithEdges
 70
     1
177
     2
291
     1
 71
     2
176
     1
 72
     1
176
     1
 73
     1
176
     1
 90
        2
176
     1
 40
-0.6
176
     1
 41
30.0
176
     1
 62
     5
 63
     7
421
 16777215
176
     1
 74
     1
176
     1
 91
        4
176
     1
 64
     7
176
     1
 65
   257
176
     1
 75
     1
176
     1
175
     1
176
     1
 42
1.0
176
     1
 92
        0
176
     1
 66
   257
176
     1
 43
1.0
176
     1
 76
     1
176
     1
 77
     6
176
     1
 78
     2
176
     1
 67
     7
176
     1
 79
     5
176
     1
170
     0
176
     1
171
     0
176
     1
290
     0
176
     1
 93
       13
176
     1
 44
0.0
176
     1
173
     0
176
     1
  0
VISUALSTYLE
  5
2D
102
{ACAD_REACTORS
330
2A
102
}
330
2A
100
AcDbVisualStyle
  2
Gouraud
 70
     2
177
     2
291
     1
 71
     2
176
     1
 72
     2
176
     1
 73
     1
176
     1
 90
        2
176
     1
 40
-0.6
176
     1
 41
30.0
176
     1
 62
     5
 63
     7
421
 16777215
176
     1
 74
     0
176
     1
 91
        4
176
     1
 64
     7
176
     1
 65
   257
176
     1
 75
     1
176
     1
175
     1
176
     1
 42
1.0
176
     1
 92
        0
176
     1
 66
     7
176
     1
 43
1.0
176
     1
 76
     1
176
     1
 77
     6
176
     1
 78
     2
176
     1
 67
     7
176
     1
 79
     5
176
     1
170
     0
176
     1
171
     0
176
     1
290
     0
176
     1
 93
       13
176
     1
 44
0.0
176
     1
173
     0
176
     1
  0
VISUALSTYLE
  5
2E
102
{ACAD_REACTORS
330
2A
102
}
330
2A
100
AcDbVisualStyle
  2
GouraudWithEdges
 70
     3
177
     2
291
     1
 71
     2
176
     1
 72
     2
176
     1
 73
     1
176
     1
 90
        2
176
     1
 40
-0.6
176
     1
 41
30.0
176
     1
 62
     5
 63
     7
421
 16777215
176
     1
 74
     1
176
     1
 91
        4
176
     1
 64
     7
176
     1
 65
   257
176
     1
 75
     1
176
     1
175
     1
176
     1
 42
1.0
176
     1
 92
        0
176
     1
 66
   257
176
     1
 43
1.0
176
     1
 76
     1
176
     1
 77
     6
176
     1
 78
     2
176
     1
 67
     7
176
     1
 79
     5
176
     1
170
     0
176
     1
171
     0
176
     1
290
     0
176
     1
 93
       13
176
     1
 44
0.0
176
     1
173
     0
176
     1
  0
VISUALSTYLE
  5
38
102
{ACAD_REACTORS
330
2A
102
}
330
2A
100
AcDbVisualStyle
  2
Linepattern
 70
    14
177
     2
291
     1
 71
     2
176
     1
 72
     2
176
     1
 73
     0
176
     1
 90
        0
176
     1
 40
-0.6
176
     1
 41
-30.0
176
     1
 62
     5
 63
     7
421
 16777215
176
     1
 74
     1
176
     1
 91
        4
176
     1
 64
     7
176
     1
 65
   257
176
     1
 75
     7
176
     1
175
     7
176
     1
 42
1.0
176
     1
 92
        8
176
     1
 66
     7
176
     1
 43
1.0
176
     1
 76
     1
176
     1
 77
     6
176
     1
 78
     2
176
     1
 67
     7
176
     1
 79
     5
176
     1
170
     0
176
     1
171
     0
176
     1
290
     0
176
     1
 93
        1
176
     1
 44
0.0
176
     1
173
     0
176
     1
  0
VISUALSTYLE
  5
33
102
{ACAD_REACTORS
330
2A
102
}
330
2A
100
AcDbVisualStyle
  2
Realistic
 70
     8
177
     2
291
     0
 71
     2
176
     1
 72
     2
176
     1
 73
     0
176
     1
 90
        0
176
     1
 40
-0.6
176
     1
 41
-30.0
176
     1
 62
     5
 63
     7
421
 16777215
176
     1
 74
     1
176
     1
 91
        0
176
     1
 64
     7
176
     1
 65
   257
176
     1
 75
     1
176
     1
175
     1
176
     1
 42
1.0
176
     1
 92
        8
176
     1
 66
     8
424
  7895160
176
     1
 43
1.0
176
     1
 76
     1
176
     1
 77
     6
176
     1
 78
     2
176
     1
 67
     7
176
     1
 79
     5
176
     1
170
     0
176
     1
171
     0
176
     1
290
     0
176
     1
 93
       13
176
     1
 44
0.0
176
     1
173
     0
176
     1
  0
VISUALSTYLE
  5
37
102
{ACAD_REACTORS
330
2A
102
}
330
2A
100
AcDbVisualStyle
  2
Thicken
 70
    13
177
     2
291
     1
 71
     2
176
     1
 72
     2
176
     1
 73
     0
176
     1
 90
        0
176
     1
 40
-0.6
176
     1
 41
-30.0
176
     1
 62
     5
 63
     7
421
 16777215
176
     1
 74
     1
176
     1
 91
        4
176
     1
 64
     7
176
     1
 65
   257
176
     1
 75
     1
176
     1
175
     1
176
     1
 42
1.0
176
     1
 92
       12
176
     1
 66
     7
176
     1
 43
1.0
176
     1
 76
     1
176
     1
 77
     6
176
     1
 78
     2
176
     1
 67
     7
176
     1
 79
     5
176
     1
170
     0
176
     1
171
     0
176
     1
290
     0
176
     1
 93
        1
176
     1
 44
0.0
176
     1
173
     0
176
     1
  0
ENDSEC
  0
EOF
