  0
SECTION
  2
HEADER
  9
$ACADVER
  1
AC1024
  9
$ACADMAINTVER
 70
     6
  9
$DWGCODEPAGE
  3
ANSI_932
  9
$INSBASE
 10
0.0
 20
0.0
 30
0.0
  9
$EXTMIN
 10
-6300.0
 20
-4455.0
 30
0.0
  9
$EXTMAX
 10
6300.0
 20
4455.0
 30
0.0
  9
$LIMMIN
 10
-6300.0
 20
-4455.0
  9
$LIMMAX
 10
6300.0
 20
4455.0
  9
$ORTHOMODE
 70
     0
  9
$REGENMODE
 70
     1
  9
$FILLMODE
 70
     1
  9
$QTEXTMODE
 70
     0
  9
$MIRRTEXT
 70
     1
  9
$LTSCALE
 40
30.0
  9
$ATTMODE
 70
     1
  9
$TEXTSIZE
 40
2.5
  9
$TRACEWID
 40
1.0
  9
$TEXTSTYLE
  7
Standard
  9
$CLAYER
  8
0
  9
$CELTYPE
  6
ByLayer
  9
$CECOLOR
 62
   256
  9
$CELTSCALE
 40
1.0
  9
$DISPSILH
 70
     0
  9
$DIMSCALE
 40
1.0
  9
$DIMASZ
 40
2.5
  9
$DIMEXO
 40
0.625
  9
$DIMDLI
 40
3.75
  9
$DIMRND
 40
0.0
  9
$DIMDLE
 40
0.0
  9
$DIMEXE
 40
1.25
  9
$DIMTP
 40
0.0
  9
$DIMTM
 40
0.0
  9
$DIMTXT
 40
2.5
  9
$DIMCEN
 40
2.5
  9
$DIMTSZ
 40
0.0
  9
$DIMTOL
 70
     0
  9
$DIMLIM
 70
     0
  9
$DIMTIH
 70
     0
  9
$DIMTOH
 70
     0
  9
$DIMSE1
 70
     0
  9
$DIMSE2
 70
     0
  9
$DIMTAD
 70
     1
  9
$DIMZIN
 70
     8
  9
$DIMBLK
  1

  9
$DIMASO
 70
     1
  9
$DIMSHO
 70
     1
  9
$DIMPOST
  1

  9
$DIMAPOST
  1

  9
$DIMALT
 70
     0
  9
$DIMALTD
 70
     3
  9
$DIMALTF
 40
0.03937007874016
  9
$DIMLFAC
 40
1.0
  9
$DIMTOFL
 70
     1
  9
$DIMTVP
 40
0.0
  9
$DIMTIX
 70
     0
  9
$DIMSOXD
 70
     0
  9
$DIMSAH
 70
     0
  9
$DIMBLK1
  1

  9
$DIMBLK2
  1

  9
$DIMSTYLE
  2
ISO-25
  9
$DIMCLRD
 70
     0
  9
$DIMCLRE
 70
     0
  9
$DIMCLRT
 70
     0
  9
$DIMTFAC
 40
1.0
  9
$DIMGAP
 40
0.625
  9
$DIMJUST
 70
     0
  9
$DIMSD1
 70
     0
  9
$DIMSD2
 70
     0
  9
$DIMTOLJ
 70
     0
  9
$DIMTZIN
 70
     8
  9
$DIMALTZ
 70
     0
  9
$DIMALTTZ
 70
     0
  9
$DIMUPT
 70
     0
  9
$DIMDEC
 70
     2
  9
$DIMTDEC
 70
     2
  9
$DIMALTU
 70
     2
  9
$DIMALTTD
 70
     3
  9
$DIMTXSTY
  7
Standard
  9
$DIMAUNIT
 70
     0
  9
$DIMADEC
 70
     0
  9
$DIMALTRND
 40
0.0
  9
$DIMAZIN
 70
     0
  9
$DIMDSEP
 70
    44
  9
$DIMATFIT
 70
     3
  9
$DIMFRAC
 70
     0
  9
$DIMLDRBLK
  1

  9
$DIMLUNIT
 70
     2
  9
$DIMLWD
 70
    -2
  9
$DIMLWE
 70
    -2
  9
$DIMTMOVE
 70
     0
  9
$DIMFXL
 40
1.0
  9
$DIMFXLON
 70
     0
  9
$DIMJOGANG
 40
0.7853981633974483
  9
$DIMTFILL
 70
     0
  9
$DIMTFILLCLR
 70
     0
  9
$DIMARCSYM
 70
     0
  9
$DIMLTYPE
  6

  9
$DIMLTEX1
  6

  9
$DIMLTEX2
  6

  9
$DIMTXTDIRECTION
 70
     0
  9
$LUNITS
 70
     2
  9
$LUPREC
 70
     4
  9
$SKETCHINC
 40
1.0
  9
$FILLETRAD
 40
10.0
  9
$AUNITS
 70
     0
  9
$AUPREC
 70
     0
  9
$MENU
  1
.
  9
$ELEVATION
 40
0.0
  9
$PELEVATION
 40
0.0
  9
$THICKNESS
 40
0.0
  9
$LIMCHECK
 70
     0
  9
$CHAMFERA
 40
10.0
  9
$CHAMFERB
 40
10.0
  9
$CHAMFERC
 40
20.0
  9
$CHAMFERD
 40
0.0
  9
$SKPOLY
 70
     0
  9
$TDCREATE
 40
2460327.68888559
  9
$TDUCREATE
 40
2460327.31388559
  9
$TDUPDATE
 40
2460327.688885602
  9
$TDUUPDATE
 40
2460327.313885602
  9
$TDINDWG
 40
0.0000000116
  9
$TDUSRTIMER
 40
0.0000000116
  9
$USRTIMER
 70
     1
  9
$ANGBASE
 50
0.0
  9
$ANGDIR
 70
     0
  9
$PDMODE
 70
     0
  9
$PDSIZE
 40
0.0
  9
$PLINEWID
 40
0.0
  9
$SPLFRAME
 70
     0
  9
$SPLINETYPE
 70
     6
  9
$SPLINESEGS
 70
     8
  9
$HANDSEED
  5
388
  9
$SURFTAB1
 70
     6
  9
$SURFTAB2
 70
     6
  9
$SURFTYPE
 70
     6
  9
$SURFU
 70
     6
  9
$SURFV
 70
     6
  9
$UCSBASE
  2

  9
$UCSNAME
  2

  9
$UCSORG
 10
0.0
 20
0.0
 30
0.0
  9
$UCSXDIR
 10
1.0
 20
0.0
 30
0.0
  9
$UCSYDIR
 10
0.0
 20
1.0
 30
0.0
  9
$UCSORTHOREF
  2

  9
$UCSORTHOVIEW
 70
     0
  9
$UCSORGTOP
 10
0.0
 20
0.0
 30
0.0
  9
$UCSORGBOTTOM
 10
0.0
 20
0.0
 30
0.0
  9
$UCSORGLEFT
 10
0.0
 20
0.0
 30
0.0
  9
$UCSORGRIGHT
 10
0.0
 20
0.0
 30
0.0
  9
$UCSORGFRONT
 10
0.0
 20
0.0
 30
0.0
  9
$UCSORGBACK
 10
0.0
 20
0.0
 30
0.0
  9
$PUCSBASE
  2

  9
$PUCSNAME
  2

  9
$PUCSORG
 10
0.0
 20
0.0
 30
0.0
  9
$PUCSXDIR
 10
1.0
 20
0.0
 30
0.0
  9
$PUCSYDIR
 10
0.0
 20
1.0
 30
0.0
  9
$PUCSORTHOREF
  2

  9
$PUCSORTHOVIEW
 70
     0
  9
$PUCSORGTOP
 10
0.0
 20
0.0
 30
0.0
  9
$PUCSORGBOTTOM
 10
0.0
 20
0.0
 30
0.0
  9
$PUCSORGLEFT
 10
0.0
 20
0.0
 30
0.0
  9
$PUCSORGRIGHT
 10
0.0
 20
0.0
 30
0.0
  9
$PUCSORGFRONT
 10
0.0
 20
0.0
 30
0.0
  9
$PUCSORGBACK
 10
0.0
 20
0.0
 30
0.0
  9
$USERI1
 70
     0
  9
$USERI2
 70
     0
  9
$USERI3
 70
     0
  9
$USERI4
 70
     0
  9
$USERI5
 70
     0
  9
$USERR1
 40
0.0
  9
$USERR2
 40
0.0
  9
$USERR3
 40
0.0
  9
$USERR4
 40
0.0
  9
$USERR5
 40
0.0
  9
$WORLDVIEW
 70
     1
  9
$SHADEDGE
 70
     3
  9
$SHADEDIF
 70
    70
  9
$TILEMODE
 70
     1
  9
$MAXACTVP
 70
    64
  9
$PINSBASE
 10
0.0
 20
0.0
 30
0.0
  9
$PLIMCHECK
 70
     0
  9
$PEXTMIN
 10
1.000000000000000E+20
 20
1.000000000000000E+20
 30
1.000000000000000E+20
  9
$PEXTMAX
 10
-1.000000000000000E+20
 20
-1.000000000000000E+20
 30
-1.000000000000000E+20
  9
$PLIMMIN
 10
0.0
 20
0.0
  9
$PLIMMAX
 10
420.0
 20
297.0
  9
$UNITMODE
 70
     0
  9
$VISRETAIN
 70
     1
  9
$PLINEGEN
 70
     0
  9
$PSLTSCALE
 70
     1
  9
$TREEDEPTH
 70
  3020
  9
$CMLSTYLE
  2
Standard
  9
$CMLJUST
 70
     0
  9
$CMLSCALE
 40
20.0
  9
$PROXYGRAPHICS
 70
     1
  9
$MEASUREMENT
 70
     1
  9
$CELWEIGHT
370
    -1
  9
$ENDCAPS
280
     0
  9
$JOINSTYLE
280
     0
  9
$LWDISPLAY
290
     0
  9
$INSUNITS
 70
     4
  9
$HYPERLINKBASE
  1

  9
$STYLESHEET
  1

  9
$XEDIT
290
     1
  9
$CEPSNTYPE
380
     0
  9
$PSTYLEMODE
290
     1
  9
$FINGERPRINTGUID
  2
{4E3874D8-E154-43D5-9CB5-30B1EF37E234}
  9
$VERSIONGUID
  2
{FAEB1C32-E019-11D5-929B-00C0DF256EC4}
  9
$EXTNAMES
290
     1
  9
$PSVPSCALE
 40
0.0
  9
$OLESTARTUP
290
     0
  9
$SORTENTS
280
   127
  9
$INDEXCTL
280
     0
  9
$HIDETEXT
280
     1
  9
$XCLIPFRAME
280
     2
  9
$HALOGAP
280
     0
  9
$OBSCOLOR
 70
   257
  9
$OBSLTYPE
280
     0
  9
$INTERSECTIONDISPLAY
280
     0
  9
$INTERSECTIONCOLOR
 70
   257
  9
$DIMASSOC
280
     2
  9
$PROJECTNAME
  1

  9
$CAMERADISPLAY
290
     0
  9
$LENSLENGTH
 40
50.0
  9
$CAMERAHEIGHT
 40
0.0
  9
$STEPSPERSEC
 40
2.0
  9
$STEPSIZE
 40
6.0
  9
$3DDWFPREC
 40
2.0
  9
$PSOLWIDTH
 40
5.0
  9
$PSOLHEIGHT
 40
80.0
  9
$LOFTANG1
 40
1.570796326794897
  9
$LOFTANG2
 40
1.570796326794897
  9
$LOFTMAG1
 40
0.0
  9
$LOFTMAG2
 40
0.0
  9
$LOFTPARAM
 70
     7
  9
$LOFTNORMALS
280
     1
  9
$LATITUDE
 40
37.795
  9
$LONGITUDE
 40
-122.394
  9
$NORTHDIRECTION
 40
0.0
  9
$TIMEZONE
 70
 -8000
  9
$LIGHTGLYPHDISPLAY
280
     1
  9
$TILEMODELIGHTSYNCH
280
     1
  9
$SOLIDHIST
280
     1
  9
$SHOWHIST
280
     1
  9
$DWFFRAME
280
     2
  9
$DGNFRAME
280
     2
  9
$REALWORLDSCALE
290
     1
  9
$INTERFERECOLOR
 62
   256
  9
$CSHADOW
280
     0
  9
$SHADOWPLANELOCATION
 40
0.0
  0
ENDSEC
  0
SECTION
  2
CLASSES
  0
CLASS
  1
ACDBDICTIONARYWDFLT
  2
AcDbDictionaryWithDefault
  3
ObjectDBX Classes
 90
        0
 91
        4
280
     0
281
     0
  0
CLASS
  1
VISUALSTYLE
  2
AcDbVisualStyle
  3
ObjectDBX Classes
 90
     4095
 91
        4
280
     0
281
     0
  0
CLASS
  1
MATERIAL
  2
AcDbMaterial
  3
ObjectDBX Classes
 90
     1153
 91
        4
280
     0
281
     0
  0
ENDSEC
  0
SECTION
  2
TABLES
  0
TABLE
  2
VPORT
  5
8
330
0
100
AcDbSymbolTable
 70
     1
  0
VPORT
  5
29
330
8
100
AcDbSymbolTableRecord
100
AcDbViewportTableRecord
  2
*Active
 70
     0
 10
0.0
 20
0.0
 11
1.0
 21
1.0
 12
0.0
 22
0.0
 13
0.0
 23
0.0
 14
10.0
 24
10.0
 15
10.0
 25
10.0
 16
0.0
 26
0.0
 36
1.0
 17
0.0
 27
0.0
 37
0.0
 40
9801.0
 41
1.414141414141414
 42
50.0
 43
0.0
 44
0.0
 50
0.0
 51
0.0
 71
     0
 72
 10000
 73
     1
 74
     3
 75
     0
 76
     0
 77
     0
 78
     0
281
     0
 65
     1
110
0.0
120
0.0
130
0.0
111
1.0
121
0.0
131
0.0
112
0.0
122
1.0
132
0.0
 79
     0
146
0.0
 60
     3
 61
     5
292
     1
282
     1
141
0.0
142
0.0
 63
   250
  0
ENDTAB
  0
TABLE
  2
LTYPE
  5
5
330
0
100
AcDbSymbolTable
 70
     5
  0
LTYPE
  5
14
330
5
100
AcDbSymbolTableRecord
100
AcDbLinetypeTableRecord
  2
ByBlock
 70
     0
  3

 72
    65
 73
     0
 40
0.0
  0
LTYPE
  5
15
330
5
100
AcDbSymbolTableRecord
100
AcDbLinetypeTableRecord
  2
ByLayer
 70
     0
  3

 72
    65
 73
     0
 40
0.0
  0
LTYPE
  5
16
330
5
100
AcDbSymbolTableRecord
100
AcDbLinetypeTableRecord
  2
Continuous
 70
     0
  3
Solid line
 72
    65
 73
     0
 40
0.0
  0
LTYPE
  5
3F
330
5
100
AcDbSymbolTableRecord
100
AcDbLinetypeTableRecord
  2
JWW_HOJO
 70
     0
  3
  -   -   -   -   -   -   -   - 
 72
    65
 73
     2
 40
1.693333333333333
 49
-1.27
 74
     0
 49
0.4233333333333333
 74
     0
  0
LTYPE
  5
40
330
5
100
AcDbSymbolTableRecord
100
AcDbLinetypeTableRecord
  2
JWW_DASHED2
 70
     0
  3
--    ----    ----    ----    --
 72
    65
 73
     2
 40
3.386666666666667
 49
1.693333333333333
 74
     0
 49
-1.693333333333333
 74
     0
  0
LTYPE
  5
41
330
5
100
AcDbSymbolTableRecord
100
AcDbLinetypeTableRecord
  2
JWW_CENTER1
 70
     0
  3
-----  --  ----------  --  -----
 72
    65
 73
     4
 40
6.773333333333333
 49
4.233333333333333
 74
     0
 49
-0.8466666666666667
 74
     0
 49
0.8466666666666667
 74
     0
 49
-0.8466666666666667
 74
     0
  0
LTYPE
  5
42
330
5
100
AcDbSymbolTableRecord
100
AcDbLinetypeTableRecord
  2
JWW_DASHED1
 70
     0
  3
-  --  --  --  --  --  --  --  -
 72
    65
 73
     2
 40
1.693333333333333
 49
0.8466666666666667
 74
     0
 49
-0.8466666666666667
 74
     0
  0
ENDTAB
  0
TABLE
  2
LAYER
  5
2
330
0
100
AcDbSymbolTable
 70
    15
  0
LAYER
  5
10
330
2
100
AcDbSymbolTableRecord
100
AcDbLayerTableRecord
  2
0
 70
     0
 62
     7
  6
Continuous
370
    -3
390
F
347
3E
  0
LAYER
  5
43
330
2
100
AcDbSymbolTableRecord
100
AcDbLayerTableRecord
  2
F-0_補助線
 70
     0
 62
     7
  6
Continuous
370
    -3
390
F
347
3E
  0
LAYER
  5
44
330
2
100
AcDbSymbolTableRecord
100
AcDbLayerTableRecord
  2
F-1_枠
 70
     0
 62
     7
  6
Continuous
370
    -3
390
F
347
3E
  0
LAYER
  5
45
330
2
100
AcDbSymbolTableRecord
100
AcDbLayerTableRecord
  2
F-A_文字
 70
     0
 62
     7
  6
Continuous
370
    -3
390
F
347
3E
  0
LAYER
  5
46
330
2
100
AcDbSymbolTableRecord
100
AcDbLayerTableRecord
  2
0-A_文字
 70
     0
 62
     7
  6
Continuous
370
    -3
390
F
347
3E
  0
LAYER
  5
47
330
2
100
AcDbSymbolTableRecord
100
AcDbLayerTableRecord
  2
戸当り
 70
     0
 62
     7
  6
Continuous
370
    -3
390
F
347
3E
  0
LAYER
  5
48
330
2
100
AcDbSymbolTableRecord
100
AcDbLayerTableRecord
  2
0-0_補助線
 70
     0
 62
     7
  6
Continuous
370
    -3
390
F
347
3E
  0
LAYER
  5
49
330
2
100
AcDbSymbolTableRecord
100
AcDbLayerTableRecord
  2
0-1_通り芯
 70
     0
 62
     7
  6
Continuous
370
    -3
390
F
347
3E
  0
LAYER
  5
4A
330
2
100
AcDbSymbolTableRecord
100
AcDbLayerTableRecord
  2
0-7_金物
 70
     0
 62
     7
  6
Continuous
370
    -3
390
F
347
3E
  0
LAYER
  5
4B
330
2
100
AcDbSymbolTableRecord
100
AcDbLayerTableRecord
  2
0-B_寸法
 70
     0
 62
     7
  6
Continuous
370
    -3
390
F
347
3E
  0
LAYER
  5
4C
330
2
100
AcDbSymbolTableRecord
100
AcDbLayerTableRecord
  2
0-6_扉
 70
     0
 62
     7
  6
Continuous
370
    -3
390
F
347
3E
  0
LAYER
  5
4D
330
2
100
AcDbSymbolTableRecord
100
AcDbLayerTableRecord
  2
0-C_ハッチ
 70
     0
 62
     7
  6
Continuous
370
    -3
390
F
347
3E
  0
LAYER
  5
4E
330
2
100
AcDbSymbolTableRecord
100
AcDbLayerTableRecord
  2
0-4_枠
 70
     0
 62
     7
  6
Continuous
370
    -3
390
F
347
3E
  0
LAYER
  5
4F
330
2
100
AcDbSymbolTableRecord
100
AcDbLayerTableRecord
  2
0-3_仕上げ
 70
     0
 62
     7
  6
Continuous
370
    -3
390
F
347
3E
  0
LAYER
  5
50
330
2
100
AcDbSymbolTableRecord
100
AcDbLayerTableRecord
  2
0-E
 70
     0
 62
     7
  6
Continuous
370
    -3
390
F
347
3E
  0
ENDTAB
  0
TABLE
  2
STYLE
  5
3
330
0
100
AcDbSymbolTable
 70
     1
  0
STYLE
  5
11
330
3
100
AcDbSymbolTableRecord
100
AcDbTextStyleTableRecord
  2
Standard
 70
     0
 40
0.0
 41
1.0
 50
0.0
 71
     0
 42
2.5
  3
txt
  4

  0
ENDTAB
  0
TABLE
  2
VIEW
  5
6
330
0
100
AcDbSymbolTable
 70
     0
  0
ENDTAB
  0
TABLE
  2
UCS
  5
7
330
0
100
AcDbSymbolTable
 70
     0
  0
ENDTAB
  0
TABLE
  2
APPID
  5
9
330
0
100
AcDbSymbolTable
 70
     1
  0
APPID
  5
12
330
9
100
AcDbSymbolTableRecord
100
AcDbRegAppTableRecord
  2
ACAD
 70
     0
  0
ENDTAB
  0
TABLE
  2
DIMSTYLE
  5
A
330
0
100
AcDbSymbolTable
 70
     1
100
AcDbDimStyleTable
  0
DIMSTYLE
105
27
330
A
100
AcDbSymbolTableRecord
100
AcDbDimStyleTableRecord
  2
ISO-25
 70
     0
 41
2.5
 42
0.625
 43
3.75
 44
1.25
 73
     0
 74
     0
 77
     1
 78
     8
140
2.5
141
2.5
143
0.03937007874016
147
0.625
171
     3
172
     1
178
     0
271
     2
272
     2
274
     3
278
    44
283
     0
284
     8
340
11
  0
ENDTAB
  0
TABLE
  2
BLOCK_RECORD
  5
1
330
0
100
AcDbSymbolTable
 70
     2
  0
BLOCK_RECORD
  5
1F
330
1
100
AcDbSymbolTableRecord
100
AcDbBlockTableRecord
  2
*Model_Space
340
22
 70
     0
280
     1
281
     0
  0
BLOCK_RECORD
  5
1B
330
1
100
AcDbSymbolTableRecord
100
AcDbBlockTableRecord
  2
*Paper_Space
340
1E
 70
     0
280
     1
281
     0
  0
BLOCK_RECORD
  5
23
330
1
100
AcDbSymbolTableRecord
100
AcDbBlockTableRecord
  2
*Paper_Space0
340
26
 70
     0
280
     1
281
     0
  0
BLOCK_RECORD
  5
51
330
1
100
AcDbSymbolTableRecord
100
AcDbBlockTableRecord
  2
01@@SfigorgFlag@@4
340
0
102
{BLKREFS
331
2B6
331
2E8
102
}
 70
     0
280
     1
281
     0
  0
ENDTAB
  0
ENDSEC
  0
SECTION
  2
BLOCKS
  0
BLOCK
  5
20
330
1F
100
AcDbEntity
  8
0
100
AcDbBlockBegin
  2
*Model_Space
 70
     0
 10
0.0
 20
0.0
 30
0.0
  3
*Model_Space
  1

  0
ENDBLK
  5
21
330
1F
100
AcDbEntity
  8
0
100
AcDbBlockEnd
  0
BLOCK
  5
1C
330
1B
100
AcDbEntity
 67
     1
  8
0
100
AcDbBlockBegin
  2
*Paper_Space
 70
     0
 10
0.0
 20
0.0
 30
0.0
  3
*Paper_Space
  1

  0
ENDBLK
  5
1D
330
1B
100
AcDbEntity
 67
     1
  8
0
100
AcDbBlockEnd
  0
BLOCK
  5
24
330
23
100
AcDbEntity
  8
0
100
AcDbBlockBegin
  2
*Paper_Space0
 70
     0
 10
0.0
 20
0.0
 30
0.0
  3
*Paper_Space0
  1

  0
ENDBLK
  5
25
330
23
100
AcDbEntity
  8
0
100
AcDbBlockEnd
  0
BLOCK
  5
52
330
51
100
AcDbEntity
  8
0
100
AcDbBlockBegin
  2
01@@SfigorgFlag@@4
 70
     0
 10
0.0
 20
0.0
 30
0.0
  3
01@@SfigorgFlag@@4
  1

  0
LINE
  5
35F
330
51
100
AcDbEntity
  8
0-0_補助線
  6
Continuous
 62
     7
370
     9
100
AcDbLine
 10
-4.25
 20
-1.491025641025665
 30
0.0
 11
-3.25
 21
-1.491025641025665
 31
0.0
  0
LINE
  5
360
330
51
100
AcDbEntity
  8
0-0_補助線
  6
Continuous
 62
     7
370
     9
100
AcDbLine
 10
-2.75
 20
-1.491025641025665
 30
0.0
 11
-0.1500000000000909
 21
-1.491025641025665
 31
0.0
  0
LINE
  5
361
330
51
100
AcDbEntity
  8
0-0_補助線
  6
Continuous
 62
     7
370
     9
100
AcDbLine
 10
-0.1500000000000909
 20
-1.491025641025665
 30
0.0
 11
0.0
 21
-1.641025641025642
 31
0.0
  0
LINE
  5
362
330
51
100
AcDbEntity
  8
0-0_補助線
  6
Continuous
 62
     7
370
     9
100
AcDbLine
 10
0.0
 20
-1.641025641025642
 30
0.0
 11
0.1500000000000909
 21
-1.491025641025665
 31
0.0
  0
LINE
  5
363
330
51
100
AcDbEntity
  8
0-0_補助線
  6
Continuous
 62
     7
370
     9
100
AcDbLine
 10
0.1500000000000909
 20
-1.491025641025665
 30
0.0
 11
2.75
 21
-1.491025641025665
 31
0.0
  0
LINE
  5
364
330
51
100
AcDbEntity
  8
0-0_補助線
  6
Continuous
 62
     7
370
     9
100
AcDbLine
 10
3.25
 20
-1.491025641025665
 30
0.0
 11
4.25
 21
-1.491025641025665
 31
0.0
  0
LINE
  5
365
330
51
100
AcDbEntity
  8
0-0_補助線
  6
Continuous
 62
     7
370
     9
100
AcDbLine
 10
7.849999999999909
 20
1.408974358974312
 30
0.0
 11
4.849999999999909
 21
1.408974358974312
 31
0.0
  0
LINE
  5
366
330
51
100
AcDbEntity
  8
0-0_補助線
  6
Continuous
 62
     7
370
     9
100
AcDbLine
 10
-4.849999999999909
 20
1.408974358974312
 30
0.0
 11
-7.849999999999909
 21
1.408974358974312
 31
0.0
  0
LINE
  5
367
330
51
100
AcDbEntity
  8
0-0_補助線
  6
Continuous
 62
     7
370
     9
100
AcDbLine
 10
-4.849999999999909
 20
2.008974358974335
 30
0.0
 11
-7.849999999999909
 21
1.70897435897438
 31
0.0
  0
ARC
  5
368
330
51
100
AcDbEntity
  8
0-0_補助線
  6
Continuous
 62
     7
370
     9
100
AcDbCircle
 10
-7.849999999999909
 20
1.558974358974403
 30
0.0
 40
0.15
100
AcDbArc
 50
90.0
 51
270.0
  0
ARC
  5
369
330
51
100
AcDbEntity
  8
0-0_補助線
  6
Continuous
 62
     7
370
     9
100
AcDbCircle
 10
7.849999999999909
 20
1.558974358974403
 30
0.0
 40
0.15
100
AcDbArc
 50
270.0
 51
89.99999999999997
  0
LINE
  5
36A
330
51
100
AcDbEntity
  8
0-0_補助線
  6
Continuous
 62
     7
370
     9
100
AcDbLine
 10
7.849999999999909
 20
1.70897435897438
 30
0.0
 11
4.849999999999909
 21
2.008974358974335
 31
0.0
  0
LINE
  5
36B
330
51
100
AcDbEntity
  8
0-0_補助線
  6
Continuous
 62
     7
370
     9
100
AcDbLine
 10
-3.050000000000182
 20
2.008974358974335
 30
0.0
 11
-4.849999999999909
 21
2.008974358974335
 31
0.0
  0
ARC
  5
36C
330
51
100
AcDbEntity
  8
0-0_補助線
  6
Continuous
 62
     7
370
     9
100
AcDbCircle
 10
-3.050000000000182
 20
1.70897435897438
 30
0.0
 40
0.3
100
AcDbArc
 50
0.0
 51
90.0
  0
ARC
  5
36D
330
51
100
AcDbEntity
  8
0-0_補助線
  6
Continuous
 62
     7
370
     9
100
AcDbCircle
 10
-3.050000000000182
 20
1.70897435897438
 30
0.0
 40
0.3
100
AcDbArc
 50
270.0
 51
0.0
  0
ARC
  5
36E
330
51
100
AcDbEntity
  8
0-0_補助線
  6
Continuous
 62
     7
370
     9
100
AcDbCircle
 10
3.050000000000182
 20
1.70897435897438
 30
0.0
 40
0.3
100
AcDbArc
 50
180.0
 51
270.0
  0
LINE
  5
36F
330
51
100
AcDbEntity
  8
0-0_補助線
  6
Continuous
 62
     7
370
     9
100
AcDbLine
 10
3.050000000000182
 20
2.008974358974335
 30
0.0
 11
4.849999999999909
 21
2.008974358974335
 31
0.0
  0
ARC
  5
370
330
51
100
AcDbEntity
  8
0-0_補助線
  6
Continuous
 62
     7
370
     9
100
AcDbCircle
 10
3.050000000000182
 20
1.70897435897438
 30
0.0
 40
0.3
100
AcDbArc
 50
90.0
 51
180.0
  0
LINE
  5
371
330
51
100
AcDbEntity
  8
0-0_補助線
  6
Continuous
 62
     7
370
     9
100
AcDbLine
 10
4.849999999999909
 20
-1.341025641025688
 30
0.0
 11
4.849999999999909
 21
1.408974358974312
 31
0.0
  0
ARC
  5
372
330
51
100
AcDbEntity
  8
0-0_補助線
  6
Continuous
 62
     7
370
     9
100
AcDbCircle
 10
4.099999999999909
 20
-1.341025641025688
 30
0.0
 40
0.75
100
AcDbArc
 50
270.0
 51
0.0
  0
LINE
  5
373
330
51
100
AcDbEntity
  8
0-0_補助線
  6
Continuous
 62
     7
370
     9
100
AcDbLine
 10
-4.849999999999909
 20
-1.341025641025688
 30
0.0
 11
-4.849999999999909
 21
1.408974358974312
 31
0.0
  0
LINE
  5
374
330
51
100
AcDbEntity
  8
0-0_補助線
  6
Continuous
 62
     7
370
     9
100
AcDbLine
 10
-4.099999999999909
 20
-2.091025641025688
 30
0.0
 11
4.099999999999909
 21
-2.091025641025688
 31
0.0
  0
ARC
  5
375
330
51
100
AcDbEntity
  8
0-0_補助線
  6
Continuous
 62
     7
370
     9
100
AcDbCircle
 10
-4.099999999999909
 20
-1.341025641025688
 30
0.0
 40
0.75
100
AcDbArc
 50
180.0
 51
270.0
  0
LINE
  5
376
330
51
100
AcDbEntity
  8
0-0_補助線
  6
Continuous
 62
     7
370
     9
100
AcDbLine
 10
-4.0
 20
1.408974358974312
 30
0.0
 11
-3.050000000000182
 21
1.408974358974312
 31
0.0
  0
LINE
  5
377
330
51
100
AcDbEntity
  8
0-0_補助線
  6
Continuous
 62
     7
370
     9
100
AcDbLine
 10
-4.25
 20
1.158974358974312
 30
0.0
 11
-4.25
 21
-1.491025641025665
 31
0.0
  0
ARC
  5
378
330
51
100
AcDbEntity
  8
0-0_補助線
  6
Continuous
 62
     7
370
     9
100
AcDbCircle
 10
-4.0
 20
1.158974358974312
 30
0.0
 40
0.25
100
AcDbArc
 50
90.0
 51
180.0
  0
LINE
  5
379
330
51
100
AcDbEntity
  8
0-0_補助線
  6
Continuous
 62
     7
370
     9
100
AcDbLine
 10
4.0
 20
1.408974358974312
 30
0.0
 11
3.050000000000182
 21
1.408974358974312
 31
0.0
  0
LINE
  5
37A
330
51
100
AcDbEntity
  8
0-0_補助線
  6
Continuous
 62
     7
370
     9
100
AcDbLine
 10
4.25
 20
1.158974358974312
 30
0.0
 11
4.25
 21
-1.491025641025665
 31
0.0
  0
ARC
  5
37B
330
51
100
AcDbEntity
  8
0-0_補助線
  6
Continuous
 62
     7
370
     9
100
AcDbCircle
 10
4.0
 20
1.158974358974312
 30
0.0
 40
0.25
100
AcDbArc
 50
0.0
 51
90.0
  0
LINE
  5
37C
330
51
100
AcDbEntity
  8
0-0_補助線
  6
Continuous
 62
     7
370
     9
100
AcDbLine
 10
-3.25
 20
-1.091025641025688
 30
0.0
 11
-3.25
 21
-1.491025641025665
 31
0.0
  0
ARC
  5
37D
330
51
100
AcDbEntity
  8
0-0_補助線
  6
Continuous
 62
     7
370
     9
100
AcDbCircle
 10
-3.150000000000091
 20
-1.091025641025688
 30
0.0
 40
0.1
100
AcDbArc
 50
90.0
 51
180.0
  0
LINE
  5
37E
330
51
100
AcDbEntity
  8
0-0_補助線
  6
Continuous
 62
     7
370
     9
100
AcDbLine
 10
-2.849999999999909
 20
-0.991025641025665
 30
0.0
 11
-3.150000000000091
 21
-0.991025641025665
 31
0.0
  0
LINE
  5
37F
330
51
100
AcDbEntity
  8
0-0_補助線
  6
Continuous
 62
     7
370
     9
100
AcDbLine
 10
-2.75
 20
-1.091025641025688
 30
0.0
 11
-2.75
 21
-1.491025641025665
 31
0.0
  0
ARC
  5
380
330
51
100
AcDbEntity
  8
0-0_補助線
  6
Continuous
 62
     7
370
     9
100
AcDbCircle
 10
-2.849999999999909
 20
-1.091025641025688
 30
0.0
 40
0.1
100
AcDbArc
 50
0.0
 51
90.0
  0
LINE
  5
381
330
51
100
AcDbEntity
  8
0-0_補助線
  6
Continuous
 62
     7
370
     9
100
AcDbLine
 10
2.75
 20
-1.091025641025688
 30
0.0
 11
2.75
 21
-1.491025641025665
 31
0.0
  0
ARC
  5
382
330
51
100
AcDbEntity
  8
0-0_補助線
  6
Continuous
 62
     7
370
     9
100
AcDbCircle
 10
2.849999999999909
 20
-1.091025641025688
 30
0.0
 40
0.1
100
AcDbArc
 50
90.0
 51
180.0
  0
LINE
  5
383
330
51
100
AcDbEntity
  8
0-0_補助線
  6
Continuous
 62
     7
370
     9
100
AcDbLine
 10
3.150000000000091
 20
-0.991025641025665
 30
0.0
 11
2.849999999999909
 21
-0.991025641025665
 31
0.0
  0
LINE
  5
384
330
51
100
AcDbEntity
  8
0-0_補助線
  6
Continuous
 62
     7
370
     9
100
AcDbLine
 10
3.25
 20
-1.091025641025688
 30
0.0
 11
3.25
 21
-1.491025641025665
 31
0.0
  0
ARC
  5
385
330
51
100
AcDbEntity
  8
0-0_補助線
  6
Continuous
 62
     7
370
     9
100
AcDbCircle
 10
3.150000000000091
 20
-1.091025641025688
 30
0.0
 40
0.1
100
AcDbArc
 50
0.0
 51
90.0
  0
ENDBLK
  5
53
330
51
100
AcDbEntity
  8
0
100
AcDbBlockEnd
  0
ENDSEC
  0
SECTION
  2
ENTITIES
  0
LINE
  5
54
330
1F
100
AcDbEntity
  8
F-0_補助線
  6
JWW_HOJO
 62
   120
370
     5
100
AcDbLine
 10
-6140.081333436773
 20
-4455.0
 30
0.0
 11
-6140.081333436773
 21
4424.999604096284
 31
0.0
  0
LINE
  5
55
330
1F
100
AcDbEntity
  8
F-0_補助線
  6
JWW_HOJO
 62
   120
370
     5
100
AcDbLine
 10
-6140.081333436773
 20
4424.999604096284
 30
0.0
 11
6159.917676803936
 21
4424.999604096284
 31
0.0
  0
LINE
  5
56
330
1F
100
AcDbEntity
  8
F-0_補助線
  6
JWW_HOJO
 62
   120
370
     5
100
AcDbLine
 10
6159.917676803936
 20
4424.999604096284
 30
0.0
 11
6159.917676803936
 21
-4455.0
 31
0.0
  0
LINE
  5
57
330
1F
100
AcDbEntity
  8
F-0_補助線
  6
JWW_HOJO
 62
   120
370
     5
100
AcDbLine
 10
6159.917676803936
 20
-4455.0
 30
0.0
 11
-6140.081333436773
 21
-4455.0
 31
0.0
  0
LINE
  5
58
330
1F
100
AcDbEntity
  8
F-0_補助線
  6
JWW_HOJO
 62
     7
370
     9
100
AcDbLine
 10
1009.918254163524
 20
-3795.000003092998
 30
0.0
 11
1009.918254163524
 21
-4195.000008247994
 31
0.0
  0
LINE
  5
59
330
1F
100
AcDbEntity
  8
F-0_補助線
  6
JWW_HOJO
 62
     7
370
     9
100
AcDbLine
 10
509.9185840832865
 20
-3795.000003092998
 30
0.0
 11
509.9185840832865
 21
-4195.000008247994
 31
0.0
  0
LINE
  5
5A
330
1F
100
AcDbEntity
  8
F-1_枠
  6
Continuous
 62
   200
370
    20
100
AcDbLine
 10
5859.917429364118
 20
4174.999769056166
 30
0.0
 11
5859.917429364118
 21
-4205.000164959882
 31
0.0
  0
LINE
  5
5B
330
1F
100
AcDbEntity
  8
F-1_枠
  6
Continuous
 62
   200
370
    20
100
AcDbLine
 10
-5840.081317971782
 20
4174.999769056166
 30
0.0
 11
-5840.081317971782
 21
-4205.000164959882
 31
0.0
  0
LINE
  5
5C
330
1F
100
AcDbEntity
  8
F-1_枠
  6
Continuous
 62
   200
370
    20
100
AcDbLine
 10
5859.917429364118
 20
-4205.000002577499
 30
0.0
 11
-5840.081085996952
 21
-4205.000002577499
 31
0.0
  0
LINE
  5
5D
330
1F
100
AcDbEntity
  8
F-1_枠
  6
Continuous
 62
   200
370
    20
100
AcDbLine
 10
-5830.081323642278
 20
4174.999769056166
 30
0.0
 11
-5830.081323642278
 21
-4205.000164959882
 31
0.0
  0
LINE
  5
5E
330
1F
100
AcDbEntity
  8
F-1_枠
  6
Continuous
 62
   200
370
    20
100
AcDbLine
 10
-5835.081309208292
 20
4174.999769056166
 30
0.0
 11
-5835.081309208292
 21
-4205.000164959882
 31
0.0
  0
LINE
  5
5F
330
1F
100
AcDbEntity
  8
F-1_枠
  6
Continuous
 62
   200
370
    20
100
AcDbLine
 10
5854.917165428305
 20
4174.999769056166
 30
0.0
 11
5854.917165428305
 21
-4205.000164959882
 31
0.0
  0
LINE
  5
60
330
1F
100
AcDbEntity
  8
F-1_枠
  6
Continuous
 62
   200
370
    20
100
AcDbLine
 10
5849.917643811961
 20
4174.999769056166
 30
0.0
 11
5849.917643811961
 21
-4205.000164959882
 31
0.0
  0
LINE
  5
61
330
1F
100
AcDbEntity
  8
F-1_枠
  6
Continuous
 62
   200
370
    20
100
AcDbLine
 10
5859.917429364118
 20
-4199.999993814004
 30
0.0
 11
-5840.081085996952
 21
-4199.999993814004
 31
0.0
  0
LINE
  5
62
330
1F
100
AcDbEntity
  8
F-1_枠
  6
Continuous
 62
   200
370
    20
100
AcDbLine
 10
5859.917429364118
 20
-4195.000008247994
 30
0.0
 11
-5840.081085996952
 21
-4195.000008247994
 31
0.0
  0
LINE
  5
63
330
1F
100
AcDbEntity
  8
F-1_枠
  6
Continuous
 62
   200
370
    20
100
AcDbLine
 10
4349.917891251784
 20
-3795.000003092998
 30
0.0
 11
4349.917891251784
 21
-4195.000008247994
 31
0.0
  0
LINE
  5
64
330
1F
100
AcDbEntity
  8
F-1_枠
  6
Continuous
 62
   200
370
    20
100
AcDbLine
 10
2849.91739637214
 20
-3795.000003092998
 30
0.0
 11
2849.91739637214
 21
-4195.000008247994
 31
0.0
  0
LINE
  5
65
330
1F
100
AcDbEntity
  8
F-1_枠
  6
Continuous
 62
   200
370
    20
100
AcDbLine
 10
9.918542843317937
 20
-3795.000003092998
 30
0.0
 11
9.918542843317937
 21
-4195.000008247994
 31
0.0
  0
LINE
  5
66
330
1F
100
AcDbEntity
  8
F-1_枠
  6
Continuous
 62
   200
370
    20
100
AcDbLine
 10
9.918542843317937
 20
-3994.999936078045
 30
0.0
 11
5849.917643811961
 21
-3995.005364289155
 31
0.0
  0
LINE
  5
67
330
1F
100
AcDbEntity
  8
F-1_枠
  6
Continuous
 62
   200
370
    20
100
AcDbLine
 10
-5840.081085996952
 20
4174.999769056166
 30
0.0
 11
5859.917429364118
 21
4174.999769056166
 31
0.0
  0
LINE
  5
68
330
1F
100
AcDbEntity
  8
F-1_枠
  6
Continuous
 62
   200
370
    20
100
AcDbLine
 10
-5840.081085996952
 20
4164.999983504013
 30
0.0
 11
5859.917429364118
 21
4164.999983504013
 31
0.0
  0
LINE
  5
69
330
1F
100
AcDbEntity
  8
F-1_枠
  6
Continuous
 62
   200
370
    20
100
AcDbLine
 10
-5840.081085996952
 20
4169.999505120355
 30
0.0
 11
5859.917429364118
 21
4169.999505120355
 31
0.0
  0
LINE
  5
6A
330
1F
100
AcDbEntity
  8
F-0_補助線
  6
JWW_HOJO
 62
     7
370
     9
100
AcDbLine
 10
-5830.081323642278
 20
-3994.99993607839
 30
0.0
 11
9.918542843317937
 21
-3994.99993607839
 31
0.0
  0
LINE
  5
6B
330
1F
100
AcDbEntity
  8
F-0_補助線
  6
JWW_HOJO
 62
     7
370
     9
100
AcDbLine
 10
-5830.081323642278
 20
-3904.99993607839
 30
0.0
 11
9.918542843317937
 21
-3904.99993607839
 31
0.0
  0
LINE
  5
6C
330
1F
100
AcDbEntity
  8
F-0_補助線
  6
JWW_HOJO
 62
     7
370
     9
100
AcDbLine
 10
-5830.081323642278
 20
-4084.99993607839
 30
0.0
 11
9.918542843317937
 21
-4084.99993607839
 31
0.0
  0
LINE
  5
6D
330
1F
100
AcDbEntity
  8
F-0_補助線
  6
JWW_HOJO
 62
     7
370
     9
100
AcDbLine
 10
9.918408067690052
 20
-4139.999739777984
 30
0.0
 11
5849.917509036333
 21
-4140.005167989091
 31
0.0
  0
LINE
  5
6E
330
1F
100
AcDbEntity
  8
F-0_補助線
  6
JWW_HOJO
 62
     7
370
     9
100
AcDbLine
 10
9.918491721641658
 20
-4049.999739778022
 30
0.0
 11
5849.917592690285
 21
-4050.005167989132
 31
0.0
  0
LINE
  5
6F
330
1F
100
AcDbEntity
  8
F-0_補助線
  6
JWW_HOJO
 62
     7
370
     9
100
AcDbLine
 10
9.91859396535915
 20
-3939.99973721807
 30
0.0
 11
5849.917694934006
 21
-3940.005165429179
 31
0.0
  0
LINE
  5
70
330
1F
100
AcDbEntity
  8
F-0_補助線
  6
JWW_HOJO
 62
     7
370
     9
100
AcDbLine
 10
9.918677619310756
 20
-3849.999737218109
 30
0.0
 11
5849.917778587951
 21
-3850.005165429218
 31
0.0
  0
LINE
  5
71
330
1F
100
AcDbEntity
  8
F-0_補助線
  6
JWW_HOJO
 62
     7
370
     9
100
AcDbLine
 10
2939.91739637214
 20
-3795.000003092998
 30
0.0
 11
2939.91739637214
 21
-4195.000008247994
 31
0.0
  0
LINE
  5
72
330
1F
100
AcDbEntity
  8
F-0_補助線
  6
JWW_HOJO
 62
     7
370
     9
100
AcDbLine
 10
99.91854284331794
 20
-3795.000003092998
 30
0.0
 11
99.91854284331794
 21
-4195.000008247994
 31
0.0
  0
LINE
  5
73
330
1F
100
AcDbEntity
  8
F-0_補助線
  6
JWW_HOJO
 62
     7
370
     9
100
AcDbLine
 10
4439.917891251784
 20
-3795.000003092998
 30
0.0
 11
4439.917891251784
 21
-4195.000008247994
 31
0.0
  0
MTEXT
  5
74
330
1F
100
AcDbEntity
  8
F-A_文字
  6
Continuous
 62
     7
370
     0
100
AcDbMText
 10
4439.917891251784
 20
-3887.143854850754
 30
0.0
 40
45.72
 41
240.0
 46
0.0
 71
     7
 72
     1
  1
{\fＭＳ ゴシック|b0|i0|c128|p49;ＤＡＴＥ}
 73
     1
 44
1.0
  0
MTEXT
  5
75
330
1F
100
AcDbEntity
  8
F-A_文字
  6
Continuous
 62
     7
370
     0
100
AcDbMText
 10
4439.917891251784
 20
-4087.143857410839
 30
0.0
 40
45.72
 41
180.0
 46
0.0
 71
     7
 72
     1
  1
{\fＭＳ ゴシック|b0|i0|c128|p49;ＮＯ．}
 73
     1
 44
1.0
  0
MTEXT
  5
76
330
1F
100
AcDbEntity
  8
F-A_文字
  6
Continuous
 62
     7
370
     0
100
AcDbMText
 10
2939.91739637214
 20
-3887.142460617775
 30
0.0
 40
45.72
 41
300.0
 46
0.0
 71
     7
 72
     1
  1
{\fＭＳ ゴシック|b0|i0|c128|p49;ＳＣＡＬＥ}
 73
     1
 44
1.0
  0
MTEXT
  5
77
330
1F
100
AcDbEntity
  8
F-A_文字
  6
Continuous
 62
     7
370
     0
100
AcDbMText
 10
2939.91739637214
 20
-4087.142463177859
 30
0.0
 40
45.72
 41
240.0
 46
0.0
 71
     7
 72
     1
  1
{\fＭＳ ゴシック|b0|i0|c128|p49;ＦＩＬＥ}
 73
     1
 44
1.0
  0
MTEXT
  5
78
330
1F
100
AcDbEntity
  8
F-A_文字
  6
Continuous
 62
     7
370
     0
100
AcDbMText
 10
99.91854284331794
 20
-3887.139820871936
 30
0.0
 40
45.72
 41
180.0
 46
0.0
 71
     7
 72
     1
  1
{\fＭＳ ゴシック|b0|i0|c128|p49;図面名}
 73
     1
 44
1.0
  0
MTEXT
  5
79
330
1F
100
AcDbEntity
  8
F-A_文字
  6
Continuous
 62
     7
370
     0
100
AcDbMText
 10
1604.917396372136
 20
-4164.281754523929
 30
0.0
 40
101.44125
 41
1065.0
 46
0.0
 71
     7
 72
     1
  1
{\fＭＳ ゴシック|b0|i0|c128|p49;ウッドワン・・・}
 73
     1
 44
1.0
  0
MTEXT
  5
7A
330
1F
100
AcDbEntity
  8
F-A_文字
  6
Continuous
 62
     7
370
     0
100
AcDbMText
 10
1394.917396372136
 20
-4096.140669266148
 30
0.0
 40
45.72
 41
120.0
 46
0.0
 71
     7
 72
     1
  1
{\fＭＳ ゴシック|b0|i0|c128|p49;株式}
 73
     1
 44
1.0
  0
MTEXT
  5
7B
330
1F
100
AcDbEntity
  8
F-A_文字
  6
Continuous
 62
     7
370
     0
100
AcDbMText
 10
1394.917396372136
 20
-4168.140669266188
 30
0.0
 40
45.72
 41
120.0
 46
0.0
 71
     7
 72
     1
  1
{\fＭＳ ゴシック|b0|i0|c128|p49;会社}
 73
     1
 44
1.0
  0
LINE
  5
7C
330
1F
100
AcDbEntity
  8
F-1_枠
  6
Continuous
 62
   200
370
    20
100
AcDbLine
 10
5859.917429364118
 20
-3795.000003092998
 30
0.0
 11
-5840.081085996952
 21
-3795.000003092998
 31
0.0
  0
LINE
  5
7D
330
1F
100
AcDbEntity
  8
F-1_枠
  6
Continuous
 62
   200
370
    20
100
AcDbLine
 10
5859.917429364118
 20
-3790.000017526988
 30
0.0
 11
-5840.081085996952
 21
-3790.000017526988
 31
0.0
  0
LINE
  5
7E
330
1F
100
AcDbEntity
  8
F-0_補助線
  6
JWW_HOJO
 62
     7
370
     9
100
AcDbLine
 10
-5087.628710189612
 20
-3795.000003093
 30
0.0
 11
-5087.628710189612
 21
-4205.000164959882
 31
0.0
  0
LINE
  5
7F
330
1F
100
AcDbEntity
  8
F-0_補助線
  6
JWW_HOJO
 62
     7
370
     9
100
AcDbLine
 10
-50.08145715668206
 20
-3795.000003092998
 30
0.0
 11
-50.08145715668206
 21
-4195.000008247994
 31
0.0
  0
MTEXT
  5
80
330
1F
100
AcDbEntity
  8
F-0_補助線
  6
Continuous
 62
     7
370
     0
100
AcDbMText
 10
509.9185840832865
 20
-3946.496666872502
 30
0.0
 40
78.58125
 41
412.5
 46
0.0
 71
     7
 72
     1
  1
{\fＭＳ ゴシック|b0|i0|c128|p49;DOORETUS}
 73
     1
 44
1.0
  0
MTEXT
  5
81
330
1F
100
AcDbEntity
  8
F-0_補助線
  6
Continuous
 62
     7
370
     0
100
AcDbMText
 10
1110.209427605312
 20
-3946.734791872503
 30
0.0
 40
78.105
 41
615.0
 46
0.0
 71
     7
 72
     1
  1
{\fＭＳ ゴシック|b0|i0|c128|p49;建具納まり図}
 73
     1
 44
1.0
  0
LINE
  5
82
330
1F
100
AcDbEntity
  8
0-A_文字
  6
Continuous
 62
    92
370
    13
100
AcDbLine
 10
-5659.999495325865
 20
3730.00018145587
 30
0.0
 11
-5659.999495325865
 21
4000.00018145587
 31
0.0
  0
ELLIPSE
  5
83
330
1F
100
AcDbEntity
  8
戸当り
  6
Continuous
 62
    92
370
    13
100
AcDbEllipse
 10
4855.430917458078
 20
2876.053590301512
 30
0.0
 11
11.36181697857171
 21
42.40287823032828
 31
0.0
210
0.0
220
0.0
230
0.9999999999999999
 40
0.6
 41
1.570796326794897
 42
4.71238898038469
  0
LINE
  5
84
330
1F
100
AcDbEntity
  8
戸当り
  6
Continuous
 62
    92
370
    13
100
AcDbLine
 10
4880.872644396272
 20
2869.23650011437
 30
0.0
 11
4829.989190519878
 21
2882.870680488654
 31
0.0
  0
LINE
  5
85
330
1F
100
AcDbEntity
  8
戸当り
  6
Continuous
 62
    92
370
    13
100
AcDbLine
 10
4884.133764364564
 20
2881.407165525611
 30
0.0
 11
4833.25031048817
 21
2895.041345899898
 31
0.0
  0
ELLIPSE
  5
86
330
1F
100
AcDbEntity
  8
戸当り
  6
Continuous
 62
    92
370
    13
100
AcDbEllipse
 10
4879.604310755758
 20
2966.269922279796
 30
0.0
 11
21.86569797210526
 21
81.6038957748525
 31
0.0
210
0.0
220
0.0
230
1.0
 40
0.5
 41
4.340591432030095
 42
8.225779182329084
  0
ELLIPSE
  5
87
330
1F
100
AcDbEntity
  8
戸当り
  6
Continuous
 62
    92
370
    13
100
AcDbEllipse
 10
4878.978687882654
 20
2963.935065931006
 30
0.0
 11
26.49533313827761
 21
98.88192943551533
 31
0.0
210
0.0
220
0.0
230
0.9999999999999999
 40
0.4
 41
3.840308517104466
 42
4.432552034522944
  0
ELLIPSE
  5
88
330
1F
100
AcDbEntity
  8
戸当り
  6
Continuous
 62
    92
370
    13
100
AcDbEllipse
 10
4878.978687882654
 20
2963.935065931006
 30
0.0
 11
26.49533313827761
 21
98.88192943551533
 31
0.0
210
0.0
220
0.0
230
0.9999999999999999
 40
0.4
 41
1.850633272656679
 42
2.442876790075129
  0
ELLIPSE
  5
89
330
1F
100
AcDbEntity
  8
戸当り
  6
Continuous
 62
    92
370
    13
100
AcDbEllipse
 10
4740.316707711373
 20
2838.284846937212
 30
0.0
 11
-7.622927487939132
 21
43.23177007461331
 31
0.0
210
0.0
220
0.0
230
1.0
 40
0.6000000000000001
 41
1.570796326794897
 42
4.71238898038469
  0
LINE
  5
8A
330
1F
100
AcDbEntity
  8
戸当り
  6
Continuous
 62
    92
370
    13
100
AcDbLine
 10
4766.255769756144
 20
2842.858603429976
 30
0.0
 11
4714.377645666606
 21
2833.711090444447
 31
0.0
  0
LINE
  5
8B
330
1F
100
AcDbEntity
  8
戸当り
  6
Continuous
 62
    92
370
    13
100
AcDbLine
 10
4764.067802717541
 20
2855.267181117928
 30
0.0
 11
4712.189678628002
 21
2846.119668132402
 31
0.0
  0
ELLIPSE
  5
8C
330
1F
100
AcDbEntity
  8
戸当り
  6
Continuous
 62
    92
370
    13
100
AcDbEllipse
 10
4724.098172894875
 20
2930.264728582855
 30
0.0
 11
-14.67024424252691
 21
83.19908946199426
 31
0.0
210
0.0
220
0.0
230
1.0
 40
0.5
 41
4.340591432030095
 42
8.225779182329084
  0
ELLIPSE
  5
8D
330
1F
100
AcDbEntity
  8
戸当り
  6
Continuous
 62
    92
370
    13
100
AcDbEllipse
 10
4724.517918944779
 20
2927.884230441199
 30
0.0
 11
-17.7763823922528
 21
100.8148742797557
 31
0.0
210
0.0
220
0.0
230
1.0
 40
0.4000000000000001
 41
3.840308517104466
 42
4.432552034522944
  0
ELLIPSE
  5
8E
330
1F
100
AcDbEntity
  8
戸当り
  6
Continuous
 62
    92
370
    13
100
AcDbEllipse
 10
4724.517918944779
 20
2927.884230441199
 30
0.0
 11
-17.7763823922528
 21
100.8148742797557
 31
0.0
210
0.0
220
0.0
230
1.0
 40
0.4000000000000001
 41
1.850633272656679
 42
2.442876790075129
  0
LINE
  5
8F
330
1F
100
AcDbEntity
  8
0-A_文字
  6
Continuous
 62
    92
370
    13
100
AcDbLine
 10
5369.917643811961
 20
3684.999983504014
 30
0.0
 11
5369.917643811961
 21
2718.999983504014
 31
0.0
  0
LINE
  5
90
330
1F
100
AcDbEntity
  8
0-A_文字
  6
Continuous
 62
    92
370
    13
100
AcDbLine
 10
5369.917643811961
 20
2718.999983504014
 30
0.0
 11
4229.917643811961
 21
2718.999983504014
 31
0.0
  0
LINE
  5
91
330
1F
100
AcDbEntity
  8
0-A_文字
  6
Continuous
 62
    92
370
    13
100
AcDbLine
 10
4229.917643811961
 20
3684.999983504014
 30
0.0
 11
4229.917643811961
 21
2718.999983504014
 31
0.0
  0
LINE
  5
92
330
1F
100
AcDbEntity
  8
0-0_補助線
  6
JWW_HOJO
 62
   120
370
     5
100
AcDbLine
 10
5339.917643811961
 20
3684.999983504014
 30
0.0
 11
5339.917643811961
 21
2718.999983504014
 31
0.0
  0
LINE
  5
93
330
1F
100
AcDbEntity
  8
0-0_補助線
  6
JWW_HOJO
 62
   120
370
     5
100
AcDbLine
 10
4259.917643811961
 20
3684.999983504014
 30
0.0
 11
4259.917643811961
 21
2718.999983504014
 31
0.0
  0
LINE
  5
94
330
1F
100
AcDbEntity
  8
0-0_補助線
  6
JWW_HOJO
 62
   120
370
     5
100
AcDbLine
 10
4799.917643811961
 20
3684.999983504014
 30
0.0
 11
4799.917643811961
 21
2718.999983504014
 31
0.0
  0
CIRCLE
  5
95
330
1F
100
AcDbEntity
  8
0-0_補助線
  6
JWW_HOJO
 62
   120
370
     5
100
AcDbCircle
 10
5159.917643811961
 20
3385.504011182751
 30
0.0
 40
240.0
  0
CIRCLE
  5
96
330
1F
100
AcDbEntity
  8
0-0_補助線
  6
JWW_HOJO
 62
   120
370
     5
100
AcDbCircle
 10
4799.917643811961
 20
3385.504011182751
 30
0.0
 40
240.0
  0
CIRCLE
  5
97
330
1F
100
AcDbEntity
  8
0-0_補助線
  6
JWW_HOJO
 62
   120
370
     5
100
AcDbCircle
 10
4444.047372024825
 20
3385.504011182751
 30
0.0
 40
240.0
  0
LINE
  5
98
330
1F
100
AcDbEntity
  8
戸当り
  6
Continuous
 62
    40
370
    15
100
AcDbLine
 10
4502.034214636565
 20
3153.681812873372
 30
0.0
 11
4564.150785461171
 21
3385.504011182751
 31
0.0
  0
LINE
  5
99
330
1F
100
AcDbEntity
  8
戸当り
  6
Continuous
 62
    40
370
    15
100
AcDbLine
 10
4502.034214636565
 20
3153.681812873372
 30
0.0
 11
4439.917643811961
 21
3385.504011182751
 31
0.0
  0
LINE
  5
9A
330
1F
100
AcDbEntity
  8
戸当り
  6
Continuous
 62
    40
370
    15
100
AcDbLine
 10
5035.684502162752
 20
3385.504011182751
 30
0.0
 11
5097.801072987355
 21
3153.681812873372
 31
0.0
  0
LINE
  5
9B
330
1F
100
AcDbEntity
  8
戸当り
  6
Continuous
 62
    40
370
    15
100
AcDbLine
 10
5159.917643811961
 20
3385.504011182751
 30
0.0
 11
5097.801072987355
 21
3153.681812873372
 31
0.0
  0
LINE
  5
9C
330
1F
100
AcDbEntity
  8
戸当り
  6
JWW_DASHED2
 62
     7
370
     9
100
AcDbLine
 10
5159.917643811961
 20
3385.504011182751
 30
0.0
 11
4439.917643811961
 21
3385.504011182751
 31
0.0
  0
LINE
  5
9D
330
1F
100
AcDbEntity
  8
戸当り
  6
Continuous
 62
    40
370
    15
100
AcDbLine
 10
5159.917643811961
 20
3439.504011182749
 30
0.0
 11
5159.917643811961
 21
3385.504011182751
 31
0.0
  0
LINE
  5
9E
330
1F
100
AcDbEntity
  8
戸当り
  6
Continuous
 62
    40
370
    15
100
AcDbLine
 10
5159.917643811961
 20
3439.504011182749
 30
0.0
 11
5339.917643811961
 21
3439.504011182749
 31
0.0
  0
LINE
  5
9F
330
1F
100
AcDbEntity
  8
戸当り
  6
Continuous
 62
    40
370
    15
100
AcDbLine
 10
5159.917643811961
 20
3385.504011182751
 30
0.0
 11
5339.917643811961
 21
3385.504011182751
 31
0.0
  0
LINE
  5
A0
330
1F
100
AcDbEntity
  8
戸当り
  6
Continuous
 62
    40
370
    15
100
AcDbLine
 10
4439.917643811961
 20
3439.504011182749
 30
0.0
 11
4439.917643811961
 21
3385.504011182751
 31
0.0
  0
LINE
  5
A1
330
1F
100
AcDbEntity
  8
戸当り
  6
Continuous
 62
    40
370
    15
100
AcDbLine
 10
4439.917643811961
 20
3439.504011182749
 30
0.0
 11
4259.917643811961
 21
3439.504011182749
 31
0.0
  0
LINE
  5
A2
330
1F
100
AcDbEntity
  8
戸当り
  6
Continuous
 62
    40
370
    15
100
AcDbLine
 10
4439.917643811961
 20
3385.504011182751
 30
0.0
 11
4259.917643811961
 21
3385.504011182751
 31
0.0
  0
LINE
  5
A3
330
1F
100
AcDbEntity
  8
0-A_文字
  6
Continuous
 62
    92
370
    13
100
AcDbLine
 10
5369.917643811961
 20
3540.999983504013
 30
0.0
 11
4229.917643811961
 21
3540.999983504013
 31
0.0
  0
LINE
  5
A4
330
1F
100
AcDbEntity
  8
0-A_文字
  6
Continuous
 62
    92
370
    13
100
AcDbLine
 10
5369.917643811961
 20
3684.999983504014
 30
0.0
 11
4229.917643811961
 21
3684.999983504014
 31
0.0
  0
MTEXT
  5
A5
330
1F
100
AcDbEntity
  8
0-A_文字
  6
Continuous
 62
     7
370
     9
100
AcDbMText
 10
4278.667643811961
 20
3554.775383504014
 30
0.0
 40
63.55080000000001
 41
1042.5
 46
0.0
 71
     7
 72
     1
  1
{\fＭＳ ゴシック|b0|i0|c128|p49;上吊軸固定/フリーオープン}
 73
     1
 44
1.0
  0
MTEXT
  5
A6
330
1F
100
AcDbEntity
  8
F-A_文字
  6
Continuous
 62
     7
370
     0
100
AcDbMText
 10
3689.917643811962
 20
-3946.903115907308
 30
0.0
 40
76.19999999999999
 41
150.0
 46
0.0
 71
     7
 72
     1
  1
{\fＭＳ ゴシック|b0|i0|c128|p49;1/5}
 73
     1
 44
1.0
  0
MTEXT
  5
A7
330
1F
100
AcDbEntity
  8
0-A_文字
  6
Continuous
 62
    92
370
    13
100
AcDbMText
 10
-5592.499495325861
 20
3758.959004985282
 30
0.0
 40
147.9176470588235
 41
3300.0
 46
0.0
 71
     7
 72
     1
  1
{\fＭＳ ゴシック|b0|i0|c128|p49;クローゼットドア　調整枠　間口６尺}
 73
     1
 44
1.0
  0
LINE
  5
A8
330
1F
100
AcDbEntity
  8
0-A_文字
  6
Continuous
 62
    92
370
    13
100
AcDbLine
 10
-5659.999495325865
 20
3730.00018145587
 30
0.0
 11
-2221.428571428571
 21
3730.00018145587
 31
0.0
  0
LINE
  5
A9
330
1F
100
AcDbEntity
  8
0-A_文字
  6
Continuous
 62
    92
370
    13
100
AcDbLine
 10
-5659.999495325865
 20
4000.00018145587
 30
0.0
 11
-2221.428571428571
 21
4000.00018145587
 31
0.0
  0
LINE
  5
AA
330
1F
100
AcDbEntity
  8
0-A_文字
  6
Continuous
 62
    92
370
    13
100
AcDbLine
 10
-2221.428571428571
 20
3730.00018145587
 30
0.0
 11
-2221.428571428571
 21
4000.00018145587
 31
0.0
  0
MTEXT
  5
AB
330
1F
100
AcDbEntity
  8
F-A_文字
  6
Continuous
 62
     7
370
     0
100
AcDbMText
 10
-5080.081323642278
 20
-4045.07013344681
 30
0.0
 40
79.85960526315785
 41
3982.5
 46
0.0
 71
     7
 72
     1
  1
{\fＭＳ ゴシック|b0|i0|c128|p49;ドレタス　クローゼットドア  調整枠　３方枠＋直置敷居　枠外H2,351　枠外W1,635}
 73
     1
 44
1.0
  0
MTEXT
  5
AC
330
1F
100
AcDbEntity
  8
F-A_文字
  6
Continuous
 62
     7
370
     9
100
AcDbMText
 10
5096.167700144057
 20
-4147.857012699984
 30
0.0
 40
74.295
 41
97.5
 46
0.0
 71
     7
 72
     1
  1
{\fＭＳ ゴシック|b0|i0|c128|p49;03}
 73
     1
 44
1.0
  0
LINE
  5
AD
330
1F
100
AcDbEntity
  8
0-0_補助線
  6
JWW_HOJO
 62
   120
370
     5
100
AcDbLine
 10
2780.519120884388
 20
2781.945146596496
 30
0.0
 11
-2763.480483211902
 21
2781.945146596496
 31
0.0
  0
LINE
  5
AE
330
1F
100
AcDbEntity
  8
0-0_補助線
  6
JWW_HOJO
 62
   120
370
     5
100
AcDbLine
 10
2780.519120884388
 20
3141.945146596496
 30
0.0
 11
-2763.480483211902
 21
3141.945146596496
 31
0.0
  0
LINE
  5
AF
330
1F
100
AcDbEntity
  8
0-0_補助線
  6
JWW_HOJO
 62
   120
370
     5
100
AcDbLine
 10
2780.519120884388
 20
2961.945146596496
 30
0.0
 11
-2763.480483211902
 21
2961.945146596496
 31
0.0
  0
LINE
  5
B0
330
1F
100
AcDbEntity
  8
0-1_通り芯
  6
JWW_CENTER1
 62
   120
370
     5
100
AcDbLine
 10
2780.519120884388
 20
2361.945146596496
 30
0.0
 11
-2763.480483211902
 21
2361.945146596496
 31
0.0
  0
LINE
  5
B1
330
1F
100
AcDbEntity
  8
0-0_補助線
  6
Continuous
 62
   120
370
     5
100
AcDbLine
 10
-1983.48068116376
 20
2324.359196304035
 30
0.0
 11
-1998.48068116376
 21
2324.359196304035
 31
0.0
  0
LWPOLYLINE
  5
B2
330
1F
100
AcDbEntity
  8
0-0_補助線
  6
Continuous
 62
     7
370
     9
100
AcDbPolyline
 90
        4
 70
     1
 43
3.0
 10
-1981.98068116376
 20
2324.359196304035
 42
0.4142135623731
 10
-1983.48068116376
 20
2325.859196304035
 42
0.4142135623731
 10
-1984.980681163759
 20
2324.359196304035
 42
0.4142135623731
 10
-1983.48068116376
 20
2322.859196304035
 42
0.4142135623731
  0
LWPOLYLINE
  5
B3
330
1F
100
AcDbEntity
  8
0-0_補助線
  6
Continuous
 62
     7
370
     9
100
AcDbPolyline
 90
        4
 70
     1
 43
3.0
 10
-1996.98068116376
 20
2324.359196304035
 42
0.4142135623731
 10
-1998.48068116376
 20
2325.859196304035
 42
0.4142135623731
 10
-1999.980681163759
 20
2324.359196304035
 42
0.4142135623731
 10
-1998.48068116376
 20
2322.859196304035
 42
0.4142135623731
  0
LINE
  5
B4
330
1F
100
AcDbEntity
  8
0-0_補助線
  6
Continuous
 62
   120
370
     5
100
AcDbLine
 10
-1998.48068116376
 20
2324.359196304035
 30
0.0
 11
-2019.480681163759
 21
2324.359196304035
 31
0.0
  0
LWPOLYLINE
  5
B5
330
1F
100
AcDbEntity
  8
0-0_補助線
  6
Continuous
 62
     7
370
     9
100
AcDbPolyline
 90
        4
 70
     1
 43
3.0
 10
-2017.980681163759
 20
2324.359196304035
 42
0.4142135623731
 10
-2019.480681163759
 20
2325.859196304035
 42
0.4142135623731
 10
-2020.980681163759
 20
2324.359196304035
 42
0.4142135623731
 10
-2019.480681163759
 20
2322.859196304035
 42
0.4142135623731
  0
LINE
  5
B6
330
1F
100
AcDbEntity
  8
0-0_補助線
  6
Continuous
 62
   120
370
     5
100
AcDbLine
 10
-2019.480681163759
 20
2324.359196304035
 30
0.0
 11
-2019.480681163759
 21
2405.688459527219
 31
0.0
  0
MTEXT
  5
B7
330
1F
100
AcDbEntity
  8
0-0_補助線
  6
Continuous
 62
     7
370
   211
100
AcDbMText
 10
-1973.094226251412
 20
2325.079196304036
 30
0.0
 40
91.44000000000129
 41
180.0000000000026
 46
0.0
 71
     7
 72
     1
  1
{\fＭＳ ゴシック|b0|i0|c128|p49;2.5}
 73
     1
 44
1.0
  0
LINE
  5
B8
330
1F
100
AcDbEntity
  8
0-7_金物
  6
Continuous
 62
     7
370
     9
100
AcDbLine
 10
2198.518982318082
 20
2271.945220828442
 30
0.0
 11
2198.518982318082
 21
2451.945072364549
 31
0.0
  0
LINE
  5
B9
330
1F
100
AcDbEntity
  8
0-7_金物
  6
Continuous
 62
     7
370
     9
100
AcDbLine
 10
2210.519318836241
 20
2451.945072364549
 30
0.0
 11
2198.518982318082
 21
2451.945072364549
 31
0.0
  0
LINE
  5
BA
330
1F
100
AcDbEntity
  8
0-7_金物
  6
Continuous
 62
     7
370
     9
100
AcDbLine
 10
2210.519318836241
 20
2271.945220828442
 30
0.0
 11
2198.518982318082
 21
2271.945220828442
 31
0.0
  0
LINE
  5
BB
330
1F
100
AcDbEntity
  8
0-7_金物
  6
Continuous
 62
     7
370
     9
100
AcDbLine
 10
2198.518982318082
 20
2301.945319804372
 30
0.0
 11
2186.519388119391
 21
2301.945319804372
 31
0.0
  0
LINE
  5
BC
330
1F
100
AcDbEntity
  8
0-7_金物
  6
Continuous
 62
     7
370
     9
100
AcDbLine
 10
2198.518982318082
 20
2421.94497338862
 30
0.0
 11
2186.519388119391
 21
2421.94497338862
 31
0.0
  0
LINE
  5
BD
330
1F
100
AcDbEntity
  8
0-7_金物
  6
Continuous
 62
     7
370
     9
100
AcDbLine
 10
2186.519388119391
 20
2301.945319804372
 30
0.0
 11
2186.519388119391
 21
2421.94497338862
 31
0.0
  0
LINE
  5
BE
330
1F
100
AcDbEntity
  8
0-7_金物
  6
Continuous
 62
     7
370
     9
100
AcDbLine
 10
2186.519388119391
 20
2415.945547449009
 30
0.0
 11
2180.519318836241
 21
2415.945547449009
 31
0.0
  0
LINE
  5
BF
330
1F
100
AcDbEntity
  8
0-7_金物
  6
Continuous
 62
     7
370
     9
100
AcDbLine
 10
2186.519388119391
 20
2307.945488063451
 30
0.0
 11
2180.519318836241
 21
2307.945488063451
 31
0.0
  0
LINE
  5
C0
330
1F
100
AcDbEntity
  8
0-7_金物
  6
Continuous
 62
     7
370
     9
100
AcDbLine
 10
2210.519318836241
 20
2271.945220828442
 30
0.0
 11
2210.519318836241
 21
2451.945072364549
 31
0.0
  0
LINE
  5
C1
330
1F
100
AcDbEntity
  8
0-7_金物
  6
Continuous
 62
     7
370
     9
100
AcDbLine
 10
-2181.480344645602
 20
2271.945220828442
 30
0.0
 11
-2181.480344645602
 21
2451.945072364549
 31
0.0
  0
LINE
  5
C2
330
1F
100
AcDbEntity
  8
0-7_金物
  6
Continuous
 62
     7
370
     9
100
AcDbLine
 10
-2193.480681163761
 20
2451.945072364549
 30
0.0
 11
-2181.480344645602
 21
2451.945072364549
 31
0.0
  0
LINE
  5
C3
330
1F
100
AcDbEntity
  8
0-7_金物
  6
Continuous
 62
     7
370
     9
100
AcDbLine
 10
-2193.480681163761
 20
2271.945220828442
 30
0.0
 11
-2181.480344645602
 21
2271.945220828442
 31
0.0
  0
LINE
  5
C4
330
1F
100
AcDbEntity
  8
0-7_金物
  6
Continuous
 62
     7
370
     9
100
AcDbLine
 10
-2181.480344645602
 20
2301.945319804372
 30
0.0
 11
-2169.480750446911
 21
2301.945319804372
 31
0.0
  0
LINE
  5
C5
330
1F
100
AcDbEntity
  8
0-7_金物
  6
Continuous
 62
     7
370
     9
100
AcDbLine
 10
-2181.480344645602
 20
2421.94497338862
 30
0.0
 11
-2169.480750446911
 21
2421.94497338862
 31
0.0
  0
LINE
  5
C6
330
1F
100
AcDbEntity
  8
0-7_金物
  6
Continuous
 62
     7
370
     9
100
AcDbLine
 10
-2169.480750446911
 20
2301.945319804372
 30
0.0
 11
-2169.480750446911
 21
2421.94497338862
 31
0.0
  0
LINE
  5
C7
330
1F
100
AcDbEntity
  8
0-7_金物
  6
Continuous
 62
     7
370
     9
100
AcDbLine
 10
-2169.480750446911
 20
2415.945547449009
 30
0.0
 11
-2163.480681163761
 21
2415.945547449009
 31
0.0
  0
LINE
  5
C8
330
1F
100
AcDbEntity
  8
0-7_金物
  6
Continuous
 62
     7
370
     9
100
AcDbLine
 10
-2169.480750446911
 20
2307.945488063451
 30
0.0
 11
-2163.480681163761
 21
2307.945488063451
 31
0.0
  0
LINE
  5
C9
330
1F
100
AcDbEntity
  8
0-7_金物
  6
Continuous
 62
     7
370
     9
100
AcDbLine
 10
-2193.480681163761
 20
2271.945220828442
 30
0.0
 11
-2193.480681163761
 21
2451.945072364549
 31
0.0
  0
MTEXT
  5
CA
330
1F
100
AcDbEntity
  8
0-0_補助線
  6
Continuous
 62
     7
370
   211
100
AcDbMText
 10
-2176.885902855104
 20
2325.079196304035
 30
0.0
 40
91.43999999999912
 41
179.9999999999983
 46
0.0
 71
     7
 72
     1
  1
{\fＭＳ ゴシック|b0|i0|c128|p49;3.5}
 73
     1
 44
1.0
  0
LINE
  5
CB
330
1F
100
AcDbEntity
  8
0-B_寸法
  6
Continuous
 62
   120
370
     5
100
AcDbLine
 10
-2193.480681163761
 20
3141.945146596496
 30
0.0
 11
2210.519318836241
 21
3141.945146596496
 31
0.0
  0
LWPOLYLINE
  5
CC
330
1F
100
AcDbEntity
  8
0-B_寸法
  6
Continuous
 62
     7
370
     9
100
AcDbPolyline
 90
        4
 70
     1
 43
3.0
 10
-2191.980681163761
 20
3141.945146596496
 42
0.4142135623731
 10
-2193.480681163761
 20
3143.445146596496
 42
0.4142135623731
 10
-2194.980681163761
 20
3141.945146596496
 42
0.4142135623731
 10
-2193.480681163761
 20
3140.445146596496
 42
0.4142135623731
  0
LWPOLYLINE
  5
CD
330
1F
100
AcDbEntity
  8
0-B_寸法
  6
Continuous
 62
     7
370
     9
100
AcDbPolyline
 90
        4
 70
     1
 43
3.0
 10
2212.019318836241
 20
3141.945146596496
 42
0.4142135623731
 10
2210.519318836241
 20
3143.445146596496
 42
0.4142135623731
 10
2209.019318836241
 20
3141.945146596496
 42
0.4142135623731
 10
2210.519318836241
 20
3140.445146596496
 42
0.4142135623731
  0
LINE
  5
CE
330
1F
100
AcDbEntity
  8
0-B_寸法
  6
Continuous
 62
   120
370
     5
100
AcDbLine
 10
-2193.480681163761
 20
3141.945146596496
 30
0.0
 11
-2193.480681163761
 21
2781.945146596496
 31
0.0
  0
LINE
  5
CF
330
1F
100
AcDbEntity
  8
0-B_寸法
  6
Continuous
 62
   120
370
     5
100
AcDbLine
 10
2210.519318836241
 20
3141.945146596496
 30
0.0
 11
2210.519318836241
 21
2781.945146596496
 31
0.0
  0
ARC
  5
D0
330
1F
100
AcDbEntity
  8
0-6_扉
  6
JWW_DASHED2
 62
    40
370
    15
100
AcDbCircle
 10
1719.43595872589
 20
2557.712520566675
 30
0.0
 40
18.0
100
AcDbArc
 50
85.6539792783598
 51
175.65397927836
  0
LINE
  5
D1
330
1F
100
AcDbEntity
  8
0-6_扉
  6
JWW_DASHED2
 62
    40
370
    15
100
AcDbLine
 10
1810.541205428124
 20
2568.840594224116
 30
0.0
 11
1720.799992511084
 21
2575.660763150084
 31
0.0
  0
ARC
  5
D2
330
1F
100
AcDbEntity
  8
0-6_扉
  6
JWW_DASHED2
 62
    40
370
    15
100
AcDbCircle
 10
1809.177171642929
 20
2550.892351640707
 30
0.0
 40
18.0
100
AcDbArc
 50
355.6539792783599
 51
85.6539792783597
  0
ARC
  5
D3
330
1F
100
AcDbEntity
  8
0-6_扉
  6
JWW_DASHED2
 62
    40
370
    15
100
AcDbCircle
 10
1376.208774336689
 20
2557.712520566678
 30
0.0
 40
18.0
100
AcDbArc
 50
4.346020721638975
 51
94.34602072163908
  0
LINE
  5
D4
330
1F
100
AcDbEntity
  8
0-6_扉
  6
JWW_DASHED2
 62
    40
370
    15
100
AcDbLine
 10
1285.103527634456
 20
2568.84059422412
 30
0.0
 11
1374.844740551494
 21
2575.660763150087
 31
0.0
  0
ARC
  5
D5
330
1F
100
AcDbEntity
  8
0-6_扉
  6
JWW_DASHED2
 62
    40
370
    15
100
AcDbCircle
 10
1286.467561419649
 20
2550.892351640711
 30
0.0
 40
18.0
100
AcDbArc
 50
94.34602072163908
 51
184.3460207216391
  0
LINE
  5
D6
330
1F
100
AcDbEntity
  8
0-6_扉
  6
JWW_DASHED2
 62
    40
370
    15
100
AcDbLine
 10
1827.125414226336
 20
2549.528317855515
 30
0.0
 11
1793.489898350618
 21
2106.945146596496
 31
0.0
  0
LINE
  5
D7
330
1F
100
AcDbEntity
  8
0-6_扉
  6
JWW_DASHED2
 62
    40
370
    15
100
AcDbLine
 10
1268.519318836243
 20
2549.528317855521
 30
0.0
 11
1302.154834711955
 21
2106.945146596496
 31
0.0
  0
LINE
  5
D8
330
1F
100
AcDbEntity
  8
0-6_扉
  6
JWW_DASHED2
 62
    40
370
    15
100
AcDbLine
 10
1394.157016920096
 20
2559.076554351873
 30
0.0
 11
1428.518181399536
 21
2106.945146596496
 31
0.0
  0
LINE
  5
D9
330
1F
100
AcDbEntity
  8
0-6_扉
  6
JWW_DASHED2
 62
    40
370
    15
100
AcDbLine
 10
1701.487716142483
 20
2559.076554351871
 30
0.0
 11
1667.126551663034
 21
2106.945146596496
 31
0.0
  0
LINE
  5
DA
330
1F
100
AcDbEntity
  8
0-1_通り芯
  6
JWW_CENTER1
 62
   120
370
     5
100
AcDbLine
 10
1268.519318836242
 20
2781.945146596496
 30
0.0
 11
1268.519318836242
 21
2549.528317855521
 31
0.0
  0
LWPOLYLINE
  5
DB
330
1F
100
AcDbEntity
  8
0-B_寸法
  6
Continuous
 62
     7
370
     9
100
AcDbPolyline
 90
        4
 70
     1
 43
3.0
 10
1270.019318836242
 20
2961.945146596496
 42
0.4142135623731
 10
1268.519318836242
 20
2963.445146596496
 42
0.4142135623731
 10
1267.019318836242
 20
2961.945146596496
 42
0.4142135623731
 10
1268.519318836242
 20
2960.445146596496
 42
0.4142135623731
  0
LINE
  5
DC
330
1F
100
AcDbEntity
  8
0-B_寸法
  6
Continuous
 62
   120
370
     5
100
AcDbLine
 10
1268.519318836242
 20
2961.945146596496
 30
0.0
 11
1268.519318836242
 21
2781.945146596496
 31
0.0
  0
ARC
  5
DD
330
1F
100
AcDbEntity
  8
0-6_扉
  6
JWW_DASHED2
 62
    40
370
    15
100
AcDbCircle
 10
-1702.397321053406
 20
2557.712520566675
 30
0.0
 40
18.0
100
AcDbArc
 50
4.346020721640005
 51
94.34602072164022
  0
LINE
  5
DE
330
1F
100
AcDbEntity
  8
0-6_扉
  6
JWW_DASHED2
 62
    40
370
    15
100
AcDbLine
 10
-1793.50256775564
 20
2568.840594224116
 30
0.0
 11
-1703.761354838603
 21
2575.660763150084
 31
0.0
  0
ARC
  5
DF
330
1F
100
AcDbEntity
  8
0-6_扉
  6
JWW_DASHED2
 62
    40
370
    15
100
AcDbCircle
 10
-1792.138533970448
 20
2550.892351640707
 30
0.0
 40
18.0
100
AcDbArc
 50
94.3460207216403
 51
184.3460207216401
  0
ARC
  5
E0
330
1F
100
AcDbEntity
  8
0-6_扉
  6
JWW_DASHED2
 62
    40
370
    15
100
AcDbCircle
 10
-1359.170136664205
 20
2557.712520566678
 30
0.0
 40
18.0
100
AcDbArc
 50
85.65397927836092
 51
175.653979278361
  0
LINE
  5
E1
330
1F
100
AcDbEntity
  8
0-6_扉
  6
JWW_DASHED2
 62
    40
370
    15
100
AcDbLine
 10
-1268.064889961974
 20
2568.84059422412
 30
0.0
 11
-1357.806102879012
 21
2575.660763150087
 31
0.0
  0
ARC
  5
E2
330
1F
100
AcDbEntity
  8
0-6_扉
  6
JWW_DASHED2
 62
    40
370
    15
100
AcDbCircle
 10
-1269.428923747166
 20
2550.892351640711
 30
0.0
 40
18.0
100
AcDbArc
 50
355.653979278361
 51
85.65397927836094
  0
LINE
  5
E3
330
1F
100
AcDbEntity
  8
0-6_扉
  6
JWW_DASHED2
 62
    40
370
    15
100
AcDbLine
 10
-1810.086776553853
 20
2549.528317855515
 30
0.0
 11
-1776.451260678135
 21
2106.945146596496
 31
0.0
  0
LINE
  5
E4
330
1F
100
AcDbEntity
  8
0-6_扉
  6
JWW_DASHED2
 62
    40
370
    15
100
AcDbLine
 10
-1251.480681163761
 20
2549.528317855521
 30
0.0
 11
-1285.116197039471
 21
2106.945146596496
 31
0.0
  0
LINE
  5
E5
330
1F
100
AcDbEntity
  8
0-6_扉
  6
JWW_DASHED2
 62
    40
370
    15
100
AcDbLine
 10
-1377.118379247613
 20
2559.076554351873
 30
0.0
 11
-1411.479543727052
 21
2106.945146596496
 31
0.0
  0
LINE
  5
E6
330
1F
100
AcDbEntity
  8
0-6_扉
  6
JWW_DASHED2
 62
    40
370
    15
100
AcDbLine
 10
-1684.449078470001
 20
2559.076554351871
 30
0.0
 11
-1650.087913990551
 21
2106.945146596496
 31
0.0
  0
LINE
  5
E7
330
1F
100
AcDbEntity
  8
0-1_通り芯
  6
JWW_CENTER1
 62
   120
370
     5
100
AcDbLine
 10
-1251.480681163758
 20
2781.945146596496
 30
0.0
 11
-1251.480681163758
 21
2549.528317855521
 31
0.0
  0
LWPOLYLINE
  5
E8
330
1F
100
AcDbEntity
  8
0-B_寸法
  6
Continuous
 62
     7
370
     9
100
AcDbPolyline
 90
        4
 70
     1
 43
3.0
 10
-1249.980681163758
 20
2961.945146596496
 42
0.4142135623731
 10
-1251.480681163758
 20
2963.445146596496
 42
0.4142135623731
 10
-1252.980681163758
 20
2961.945146596496
 42
0.4142135623731
 10
-1251.480681163758
 20
2960.445146596496
 42
0.4142135623731
  0
LINE
  5
E9
330
1F
100
AcDbEntity
  8
0-B_寸法
  6
Continuous
 62
   120
370
     5
100
AcDbLine
 10
-1251.480681163758
 20
2961.945146596496
 30
0.0
 11
-1251.480681163758
 21
2781.945146596496
 31
0.0
  0
LINE
  5
EA
330
1F
100
AcDbEntity
  8
0-B_寸法
  6
Continuous
 62
   120
370
     5
100
AcDbLine
 10
-1251.480681163758
 20
2961.945146596496
 30
0.0
 11
1268.519318836242
 21
2961.945146596496
 31
0.0
  0
MTEXT
  5
EB
330
1F
100
AcDbEntity
  8
0-B_寸法
  6
Continuous
 62
     7
370
   211
100
AcDbMText
 10
-381.4806811637575
 20
3142.665146596496
 30
0.0
 40
91.43999999999981
 41
779.9999999999983
 46
0.0
 71
     7
 72
     1
  1
{\fＭＳ ゴシック|b0|i0|c128|p49;ＲＯＷ＝1,645}
 73
     1
 44
1.0
  0
MTEXT
  5
EC
330
1F
100
AcDbEntity
  8
0-B_寸法
  6
Continuous
 62
     7
370
   211
100
AcDbMText
 10
-545.5822668712349
 20
2962.665146596496
 30
0.0
 40
91.44000000000027
 41
1140.000000000003
 46
0.0
 71
     7
 72
     1
  1
{\fＭＳ ゴシック|b0|i0|c128|p49;有効開口寸法＝1,331}
 73
     1
 44
1.0
  0
LINE
  5
ED
330
1F
100
AcDbEntity
  8
0-0_補助線
  6
JWW_HOJO
 62
     7
370
     9
100
AcDbLine
 10
8.51931883624161
 20
906.9451465964949
 30
0.0
 11
8.51931883624161
 21
3321.945146596495
 31
0.0
  0
LINE
  5
EE
330
1F
100
AcDbEntity
  8
0-0_補助線
  6
JWW_HOJO
 62
   120
370
     5
100
AcDbLine
 10
-2763.480483211902
 20
1086.945146596495
 30
0.0
 11
-2763.480483211902
 21
3141.945146596496
 31
0.0
  0
LINE
  5
EF
330
1F
100
AcDbEntity
  8
0-0_補助線
  6
JWW_HOJO
 62
   120
370
     5
100
AcDbLine
 10
2780.519120884388
 20
1086.945146596495
 30
0.0
 11
2780.519120884388
 21
3141.945146596496
 31
0.0
  0
LINE
  5
F0
330
1F
100
AcDbEntity
  8
0-0_補助線
  6
JWW_HOJO
 62
   120
370
     5
100
AcDbLine
 10
2780.519120884388
 20
1446.945146596495
 30
0.0
 11
-2763.480483211902
 21
1446.945146596495
 31
0.0
  0
LINE
  5
F1
330
1F
100
AcDbEntity
  8
0-0_補助線
  6
JWW_HOJO
 62
   120
370
     5
100
AcDbLine
 10
2780.519120884388
 20
1266.945146596495
 30
0.0
 11
-2763.480483211902
 21
1266.945146596495
 31
0.0
  0
LINE
  5
F2
330
1F
100
AcDbEntity
  8
0-0_補助線
  6
JWW_HOJO
 62
   120
370
     5
100
AcDbLine
 10
2780.519120884388
 20
1086.945146596495
 30
0.0
 11
-2763.480483211902
 21
1086.945146596495
 31
0.0
  0
LINE
  5
F3
330
1F
100
AcDbEntity
  8
0-0_補助線
  6
JWW_HOJO
 62
     7
370
     9
100
AcDbLine
 10
-1983.48068116376
 20
906.9451465964949
 30
0.0
 11
-1983.48068116376
 21
3321.945146596495
 31
0.0
  0
LINE
  5
F4
330
1F
100
AcDbEntity
  8
0-0_補助線
  6
JWW_HOJO
 62
     7
370
     9
100
AcDbLine
 10
2000.519318836241
 20
906.9451465964949
 30
0.0
 11
2000.519318836241
 21
3321.945146596495
 31
0.0
  0
LINE
  5
F5
330
1F
100
AcDbEntity
  8
0-0_補助線
  6
JWW_HOJO
 62
   120
370
     5
100
AcDbLine
 10
2780.519120884388
 20
1626.945146596495
 30
0.0
 11
-2763.480483211902
 21
1626.945146596495
 31
0.0
  0
LINE
  5
F6
330
1F
100
AcDbEntity
  8
0-0_補助線
  6
JWW_HOJO
 62
   120
370
     5
100
AcDbLine
 10
2780.519120884388
 20
1806.945146596495
 30
0.0
 11
-2763.480483211902
 21
1806.945146596495
 31
0.0
  0
LINE
  5
F7
330
1F
100
AcDbEntity
  8
0-B_寸法
  6
Continuous
 62
   120
370
     5
100
AcDbLine
 10
-2163.48068116376
 20
1266.945146596495
 30
0.0
 11
-1983.48068116376
 21
1266.945146596495
 31
0.0
  0
LWPOLYLINE
  5
F8
330
1F
100
AcDbEntity
  8
0-B_寸法
  6
Continuous
 62
     7
370
     9
100
AcDbPolyline
 90
        4
 70
     1
 43
3.0
 10
-2161.98068116376
 20
1266.945146596495
 42
0.4142135623731
 10
-2163.48068116376
 20
1268.445146596495
 42
0.4142135623731
 10
-2164.98068116376
 20
1266.945146596495
 42
0.4142135623731
 10
-2163.48068116376
 20
1265.445146596495
 42
0.4142135623731
  0
LWPOLYLINE
  5
F9
330
1F
100
AcDbEntity
  8
0-B_寸法
  6
Continuous
 62
     7
370
     9
100
AcDbPolyline
 90
        4
 70
     1
 43
3.0
 10
-1981.98068116376
 20
1266.945146596495
 42
0.4142135623731
 10
-1983.48068116376
 20
1268.445146596495
 42
0.4142135623731
 10
-1984.980681163759
 20
1266.945146596495
 42
0.4142135623731
 10
-1983.48068116376
 20
1265.445146596495
 42
0.4142135623731
  0
LINE
  5
FA
330
1F
100
AcDbEntity
  8
0-B_寸法
  6
Continuous
 62
   120
370
     5
100
AcDbLine
 10
-1983.48068116376
 20
1266.945146596495
 30
0.0
 11
-1983.48068116376
 21
1626.945146596495
 31
0.0
  0
MTEXT
  5
FB
330
1F
100
AcDbEntity
  8
0-B_寸法
  6
Continuous
 62
     7
370
   211
100
AcDbMText
 10
-2133.48068116376
 20
1267.665146596496
 30
0.0
 40
91.4400000000013
 41
120.0000000000017
 46
0.0
 71
     7
 72
     1
  1
{\fＭＳ ゴシック|b0|i0|c128|p49;30}
 73
     1
 44
1.0
  0
LINE
  5
FC
330
1F
100
AcDbEntity
  8
0-B_寸法
  6
Continuous
 62
   120
370
     5
100
AcDbLine
 10
-1983.48068116376
 20
1266.945146596495
 30
0.0
 11
2000.519318836241
 21
1266.945146596495
 31
0.0
  0
LWPOLYLINE
  5
FD
330
1F
100
AcDbEntity
  8
0-B_寸法
  6
Continuous
 62
     7
370
     9
100
AcDbPolyline
 90
        4
 70
     1
 43
3.0
 10
2002.019318836241
 20
1266.945146596495
 42
0.4142135623731
 10
2000.519318836241
 20
1268.445146596495
 42
0.4142135623731
 10
1999.019318836241
 20
1266.945146596495
 42
0.4142135623731
 10
2000.519318836241
 20
1265.445146596495
 42
0.4142135623731
  0
LINE
  5
FE
330
1F
100
AcDbEntity
  8
0-B_寸法
  6
Continuous
 62
   120
370
     5
100
AcDbLine
 10
2000.519318836241
 20
1266.945146596495
 30
0.0
 11
2000.519318836241
 21
1626.945146596495
 31
0.0
  0
LINE
  5
FF
330
1F
100
AcDbEntity
  8
0-B_寸法
  6
Continuous
 62
   120
370
     5
100
AcDbLine
 10
2000.519318836241
 20
1266.945146596495
 30
0.0
 11
2180.519318836241
 21
1266.945146596495
 31
0.0
  0
LWPOLYLINE
  5
100
330
1F
100
AcDbEntity
  8
0-B_寸法
  6
Continuous
 62
     7
370
     9
100
AcDbPolyline
 90
        4
 70
     1
 43
3.0
 10
2182.019318836241
 20
1266.945146596495
 42
0.4142135623731
 10
2180.519318836241
 20
1268.445146596495
 42
0.4142135623731
 10
2179.019318836241
 20
1266.945146596495
 42
0.4142135623731
 10
2180.519318836241
 20
1265.445146596495
 42
0.4142135623731
  0
MTEXT
  5
101
330
1F
100
AcDbEntity
  8
0-B_寸法
  6
Continuous
 62
     7
370
   211
100
AcDbMText
 10
2030.519318836242
 20
1267.665146596495
 30
0.0
 40
91.43999999999967
 41
119.9999999999996
 46
0.0
 71
     7
 72
     1
  1
{\fＭＳ ゴシック|b0|i0|c128|p49;30}
 73
     1
 44
1.0
  0
LINE
  5
102
330
1F
100
AcDbEntity
  8
0-B_寸法
  6
Continuous
 62
   120
370
     5
100
AcDbLine
 10
-2163.48068116376
 20
1086.945146596495
 30
0.0
 11
2180.519318836241
 21
1086.945146596495
 31
0.0
  0
LWPOLYLINE
  5
103
330
1F
100
AcDbEntity
  8
0-B_寸法
  6
Continuous
 62
     7
370
     9
100
AcDbPolyline
 90
        4
 70
     1
 43
3.0
 10
-2161.98068116376
 20
1086.945146596495
 42
0.4142135623731
 10
-2163.48068116376
 20
1088.445146596495
 42
0.4142135623731
 10
-2164.98068116376
 20
1086.945146596495
 42
0.4142135623731
 10
-2163.48068116376
 20
1085.445146596495
 42
0.4142135623731
  0
LWPOLYLINE
  5
104
330
1F
100
AcDbEntity
  8
0-B_寸法
  6
Continuous
 62
     7
370
     9
100
AcDbPolyline
 90
        4
 70
     1
 43
3.0
 10
2182.019318836241
 20
1086.945146596495
 42
0.4142135623731
 10
2180.519318836241
 20
1088.445146596495
 42
0.4142135623731
 10
2179.019318836241
 20
1086.945146596495
 42
0.4142135623731
 10
2180.519318836241
 20
1085.445146596495
 42
0.4142135623731
  0
LINE
  5
105
330
1F
100
AcDbEntity
  8
0-B_寸法
  6
Continuous
 62
   120
370
     5
100
AcDbLine
 10
-2163.48068116376
 20
1086.945146596495
 30
0.0
 11
-2163.48068116376
 21
1266.945146596495
 31
0.0
  0
LINE
  5
106
330
1F
100
AcDbEntity
  8
0-B_寸法
  6
Continuous
 62
   120
370
     5
100
AcDbLine
 10
2180.519318836241
 20
1086.945146596495
 30
0.0
 11
2180.519318836241
 21
1266.945146596495
 31
0.0
  0
LINE
  5
107
330
1F
100
AcDbEntity
  8
0-0_補助線
  6
JWW_HOJO
 62
     7
370
     9
100
AcDbLine
 10
-997.9806811637595
 20
906.9451465964949
 30
0.0
 11
-997.9806811637595
 21
3321.945146596495
 31
0.0
  0
LINE
  5
108
330
1F
100
AcDbEntity
  8
0-0_補助線
  6
JWW_HOJO
 62
     7
370
     9
100
AcDbLine
 10
1015.019318836242
 20
906.9451465964949
 30
0.0
 11
1015.019318836242
 21
3321.945146596495
 31
0.0
  0
LINE
  5
109
330
1F
100
AcDbEntity
  8
0-B_寸法
  6
Continuous
 62
   120
370
     5
100
AcDbLine
 10
-1998.48068116376
 20
1626.945146596495
 30
0.0
 11
-1000.980681163759
 21
1626.945146596495
 31
0.0
  0
LWPOLYLINE
  5
10A
330
1F
100
AcDbEntity
  8
0-B_寸法
  6
Continuous
 62
     7
370
     9
100
AcDbPolyline
 90
        4
 70
     1
 43
3.0
 10
-1996.98068116376
 20
1626.945146596495
 42
0.4142135623731
 10
-1998.48068116376
 20
1628.445146596495
 42
0.4142135623731
 10
-1999.980681163759
 20
1626.945146596495
 42
0.4142135623731
 10
-1998.48068116376
 20
1625.445146596495
 42
0.4142135623731
  0
LWPOLYLINE
  5
10B
330
1F
100
AcDbEntity
  8
0-B_寸法
  6
Continuous
 62
     7
370
     9
100
AcDbPolyline
 90
        4
 70
     1
 43
3.0
 10
-999.4806811637595
 20
1626.945146596495
 42
0.4142135623731
 10
-1000.980681163759
 20
1628.445146596495
 42
0.4142135623731
 10
-1002.480681163759
 20
1626.945146596495
 42
0.4142135623731
 10
-1000.980681163759
 20
1625.445146596495
 42
0.4142135623731
  0
LINE
  5
10C
330
1F
100
AcDbEntity
  8
0-B_寸法
  6
Continuous
 62
   120
370
     5
100
AcDbLine
 10
-1998.48068116376
 20
1446.945146596495
 30
0.0
 11
-1998.48068116376
 21
1806.945146596495
 31
0.0
  0
LINE
  5
10D
330
1F
100
AcDbEntity
  8
0-B_寸法
  6
Continuous
 62
   120
370
     5
100
AcDbLine
 10
-1000.980681163759
 20
1626.945146596495
 30
0.0
 11
-1000.980681163759
 21
1806.945146596495
 31
0.0
  0
LINE
  5
10E
330
1F
100
AcDbEntity
  8
0-B_寸法
  6
Continuous
 62
   120
370
     5
100
AcDbLine
 10
-994.9806811637598
 20
1626.945146596495
 30
0.0
 11
2.519318836241951
 21
1626.945146596495
 31
0.0
  0
LWPOLYLINE
  5
10F
330
1F
100
AcDbEntity
  8
0-B_寸法
  6
Continuous
 62
     7
370
     9
100
AcDbPolyline
 90
        4
 70
     1
 43
3.0
 10
-993.4806811637599
 20
1626.945146596495
 42
0.4142135623731
 10
-994.9806811637598
 20
1628.445146596495
 42
0.4142135623731
 10
-996.4806811637596
 20
1626.945146596495
 42
0.4142135623731
 10
-994.9806811637598
 20
1625.445146596495
 42
0.4142135623731
  0
LWPOLYLINE
  5
110
330
1F
100
AcDbEntity
  8
0-B_寸法
  6
Continuous
 62
     7
370
     9
100
AcDbPolyline
 90
        4
 70
     1
 43
3.0
 10
4.019318836241951
 20
1626.945146596495
 42
0.4142135623731
 10
2.519318836241951
 20
1628.445146596495
 42
0.4142135623731
 10
1.019318836241951
 20
1626.945146596495
 42
0.4142135623731
 10
2.519318836241951
 20
1625.445146596495
 42
0.4142135623731
  0
LINE
  5
111
330
1F
100
AcDbEntity
  8
0-B_寸法
  6
Continuous
 62
   120
370
     5
100
AcDbLine
 10
-994.9806811637598
 20
1626.945146596495
 30
0.0
 11
-994.9806811637598
 21
1806.945146596495
 31
0.0
  0
LINE
  5
112
330
1F
100
AcDbEntity
  8
0-B_寸法
  6
Continuous
 62
   120
370
     5
100
AcDbLine
 10
2.519318836241951
 20
1446.945146596495
 30
0.0
 11
2.519318836241951
 21
1806.945146596495
 31
0.0
  0
LINE
  5
113
330
1F
100
AcDbEntity
  8
0-B_寸法
  6
Continuous
 62
   120
370
     5
100
AcDbLine
 10
14.51931883624042
 20
1626.945146596495
 30
0.0
 11
1012.019318836242
 21
1626.945146596495
 31
0.0
  0
LWPOLYLINE
  5
114
330
1F
100
AcDbEntity
  8
0-B_寸法
  6
Continuous
 62
     7
370
     9
100
AcDbPolyline
 90
        4
 70
     1
 43
3.0
 10
16.01931883624042
 20
1626.945146596495
 42
0.4142135623731
 10
14.51931883624042
 20
1628.445146596495
 42
0.4142135623731
 10
13.01931883624042
 20
1626.945146596495
 42
0.4142135623731
 10
14.51931883624042
 20
1625.445146596495
 42
0.4142135623731
  0
LWPOLYLINE
  5
115
330
1F
100
AcDbEntity
  8
0-B_寸法
  6
Continuous
 62
     7
370
     9
100
AcDbPolyline
 90
        4
 70
     1
 43
3.0
 10
1013.519318836242
 20
1626.945146596495
 42
0.4142135623731
 10
1012.019318836242
 20
1628.445146596495
 42
0.4142135623731
 10
1010.519318836242
 20
1626.945146596495
 42
0.4142135623731
 10
1012.019318836242
 20
1625.445146596495
 42
0.4142135623731
  0
LINE
  5
116
330
1F
100
AcDbEntity
  8
0-B_寸法
  6
Continuous
 62
   120
370
     5
100
AcDbLine
 10
14.51931883624042
 20
1446.945146596495
 30
0.0
 11
14.51931883624042
 21
1806.945146596495
 31
0.0
  0
LINE
  5
117
330
1F
100
AcDbEntity
  8
0-B_寸法
  6
Continuous
 62
   120
370
     5
100
AcDbLine
 10
1012.019318836242
 20
1626.945146596495
 30
0.0
 11
1012.019318836242
 21
1806.945146596495
 31
0.0
  0
LINE
  5
118
330
1F
100
AcDbEntity
  8
0-B_寸法
  6
Continuous
 62
   120
370
     5
100
AcDbLine
 10
1018.019318836241
 20
1626.945146596495
 30
0.0
 11
2015.519318836245
 21
1626.945146596495
 31
0.0
  0
LWPOLYLINE
  5
119
330
1F
100
AcDbEntity
  8
0-B_寸法
  6
Continuous
 62
     7
370
     9
100
AcDbPolyline
 90
        4
 70
     1
 43
3.0
 10
1019.519318836241
 20
1626.945146596495
 42
0.4142135623731
 10
1018.019318836241
 20
1628.445146596495
 42
0.4142135623731
 10
1016.519318836241
 20
1626.945146596495
 42
0.4142135623731
 10
1018.019318836241
 20
1625.445146596495
 42
0.4142135623731
  0
LWPOLYLINE
  5
11A
330
1F
100
AcDbEntity
  8
0-B_寸法
  6
Continuous
 62
     7
370
     9
100
AcDbPolyline
 90
        4
 70
     1
 43
3.0
 10
2017.019318836245
 20
1626.945146596495
 42
0.4142135623731
 10
2015.519318836245
 20
1628.445146596495
 42
0.4142135623731
 10
2014.019318836245
 20
1626.945146596495
 42
0.4142135623731
 10
2015.519318836245
 20
1625.445146596495
 42
0.4142135623731
  0
LINE
  5
11B
330
1F
100
AcDbEntity
  8
0-B_寸法
  6
Continuous
 62
   120
370
     5
100
AcDbLine
 10
1018.019318836241
 20
1626.945146596495
 30
0.0
 11
1018.019318836241
 21
1806.945146596495
 31
0.0
  0
LINE
  5
11C
330
1F
100
AcDbEntity
  8
0-B_寸法
  6
Continuous
 62
   120
370
     5
100
AcDbLine
 10
2015.519318836245
 20
1446.945146596495
 30
0.0
 11
2015.519318836245
 21
1806.945146596495
 31
0.0
  0
LINE
  5
11D
330
1F
100
AcDbEntity
  8
0-B_寸法
  6
Continuous
 62
   120
370
     5
100
AcDbLine
 10
-1998.48068116376
 20
1446.945146596495
 30
0.0
 11
2.519318836241951
 21
1446.945146596495
 31
0.0
  0
LWPOLYLINE
  5
11E
330
1F
100
AcDbEntity
  8
0-B_寸法
  6
Continuous
 62
     7
370
     9
100
AcDbPolyline
 90
        4
 70
     1
 43
3.0
 10
-1996.98068116376
 20
1446.945146596495
 42
0.4142135623731
 10
-1998.48068116376
 20
1448.445146596495
 42
0.4142135623731
 10
-1999.980681163759
 20
1446.945146596495
 42
0.4142135623731
 10
-1998.48068116376
 20
1445.445146596495
 42
0.4142135623731
  0
LWPOLYLINE
  5
11F
330
1F
100
AcDbEntity
  8
0-B_寸法
  6
Continuous
 62
     7
370
     9
100
AcDbPolyline
 90
        4
 70
     1
 43
3.0
 10
4.019318836241951
 20
1446.945146596495
 42
0.4142135623731
 10
2.519318836241951
 20
1448.445146596495
 42
0.4142135623731
 10
1.019318836241951
 20
1446.945146596495
 42
0.4142135623731
 10
2.519318836241951
 20
1445.445146596495
 42
0.4142135623731
  0
LINE
  5
120
330
1F
100
AcDbEntity
  8
0-B_寸法
  6
Continuous
 62
   120
370
     5
100
AcDbLine
 10
2.519318836241951
 20
1446.945146596495
 30
0.0
 11
14.51931883624042
 21
1446.945146596495
 31
0.0
  0
LWPOLYLINE
  5
121
330
1F
100
AcDbEntity
  8
0-B_寸法
  6
Continuous
 62
     7
370
     9
100
AcDbPolyline
 90
        4
 70
     1
 43
3.0
 10
16.01931883624042
 20
1446.945146596495
 42
0.4142135623731
 10
14.51931883624042
 20
1448.445146596495
 42
0.4142135623731
 10
13.01931883624042
 20
1446.945146596495
 42
0.4142135623731
 10
14.51931883624042
 20
1445.445146596495
 42
0.4142135623731
  0
LINE
  5
122
330
1F
100
AcDbEntity
  8
0-B_寸法
  6
Continuous
 62
   120
370
     5
100
AcDbLine
 10
14.51931883624042
 20
1446.945146596495
 30
0.0
 11
2015.519318836245
 21
1446.945146596495
 31
0.0
  0
LWPOLYLINE
  5
123
330
1F
100
AcDbEntity
  8
0-B_寸法
  6
Continuous
 62
     7
370
     9
100
AcDbPolyline
 90
        4
 70
     1
 43
3.0
 10
2017.019318836245
 20
1446.945146596495
 42
0.4142135623731
 10
2015.519318836245
 20
1448.445146596495
 42
0.4142135623731
 10
2014.019318836245
 20
1446.945146596495
 42
0.4142135623731
 10
2015.519318836245
 20
1445.445146596495
 42
0.4142135623731
  0
MTEXT
  5
124
330
1F
100
AcDbEntity
  8
0-B_寸法
  6
Continuous
 62
     7
370
   211
100
AcDbMText
 10
-1769.730681163759
 20
1627.665146596495
 30
0.0
 40
91.43999999999986
 41
539.9999999999991
 46
0.0
 71
     7
 72
     1
  1
{\fＭＳ ゴシック|b0|i0|c128|p49;ＤＷ＝394}
 73
     1
 44
1.0
  0
MTEXT
  5
125
330
1F
100
AcDbEntity
  8
0-B_寸法
  6
Continuous
 62
     7
370
   211
100
AcDbMText
 10
-766.2306811637588
 20
1627.665146596495
 30
0.0
 40
91.43999999999986
 41
539.9999999999991
 46
0.0
 71
     7
 72
     1
  1
{\fＭＳ ゴシック|b0|i0|c128|p49;ＤＷ＝394}
 73
     1
 44
1.0
  0
MTEXT
  5
126
330
1F
100
AcDbEntity
  8
0-B_寸法
  6
Continuous
 62
     7
370
   211
100
AcDbMText
 10
243.269318836243
 20
1627.665146596495
 30
0.0
 40
91.4399999999998
 41
539.9999999999987
 46
0.0
 71
     7
 72
     1
  1
{\fＭＳ ゴシック|b0|i0|c128|p49;ＤＷ＝394}
 73
     1
 44
1.0
  0
MTEXT
  5
127
330
1F
100
AcDbEntity
  8
0-B_寸法
  6
Continuous
 62
     7
370
   211
100
AcDbMText
 10
1246.769318836244
 20
1627.665146596495
 30
0.0
 40
91.43999999999986
 41
539.9999999999991
 46
0.0
 71
     7
 72
     1
  1
{\fＭＳ ゴシック|b0|i0|c128|p49;ＤＷ＝394}
 73
     1
 44
1.0
  0
MTEXT
  5
128
330
1F
100
AcDbEntity
  8
0-B_寸法
  6
Continuous
 62
     7
370
   211
100
AcDbMText
 10
-1447.98068116376
 20
1447.665146596495
 30
0.0
 40
91.44000000000001
 41
900.0
 46
0.0
 71
     7
 72
     1
  1
{\fＭＳ ゴシック|b0|i0|c128|p49;折戸：ＤＷ＝789}
 73
     1
 44
1.0
  0
MTEXT
  5
129
330
1F
100
AcDbEntity
  8
0-B_寸法
  6
Continuous
 62
     7
370
   211
100
AcDbMText
 10
565.0193188362437
 20
1447.665146596495
 30
0.0
 40
91.44000000000001
 41
900.0
 46
0.0
 71
     7
 72
     1
  1
{\fＭＳ ゴシック|b0|i0|c128|p49;折戸：ＤＷ＝789}
 73
     1
 44
1.0
  0
MTEXT
  5
12A
330
1F
100
AcDbEntity
  8
0-B_寸法
  6
Continuous
 62
     7
370
   211
100
AcDbMText
 10
-321.4806811637592
 20
1267.665146596495
 30
0.0
 40
91.44000000000013
 41
660.0000000000009
 46
0.0
 71
     7
 72
     1
  1
{\fＭＳ ゴシック|b0|i0|c128|p49;枠内＝1,575}
 73
     1
 44
1.0
  0
MTEXT
  5
12B
330
1F
100
AcDbEntity
  8
0-B_寸法
  6
Continuous
 62
     7
370
   211
100
AcDbMText
 10
-321.4806811637592
 20
1087.665146596495
 30
0.0
 40
91.44000000000013
 41
660.0000000000009
 46
0.0
 71
     7
 72
     1
  1
{\fＭＳ ゴシック|b0|i0|c128|p49;枠外＝1,635}
 73
     1
 44
1.0
  0
MTEXT
  5
12C
330
1F
100
AcDbEntity
  8
0-B_寸法
  6
Continuous
 62
     7
370
   211
100
AcDbMText
 10
38.51931883624076
 20
1447.665146596496
 30
0.0
 40
91.4400000000013
 41
60.00000000000085
 46
0.0
 71
     7
 72
     1
  1
{\fＭＳ ゴシック|b0|i0|c128|p49;2}
 73
     1
 44
1.0
  0
LINE
  5
12D
330
1F
100
AcDbEntity
  8
0-0_補助線
  6
JWW_HOJO
 62
   120
370
     5
100
AcDbLine
 10
2780.519120884388
 20
1986.945146596495
 30
0.0
 11
-2763.480483211902
 21
1986.945146596495
 31
0.0
  0
LINE
  5
12E
330
1F
100
AcDbEntity
  8
0-C_ハッチ
  6
Continuous
 62
   120
370
     5
100
AcDbLine
 10
-2163.480681163755
 20
2387.264773392186
 30
0.0
 11
-1983.48068116376
 21
2567.264773392183
 31
0.0
  0
LINE
  5
12F
330
1F
100
AcDbEntity
  8
0-C_ハッチ
  6
Continuous
 62
   120
370
     5
100
AcDbLine
 10
-2163.480681163762
 20
2327.867803772476
 30
0.0
 11
-1983.480681163773
 21
2507.867803772467
 31
0.0
  0
LINE
  5
130
330
1F
100
AcDbEntity
  8
0-C_ハッチ
  6
Continuous
 62
   120
370
     5
100
AcDbLine
 10
-2163.48068116376
 20
2268.470834152834
 30
0.0
 11
-2014.382664404513
 21
2417.56885091208
 31
0.0
  0
LINE
  5
131
330
1F
100
AcDbEntity
  8
0-C_ハッチ
  6
Continuous
 62
   120
370
     5
100
AcDbLine
 10
-2163.480681163755
 20
2209.073864533191
 30
0.0
 11
-2019.355660384933
 21
2353.198885312012
 31
0.0
  0
ARC
  5
132
330
1F
100
AcDbEntity
  8
0-4_枠
  6
Continuous
 62
    92
370
    13
100
AcDbCircle
 10
-1713.480681163758
 20
2361.945146596496
 30
0.0
 40
306.0000000000022
100
AcDbArc
 50
151.9275130641473
 51
208.0724869358527
  0
LINE
  5
133
330
1F
100
AcDbEntity
  8
0-4_枠
  6
Continuous
 62
    92
370
    13
100
AcDbLine
 10
-2097.48068116376
 20
2190.946220485325
 30
0.0
 11
-2043.48068116376
 21
2190.946220485325
 31
0.0
  0
LINE
  5
134
330
1F
100
AcDbEntity
  8
0-4_枠
  6
Continuous
 62
    92
370
    13
100
AcDbLine
 10
-2163.48068116376
 20
2172.946220485325
 30
0.0
 11
-2133.48068116376
 21
2172.946220485325
 31
0.0
  0
LINE
  5
135
330
1F
100
AcDbEntity
  8
0-4_枠
  6
Continuous
 62
    92
370
    13
100
AcDbLine
 10
-2133.48068116376
 20
2130.946220485325
 30
0.0
 11
-2133.48068116376
 21
2172.946220485325
 31
0.0
  0
LINE
  5
136
330
1F
100
AcDbEntity
  8
0-4_枠
  6
Continuous
 62
    92
370
    13
100
AcDbLine
 10
-2097.48068116376
 20
2130.946220485325
 30
0.0
 11
-2097.48068116376
 21
2190.946220485325
 31
0.0
  0
LINE
  5
137
330
1F
100
AcDbEntity
  8
0-4_枠
  6
Continuous
 62
    92
370
    13
100
AcDbLine
 10
-2133.48068116376
 20
2130.946220485325
 30
0.0
 11
-2097.48068116376
 21
2130.946220485325
 31
0.0
  0
LINE
  5
138
330
1F
100
AcDbEntity
  8
0-4_枠
  6
Continuous
 62
    92
370
    13
100
AcDbLine
 10
-2043.48068116376
 20
2130.946220485325
 30
0.0
 11
-2043.48068116376
 21
2190.946220485325
 31
0.0
  0
LINE
  5
139
330
1F
100
AcDbEntity
  8
0-4_枠
  6
Continuous
 62
    92
370
    13
100
AcDbLine
 10
-2043.48068116376
 20
2130.946220485325
 30
0.0
 11
-2028.068638196637
 21
2130.946220485325
 31
0.0
  0
LINE
  5
13A
330
1F
100
AcDbEntity
  8
0-4_枠
  6
Continuous
 62
    92
370
    13
100
AcDbLine
 10
-2028.068638196637
 20
2130.946220485325
 30
0.0
 11
-1983.48068116376
 21
2130.946220485325
 31
0.0
  0
LINE
  5
13B
330
1F
100
AcDbEntity
  8
0-4_枠
  6
Continuous
 62
    92
370
    13
100
AcDbLine
 10
-1983.48068116376
 20
2130.946220485325
 30
0.0
 11
-1983.48068116376
 21
2217.945146596496
 31
0.0
  0
LINE
  5
13C
330
1F
100
AcDbEntity
  8
0-4_枠
  6
Continuous
 62
    92
370
    13
100
AcDbLine
 10
-2163.48068116376
 20
2172.946220485325
 30
0.0
 11
-2163.48068116376
 21
2592.946220485324
 31
0.0
  0
LINE
  5
13D
330
1F
100
AcDbEntity
  8
0-C_ハッチ
  6
Continuous
 62
   120
370
     5
100
AcDbLine
 10
-2163.480681163775
 20
2565.455682251163
 30
0.0
 11
-2135.990142929613
 21
2592.946220485324
 31
0.0
  0
LINE
  5
13E
330
1F
100
AcDbEntity
  8
0-C_ハッチ
  6
Continuous
 62
   120
370
     5
100
AcDbLine
 10
-2163.480681163769
 20
2446.661743011819
 30
0.0
 11
-2017.196203690264
 21
2592.946220485324
 31
0.0
  0
LINE
  5
13F
330
1F
100
AcDbEntity
  8
0-C_ハッチ
  6
Continuous
 62
   120
370
     5
100
AcDbLine
 10
-2163.480681163758
 20
2506.058712631534
 30
0.0
 11
-2076.593173309968
 21
2592.946220485324
 31
0.0
  0
LINE
  5
140
330
1F
100
AcDbEntity
  8
0-4_枠
  6
Continuous
 62
    92
370
    13
100
AcDbLine
 10
-1983.48068116376
 20
2505.945146596495
 30
0.0
 11
-1983.48068116376
 21
2592.946220485324
 31
0.0
  0
LINE
  5
141
330
1F
100
AcDbEntity
  8
0-4_枠
  6
Continuous
 62
    92
370
    13
100
AcDbLine
 10
-2163.48068116376
 20
2592.946220485324
 30
0.0
 11
-1983.48068116376
 21
2592.946220485324
 31
0.0
  0
LINE
  5
142
330
1F
100
AcDbEntity
  8
0-C_ハッチ
  6
Continuous
 62
   120
370
     5
100
AcDbLine
 10
-2140.211355591919
 20
2172.946220485325
 30
0.0
 11
-2013.147285300126
 21
2300.010290777117
 31
0.0
  0
LINE
  5
143
330
1F
100
AcDbEntity
  8
0-C_ハッチ
  6
Continuous
 62
   120
370
     5
100
AcDbLine
 10
-2062.814385972271
 20
2190.946220485325
 30
0.0
 11
-1999.795671757636
 21
2253.964934699961
 31
0.0
  0
LINE
  5
144
330
1F
100
AcDbEntity
  8
0-C_ハッチ
  6
Continuous
 62
   120
370
     5
100
AcDbLine
 10
-2122.814385972271
 20
2130.946220485325
 30
0.0
 11
-2097.48068116376
 21
2156.279925293837
 31
0.0
  0
LINE
  5
145
330
1F
100
AcDbEntity
  8
0-C_ハッチ
  6
Continuous
 62
   120
370
     5
100
AcDbLine
 10
-2043.48068116376
 20
2150.882955674134
 30
0.0
 11
-1983.480681163762
 21
2210.882955674133
 31
0.0
  0
LINE
  5
146
330
1F
100
AcDbEntity
  8
0-C_ハッチ
  6
Continuous
 62
   120
370
     5
100
AcDbLine
 10
-2004.020446732922
 20
2130.946220485325
 30
0.0
 11
-1983.480681163766
 21
2151.485986054481
 31
0.0
  0
ARC
  5
147
330
1F
100
AcDbEntity
  8
0-4_枠
  6
Continuous
 62
    92
370
    13
100
AcDbCircle
 10
1730.519318836239
 20
2361.945146596496
 30
0.0
 40
306.0000000000022
100
AcDbArc
 50
331.9275130641473
 51
28.07248693585271
  0
LINE
  5
148
330
1F
100
AcDbEntity
  8
0-4_枠
  6
Continuous
 62
    92
370
    13
100
AcDbLine
 10
2114.519318836243
 20
2190.946220485325
 30
0.0
 11
2060.519318836241
 21
2190.946220485325
 31
0.0
  0
LINE
  5
149
330
1F
100
AcDbEntity
  8
0-4_枠
  6
Continuous
 62
    92
370
    13
100
AcDbLine
 10
2180.519318836241
 20
2172.946220485325
 30
0.0
 11
2150.519318836241
 21
2172.946220485325
 31
0.0
  0
LINE
  5
14A
330
1F
100
AcDbEntity
  8
0-4_枠
  6
Continuous
 62
    92
370
    13
100
AcDbLine
 10
2150.519318836241
 20
2130.946220485325
 30
0.0
 11
2150.519318836241
 21
2172.946220485325
 31
0.0
  0
LINE
  5
14B
330
1F
100
AcDbEntity
  8
0-4_枠
  6
Continuous
 62
    92
370
    13
100
AcDbLine
 10
2114.519318836243
 20
2130.946220485325
 30
0.0
 11
2114.519318836243
 21
2190.946220485325
 31
0.0
  0
LINE
  5
14C
330
1F
100
AcDbEntity
  8
0-4_枠
  6
Continuous
 62
    92
370
    13
100
AcDbLine
 10
2150.519318836241
 20
2130.946220485325
 30
0.0
 11
2114.519318836243
 21
2130.946220485325
 31
0.0
  0
LINE
  5
14D
330
1F
100
AcDbEntity
  8
0-4_枠
  6
Continuous
 62
    92
370
    13
100
AcDbLine
 10
2060.519318836241
 20
2130.946220485325
 30
0.0
 11
2060.519318836241
 21
2190.946220485325
 31
0.0
  0
LINE
  5
14E
330
1F
100
AcDbEntity
  8
0-4_枠
  6
Continuous
 62
    92
370
    13
100
AcDbLine
 10
2060.519318836241
 20
2130.946220485325
 30
0.0
 11
2045.107275869119
 21
2130.946220485325
 31
0.0
  0
LINE
  5
14F
330
1F
100
AcDbEntity
  8
0-4_枠
  6
Continuous
 62
    92
370
    13
100
AcDbLine
 10
2045.107275869119
 20
2130.946220485325
 30
0.0
 11
2000.519318836241
 21
2130.946220485325
 31
0.0
  0
LINE
  5
150
330
1F
100
AcDbEntity
  8
0-4_枠
  6
Continuous
 62
    92
370
    13
100
AcDbLine
 10
2000.519318836241
 20
2130.946220485325
 30
0.0
 11
2000.519318836241
 21
2217.945146596496
 31
0.0
  0
LINE
  5
151
330
1F
100
AcDbEntity
  8
0-4_枠
  6
Continuous
 62
    92
370
    13
100
AcDbLine
 10
2180.519318836241
 20
2172.946220485325
 30
0.0
 11
2180.519318836241
 21
2592.946220485324
 31
0.0
  0
LINE
  5
152
330
1F
100
AcDbEntity
  8
0-4_枠
  6
Continuous
 62
    92
370
    13
100
AcDbLine
 10
2000.519318836241
 20
2505.945146596495
 30
0.0
 11
2000.519318836241
 21
2592.946220485324
 31
0.0
  0
LINE
  5
153
330
1F
100
AcDbEntity
  8
0-4_枠
  6
Continuous
 62
    92
370
    13
100
AcDbLine
 10
2180.519318836241
 20
2592.946220485324
 30
0.0
 11
2000.519318836241
 21
2592.946220485324
 31
0.0
  0
LINE
  5
154
330
1F
100
AcDbEntity
  8
0-C_ハッチ
  6
Continuous
 62
   120
370
     5
100
AcDbLine
 10
2129.544560172011
 20
2130.946220485326
 30
0.0
 11
2150.519318836245
 21
2151.92097914956
 31
0.0
  0
LINE
  5
155
330
1F
100
AcDbEntity
  8
0-C_ハッチ
  6
Continuous
 62
   120
370
     5
100
AcDbLine
 10
2171.544560171997
 20
2172.946220485312
 30
0.0
 11
2180.519318836258
 21
2181.920979149571
 31
0.0
  0
LINE
  5
156
330
1F
100
AcDbEntity
  8
0-C_ハッチ
  6
Continuous
 62
   120
370
     5
100
AcDbLine
 10
2114.519318836225
 20
2175.317948769243
 30
0.0
 11
2180.519318836241
 21
2241.317948769258
 31
0.0
  0
LINE
  5
157
330
1F
100
AcDbEntity
  8
0-C_ハッチ
  6
Continuous
 62
   120
370
     5
100
AcDbLine
 10
2010.750620932658
 20
2130.946220485323
 30
0.0
 11
2060.519318836245
 21
2180.714918388909
 31
0.0
  0
LINE
  5
158
330
1F
100
AcDbEntity
  8
0-C_ハッチ
  6
Continuous
 62
   120
370
     5
100
AcDbLine
 10
2070.750620932659
 20
2190.946220485323
 30
0.0
 11
2180.519318836248
 21
2300.714918388913
 31
0.0
  0
LINE
  5
159
330
1F
100
AcDbEntity
  8
0-C_ハッチ
  6
Continuous
 62
   120
370
     5
100
AcDbLine
 10
2000.519318836251
 20
2180.111888008562
 30
0.0
 11
2180.519318836249
 21
2360.11188800856
 31
0.0
  0
LINE
  5
15A
330
1F
100
AcDbEntity
  8
0-C_ハッチ
  6
Continuous
 62
   120
370
     5
100
AcDbLine
 10
2017.931979466964
 20
2256.921518258976
 30
0.0
 11
2180.51931883625
 21
2419.508857628262
 31
0.0
  0
LINE
  5
15B
330
1F
100
AcDbEntity
  8
0-C_ハッチ
  6
Continuous
 62
   120
370
     5
100
AcDbLine
 10
2035.202660214429
 20
2333.589168626089
 30
0.0
 11
2180.519318836245
 21
2478.905827247906
 31
0.0
  0
LINE
  5
15C
330
1F
100
AcDbEntity
  8
0-C_ハッチ
  6
Continuous
 62
   120
370
     5
100
AcDbLine
 10
2034.964973144203
 20
2392.748451175565
 30
0.0
 11
2180.519318836245
 21
2538.302796867608
 31
0.0
  0
LINE
  5
15D
330
1F
100
AcDbEntity
  8
0-C_ハッチ
  6
Continuous
 62
   120
370
     5
100
AcDbLine
 10
2025.638629273923
 20
2442.819076924933
 30
0.0
 11
2175.765772834315
 21
2592.946220485324
 31
0.0
  0
LINE
  5
15E
330
1F
100
AcDbEntity
  8
0-C_ハッチ
  6
Continuous
 62
   120
370
     5
100
AcDbLine
 10
2009.991766939545
 20
2486.569184210201
 30
0.0
 11
2116.368803214656
 21
2592.946220485313
 31
0.0
  0
LINE
  5
15F
330
1F
100
AcDbEntity
  8
0-C_ハッチ
  6
Continuous
 62
   120
370
     5
100
AcDbLine
 10
2000.51931883625
 20
2536.493705726608
 30
0.0
 11
2056.971833594953
 21
2592.946220485312
 31
0.0
  0
LINE
  5
160
330
1F
100
AcDbEntity
  8
0-B_寸法
  6
Continuous
 62
   120
370
     5
100
AcDbLine
 10
2180.519318836241
 20
1266.945146596495
 30
0.0
 11
2180.519318836241
 21
1806.945146596495
 31
0.0
  0
LINE
  5
161
330
1F
100
AcDbEntity
  8
0-B_寸法
  6
Continuous
 62
   120
370
     5
100
AcDbLine
 10
-2163.48068116376
 20
1266.945146596495
 30
0.0
 11
-2163.48068116376
 21
1806.945146596495
 31
0.0
  0
LINE
  5
162
330
1F
100
AcDbEntity
  8
0-B_寸法
  6
Continuous
 62
   120
370
     5
100
AcDbLine
 10
-2163.48068116376
 20
1806.945146596495
 30
0.0
 11
-1983.48068116376
 21
1806.945146596495
 31
0.0
  0
LWPOLYLINE
  5
163
330
1F
100
AcDbEntity
  8
0-B_寸法
  6
Continuous
 62
     7
370
     9
100
AcDbPolyline
 90
        4
 70
     1
 43
3.0
 10
-2161.98068116376
 20
1806.945146596495
 42
0.4142135623731
 10
-2163.48068116376
 20
1808.445146596495
 42
0.4142135623731
 10
-2164.98068116376
 20
1806.945146596495
 42
0.4142135623731
 10
-2163.48068116376
 20
1805.445146596495
 42
0.4142135623731
  0
LWPOLYLINE
  5
164
330
1F
100
AcDbEntity
  8
0-B_寸法
  6
Continuous
 62
     7
370
     9
100
AcDbPolyline
 90
        4
 70
     1
 43
3.0
 10
-2131.98068116376
 20
1806.945146596495
 42
0.4142135623731
 10
-2133.48068116376
 20
1808.445146596495
 42
0.4142135623731
 10
-2134.98068116376
 20
1806.945146596495
 42
0.4142135623731
 10
-2133.48068116376
 20
1805.445146596495
 42
0.4142135623731
  0
LWPOLYLINE
  5
165
330
1F
100
AcDbEntity
  8
0-B_寸法
  6
Continuous
 62
     7
370
     9
100
AcDbPolyline
 90
        4
 70
     1
 43
3.0
 10
-2095.980681163762
 20
1806.945146596495
 42
0.4142135623731
 10
-2097.480681163762
 20
1808.445146596495
 42
0.4142135623731
 10
-2098.980681163762
 20
1806.945146596495
 42
0.4142135623731
 10
-2097.480681163762
 20
1805.445146596495
 42
0.4142135623731
  0
LINE
  5
166
330
1F
100
AcDbEntity
  8
0-B_寸法
  6
Continuous
 62
   120
370
     5
100
AcDbLine
 10
-2097.480681163762
 20
1806.945146596495
 30
0.0
 11
-2097.480681163762
 21
1986.945146596495
 31
0.0
  0
LWPOLYLINE
  5
167
330
1F
100
AcDbEntity
  8
0-B_寸法
  6
Continuous
 62
     7
370
     9
100
AcDbPolyline
 90
        4
 70
     1
 43
3.0
 10
-2041.98068116376
 20
1806.945146596495
 42
0.4142135623731
 10
-2043.48068116376
 20
1808.445146596495
 42
0.4142135623731
 10
-2044.980681163759
 20
1806.945146596495
 42
0.4142135623731
 10
-2043.48068116376
 20
1805.445146596495
 42
0.4142135623731
  0
LINE
  5
168
330
1F
100
AcDbEntity
  8
0-B_寸法
  6
Continuous
 62
   120
370
     5
100
AcDbLine
 10
-2043.48068116376
 20
1806.945146596495
 30
0.0
 11
-2043.48068116376
 21
1986.945146596495
 31
0.0
  0
LWPOLYLINE
  5
169
330
1F
100
AcDbEntity
  8
0-B_寸法
  6
Continuous
 62
     7
370
     9
100
AcDbPolyline
 90
        4
 70
     1
 43
3.0
 10
-1981.98068116376
 20
1806.945146596495
 42
0.4142135623731
 10
-1983.48068116376
 20
1808.445146596495
 42
0.4142135623731
 10
-1984.980681163759
 20
1806.945146596495
 42
0.4142135623731
 10
-1983.48068116376
 20
1805.445146596495
 42
0.4142135623731
  0
LINE
  5
16A
330
1F
100
AcDbEntity
  8
0-B_寸法
  6
Continuous
 62
   120
370
     5
100
AcDbLine
 10
-1983.48068116376
 20
1806.945146596495
 30
0.0
 11
-1983.48068116376
 21
1986.945146596495
 31
0.0
  0
MTEXT
  5
16B
330
1F
100
AcDbEntity
  8
0-B_寸法
  6
Continuous
 62
     7
370
   211
100
AcDbMText
 10
-2092.980681163763
 20
1796.235146596497
 30
0.0
 40
68.5800000000026
 41
45.00000000000171
 46
0.0
 71
     7
 72
     1
  1
{\fＭＳ ゴシック|b0|i0|c128|p49;9}
 73
     1
 44
1.0
  0
LINE
  5
16C
330
1F
100
AcDbEntity
  8
0-B_寸法
  6
Continuous
 62
   120
370
     5
100
AcDbLine
 10
-2115.480681163762
 20
1806.945146596495
 30
0.0
 11
-2205.480681163762
 21
1716.945146596495
 31
0.0
  0
MTEXT
  5
16D
330
1F
100
AcDbEntity
  8
0-B_寸法
  6
Continuous
 62
     7
370
   211
100
AcDbMText
 10
-2250.480681163763
 20
1706.235146596497
 30
0.0
 40
68.5800000000026
 41
45.00000000000171
 46
0.0
 71
     7
 72
     1
  1
{\fＭＳ ゴシック|b0|i0|c128|p49;6}
 73
     1
 44
1.0
  0
LINE
  5
16E
330
1F
100
AcDbEntity
  8
0-B_寸法
  6
Continuous
 62
   120
370
     5
100
AcDbLine
 10
-2260.727221018937
 20
1716.945146596495
 30
0.0
 11
-2205.480681163762
 21
1716.945146596495
 31
0.0
  0
LINE
  5
16F
330
1F
100
AcDbEntity
  8
0-B_寸法
  6
Continuous
 62
   120
370
     5
100
AcDbLine
 10
-2148.48068116376
 20
1806.945146596495
 30
0.0
 11
-2208.48068116376
 21
1866.945146596495
 31
0.0
  0
MTEXT
  5
170
330
1F
100
AcDbEntity
  8
0-B_寸法
  6
Continuous
 62
     7
370
   211
100
AcDbMText
 10
-2253.48068116376
 20
1856.235146596497
 30
0.0
 40
68.5800000000026
 41
45.00000000000171
 46
0.0
 71
     7
 72
     1
  1
{\fＭＳ ゴシック|b0|i0|c128|p49;5}
 73
     1
 44
1.0
  0
LINE
  5
171
330
1F
100
AcDbEntity
  8
0-B_寸法
  6
Continuous
 62
   120
370
     5
100
AcDbLine
 10
-2268.929502992423
 20
1866.945146596495
 30
0.0
 11
-2208.48068116376
 21
1866.945146596495
 31
0.0
  0
MTEXT
  5
172
330
1F
100
AcDbEntity
  8
0-B_寸法
  6
Continuous
 62
     7
370
   211
100
AcDbMText
 10
-2032.230681163758
 20
1799.092646596494
 30
0.0
 40
74.2949999999974
 41
97.49999999999659
 46
0.0
 71
     7
 72
     1
  1
{\fＭＳ ゴシック|b0|i0|c128|p49;10}
 73
     1
 44
1.0
  0
LINE
  5
173
330
1F
100
AcDbEntity
  8
0-B_寸法
  6
Continuous
 62
   120
370
     5
100
AcDbLine
 10
-2163.48068116376
 20
1806.945146596495
 30
0.0
 11
-2163.48068116376
 21
1986.945146596495
 31
0.0
  0
LINE
  5
174
330
1F
100
AcDbEntity
  8
0-B_寸法
  6
Continuous
 62
   120
370
     5
100
AcDbLine
 10
-2133.48068116376
 20
1806.945146596495
 30
0.0
 11
-2133.48068116376
 21
1986.945146596495
 31
0.0
  0
LWPOLYLINE
  5
175
330
1F
100
AcDbEntity
  8
0-3_仕上げ
  6
Continuous
 62
     7
370
     9
100
AcDbPolyline
 90
        4
 70
     1
 43
3.0
 10
-1566.8140372967
 20
2592.946220485324
 42
0.4142135623731
 10
-1568.3140372967
 20
2594.446220485324
 42
0.4142135623731
 10
-1569.814037296699
 20
2592.946220485324
 42
0.4142135623731
 10
-1568.3140372967
 20
2591.446220485324
 42
0.4142135623731
  0
LINE
  5
176
330
1F
100
AcDbEntity
  8
0-3_仕上げ
  6
Continuous
 62
   120
370
     5
100
AcDbLine
 10
-1568.3140372967
 20
2592.946220485324
 30
0.0
 11
-1731.545782836358
 21
2592.946220485324
 31
0.0
  0
LWPOLYLINE
  5
177
330
1F
100
AcDbEntity
  8
0-3_仕上げ
  6
Continuous
 62
     7
370
     9
100
AcDbPolyline
 90
        4
 70
     1
 43
3.0
 10
-1566.8140372967
 20
2130.946220485324
 42
0.4142135623731
 10
-1568.3140372967
 20
2132.446220485324
 42
0.4142135623731
 10
-1569.814037296699
 20
2130.946220485324
 42
0.4142135623731
 10
-1568.3140372967
 20
2129.446220485324
 42
0.4142135623731
  0
LINE
  5
178
330
1F
100
AcDbEntity
  8
0-3_仕上げ
  6
Continuous
 62
   120
370
     5
100
AcDbLine
 10
-1568.3140372967
 20
2130.946220485324
 30
0.0
 11
-1731.545782836358
 21
2130.946220485324
 31
0.0
  0
LINE
  5
179
330
1F
100
AcDbEntity
  8
0-3_仕上げ
  6
Continuous
 62
   120
370
     5
100
AcDbLine
 10
-1568.3140372967
 20
2592.946220485324
 30
0.0
 11
-1568.3140372967
 21
2130.946220485324
 31
0.0
  0
MTEXT
  5
17A
330
1F
100
AcDbEntity
  8
0-3_仕上げ
  6
Continuous
 62
     7
370
   211
100
AcDbMText
 10
-1583.314037296699
 20
2287.665022876577
 30
0.0
 40
91.44
 41
120.0
 46
0.0
 71
     7
 72
     1
  1
{\fＭＳ ゴシック|b0|i0|c128|p49;77}
 11
6.123031769111886E-17
 21
1.0
 31
0.0
 73
     1
 44
1.0
  0
MTEXT
  5
17B
330
1F
100
AcDbEntity
  8
0-A_文字
  6
Continuous
 62
     7
370
     9
100
AcDbMText
 10
-2730.013896446354
 20
3310.355192579905
 30
0.0
 40
100.5840000000001
 41
660.0000000000009
 46
0.0
 71
     7
 72
     1
  1
{\fＭＳ ゴシック|b0|i0|c128|p49;■横断面図}
 73
     1
 44
1.0
  0
LINE
  5
17C
330
1F
100
AcDbEntity
  8
0-A_文字
  6
JWW_HOJO
 62
   120
370
     5
100
AcDbLine
 10
8.519318836243315
 20
947.6368213441579
 30
0.0
 11
2418.043128360052
 21
947.6368213441579
 31
0.0
  0
LINE
  5
17D
330
1F
100
AcDbEntity
  8
0-A_文字
  6
JWW_HOJO
 62
   120
370
     5
100
AcDbLine
 10
8.519318836243315
 20
827.6368213441579
 30
0.0
 11
2418.043128360052
 21
827.6368213441579
 31
0.0
  0
LINE
  5
17E
330
1F
100
AcDbEntity
  8
0-A_文字
  6
JWW_HOJO
 62
   120
370
     5
100
AcDbLine
 10
8.519318836243315
 20
707.6368213441576
 30
0.0
 11
2418.043128360052
 21
707.6368213441576
 31
0.0
  0
MTEXT
  5
17F
330
1F
100
AcDbEntity
  8
0-A_文字
  6
Continuous
 62
     7
370
     9
100
AcDbMText
 10
8.519318836243315
 20
942.3820486168847
 30
0.0
 40
79.49045454545454
 41
2295.0
 46
0.0
 71
     7
 72
     1
  1
{\fＭＳ ゴシック|b0|i0|c128|p49;※有効開口寸法にはハンドルの突出は含まない。}
 73
     1
 44
1.0
  0
MTEXT
  5
180
330
1F
100
AcDbEntity
  8
0-A_文字
  6
Continuous
 62
     7
370
     9
100
AcDbMText
 10
8.519318836243315
 20
822.4301546774908
 30
0.0
 40
79.58666666666664
 41
2820.0
 46
0.0
 71
     7
 72
     1
  1
{\fＭＳ ゴシック|b0|i0|c128|p49;※有効開口寸法は扉の厚さや調整によって若干異なります。}
 73
     1
 44
1.0
  0
MTEXT
  5
181
330
1F
100
AcDbEntity
  8
0-A_文字
  6
Continuous
 62
     7
370
     0
100
AcDbMText
 10
8.519318836243315
 20
696.9268213441566
 30
0.0
 40
68.57999999999997
 41
1350.0
 46
0.0
 71
     7
 72
     1
  1
{\fＭＳ ゴシック|b0|i0|c128|p49;※扉厚（　）内はルーバーの場合}
 73
     1
 44
1.0
  0
MTEXT
  5
182
330
1F
100
AcDbEntity
  8
0-A_文字
  6
Continuous
 62
     7
370
   211
100
AcDbMText
 10
-1023.444708226531
 20
2227.665146596495
 30
0.0
 40
91.44
 41
240.0
 46
0.0
 71
     7
 72
     1
  1
{\fＭＳ ゴシック|b0|i0|c128|p49;(24)}
 11
6.123031769111886E-17
 21
1.0
 31
0.0
 73
     1
 44
1.0
  0
LINE
  5
183
330
1F
100
AcDbEntity
  8
0-C_ハッチ
  6
JWW_DASHED1
 62
   120
370
     5
100
AcDbLine
 10
-2145.500419004956
 20
2097.946220485331
 30
0.0
 11
-2133.480681163769
 21
2109.96595832652
 31
0.0
  0
LINE
  5
184
330
1F
100
AcDbEntity
  8
0-C_ハッチ
  6
JWW_DASHED1
 62
   120
370
     5
100
AcDbLine
 10
-2187.926825876152
 20
2097.946220485334
 30
0.0
 11
-2133.480681163775
 21
2152.392365197711
 31
0.0
  0
LINE
  5
185
330
1F
100
AcDbEntity
  8
0-C_ハッチ
  6
JWW_DASHED1
 62
   120
370
     5
100
AcDbLine
 10
-2230.353232747349
 20
2097.946220485338
 30
0.0
 11
-2155.353232747338
 21
2172.946220485349
 31
0.0
  0
LINE
  5
186
330
1F
100
AcDbEntity
  8
0-C_ハッチ
  6
JWW_DASHED1
 62
   120
370
     5
100
AcDbLine
 10
-2272.779639618559
 20
2097.946220485329
 30
0.0
 11
-2197.779639618565
 21
2172.946220485323
 31
0.0
  0
LINE
  5
187
330
1F
100
AcDbEntity
  8
0-C_ハッチ
  6
JWW_DASHED1
 62
   120
370
     5
100
AcDbLine
 10
-2315.206046489758
 20
2097.946220485329
 30
0.0
 11
-2240.206046489763
 21
2172.946220485325
 31
0.0
  0
LINE
  5
188
330
1F
100
AcDbEntity
  8
0-C_ハッチ
  6
JWW_DASHED1
 62
   120
370
     5
100
AcDbLine
 10
-2357.632453360955
 20
2097.946220485333
 30
0.0
 11
-2282.632453360959
 21
2172.946220485328
 31
0.0
  0
LINE
  5
189
330
1F
100
AcDbEntity
  8
0-C_ハッチ
  6
JWW_DASHED1
 62
   120
370
     5
100
AcDbLine
 10
-2400.05886023209
 20
2097.946220485341
 30
0.0
 11
-2325.058860232097
 21
2172.946220485337
 31
0.0
  0
LINE
  5
18A
330
1F
100
AcDbEntity
  8
0-C_ハッチ
  6
JWW_DASHED1
 62
   120
370
     5
100
AcDbLine
 10
-2442.485267103288
 20
2097.946220485345
 30
0.0
 11
-2367.485267103293
 21
2172.946220485341
 31
0.0
  0
LINE
  5
18B
330
1F
100
AcDbEntity
  8
0-C_ハッチ
  6
JWW_DASHED1
 62
   120
370
     5
100
AcDbLine
 10
-2484.911673974502
 20
2097.946220485333
 30
0.0
 11
-2409.91167397449
 21
2172.946220485344
 31
0.0
  0
LINE
  5
18C
330
1F
100
AcDbEntity
  8
0-C_ハッチ
  6
JWW_DASHED1
 62
   120
370
     5
100
AcDbLine
 10
-2527.338080845697
 20
2097.946220485336
 30
0.0
 11
-2452.338080845684
 21
2172.946220485348
 31
0.0
  0
LINE
  5
18D
330
1F
100
AcDbEntity
  8
0-C_ハッチ
  6
JWW_DASHED1
 62
   120
370
     5
100
AcDbLine
 10
-2569.764487716893
 20
2097.946220485341
 30
0.0
 11
-2494.764487716897
 21
2172.946220485336
 31
0.0
  0
LINE
  5
18E
330
1F
100
AcDbEntity
  8
0-C_ハッチ
  6
JWW_DASHED1
 62
   120
370
     5
100
AcDbLine
 10
-2612.190894588104
 20
2097.946220485328
 30
0.0
 11
-2537.190894588111
 21
2172.946220485323
 31
0.0
  0
LINE
  5
18F
330
1F
100
AcDbEntity
  8
0-C_ハッチ
  6
JWW_DASHED1
 62
   120
370
     5
100
AcDbLine
 10
-2654.617301459302
 20
2097.946220485332
 30
0.0
 11
-2579.617301459307
 21
2172.946220485328
 31
0.0
  0
LINE
  5
190
330
1F
100
AcDbEntity
  8
0-C_ハッチ
  6
JWW_DASHED1
 62
   120
370
     5
100
AcDbLine
 10
-2697.043708330497
 20
2097.946220485336
 30
0.0
 11
-2622.043708330502
 21
2172.946220485331
 31
0.0
  0
LINE
  5
191
330
1F
100
AcDbEntity
  8
0-3_仕上げ
  6
Continuous
 62
    40
370
    15
100
AcDbLine
 10
-2133.480681163775
 20
2172.946220485325
 30
0.0
 11
-2133.480681163775
 21
2097.946220485325
 31
0.0
  0
LINE
  5
192
330
1F
100
AcDbEntity
  8
0-C_ハッチ
  6
JWW_DASHED1
 62
   120
370
     5
100
AcDbLine
 10
2653.646569300798
 20
2097.946220485338
 30
0.0
 11
2728.646569300809
 21
2172.946220485349
 31
0.0
  0
LINE
  5
193
330
1F
100
AcDbEntity
  8
0-C_ハッチ
  6
JWW_DASHED1
 62
   120
370
     5
100
AcDbLine
 10
2611.220162429589
 20
2097.946220485329
 30
0.0
 11
2686.220162429582
 21
2172.946220485323
 31
0.0
  0
LINE
  5
194
330
1F
100
AcDbEntity
  8
0-C_ハッチ
  6
JWW_DASHED1
 62
   120
370
     5
100
AcDbLine
 10
2568.793755558389
 20
2097.946220485329
 30
0.0
 11
2643.793755558385
 21
2172.946220485325
 31
0.0
  0
LINE
  5
195
330
1F
100
AcDbEntity
  8
0-C_ハッチ
  6
JWW_DASHED1
 62
   120
370
     5
100
AcDbLine
 10
2526.367348687192
 20
2097.946220485333
 30
0.0
 11
2601.367348687188
 21
2172.946220485328
 31
0.0
  0
LINE
  5
196
330
1F
100
AcDbEntity
  8
0-C_ハッチ
  6
JWW_DASHED1
 62
   120
370
     5
100
AcDbLine
 10
2483.940941816056
 20
2097.946220485341
 30
0.0
 11
2558.94094181605
 21
2172.946220485337
 31
0.0
  0
LINE
  5
197
330
1F
100
AcDbEntity
  8
0-C_ハッチ
  6
JWW_DASHED1
 62
   120
370
     5
100
AcDbLine
 10
2441.514534944859
 20
2097.946220485345
 30
0.0
 11
2516.514534944854
 21
2172.946220485341
 31
0.0
  0
LINE
  5
198
330
1F
100
AcDbEntity
  8
0-C_ハッチ
  6
JWW_DASHED1
 62
   120
370
     5
100
AcDbLine
 10
2399.088128073647
 20
2097.946220485333
 30
0.0
 11
2474.088128073658
 21
2172.946220485344
 31
0.0
  0
LINE
  5
199
330
1F
100
AcDbEntity
  8
0-C_ハッチ
  6
JWW_DASHED1
 62
   120
370
     5
100
AcDbLine
 10
2356.66172120245
 20
2097.946220485336
 30
0.0
 11
2431.661721202461
 21
2172.946220485347
 31
0.0
  0
LINE
  5
19A
330
1F
100
AcDbEntity
  8
0-C_ハッチ
  6
JWW_DASHED1
 62
   120
370
     5
100
AcDbLine
 10
2314.235314331254
 20
2097.946220485341
 30
0.0
 11
2389.235314331249
 21
2172.946220485335
 31
0.0
  0
LINE
  5
19B
330
1F
100
AcDbEntity
  8
0-C_ハッチ
  6
JWW_DASHED1
 62
   120
370
     5
100
AcDbLine
 10
2271.808907460042
 20
2097.946220485328
 30
0.0
 11
2346.808907460038
 21
2172.946220485323
 31
0.0
  0
LINE
  5
19C
330
1F
100
AcDbEntity
  8
0-C_ハッチ
  6
JWW_DASHED1
 62
   120
370
     5
100
AcDbLine
 10
2229.382500588846
 20
2097.946220485332
 30
0.0
 11
2304.382500588841
 21
2172.946220485327
 31
0.0
  0
LINE
  5
19D
330
1F
100
AcDbEntity
  8
0-C_ハッチ
  6
JWW_DASHED1
 62
   120
370
     5
100
AcDbLine
 10
2186.95609371765
 20
2097.946220485335
 30
0.0
 11
2261.956093717646
 21
2172.94622048533
 31
0.0
  0
LINE
  5
19E
330
1F
100
AcDbEntity
  8
0-C_ハッチ
  6
JWW_DASHED1
 62
   120
370
     5
100
AcDbLine
 10
2150.519318836224
 20
2103.935852475055
 30
0.0
 11
2219.529686846508
 21
2172.946220485339
 31
0.0
  0
LINE
  5
19F
330
1F
100
AcDbEntity
  8
0-C_ハッチ
  6
JWW_DASHED1
 62
   120
370
     5
100
AcDbLine
 10
2150.519318836228
 20
2146.362259346259
 30
0.0
 11
2177.103279975311
 21
2172.946220485342
 31
0.0
  0
LINE
  5
1A0
330
1F
100
AcDbEntity
  8
0-3_仕上げ
  6
Continuous
 62
    40
370
    15
100
AcDbLine
 10
2150.519318836241
 20
2097.946220485325
 30
0.0
 11
2150.519318836241
 21
2172.946220485325
 31
0.0
  0
LINE
  5
1A1
330
1F
100
AcDbEntity
  8
0-3_仕上げ
  6
Continuous
 62
    40
370
    15
100
AcDbLine
 10
2150.519318836241
 20
2097.946220485325
 30
0.0
 11
2780.519120884388
 21
2097.946220485325
 31
0.0
  0
LINE
  5
1A2
330
1F
100
AcDbEntity
  8
0-3_仕上げ
  6
Continuous
 62
    40
370
    15
100
AcDbLine
 10
2150.519318836241
 20
2172.946220485325
 30
0.0
 11
2780.519120884388
 21
2172.946220485325
 31
0.0
  0
LINE
  5
1A3
330
1F
100
AcDbEntity
  8
0-C_ハッチ
  6
JWW_DASHED1
 62
   120
370
     5
100
AcDbLine
 10
2738.49938304319
 20
2097.94622048533
 30
0.0
 11
2780.519120884388
 21
2139.965958326528
 31
0.0
  0
LINE
  5
1A4
330
1F
100
AcDbEntity
  8
0-C_ハッチ
  6
JWW_DASHED1
 62
   120
370
     5
100
AcDbLine
 10
2696.072976171994
 20
2097.946220485334
 30
0.0
 11
2771.072976171986
 21
2172.946220485325
 31
0.0
  0
LINE
  5
1A5
330
1F
100
AcDbEntity
  8
0-3_仕上げ
  6
Continuous
 62
    40
370
    15
100
AcDbLine
 10
-2763.480483211902
 20
2097.946220485325
 30
0.0
 11
-2133.48068116376
 21
2097.946220485325
 31
0.0
  0
LINE
  5
1A6
330
1F
100
AcDbEntity
  8
0-3_仕上げ
  6
Continuous
 62
    40
370
    15
100
AcDbLine
 10
-2763.480483211902
 20
2172.946220485325
 30
0.0
 11
-2133.48068116376
 21
2172.946220485325
 31
0.0
  0
LINE
  5
1A7
330
1F
100
AcDbEntity
  8
0-C_ハッチ
  6
JWW_DASHED1
 62
   120
370
     5
100
AcDbLine
 10
-2763.480483211902
 20
2116.362259346278
 30
0.0
 11
-2706.896522072836
 21
2172.946220485343
 31
0.0
  0
LINE
  5
1A8
330
1F
100
AcDbEntity
  8
0-C_ハッチ
  6
JWW_DASHED1
 62
   120
370
     5
100
AcDbLine
 10
-2739.470115201652
 20
2097.946220485325
 30
0.0
 11
-2664.470115201641
 21
2172.946220485339
 31
0.0
  0
MTEXT
  5
1A9
330
1F
100
AcDbEntity
  8
0-A_文字
  6
Continuous
 62
     7
370
     9
100
AcDbMText
 10
-2727.997778539307
 20
198.8076390650317
 30
0.0
 40
91.44
 41
600.0
 46
0.0
 71
     7
 72
     1
  1
{\fＭＳ ゴシック|b0|i0|c128|p49;■縦断面図}
 73
     1
 44
1.0
  0
MTEXT
  5
1AA
330
1F
100
AcDbEntity
  8
0-A_文字
  6
Continuous
 62
     7
370
     9
100
AcDbMText
 10
-2727.99777853931
 20
50.28737389758747
 30
0.0
 40
91.43999999999994
 41
1559.999999999999
 46
0.0
 71
     7
 72
     1
  1
{\fＭＳ ゴシック|b0|i0|c128|p49;　[４方枠(敷居床上直置き)]}
 73
     1
 44
1.0
  0
MTEXT
  5
1AB
330
1F
100
AcDbEntity
  8
0-A_文字
  6
Continuous
 62
     7
370
   211
100
AcDbMText
 10
-1860.480483211897
 20
-2901.781802088182
 30
0.0
 40
91.43999999999805
 41
119.9999999999974
 46
0.0
 71
     7
 72
     1
  1
{\fＭＳ ゴシック|b0|i0|c128|p49;77}
 73
     1
 44
1.0
  0
LINE
  5
1AC
330
1F
100
AcDbEntity
  8
0-0_補助線
  6
JWW_HOJO
 62
   120
370
     5
100
AcDbLine
 10
-2763.480483211902
 20
1.999703072473693
 30
0.0
 11
-909.480483211903
 21
1.999703072473693
 31
0.0
  0
LINE
  5
1AD
330
1F
100
AcDbEntity
  8
0-1_通り芯
  6
JWW_CENTER1
 62
   120
370
     5
100
AcDbLine
 10
-1800.480483211898
 20
-3519.905325898395
 30
0.0
 11
-1800.480483211898
 21
2.000074026084775
 31
0.0
  0
LINE
  5
1AE
330
1F
100
AcDbEntity
  8
0-0_補助線
  6
JWW_HOJO
 62
   120
370
     5
100
AcDbLine
 10
-2403.480483211902
 20
2.000074026084775
 30
0.0
 11
-2403.480483211902
 21
-3297.999940973918
 31
0.0
  0
LINE
  5
1AF
330
1F
100
AcDbEntity
  8
0-0_補助線
  6
JWW_HOJO
 62
   120
370
     5
100
AcDbLine
 10
-1209.480483211903
 20
2.000074026084775
 30
0.0
 11
-1209.480483211903
 21
-3297.999940973918
 31
0.0
  0
LINE
  5
1B0
330
1F
100
AcDbEntity
  8
0-0_補助線
  6
JWW_HOJO
 62
   120
370
     5
100
AcDbLine
 10
-909.480483211903
 20
2.000074026084775
 30
0.0
 11
-909.480483211903
 21
-3297.999940973918
 31
0.0
  0
LINE
  5
1B1
330
1F
100
AcDbEntity
  8
0-0_補助線
  6
JWW_HOJO
 62
   120
370
     5
100
AcDbLine
 10
-2763.480483211902
 20
2.000074026084775
 30
0.0
 11
-2763.480483211902
 21
-3297.999940973918
 31
0.0
  0
ARC
  5
1B2
330
1F
100
AcDbEntity
  8
0-7_金物
  6
Continuous
 62
     7
370
     9
100
AcDbCircle
 10
-1749.480483211903
 20
-3169.000334249621
 30
0.0
 40
9.000000000000002
100
AcDbArc
 50
270.0
 51
0.0
  0
LINE
  5
1B3
330
1F
100
AcDbEntity
  8
0-7_金物
  6
Continuous
 62
     7
370
     9
100
AcDbLine
 10
-1749.480483211903
 20
-3178.000334249619
 30
0.0
 11
-1851.480483211919
 21
-3178.000334249619
 31
0.0
  0
LINE
  5
1B4
330
1F
100
AcDbEntity
  8
0-7_金物
  6
Continuous
 62
     7
370
     9
100
AcDbLine
 10
-1740.480483211898
 20
-3169.000334249621
 30
0.0
 11
-1740.480483211898
 21
-3166.00033424962
 31
0.0
  0
ARC
  5
1B5
330
1F
100
AcDbEntity
  8
0-7_金物
  6
Continuous
 62
     7
370
     9
100
AcDbCircle
 10
-1851.480483211919
 20
-3169.000334249621
 30
0.0
 40
9.000000000000002
100
AcDbArc
 50
180.0
 51
270.0
  0
LINE
  5
1B6
330
1F
100
AcDbEntity
  8
0-7_金物
  6
Continuous
 62
     7
370
     9
100
AcDbLine
 10
-1860.480483211898
 20
-3169.000334249621
 30
0.0
 11
-1860.480483211898
 21
-3166.00033424962
 31
0.0
  0
LINE
  5
1B7
330
1F
100
AcDbEntity
  8
0-7_金物
  6
Continuous
 62
     7
370
     9
100
AcDbLine
 10
-1860.480483211898
 20
-3160.000334249622
 30
0.0
 11
-1860.480483211898
 21
-3157.000334249621
 31
0.0
  0
LINE
  5
1B8
330
1F
100
AcDbEntity
  8
0-7_金物
  6
Continuous
 62
     7
370
     9
100
AcDbLine
 10
-1860.480483211898
 20
-3151.00033424962
 30
0.0
 11
-1860.480483211898
 21
-3148.000334249619
 31
0.0
  0
LINE
  5
1B9
330
1F
100
AcDbEntity
  8
0-7_金物
  6
Continuous
 62
     7
370
     9
100
AcDbLine
 10
-1860.480483211898
 20
-3142.000334249621
 30
0.0
 11
-1860.480483211898
 21
-3133.000334249619
 31
0.0
  0
LINE
  5
1BA
330
1F
100
AcDbEntity
  8
0-7_金物
  6
Continuous
 62
     7
370
     9
100
AcDbLine
 10
-1740.480483211898
 20
-3157.000334249621
 30
0.0
 11
-1740.480483211898
 21
-3160.000334249622
 31
0.0
  0
LINE
  5
1BB
330
1F
100
AcDbEntity
  8
0-7_金物
  6
Continuous
 62
     7
370
     9
100
AcDbLine
 10
-1740.480483211898
 20
-3148.000334249619
 30
0.0
 11
-1740.480483211898
 21
-3151.00033424962
 31
0.0
  0
LINE
  5
1BC
330
1F
100
AcDbEntity
  8
0-7_金物
  6
Continuous
 62
     7
370
     9
100
AcDbLine
 10
-1740.480483211898
 20
-3133.000334249619
 30
0.0
 11
-1740.480483211898
 21
-3142.000334249621
 31
0.0
  0
ARC
  5
1BD
330
1F
100
AcDbEntity
  8
0-7_金物
  6
Continuous
 62
     7
370
     9
100
AcDbCircle
 10
-1740.780483211904
 20
-3145.000334249622
 30
0.0
 40
1.8
100
AcDbArc
 50
333.434948822922
 51
26.56505117707799
  0
LINE
  5
1BE
330
1F
100
AcDbEntity
  8
0-7_金物
  6
Continuous
 62
     7
370
     9
100
AcDbLine
 10
-1739.17051426811
 20
-3145.805318721519
 30
0.0
 11
-1740.480483211898
 21
-3148.000334249619
 31
0.0
  0
LINE
  5
1BF
330
1F
100
AcDbEntity
  8
0-7_金物
  6
Continuous
 62
     7
370
     9
100
AcDbLine
 10
-1739.17051426811
 20
-3144.195349777721
 30
0.0
 11
-1740.480483211898
 21
-3142.000334249621
 31
0.0
  0
ARC
  5
1C0
330
1F
100
AcDbEntity
  8
0-7_金物
  6
Continuous
 62
     7
370
     9
100
AcDbCircle
 10
-1740.780483211904
 20
-3154.000334249621
 30
0.0
 40
1.8
100
AcDbArc
 50
333.434948822922
 51
26.56505117707799
  0
LINE
  5
1C1
330
1F
100
AcDbEntity
  8
0-7_金物
  6
Continuous
 62
     7
370
     9
100
AcDbLine
 10
-1739.17051426811
 20
-3154.805318721521
 30
0.0
 11
-1740.480483211898
 21
-3157.000334249621
 31
0.0
  0
LINE
  5
1C2
330
1F
100
AcDbEntity
  8
0-7_金物
  6
Continuous
 62
     7
370
     9
100
AcDbLine
 10
-1739.17051426811
 20
-3153.19534977772
 30
0.0
 11
-1740.480483211898
 21
-3151.00033424962
 31
0.0
  0
ARC
  5
1C3
330
1F
100
AcDbEntity
  8
0-7_金物
  6
Continuous
 62
     7
370
     9
100
AcDbCircle
 10
-1740.780483211904
 20
-3163.000334249619
 30
0.0
 40
1.8
100
AcDbArc
 50
333.434948822922
 51
26.56505117707799
  0
LINE
  5
1C4
330
1F
100
AcDbEntity
  8
0-7_金物
  6
Continuous
 62
     7
370
     9
100
AcDbLine
 10
-1739.17051426811
 20
-3163.80531872152
 30
0.0
 11
-1740.480483211898
 21
-3166.00033424962
 31
0.0
  0
LINE
  5
1C5
330
1F
100
AcDbEntity
  8
0-7_金物
  6
Continuous
 62
     7
370
     9
100
AcDbLine
 10
-1739.17051426811
 20
-3162.195349777719
 30
0.0
 11
-1740.480483211898
 21
-3160.000334249622
 31
0.0
  0
ARC
  5
1C6
330
1F
100
AcDbEntity
  8
0-7_金物
  6
Continuous
 62
     7
370
     9
100
AcDbCircle
 10
-1752.480483211914
 20
-3164.800334249621
 30
0.0
 40
3.0
100
AcDbArc
 50
270.0
 51
0.0
  0
LINE
  5
1C7
330
1F
100
AcDbEntity
  8
0-7_金物
  6
Continuous
 62
     7
370
     9
100
AcDbLine
 10
-1752.480483211914
 20
-3167.800334249622
 30
0.0
 11
-1767.480483211914
 21
-3167.800334249622
 31
0.0
  0
LINE
  5
1C8
330
1F
100
AcDbEntity
  8
0-7_金物
  6
Continuous
 62
     7
370
     9
100
AcDbLine
 10
-1749.480483211903
 20
-3164.800334249621
 30
0.0
 11
-1749.480483211903
 21
-3143.20033424962
 31
0.0
  0
ARC
  5
1C9
330
1F
100
AcDbEntity
  8
0-7_金物
  6
Continuous
 62
     7
370
     9
100
AcDbCircle
 10
-1752.480483211914
 20
-3143.20033424962
 30
0.0
 40
3.0
100
AcDbArc
 50
0.0000000000000127
 51
90.00000000000001
  0
LINE
  5
1CA
330
1F
100
AcDbEntity
  8
0-7_金物
  6
Continuous
 62
     7
370
     9
100
AcDbLine
 10
-1752.480483211914
 20
-3140.20033424962
 30
0.0
 11
-1763.880483211917
 21
-3140.20033424962
 31
0.0
  0
ARC
  5
1CB
330
1F
100
AcDbEntity
  8
0-7_金物
  6
Continuous
 62
     7
370
     9
100
AcDbCircle
 10
-1848.480483211908
 20
-3164.800334249621
 30
0.0
 40
3.0
100
AcDbArc
 50
180.0
 51
270.0
  0
LINE
  5
1CC
330
1F
100
AcDbEntity
  8
0-7_金物
  6
Continuous
 62
     7
370
     9
100
AcDbLine
 10
-1848.480483211908
 20
-3167.800334249622
 30
0.0
 11
-1833.480483211908
 21
-3167.800334249622
 31
0.0
  0
LINE
  5
1CD
330
1F
100
AcDbEntity
  8
0-7_金物
  6
Continuous
 62
     7
370
     9
100
AcDbLine
 10
-1851.480483211919
 20
-3164.800334249621
 30
0.0
 11
-1851.480483211919
 21
-3143.20033424962
 31
0.0
  0
ARC
  5
1CE
330
1F
100
AcDbEntity
  8
0-7_金物
  6
Continuous
 62
     7
370
     9
100
AcDbCircle
 10
-1848.480483211908
 20
-3143.20033424962
 30
0.0
 40
3.0
100
AcDbArc
 50
90.0
 51
180.0
  0
LINE
  5
1CF
330
1F
100
AcDbEntity
  8
0-7_金物
  6
Continuous
 62
     7
370
     9
100
AcDbLine
 10
-1848.480483211908
 20
-3140.20033424962
 30
0.0
 11
-1837.080483211905
 21
-3140.20033424962
 31
0.0
  0
ARC
  5
1D0
330
1F
100
AcDbEntity
  8
0-7_金物
  6
Continuous
 62
     7
370
     9
100
AcDbCircle
 10
-1763.880483211917
 20
-3136.600334249619
 30
0.0
 40
3.600000000000001
100
AcDbArc
 50
90.0
 51
180.0
  0
LINE
  5
1D1
330
1F
100
AcDbEntity
  8
0-7_金物
  6
Continuous
 62
     7
370
     9
100
AcDbLine
 10
-1763.880483211917
 20
-3133.000334249619
 30
0.0
 11
-1740.480483211898
 21
-3133.000334249619
 31
0.0
  0
ARC
  5
1D2
330
1F
100
AcDbEntity
  8
0-7_金物
  6
Continuous
 62
     7
370
     9
100
AcDbCircle
 10
-1763.880483211917
 20
-3136.600334249619
 30
0.0
 40
3.600000000000001
100
AcDbArc
 50
180.0
 51
270.0
  0
ARC
  5
1D3
330
1F
100
AcDbEntity
  8
0-7_金物
  6
Continuous
 62
     7
370
     9
100
AcDbCircle
 10
-1837.080483211905
 20
-3136.600334249619
 30
0.0
 40
3.600000000000001
100
AcDbArc
 50
270.0
 51
0.0
  0
ARC
  5
1D4
330
1F
100
AcDbEntity
  8
0-7_金物
  6
Continuous
 62
     7
370
     9
100
AcDbCircle
 10
-1837.080483211905
 20
-3136.600334249619
 30
0.0
 40
3.600000000000001
100
AcDbArc
 50
0.0000000000000127
 51
90.00000000000001
  0
LINE
  5
1D5
330
1F
100
AcDbEntity
  8
0-7_金物
  6
Continuous
 62
     7
370
     9
100
AcDbLine
 10
-1837.080483211905
 20
-3133.000334249619
 30
0.0
 11
-1860.480483211898
 21
-3133.000334249619
 31
0.0
  0
ARC
  5
1D6
330
1F
100
AcDbEntity
  8
0-7_金物
  6
Continuous
 62
     7
370
     9
100
AcDbCircle
 10
-1860.180483211918
 20
-3145.000334249622
 30
0.0
 40
1.8
100
AcDbArc
 50
153.434948822922
 51
206.565051177078
  0
LINE
  5
1D7
330
1F
100
AcDbEntity
  8
0-7_金物
  6
Continuous
 62
     7
370
     9
100
AcDbLine
 10
-1861.790452155713
 20
-3145.805318721519
 30
0.0
 11
-1860.480483211898
 21
-3148.000334249619
 31
0.0
  0
LINE
  5
1D8
330
1F
100
AcDbEntity
  8
0-7_金物
  6
Continuous
 62
     7
370
     9
100
AcDbLine
 10
-1861.790452155713
 20
-3144.195349777721
 30
0.0
 11
-1860.480483211898
 21
-3142.000334249621
 31
0.0
  0
ARC
  5
1D9
330
1F
100
AcDbEntity
  8
0-7_金物
  6
Continuous
 62
     7
370
     9
100
AcDbCircle
 10
-1860.180483211918
 20
-3154.000334249621
 30
0.0
 40
1.8
100
AcDbArc
 50
153.434948822922
 51
206.565051177078
  0
LINE
  5
1DA
330
1F
100
AcDbEntity
  8
0-7_金物
  6
Continuous
 62
     7
370
     9
100
AcDbLine
 10
-1861.790452155713
 20
-3154.805318721521
 30
0.0
 11
-1860.480483211898
 21
-3157.000334249621
 31
0.0
  0
LINE
  5
1DB
330
1F
100
AcDbEntity
  8
0-7_金物
  6
Continuous
 62
     7
370
     9
100
AcDbLine
 10
-1861.790452155713
 20
-3153.19534977772
 30
0.0
 11
-1860.480483211898
 21
-3151.00033424962
 31
0.0
  0
ARC
  5
1DC
330
1F
100
AcDbEntity
  8
0-7_金物
  6
Continuous
 62
     7
370
     9
100
AcDbCircle
 10
-1860.180483211918
 20
-3163.000334249619
 30
0.0
 40
1.8
100
AcDbArc
 50
153.434948822922
 51
206.565051177078
  0
LINE
  5
1DD
330
1F
100
AcDbEntity
  8
0-7_金物
  6
Continuous
 62
     7
370
     9
100
AcDbLine
 10
-1861.790452155713
 20
-3163.80531872152
 30
0.0
 11
-1860.480483211898
 21
-3166.00033424962
 31
0.0
  0
LINE
  5
1DE
330
1F
100
AcDbEntity
  8
0-7_金物
  6
Continuous
 62
     7
370
     9
100
AcDbLine
 10
-1861.790452155713
 20
-3162.195349777719
 30
0.0
 11
-1860.480483211898
 21
-3160.000334249622
 31
0.0
  0
LINE
  5
1DF
330
1F
100
AcDbEntity
  8
0-7_金物
  6
Continuous
 62
     7
370
     9
100
AcDbLine
 10
-1798.680483211913
 20
-3170.800334249619
 30
0.0
 11
-1767.480483211914
 21
-3170.800334249619
 31
0.0
  0
LINE
  5
1E0
330
1F
100
AcDbEntity
  8
0-7_金物
  6
Continuous
 62
     7
370
     9
100
AcDbLine
 10
-1800.480483211898
 20
-3172.600334249621
 30
0.0
 11
-1798.680483211913
 21
-3170.800334249619
 31
0.0
  0
LINE
  5
1E1
330
1F
100
AcDbEntity
  8
0-7_金物
  6
Continuous
 62
     7
370
     9
100
AcDbLine
 10
-1802.28048321191
 20
-3170.800334249619
 30
0.0
 11
-1800.480483211898
 21
-3172.600334249621
 31
0.0
  0
LINE
  5
1E2
330
1F
100
AcDbEntity
  8
0-7_金物
  6
Continuous
 62
     7
370
     9
100
AcDbLine
 10
-1833.480483211908
 20
-3170.800334249619
 30
0.0
 11
-1802.28048321191
 21
-3170.800334249619
 31
0.0
  0
LINE
  5
1E3
330
1F
100
AcDbEntity
  8
0-7_金物
  6
Continuous
 62
     7
370
     9
100
AcDbLine
 10
-1767.480483211914
 20
-3170.800334249619
 30
0.0
 11
-1767.480483211914
 21
-3167.800334249622
 31
0.0
  0
LINE
  5
1E4
330
1F
100
AcDbEntity
  8
0-7_金物
  6
Continuous
 62
     7
370
     9
100
AcDbLine
 10
-1833.480483211908
 20
-3167.800334249622
 30
0.0
 11
-1833.480483211908
 21
-3170.800334249619
 31
0.0
  0
LINE
  5
1E5
330
1F
100
AcDbEntity
  8
0-7_金物
  6
Continuous
 62
     7
370
     9
100
AcDbLine
 10
-1842.481468022399
 20
-3165.354562336353
 30
0.0
 11
-1758.481339353687
 21
-3165.354562336353
 31
0.0
  0
LINE
  5
1E6
330
1F
100
AcDbEntity
  8
0-7_金物
  6
Continuous
 62
     7
370
     9
100
AcDbLine
 10
-1824.480963245162
 20
-3153.35456233635
 30
0.0
 11
-1824.480963245162
 21
-3165.354562336353
 31
0.0
  0
LINE
  5
1E7
330
1F
100
AcDbEntity
  8
0-7_金物
  6
Continuous
 62
     7
370
     9
100
AcDbLine
 10
-1842.481468022399
 20
-3141.35456233635
 30
0.0
 11
-1842.481468022399
 21
-3165.354562336353
 31
0.0
  0
LINE
  5
1E8
330
1F
100
AcDbEntity
  8
0-7_金物
  6
Continuous
 62
     7
370
     9
100
AcDbLine
 10
-1776.481101811462
 20
-3153.35456233635
 30
0.0
 11
-1776.481101811462
 21
-3165.354562336353
 31
0.0
  0
LINE
  5
1E9
330
1F
100
AcDbEntity
  8
0-7_金物
  6
Continuous
 62
     7
370
     9
100
AcDbLine
 10
-1758.481339353687
 20
-3141.35456233635
 30
0.0
 11
-1758.481339353687
 21
-3165.354562336353
 31
0.0
  0
LINE
  5
1EA
330
1F
100
AcDbEntity
  8
0-7_金物
  6
Continuous
 62
     7
370
     9
100
AcDbLine
 10
-1824.480963245162
 20
-3153.35456233635
 30
0.0
 11
-1776.481101811462
 21
-3153.35456233635
 31
0.0
  0
LINE
  5
1EB
330
1F
100
AcDbEntity
  8
0-7_金物
  6
Continuous
 62
     7
370
     9
100
AcDbLine
 10
-1809.4809137572
 20
-3158.05233108899
 30
0.0
 11
-1791.481151299424
 21
-3158.05233108899
 31
0.0
  0
LINE
  5
1EC
330
1F
100
AcDbEntity
  8
0-7_金物
  6
Continuous
 62
     7
370
     9
100
AcDbLine
 10
-1809.4809137572
 20
-3153.35456233635
 30
0.0
 11
-1809.4809137572
 21
-3158.05233108899
 31
0.0
  0
LINE
  5
1ED
330
1F
100
AcDbEntity
  8
0-7_金物
  6
Continuous
 62
     7
370
     9
100
AcDbLine
 10
-1791.481151299424
 20
-3153.35456233635
 30
0.0
 11
-1791.481151299424
 21
-3158.05233108899
 31
0.0
  0
LINE
  5
1EE
330
1F
100
AcDbEntity
  8
0-7_金物
  6
Continuous
 62
     7
370
     9
100
AcDbLine
 10
-1842.481468022399
 20
-3141.35456233635
 30
0.0
 11
-1758.481339353687
 21
-3141.35456233635
 31
0.0
  0
LINE
  5
1EF
330
1F
100
AcDbEntity
  8
0-C_ハッチ
  6
Continuous
 62
   120
370
     5
100
AcDbLine
 10
-1646.933604685803
 20
-3226.00033424962
 30
0.0
 11
-1569.480483211903
 21
-3148.547789911209
 31
0.0
  0
LINE
  5
1F0
330
1F
100
AcDbEntity
  8
0-C_ハッチ
  6
Continuous
 62
   120
370
     5
100
AcDbLine
 10
-1943.919291253808
 20
-3226.00033424962
 30
0.0
 11
-1861.980483211903
 21
-3144.06209147968
 31
0.0
  0
LINE
  5
1F1
330
1F
100
AcDbEntity
  8
0-C_ハッチ
  6
Continuous
 62
   120
370
     5
100
AcDbLine
 10
-1738.980483211919
 20
-3147.129260696992
 30
0.0
 11
-1727.851307611329
 21
-3136.00033424962
 31
0.0
  0
LINE
  5
1F2
330
1F
100
AcDbEntity
  8
0-C_ハッチ
  6
Continuous
 62
   120
370
     5
100
AcDbLine
 10
-1859.066208054967
 20
-3226.00033424962
 30
0.0
 11
-1811.066393634658
 21
-3178.000334249619
 31
0.0
  0
LINE
  5
1F3
330
1F
100
AcDbEntity
  8
0-C_ハッチ
  6
Continuous
 62
   120
370
     5
100
AcDbLine
 10
-1816.639681186318
 20
-3226.00033424962
 30
0.0
 11
-1768.639866765982
 21
-3178.000334249619
 31
0.0
  0
LINE
  5
1F4
330
1F
100
AcDbEntity
  8
0-C_ハッチ
  6
Continuous
 62
   120
370
     5
100
AcDbLine
 10
-1901.492734923643
 20
-3226.00033424962
 30
0.0
 11
-1853.492920503334
 21
-3178.000334249619
 31
0.0
  0
LINE
  5
1F5
330
1F
100
AcDbEntity
  8
0-C_ハッチ
  6
Continuous
 62
   120
370
     5
100
AcDbLine
 10
-1604.507104612996
 20
-3226.00033424962
 30
0.0
 11
-1569.480483211903
 21
-3190.974316783555
 31
0.0
  0
LINE
  5
1F6
330
1F
100
AcDbEntity
  8
0-C_ハッチ
  6
Continuous
 62
   120
370
     5
100
AcDbLine
 10
-1689.360116804621
 20
-3226.00033424962
 30
0.0
 11
-1599.359931225001
 21
-3136.00033424962
 31
0.0
  0
LINE
  5
1F7
330
1F
100
AcDbEntity
  8
0-C_ハッチ
  6
Continuous
 62
   120
370
     5
100
AcDbLine
 10
-1731.786643673297
 20
-3226.00033424962
 30
0.0
 11
-1641.78645809365
 21
-3136.00033424962
 31
0.0
  0
LINE
  5
1F8
330
1F
100
AcDbEntity
  8
0-C_ハッチ
  6
Continuous
 62
   120
370
     5
100
AcDbLine
 10
-1774.213170541973
 20
-3226.00033424962
 30
0.0
 11
-1684.212984962326
 21
-3136.00033424962
 31
0.0
  0
LINE
  5
1F9
330
1F
100
AcDbEntity
  8
0-C_ハッチ
  6
Continuous
 62
   120
370
     5
100
AcDbLine
 10
-2031.480483211919
 20
-3186.282150062018
 30
0.0
 11
-1981.198667399515
 21
-3136.00033424962
 31
0.0
  0
LINE
  5
1FA
330
1F
100
AcDbEntity
  8
0-C_ハッチ
  6
Continuous
 62
   120
370
     5
100
AcDbLine
 10
-2028.772331753946
 20
-3226.00033424962
 30
0.0
 11
-1938.772146174326
 21
-3136.00033424962
 31
0.0
  0
LINE
  5
1FB
330
1F
100
AcDbEntity
  8
0-C_ハッチ
  6
Continuous
 62
   120
370
     5
100
AcDbLine
 10
-1986.345804885298
 20
-3226.00033424962
 30
0.0
 11
-1896.34561930565
 21
-3136.00033424962
 31
0.0
  0
LINE
  5
1FC
330
1F
100
AcDbEntity
  8
0-4_枠
  6
Continuous
 62
    92
370
    13
100
AcDbLine
 10
-1738.980483211919
 20
-3136.00033424962
 30
0.0
 11
-1738.980483211919
 21
-3178.000334249619
 31
0.0
  0
LINE
  5
1FD
330
1F
100
AcDbEntity
  8
0-4_枠
  6
Continuous
 62
    92
370
    13
100
AcDbLine
 10
-1738.980483211919
 20
-3178.000334249619
 30
0.0
 11
-1861.980483211903
 21
-3178.000334249619
 31
0.0
  0
LINE
  5
1FE
330
1F
100
AcDbEntity
  8
0-4_枠
  6
Continuous
 62
    92
370
    13
100
AcDbLine
 10
-1861.980483211903
 20
-3136.00033424962
 30
0.0
 11
-1861.980483211903
 21
-3178.000334249619
 31
0.0
  0
LINE
  5
1FF
330
1F
100
AcDbEntity
  8
0-4_枠
  6
Continuous
 62
    92
370
    13
100
AcDbLine
 10
-2031.480483211919
 20
-3226.00033424962
 30
0.0
 11
-1569.480483211903
 21
-3226.00033424962
 31
0.0
  0
CIRCLE
  5
200
330
1F
100
AcDbEntity
  8
0-4_枠
  6
Continuous
 62
    92
370
    13
100
AcDbCircle
 10
-1980.480463416718
 20
-3181.00033424962
 30
0.0
 40
10.49999984535011
  0
ARC
  5
201
330
1F
100
AcDbEntity
  8
0-4_枠
  6
Continuous
 62
    92
370
    13
100
AcDbCircle
 10
-2019.480443621544
 20
-3148.000373839992
 30
0.0
 40
12.00000015464989
100
AcDbArc
 50
90.0
 51
180.0
  0
LINE
  5
202
330
1F
100
AcDbEntity
  8
0-4_枠
  6
Continuous
 62
    92
370
    13
100
AcDbLine
 10
-2019.480443621544
 20
-3136.00033424962
 30
0.0
 11
-1861.980483211903
 21
-3136.00033424962
 31
0.0
  0
LINE
  5
203
330
1F
100
AcDbEntity
  8
0-4_枠
  6
Continuous
 62
    92
370
    13
100
AcDbLine
 10
-2031.480483211919
 20
-3148.000373839992
 30
0.0
 11
-2031.480483211919
 21
-3226.00033424962
 31
0.0
  0
CIRCLE
  5
204
330
1F
100
AcDbEntity
  8
0-4_枠
  6
Continuous
 62
    92
370
    13
100
AcDbCircle
 10
-1620.480503007104
 20
-3181.00033424962
 30
0.0
 40
10.49999984535011
  0
ARC
  5
205
330
1F
100
AcDbEntity
  8
0-4_枠
  6
Continuous
 62
    92
370
    13
100
AcDbCircle
 10
-1581.480522802278
 20
-3148.000373839992
 30
0.0
 40
12.00000015464989
100
AcDbArc
 50
0.0000000000000127
 51
90.00000000000001
  0
LINE
  5
206
330
1F
100
AcDbEntity
  8
0-4_枠
  6
Continuous
 62
    92
370
    13
100
AcDbLine
 10
-1569.480483211903
 20
-3148.000373839992
 30
0.0
 11
-1569.480483211903
 21
-3226.00033424962
 31
0.0
  0
LINE
  5
207
330
1F
100
AcDbEntity
  8
0-4_枠
  6
Continuous
 62
    92
370
    13
100
AcDbLine
 10
-1581.480522802278
 20
-3136.00033424962
 30
0.0
 11
-1738.980483211919
 21
-3136.00033424962
 31
0.0
  0
LINE
  5
208
330
1F
100
AcDbEntity
  8
0-0_補助線
  6
JWW_HOJO
 62
   120
370
     5
100
AcDbLine
 10
-1800.480483211898
 20
-3191.749440291575
 30
0.0
 11
-1800.480483211898
 21
-3176.80033424962
 31
0.0
  0
LINE
  5
209
330
1F
100
AcDbEntity
  8
0-B_寸法
  6
Continuous
 62
   120
370
     5
100
AcDbLine
 10
-1209.480483211903
 20
-3136.000465392728
 30
0.0
 11
-819.480483211903
 21
-3136.000465392728
 31
0.0
  0
LINE
  5
20A
330
1F
100
AcDbEntity
  8
0-B_寸法
  6
Continuous
 62
   120
370
     5
100
AcDbLine
 10
-1209.480483211903
 20
-3085.000334249622
 30
0.0
 11
-999.480483211903
 21
-3085.000334249622
 31
0.0
  0
LINE
  5
20B
330
1F
100
AcDbEntity
  8
0-3_仕上げ
  6
Continuous
 62
     7
370
     9
100
AcDbLine
 10
-2403.480483211902
 20
-3286.000346621613
 30
0.0
 11
-1209.480483211903
 21
-3286.000346621613
 31
0.0
  0
LINE
  5
20C
330
1F
100
AcDbEntity
  8
0-3_仕上げ
  6
Continuous
 62
     7
370
     9
100
AcDbLine
 10
-2403.480483211902
 20
-3274.000195683323
 30
0.0
 11
-1209.480483211903
 21
-3274.000195683323
 31
0.0
  0
LINE
  5
20D
330
1F
100
AcDbEntity
  8
0-3_仕上げ
  6
Continuous
 62
     7
370
     9
100
AcDbLine
 10
-2403.480483211902
 20
-3262.000230324898
 30
0.0
 11
-1209.480483211903
 21
-3262.000230324898
 31
0.0
  0
LINE
  5
20E
330
1F
100
AcDbEntity
  8
0-3_仕上げ
  6
Continuous
 62
     7
370
     9
100
AcDbLine
 10
-2403.480483211902
 20
-3250.000264966473
 30
0.0
 11
-1209.480483211903
 21
-3250.000264966473
 31
0.0
  0
LINE
  5
20F
330
1F
100
AcDbEntity
  8
0-3_仕上げ
  6
Continuous
 62
     7
370
     9
100
AcDbLine
 10
-2403.480483211902
 20
-3238.000114028178
 30
0.0
 11
-1209.480483211903
 21
-3238.000114028178
 31
0.0
  0
LINE
  5
210
330
1F
100
AcDbEntity
  8
0-3_仕上げ
  6
Continuous
 62
    40
370
    15
100
AcDbLine
 10
-2403.480483211902
 20
-3298.000311980038
 30
0.0
 11
-1209.480483211903
 21
-3298.000311980038
 31
0.0
  0
LINE
  5
211
330
1F
100
AcDbEntity
  8
0-3_仕上げ
  6
Continuous
 62
    40
370
    15
100
AcDbLine
 10
-1209.480483211903
 20
-3226.000334249622
 30
0.0
 11
-2403.480483211902
 21
-3226.000334249622
 31
0.0
  0
LWPOLYLINE
  5
212
330
1F
100
AcDbEntity
  8
0-B_寸法
  6
Continuous
 62
     7
370
     9
100
AcDbPolyline
 90
        4
 70
     1
 43
3.0
 10
-2761.980483211902
 20
-3298.000311980038
 42
0.4142135623731
 10
-2763.480483211902
 20
-3296.500311980038
 42
0.4142135623731
 10
-2764.980483211902
 20
-3298.000311980038
 42
0.4142135623731
 10
-2763.480483211902
 20
-3299.500311980038
 42
0.4142135623731
  0
LINE
  5
213
330
1F
100
AcDbEntity
  8
0-B_寸法
  6
Continuous
 62
   120
370
     5
100
AcDbLine
 10
-2763.480483211902
 20
-3298.000311980038
 30
0.0
 11
-2403.480483211902
 21
-3298.000311980038
 31
0.0
  0
LINE
  5
214
330
1F
100
AcDbEntity
  8
0-0_補助線
  6
JWW_HOJO
 62
   120
370
     5
100
AcDbLine
 10
-2763.480483211902
 20
-3297.999940973918
 30
0.0
 11
-999.480483211903
 21
-3297.999940973918
 31
0.0
  0
LWPOLYLINE
  5
215
330
1F
100
AcDbEntity
  8
0-B_寸法
  6
Continuous
 62
     7
370
     9
100
AcDbPolyline
 90
        4
 70
     1
 43
3.0
 10
-637.980483211903
 20
-3225.999963089889
 42
0.4142135623731
 10
-639.480483211903
 20
-3224.499963089889
 42
0.4142135623731
 10
-640.980483211903
 20
-3225.999963089889
 42
0.4142135623731
 10
-639.480483211903
 20
-3227.499963089889
 42
0.4142135623731
  0
LWPOLYLINE
  5
216
330
1F
100
AcDbEntity
  8
0-B_寸法
  6
Continuous
 62
     7
370
     9
100
AcDbPolyline
 90
        4
 70
     1
 43
3.0
 10
-817.980483211903
 20
-3136.000465392728
 42
0.4142135623731
 10
-819.480483211903
 20
-3134.500465392729
 42
0.4142135623731
 10
-820.980483211903
 20
-3136.000465392728
 42
0.4142135623731
 10
-819.480483211903
 20
-3137.500465392728
 42
0.4142135623731
  0
LWPOLYLINE
  5
217
330
1F
100
AcDbEntity
  8
0-B_寸法
  6
Continuous
 62
     7
370
     9
100
AcDbPolyline
 90
        4
 70
     1
 43
3.0
 10
-997.9804832119031
 20
-3085.000334249622
 42
0.4142135623731
 10
-999.480483211903
 20
-3083.500334249622
 42
0.4142135623731
 10
-1000.980483211903
 20
-3085.000334249622
 42
0.4142135623731
 10
-999.480483211903
 20
-3086.500334249622
 42
0.4142135623731
  0
LWPOLYLINE
  5
218
330
1F
100
AcDbEntity
  8
0-B_寸法
  6
Continuous
 62
     7
370
     9
100
AcDbPolyline
 90
        4
 70
     1
 43
3.0
 10
-997.9804832119031
 20
-3136.000465392728
 42
0.4142135623731
 10
-999.480483211903
 20
-3134.500465392729
 42
0.4142135623731
 10
-1000.980483211903
 20
-3136.000465392728
 42
0.4142135623731
 10
-999.480483211903
 20
-3137.500465392728
 42
0.4142135623731
  0
LINE
  5
219
330
1F
100
AcDbEntity
  8
0-B_寸法
  6
Continuous
 62
   120
370
     5
100
AcDbLine
 10
-999.480483211903
 20
-3136.000465392728
 30
0.0
 11
-999.480483211903
 21
-513.9993172719501
 31
0.0
  0
LWPOLYLINE
  5
21A
330
1F
100
AcDbEntity
  8
0-B_寸法
  6
Continuous
 62
     7
370
     9
100
AcDbPolyline
 90
        4
 70
     1
 43
3.0
 10
-817.980483211903
 20
-3225.999963089889
 42
0.4142135623731
 10
-819.480483211903
 20
-3224.499963089889
 42
0.4142135623731
 10
-820.980483211903
 20
-3225.999963089889
 42
0.4142135623731
 10
-819.480483211903
 20
-3227.499963089889
 42
0.4142135623731
  0
LWPOLYLINE
  5
21B
330
1F
100
AcDbEntity
  8
0-B_寸法
  6
Continuous
 62
     7
370
     9
100
AcDbPolyline
 90
        4
 70
     1
 43
3.0
 10
-637.980483211903
 20
-3297.999940820304
 42
0.4142135623731
 10
-639.480483211903
 20
-3296.499940820305
 42
0.4142135623731
 10
-640.980483211903
 20
-3297.999940820304
 42
0.4142135623731
 10
-639.480483211903
 20
-3299.499940820304
 42
0.4142135623731
  0
LINE
  5
21C
330
1F
100
AcDbEntity
  8
0-B_寸法
  6
Continuous
 62
   120
370
     5
100
AcDbLine
 10
-1209.480483211903
 20
-3225.999963089889
 30
0.0
 11
-639.480483211903
 21
-3225.999963089889
 31
0.0
  0
LINE
  5
21D
330
1F
100
AcDbEntity
  8
0-B_寸法
  6
Continuous
 62
   120
370
     5
100
AcDbLine
 10
-1209.480483211903
 20
-3297.999940820304
 30
0.0
 11
-639.480483211903
 21
-3297.999940820304
 31
0.0
  0
LINE
  5
21E
330
1F
100
AcDbEntity
  8
0-B_寸法
  6
Continuous
 62
   120
370
     5
100
AcDbLine
 10
-819.480483211903
 20
-3225.999963089889
 30
0.0
 11
-819.480483211903
 21
-297.9999408203032
 31
0.0
  0
LWPOLYLINE
  5
21F
330
1F
100
AcDbEntity
  8
0-B_寸法
  6
Continuous
 62
     7
370
     9
100
AcDbPolyline
 90
        4
 70
     1
 43
3.0
 10
-637.980483211903
 20
-297.9999408203032
 42
0.4142135623731
 10
-639.480483211903
 20
-296.4999408203032
 42
0.4142135623731
 10
-640.980483211903
 20
-297.9999408203032
 42
0.4142135623731
 10
-639.480483211903
 20
-299.4999408203033
 42
0.4142135623731
  0
LWPOLYLINE
  5
220
330
1F
100
AcDbEntity
  8
0-B_寸法
  6
Continuous
 62
     7
370
     9
100
AcDbPolyline
 90
        4
 70
     1
 43
3.0
 10
-997.9804832119031
 20
-513.9993172719501
 42
0.4142135623731
 10
-999.480483211903
 20
-512.4993172719501
 42
0.4142135623731
 10
-1000.980483211903
 20
-513.9993172719501
 42
0.4142135623731
 10
-999.480483211903
 20
-515.4993172719501
 42
0.4142135623731
  0
LWPOLYLINE
  5
221
330
1F
100
AcDbEntity
  8
0-B_寸法
  6
Continuous
 62
     7
370
     9
100
AcDbPolyline
 90
        4
 70
     1
 43
3.0
 10
-997.9804832119031
 20
-558.9994657358438
 42
0.4142135623731
 10
-999.480483211903
 20
-557.4994657358438
 42
0.4142135623731
 10
-1000.980483211903
 20
-558.9994657358438
 42
0.4142135623731
 10
-999.480483211903
 20
-560.4994657358438
 42
0.4142135623731
  0
LINE
  5
222
330
1F
100
AcDbEntity
  8
0-B_寸法
  6
Continuous
 62
   120
370
     5
100
AcDbLine
 10
-1209.480483211903
 20
-558.9994657358438
 30
0.0
 11
-999.480483211903
 21
-558.9994657358438
 31
0.0
  0
LINE
  5
223
330
1F
100
AcDbEntity
  8
0-B_寸法
  6
Continuous
 62
   120
370
     5
100
AcDbLine
 10
-999.480483211903
 20
-513.998946112217
 30
0.0
 11
-819.480483211903
 21
-513.998946112217
 31
0.0
  0
LWPOLYLINE
  5
224
330
1F
100
AcDbEntity
  8
0-B_寸法
  6
Continuous
 62
     7
370
     9
100
AcDbPolyline
 90
        4
 70
     1
 43
3.0
 10
-817.980483211903
 20
-513.998946112217
 42
0.4142135623731
 10
-819.480483211903
 20
-512.4989461122169
 42
0.4142135623731
 10
-820.980483211903
 20
-513.998946112217
 42
0.4142135623731
 10
-819.480483211903
 20
-515.498946112217
 42
0.4142135623731
  0
LWPOLYLINE
  5
225
330
1F
100
AcDbEntity
  8
0-B_寸法
  6
Continuous
 62
     7
370
     9
100
AcDbPolyline
 90
        4
 70
     1
 43
3.0
 10
-817.980483211903
 20
-297.9999408203032
 42
0.4142135623731
 10
-819.480483211903
 20
-296.4999408203032
 42
0.4142135623731
 10
-820.980483211903
 20
-297.9999408203032
 42
0.4142135623731
 10
-819.480483211903
 20
-299.4999408203033
 42
0.4142135623731
  0
MTEXT
  5
226
330
1F
100
AcDbEntity
  8
0-B_寸法
  6
Continuous
 62
     7
370
   211
100
AcDbMText
 10
-654.4804832119021
 20
-258.7166263799829
 30
0.0
 40
91.44000000000129
 41
60.00000000000085
 46
0.0
 71
     7
 72
     1
  1
{\fＭＳ ゴシック|b0|i0|c128|p49;8}
 11
6.123031769111886E-17
 21
1.0
 31
0.0
 73
     1
 44
1.0
  0
MTEXT
  5
227
330
1F
100
AcDbEntity
  8
0-B_寸法
  6
Continuous
 62
     7
370
   211
100
AcDbMText
 10
-1209.480483211902
 20
-304.7261060200654
 30
0.0
 40
91.43999999999805
 41
59.99999999999872
 46
0.0
 71
     7
 72
     1
  1
{\fＭＳ ゴシック|b0|i0|c128|p49;8}
 11
6.123031769111886E-17
 21
1.0
 31
0.0
 73
     1
 44
1.0
  0
MTEXT
  5
228
330
1F
100
AcDbEntity
  8
0-B_寸法
  6
Continuous
 62
     7
370
   211
100
AcDbMText
 10
-1209.480483211902
 20
-390.2795003774193
 30
0.0
 40
91.43999999999805
 41
59.99999999999872
 46
0.0
 71
     7
 72
     1
  1
{\fＭＳ ゴシック|b0|i0|c128|p49;9}
 11
6.123031769111886E-17
 21
1.0
 31
0.0
 73
     1
 44
1.0
  0
MTEXT
  5
229
330
1F
100
AcDbEntity
  8
0-B_寸法
  6
Continuous
 62
     7
370
     0
100
AcDbMText
 10
-834.4797903804024
 20
-480.2794434662609
 30
0.0
 40
91.43999999999966
 41
119.9999999999996
 46
0.0
 71
     7
 72
     1
  1
{\fＭＳ ゴシック|b0|i0|c128|p49;36}
 11
6.123031769111886E-17
 21
1.0
 31
0.0
 73
     1
 44
1.0
  0
LINE
  5
22A
330
1F
100
AcDbEntity
  8
0-B_寸法
  6
Continuous
 62
   120
370
     5
100
AcDbLine
 10
-2763.480483211902
 20
-249.8540049930966
 30
0.0
 11
-2091.480483211919
 21
-249.8540049930966
 31
0.0
  0
LWPOLYLINE
  5
22B
330
1F
100
AcDbEntity
  8
0-B_寸法
  6
Continuous
 62
     7
370
     9
100
AcDbPolyline
 90
        4
 70
     1
 43
3.0
 10
-2761.980483211902
 20
-249.8540049930966
 42
0.4142135623731
 10
-2763.480483211902
 20
-248.3540049930966
 42
0.4142135623731
 10
-2764.980483211902
 20
-249.8540049930966
 42
0.4142135623731
 10
-2763.480483211902
 20
-251.3540049930967
 42
0.4142135623731
  0
LINE
  5
22C
330
1F
100
AcDbEntity
  8
0-B_寸法
  6
Continuous
 62
   120
370
     5
100
AcDbLine
 10
-2763.480483211902
 20
-3298.000311980038
 30
0.0
 11
-2763.480483211902
 21
-249.8540049930966
 31
0.0
  0
LINE
  5
22D
330
1F
100
AcDbEntity
  8
0-B_寸法
  6
Continuous
 62
   120
370
     5
100
AcDbLine
 10
-639.480483211903
 20
-249.9999259739145
 30
0.0
 11
-1209.480483211903
 21
-249.9999259739145
 31
0.0
  0
LWPOLYLINE
  5
22E
330
1F
100
AcDbEntity
  8
0-B_寸法
  6
Continuous
 62
     7
370
     9
100
AcDbPolyline
 90
        4
 70
     1
 43
3.0
 10
-637.980483211903
 20
-249.9999259739145
 42
0.4142135623731
 10
-639.480483211903
 20
-248.4999259739145
 42
0.4142135623731
 10
-640.980483211903
 20
-249.9999259739145
 42
0.4142135623731
 10
-639.480483211903
 20
-251.4999259739146
 42
0.4142135623731
  0
LINE
  5
22F
330
1F
100
AcDbEntity
  8
0-B_寸法
  6
Continuous
 62
   120
370
     5
100
AcDbLine
 10
-639.480483211903
 20
-249.9999259739145
 30
0.0
 11
-639.480483211903
 21
-3297.999940820304
 31
0.0
  0
MTEXT
  5
230
330
1F
100
AcDbEntity
  8
0-B_寸法
  6
Continuous
 62
     7
370
   211
100
AcDbMText
 10
-1209.480483211902
 20
-498.27950037742
 30
0.0
 40
91.43999999999805
 41
59.99999999999872
 46
0.0
 71
     7
 72
     1
  1
{\fＭＳ ゴシック|b0|i0|c128|p49;9}
 11
6.123031769111886E-17
 21
1.0
 31
0.0
 73
     1
 44
1.0
  0
MTEXT
  5
231
330
1F
100
AcDbEntity
  8
0-B_寸法
  6
Continuous
 62
     7
370
   211
100
AcDbMText
 10
-1209.480483211902
 20
-665.9424220248637
 30
0.0
 40
91.43999999999966
 41
119.9999999999996
 46
0.0
 71
     7
 72
     1
  1
{\fＭＳ ゴシック|b0|i0|c128|p49;10}
 11
6.123031769111886E-17
 21
1.0
 31
0.0
 73
     1
 44
1.0
  0
MTEXT
  5
232
330
1F
100
AcDbEntity
  8
0-B_寸法
  6
Continuous
 62
     7
370
     0
100
AcDbMText
 10
-1013.908265792208
 20
-751.2356859268871
 30
0.0
 40
91.43999999999913
 41
179.9999999999983
 46
0.0
 71
     7
 72
     1
  1
{\fＭＳ ゴシック|b0|i0|c128|p49;7.5}
 11
6.123031769111886E-17
 21
1.0
 31
0.0
 73
     1
 44
1.0
  0
LINE
  5
233
330
1F
100
AcDbEntity
  8
0-A_文字
  6
Continuous
 62
   120
370
     5
100
AcDbLine
 10
-1569.480314952837
 20
-2902.50180208818
 30
0.0
 11
-1569.480314952837
 21
-3011.209511461445
 31
0.0
  0
LINE
  5
234
330
1F
100
AcDbEntity
  8
0-4_枠
  6
Continuous
 62
    92
370
    13
100
AcDbLine
 10
-2031.480483211919
 20
-513.9997428684455
 30
0.0
 11
-1884.481159486197
 21
-513.9997428684455
 31
0.0
  0
LINE
  5
235
330
1F
100
AcDbEntity
  8
0-4_枠
  6
Continuous
 62
    92
370
    13
100
AcDbLine
 10
-1884.481159486197
 20
-513.9997428684455
 30
0.0
 11
-1884.481159486197
 21
-393.9992851047737
 31
0.0
  0
LINE
  5
236
330
1F
100
AcDbEntity
  8
0-4_枠
  6
Continuous
 62
    92
370
    13
100
AcDbLine
 10
-1884.481159486197
 20
-393.9992851047737
 30
0.0
 11
-1716.480906643294
 21
-393.9992851047737
 31
0.0
  0
LINE
  5
237
330
1F
100
AcDbEntity
  8
0-4_枠
  6
Continuous
 62
    92
370
    13
100
AcDbLine
 10
-1716.480906643294
 20
-393.9992851047737
 30
0.0
 11
-1716.480906643294
 21
-513.9997428684455
 31
0.0
  0
LINE
  5
238
330
1F
100
AcDbEntity
  8
0-7_金物
  6
Continuous
 62
     7
370
     9
100
AcDbLine
 10
-1866.660295643244
 20
-500.7874931125863
 30
0.0
 11
-1866.660295643244
 21
-434.7874931125871
 31
0.0
  0
LINE
  5
239
330
1F
100
AcDbEntity
  8
0-7_金物
  6
Continuous
 62
     7
370
     9
100
AcDbLine
 10
-1866.660295643244
 20
-434.7874931125871
 30
0.0
 11
-1830.481129803095
 21
-434.7874931125871
 31
0.0
  0
LINE
  5
23A
330
1F
100
AcDbEntity
  8
0-7_金物
  6
Continuous
 62
     7
370
     9
100
AcDbLine
 10
-1830.481129803095
 20
-513.9997428684455
 30
0.0
 11
-1830.481129803095
 21
-417.9992851047753
 31
0.0
  0
LINE
  5
23B
330
1F
100
AcDbEntity
  8
0-7_金物
  6
Continuous
 62
     7
370
     9
100
AcDbLine
 10
-1830.481129803095
 20
-417.9992851047753
 30
0.0
 11
-1770.479441799555
 21
-417.9992851047753
 31
0.0
  0
LINE
  5
23C
330
1F
100
AcDbEntity
  8
0-7_金物
  6
Continuous
 62
     7
370
     9
100
AcDbLine
 10
-1770.479441799555
 20
-417.9992851047753
 30
0.0
 11
-1770.479441799555
 21
-513.9997428684455
 31
0.0
  0
LINE
  5
23D
330
1F
100
AcDbEntity
  8
0-7_金物
  6
Continuous
 62
     7
370
     9
100
AcDbLine
 10
-1734.661048092269
 20
-434.7874931125871
 30
0.0
 11
-1734.661048092269
 21
-500.7874931125863
 31
0.0
  0
LINE
  5
23E
330
1F
100
AcDbEntity
  8
0-7_金物
  6
Continuous
 62
     7
370
     9
100
AcDbLine
 10
-1770.479441799555
 20
-434.7874931125871
 30
0.0
 11
-1734.661048092269
 21
-434.7874931125871
 31
0.0
  0
LINE
  5
23F
330
1F
100
AcDbEntity
  8
0-7_金物
  6
Continuous
 62
     7
370
     9
100
AcDbLine
 10
-1716.480906643294
 20
-513.9997428684455
 30
0.0
 11
-1698.481135525146
 21
-513.9997428684455
 31
0.0
  0
LINE
  5
240
330
1F
100
AcDbEntity
  8
0-7_金物
  6
Continuous
 62
     7
370
     9
100
AcDbLine
 10
-1735.485022701644
 20
-519.9998344211801
 30
0.0
 11
-1735.485022701644
 21
-513.9997428684455
 31
0.0
  0
LINE
  5
241
330
1F
100
AcDbEntity
  8
0-7_金物
  6
Continuous
 62
     7
370
     9
100
AcDbLine
 10
-1728.481238521956
 20
-513.9997428684455
 30
0.0
 11
-1735.485022701644
 21
-513.9997428684455
 31
0.0
  0
LINE
  5
242
330
1F
100
AcDbEntity
  8
0-7_金物
  6
Continuous
 62
     7
370
     9
100
AcDbLine
 10
-1884.481159486197
 20
-513.9997428684455
 30
0.0
 11
-1902.479437508021
 21
-513.9997428684455
 31
0.0
  0
LINE
  5
243
330
1F
100
AcDbEntity
  8
0-7_金物
  6
Continuous
 62
     7
370
     9
100
AcDbLine
 10
-1864.694635548024
 20
-519.9998344211801
 30
0.0
 11
-1864.694635548024
 21
-513.9997428684455
 31
0.0
  0
LINE
  5
244
330
1F
100
AcDbEntity
  8
0-7_金物
  6
Continuous
 62
     7
370
     9
100
AcDbLine
 10
-1864.694635548024
 20
-513.9997428684455
 30
0.0
 11
-1872.481566109084
 21
-513.9997428684455
 31
0.0
  0
LINE
  5
245
330
1F
100
AcDbEntity
  8
0-7_金物
  6
Continuous
 62
     7
370
     9
100
AcDbLine
 10
-1698.481135525146
 20
-513.9997428684455
 30
0.0
 11
-1698.481135525146
 21
-519.9998344211801
 31
0.0
  0
LINE
  5
246
330
1F
100
AcDbEntity
  8
0-7_金物
  6
Continuous
 62
     7
370
     9
100
AcDbLine
 10
-1864.694635548024
 20
-519.9998344211801
 30
0.0
 11
-1902.479437508021
 21
-519.9998344211801
 31
0.0
  0
LINE
  5
247
330
1F
100
AcDbEntity
  8
0-7_金物
  6
Continuous
 62
     7
370
     9
100
AcDbLine
 10
-1902.479437508021
 20
-513.9997428684455
 30
0.0
 11
-1902.479437508021
 21
-519.9998344211801
 31
0.0
  0
LINE
  5
248
330
1F
100
AcDbEntity
  8
0-7_金物
  6
Continuous
 62
     7
370
     9
100
AcDbLine
 10
-1788.480689205555
 20
-558.9998344211808
 30
0.0
 11
-1812.481370129028
 21
-558.9998344211808
 31
0.0
  0
LINE
  5
249
330
1F
100
AcDbEntity
  8
0-7_金物
  6
Continuous
 62
     7
370
     9
100
AcDbLine
 10
-1788.480689205555
 20
-513.9997428684455
 30
0.0
 11
-1788.480689205555
 21
-558.9998344211808
 31
0.0
  0
LINE
  5
24A
330
1F
100
AcDbEntity
  8
0-7_金物
  6
Continuous
 62
     7
370
     9
100
AcDbLine
 10
-1812.481370129028
 20
-558.9998344211808
 30
0.0
 11
-1812.481370129028
 21
-513.9997428684455
 31
0.0
  0
LINE
  5
24B
330
1F
100
AcDbEntity
  8
0-7_金物
  6
Continuous
 62
     7
370
     9
100
AcDbLine
 10
-1830.481129803095
 20
-500.7874931125863
 30
0.0
 11
-1866.660295643244
 21
-500.7874931125863
 31
0.0
  0
LINE
  5
24C
330
1F
100
AcDbEntity
  8
0-7_金物
  6
Continuous
 62
     7
370
     9
100
AcDbLine
 10
-1734.661048092269
 20
-500.7874931125863
 30
0.0
 11
-1770.479441799555
 21
-500.7874931125863
 31
0.0
  0
LINE
  5
24D
330
1F
100
AcDbEntity
  8
0-7_金物
  6
Continuous
 62
     7
370
     9
100
AcDbLine
 10
-1770.479441799555
 20
-513.9997428684455
 30
0.0
 11
-1830.481129803095
 21
-513.9997428684455
 31
0.0
  0
LINE
  5
24E
330
1F
100
AcDbEntity
  8
0-7_金物
  6
Continuous
 62
     7
370
     9
100
AcDbLine
 10
-1735.485022701644
 20
-519.9998344211801
 30
0.0
 11
-1698.481135525146
 21
-519.9998344211801
 31
0.0
  0
LINE
  5
24F
330
1F
100
AcDbEntity
  8
0-4_枠
  6
Continuous
 62
    92
370
    13
100
AcDbLine
 10
-2031.480483211919
 20
-297.9999259739152
 30
0.0
 11
-1611.480483211919
 21
-297.9999259739152
 31
0.0
  0
LINE
  5
250
330
1F
100
AcDbEntity
  8
0-4_枠
  6
Continuous
 62
    92
370
    13
100
AcDbLine
 10
-1569.480483211903
 20
-513.9997428684455
 30
0.0
 11
-1716.480906643294
 21
-513.9997428684455
 31
0.0
  0
MTEXT
  5
251
330
1F
100
AcDbEntity
  8
0-B_寸法
  6
Continuous
 62
     7
370
     0
100
AcDbMText
 10
-1860.481032528325
 20
-808.762265278052
 30
0.0
 40
91.43999999999805
 41
119.9999999999974
 46
0.0
 71
     7
 72
     1
  1
{\fＭＳ ゴシック|b0|i0|c128|p49;77}
 73
     1
 44
1.0
  0
LINE
  5
252
330
1F
100
AcDbEntity
  8
0-B_寸法
  6
Continuous
 62
   120
370
     5
100
AcDbLine
 10
-1569.480483211903
 20
-809.4822652780517
 30
0.0
 11
-2031.480483211919
 21
-809.4822652780517
 31
0.0
  0
LWPOLYLINE
  5
253
330
1F
100
AcDbEntity
  8
0-B_寸法
  6
Continuous
 62
     7
370
     9
100
AcDbPolyline
 90
        4
 70
     1
 43
3.0
 10
-2029.980483211919
 20
-809.4822652780517
 42
0.4142135623731
 10
-2031.480483211919
 20
-807.9822652780517
 42
0.4142135623731
 10
-2032.980483211919
 20
-809.4822652780517
 42
0.4142135623731
 10
-2031.480483211919
 20
-810.9822652780517
 42
0.4142135623731
  0
LINE
  5
254
330
1F
100
AcDbEntity
  8
0-B_寸法
  6
Continuous
 62
   120
370
     5
100
AcDbLine
 10
-2031.480483211919
 20
-809.4822652780517
 30
0.0
 11
-2031.480483211919
 21
-655.7713178561557
 31
0.0
  0
LWPOLYLINE
  5
255
330
1F
100
AcDbEntity
  8
0-B_寸法
  6
Continuous
 62
     7
370
     9
100
AcDbPolyline
 90
        4
 70
     1
 43
3.0
 10
-1567.980483211903
 20
-809.4822652780517
 42
0.4142135623731
 10
-1569.480483211903
 20
-807.9822652780517
 42
0.4142135623731
 10
-1570.980483211903
 20
-809.4822652780517
 42
0.4142135623731
 10
-1569.480483211903
 20
-810.9822652780517
 42
0.4142135623731
  0
LINE
  5
256
330
1F
100
AcDbEntity
  8
0-B_寸法
  6
Continuous
 62
   120
370
     5
100
AcDbLine
 10
-1569.480483211903
 20
-809.4822652780517
 30
0.0
 11
-1569.480483211903
 21
-655.7713178561557
 31
0.0
  0
LINE
  5
257
330
1F
100
AcDbEntity
  8
0-7_金物
  6
Continuous
 62
     7
370
     9
100
AcDbLine
 10
-1728.481238521956
 20
-513.9997428684455
 30
0.0
 11
-1728.481238521956
 21
-405.9996513157121
 31
0.0
  0
LINE
  5
258
330
1F
100
AcDbEntity
  8
0-7_金物
  6
Continuous
 62
     7
370
     9
100
AcDbLine
 10
-1716.480906643976
 20
-513.9997428684455
 30
0.0
 11
-1716.480906643976
 21
-393.9992851057111
 31
0.0
  0
LINE
  5
259
330
1F
100
AcDbEntity
  8
0-7_金物
  6
Continuous
 62
     7
370
     9
100
AcDbLine
 10
-1872.481566109084
 20
-513.9997428684455
 30
0.0
 11
-1872.481566109084
 21
-405.9996513157121
 31
0.0
  0
LINE
  5
25A
330
1F
100
AcDbEntity
  8
0-7_金物
  6
Continuous
 62
     7
370
     9
100
AcDbLine
 10
-1884.481897987091
 20
-513.9997428684455
 30
0.0
 11
-1884.481897987091
 21
-393.9992851057111
 31
0.0
  0
LINE
  5
25B
330
1F
100
AcDbEntity
  8
0-7_金物
  6
Continuous
 62
     7
370
     9
100
AcDbLine
 10
-1728.481238521956
 20
-405.9996513157121
 30
0.0
 11
-1872.481566109084
 21
-405.9996513157121
 31
0.0
  0
LINE
  5
25C
330
1F
100
AcDbEntity
  8
0-7_金物
  6
Continuous
 62
     7
370
     9
100
AcDbLine
 10
-1716.480906643976
 20
-393.9992851057111
 30
0.0
 11
-1884.481897987091
 21
-393.9992851057111
 31
0.0
  0
LINE
  5
25D
330
1F
100
AcDbEntity
  8
0-A_文字
  6
Continuous
 62
   120
370
     5
100
AcDbLine
 10
-1569.480314952837
 20
-2902.50180208818
 30
0.0
 11
-2031.480651470986
 21
-2902.50180208818
 31
0.0
  0
LWPOLYLINE
  5
25E
330
1F
100
AcDbEntity
  8
0-A_文字
  6
Continuous
 62
     7
370
     9
100
AcDbPolyline
 90
        4
 70
     1
 43
3.0
 10
-1567.980314952837
 20
-2902.50180208818
 42
0.4142135623731
 10
-1569.480314952837
 20
-2901.00180208818
 42
0.4142135623731
 10
-1570.980314952837
 20
-2902.50180208818
 42
0.4142135623731
 10
-1569.480314952837
 20
-2904.00180208818
 42
0.4142135623731
  0
LWPOLYLINE
  5
25F
330
1F
100
AcDbEntity
  8
0-A_文字
  6
Continuous
 62
     7
370
     9
100
AcDbPolyline
 90
        4
 70
     1
 43
3.0
 10
-2029.980651470986
 20
-2902.50180208818
 42
0.4142135623731
 10
-2031.480651470986
 20
-2901.00180208818
 42
0.4142135623731
 10
-2032.980651470986
 20
-2902.50180208818
 42
0.4142135623731
 10
-2031.480651470986
 20
-2904.00180208818
 42
0.4142135623731
  0
LINE
  5
260
330
1F
100
AcDbEntity
  8
0-A_文字
  6
Continuous
 62
   120
370
     5
100
AcDbLine
 10
-2031.480651470986
 20
-2902.50180208818
 30
0.0
 11
-2031.480651470986
 21
-3011.209511461445
 31
0.0
  0
LINE
  5
261
330
1F
100
AcDbEntity
  8
0-7_金物
  6
Continuous
 62
     7
370
     9
100
AcDbLine
 10
-1809.479815124398
 20
-3085.253733650223
 30
0.0
 11
-1809.479815124398
 21
-3141.35456233635
 31
0.0
  0
LINE
  5
262
330
1F
100
AcDbEntity
  8
0-7_金物
  6
Continuous
 62
     7
370
     9
100
AcDbLine
 10
-1791.480052666623
 20
-3085.253733650223
 30
0.0
 11
-1791.480052666623
 21
-3141.35456233635
 31
0.0
  0
LINE
  5
263
330
1F
100
AcDbEntity
  8
0-7_金物
  6
Continuous
 62
     7
370
     9
100
AcDbLine
 10
-1710.480179943481
 20
-261.8543425938021
 30
0.0
 11
-1890.480042614374
 21
-261.8543425938021
 31
0.0
  0
LINE
  5
264
330
1F
100
AcDbEntity
  8
0-7_金物
  6
Continuous
 62
     7
370
     9
100
AcDbLine
 10
-1890.480042614374
 20
-249.8540049930928
 30
0.0
 11
-1890.480042614374
 21
-261.8543425938021
 31
0.0
  0
LINE
  5
265
330
1F
100
AcDbEntity
  8
0-7_金物
  6
Continuous
 62
     7
370
     9
100
AcDbLine
 10
-1710.480179943481
 20
-249.8540049930928
 30
0.0
 11
-1710.480179943481
 21
-261.8543425938021
 31
0.0
  0
LINE
  5
266
330
1F
100
AcDbEntity
  8
0-7_金物
  6
Continuous
 62
     7
370
     9
100
AcDbLine
 10
-1710.480179943481
 20
-249.8540049930928
 30
0.0
 11
-1890.480042614374
 21
-249.8540049930928
 31
0.0
  0
LINE
  5
267
330
1F
100
AcDbEntity
  8
0-7_金物
  6
Continuous
 62
     7
370
     9
100
AcDbLine
 10
-1740.480282940291
 20
-261.8543425938021
 30
0.0
 11
-1740.480282940291
 21
-273.8539363285417
 31
0.0
  0
LINE
  5
268
330
1F
100
AcDbEntity
  8
0-7_金物
  6
Continuous
 62
     7
370
     9
100
AcDbLine
 10
-1860.479939617537
 20
-261.8543425938021
 30
0.0
 11
-1860.479939617537
 21
-273.8539363285417
 31
0.0
  0
LINE
  5
269
330
1F
100
AcDbEntity
  8
0-7_金物
  6
Continuous
 62
     7
370
     9
100
AcDbLine
 10
-1740.480282940291
 20
-273.8539363285417
 30
0.0
 11
-1860.479939617537
 21
-273.8539363285417
 31
0.0
  0
LINE
  5
26A
330
1F
100
AcDbEntity
  8
0-7_金物
  6
Continuous
 62
     7
370
     9
100
AcDbLine
 10
-1746.480448879622
 20
-273.8539363285417
 30
0.0
 11
-1746.480448879622
 21
-297.9999259739195
 31
0.0
  0
LINE
  5
26B
330
1F
100
AcDbEntity
  8
0-7_金物
  6
Continuous
 62
     7
370
     9
100
AcDbLine
 10
-1854.480517544173
 20
-297.9999259739195
 30
0.0
 11
-1854.480517544173
 21
-273.8539363285417
 31
0.0
  0
LINE
  5
26C
330
1F
100
AcDbEntity
  8
0-4_枠
  6
Continuous
 62
    92
370
    13
100
AcDbLine
 10
-1611.480483211919
 20
-297.9999259739152
 30
0.0
 11
-1611.480483211919
 21
-345.9999259739129
 31
0.0
  0
LINE
  5
26D
330
1F
100
AcDbEntity
  8
0-4_枠
  6
Continuous
 62
    92
370
    13
100
AcDbLine
 10
-1569.480483211903
 20
-345.9999259739129
 30
0.0
 11
-1611.480483211919
 21
-345.9999259739129
 31
0.0
  0
LINE
  5
26E
330
1F
100
AcDbEntity
  8
0-4_枠
  6
Continuous
 62
    92
370
    13
100
AcDbLine
 10
-1569.480483211903
 20
-345.9999259739129
 30
0.0
 11
-1569.480483211903
 21
-399.9999259739145
 31
0.0
  0
LINE
  5
26F
330
1F
100
AcDbEntity
  8
0-4_枠
  6
Continuous
 62
    92
370
    13
100
AcDbLine
 10
-1569.480483211903
 20
-399.9999259739145
 30
0.0
 11
-1629.480483211903
 21
-399.9999259739145
 31
0.0
  0
LINE
  5
270
330
1F
100
AcDbEntity
  8
0-4_枠
  6
Continuous
 62
    92
370
    13
100
AcDbLine
 10
-1629.480483211903
 20
-399.9999259739145
 30
0.0
 11
-1629.480483211903
 21
-453.9999259739145
 31
0.0
  0
LINE
  5
271
330
1F
100
AcDbEntity
  8
0-4_枠
  6
Continuous
 62
    92
370
    13
100
AcDbLine
 10
-1569.480483211903
 20
-453.9999259739145
 30
0.0
 11
-1629.480483211903
 21
-453.9999259739145
 31
0.0
  0
LINE
  5
272
330
1F
100
AcDbEntity
  8
0-B_寸法
  6
Continuous
 62
   120
370
     5
100
AcDbLine
 10
-1209.480483211903
 20
-297.9995003774202
 30
0.0
 11
-1209.480483211903
 21
-513.9993172719501
 31
0.0
  0
LWPOLYLINE
  5
273
330
1F
100
AcDbEntity
  8
0-B_寸法
  6
Continuous
 62
     7
370
     9
100
AcDbPolyline
 90
        4
 70
     1
 43
3.0
 10
-1207.980483211903
 20
-297.9995003774202
 42
0.4142135623731
 10
-1209.480483211903
 20
-296.4995003774202
 42
0.4142135623731
 10
-1210.980483211903
 20
-297.9995003774202
 42
0.4142135623731
 10
-1209.480483211903
 20
-299.4995003774202
 42
0.4142135623731
  0
LWPOLYLINE
  5
274
330
1F
100
AcDbEntity
  8
0-B_寸法
  6
Continuous
 62
     7
370
     9
100
AcDbPolyline
 90
        4
 70
     1
 43
3.0
 10
-1207.980483211903
 20
-399.9995003774195
 42
0.4142135623731
 10
-1209.480483211903
 20
-398.4995003774195
 42
0.4142135623731
 10
-1210.980483211903
 20
-399.9995003774195
 42
0.4142135623731
 10
-1209.480483211903
 20
-401.4995003774196
 42
0.4142135623731
  0
LWPOLYLINE
  5
275
330
1F
100
AcDbEntity
  8
0-B_寸法
  6
Continuous
 62
     7
370
     9
100
AcDbPolyline
 90
        4
 70
     1
 43
3.0
 10
-1207.980483211903
 20
-453.9995003774195
 42
0.4142135623731
 10
-1209.480483211903
 20
-452.4995003774195
 42
0.4142135623731
 10
-1210.980483211903
 20
-453.9995003774195
 42
0.4142135623731
 10
-1209.480483211903
 20
-455.4995003774195
 42
0.4142135623731
  0
LWPOLYLINE
  5
276
330
1F
100
AcDbEntity
  8
0-B_寸法
  6
Continuous
 62
     7
370
     9
100
AcDbPolyline
 90
        4
 70
     1
 43
3.0
 10
-1207.980483211903
 20
-513.9993172719501
 42
0.4142135623731
 10
-1209.480483211903
 20
-512.4993172719501
 42
0.4142135623731
 10
-1210.980483211903
 20
-513.9993172719501
 42
0.4142135623731
 10
-1209.480483211903
 20
-515.4993172719501
 42
0.4142135623731
  0
LWPOLYLINE
  5
277
330
1F
100
AcDbEntity
  8
0-B_寸法
  6
Continuous
 62
     7
370
     9
100
AcDbPolyline
 90
        4
 70
     1
 43
3.0
 10
-1207.980483211903
 20
-345.9995003774179
 42
0.4142135623731
 10
-1209.480483211903
 20
-344.4995003774179
 42
0.4142135623731
 10
-1210.980483211903
 20
-345.9995003774179
 42
0.4142135623731
 10
-1209.480483211903
 20
-347.4995003774179
 42
0.4142135623731
  0
LINE
  5
278
330
1F
100
AcDbEntity
  8
0-B_寸法
  6
Continuous
 62
   120
370
     5
100
AcDbLine
 10
-1320.974783803733
 20
-453.9995003774195
 30
0.0
 11
-1341.48052898827
 21
-453.9995003774195
 31
0.0
  0
LINE
  5
279
330
1F
100
AcDbEntity
  8
0-B_寸法
  6
Continuous
 62
   120
370
     5
100
AcDbLine
 10
-1209.480483211903
 20
-453.9995003774195
 30
0.0
 11
-1222.01277333392
 21
-453.9995003774195
 31
0.0
  0
LINE
  5
27A
330
1F
100
AcDbEntity
  8
0-B_寸法
  6
Continuous
 62
   120
370
     5
100
AcDbLine
 10
-1209.480483211903
 20
-399.9995003774195
 30
0.0
 11
-1341.48052898827
 21
-399.9995003774195
 31
0.0
  0
LINE
  5
27B
330
1F
100
AcDbEntity
  8
0-B_寸法
  6
Continuous
 62
   120
370
     5
100
AcDbLine
 10
-1320.974783803733
 20
-345.9995003774179
 30
0.0
 11
-1341.48052898827
 21
-345.9995003774179
 31
0.0
  0
LINE
  5
27C
330
1F
100
AcDbEntity
  8
0-B_寸法
  6
Continuous
 62
   120
370
     5
100
AcDbLine
 10
-1209.480483211903
 20
-345.9995003774179
 30
0.0
 11
-1222.01277333392
 21
-345.9995003774179
 31
0.0
  0
LINE
  5
27D
330
1F
100
AcDbEntity
  8
0-B_寸法
  6
Continuous
 62
   120
370
     5
100
AcDbLine
 10
-1341.48052898827
 20
-513.9993172719501
 30
0.0
 11
-999.480483211903
 21
-513.9993172719501
 31
0.0
  0
LINE
  5
27E
330
1F
100
AcDbEntity
  8
0-B_寸法
  6
Continuous
 62
   120
370
     5
100
AcDbLine
 10
-1341.48052898827
 20
-297.9999408203032
 30
0.0
 11
-639.480483211903
 21
-297.9999408203032
 31
0.0
  0
LINE
  5
27F
330
1F
100
AcDbEntity
  8
0-C_ハッチ
  6
Continuous
 62
   120
370
     5
100
AcDbLine
 10
-1572.580677006392
 20
-513.9997428684524
 30
0.0
 11
-1569.480483211903
 21
-510.8995490739694
 31
0.0
  0
LINE
  5
280
330
1F
100
AcDbEntity
  8
0-C_ハッチ
  6
Continuous
 62
   120
370
     5
100
AcDbLine
 10
-1631.977646626012
 20
-513.9997428684349
 30
0.0
 11
-1571.977829731497
 21
-453.9999259739063
 31
0.0
  0
LINE
  5
281
330
1F
100
AcDbEntity
  8
0-C_ハッチ
  6
Continuous
 62
   120
370
     5
100
AcDbLine
 10
-1691.374616245741
 20
-513.9997428684519
 30
0.0
 11
-1629.480483211903
 21
-452.1056098346344
 31
0.0
  0
LINE
  5
282
330
1F
100
AcDbEntity
  8
0-C_ハッチ
  6
Continuous
 62
   120
370
     5
100
AcDbLine
 10
-1577.374799351194
 20
-399.9999259739145
 30
0.0
 11
-1569.480483211903
 21
-392.1056098346271
 31
0.0
  0
LINE
  5
283
330
1F
100
AcDbEntity
  8
0-C_ハッチ
  6
Continuous
 62
   120
370
     5
100
AcDbLine
 10
-1716.480906643294
 20
-479.7090636463756
 30
0.0
 11
-1582.771768970836
 21
-345.9999259739159
 31
0.0
  0
LINE
  5
284
330
1F
100
AcDbEntity
  8
0-C_ハッチ
  6
Continuous
 62
   120
370
     5
100
AcDbLine
 10
-1716.480906643294
 20
-420.3120940266758
 30
0.0
 11
-1611.480483211919
 21
-315.3116705952773
 31
0.0
  0
LINE
  5
285
330
1F
100
AcDbEntity
  8
0-C_ハッチ
  6
Continuous
 62
   120
370
     5
100
AcDbLine
 10
-1749.565067341066
 20
-393.9992851047834
 30
0.0
 11
-1653.565708210201
 21
-297.999925973922
 31
0.0
  0
LINE
  5
286
330
1F
100
AcDbEntity
  8
0-C_ハッチ
  6
Continuous
 62
   120
370
     5
100
AcDbLine
 10
-1928.962494724358
 20
-513.999742868443
 30
0.0
 11
-1884.481897987091
 21
-469.5191461311762
 31
0.0
  0
LINE
  5
287
330
1F
100
AcDbEntity
  8
0-C_ハッチ
  6
Continuous
 62
   120
370
     5
100
AcDbLine
 10
-1808.962036960686
 20
-393.9992851047668
 30
0.0
 11
-1712.962677829848
 21
-297.9999259739195
 31
0.0
  0
LINE
  5
288
330
1F
100
AcDbEntity
  8
0-C_ハッチ
  6
Continuous
 62
   120
370
     5
100
AcDbLine
 10
-1988.359464344087
 20
-513.9997428684499
 30
0.0
 11
-1884.481897987091
 21
-410.1221765114607
 31
0.0
  0
LINE
  5
289
330
1F
100
AcDbEntity
  8
0-C_ハッチ
  6
Continuous
 62
   120
370
     5
100
AcDbLine
 10
-1868.359006580415
 20
-393.9992851047834
 30
0.0
 11
-1772.35964744955
 21
-297.9999259739127
 31
0.0
  0
LINE
  5
28A
330
1F
100
AcDbEntity
  8
0-C_ハッチ
  6
Continuous
 62
   120
370
     5
100
AcDbLine
 10
-2031.480483211919
 20
-497.7237921166375
 30
0.0
 11
-1831.756617069198
 21
-297.9999259739157
 31
0.0
  0
LINE
  5
28B
330
1F
100
AcDbEntity
  8
0-C_ハッチ
  6
Continuous
 62
   120
370
     5
100
AcDbLine
 10
-2031.480483211892
 20
-438.3268224969249
 30
0.0
 11
-1891.153586688899
 21
-297.9999259739157
 31
0.0
  0
LINE
  5
28C
330
1F
100
AcDbEntity
  8
0-C_ハッチ
  6
Continuous
 62
   120
370
     5
100
AcDbLine
 10
-2031.480483211919
 20
-378.9298528772913
 30
0.0
 11
-1950.550556308547
 21
-297.9999259739118
 31
0.0
  0
LINE
  5
28D
330
1F
100
AcDbEntity
  8
0-C_ハッチ
  6
Continuous
 62
   120
370
     5
100
AcDbLine
 10
-2031.480483211919
 20
-319.532883257586
 30
0.0
 11
-2009.947525928249
 21
-297.9999259739127
 31
0.0
  0
LINE
  5
28E
330
1F
100
AcDbEntity
  8
0-0_補助線
  6
JWW_HOJO
 62
   120
370
     5
100
AcDbLine
 10
-2030.16625123428
 20
-1798.000044745029
 30
0.0
 11
-1570.794715189516
 21
-1798.000044745029
 31
0.0
  0
LINE
  5
28F
330
1F
100
AcDbEntity
  8
0-0_補助線
  6
JWW_HOJO
 62
   120
370
     5
100
AcDbLine
 10
-2030.16625123428
 20
-1918.00004474503
 30
0.0
 11
-1570.794715189516
 21
-1918.00004474503
 31
0.0
  0
MTEXT
  5
290
330
1F
100
AcDbEntity
  8
0-B_寸法
  6
Continuous
 62
     7
370
     0
100
AcDbMText
 10
-1013.946978459309
 20
-3119.70198401845
 30
0.0
 40
91.4400000000013
 41
180.0000000000026
 46
0.0
 71
     7
 72
     1
  1
{\fＭＳ ゴシック|b0|i0|c128|p49;8.5}
 11
6.123031769111886E-17
 21
1.0
 31
0.0
 73
     1
 44
1.0
  0
MTEXT
  5
291
330
1F
100
AcDbEntity
  8
0-B_寸法
  6
Continuous
 62
     7
370
   211
100
AcDbMText
 10
-834.4804832119021
 20
-3257.369654497372
 30
0.0
 40
91.44000000000129
 41
120.0000000000017
 46
0.0
 71
     7
 72
     1
  1
{\fＭＳ ゴシック|b0|i0|c128|p49;15}
 11
6.123031769111886E-17
 21
1.0
 31
0.0
 73
     1
 44
1.0
  0
MTEXT
  5
292
330
1F
100
AcDbEntity
  8
0-B_寸法
  6
Continuous
 62
     7
370
   211
100
AcDbMText
 10
-645.5048341560373
 20
-3424.711428162981
 30
0.0
 40
91.43999999999805
 41
119.9999999999974
 46
0.0
 71
     7
 72
     1
  1
{\fＭＳ ゴシック|b0|i0|c128|p49;12}
 11
6.123031769111886E-17
 21
1.0
 31
0.0
 73
     1
 44
1.0
  0
MTEXT
  5
293
330
1F
100
AcDbEntity
  8
0-B_寸法
  6
Continuous
 62
     7
370
   211
100
AcDbMText
 10
-2778.480483211901
 20
-2178.207158486568
 30
0.0
 40
91.43999999999981
 41
779.9999999999983
 46
0.0
 71
     7
 72
     1
  1
{\fＭＳ ゴシック|b0|i0|c128|p49;ＲＯＨ＝2,371}
 11
6.123031769111886E-17
 21
1.0
 31
0.0
 73
     1
 44
1.0
  0
MTEXT
  5
294
330
1F
100
AcDbEntity
  8
0-B_寸法
  6
Continuous
 62
     7
370
     0
100
AcDbMText
 10
-1014.479790380402
 20
-2166.279899992734
 30
0.0
 40
91.44000000000014
 41
660.0000000000009
 46
0.0
 71
     7
 72
     1
  1
{\fＭＳ ゴシック|b0|i0|c128|p49;ＤＨ＝2,284}
 11
6.123031769111886E-17
 21
1.0
 31
0.0
 73
     1
 44
1.0
  0
MTEXT
  5
295
330
1F
100
AcDbEntity
  8
0-B_寸法
  6
Continuous
 62
     7
370
     0
100
AcDbMText
 10
-834.4797903804024
 20
-2166.279899992734
 30
0.0
 40
91.44000000000014
 41
660.0000000000009
 46
0.0
 71
     7
 72
     1
  1
{\fＭＳ ゴシック|b0|i0|c128|p49;枠内＝2,300}
 11
6.123031769111886E-17
 21
1.0
 31
0.0
 73
     1
 44
1.0
  0
MTEXT
  5
296
330
1F
100
AcDbEntity
  8
0-B_寸法
  6
Continuous
 62
     7
370
     0
100
AcDbMText
 10
-654.4812750193264
 20
-2166.279899992734
 30
0.0
 40
91.44000000000014
 41
660.0000000000009
 46
0.0
 71
     7
 72
     1
  1
{\fＭＳ ゴシック|b0|i0|c128|p49;枠外＝2,351}
 11
6.123031769111886E-17
 21
1.0
 31
0.0
 73
     1
 44
1.0
  0
MTEXT
  5
297
330
1F
100
AcDbEntity
  8
0-A_文字
  6
Continuous
 62
     7
370
   211
100
AcDbMText
 10
-1920.480483211898
 20
-1324.495429699258
 30
0.0
 40
91.43999999999966
 41
239.9999999999991
 46
0.0
 71
     7
 72
     1
  1
{\fＭＳ ゴシック|b0|i0|c128|p49;(24)}
 73
     1
 44
1.0
  0
MTEXT
  5
298
330
1F
100
AcDbEntity
  8
0-A_文字
  6
Continuous
 62
     7
370
     0
100
AcDbMText
 10
-1798.85239803474
 20
-3666.907296002226
 30
0.0
 40
68.58000000000003
 41
1350.0
 46
0.0
 71
     7
 72
     1
  1
{\fＭＳ ゴシック|b0|i0|c128|p49;※扉厚（　）内はルーバーの場合}
 73
     1
 44
1.0
  0
LINE
  5
299
330
1F
100
AcDbEntity
  8
0-A_文字
  6
JWW_HOJO
 62
   120
370
     5
100
AcDbLine
 10
-1798.85239803474
 20
-3656.197296002227
 30
0.0
 11
610.6714114890717
 21
-3656.197296002227
 31
0.0
  0
LINE
  5
29A
330
1F
100
AcDbEntity
  8
0-3_仕上げ
  6
Continuous
 62
    40
370
    15
100
AcDbLine
 10
-1536.480483211919
 20
-345.9999259739129
 30
0.0
 11
-1611.480483211919
 21
-345.9999259739129
 31
0.0
  0
LINE
  5
29B
330
1F
100
AcDbEntity
  8
0-3_仕上げ
  6
Continuous
 62
   120
370
     5
100
AcDbLine
 10
-1611.480483211919
 20
-117.8540049930905
 30
0.0
 11
-1611.480483211919
 21
-297.8540049930905
 31
0.0
  0
LINE
  5
29C
330
1F
100
AcDbEntity
  8
0-C_ハッチ
  6
JWW_DASHED1
 62
   120
370
     5
100
AcDbLine
 10
-1562.409435464926
 20
-345.9999259739138
 30
0.0
 11
-1536.480483211919
 21
-320.0709737209093
 31
0.0
  0
LINE
  5
29D
330
1F
100
AcDbEntity
  8
0-C_ハッチ
  6
JWW_DASHED1
 62
   120
370
     5
100
AcDbLine
 10
-1604.835842336126
 20
-345.9999259739129
 30
0.0
 11
-1536.480483211919
 21
-277.6445668497126
 31
0.0
  0
LINE
  5
29E
330
1F
100
AcDbEntity
  8
0-C_ハッチ
  6
JWW_DASHED1
 62
   120
370
     5
100
AcDbLine
 10
-1611.480483211919
 20
-310.2181599785126
 30
0.0
 11
-1536.480483211919
 21
-235.218159978516
 31
0.0
  0
LINE
  5
29F
330
1F
100
AcDbEntity
  8
0-C_ハッチ
  6
JWW_DASHED1
 62
   120
370
     5
100
AcDbLine
 10
-1611.480483211919
 20
-267.791753107316
 30
0.0
 11
-1536.480483211919
 21
-192.7917531073041
 31
0.0
  0
LINE
  5
2A0
330
1F
100
AcDbEntity
  8
0-C_ハッチ
  6
JWW_DASHED1
 62
   120
370
     5
100
AcDbLine
 10
-1611.480483211919
 20
-225.3653462361177
 30
0.0
 11
-1536.480483211919
 21
-150.3653462361066
 31
0.0
  0
LINE
  5
2A1
330
1F
100
AcDbEntity
  8
0-C_ハッチ
  6
JWW_DASHED1
 62
   120
370
     5
100
AcDbLine
 10
-1611.480483211892
 20
-182.9389393649535
 30
0.0
 11
-1536.480483211919
 21
-107.9389393649586
 31
0.0
  0
LINE
  5
2A2
330
1F
100
AcDbEntity
  8
0-C_ハッチ
  6
JWW_DASHED1
 62
   120
370
     5
100
AcDbLine
 10
-1611.480483211919
 20
-140.5125324937586
 30
0.0
 11
-1536.480483211919
 21
-65.51253249376373
 31
0.0
  0
LINE
  5
2A3
330
1F
100
AcDbEntity
  8
0-3_仕上げ
  6
Continuous
 62
   120
370
     5
100
AcDbLine
 10
-2031.480483211919
 20
-69.85400499309279
 30
0.0
 11
-1611.480483211919
 21
-69.85400499309279
 31
0.0
  0
LINE
  5
2A4
330
1F
100
AcDbEntity
  8
0-3_仕上げ
  6
Continuous
 62
   120
370
     5
100
AcDbLine
 10
-2031.480483211919
 20
-249.8540049930928
 30
0.0
 11
-2031.480483211919
 21
-69.85400499309279
 31
0.0
  0
LINE
  5
2A5
330
1F
100
AcDbEntity
  8
0-3_仕上げ
  6
Continuous
 62
   120
370
     5
100
AcDbLine
 10
-1611.480483211919
 20
-249.8540049930928
 30
0.0
 11
-2031.480483211919
 21
-249.8540049930928
 31
0.0
  0
LINE
  5
2A6
330
1F
100
AcDbEntity
  8
0-3_仕上げ
  6
Continuous
 62
   120
370
     5
100
AcDbLine
 10
-2031.480483211919
 20
-249.8540049930928
 30
0.0
 11
-1611.480483211919
 21
-69.85400499309279
 31
0.0
  0
LINE
  5
2A7
330
1F
100
AcDbEntity
  8
0-3_仕上げ
  6
Continuous
 62
    40
370
    15
100
AcDbLine
 10
-1536.480483211919
 20
-345.9999259739129
 30
0.0
 11
-1536.480483211919
 21
1.999703072473693
 31
0.0
  0
LINE
  5
2A8
330
1F
100
AcDbEntity
  8
0-3_仕上げ
  6
Continuous
 62
    40
370
    15
100
AcDbLine
 10
-1611.480483211919
 20
-345.9999259739129
 30
0.0
 11
-1611.480483211919
 21
1.999703072473693
 31
0.0
  0
LINE
  5
2A9
330
1F
100
AcDbEntity
  8
0-C_ハッチ
  6
JWW_DASHED1
 62
   120
370
     5
100
AcDbLine
 10
-1611.480483211919
 20
-55.65971875135858
 30
0.0
 11
-1553.821061388076
 21
1.999703072473693
 31
0.0
  0
LINE
  5
2AA
330
1F
100
AcDbEntity
  8
0-C_ハッチ
  6
JWW_DASHED1
 62
   120
370
     5
100
AcDbLine
 10
-1611.480483211892
 20
-98.08612562255433
 30
0.0
 11
-1536.480483211919
 21
-23.08612562255092
 31
0.0
  0
LINE
  5
2AB
330
1F
100
AcDbEntity
  8
0-E
  6
Continuous
 62
    92
370
    13
100
AcDbLine
 10
2180.23966476751
 20
-3097.09737080282
 30
0.0
 11
2180.23966476751
 21
2.000074026084775
 31
0.0
  0
LINE
  5
2AC
330
1F
100
AcDbEntity
  8
0-E
  6
Continuous
 62
    92
370
    13
100
AcDbLine
 10
194.5703030969304
 20
2.000074026084775
 30
0.0
 11
194.5703030969304
 21
-3097.09737080282
 31
0.0
  0
LWPOLYLINE
  5
2AD
330
1F
100
AcDbEntity
  8
0-E
  6
Continuous
 62
     7
370
     9
100
AcDbPolyline
 90
        4
 70
     1
 43
3.0
 10
779.7204283016704
 20
-969.4181252840347
 42
0.4142135623731
 10
778.2204283016704
 20
-967.9181252840347
 42
0.4142135623731
 10
776.7204283016704
 20
-969.4181252840347
 42
0.4142135623731
 10
778.2204283016704
 20
-970.9181252840345
 42
0.4142135623731
  0
LINE
  5
2AE
330
1F
100
AcDbEntity
  8
0-E
  6
Continuous
 62
   120
370
     5
100
AcDbLine
 10
778.2204283016704
 20
-969.4181252840347
 30
0.0
 11
778.2204283016704
 21
-1112.960175084035
 31
0.0
  0
LINE
  5
2AF
330
1F
100
AcDbEntity
  8
0-E
  6
Continuous
 62
    92
370
    13
100
AcDbLine
 10
778.2204283016704
 20
-1162.960175084034
 30
0.0
 11
778.2204283016704
 21
-2038.251380632862
 31
0.0
  0
MTEXT
  5
2B0
330
1F
100
AcDbEntity
  8
0-E
  6
Continuous
 62
     7
370
     0
100
AcDbMText
 10
467.4049839322203
 20
-184.0415489361722
 30
0.0
 40
91.43999999999993
 41
1439.999999999999
 46
0.0
 71
     7
 72
     1
  1
{\fＭＳ ゴシック|b0|i0|c128|p49;竪枠下端形状図（S＝1/3）}
 73
     1
 44
1.0
  0
LINE
  5
2B1
330
1F
100
AcDbEntity
  8
0-E
  6
Continuous
 62
    92
370
    13
100
AcDbLine
 10
4165.90902643809
 20
-3097.09737080282
 30
0.0
 11
4165.90902643809
 21
2.000074026084775
 31
0.0
  0
LINE
  5
2B2
330
1F
100
AcDbEntity
  8
0-E
  6
Continuous
 62
    92
370
    13
100
AcDbLine
 10
4165.90902643809
 20
-3097.09737080282
 30
0.0
 11
194.5703030969304
 21
-3097.09737080282
 31
0.0
  0
LINE
  5
2B3
330
1F
100
AcDbEntity
  8
0-E
  6
Continuous
 62
    92
370
    13
100
AcDbLine
 10
194.5703030969304
 20
-213.9999259739166
 30
0.0
 11
4165.90902643809
 21
-213.9999259739166
 31
0.0
  0
LINE
  5
2B4
330
1F
100
AcDbEntity
  8
0-E
  6
Continuous
 62
    92
370
    13
100
AcDbLine
 10
194.5703030969304
 20
2.000074026084775
 30
0.0
 11
4165.90902643809
 21
2.000074026084775
 31
0.0
  0
MTEXT
  5
2B5
330
1F
100
AcDbEntity
  8
0-E
  6
Continuous
 62
     7
370
     0
100
AcDbMText
 10
2576.353954324322
 20
-184.0415489361721
 30
0.0
 40
91.44000000000003
 41
1200.0
 46
0.0
 71
     7
 72
     1
  1
{\fＭＳ ゴシック|b0|i0|c128|p49;下枠詳細図（S＝1/2）}
 73
     1
 44
1.0
  0
INSERT
  5
2B6
330
1F
100
AcDbEntity
  8
0-E
  6
Continuous
 62
     7
370
     9
100
AcDbBlockReference
  2
01@@SfigorgFlag@@4
 10
3281.251735806623
 20
-2351.482948199475
 30
0.0
 41
30.0
 42
30.0
  0
LWPOLYLINE
  5
2B7
330
1F
100
AcDbEntity
  8
0-E
  6
Continuous
 62
     7
370
     9
100
AcDbPolyline
 90
        4
 70
     1
 43
3.0
 10
3042.751735806626
 20
-2304.713717430243
 42
0.4142135623731
 10
3041.251735806626
 20
-2303.213717430243
 42
0.4142135623731
 10
3039.751735806626
 20
-2304.713717430243
 42
0.4142135623731
 10
3041.251735806626
 20
-2306.213717430243
 42
0.4142135623731
  0
LWPOLYLINE
  5
2B8
330
1F
100
AcDbEntity
  8
0-E
  6
Continuous
 62
     7
370
     9
100
AcDbPolyline
 90
        4
 70
     1
 43
3.0
 10
3522.75173580662
 20
-2304.713717430243
 42
0.4142135623731
 10
3521.25173580662
 20
-2303.213717430243
 42
0.4142135623731
 10
3519.751735806621
 20
-2304.713717430243
 42
0.4142135623731
 10
3521.25173580662
 20
-2306.213717430243
 42
0.4142135623731
  0
LWPOLYLINE
  5
2B9
330
1F
100
AcDbEntity
  8
0-E
  6
Continuous
 62
     7
370
     9
100
AcDbPolyline
 90
        4
 70
     1
 43
3.0
 10
3200.251735806617
 20
-2300.213717430243
 42
0.4142135623731
 10
3198.751735806617
 20
-2298.713717430244
 42
0.4142135623731
 10
3197.251735806617
 20
-2300.213717430243
 42
0.4142135623731
 10
3198.751735806617
 20
-2301.713717430243
 42
0.4142135623731
  0
LWPOLYLINE
  5
2BA
330
1F
100
AcDbEntity
  8
0-E
  6
Continuous
 62
     7
370
     9
100
AcDbPolyline
 90
        4
 70
     1
 43
3.0
 10
3365.25173580663
 20
-2300.213717430243
 42
0.4142135623731
 10
3363.75173580663
 20
-2298.713717430244
 42
0.4142135623731
 10
3362.25173580663
 20
-2300.213717430243
 42
0.4142135623731
 10
3363.75173580663
 20
-2301.713717430243
 42
0.4142135623731
  0
LINE
  5
2BB
330
1F
100
AcDbEntity
  8
0-E
  6
Continuous
 62
   120
370
     5
100
AcDbLine
 10
3198.751735806617
 20
-2151.033601497496
 30
0.0
 11
3363.75173580663
 21
-2151.033601497496
 31
0.0
  0
LWPOLYLINE
  5
2BC
330
1F
100
AcDbEntity
  8
0-E
  6
Continuous
 62
     7
370
     9
100
AcDbPolyline
 90
        4
 70
     1
 43
3.0
 10
3200.251735806617
 20
-2151.033601497496
 42
0.4142135623731
 10
3198.751735806617
 20
-2149.533601497496
 42
0.4142135623731
 10
3197.251735806617
 20
-2151.033601497496
 42
0.4142135623731
 10
3198.751735806617
 20
-2152.533601497495
 42
0.4142135623731
  0
LWPOLYLINE
  5
2BD
330
1F
100
AcDbEntity
  8
0-E
  6
Continuous
 62
     7
370
     9
100
AcDbPolyline
 90
        4
 70
     1
 43
3.0
 10
3365.25173580663
 20
-2151.033601497496
 42
0.4142135623731
 10
3363.75173580663
 20
-2149.533601497496
 42
0.4142135623731
 10
3362.25173580663
 20
-2151.033601497496
 42
0.4142135623731
 10
3363.75173580663
 20
-2152.533601497495
 42
0.4142135623731
  0
LINE
  5
2BE
330
1F
100
AcDbEntity
  8
0-E
  6
Continuous
 62
   120
370
     5
100
AcDbLine
 10
3198.751735806617
 20
-2151.033601497496
 30
0.0
 11
3198.751735806617
 21
-2236.897910415442
 31
0.0
  0
LINE
  5
2BF
330
1F
100
AcDbEntity
  8
0-E
  6
Continuous
 62
   120
370
     5
100
AcDbLine
 10
3363.75173580663
 20
-2151.033601497496
 30
0.0
 11
3363.75173580663
 21
-2236.897910415442
 31
0.0
  0
MTEXT
  5
2C0
330
1F
100
AcDbEntity
  8
0-E
  6
Continuous
 62
     7
370
   211
100
AcDbMText
 10
3236.251735806622
 20
-794.29297811991
 30
0.0
 40
68.58000000000033
 41
90.00000000000043
 46
0.0
 71
     7
 72
     1
  1
{\fＭＳ ゴシック|b0|i0|c128|p49;77}
 73
     1
 44
1.0
  0
LINE
  5
2C1
330
1F
100
AcDbEntity
  8
0-E
  6
Continuous
 62
   120
370
     5
100
AcDbLine
 10
3041.251735806626
 20
-1991.571313507023
 30
0.0
 11
3521.25173580662
 21
-1991.571313507023
 31
0.0
  0
LWPOLYLINE
  5
2C2
330
1F
100
AcDbEntity
  8
0-E
  6
Continuous
 62
     7
370
     9
100
AcDbPolyline
 90
        4
 70
     1
 43
3.0
 10
3042.751735806626
 20
-1991.571313507023
 42
0.4142135623731
 10
3041.251735806626
 20
-1990.071313507023
 42
0.4142135623731
 10
3039.751735806626
 20
-1991.571313507023
 42
0.4142135623731
 10
3041.251735806626
 20
-1993.071313507023
 42
0.4142135623731
  0
LWPOLYLINE
  5
2C3
330
1F
100
AcDbEntity
  8
0-E
  6
Continuous
 62
     7
370
     9
100
AcDbPolyline
 90
        4
 70
     1
 43
3.0
 10
3522.75173580662
 20
-1991.571313507023
 42
0.4142135623731
 10
3521.25173580662
 20
-1990.071313507023
 42
0.4142135623731
 10
3519.751735806621
 20
-1991.571313507023
 42
0.4142135623731
 10
3521.25173580662
 20
-1993.071313507023
 42
0.4142135623731
  0
LINE
  5
2C4
330
1F
100
AcDbEntity
  8
0-E
  6
Continuous
 62
   120
370
     5
100
AcDbLine
 10
3041.251735806626
 20
-1991.571313507023
 30
0.0
 11
3041.251735806626
 21
-2236.897910415442
 31
0.0
  0
LINE
  5
2C5
330
1F
100
AcDbEntity
  8
0-E
  6
Continuous
 62
   120
370
     5
100
AcDbLine
 10
3521.25173580662
 20
-1991.571313507023
 30
0.0
 11
3521.25173580662
 21
-2236.897910415442
 31
0.0
  0
MTEXT
  5
2C6
330
1F
100
AcDbEntity
  8
0-E
  6
Continuous
 62
     7
370
   211
100
AcDbMText
 10
1112.604429484226
 20
-968.6981252840346
 30
0.0
 40
91.43999999999967
 41
119.9999999999996
 46
0.0
 71
     7
 72
     1
  1
{\fＭＳ ゴシック|b0|i0|c128|p49;77}
 73
     1
 44
1.0
  0
LWPOLYLINE
  5
2C7
330
1F
100
AcDbEntity
  8
0-E
  6
Continuous
 62
     7
370
     9
100
AcDbPolyline
 90
        4
 70
     1
 43
3.0
 10
2824.900010067697
 20
-2291.213717430245
 42
0.4142135623731
 10
2823.400010067698
 20
-2289.713717430245
 42
0.4142135623731
 10
2821.900010067698
 20
-2291.213717430245
 42
0.4142135623731
 10
2823.400010067698
 20
-2292.713717430245
 42
0.4142135623731
  0
LWPOLYLINE
  5
2C8
330
1F
100
AcDbEntity
  8
0-E
  6
Continuous
 62
     7
370
     9
100
AcDbPolyline
 90
        4
 70
     1
 43
3.0
 10
2824.900010067697
 20
-2309.213717430246
 42
0.4142135623731
 10
2823.400010067698
 20
-2307.713717430246
 42
0.4142135623731
 10
2821.900010067698
 20
-2309.213717430246
 42
0.4142135623731
 10
2823.400010067698
 20
-2310.713717430246
 42
0.4142135623731
  0
LINE
  5
2C9
330
1F
100
AcDbEntity
  8
0-E
  6
Continuous
 62
   120
370
     5
100
AcDbLine
 10
2823.400010067698
 20
-2291.213717430245
 30
0.0
 11
2954.240861752188
 21
-2291.213717430245
 31
0.0
  0
LINE
  5
2CA
330
1F
100
AcDbEntity
  8
0-E
  6
Continuous
 62
   120
370
     5
100
AcDbLine
 10
2823.400010067698
 20
-2309.213717430246
 30
0.0
 11
2954.240861752188
 21
-2309.213717430246
 31
0.0
  0
LINE
  5
2CB
330
1F
100
AcDbEntity
  8
0-E
  6
Continuous
 62
   120
370
     5
100
AcDbLine
 10
2823.400010067698
 20
-2309.213717430246
 30
0.0
 11
2823.400010067698
 21
-2414.213717430246
 31
0.0
  0
LWPOLYLINE
  5
2CC
330
1F
100
AcDbEntity
  8
0-E
  6
Continuous
 62
     7
370
     9
100
AcDbPolyline
 90
        4
 70
     1
 43
3.0
 10
2824.900010067697
 20
-2414.213717430246
 42
0.4142135623731
 10
2823.400010067698
 20
-2412.713717430246
 42
0.4142135623731
 10
2821.900010067698
 20
-2414.213717430246
 42
0.4142135623731
 10
2823.400010067698
 20
-2415.713717430246
 42
0.4142135623731
  0
LINE
  5
2CD
330
1F
100
AcDbEntity
  8
0-E
  6
Continuous
 62
   120
370
     5
100
AcDbLine
 10
2823.400010067698
 20
-2414.213717430246
 30
0.0
 11
2954.240861752188
 21
-2414.213717430246
 31
0.0
  0
MTEXT
  5
2CE
330
1F
100
AcDbEntity
  8
0-E
  6
Continuous
 62
     7
370
   211
100
AcDbMText
 10
2828.251735806636
 20
-977.5127083230891
 30
0.0
 40
68.58000000000033
 41
180.0000000000009
 46
0.0
 71
     7
 72
     1
  1
{\fＭＳ ゴシック|b0|i0|c128|p49;28.6}
 73
     1
 44
1.0
  0
LINE
  5
2CF
330
1F
100
AcDbEntity
  8
0-E
  6
Continuous
 62
   120
370
     5
100
AcDbLine
 10
3135.751735806625
 20
-2625.110066240696
 30
0.0
 11
3426.75173580662
 21
-2625.110066240696
 31
0.0
  0
LWPOLYLINE
  5
2D0
330
1F
100
AcDbEntity
  8
0-E
  6
Continuous
 62
     7
370
     9
100
AcDbPolyline
 90
        4
 70
     1
 43
3.0
 10
3137.251735806625
 20
-2625.110066240696
 42
0.4142135623731
 10
3135.751735806625
 20
-2623.610066240697
 42
0.4142135623731
 10
3134.251735806625
 20
-2625.110066240696
 42
0.4142135623731
 10
3135.751735806625
 20
-2626.610066240696
 42
0.4142135623731
  0
LWPOLYLINE
  5
2D1
330
1F
100
AcDbEntity
  8
0-E
  6
Continuous
 62
     7
370
     9
100
AcDbPolyline
 90
        4
 70
     1
 43
3.0
 10
3428.25173580662
 20
-2625.110066240696
 42
0.4142135623731
 10
3426.75173580662
 20
-2623.610066240697
 42
0.4142135623731
 10
3425.25173580662
 20
-2625.110066240696
 42
0.4142135623731
 10
3426.75173580662
 20
-2626.610066240696
 42
0.4142135623731
  0
LINE
  5
2D2
330
1F
100
AcDbEntity
  8
0-E
  6
Continuous
 62
   120
370
     5
100
AcDbLine
 10
3135.751735806625
 20
-2625.110066240696
 30
0.0
 11
3135.751735806625
 21
-2497.493984172546
 31
0.0
  0
LINE
  5
2D3
330
1F
100
AcDbEntity
  8
0-E
  6
Continuous
 62
   120
370
     5
100
AcDbLine
 10
3426.75173580662
 20
-2625.110066240696
 30
0.0
 11
3426.75173580662
 21
-2497.493984172546
 31
0.0
  0
MTEXT
  5
2D4
330
1F
100
AcDbEntity
  8
0-E
  6
Continuous
 62
     7
370
   211
100
AcDbMText
 10
3191.251735806623
 20
-977.5127083230893
 30
0.0
 40
68.57999999999967
 41
179.9999999999991
 46
0.0
 71
     7
 72
     1
  1
{\fＭＳ ゴシック|b0|i0|c128|p49;19.8}
 73
     1
 44
1.0
  0
MTEXT
  5
2D5
330
1F
100
AcDbEntity
  8
0-E
  6
Continuous
 62
     7
370
   211
100
AcDbMText
 10
3554.25173580661
 20
-977.5127083230892
 30
0.0
 40
68.58
 41
180.0
 46
0.0
 71
     7
 72
     1
  1
{\fＭＳ ゴシック|b0|i0|c128|p49;28.6}
 73
     1
 44
1.0
  0
LINE
  5
2D6
330
1F
100
AcDbEntity
  8
0-E
  6
Continuous
 62
   120
370
     5
100
AcDbLine
 10
2823.400010067698
 20
-2124.725872805939
 30
0.0
 11
2823.400010067698
 21
-2309.213717430246
 31
0.0
  0
LINE
  5
2D7
330
1F
100
AcDbEntity
  8
0-E
  6
JWW_HOJO
 62
   120
370
     5
100
AcDbLine
 10
3281.251735806623
 20
-1388.228489458235
 30
0.0
 11
3281.251735806623
 21
-1350.855724353349
 31
0.0
  0
LINE
  5
2D8
330
1F
100
AcDbEntity
  8
0-E
  6
Continuous
 62
    92
370
    13
100
AcDbLine
 10
3858.751735806609
 20
-1278.855823329278
 30
0.0
 11
3858.751735806609
 21
-1473.855724353348
 31
0.0
  0
ARC
  5
2D9
330
1F
100
AcDbEntity
  8
0-E
  6
Continuous
 62
    92
370
    13
100
AcDbCircle
 10
3828.751636830705
 20
-1278.855823329278
 30
0.0
 40
30.00000038662473
100
AcDbArc
 50
0.0
 51
90.0
  0
LINE
  5
2DA
330
1F
100
AcDbEntity
  8
0-E
  6
Continuous
 62
    92
370
    13
100
AcDbLine
 10
2703.751735806636
 20
-1278.855823329278
 30
0.0
 11
2703.751735806636
 21
-1473.855724353348
 31
0.0
  0
ARC
  5
2DB
330
1F
100
AcDbEntity
  8
0-E
  6
Continuous
 62
    92
370
    13
100
AcDbCircle
 10
2733.75183478254
 20
-1278.855823329278
 30
0.0
 40
30.00000038662473
100
AcDbArc
 50
90.0
 51
180.0
  0
LINE
  5
2DC
330
1F
100
AcDbEntity
  8
0-E
  6
Continuous
 62
    92
370
    13
100
AcDbLine
 10
2703.751735806636
 20
-1473.855724353348
 30
0.0
 11
3858.751735806609
 21
-1473.855724353348
 31
0.0
  0
LINE
  5
2DD
330
1F
100
AcDbEntity
  8
0-E
  6
Continuous
 62
   120
370
     5
100
AcDbLine
 10
2816.588431623156
 20
-1473.855724353348
 30
0.0
 11
3041.588895572274
 21
-1248.855724353348
 31
0.0
  0
LINE
  5
2DE
330
1F
100
AcDbEntity
  8
0-E
  6
Continuous
 62
   120
370
     5
100
AcDbLine
 10
2710.522114451501
 20
-1473.855724353348
 30
0.0
 11
2935.522578400585
 21
-1248.855724353348
 31
0.0
  0
LINE
  5
2DF
330
1F
100
AcDbEntity
  8
0-E
  6
Continuous
 62
   120
370
     5
100
AcDbLine
 10
2703.751735806636
 20
-1374.560263884339
 30
0.0
 11
2829.456275337614
 21
-1248.855724353348
 31
0.0
  0
LINE
  5
2E0
330
1F
100
AcDbEntity
  8
0-E
  6
Continuous
 62
   120
370
     5
100
AcDbLine
 10
3346.920017481469
 20
-1473.855724353348
 30
0.0
 11
3571.920481430587
 21
-1248.855724353348
 31
0.0
  0
LINE
  5
2E1
330
1F
100
AcDbEntity
  8
0-E
  6
Continuous
 62
   120
370
     5
100
AcDbLine
 10
3452.986334653158
 20
-1473.855724353348
 30
0.0
 11
3677.986798602242
 21
-1248.855724353348
 31
0.0
  0
LINE
  5
2E2
330
1F
100
AcDbEntity
  8
0-E
  6
Continuous
 62
   120
370
     5
100
AcDbLine
 10
3559.052651824814
 20
-1473.855724353348
 30
0.0
 11
3784.053115773898
 21
-1248.855724353348
 31
0.0
  0
LINE
  5
2E3
330
1F
100
AcDbEntity
  8
0-E
  6
Continuous
 62
   120
370
     5
100
AcDbLine
 10
3771.185182303876
 20
-1473.855724353348
 30
0.0
 11
3858.751735806643
 21
-1386.290680688186
 31
0.0
  0
LINE
  5
2E4
330
1F
100
AcDbEntity
  8
0-E
  6
Continuous
 62
   120
370
     5
100
AcDbLine
 10
3028.721106527294
 20
-1473.855724353348
 30
0.0
 11
3148.720642578101
 21
-1353.855724353347
 31
0.0
  0
LINE
  5
2E5
330
1F
100
AcDbEntity
  8
0-E
  6
Continuous
 62
   120
370
     5
100
AcDbLine
 10
3240.853740870605
 20
-1473.855724353348
 30
0.0
 11
3360.853276921412
 21
-1353.855724353347
 31
0.0
  0
LINE
  5
2E6
330
1F
100
AcDbEntity
  8
0-E
  6
Continuous
 62
   120
370
     5
100
AcDbLine
 10
3134.787423698983
 20
-1473.855724353348
 30
0.0
 11
3254.786959749756
 21
-1353.855724353347
 31
0.0
  0
LINE
  5
2E7
330
1F
100
AcDbEntity
  8
0-E
  6
Continuous
 62
   120
370
     5
100
AcDbLine
 10
3665.118932121859
 20
-1473.855724353348
 30
0.0
 11
3858.751735806609
 21
-1280.224363507322
 31
0.0
  0
INSERT
  5
2E8
330
1F
100
AcDbEntity
  8
0-E
  6
Continuous
 62
     7
370
     9
100
AcDbBlockReference
  2
01@@SfigorgFlag@@4
 10
3281.251735806623
 20
-1291.124955122578
 30
0.0
 41
30.0
 42
30.0
  0
LWPOLYLINE
  5
2E9
330
1F
100
AcDbEntity
  8
0-E
  6
Continuous
 62
     7
370
     9
100
AcDbPolyline
 90
        4
 70
     1
 43
3.0
 10
2705.251735806636
 20
-981.8027083230909
 42
0.4142135623731
 10
2703.751735806636
 20
-980.302708323091
 42
0.4142135623731
 10
2702.251735806636
 20
-981.8027083230909
 42
0.4142135623731
 10
2703.751735806636
 20
-983.3027083230909
 42
0.4142135623731
  0
LINE
  5
2EA
330
1F
100
AcDbEntity
  8
0-E
  6
Continuous
 62
   120
370
     5
100
AcDbLine
 10
2703.751735806636
 20
-981.8027083230909
 30
0.0
 11
2703.751735806636
 21
-1126.103365701021
 31
0.0
  0
LINE
  5
2EB
330
1F
100
AcDbEntity
  8
0-E
  6
Continuous
 62
   120
370
     5
100
AcDbLine
 10
2703.751735806636
 20
-798.5829781199091
 30
0.0
 11
3858.751735806609
 21
-798.5829781199091
 31
0.0
  0
LWPOLYLINE
  5
2EC
330
1F
100
AcDbEntity
  8
0-E
  6
Continuous
 62
     7
370
     9
100
AcDbPolyline
 90
        4
 70
     1
 43
3.0
 10
2705.251735806636
 20
-798.5829781199091
 42
0.4142135623731
 10
2703.751735806636
 20
-797.0829781199091
 42
0.4142135623731
 10
2702.251735806636
 20
-798.5829781199091
 42
0.4142135623731
 10
2703.751735806636
 20
-800.0829781199091
 42
0.4142135623731
  0
LWPOLYLINE
  5
2ED
330
1F
100
AcDbEntity
  8
0-E
  6
Continuous
 62
     7
370
     9
100
AcDbPolyline
 90
        4
 70
     1
 43
3.0
 10
3860.251735806609
 20
-798.5829781199091
 42
0.4142135623731
 10
3858.751735806609
 20
-797.0829781199091
 42
0.4142135623731
 10
3857.251735806608
 20
-798.5829781199091
 42
0.4142135623731
 10
3858.751735806609
 20
-800.0829781199091
 42
0.4142135623731
  0
LINE
  5
2EE
330
1F
100
AcDbEntity
  8
0-E
  6
Continuous
 62
   120
370
     5
100
AcDbLine
 10
2703.751735806636
 20
-798.5829781199091
 30
0.0
 11
2703.751735806636
 21
-981.8027083230909
 31
0.0
  0
LINE
  5
2EF
330
1F
100
AcDbEntity
  8
0-E
  6
Continuous
 62
   120
370
     5
100
AcDbLine
 10
3858.751735806609
 20
-798.5829781199091
 30
0.0
 11
3858.751735806609
 21
-981.8027083230909
 31
0.0
  0
MTEXT
  5
2F0
330
1F
100
AcDbEntity
  8
0-E
  6
Continuous
 62
     7
370
   211
100
AcDbMText
 10
2478.186162066539
 20
-1334.565724353347
 30
0.0
 40
68.58000000000258
 41
45.00000000000171
 46
0.0
 71
     7
 72
     1
  1
{\fＭＳ ゴシック|b0|i0|c128|p49;7}
 11
6.123031769111886E-17
 21
1.0
 31
0.0
 73
     1
 44
1.0
  0
LINE
  5
2F1
330
1F
100
AcDbEntity
  8
0-E
  6
Continuous
 62
   120
370
     5
100
AcDbLine
 10
2363.731599452314
 20
-1248.855724353348
 30
0.0
 11
2363.731599452314
 21
-1473.855724353348
 31
0.0
  0
LWPOLYLINE
  5
2F2
330
1F
100
AcDbEntity
  8
0-E
  6
Continuous
 62
     7
370
     9
100
AcDbPolyline
 90
        4
 70
     1
 43
3.0
 10
2365.231599452314
 20
-1248.855724353348
 42
0.4142135623731
 10
2363.731599452314
 20
-1247.355724353348
 42
0.4142135623731
 10
2362.231599452314
 20
-1248.855724353348
 42
0.4142135623731
 10
2363.731599452314
 20
-1250.355724353348
 42
0.4142135623731
  0
LWPOLYLINE
  5
2F3
330
1F
100
AcDbEntity
  8
0-E
  6
Continuous
 62
     7
370
     9
100
AcDbPolyline
 90
        4
 70
     1
 43
3.0
 10
2365.231599452314
 20
-1473.855724353348
 42
0.4142135623731
 10
2363.731599452314
 20
-1472.355724353348
 42
0.4142135623731
 10
2362.231599452314
 20
-1473.855724353348
 42
0.4142135623731
 10
2363.731599452314
 20
-1475.355724353348
 42
0.4142135623731
  0
LINE
  5
2F4
330
1F
100
AcDbEntity
  8
0-E
  6
Continuous
 62
   120
370
     5
100
AcDbLine
 10
2363.731599452314
 20
-1248.855724353348
 30
0.0
 11
2493.186162066538
 21
-1248.855724353348
 31
0.0
  0
MTEXT
  5
2F5
330
1F
100
AcDbEntity
  8
0-E
  6
Continuous
 62
     7
370
   211
100
AcDbMText
 10
2348.731599452315
 20
-1417.065724353349
 30
0.0
 40
68.57999999999934
 41
89.99999999999915
 46
0.0
 71
     7
 72
     1
  1
{\fＭＳ ゴシック|b0|i0|c128|p49;15}
 11
6.123031769111886E-17
 21
1.0
 31
0.0
 73
     1
 44
1.0
  0
LINE
  5
2F6
330
1F
100
AcDbEntity
  8
0-E
  6
Continuous
 62
   120
370
     5
100
AcDbLine
 10
2493.186162066538
 20
-1248.855724353348
 30
0.0
 11
2493.186162066538
 21
-1353.855724353347
 31
0.0
  0
LWPOLYLINE
  5
2F7
330
1F
100
AcDbEntity
  8
0-E
  6
Continuous
 62
     7
370
     9
100
AcDbPolyline
 90
        4
 70
     1
 43
3.0
 10
2494.686162066538
 20
-1248.855724353348
 42
0.4142135623731
 10
2493.186162066538
 20
-1247.355724353348
 42
0.4142135623731
 10
2491.686162066538
 20
-1248.855724353348
 42
0.4142135623731
 10
2493.186162066538
 20
-1250.355724353348
 42
0.4142135623731
  0
LWPOLYLINE
  5
2F8
330
1F
100
AcDbEntity
  8
0-E
  6
Continuous
 62
     7
370
     9
100
AcDbPolyline
 90
        4
 70
     1
 43
3.0
 10
2494.686162066538
 20
-1353.855724353347
 42
0.4142135623731
 10
2493.186162066538
 20
-1352.355724353347
 42
0.4142135623731
 10
2491.686162066538
 20
-1353.855724353347
 42
0.4142135623731
 10
2493.186162066538
 20
-1355.355724353347
 42
0.4142135623731
  0
LINE
  5
2F9
330
1F
100
AcDbEntity
  8
0-E
  6
Continuous
 62
   120
370
     5
100
AcDbLine
 10
2493.186162066538
 20
-1248.855724353348
 30
0.0
 11
2632.364820875073
 21
-1248.855724353348
 31
0.0
  0
LINE
  5
2FA
330
1F
100
AcDbEntity
  8
0-E
  6
Continuous
 62
   120
370
     5
100
AcDbLine
 10
2493.186162066538
 20
-1353.855724353347
 30
0.0
 11
2632.364820875073
 21
-1353.855724353347
 31
0.0
  0
MTEXT
  5
2FB
330
1F
100
AcDbEntity
  8
0-E
  6
Continuous
 62
     7
370
   211
100
AcDbMText
 10
3236.251735806622
 20
-1987.281313507023
 30
0.0
 40
68.58000000000033
 41
90.00000000000043
 46
0.0
 71
     7
 72
     1
  1
{\fＭＳ ゴシック|b0|i0|c128|p49;32}
 73
     1
 44
1.0
  0
LINE
  5
2FC
330
1F
100
AcDbEntity
  8
0-E
  6
Continuous
 62
   120
370
     5
100
AcDbLine
 10
2363.731599452314
 20
-1473.855724353348
 30
0.0
 11
2632.364820875073
 21
-1473.855724353348
 31
0.0
  0
LINE
  5
2FD
330
1F
100
AcDbEntity
  8
0-E
  6
Continuous
 62
    92
370
    13
100
AcDbLine
 10
2733.75183478254
 20
-1248.855724353348
 30
0.0
 11
3132.751735806636
 21
-1248.855724353348
 31
0.0
  0
LINE
  5
2FE
330
1F
100
AcDbEntity
  8
0-E
  6
Continuous
 62
    92
370
    13
100
AcDbLine
 10
3132.751735806636
 20
-1248.855724353348
 30
0.0
 11
3132.751735806636
 21
-1353.855724353347
 31
0.0
  0
LINE
  5
2FF
330
1F
100
AcDbEntity
  8
0-E
  6
Continuous
 62
    92
370
    13
100
AcDbLine
 10
3429.75173580661
 20
-1353.855724353347
 30
0.0
 11
3132.751735806636
 21
-1353.855724353347
 31
0.0
  0
LINE
  5
300
330
1F
100
AcDbEntity
  8
0-E
  6
Continuous
 62
    92
370
    13
100
AcDbLine
 10
3429.75173580661
 20
-1248.855724353348
 30
0.0
 11
3429.75173580661
 21
-1353.855724353347
 31
0.0
  0
LINE
  5
301
330
1F
100
AcDbEntity
  8
0-E
  6
Continuous
 62
    92
370
    13
100
AcDbLine
 10
3429.75173580661
 20
-1248.855724353348
 30
0.0
 11
3828.751636830705
 21
-1248.855724353348
 31
0.0
  0
LINE
  5
302
330
1F
100
AcDbEntity
  8
0-E
  6
Continuous
 62
   120
370
     5
100
AcDbLine
 10
2922.654715701881
 20
-1473.855724353348
 30
0.0
 11
3132.751735806636
 21
-1263.760153646688
 31
0.0
  0
LINE
  5
303
330
1F
100
AcDbEntity
  8
0-E
  6
Continuous
 62
   120
370
     5
100
AcDbLine
 10
3429.75173580661
 20
-1281.927922937999
 30
0.0
 11
3462.824674808078
 21
-1248.855724353348
 31
0.0
  0
LINE
  5
304
330
1F
100
AcDbEntity
  8
0-E
  6
Continuous
 62
   120
370
     5
100
AcDbLine
 10
2703.751735806636
 20
-981.8027083230909
 30
0.0
 11
3132.751735806636
 21
-981.8027083230909
 31
0.0
  0
LWPOLYLINE
  5
305
330
1F
100
AcDbEntity
  8
0-E
  6
Continuous
 62
     7
370
     9
100
AcDbPolyline
 90
        4
 70
     1
 43
3.0
 10
3134.251735806636
 20
-981.8027083230909
 42
0.4142135623731
 10
3132.751735806636
 20
-980.302708323091
 42
0.4142135623731
 10
3131.251735806636
 20
-981.8027083230909
 42
0.4142135623731
 10
3132.751735806636
 20
-983.3027083230909
 42
0.4142135623731
  0
LINE
  5
306
330
1F
100
AcDbEntity
  8
0-E
  6
Continuous
 62
   120
370
     5
100
AcDbLine
 10
3132.751735806636
 20
-981.8027083230909
 30
0.0
 11
3132.751735806636
 21
-1126.103365701021
 31
0.0
  0
MTEXT
  5
307
330
1F
100
AcDbEntity
  8
0-E
  6
Continuous
 62
     7
370
   211
100
AcDbMText
 10
3236.251735806622
 20
-2146.743601497494
 30
0.0
 40
68.58000000000033
 41
90.00000000000043
 46
0.0
 71
     7
 72
     1
  1
{\fＭＳ ゴシック|b0|i0|c128|p49;11}
 73
     1
 44
1.0
  0
LINE
  5
308
330
1F
100
AcDbEntity
  8
0-E
  6
Continuous
 62
   120
370
     5
100
AcDbLine
 10
3132.751735806636
 20
-981.8027083230909
 30
0.0
 11
3429.75173580661
 21
-981.8027083230909
 31
0.0
  0
LWPOLYLINE
  5
309
330
1F
100
AcDbEntity
  8
0-E
  6
Continuous
 62
     7
370
     9
100
AcDbPolyline
 90
        4
 70
     1
 43
3.0
 10
3431.25173580661
 20
-981.8027083230909
 42
0.4142135623731
 10
3429.75173580661
 20
-980.302708323091
 42
0.4142135623731
 10
3428.25173580661
 20
-981.8027083230909
 42
0.4142135623731
 10
3429.75173580661
 20
-983.3027083230909
 42
0.4142135623731
  0
LINE
  5
30A
330
1F
100
AcDbEntity
  8
0-E
  6
Continuous
 62
   120
370
     5
100
AcDbLine
 10
3429.75173580661
 20
-981.8027083230909
 30
0.0
 11
3429.75173580661
 21
-1126.103365701021
 31
0.0
  0
MTEXT
  5
30B
330
1F
100
AcDbEntity
  8
0-E
  6
Continuous
 62
     7
370
   211
100
AcDbMText
 10
2808.400010067698
 20
-2282.900408367927
 30
0.0
 40
68.58000000000044
 41
135.0000000000009
 46
0.0
 71
     7
 72
     1
  1
{\fＭＳ ゴシック|b0|i0|c128|p49;1.2}
 11
6.123031769111886E-17
 21
1.0
 31
0.0
 73
     1
 44
1.0
  0
LINE
  5
30C
330
1F
100
AcDbEntity
  8
0-E
  6
Continuous
 62
   120
370
     5
100
AcDbLine
 10
3429.75173580661
 20
-981.8027083230909
 30
0.0
 11
3858.751735806609
 21
-981.8027083230909
 31
0.0
  0
LWPOLYLINE
  5
30D
330
1F
100
AcDbEntity
  8
0-E
  6
Continuous
 62
     7
370
     9
100
AcDbPolyline
 90
        4
 70
     1
 43
3.0
 10
3860.251735806609
 20
-981.8027083230909
 42
0.4142135623731
 10
3858.751735806609
 20
-980.302708323091
 42
0.4142135623731
 10
3857.251735806608
 20
-981.8027083230909
 42
0.4142135623731
 10
3858.751735806609
 20
-983.3027083230909
 42
0.4142135623731
  0
LINE
  5
30E
330
1F
100
AcDbEntity
  8
0-E
  6
Continuous
 62
   120
370
     5
100
AcDbLine
 10
3858.751735806609
 20
-981.8027083230909
 30
0.0
 11
3858.751735806609
 21
-1126.103365701021
 31
0.0
  0
MTEXT
  5
30F
330
1F
100
AcDbEntity
  8
0-E
  6
Continuous
 62
     7
370
   211
100
AcDbMText
 10
2808.400010067698
 20
-2394.923717430247
 30
0.0
 40
68.57999999999609
 41
44.99999999999744
 46
0.0
 71
     7
 72
     1
  1
{\fＭＳ ゴシック|b0|i0|c128|p49;7}
 11
6.123031769111886E-17
 21
1.0
 31
0.0
 73
     1
 44
1.0
  0
LWPOLYLINE
  5
310
330
1F
100
AcDbEntity
  8
0-E
  6
Continuous
 62
     7
370
     9
100
AcDbPolyline
 90
        4
 70
     1
 43
3.0
 10
2668.457039823703
 20
-2414.213717430246
 42
0.4142135623731
 10
2666.957039823703
 20
-2412.713717430246
 42
0.4142135623731
 10
2665.457039823703
 20
-2414.213717430246
 42
0.4142135623731
 10
2666.957039823703
 20
-2415.713717430246
 42
0.4142135623731
  0
LINE
  5
311
330
1F
100
AcDbEntity
  8
0-E
  6
Continuous
 62
   120
370
     5
100
AcDbLine
 10
2666.957039823703
 20
-2414.213717430246
 30
0.0
 11
2666.957039823703
 21
-2291.213717430245
 31
0.0
  0
LWPOLYLINE
  5
312
330
1F
100
AcDbEntity
  8
0-E
  6
Continuous
 62
     7
370
     9
100
AcDbPolyline
 90
        4
 70
     1
 43
3.0
 10
2668.457039823703
 20
-2291.213717430245
 42
0.4142135623731
 10
2666.957039823703
 20
-2289.713717430245
 42
0.4142135623731
 10
2665.457039823703
 20
-2291.213717430245
 42
0.4142135623731
 10
2666.957039823703
 20
-2292.713717430245
 42
0.4142135623731
  0
MTEXT
  5
313
330
1F
100
AcDbEntity
  8
0-E
  6
Continuous
 62
     7
370
   211
100
AcDbMText
 10
2651.957039823703
 20
-2430.923717430247
 30
0.0
 40
68.58000000000044
 41
135.0000000000009
 46
0.0
 71
     7
 72
     1
  1
{\fＭＳ ゴシック|b0|i0|c128|p49;8.2}
 11
6.123031769111886E-17
 21
1.0
 31
0.0
 73
     1
 44
1.0
  0
LINE
  5
314
330
1F
100
AcDbEntity
  8
0-E
  6
Continuous
 62
   120
370
     5
100
AcDbLine
 10
2666.957039823703
 20
-2414.213717430246
 30
0.0
 11
2823.400010067698
 21
-2414.213717430246
 31
0.0
  0
LINE
  5
315
330
1F
100
AcDbEntity
  8
0-E
  6
Continuous
 62
   120
370
     5
100
AcDbLine
 10
2666.957039823703
 20
-2291.213717430245
 30
0.0
 11
2823.400010067698
 21
-2291.213717430245
 31
0.0
  0
LWPOLYLINE
  5
316
330
1F
100
AcDbEntity
  8
0-E
  6
Continuous
 62
     7
370
     9
100
AcDbPolyline
 90
        4
 70
     1
 43
3.0
 10
1549.720428301672
 20
-969.4181252840347
 42
0.4142135623731
 10
1548.220428301672
 20
-967.9181252840347
 42
0.4142135623731
 10
1546.720428301672
 20
-969.4181252840347
 42
0.4142135623731
 10
1548.220428301672
 20
-970.9181252840345
 42
0.4142135623731
  0
LINE
  5
317
330
1F
100
AcDbEntity
  8
0-E
  6
Continuous
 62
   120
370
     5
100
AcDbLine
 10
778.2204283016704
 20
-969.4181252840347
 30
0.0
 11
1548.220428301672
 21
-969.4181252840347
 31
0.0
  0
LINE
  5
318
330
1F
100
AcDbEntity
  8
0-E
  6
Continuous
 62
   120
370
     5
100
AcDbLine
 10
1548.220428301672
 20
-969.4181252840347
 30
0.0
 11
1548.220428301672
 21
-1112.960175084035
 31
0.0
  0
LINE
  5
319
330
1F
100
AcDbEntity
  8
0-E
  6
Continuous
 62
    92
370
    13
100
AcDbLine
 10
1548.220428301672
 20
-1162.960175084034
 30
0.0
 11
1548.220428301672
 21
-2038.251380632862
 31
0.0
  0
LINE
  5
31A
330
1F
100
AcDbEntity
  8
0-E
  6
Continuous
 62
    92
370
    13
100
AcDbLine
 10
778.2204283016704
 20
-2038.251380632862
 30
0.0
 11
1548.220428301672
 21
-2038.251380632862
 31
0.0
  0
MTEXT
  5
31B
330
1F
100
AcDbEntity
  8
0-E
  6
Continuous
 62
     7
370
   211
100
AcDbMText
 10
3191.251735806623
 20
-2620.8200662407
 30
0.0
 40
68.57999999999967
 41
179.9999999999991
 46
0.0
 71
     7
 72
     1
  1
{\fＭＳ ゴシック|b0|i0|c128|p49;19.4}
 73
     1
 44
1.0
  0
LINE
  5
31C
330
1F
100
AcDbEntity
  8
0-E
  6
JWW_HOJO
 62
   120
370
     5
100
AcDbLine
 10
743.2200818859114
 20
-1162.960175084034
 30
0.0
 11
1603.383761418427
 21
-1162.960175084034
 31
0.0
  0
LINE
  5
31D
330
1F
100
AcDbEntity
  8
0-E
  6
JWW_HOJO
 62
   120
370
     5
100
AcDbLine
 10
743.2200818859114
 20
-1112.960175084035
 30
0.0
 11
1603.383761418427
 21
-1112.960175084035
 31
0.0
  0
LINE
  5
31E
330
1F
100
AcDbEntity
  8
0-E
  6
JWW_CENTER1
 62
     7
370
     9
100
AcDbLine
 10
863.2204283016694
 20
-1886.825957892366
 30
0.0
 11
863.2204283016694
 21
-2038.251380632862
 31
0.0
  0
LINE
  5
31F
330
1F
100
AcDbEntity
  8
0-E
  6
JWW_CENTER1
 62
     7
370
     9
100
AcDbLine
 10
1463.220791213416
 20
-1886.825957892366
 30
0.0
 11
1463.220791213416
 21
-2038.251380632862
 31
0.0
  0
LINE
  5
320
330
1F
100
AcDbEntity
  8
0-E
  6
JWW_CENTER1
 62
     7
370
     9
100
AcDbLine
 10
789.3951055471365
 20
-1963.251380632862
 30
0.0
 11
930.5149231887417
 21
-1963.251380632862
 31
0.0
  0
LINE
  5
321
330
1F
100
AcDbEntity
  8
0-E
  6
JWW_CENTER1
 62
     7
370
     9
100
AcDbLine
 10
1399.278143528679
 20
-1963.251380632862
 30
0.0
 11
1545.306476566513
 21
-1963.251380632862
 31
0.0
  0
CIRCLE
  5
322
330
1F
100
AcDbEntity
  8
0-E
  6
Continuous
 62
     7
370
     9
100
AcDbCircle
 10
863.2204283016694
 20
-1963.251380632862
 30
0.0
 40
19.0
  0
CIRCLE
  5
323
330
1F
100
AcDbEntity
  8
0-E
  6
Continuous
 62
     7
370
     9
100
AcDbCircle
 10
1463.220791213416
 20
-1963.251380632862
 30
0.0
 40
19.0
  0
LINE
  5
324
330
1F
100
AcDbEntity
  8
0-4_枠
  6
Continuous
 62
    92
370
    13
100
AcDbLine
 10
-2031.480483211919
 20
-297.9999259739152
 30
0.0
 11
-2031.480483211919
 21
-1798.000044745029
 31
0.0
  0
LINE
  5
325
330
1F
100
AcDbEntity
  8
0-4_枠
  6
Continuous
 62
    92
370
    13
100
AcDbLine
 10
-2031.480483211919
 20
-1918.00004474503
 30
0.0
 11
-2031.480483211919
 21
-3226.000334249622
 31
0.0
  0
LINE
  5
326
330
1F
100
AcDbEntity
  8
0-4_枠
  6
Continuous
 62
    92
370
    13
100
AcDbLine
 10
-1569.480483211903
 20
-3225.999963089889
 30
0.0
 11
-1569.480483211903
 21
-1918.00004474503
 31
0.0
  0
LINE
  5
327
330
1F
100
AcDbEntity
  8
0-4_枠
  6
Continuous
 62
    92
370
    13
100
AcDbLine
 10
-1569.480483211903
 20
-1798.000044745029
 30
0.0
 11
-1569.480483211903
 21
-453.9999259739145
 31
0.0
  0
MTEXT
  5
328
330
1F
100
AcDbEntity
  8
0-B_寸法
  6
Continuous
 62
     7
370
     0
100
AcDbMText
 10
-1864.231037785904
 20
-1160.270255201052
 30
0.0
 40
91.44000000000196
 41
120.0000000000026
 46
0.0
 71
     7
 72
     1
  1
{\fＭＳ ゴシック|b0|i0|c128|p49;20}
 11
0.9999999999914964
 21
4.124000483235921E-6
 31
0.0
 73
     1
 44
1.0
  0
MTEXT
  5
329
330
1F
100
AcDbEntity
  8
0-B_寸法
  6
Continuous
 62
     7
370
   211
100
AcDbMText
 10
-1187.670266256665
 20
2287.665146596495
 30
0.0
 40
91.44
 41
120.0
 46
0.0
 71
     7
 72
     1
  1
{\fＭＳ ゴシック|b0|i0|c128|p49;20}
 11
6.123031769111886E-17
 21
1.0
 31
0.0
 73
     1
 44
1.0
  0
LINE
  5
32A
330
1F
100
AcDbEntity
  8
0-0_補助線
  6
Continuous
 62
   120
370
     5
100
AcDbLine
 10
-1983.48068116376
 20
2324.359196304035
 30
0.0
 11
-1983.48068116376
 21
2402.688459527219
 31
0.0
  0
LINE
  5
32B
330
1F
100
AcDbEntity
  8
0-0_補助線
  6
Continuous
 62
   120
370
     5
100
AcDbLine
 10
-1998.48068116376
 20
2324.359196304035
 30
0.0
 11
-1998.48068116376
 21
2402.688459527219
 31
0.0
  0
LWPOLYLINE
  5
32C
330
1F
100
AcDbEntity
  8
0-B_寸法
  6
Continuous
 62
     7
370
     9
100
AcDbPolyline
 90
        4
 70
     1
 43
3.0
 10
-1171.170266256666
 20
2421.945146596496
 42
0.4142135623731
 10
-1172.670266256666
 20
2423.445146596496
 42
0.4142135623731
 10
-1174.170266256666
 20
2421.945146596496
 42
0.4142135623731
 10
-1172.670266256666
 20
2420.445146596496
 42
0.4142135623731
  0
LINE
  5
32D
330
1F
100
AcDbEntity
  8
0-0_補助線
  6
JWW_HOJO
 62
     7
370
     9
100
AcDbLine
 10
-1529.73068116376
 20
2439.945146596496
 30
0.0
 11
-1529.73068116376
 21
2280.944503252957
 31
0.0
  0
LINE
  5
32E
330
1F
100
AcDbEntity
  8
0-0_補助線
  6
JWW_HOJO
 62
     7
370
     9
100
AcDbLine
 10
-1469.73068116376
 20
2439.945146596496
 30
0.0
 11
-1469.73068116376
 21
2280.944503252957
 31
0.0
  0
LINE
  5
32F
330
1F
100
AcDbEntity
  8
0-6_扉
  6
Continuous
 62
   200
370
    20
100
AcDbLine
 10
-1998.48068116376
 20
2421.945146596496
 30
0.0
 11
-1529.73068116376
 21
2421.945146596496
 31
0.0
  0
LINE
  5
330
330
1F
100
AcDbEntity
  8
0-6_扉
  6
Continuous
 62
   200
370
    20
100
AcDbLine
 10
-1469.73068116376
 20
2421.945146596496
 30
0.0
 11
-1000.980681163759
 21
2421.945146596496
 31
0.0
  0
LINE
  5
331
330
1F
100
AcDbEntity
  8
0-0_補助線
  6
JWW_HOJO
 62
     7
370
     9
100
AcDbLine
 10
-526.2306811637598
 20
2439.945146596496
 30
0.0
 11
-526.2306811637598
 21
2280.944503252957
 31
0.0
  0
LINE
  5
332
330
1F
100
AcDbEntity
  8
0-0_補助線
  6
JWW_HOJO
 62
     7
370
     9
100
AcDbLine
 10
-466.2306811637598
 20
2439.945146596496
 30
0.0
 11
-466.2306811637598
 21
2280.944503252957
 31
0.0
  0
LINE
  5
333
330
1F
100
AcDbEntity
  8
0-0_補助線
  6
JWW_HOJO
 62
     7
370
     9
100
AcDbLine
 10
483.2693188362442
 20
2439.945146596496
 30
0.0
 11
483.2693188362442
 21
2280.944503252957
 31
0.0
  0
LINE
  5
334
330
1F
100
AcDbEntity
  8
0-0_補助線
  6
JWW_HOJO
 62
     7
370
     9
100
AcDbLine
 10
543.2693188362442
 20
2439.945146596496
 30
0.0
 11
543.2693188362442
 21
2280.944503252957
 31
0.0
  0
LINE
  5
335
330
1F
100
AcDbEntity
  8
0-0_補助線
  6
JWW_HOJO
 62
     7
370
     9
100
AcDbLine
 10
1486.769318836243
 20
2439.945146596496
 30
0.0
 11
1486.769318836243
 21
2280.944503252957
 31
0.0
  0
LINE
  5
336
330
1F
100
AcDbEntity
  8
0-0_補助線
  6
JWW_HOJO
 62
     7
370
     9
100
AcDbLine
 10
1546.769318836243
 20
2439.945146596496
 30
0.0
 11
1546.769318836243
 21
2280.944503252957
 31
0.0
  0
LINE
  5
337
330
1F
100
AcDbEntity
  8
0-6_扉
  6
Continuous
 62
   200
370
    20
100
AcDbLine
 10
-994.9806811637598
 20
2421.945146596496
 30
0.0
 11
-526.2306811637598
 21
2421.945146596496
 31
0.0
  0
LINE
  5
338
330
1F
100
AcDbEntity
  8
0-6_扉
  6
Continuous
 62
   200
370
    20
100
AcDbLine
 10
-466.2306811637598
 20
2421.945146596496
 30
0.0
 11
2.519318836241951
 21
2421.945146596496
 31
0.0
  0
LINE
  5
339
330
1F
100
AcDbEntity
  8
0-6_扉
  6
Continuous
 62
   200
370
    20
100
AcDbLine
 10
14.51931883624638
 20
2421.945146596496
 30
0.0
 11
483.2693188362442
 21
2421.945146596496
 31
0.0
  0
LINE
  5
33A
330
1F
100
AcDbEntity
  8
0-6_扉
  6
Continuous
 62
   200
370
    20
100
AcDbLine
 10
543.2693188362442
 20
2421.945146596496
 30
0.0
 11
1012.019318836242
 21
2421.945146596496
 31
0.0
  0
LINE
  5
33B
330
1F
100
AcDbEntity
  8
0-6_扉
  6
Continuous
 62
   200
370
    20
100
AcDbLine
 10
1018.019318836241
 20
2421.945146596496
 30
0.0
 11
1486.769318836243
 21
2421.945146596496
 31
0.0
  0
LINE
  5
33C
330
1F
100
AcDbEntity
  8
0-6_扉
  6
Continuous
 62
   200
370
    20
100
AcDbLine
 10
1546.769318836243
 20
2421.945146596496
 30
0.0
 11
2015.519318836245
 21
2421.945146596496
 31
0.0
  0
CIRCLE
  5
33D
330
1F
100
AcDbEntity
  8
0-7_金物
  6
Continuous
 62
     7
370
     9
100
AcDbCircle
 10
-997.9806811637595
 20
2451.945146596472
 30
0.0
 40
21.00000000000001
  0
CIRCLE
  5
33E
330
1F
100
AcDbEntity
  8
0-7_金物
  6
Continuous
 62
     7
370
     9
100
AcDbCircle
 10
-997.9806811637595
 20
2451.945146596472
 30
0.0
 40
30.0
  0
CIRCLE
  5
33F
330
1F
100
AcDbEntity
  8
0-7_金物
  6
Continuous
 62
     7
370
     9
100
AcDbCircle
 10
1015.019318836242
 20
2451.945146596472
 30
0.0
 40
21.00000000000001
  0
CIRCLE
  5
340
330
1F
100
AcDbEntity
  8
0-7_金物
  6
Continuous
 62
     7
370
     9
100
AcDbCircle
 10
1015.019318836242
 20
2451.945146596472
 30
0.0
 40
30.0
  0
LWPOLYLINE
  5
341
330
1F
100
AcDbEntity
  8
0-B_寸法
  6
Continuous
 62
     7
370
     9
100
AcDbPolyline
 90
        4
 70
     1
 43
3.0
 10
-1171.170266256666
 20
2301.945146596496
 42
0.4142135623731
 10
-1172.670266256666
 20
2303.445146596496
 42
0.4142135623731
 10
-1174.170266256666
 20
2301.945146596496
 42
0.4142135623731
 10
-1172.670266256666
 20
2300.445146596496
 42
0.4142135623731
  0
LINE
  5
342
330
1F
100
AcDbEntity
  8
0-6_扉
  6
Continuous
 62
   200
370
    20
100
AcDbLine
 10
-1998.48068116376
 20
2301.945146596496
 30
0.0
 11
-1529.73068116376
 21
2301.945146596496
 31
0.0
  0
LINE
  5
343
330
1F
100
AcDbEntity
  8
0-6_扉
  6
Continuous
 62
   200
370
    20
100
AcDbLine
 10
-1469.73068116376
 20
2301.945146596496
 30
0.0
 11
-1000.980681163759
 21
2301.945146596496
 31
0.0
  0
LINE
  5
344
330
1F
100
AcDbEntity
  8
0-6_扉
  6
Continuous
 62
   200
370
    20
100
AcDbLine
 10
-994.9806811637598
 20
2301.945146596496
 30
0.0
 11
-526.2306811637598
 21
2301.945146596496
 31
0.0
  0
LINE
  5
345
330
1F
100
AcDbEntity
  8
0-6_扉
  6
Continuous
 62
   200
370
    20
100
AcDbLine
 10
-466.2306811637598
 20
2301.945146596496
 30
0.0
 11
2.519318836241951
 21
2301.945146596496
 31
0.0
  0
LINE
  5
346
330
1F
100
AcDbEntity
  8
0-6_扉
  6
Continuous
 62
   200
370
    20
100
AcDbLine
 10
14.51931883624638
 20
2301.945146596496
 30
0.0
 11
483.2693188362442
 21
2301.945146596496
 31
0.0
  0
LINE
  5
347
330
1F
100
AcDbEntity
  8
0-6_扉
  6
Continuous
 62
   200
370
    20
100
AcDbLine
 10
543.2693188362442
 20
2301.945146596496
 30
0.0
 11
1012.019318836242
 21
2301.945146596496
 31
0.0
  0
LINE
  5
348
330
1F
100
AcDbEntity
  8
0-6_扉
  6
Continuous
 62
   200
370
    20
100
AcDbLine
 10
1018.019318836241
 20
2301.945146596496
 30
0.0
 11
1486.769318836243
 21
2301.945146596496
 31
0.0
  0
LINE
  5
349
330
1F
100
AcDbEntity
  8
0-6_扉
  6
Continuous
 62
   200
370
    20
100
AcDbLine
 10
1546.769318836243
 20
2301.945146596496
 30
0.0
 11
2015.519318836245
 21
2301.945146596496
 31
0.0
  0
LINE
  5
34A
330
1F
100
AcDbEntity
  8
0-6_扉
  6
Continuous
 62
   200
370
    20
100
AcDbLine
 10
-1998.48068116376
 20
2421.945146596496
 30
0.0
 11
-1998.48068116376
 21
2301.945146596496
 31
0.0
  0
LINE
  5
34B
330
1F
100
AcDbEntity
  8
0-6_扉
  6
Continuous
 62
   200
370
    20
100
AcDbLine
 10
2015.519318836245
 20
2421.945146596496
 30
0.0
 11
2015.519318836245
 21
2301.945146596496
 31
0.0
  0
LINE
  5
34C
330
1F
100
AcDbEntity
  8
0-B_寸法
  6
Continuous
 62
   120
370
     5
100
AcDbLine
 10
-1172.670266256666
 20
2421.945146596496
 30
0.0
 11
-1172.670266256666
 21
2301.945146596496
 31
0.0
  0
LINE
  5
34D
330
1F
100
AcDbEntity
  8
0-6_扉
  6
Continuous
 62
   200
370
    20
100
AcDbLine
 10
2.519318836241951
 20
2421.945146596496
 30
0.0
 11
2.519318836241951
 21
2301.945146596496
 31
0.0
  0
LINE
  5
34E
330
1F
100
AcDbEntity
  8
0-6_扉
  6
Continuous
 62
   200
370
    20
100
AcDbLine
 10
14.51931883624042
 20
2421.945146596496
 30
0.0
 11
14.51931883624042
 21
2301.945146596496
 31
0.0
  0
LINE
  5
34F
330
1F
100
AcDbEntity
  8
0-6_扉
  6
Continuous
 62
   200
370
    20
100
AcDbLine
 10
-1000.980681163759
 20
2421.945146596496
 30
0.0
 11
-1000.980681163759
 21
2301.945146596496
 31
0.0
  0
LINE
  5
350
330
1F
100
AcDbEntity
  8
0-6_扉
  6
Continuous
 62
   200
370
    20
100
AcDbLine
 10
-994.9806811637598
 20
2421.945146596496
 30
0.0
 11
-994.9806811637598
 21
2301.945146596496
 31
0.0
  0
LINE
  5
351
330
1F
100
AcDbEntity
  8
0-6_扉
  6
Continuous
 62
   200
370
    20
100
AcDbLine
 10
1018.019318836241
 20
2421.945146596496
 30
0.0
 11
1018.019318836241
 21
2301.945146596496
 31
0.0
  0
LINE
  5
352
330
1F
100
AcDbEntity
  8
0-6_扉
  6
Continuous
 62
   200
370
    20
100
AcDbLine
 10
1012.019318836242
 20
2421.945146596496
 30
0.0
 11
1012.019318836242
 21
2301.945146596496
 31
0.0
  0
LINE
  5
353
330
1F
100
AcDbEntity
  8
0-6_扉
  6
Continuous
 62
   200
370
    20
100
AcDbLine
 10
-1740.480483211898
 20
-1918.00004474503
 30
0.0
 11
-1740.480483211898
 21
-3085.000334249622
 31
0.0
  0
LINE
  5
354
330
1F
100
AcDbEntity
  8
0-6_扉
  6
Continuous
 62
   200
370
    20
100
AcDbLine
 10
-1740.480483211898
 20
-558.9998344211808
 30
0.0
 11
-1740.480483211898
 21
-1798.000044745029
 31
0.0
  0
LWPOLYLINE
  5
355
330
1F
100
AcDbEntity
  8
0-B_寸法
  6
Continuous
 62
     7
370
     9
100
AcDbPolyline
 90
        4
 70
     1
 43
3.0
 10
-1738.980483211898
 20
-1160.989871669122
 42
0.4142135623731
 10
-1740.480483211898
 20
-1159.489871669122
 42
0.4142135623731
 10
-1741.980483211898
 20
-1160.989871669122
 42
0.4142135623731
 10
-1740.480483211898
 20
-1162.489871669122
 42
0.4142135623731
  0
LINE
  5
356
330
1F
100
AcDbEntity
  8
0-B_寸法
  6
Continuous
 62
   120
370
     5
100
AcDbLine
 10
-1740.480483211898
 20
-1076.75294309015
 30
0.0
 11
-1740.480483211898
 21
-1160.989871669122
 31
0.0
  0
LINE
  5
357
330
1F
100
AcDbEntity
  8
0-6_扉
  6
Continuous
 62
   200
370
    20
100
AcDbLine
 10
-1860.480483211898
 20
-1918.00004474503
 30
0.0
 11
-1860.480483211898
 21
-3085.000334249622
 31
0.0
  0
LINE
  5
358
330
1F
100
AcDbEntity
  8
0-6_扉
  6
Continuous
 62
   200
370
    20
100
AcDbLine
 10
-1860.480483211898
 20
-558.9998344211808
 30
0.0
 11
-1860.480483211898
 21
-1798.000044745029
 31
0.0
  0
LWPOLYLINE
  5
359
330
1F
100
AcDbEntity
  8
0-B_寸法
  6
Continuous
 62
     7
370
     9
100
AcDbPolyline
 90
        4
 70
     1
 43
3.0
 10
-1858.980483211898
 20
-1160.989871669122
 42
0.4142135623731
 10
-1860.480483211898
 20
-1159.489871669122
 42
0.4142135623731
 10
-1861.980483211898
 20
-1160.989871669122
 42
0.4142135623731
 10
-1860.480483211898
 20
-1162.489871669122
 42
0.4142135623731
  0
LINE
  5
35A
330
1F
100
AcDbEntity
  8
0-B_寸法
  6
Continuous
 62
   120
370
     5
100
AcDbLine
 10
-1860.480483211898
 20
-1076.75294309015
 30
0.0
 11
-1860.480483211898
 21
-1160.989871669122
 31
0.0
  0
LINE
  5
35B
330
1F
100
AcDbEntity
  8
0-6_扉
  6
Continuous
 62
   200
370
    20
100
AcDbLine
 10
-1860.480483211898
 20
-558.9998344211808
 30
0.0
 11
-1740.480483211898
 21
-558.9998344211808
 31
0.0
  0
LINE
  5
35C
330
1F
100
AcDbEntity
  8
0-B_寸法
  6
Continuous
 62
   120
370
     5
100
AcDbLine
 10
-1860.480483211898
 20
-1160.989871669122
 30
0.0
 11
-1740.480483211898
 21
-1160.989871669122
 31
0.0
  0
LINE
  5
35D
330
1F
100
AcDbEntity
  8
0-6_扉
  6
Continuous
 62
   200
370
    20
100
AcDbLine
 10
-1740.480483211898
 20
-3085.000334249622
 30
0.0
 11
-1860.480483211898
 21
-3085.000334249622
 31
0.0
  0
MTEXT
  5
35E
330
1F
100
AcDbEntity
  8
F-A_文字
  6
Continuous
 62
     7
370
     0
100
AcDbMText
 10
4938.667793092893
 20
-3938.071010139966
 30
0.0
 40
78.86699999999999
 41
517.5
 46
0.0
 71
     7
 72
     1
  1
{\fＭＳ ゴシック|b0|i0|c128|p49;2024.04.01}
 73
     1
 44
1.0
  0
ENDSEC
  0
SECTION
  2
OBJECTS
  0
DICTIONARY
  5
C
330
0
100
AcDbDictionary
281
     1
  3
ACAD_GROUP
350
D
  3
ACAD_LAYOUT
350
1A
  3
ACAD_MATERIAL
350
3B
  3
ACAD_MLEADERSTYLE
350
387
  3
ACAD_MLINESTYLE
350
17
  3
ACAD_PLOTSETTINGS
350
19
  3
ACAD_PLOTSTYLENAME
350
E
  3
ACAD_TABLESTYLE
350
386
  3
ACAD_VISUALSTYLE
350
2A
  0
DICTIONARY
  5
D
102
{ACAD_REACTORS
330
C
102
}
330
C
100
AcDbDictionary
281
     1
  0
DICTIONARY
  5
1A
102
{ACAD_REACTORS
330
C
102
}
330
C
100
AcDbDictionary
281
     1
  3
Layout1
350
1E
  3
Layout2
350
26
  3
Model
350
22
  0
DICTIONARY
  5
3B
102
{ACAD_REACTORS
330
C
102
}
330
C
100
AcDbDictionary
281
     1
  3
ByBlock
350
3D
  3
ByLayer
350
3C
  3
Global
350
3E
  0
DICTIONARY
  5
387
102
{ACAD_REACTORS
330
C
102
}
330
C
100
AcDbDictionary
281
     1
  0
DICTIONARY
  5
17
102
{ACAD_REACTORS
330
C
102
}
330
C
100
AcDbDictionary
281
     1
  3
Standard
350
18
  0
DICTIONARY
  5
19
102
{ACAD_REACTORS
330
C
102
}
330
C
100
AcDbDictionary
281
     1
  0
ACDBDICTIONARYWDFLT
  5
E
102
{ACAD_REACTORS
330
C
102
}
330
C
100
AcDbDictionary
281
     1
  3
Normal
350
F
100
AcDbDictionaryWithDefault
340
F
  0
DICTIONARY
  5
386
102
{ACAD_REACTORS
330
C
102
}
330
C
100
AcDbDictionary
281
     1
  0
DICTIONARY
  5
2A
102
{ACAD_REACTORS
330
C
102
}
330
C
100
AcDbDictionary
281
     1
  3
2dWireframe
350
2F
  3
3D Hidden
350
31
  3
3dWireframe
350
30
  3
Basic
350
32
  3
Brighten
350
36
  3
ColorChange
350
3A
  3
Conceptual
350
34
  3
Dim
350
35
  3
Facepattern
350
39
  3
Flat
350
2B
  3
FlatWithEdges
350
2C
  3
Gouraud
350
2D
  3
GouraudWithEdges
350
2E
  3
Linepattern
350
38
  3
Realistic
350
33
  3
Thicken
350
37
  0
LAYOUT
  5
1E
102
{ACAD_REACTORS
330
1A
102
}
330
1A
100
AcDbPlotSettings
  1

  2
none_device
  4

  6

 40
0.0
 41
0.0
 42
0.0
 43
0.0
 44
0.0
 45
0.0
 46
0.0
 47
0.0
 48
0.0
 49
0.0
140
0.0
141
0.0
142
1.0
143
1.0
 70
   688
 72
     0
 73
     0
 74
     5
  7

 75
    16
 76
     0
 77
     5
 78
   300
147
1.0
148
0.0
149
0.0
100
AcDbLayout
  1
Layout1
 70
     1
 71
     1
 10
0.0
 20
0.0
 11
420.0
 21
297.0
 12
0.0
 22
0.0
 32
0.0
 14
1.000000000000000E+20
 24
1.000000000000000E+20
 34
1.000000000000000E+20
 15
-1.000000000000000E+20
 25
-1.000000000000000E+20
 35
-1.000000000000000E+20
146
0.0
 13
0.0
 23
0.0
 33
0.0
 16
1.0
 26
0.0
 36
0.0
 17
0.0
 27
1.0
 37
0.0
 76
     0
330
1B
  0
LAYOUT
  5
26
102
{ACAD_REACTORS
330
1A
102
}
330
1A
100
AcDbPlotSettings
  1

  2
none_device
  4

  6

 40
0.0
 41
0.0
 42
0.0
 43
0.0
 44
0.0
 45
0.0
 46
0.0
 47
0.0
 48
0.0
 49
0.0
140
0.0
141
0.0
142
1.0
143
1.0
 70
   688
 72
     0
 73
     0
 74
     5
  7

 75
    16
 76
     0
 77
     5
 78
   300
147
1.0
148
0.0
149
0.0
100
AcDbLayout
  1
Layout2
 70
     1
 71
     2
 10
0.0
 20
0.0
 11
0.0
 21
0.0
 12
0.0
 22
0.0
 32
0.0
 14
0.0
 24
0.0
 34
0.0
 15
0.0
 25
0.0
 35
0.0
146
0.0
 13
0.0
 23
0.0
 33
0.0
 16
1.0
 26
0.0
 36
0.0
 17
0.0
 27
1.0
 37
0.0
 76
     0
330
23
  0
LAYOUT
  5
22
102
{ACAD_REACTORS
330
1A
102
}
330
1A
100
AcDbPlotSettings
  1

  2
none_device
  4

  6

 40
0.0
 41
0.0
 42
0.0
 43
0.0
 44
0.0
 45
0.0
 46
0.0
 47
0.0
 48
0.0
 49
0.0
140
0.0
141
0.0
142
1.0
143
1.0
 70
  1712
 72
     0
 73
     0
 74
     0
  7

 75
     0
 76
     0
 77
     5
 78
   300
147
1.0
148
0.0
149
0.0
100
AcDbLayout
  1
Model
 70
     1
 71
     0
 10
-6300.0
 20
-4455.0
 11
6300.0
 21
4455.0
 12
0.0
 22
0.0
 32
0.0
 14
-6300.0
 24
-4455.0
 34
0.0
 15
6300.0
 25
4455.0
 35
0.0
146
0.0
 13
0.0
 23
0.0
 33
0.0
 16
1.0
 26
0.0
 36
0.0
 17
0.0
 27
1.0
 37
0.0
 76
     0
330
1F
331
29
  0
MATERIAL
  5
3D
102
{ACAD_REACTORS
330
3B
102
}
330
3B
100
AcDbMaterial
  1
ByBlock
 72
     1
 94
      127
  0
MATERIAL
  5
3C
102
{ACAD_REACTORS
330
3B
102
}
330
3B
100
AcDbMaterial
  1
ByLayer
 72
     1
 94
      127
  0
MATERIAL
  5
3E
102
{ACAD_REACTORS
330
3B
102
}
330
3B
100
AcDbMaterial
  1
Global
 72
     1
 94
      127
  0
MLINESTYLE
  5
18
102
{ACAD_REACTORS
330
17
102
}
330
17
100
AcDbMlineStyle
  2
Standard
 70
     0
  3

 62
   256
 51
90.0
 52
90.0
 71
     2
 49
0.5
 62
   256
  6
BYLAYER
 49
-0.5
 62
   256
  6
BYLAYER
  0
ACDBPLACEHOLDER
  5
F
102
{ACAD_REACTORS
330
E
102
}
330
E
  0
VISUALSTYLE
  5
2F
102
{ACAD_REACTORS
330
2A
102
}
330
2A
100
AcDbVisualStyle
  2
2dWireframe
 70
     4
177
     2
291
     0
 71
     0
176
     1
 72
     2
176
     1
 73
     0
176
     1
 90
        0
176
     1
 40
-0.6
176
     1
 41
-30.0
176
     1
 62
     5
 63
     7
421
 16777215
176
     1
 74
     1
176
     1
 91
        4
176
     1
 64
     7
176
     1
 65
   257
176
     1
 75
     1
176
     1
175
     1
176
     1
 42
1.0
176
     1
 92
        0
176
     1
 66
   257
176
     1
 43
1.0
176
     1
 76
     1
176
     1
 77
     6
176
     1
 78
     2
176
     1
 67
     7
176
     1
 79
     5
176
     1
170
     0
176
     1
171
     0
176
     1
290
     0
176
     1
 93
        1
176
     1
 44
0.0
176
     1
173
     0
176
     1
  0
VISUALSTYLE
  5
31
102
{ACAD_REACTORS
330
2A
102
}
330
2A
100
AcDbVisualStyle
  2
3D Hidden
 70
     6
177
     2
291
     0
 71
     1
176
     1
 72
     2
176
     1
 73
     2
176
     1
 90
        0
176
     1
 40
-0.6
176
     1
 41
-30.0
176
     1
 62
     5
 63
     7
421
 16777215
176
     1
 74
     2
176
     1
 91
        2
176
     1
 64
     7
176
     1
 65
   257
176
     1
 75
     2
176
     1
175
     1
176
     1
 42
40.0
176
     1
 92
        0
176
     1
 66
   257
176
     1
 43
1.0
176
     1
 76
     1
176
     1
 77
     6
176
     1
 78
     2
176
     1
 67
     7
176
     1
 79
     3
176
     1
170
     0
176
     1
171
     0
176
     1
290
     0
176
     1
 93
        1
176
     1
 44
0.0
176
     1
173
     0
176
     1
  0
VISUALSTYLE
  5
30
102
{ACAD_REACTORS
330
2A
102
}
330
2A
100
AcDbVisualStyle
  2
3dWireframe
 70
     5
177
     2
291
     0
 71
     0
176
     1
 72
     2
176
     1
 73
     0
176
     1
 90
        0
176
     1
 40
-0.6
176
     1
 41
-30.0
176
     1
 62
     5
 63
     7
421
 16777215
176
     1
 74
     1
176
     1
 91
        4
176
     1
 64
     7
176
     1
 65
   257
176
     1
 75
     1
176
     1
175
     1
176
     1
 42
1.0
176
     1
 92
        0
176
     1
 66
   257
176
     1
 43
1.0
176
     1
 76
     1
176
     1
 77
     6
176
     1
 78
     2
176
     1
 67
     7
176
     1
 79
     5
176
     1
170
     0
176
     1
171
     0
176
     1
290
     0
176
     1
 93
        1
176
     1
 44
0.0
176
     1
173
     0
176
     1
  0
VISUALSTYLE
  5
32
102
{ACAD_REACTORS
330
2A
102
}
330
2A
100
AcDbVisualStyle
  2
Basic
 70
     7
177
     2
291
     1
 71
     1
176
     1
 72
     0
176
     1
 73
     1
176
     1
 90
        0
176
     1
 40
-0.6
176
     1
 41
-30.0
176
     1
 62
     5
 63
     7
421
 16777215
176
     1
 74
     0
176
     1
 91
        4
176
     1
 64
     7
176
     1
 65
   257
176
     1
 75
     1
176
     1
175
     1
176
     1
 42
1.0
176
     1
 92
        8
176
     1
 66
     7
176
     1
 43
1.0
176
     1
 76
     1
176
     1
 77
     6
176
     1
 78
     2
176
     1
 67
     7
176
     1
 79
     5
176
     1
170
     0
176
     1
171
     0
176
     1
290
     0
176
     1
 93
        1
176
     1
 44
0.0
176
     1
173
     0
176
     1
  0
VISUALSTYLE
  5
36
102
{ACAD_REACTORS
330
2A
102
}
330
2A
100
AcDbVisualStyle
  2
Brighten
 70
    12
177
     2
291
     1
 71
     2
176
     1
 72
     2
176
     1
 73
     0
176
     1
 90
        0
176
     1
 40
-0.6
176
     1
 41
-30.0
176
     1
 62
     5
 63
     7
421
 16777215
176
     1
 74
     1
176
     1
 91
        4
176
     1
 64
     7
176
     1
 65
   257
176
     1
 75
     1
176
     1
175
     1
176
     1
 42
1.0
176
     1
 92
        8
176
     1
 66
     7
176
     1
 43
1.0
176
     1
 76
     1
176
     1
 77
     6
176
     1
 78
     2
176
     1
 67
     7
176
     1
 79
     5
176
     1
170
     0
176
     1
171
     0
176
     1
290
     0
176
     1
 93
        1
176
     1
 44
50.0
176
     1
173
     0
176
     1
  0
VISUALSTYLE
  5
3A
102
{ACAD_REACTORS
330
2A
102
}
330
2A
100
AcDbVisualStyle
  2
ColorChange
 70
    16
177
     2
291
     1
 71
     2
176
     1
 72
     2
176
     1
 73
     3
176
     1
 90
        0
176
     1
 40
-0.6
176
     1
 41
-30.0
176
     1
 62
     5
 63
     8
421
  8421504
176
     1
 74
     1
176
     1
 91
        4
176
     1
 64
     7
176
     1
 65
   257
176
     1
 75
     1
176
     1
175
     1
176
     1
 42
1.0
176
     1
 92
        8
176
     1
 66
     8
424
  8421504
176
     1
 43
1.0
176
     1
 76
     1
176
     1
 77
     6
176
     1
 78
     2
176
     1
 67
     7
176
     1
 79
     5
176
     1
170
     0
176
     1
171
     0
176
     1
290
     0
176
     1
 93
        1
176
     1
 44
0.0
176
     1
173
     0
176
     1
  0
VISUALSTYLE
  5
34
102
{ACAD_REACTORS
330
2A
102
}
330
2A
100
AcDbVisualStyle
  2
Conceptual
 70
     9
177
     2
291
     0
 71
     3
176
     1
 72
     2
176
     1
 73
     0
176
     1
 90
        0
176
     1
 40
-0.6
176
     1
 41
-30.0
176
     1
 62
     5
 63
     7
421
 16777215
176
     1
 74
     2
176
     1
 91
        2
176
     1
 64
     7
176
     1
 65
   257
176
     1
 75
     1
176
     1
175
     1
176
     1
 42
40.0
176
     1
 92
        8
176
     1
 66
     7
176
     1
 43
1.0
176
     1
 76
     1
176
     1
 77
     6
176
     1
 78
     2
176
     1
 67
     7
176
     1
 79
     3
176
     1
170
     0
176
     1
171
     0
176
     1
290
     0
176
     1
 93
        1
176
     1
 44
0.0
176
     1
173
     0
176
     1
  0
VISUALSTYLE
  5
35
102
{ACAD_REACTORS
330
2A
102
}
330
2A
100
AcDbVisualStyle
  2
Dim
 70
    11
177
     2
291
     1
 71
     2
176
     1
 72
     2
176
     1
 73
     0
176
     1
 90
        0
176
     1
 40
-0.6
176
     1
 41
-30.0
176
     1
 62
     5
 63
     7
421
 16777215
176
     1
 74
     1
176
     1
 91
        4
176
     1
 64
     7
176
     1
 65
   257
176
     1
 75
     1
176
     1
175
     1
176
     1
 42
1.0
176
     1
 92
        8
176
     1
 66
     7
176
     1
 43
1.0
176
     1
 76
     1
176
     1
 77
     6
176
     1
 78
     2
176
     1
 67
     7
176
     1
 79
     5
176
     1
170
     0
176
     1
171
     0
176
     1
290
     0
176
     1
 93
        1
176
     1
 44
-50.0
176
     1
173
     0
176
     1
  0
VISUALSTYLE
  5
39
102
{ACAD_REACTORS
330
2A
102
}
330
2A
100
AcDbVisualStyle
  2
Facepattern
 70
    15
177
     2
291
     1
 71
     2
176
     1
 72
     2
176
     1
 73
     0
176
     1
 90
        0
176
     1
 40
-0.6
176
     1
 41
-30.0
176
     1
 62
     5
 63
     7
421
 16777215
176
     1
 74
     1
176
     1
 91
        4
176
     1
 64
     7
176
     1
 65
   257
176
     1
 75
     1
176
     1
175
     1
176
     1
 42
1.0
176
     1
 92
        8
176
     1
 66
     7
176
     1
 43
1.0
176
     1
 76
     1
176
     1
 77
     6
176
     1
 78
     2
176
     1
 67
     7
176
     1
 79
     5
176
     1
170
     0
176
     1
171
     0
176
     1
290
     0
176
     1
 93
        1
176
     1
 44
0.0
176
     1
173
     0
176
     1
  0
VISUALSTYLE
  5
2B
102
{ACAD_REACTORS
330
2A
102
}
330
2A
100
AcDbVisualStyle
  2
Flat
 70
     0
177
     2
291
     1
 71
     2
176
     1
 72
     1
176
     1
 73
     1
176
     1
 90
        2
176
     1
 40
-0.6
176
     1
 41
30.0
176
     1
 62
     5
 63
     7
421
 16777215
176
     1
 74
     0
176
     1
 91
        4
176
     1
 64
     7
176
     1
 65
   257
176
     1
 75
     1
176
     1
175
     1
176
     1
 42
1.0
176
     1
 92
        8
176
     1
 66
     7
176
     1
 43
1.0
176
     1
 76
     1
176
     1
 77
     6
176
     1
 78
     2
176
     1
 67
     7
176
     1
 79
     5
176
     1
170
     0
176
     1
171
     0
176
     1
290
     0
176
     1
 93
       13
176
     1
 44
0.0
176
     1
173
     0
176
     1
  0
VISUALSTYLE
  5
2C
102
{ACAD_REACTORS
330
2A
102
}
330
2A
100
AcDbVisualStyle
  2
FlatWithEdges
 70
     1
177
     2
291
     1
 71
     2
176
     1
 72
     1
176
     1
 73
     1
176
     1
 90
        2
176
     1
 40
-0.6
176
     1
 41
30.0
176
     1
 62
     5
 63
     7
421
 16777215
176
     1
 74
     1
176
     1
 91
        4
176
     1
 64
     7
176
     1
 65
   257
176
     1
 75
     1
176
     1
175
     1
176
     1
 42
1.0
176
     1
 92
        0
176
     1
 66
   257
176
     1
 43
1.0
176
     1
 76
     1
176
     1
 77
     6
176
     1
 78
     2
176
     1
 67
     7
176
     1
 79
     5
176
     1
170
     0
176
     1
171
     0
176
     1
290
     0
176
     1
 93
       13
176
     1
 44
0.0
176
     1
173
     0
176
     1
  0
VISUALSTYLE
  5
2D
102
{ACAD_REACTORS
330
2A
102
}
330
2A
100
AcDbVisualStyle
  2
Gouraud
 70
     2
177
     2
291
     1
 71
     2
176
     1
 72
     2
176
     1
 73
     1
176
     1
 90
        2
176
     1
 40
-0.6
176
     1
 41
30.0
176
     1
 62
     5
 63
     7
421
 16777215
176
     1
 74
     0
176
     1
 91
        4
176
     1
 64
     7
176
     1
 65
   257
176
     1
 75
     1
176
     1
175
     1
176
     1
 42
1.0
176
     1
 92
        0
176
     1
 66
     7
176
     1
 43
1.0
176
     1
 76
     1
176
     1
 77
     6
176
     1
 78
     2
176
     1
 67
     7
176
     1
 79
     5
176
     1
170
     0
176
     1
171
     0
176
     1
290
     0
176
     1
 93
       13
176
     1
 44
0.0
176
     1
173
     0
176
     1
  0
VISUALSTYLE
  5
2E
102
{ACAD_REACTORS
330
2A
102
}
330
2A
100
AcDbVisualStyle
  2
GouraudWithEdges
 70
     3
177
     2
291
     1
 71
     2
176
     1
 72
     2
176
     1
 73
     1
176
     1
 90
        2
176
     1
 40
-0.6
176
     1
 41
30.0
176
     1
 62
     5
 63
     7
421
 16777215
176
     1
 74
     1
176
     1
 91
        4
176
     1
 64
     7
176
     1
 65
   257
176
     1
 75
     1
176
     1
175
     1
176
     1
 42
1.0
176
     1
 92
        0
176
     1
 66
   257
176
     1
 43
1.0
176
     1
 76
     1
176
     1
 77
     6
176
     1
 78
     2
176
     1
 67
     7
176
     1
 79
     5
176
     1
170
     0
176
     1
171
     0
176
     1
290
     0
176
     1
 93
       13
176
     1
 44
0.0
176
     1
173
     0
176
     1
  0
VISUALSTYLE
  5
38
102
{ACAD_REACTORS
330
2A
102
}
330
2A
100
AcDbVisualStyle
  2
Linepattern
 70
    14
177
     2
291
     1
 71
     2
176
     1
 72
     2
176
     1
 73
     0
176
     1
 90
        0
176
     1
 40
-0.6
176
     1
 41
-30.0
176
     1
 62
     5
 63
     7
421
 16777215
176
     1
 74
     1
176
     1
 91
        4
176
     1
 64
     7
176
     1
 65
   257
176
     1
 75
     7
176
     1
175
     7
176
     1
 42
1.0
176
     1
 92
        8
176
     1
 66
     7
176
     1
 43
1.0
176
     1
 76
     1
176
     1
 77
     6
176
     1
 78
     2
176
     1
 67
     7
176
     1
 79
     5
176
     1
170
     0
176
     1
171
     0
176
     1
290
     0
176
     1
 93
        1
176
     1
 44
0.0
176
     1
173
     0
176
     1
  0
VISUALSTYLE
  5
33
102
{ACAD_REACTORS
330
2A
102
}
330
2A
100
AcDbVisualStyle
  2
Realistic
 70
     8
177
     2
291
     0
 71
     2
176
     1
 72
     2
176
     1
 73
     0
176
     1
 90
        0
176
     1
 40
-0.6
176
     1
 41
-30.0
176
     1
 62
     5
 63
     7
421
 16777215
176
     1
 74
     1
176
     1
 91
        0
176
     1
 64
     7
176
     1
 65
   257
176
     1
 75
     1
176
     1
175
     1
176
     1
 42
1.0
176
     1
 92
        8
176
     1
 66
     8
424
  7895160
176
     1
 43
1.0
176
     1
 76
     1
176
     1
 77
     6
176
     1
 78
     2
176
     1
 67
     7
176
     1
 79
     5
176
     1
170
     0
176
     1
171
     0
176
     1
290
     0
176
     1
 93
       13
176
     1
 44
0.0
176
     1
173
     0
176
     1
  0
VISUALSTYLE
  5
37
102
{ACAD_REACTORS
330
2A
102
}
330
2A
100
AcDbVisualStyle
  2
Thicken
 70
    13
177
     2
291
     1
 71
     2
176
     1
 72
     2
176
     1
 73
     0
176
     1
 90
        0
176
     1
 40
-0.6
176
     1
 41
-30.0
176
     1
 62
     5
 63
     7
421
 16777215
176
     1
 74
     1
176
     1
 91
        4
176
     1
 64
     7
176
     1
 65
   257
176
     1
 75
     1
176
     1
175
     1
176
     1
 42
1.0
176
     1
 92
       12
176
     1
 66
     7
176
     1
 43
1.0
176
     1
 76
     1
176
     1
 77
     6
176
     1
 78
     2
176
     1
 67
     7
176
     1
 79
     5
176
     1
170
     0
176
     1
171
     0
176
     1
290
     0
176
     1
 93
        1
176
     1
 44
0.0
176
     1
173
     0
176
     1
  0
ENDSEC
  0
EOF
