  0
SECTION
  2
HEADER
  9
$ACADVER
  1
AC1024
  9
$ACADMAINTVER
 70
     6
  9
$DWGCODEPAGE
  3
ANSI_932
  9
$INSBASE
 10
0.0
 20
0.0
 30
0.0
  9
$EXTMIN
 10
-6300.0
 20
-4455.0
 30
0.0
  9
$EXTMAX
 10
6300.0
 20
4455.0
 30
0.0
  9
$LIMMIN
 10
-6300.0
 20
-4455.0
  9
$LIMMAX
 10
6300.0
 20
4455.0
  9
$ORTHOMODE
 70
     0
  9
$REGENMODE
 70
     1
  9
$FILLMODE
 70
     1
  9
$QTEXTMODE
 70
     0
  9
$MIRRTEXT
 70
     1
  9
$LTSCALE
 40
30.0
  9
$ATTMODE
 70
     1
  9
$TEXTSIZE
 40
2.5
  9
$TRACEWID
 40
1.0
  9
$TEXTSTYLE
  7
Standard
  9
$CLAYER
  8
0
  9
$CELTYPE
  6
ByLayer
  9
$CECOLOR
 62
   256
  9
$CELTSCALE
 40
1.0
  9
$DISPSILH
 70
     0
  9
$DIMSCALE
 40
1.0
  9
$DIMASZ
 40
2.5
  9
$DIMEXO
 40
0.625
  9
$DIMDLI
 40
3.75
  9
$DIMRND
 40
0.0
  9
$DIMDLE
 40
0.0
  9
$DIMEXE
 40
1.25
  9
$DIMTP
 40
0.0
  9
$DIMTM
 40
0.0
  9
$DIMTXT
 40
2.5
  9
$DIMCEN
 40
2.5
  9
$DIMTSZ
 40
0.0
  9
$DIMTOL
 70
     0
  9
$DIMLIM
 70
     0
  9
$DIMTIH
 70
     0
  9
$DIMTOH
 70
     0
  9
$DIMSE1
 70
     0
  9
$DIMSE2
 70
     0
  9
$DIMTAD
 70
     1
  9
$DIMZIN
 70
     8
  9
$DIMBLK
  1

  9
$DIMASO
 70
     1
  9
$DIMSHO
 70
     1
  9
$DIMPOST
  1

  9
$DIMAPOST
  1

  9
$DIMALT
 70
     0
  9
$DIMALTD
 70
     3
  9
$DIMALTF
 40
0.03937007874016
  9
$DIMLFAC
 40
1.0
  9
$DIMTOFL
 70
     1
  9
$DIMTVP
 40
0.0
  9
$DIMTIX
 70
     0
  9
$DIMSOXD
 70
     0
  9
$DIMSAH
 70
     0
  9
$DIMBLK1
  1

  9
$DIMBLK2
  1

  9
$DIMSTYLE
  2
ISO-25
  9
$DIMCLRD
 70
     0
  9
$DIMCLRE
 70
     0
  9
$DIMCLRT
 70
     0
  9
$DIMTFAC
 40
1.0
  9
$DIMGAP
 40
0.625
  9
$DIMJUST
 70
     0
  9
$DIMSD1
 70
     0
  9
$DIMSD2
 70
     0
  9
$DIMTOLJ
 70
     0
  9
$DIMTZIN
 70
     8
  9
$DIMALTZ
 70
     0
  9
$DIMALTTZ
 70
     0
  9
$DIMUPT
 70
     0
  9
$DIMDEC
 70
     2
  9
$DIMTDEC
 70
     2
  9
$DIMALTU
 70
     2
  9
$DIMALTTD
 70
     3
  9
$DIMTXSTY
  7
Standard
  9
$DIMAUNIT
 70
     0
  9
$DIMADEC
 70
     0
  9
$DIMALTRND
 40
0.0
  9
$DIMAZIN
 70
     0
  9
$DIMDSEP
 70
    44
  9
$DIMATFIT
 70
     3
  9
$DIMFRAC
 70
     0
  9
$DIMLDRBLK
  1

  9
$DIMLUNIT
 70
     2
  9
$DIMLWD
 70
    -2
  9
$DIMLWE
 70
    -2
  9
$DIMTMOVE
 70
     0
  9
$DIMFXL
 40
1.0
  9
$DIMFXLON
 70
     0
  9
$DIMJOGANG
 40
0.7853981633974483
  9
$DIMTFILL
 70
     0
  9
$DIMTFILLCLR
 70
     0
  9
$DIMARCSYM
 70
     0
  9
$DIMLTYPE
  6

  9
$DIMLTEX1
  6

  9
$DIMLTEX2
  6

  9
$DIMTXTDIRECTION
 70
     0
  9
$LUNITS
 70
     2
  9
$LUPREC
 70
     4
  9
$SKETCHINC
 40
1.0
  9
$FILLETRAD
 40
10.0
  9
$AUNITS
 70
     0
  9
$AUPREC
 70
     0
  9
$MENU
  1
.
  9
$ELEVATION
 40
0.0
  9
$PELEVATION
 40
0.0
  9
$THICKNESS
 40
0.0
  9
$LIMCHECK
 70
     0
  9
$CHAMFERA
 40
10.0
  9
$CHAMFERB
 40
10.0
  9
$CHAMFERC
 40
20.0
  9
$CHAMFERD
 40
0.0
  9
$SKPOLY
 70
     0
  9
$TDCREATE
 40
2460327.688877616
  9
$TDUCREATE
 40
2460327.313877616
  9
$TDUPDATE
 40
2460327.688877627
  9
$TDUUPDATE
 40
2460327.313877627
  9
$TDINDWG
 40
0.0000000116
  9
$TDUSRTIMER
 40
0.0000000116
  9
$USRTIMER
 70
     1
  9
$ANGBASE
 50
0.0
  9
$ANGDIR
 70
     0
  9
$PDMODE
 70
     0
  9
$PDSIZE
 40
0.0
  9
$PLINEWID
 40
0.0
  9
$SPLFRAME
 70
     0
  9
$SPLINETYPE
 70
     6
  9
$SPLINESEGS
 70
     8
  9
$HANDSEED
  5
388
  9
$SURFTAB1
 70
     6
  9
$SURFTAB2
 70
     6
  9
$SURFTYPE
 70
     6
  9
$SURFU
 70
     6
  9
$SURFV
 70
     6
  9
$UCSBASE
  2

  9
$UCSNAME
  2

  9
$UCSORG
 10
0.0
 20
0.0
 30
0.0
  9
$UCSXDIR
 10
1.0
 20
0.0
 30
0.0
  9
$UCSYDIR
 10
0.0
 20
1.0
 30
0.0
  9
$UCSORTHOREF
  2

  9
$UCSORTHOVIEW
 70
     0
  9
$UCSORGTOP
 10
0.0
 20
0.0
 30
0.0
  9
$UCSORGBOTTOM
 10
0.0
 20
0.0
 30
0.0
  9
$UCSORGLEFT
 10
0.0
 20
0.0
 30
0.0
  9
$UCSORGRIGHT
 10
0.0
 20
0.0
 30
0.0
  9
$UCSORGFRONT
 10
0.0
 20
0.0
 30
0.0
  9
$UCSORGBACK
 10
0.0
 20
0.0
 30
0.0
  9
$PUCSBASE
  2

  9
$PUCSNAME
  2

  9
$PUCSORG
 10
0.0
 20
0.0
 30
0.0
  9
$PUCSXDIR
 10
1.0
 20
0.0
 30
0.0
  9
$PUCSYDIR
 10
0.0
 20
1.0
 30
0.0
  9
$PUCSORTHOREF
  2

  9
$PUCSORTHOVIEW
 70
     0
  9
$PUCSORGTOP
 10
0.0
 20
0.0
 30
0.0
  9
$PUCSORGBOTTOM
 10
0.0
 20
0.0
 30
0.0
  9
$PUCSORGLEFT
 10
0.0
 20
0.0
 30
0.0
  9
$PUCSORGRIGHT
 10
0.0
 20
0.0
 30
0.0
  9
$PUCSORGFRONT
 10
0.0
 20
0.0
 30
0.0
  9
$PUCSORGBACK
 10
0.0
 20
0.0
 30
0.0
  9
$USERI1
 70
     0
  9
$USERI2
 70
     0
  9
$USERI3
 70
     0
  9
$USERI4
 70
     0
  9
$USERI5
 70
     0
  9
$USERR1
 40
0.0
  9
$USERR2
 40
0.0
  9
$USERR3
 40
0.0
  9
$USERR4
 40
0.0
  9
$USERR5
 40
0.0
  9
$WORLDVIEW
 70
     1
  9
$SHADEDGE
 70
     3
  9
$SHADEDIF
 70
    70
  9
$TILEMODE
 70
     1
  9
$MAXACTVP
 70
    64
  9
$PINSBASE
 10
0.0
 20
0.0
 30
0.0
  9
$PLIMCHECK
 70
     0
  9
$PEXTMIN
 10
1.000000000000000E+20
 20
1.000000000000000E+20
 30
1.000000000000000E+20
  9
$PEXTMAX
 10
-1.000000000000000E+20
 20
-1.000000000000000E+20
 30
-1.000000000000000E+20
  9
$PLIMMIN
 10
0.0
 20
0.0
  9
$PLIMMAX
 10
420.0
 20
297.0
  9
$UNITMODE
 70
     0
  9
$VISRETAIN
 70
     1
  9
$PLINEGEN
 70
     0
  9
$PSLTSCALE
 70
     1
  9
$TREEDEPTH
 70
  3020
  9
$CMLSTYLE
  2
Standard
  9
$CMLJUST
 70
     0
  9
$CMLSCALE
 40
20.0
  9
$PROXYGRAPHICS
 70
     1
  9
$MEASUREMENT
 70
     1
  9
$CELWEIGHT
370
    -1
  9
$ENDCAPS
280
     0
  9
$JOINSTYLE
280
     0
  9
$LWDISPLAY
290
     0
  9
$INSUNITS
 70
     4
  9
$HYPERLINKBASE
  1

  9
$STYLESHEET
  1

  9
$XEDIT
290
     1
  9
$CEPSNTYPE
380
     0
  9
$PSTYLEMODE
290
     1
  9
$FINGERPRINTGUID
  2
{B56A0BF7-E170-4461-B11C-E48ECF0706F3}
  9
$VERSIONGUID
  2
{FAEB1C32-E019-11D5-929B-00C0DF256EC4}
  9
$EXTNAMES
290
     1
  9
$PSVPSCALE
 40
0.0
  9
$OLESTARTUP
290
     0
  9
$SORTENTS
280
   127
  9
$INDEXCTL
280
     0
  9
$HIDETEXT
280
     1
  9
$XCLIPFRAME
280
     2
  9
$HALOGAP
280
     0
  9
$OBSCOLOR
 70
   257
  9
$OBSLTYPE
280
     0
  9
$INTERSECTIONDISPLAY
280
     0
  9
$INTERSECTIONCOLOR
 70
   257
  9
$DIMASSOC
280
     2
  9
$PROJECTNAME
  1

  9
$CAMERADISPLAY
290
     0
  9
$LENSLENGTH
 40
50.0
  9
$CAMERAHEIGHT
 40
0.0
  9
$STEPSPERSEC
 40
2.0
  9
$STEPSIZE
 40
6.0
  9
$3DDWFPREC
 40
2.0
  9
$PSOLWIDTH
 40
5.0
  9
$PSOLHEIGHT
 40
80.0
  9
$LOFTANG1
 40
1.570796326794897
  9
$LOFTANG2
 40
1.570796326794897
  9
$LOFTMAG1
 40
0.0
  9
$LOFTMAG2
 40
0.0
  9
$LOFTPARAM
 70
     7
  9
$LOFTNORMALS
280
     1
  9
$LATITUDE
 40
37.795
  9
$LONGITUDE
 40
-122.394
  9
$NORTHDIRECTION
 40
0.0
  9
$TIMEZONE
 70
 -8000
  9
$LIGHTGLYPHDISPLAY
280
     1
  9
$TILEMODELIGHTSYNCH
280
     1
  9
$SOLIDHIST
280
     1
  9
$SHOWHIST
280
     1
  9
$DWFFRAME
280
     2
  9
$DGNFRAME
280
     2
  9
$REALWORLDSCALE
290
     1
  9
$INTERFERECOLOR
 62
   256
  9
$CSHADOW
280
     0
  9
$SHADOWPLANELOCATION
 40
0.0
  0
ENDSEC
  0
SECTION
  2
CLASSES
  0
CLASS
  1
ACDBDICTIONARYWDFLT
  2
AcDbDictionaryWithDefault
  3
ObjectDBX Classes
 90
        0
 91
        4
280
     0
281
     0
  0
CLASS
  1
VISUALSTYLE
  2
AcDbVisualStyle
  3
ObjectDBX Classes
 90
     4095
 91
        4
280
     0
281
     0
  0
CLASS
  1
MATERIAL
  2
AcDbMaterial
  3
ObjectDBX Classes
 90
     1153
 91
        4
280
     0
281
     0
  0
ENDSEC
  0
SECTION
  2
TABLES
  0
TABLE
  2
VPORT
  5
8
330
0
100
AcDbSymbolTable
 70
     1
  0
VPORT
  5
29
330
8
100
AcDbSymbolTableRecord
100
AcDbViewportTableRecord
  2
*Active
 70
     0
 10
0.0
 20
0.0
 11
1.0
 21
1.0
 12
0.0
 22
0.0
 13
0.0
 23
0.0
 14
10.0
 24
10.0
 15
10.0
 25
10.0
 16
0.0
 26
0.0
 36
1.0
 17
0.0
 27
0.0
 37
0.0
 40
9801.0
 41
1.414141414141414
 42
50.0
 43
0.0
 44
0.0
 50
0.0
 51
0.0
 71
     0
 72
 10000
 73
     1
 74
     3
 75
     0
 76
     0
 77
     0
 78
     0
281
     0
 65
     1
110
0.0
120
0.0
130
0.0
111
1.0
121
0.0
131
0.0
112
0.0
122
1.0
132
0.0
 79
     0
146
0.0
 60
     3
 61
     5
292
     1
282
     1
141
0.0
142
0.0
 63
   250
  0
ENDTAB
  0
TABLE
  2
LTYPE
  5
5
330
0
100
AcDbSymbolTable
 70
     5
  0
LTYPE
  5
14
330
5
100
AcDbSymbolTableRecord
100
AcDbLinetypeTableRecord
  2
ByBlock
 70
     0
  3

 72
    65
 73
     0
 40
0.0
  0
LTYPE
  5
15
330
5
100
AcDbSymbolTableRecord
100
AcDbLinetypeTableRecord
  2
ByLayer
 70
     0
  3

 72
    65
 73
     0
 40
0.0
  0
LTYPE
  5
16
330
5
100
AcDbSymbolTableRecord
100
AcDbLinetypeTableRecord
  2
Continuous
 70
     0
  3
Solid line
 72
    65
 73
     0
 40
0.0
  0
LTYPE
  5
3F
330
5
100
AcDbSymbolTableRecord
100
AcDbLinetypeTableRecord
  2
JWW_HOJO
 70
     0
  3
  -   -   -   -   -   -   -   - 
 72
    65
 73
     2
 40
1.693333333333333
 49
-1.27
 74
     0
 49
0.4233333333333333
 74
     0
  0
LTYPE
  5
40
330
5
100
AcDbSymbolTableRecord
100
AcDbLinetypeTableRecord
  2
JWW_DASHED2
 70
     0
  3
--    ----    ----    ----    --
 72
    65
 73
     2
 40
3.386666666666667
 49
1.693333333333333
 74
     0
 49
-1.693333333333333
 74
     0
  0
LTYPE
  5
41
330
5
100
AcDbSymbolTableRecord
100
AcDbLinetypeTableRecord
  2
JWW_CENTER1
 70
     0
  3
-----  --  ----------  --  -----
 72
    65
 73
     4
 40
6.773333333333333
 49
4.233333333333333
 74
     0
 49
-0.8466666666666667
 74
     0
 49
0.8466666666666667
 74
     0
 49
-0.8466666666666667
 74
     0
  0
LTYPE
  5
42
330
5
100
AcDbSymbolTableRecord
100
AcDbLinetypeTableRecord
  2
JWW_DASHED1
 70
     0
  3
-  --  --  --  --  --  --  --  -
 72
    65
 73
     2
 40
1.693333333333333
 49
0.8466666666666667
 74
     0
 49
-0.8466666666666667
 74
     0
  0
ENDTAB
  0
TABLE
  2
LAYER
  5
2
330
0
100
AcDbSymbolTable
 70
    15
  0
LAYER
  5
10
330
2
100
AcDbSymbolTableRecord
100
AcDbLayerTableRecord
  2
0
 70
     0
 62
     7
  6
Continuous
370
    -3
390
F
347
3E
  0
LAYER
  5
43
330
2
100
AcDbSymbolTableRecord
100
AcDbLayerTableRecord
  2
F-0_補助線
 70
     0
 62
     7
  6
Continuous
370
    -3
390
F
347
3E
  0
LAYER
  5
44
330
2
100
AcDbSymbolTableRecord
100
AcDbLayerTableRecord
  2
F-1_枠
 70
     0
 62
     7
  6
Continuous
370
    -3
390
F
347
3E
  0
LAYER
  5
45
330
2
100
AcDbSymbolTableRecord
100
AcDbLayerTableRecord
  2
F-A_文字
 70
     0
 62
     7
  6
Continuous
370
    -3
390
F
347
3E
  0
LAYER
  5
46
330
2
100
AcDbSymbolTableRecord
100
AcDbLayerTableRecord
  2
0-A_文字
 70
     0
 62
     7
  6
Continuous
370
    -3
390
F
347
3E
  0
LAYER
  5
47
330
2
100
AcDbSymbolTableRecord
100
AcDbLayerTableRecord
  2
戸当り
 70
     0
 62
     7
  6
Continuous
370
    -3
390
F
347
3E
  0
LAYER
  5
48
330
2
100
AcDbSymbolTableRecord
100
AcDbLayerTableRecord
  2
0-0_補助線
 70
     0
 62
     7
  6
Continuous
370
    -3
390
F
347
3E
  0
LAYER
  5
49
330
2
100
AcDbSymbolTableRecord
100
AcDbLayerTableRecord
  2
0-B_寸法
 70
     0
 62
     7
  6
Continuous
370
    -3
390
F
347
3E
  0
LAYER
  5
4A
330
2
100
AcDbSymbolTableRecord
100
AcDbLayerTableRecord
  2
0-1_通り芯
 70
     0
 62
     7
  6
Continuous
370
    -3
390
F
347
3E
  0
LAYER
  5
4B
330
2
100
AcDbSymbolTableRecord
100
AcDbLayerTableRecord
  2
0-7_金物
 70
     0
 62
     7
  6
Continuous
370
    -3
390
F
347
3E
  0
LAYER
  5
4C
330
2
100
AcDbSymbolTableRecord
100
AcDbLayerTableRecord
  2
0-6_扉
 70
     0
 62
     7
  6
Continuous
370
    -3
390
F
347
3E
  0
LAYER
  5
4D
330
2
100
AcDbSymbolTableRecord
100
AcDbLayerTableRecord
  2
0-C_ハッチ
 70
     0
 62
     7
  6
Continuous
370
    -3
390
F
347
3E
  0
LAYER
  5
4E
330
2
100
AcDbSymbolTableRecord
100
AcDbLayerTableRecord
  2
0-4_枠
 70
     0
 62
     7
  6
Continuous
370
    -3
390
F
347
3E
  0
LAYER
  5
4F
330
2
100
AcDbSymbolTableRecord
100
AcDbLayerTableRecord
  2
0-3_仕上げ
 70
     0
 62
     7
  6
Continuous
370
    -3
390
F
347
3E
  0
LAYER
  5
50
330
2
100
AcDbSymbolTableRecord
100
AcDbLayerTableRecord
  2
0-E
 70
     0
 62
     7
  6
Continuous
370
    -3
390
F
347
3E
  0
ENDTAB
  0
TABLE
  2
STYLE
  5
3
330
0
100
AcDbSymbolTable
 70
     1
  0
STYLE
  5
11
330
3
100
AcDbSymbolTableRecord
100
AcDbTextStyleTableRecord
  2
Standard
 70
     0
 40
0.0
 41
1.0
 50
0.0
 71
     0
 42
2.5
  3
txt
  4

  0
ENDTAB
  0
TABLE
  2
VIEW
  5
6
330
0
100
AcDbSymbolTable
 70
     0
  0
ENDTAB
  0
TABLE
  2
UCS
  5
7
330
0
100
AcDbSymbolTable
 70
     0
  0
ENDTAB
  0
TABLE
  2
APPID
  5
9
330
0
100
AcDbSymbolTable
 70
     1
  0
APPID
  5
12
330
9
100
AcDbSymbolTableRecord
100
AcDbRegAppTableRecord
  2
ACAD
 70
     0
  0
ENDTAB
  0
TABLE
  2
DIMSTYLE
  5
A
330
0
100
AcDbSymbolTable
 70
     1
100
AcDbDimStyleTable
  0
DIMSTYLE
105
27
330
A
100
AcDbSymbolTableRecord
100
AcDbDimStyleTableRecord
  2
ISO-25
 70
     0
 41
2.5
 42
0.625
 43
3.75
 44
1.25
 73
     0
 74
     0
 77
     1
 78
     8
140
2.5
141
2.5
143
0.03937007874016
147
0.625
171
     3
172
     1
178
     0
271
     2
272
     2
274
     3
278
    44
283
     0
284
     8
340
11
  0
ENDTAB
  0
TABLE
  2
BLOCK_RECORD
  5
1
330
0
100
AcDbSymbolTable
 70
     2
  0
BLOCK_RECORD
  5
1F
330
1
100
AcDbSymbolTableRecord
100
AcDbBlockTableRecord
  2
*Model_Space
340
22
 70
     0
280
     1
281
     0
  0
BLOCK_RECORD
  5
1B
330
1
100
AcDbSymbolTableRecord
100
AcDbBlockTableRecord
  2
*Paper_Space
340
1E
 70
     0
280
     1
281
     0
  0
BLOCK_RECORD
  5
23
330
1
100
AcDbSymbolTableRecord
100
AcDbBlockTableRecord
  2
*Paper_Space0
340
26
 70
     0
280
     1
281
     0
  0
BLOCK_RECORD
  5
51
330
1
100
AcDbSymbolTableRecord
100
AcDbBlockTableRecord
  2
01@@SfigorgFlag@@4
340
0
102
{BLKREFS
331
2B6
331
2E8
102
}
 70
     0
280
     1
281
     0
  0
ENDTAB
  0
ENDSEC
  0
SECTION
  2
BLOCKS
  0
BLOCK
  5
20
330
1F
100
AcDbEntity
  8
0
100
AcDbBlockBegin
  2
*Model_Space
 70
     0
 10
0.0
 20
0.0
 30
0.0
  3
*Model_Space
  1

  0
ENDBLK
  5
21
330
1F
100
AcDbEntity
  8
0
100
AcDbBlockEnd
  0
BLOCK
  5
1C
330
1B
100
AcDbEntity
 67
     1
  8
0
100
AcDbBlockBegin
  2
*Paper_Space
 70
     0
 10
0.0
 20
0.0
 30
0.0
  3
*Paper_Space
  1

  0
ENDBLK
  5
1D
330
1B
100
AcDbEntity
 67
     1
  8
0
100
AcDbBlockEnd
  0
BLOCK
  5
24
330
23
100
AcDbEntity
  8
0
100
AcDbBlockBegin
  2
*Paper_Space0
 70
     0
 10
0.0
 20
0.0
 30
0.0
  3
*Paper_Space0
  1

  0
ENDBLK
  5
25
330
23
100
AcDbEntity
  8
0
100
AcDbBlockEnd
  0
BLOCK
  5
52
330
51
100
AcDbEntity
  8
0
100
AcDbBlockBegin
  2
01@@SfigorgFlag@@4
 70
     0
 10
0.0
 20
0.0
 30
0.0
  3
01@@SfigorgFlag@@4
  1

  0
LINE
  5
35F
330
51
100
AcDbEntity
  8
0-0_補助線
  6
Continuous
 62
     7
370
     9
100
AcDbLine
 10
-4.25
 20
-1.491025641025665
 30
0.0
 11
-3.25
 21
-1.491025641025665
 31
0.0
  0
LINE
  5
360
330
51
100
AcDbEntity
  8
0-0_補助線
  6
Continuous
 62
     7
370
     9
100
AcDbLine
 10
-2.75
 20
-1.491025641025665
 30
0.0
 11
-0.1500000000000909
 21
-1.491025641025665
 31
0.0
  0
LINE
  5
361
330
51
100
AcDbEntity
  8
0-0_補助線
  6
Continuous
 62
     7
370
     9
100
AcDbLine
 10
-0.1500000000000909
 20
-1.491025641025665
 30
0.0
 11
0.0
 21
-1.641025641025642
 31
0.0
  0
LINE
  5
362
330
51
100
AcDbEntity
  8
0-0_補助線
  6
Continuous
 62
     7
370
     9
100
AcDbLine
 10
0.0
 20
-1.641025641025642
 30
0.0
 11
0.1500000000000909
 21
-1.491025641025665
 31
0.0
  0
LINE
  5
363
330
51
100
AcDbEntity
  8
0-0_補助線
  6
Continuous
 62
     7
370
     9
100
AcDbLine
 10
0.1500000000000909
 20
-1.491025641025665
 30
0.0
 11
2.75
 21
-1.491025641025665
 31
0.0
  0
LINE
  5
364
330
51
100
AcDbEntity
  8
0-0_補助線
  6
Continuous
 62
     7
370
     9
100
AcDbLine
 10
3.25
 20
-1.491025641025665
 30
0.0
 11
4.25
 21
-1.491025641025665
 31
0.0
  0
LINE
  5
365
330
51
100
AcDbEntity
  8
0-0_補助線
  6
Continuous
 62
     7
370
     9
100
AcDbLine
 10
7.849999999999909
 20
1.408974358974312
 30
0.0
 11
4.849999999999909
 21
1.408974358974312
 31
0.0
  0
LINE
  5
366
330
51
100
AcDbEntity
  8
0-0_補助線
  6
Continuous
 62
     7
370
     9
100
AcDbLine
 10
-4.849999999999909
 20
1.408974358974312
 30
0.0
 11
-7.849999999999909
 21
1.408974358974312
 31
0.0
  0
LINE
  5
367
330
51
100
AcDbEntity
  8
0-0_補助線
  6
Continuous
 62
     7
370
     9
100
AcDbLine
 10
-4.849999999999909
 20
2.008974358974335
 30
0.0
 11
-7.849999999999909
 21
1.70897435897438
 31
0.0
  0
ARC
  5
368
330
51
100
AcDbEntity
  8
0-0_補助線
  6
Continuous
 62
     7
370
     9
100
AcDbCircle
 10
-7.849999999999909
 20
1.558974358974403
 30
0.0
 40
0.15
100
AcDbArc
 50
90.0
 51
270.0
  0
ARC
  5
369
330
51
100
AcDbEntity
  8
0-0_補助線
  6
Continuous
 62
     7
370
     9
100
AcDbCircle
 10
7.849999999999909
 20
1.558974358974403
 30
0.0
 40
0.15
100
AcDbArc
 50
270.0
 51
89.99999999999997
  0
LINE
  5
36A
330
51
100
AcDbEntity
  8
0-0_補助線
  6
Continuous
 62
     7
370
     9
100
AcDbLine
 10
7.849999999999909
 20
1.70897435897438
 30
0.0
 11
4.849999999999909
 21
2.008974358974335
 31
0.0
  0
LINE
  5
36B
330
51
100
AcDbEntity
  8
0-0_補助線
  6
Continuous
 62
     7
370
     9
100
AcDbLine
 10
-3.050000000000182
 20
2.008974358974335
 30
0.0
 11
-4.849999999999909
 21
2.008974358974335
 31
0.0
  0
ARC
  5
36C
330
51
100
AcDbEntity
  8
0-0_補助線
  6
Continuous
 62
     7
370
     9
100
AcDbCircle
 10
-3.050000000000182
 20
1.70897435897438
 30
0.0
 40
0.3
100
AcDbArc
 50
0.0
 51
90.0
  0
ARC
  5
36D
330
51
100
AcDbEntity
  8
0-0_補助線
  6
Continuous
 62
     7
370
     9
100
AcDbCircle
 10
-3.050000000000182
 20
1.70897435897438
 30
0.0
 40
0.3
100
AcDbArc
 50
270.0
 51
0.0
  0
ARC
  5
36E
330
51
100
AcDbEntity
  8
0-0_補助線
  6
Continuous
 62
     7
370
     9
100
AcDbCircle
 10
3.050000000000182
 20
1.70897435897438
 30
0.0
 40
0.3
100
AcDbArc
 50
180.0
 51
270.0
  0
LINE
  5
36F
330
51
100
AcDbEntity
  8
0-0_補助線
  6
Continuous
 62
     7
370
     9
100
AcDbLine
 10
3.050000000000182
 20
2.008974358974335
 30
0.0
 11
4.849999999999909
 21
2.008974358974335
 31
0.0
  0
ARC
  5
370
330
51
100
AcDbEntity
  8
0-0_補助線
  6
Continuous
 62
     7
370
     9
100
AcDbCircle
 10
3.050000000000182
 20
1.70897435897438
 30
0.0
 40
0.3
100
AcDbArc
 50
90.0
 51
180.0
  0
LINE
  5
371
330
51
100
AcDbEntity
  8
0-0_補助線
  6
Continuous
 62
     7
370
     9
100
AcDbLine
 10
4.849999999999909
 20
-1.341025641025688
 30
0.0
 11
4.849999999999909
 21
1.408974358974312
 31
0.0
  0
ARC
  5
372
330
51
100
AcDbEntity
  8
0-0_補助線
  6
Continuous
 62
     7
370
     9
100
AcDbCircle
 10
4.099999999999909
 20
-1.341025641025688
 30
0.0
 40
0.75
100
AcDbArc
 50
270.0
 51
0.0
  0
LINE
  5
373
330
51
100
AcDbEntity
  8
0-0_補助線
  6
Continuous
 62
     7
370
     9
100
AcDbLine
 10
-4.849999999999909
 20
-1.341025641025688
 30
0.0
 11
-4.849999999999909
 21
1.408974358974312
 31
0.0
  0
LINE
  5
374
330
51
100
AcDbEntity
  8
0-0_補助線
  6
Continuous
 62
     7
370
     9
100
AcDbLine
 10
-4.099999999999909
 20
-2.091025641025688
 30
0.0
 11
4.099999999999909
 21
-2.091025641025688
 31
0.0
  0
ARC
  5
375
330
51
100
AcDbEntity
  8
0-0_補助線
  6
Continuous
 62
     7
370
     9
100
AcDbCircle
 10
-4.099999999999909
 20
-1.341025641025688
 30
0.0
 40
0.75
100
AcDbArc
 50
180.0
 51
270.0
  0
LINE
  5
376
330
51
100
AcDbEntity
  8
0-0_補助線
  6
Continuous
 62
     7
370
     9
100
AcDbLine
 10
-4.0
 20
1.408974358974312
 30
0.0
 11
-3.050000000000182
 21
1.408974358974312
 31
0.0
  0
LINE
  5
377
330
51
100
AcDbEntity
  8
0-0_補助線
  6
Continuous
 62
     7
370
     9
100
AcDbLine
 10
-4.25
 20
1.158974358974312
 30
0.0
 11
-4.25
 21
-1.491025641025665
 31
0.0
  0
ARC
  5
378
330
51
100
AcDbEntity
  8
0-0_補助線
  6
Continuous
 62
     7
370
     9
100
AcDbCircle
 10
-4.0
 20
1.158974358974312
 30
0.0
 40
0.25
100
AcDbArc
 50
90.0
 51
180.0
  0
LINE
  5
379
330
51
100
AcDbEntity
  8
0-0_補助線
  6
Continuous
 62
     7
370
     9
100
AcDbLine
 10
4.0
 20
1.408974358974312
 30
0.0
 11
3.050000000000182
 21
1.408974358974312
 31
0.0
  0
LINE
  5
37A
330
51
100
AcDbEntity
  8
0-0_補助線
  6
Continuous
 62
     7
370
     9
100
AcDbLine
 10
4.25
 20
1.158974358974312
 30
0.0
 11
4.25
 21
-1.491025641025665
 31
0.0
  0
ARC
  5
37B
330
51
100
AcDbEntity
  8
0-0_補助線
  6
Continuous
 62
     7
370
     9
100
AcDbCircle
 10
4.0
 20
1.158974358974312
 30
0.0
 40
0.25
100
AcDbArc
 50
0.0
 51
90.0
  0
LINE
  5
37C
330
51
100
AcDbEntity
  8
0-0_補助線
  6
Continuous
 62
     7
370
     9
100
AcDbLine
 10
-3.25
 20
-1.091025641025688
 30
0.0
 11
-3.25
 21
-1.491025641025665
 31
0.0
  0
ARC
  5
37D
330
51
100
AcDbEntity
  8
0-0_補助線
  6
Continuous
 62
     7
370
     9
100
AcDbCircle
 10
-3.150000000000091
 20
-1.091025641025688
 30
0.0
 40
0.1
100
AcDbArc
 50
90.0
 51
180.0
  0
LINE
  5
37E
330
51
100
AcDbEntity
  8
0-0_補助線
  6
Continuous
 62
     7
370
     9
100
AcDbLine
 10
-2.849999999999909
 20
-0.991025641025665
 30
0.0
 11
-3.150000000000091
 21
-0.991025641025665
 31
0.0
  0
LINE
  5
37F
330
51
100
AcDbEntity
  8
0-0_補助線
  6
Continuous
 62
     7
370
     9
100
AcDbLine
 10
-2.75
 20
-1.091025641025688
 30
0.0
 11
-2.75
 21
-1.491025641025665
 31
0.0
  0
ARC
  5
380
330
51
100
AcDbEntity
  8
0-0_補助線
  6
Continuous
 62
     7
370
     9
100
AcDbCircle
 10
-2.849999999999909
 20
-1.091025641025688
 30
0.0
 40
0.1
100
AcDbArc
 50
0.0
 51
90.0
  0
LINE
  5
381
330
51
100
AcDbEntity
  8
0-0_補助線
  6
Continuous
 62
     7
370
     9
100
AcDbLine
 10
2.75
 20
-1.091025641025688
 30
0.0
 11
2.75
 21
-1.491025641025665
 31
0.0
  0
ARC
  5
382
330
51
100
AcDbEntity
  8
0-0_補助線
  6
Continuous
 62
     7
370
     9
100
AcDbCircle
 10
2.849999999999909
 20
-1.091025641025688
 30
0.0
 40
0.1
100
AcDbArc
 50
90.0
 51
180.0
  0
LINE
  5
383
330
51
100
AcDbEntity
  8
0-0_補助線
  6
Continuous
 62
     7
370
     9
100
AcDbLine
 10
3.150000000000091
 20
-0.991025641025665
 30
0.0
 11
2.849999999999909
 21
-0.991025641025665
 31
0.0
  0
LINE
  5
384
330
51
100
AcDbEntity
  8
0-0_補助線
  6
Continuous
 62
     7
370
     9
100
AcDbLine
 10
3.25
 20
-1.091025641025688
 30
0.0
 11
3.25
 21
-1.491025641025665
 31
0.0
  0
ARC
  5
385
330
51
100
AcDbEntity
  8
0-0_補助線
  6
Continuous
 62
     7
370
     9
100
AcDbCircle
 10
3.150000000000091
 20
-1.091025641025688
 30
0.0
 40
0.1
100
AcDbArc
 50
0.0
 51
90.0
  0
ENDBLK
  5
53
330
51
100
AcDbEntity
  8
0
100
AcDbBlockEnd
  0
ENDSEC
  0
SECTION
  2
ENTITIES
  0
LINE
  5
54
330
1F
100
AcDbEntity
  8
F-0_補助線
  6
JWW_HOJO
 62
   120
370
     5
100
AcDbLine
 10
-6140.081333436769
 20
-4455.0
 30
0.0
 11
-6140.081333436769
 21
4424.999604096284
 31
0.0
  0
LINE
  5
55
330
1F
100
AcDbEntity
  8
F-0_補助線
  6
JWW_HOJO
 62
   120
370
     5
100
AcDbLine
 10
-6140.081333436769
 20
4424.999604096284
 30
0.0
 11
6159.917676803936
 21
4424.999604096284
 31
0.0
  0
LINE
  5
56
330
1F
100
AcDbEntity
  8
F-0_補助線
  6
JWW_HOJO
 62
   120
370
     5
100
AcDbLine
 10
6159.917676803936
 20
4424.999604096284
 30
0.0
 11
6159.917676803936
 21
-4455.0
 31
0.0
  0
LINE
  5
57
330
1F
100
AcDbEntity
  8
F-0_補助線
  6
JWW_HOJO
 62
   120
370
     5
100
AcDbLine
 10
6159.917676803936
 20
-4455.0
 30
0.0
 11
-6140.081333436769
 21
-4455.0
 31
0.0
  0
LINE
  5
58
330
1F
100
AcDbEntity
  8
F-0_補助線
  6
JWW_HOJO
 62
     7
370
     9
100
AcDbLine
 10
1009.918254163524
 20
-3795.000003092998
 30
0.0
 11
1009.918254163524
 21
-4195.000008247994
 31
0.0
  0
LINE
  5
59
330
1F
100
AcDbEntity
  8
F-0_補助線
  6
JWW_HOJO
 62
     7
370
     9
100
AcDbLine
 10
509.9185840832865
 20
-3795.000003092998
 30
0.0
 11
509.9185840832865
 21
-4195.000008247994
 31
0.0
  0
LINE
  5
5A
330
1F
100
AcDbEntity
  8
F-1_枠
  6
Continuous
 62
   200
370
    20
100
AcDbLine
 10
5859.917429364118
 20
4174.999769056166
 30
0.0
 11
5859.917429364118
 21
-4205.000164959882
 31
0.0
  0
LINE
  5
5B
330
1F
100
AcDbEntity
  8
F-1_枠
  6
Continuous
 62
   200
370
    20
100
AcDbLine
 10
-5840.081317971782
 20
4174.999769056166
 30
0.0
 11
-5840.081317971782
 21
-4205.000164959882
 31
0.0
  0
LINE
  5
5C
330
1F
100
AcDbEntity
  8
F-1_枠
  6
Continuous
 62
   200
370
    20
100
AcDbLine
 10
5859.917429364118
 20
-4205.000002577499
 30
0.0
 11
-5840.081085996952
 21
-4205.000002577499
 31
0.0
  0
LINE
  5
5D
330
1F
100
AcDbEntity
  8
F-1_枠
  6
Continuous
 62
   200
370
    20
100
AcDbLine
 10
-5830.081323642278
 20
4174.999769056166
 30
0.0
 11
-5830.081323642278
 21
-4205.000164959882
 31
0.0
  0
LINE
  5
5E
330
1F
100
AcDbEntity
  8
F-1_枠
  6
Continuous
 62
   200
370
    20
100
AcDbLine
 10
-5835.081309208292
 20
4174.999769056166
 30
0.0
 11
-5835.081309208292
 21
-4205.000164959882
 31
0.0
  0
LINE
  5
5F
330
1F
100
AcDbEntity
  8
F-1_枠
  6
Continuous
 62
   200
370
    20
100
AcDbLine
 10
5854.917165428305
 20
4174.999769056166
 30
0.0
 11
5854.917165428305
 21
-4205.000164959882
 31
0.0
  0
LINE
  5
60
330
1F
100
AcDbEntity
  8
F-1_枠
  6
Continuous
 62
   200
370
    20
100
AcDbLine
 10
5849.917643811961
 20
4174.999769056166
 30
0.0
 11
5849.917643811961
 21
-4205.000164959882
 31
0.0
  0
LINE
  5
61
330
1F
100
AcDbEntity
  8
F-1_枠
  6
Continuous
 62
   200
370
    20
100
AcDbLine
 10
5859.917429364118
 20
-4199.999993814004
 30
0.0
 11
-5840.081085996952
 21
-4199.999993814004
 31
0.0
  0
LINE
  5
62
330
1F
100
AcDbEntity
  8
F-1_枠
  6
Continuous
 62
   200
370
    20
100
AcDbLine
 10
5859.917429364118
 20
-4195.000008247994
 30
0.0
 11
-5840.081085996952
 21
-4195.000008247994
 31
0.0
  0
LINE
  5
63
330
1F
100
AcDbEntity
  8
F-1_枠
  6
Continuous
 62
   200
370
    20
100
AcDbLine
 10
4349.91789125178
 20
-3795.000003092998
 30
0.0
 11
4349.91789125178
 21
-4195.000008247994
 31
0.0
  0
LINE
  5
64
330
1F
100
AcDbEntity
  8
F-1_枠
  6
Continuous
 62
   200
370
    20
100
AcDbLine
 10
2849.917396372143
 20
-3795.000003092998
 30
0.0
 11
2849.917396372143
 21
-4195.000008247994
 31
0.0
  0
LINE
  5
65
330
1F
100
AcDbEntity
  8
F-1_枠
  6
Continuous
 62
   200
370
    20
100
AcDbLine
 10
9.918542843317937
 20
-3795.000003092998
 30
0.0
 11
9.918542843317937
 21
-4195.000008247994
 31
0.0
  0
LINE
  5
66
330
1F
100
AcDbEntity
  8
F-1_枠
  6
Continuous
 62
   200
370
    20
100
AcDbLine
 10
9.918542843317937
 20
-3994.999936078045
 30
0.0
 11
5849.917643811961
 21
-3995.005364289155
 31
0.0
  0
LINE
  5
67
330
1F
100
AcDbEntity
  8
F-1_枠
  6
Continuous
 62
   200
370
    20
100
AcDbLine
 10
-5840.081085996952
 20
4174.999769056166
 30
0.0
 11
5859.917429364118
 21
4174.999769056166
 31
0.0
  0
LINE
  5
68
330
1F
100
AcDbEntity
  8
F-1_枠
  6
Continuous
 62
   200
370
    20
100
AcDbLine
 10
-5840.081085996952
 20
4164.999983504013
 30
0.0
 11
5859.917429364118
 21
4164.999983504013
 31
0.0
  0
LINE
  5
69
330
1F
100
AcDbEntity
  8
F-1_枠
  6
Continuous
 62
   200
370
    20
100
AcDbLine
 10
-5840.081085996952
 20
4169.999505120355
 30
0.0
 11
5859.917429364118
 21
4169.999505120355
 31
0.0
  0
LINE
  5
6A
330
1F
100
AcDbEntity
  8
F-0_補助線
  6
JWW_HOJO
 62
     7
370
     9
100
AcDbLine
 10
-5830.081323642278
 20
-3994.99993607839
 30
0.0
 11
9.918542843317937
 21
-3994.99993607839
 31
0.0
  0
LINE
  5
6B
330
1F
100
AcDbEntity
  8
F-0_補助線
  6
JWW_HOJO
 62
     7
370
     9
100
AcDbLine
 10
-5830.081323642278
 20
-3904.99993607839
 30
0.0
 11
9.918542843317937
 21
-3904.99993607839
 31
0.0
  0
LINE
  5
6C
330
1F
100
AcDbEntity
  8
F-0_補助線
  6
JWW_HOJO
 62
     7
370
     9
100
AcDbLine
 10
-5830.081323642278
 20
-4084.99993607839
 30
0.0
 11
9.918542843317937
 21
-4084.99993607839
 31
0.0
  0
LINE
  5
6D
330
1F
100
AcDbEntity
  8
F-0_補助線
  6
JWW_HOJO
 62
     7
370
     9
100
AcDbLine
 10
9.918408067690052
 20
-4139.999739777984
 30
0.0
 11
5849.917509036333
 21
-4140.005167989091
 31
0.0
  0
LINE
  5
6E
330
1F
100
AcDbEntity
  8
F-0_補助線
  6
JWW_HOJO
 62
     7
370
     9
100
AcDbLine
 10
9.918491721641658
 20
-4049.999739778022
 30
0.0
 11
5849.917592690285
 21
-4050.005167989132
 31
0.0
  0
LINE
  5
6F
330
1F
100
AcDbEntity
  8
F-0_補助線
  6
JWW_HOJO
 62
     7
370
     9
100
AcDbLine
 10
9.918593965362561
 20
-3939.99973721807
 30
0.0
 11
5849.917694934006
 21
-3940.005165429179
 31
0.0
  0
LINE
  5
70
330
1F
100
AcDbEntity
  8
F-0_補助線
  6
JWW_HOJO
 62
     7
370
     9
100
AcDbLine
 10
9.918677619307346
 20
-3849.999737218109
 30
0.0
 11
5849.917778587951
 21
-3850.005165429218
 31
0.0
  0
LINE
  5
71
330
1F
100
AcDbEntity
  8
F-0_補助線
  6
JWW_HOJO
 62
     7
370
     9
100
AcDbLine
 10
2939.917396372143
 20
-3795.000003092998
 30
0.0
 11
2939.917396372143
 21
-4195.000008247994
 31
0.0
  0
LINE
  5
72
330
1F
100
AcDbEntity
  8
F-0_補助線
  6
JWW_HOJO
 62
     7
370
     9
100
AcDbLine
 10
99.91854284331794
 20
-3795.000003092998
 30
0.0
 11
99.91854284331794
 21
-4195.000008247994
 31
0.0
  0
LINE
  5
73
330
1F
100
AcDbEntity
  8
F-0_補助線
  6
JWW_HOJO
 62
     7
370
     9
100
AcDbLine
 10
4439.91789125178
 20
-3795.000003092998
 30
0.0
 11
4439.91789125178
 21
-4195.000008247994
 31
0.0
  0
MTEXT
  5
74
330
1F
100
AcDbEntity
  8
F-A_文字
  6
Continuous
 62
     7
370
     0
100
AcDbMText
 10
4439.91789125178
 20
-3887.143854850754
 30
0.0
 40
45.72
 41
240.0
 46
0.0
 71
     7
 72
     1
  1
{\fＭＳ ゴシック|b0|i0|c128|p49;ＤＡＴＥ}
 73
     1
 44
1.0
  0
MTEXT
  5
75
330
1F
100
AcDbEntity
  8
F-A_文字
  6
Continuous
 62
     7
370
     0
100
AcDbMText
 10
4439.91789125178
 20
-4087.143857410839
 30
0.0
 40
45.72
 41
180.0
 46
0.0
 71
     7
 72
     1
  1
{\fＭＳ ゴシック|b0|i0|c128|p49;ＮＯ．}
 73
     1
 44
1.0
  0
MTEXT
  5
76
330
1F
100
AcDbEntity
  8
F-A_文字
  6
Continuous
 62
     7
370
     0
100
AcDbMText
 10
2939.917396372143
 20
-3887.142460617775
 30
0.0
 40
45.72
 41
300.0
 46
0.0
 71
     7
 72
     1
  1
{\fＭＳ ゴシック|b0|i0|c128|p49;ＳＣＡＬＥ}
 73
     1
 44
1.0
  0
MTEXT
  5
77
330
1F
100
AcDbEntity
  8
F-A_文字
  6
Continuous
 62
     7
370
     0
100
AcDbMText
 10
2939.917396372143
 20
-4087.142463177859
 30
0.0
 40
45.72
 41
240.0
 46
0.0
 71
     7
 72
     1
  1
{\fＭＳ ゴシック|b0|i0|c128|p49;ＦＩＬＥ}
 73
     1
 44
1.0
  0
MTEXT
  5
78
330
1F
100
AcDbEntity
  8
F-A_文字
  6
Continuous
 62
     7
370
     0
100
AcDbMText
 10
99.91854284331794
 20
-3887.139820871936
 30
0.0
 40
45.72
 41
180.0
 46
0.0
 71
     7
 72
     1
  1
{\fＭＳ ゴシック|b0|i0|c128|p49;図面名}
 73
     1
 44
1.0
  0
MTEXT
  5
79
330
1F
100
AcDbEntity
  8
F-A_文字
  6
Continuous
 62
     7
370
     0
100
AcDbMText
 10
1604.917396372136
 20
-4164.281754523929
 30
0.0
 40
101.44125
 41
1065.0
 46
0.0
 71
     7
 72
     1
  1
{\fＭＳ ゴシック|b0|i0|c128|p49;ウッドワン・・・}
 73
     1
 44
1.0
  0
MTEXT
  5
7A
330
1F
100
AcDbEntity
  8
F-A_文字
  6
Continuous
 62
     7
370
     0
100
AcDbMText
 10
1394.917396372136
 20
-4096.140669266148
 30
0.0
 40
45.72
 41
120.0
 46
0.0
 71
     7
 72
     1
  1
{\fＭＳ ゴシック|b0|i0|c128|p49;株式}
 73
     1
 44
1.0
  0
MTEXT
  5
7B
330
1F
100
AcDbEntity
  8
F-A_文字
  6
Continuous
 62
     7
370
     0
100
AcDbMText
 10
1394.917396372136
 20
-4168.140669266188
 30
0.0
 40
45.72
 41
120.0
 46
0.0
 71
     7
 72
     1
  1
{\fＭＳ ゴシック|b0|i0|c128|p49;会社}
 73
     1
 44
1.0
  0
LINE
  5
7C
330
1F
100
AcDbEntity
  8
F-1_枠
  6
Continuous
 62
   200
370
    20
100
AcDbLine
 10
5859.917429364118
 20
-3795.000003092998
 30
0.0
 11
-5840.081085996952
 21
-3795.000003092998
 31
0.0
  0
LINE
  5
7D
330
1F
100
AcDbEntity
  8
F-1_枠
  6
Continuous
 62
   200
370
    20
100
AcDbLine
 10
5859.917429364118
 20
-3790.000017526988
 30
0.0
 11
-5840.081085996952
 21
-3790.000017526988
 31
0.0
  0
LINE
  5
7E
330
1F
100
AcDbEntity
  8
F-0_補助線
  6
JWW_HOJO
 62
     7
370
     9
100
AcDbLine
 10
-5087.628710189612
 20
-3795.000003093
 30
0.0
 11
-5087.628710189612
 21
-4205.000164959882
 31
0.0
  0
LINE
  5
7F
330
1F
100
AcDbEntity
  8
F-0_補助線
  6
JWW_HOJO
 62
     7
370
     9
100
AcDbLine
 10
-50.08145715668206
 20
-3795.000003092998
 30
0.0
 11
-50.08145715668206
 21
-4195.000008247994
 31
0.0
  0
MTEXT
  5
80
330
1F
100
AcDbEntity
  8
F-0_補助線
  6
Continuous
 62
     7
370
     0
100
AcDbMText
 10
509.9185840832865
 20
-3946.496666872502
 30
0.0
 40
78.58125
 41
412.5
 46
0.0
 71
     7
 72
     1
  1
{\fＭＳ ゴシック|b0|i0|c128|p49;DOORETUS}
 73
     1
 44
1.0
  0
MTEXT
  5
81
330
1F
100
AcDbEntity
  8
F-0_補助線
  6
Continuous
 62
     7
370
     0
100
AcDbMText
 10
1110.209427605312
 20
-3946.734791872503
 30
0.0
 40
78.105
 41
615.0
 46
0.0
 71
     7
 72
     1
  1
{\fＭＳ ゴシック|b0|i0|c128|p49;建具納まり図}
 73
     1
 44
1.0
  0
LINE
  5
82
330
1F
100
AcDbEntity
  8
0-A_文字
  6
Continuous
 62
    92
370
    13
100
AcDbLine
 10
5369.917643811961
 20
3684.999983504013
 30
0.0
 11
4229.917643811961
 21
3684.999983504013
 31
0.0
  0
LINE
  5
83
330
1F
100
AcDbEntity
  8
0-A_文字
  6
Continuous
 62
    92
370
    13
100
AcDbLine
 10
5369.917643811961
 20
3540.999983504013
 30
0.0
 11
4229.917643811961
 21
3540.999983504013
 31
0.0
  0
LINE
  5
84
330
1F
100
AcDbEntity
  8
戸当り
  6
Continuous
 62
    40
370
    15
100
AcDbLine
 10
4439.917643811961
 20
3385.504011182749
 30
0.0
 11
4259.917643811961
 21
3385.504011182749
 31
0.0
  0
LINE
  5
85
330
1F
100
AcDbEntity
  8
戸当り
  6
Continuous
 62
    40
370
    15
100
AcDbLine
 10
4439.917643811961
 20
3439.504011182748
 30
0.0
 11
4259.917643811961
 21
3439.504011182748
 31
0.0
  0
LINE
  5
86
330
1F
100
AcDbEntity
  8
戸当り
  6
Continuous
 62
    40
370
    15
100
AcDbLine
 10
4439.917643811961
 20
3439.504011182748
 30
0.0
 11
4439.917643811961
 21
3385.504011182749
 31
0.0
  0
LINE
  5
87
330
1F
100
AcDbEntity
  8
戸当り
  6
Continuous
 62
    40
370
    15
100
AcDbLine
 10
5159.917643811961
 20
3385.504011182749
 30
0.0
 11
5339.917643811961
 21
3385.504011182749
 31
0.0
  0
LINE
  5
88
330
1F
100
AcDbEntity
  8
戸当り
  6
Continuous
 62
    40
370
    15
100
AcDbLine
 10
5159.917643811961
 20
3439.504011182748
 30
0.0
 11
5339.917643811961
 21
3439.504011182748
 31
0.0
  0
LINE
  5
89
330
1F
100
AcDbEntity
  8
戸当り
  6
Continuous
 62
    40
370
    15
100
AcDbLine
 10
5159.917643811961
 20
3439.504011182748
 30
0.0
 11
5159.917643811961
 21
3385.504011182749
 31
0.0
  0
LINE
  5
8A
330
1F
100
AcDbEntity
  8
戸当り
  6
JWW_DASHED2
 62
     7
370
     9
100
AcDbLine
 10
5159.917643811961
 20
3385.504011182749
 30
0.0
 11
4439.917643811961
 21
3385.504011182749
 31
0.0
  0
LINE
  5
8B
330
1F
100
AcDbEntity
  8
戸当り
  6
Continuous
 62
    40
370
    15
100
AcDbLine
 10
5159.917643811961
 20
3385.504011182749
 30
0.0
 11
5097.801072987351
 21
3153.681812873372
 31
0.0
  0
LINE
  5
8C
330
1F
100
AcDbEntity
  8
戸当り
  6
Continuous
 62
    40
370
    15
100
AcDbLine
 10
5035.684502162749
 20
3385.504011182749
 30
0.0
 11
5097.801072987351
 21
3153.681812873372
 31
0.0
  0
LINE
  5
8D
330
1F
100
AcDbEntity
  8
戸当り
  6
Continuous
 62
    40
370
    15
100
AcDbLine
 10
4502.034214636565
 20
3153.681812873372
 30
0.0
 11
4439.917643811961
 21
3385.504011182749
 31
0.0
  0
LINE
  5
8E
330
1F
100
AcDbEntity
  8
戸当り
  6
Continuous
 62
    40
370
    15
100
AcDbLine
 10
4502.034214636565
 20
3153.681812873372
 30
0.0
 11
4564.150785461168
 21
3385.504011182749
 31
0.0
  0
CIRCLE
  5
8F
330
1F
100
AcDbEntity
  8
0-0_補助線
  6
JWW_HOJO
 62
   120
370
     5
100
AcDbCircle
 10
4444.047372024825
 20
3385.504011182749
 30
0.0
 40
240.0
  0
CIRCLE
  5
90
330
1F
100
AcDbEntity
  8
0-0_補助線
  6
JWW_HOJO
 62
   120
370
     5
100
AcDbCircle
 10
4799.917643811961
 20
3385.504011182749
 30
0.0
 40
240.0
  0
CIRCLE
  5
91
330
1F
100
AcDbEntity
  8
0-0_補助線
  6
JWW_HOJO
 62
   120
370
     5
100
AcDbCircle
 10
5159.917643811961
 20
3385.504011182749
 30
0.0
 40
240.0
  0
LINE
  5
92
330
1F
100
AcDbEntity
  8
0-0_補助線
  6
JWW_HOJO
 62
   120
370
     5
100
AcDbLine
 10
4799.917643811961
 20
3684.999983504013
 30
0.0
 11
4799.917643811961
 21
2718.999983504013
 31
0.0
  0
LINE
  5
93
330
1F
100
AcDbEntity
  8
0-0_補助線
  6
JWW_HOJO
 62
   120
370
     5
100
AcDbLine
 10
4259.917643811961
 20
3684.999983504013
 30
0.0
 11
4259.917643811961
 21
2718.999983504013
 31
0.0
  0
LINE
  5
94
330
1F
100
AcDbEntity
  8
0-0_補助線
  6
JWW_HOJO
 62
   120
370
     5
100
AcDbLine
 10
5339.917643811961
 20
3684.999983504013
 30
0.0
 11
5339.917643811961
 21
2718.999983504013
 31
0.0
  0
LINE
  5
95
330
1F
100
AcDbEntity
  8
0-A_文字
  6
Continuous
 62
    92
370
    13
100
AcDbLine
 10
4229.917643811961
 20
3684.999983504013
 30
0.0
 11
4229.917643811961
 21
2718.999983504013
 31
0.0
  0
LINE
  5
96
330
1F
100
AcDbEntity
  8
0-A_文字
  6
Continuous
 62
    92
370
    13
100
AcDbLine
 10
5369.917643811961
 20
2718.999983504013
 30
0.0
 11
4229.917643811961
 21
2718.999983504013
 31
0.0
  0
LINE
  5
97
330
1F
100
AcDbEntity
  8
0-A_文字
  6
Continuous
 62
    92
370
    13
100
AcDbLine
 10
5369.917643811961
 20
3684.999983504013
 30
0.0
 11
5369.917643811961
 21
2718.999983504013
 31
0.0
  0
ELLIPSE
  5
98
330
1F
100
AcDbEntity
  8
戸当り
  6
Continuous
 62
    92
370
    13
100
AcDbEllipse
 10
4724.517918944783
 20
2927.884230441197
 30
0.0
 11
-17.7763823922528
 21
100.8148742797557
 31
0.0
210
0.0
220
0.0
230
1.0
 40
0.4000000000000001
 41
1.850633272656679
 42
2.442876790075129
  0
ELLIPSE
  5
99
330
1F
100
AcDbEntity
  8
戸当り
  6
Continuous
 62
    92
370
    13
100
AcDbEllipse
 10
4724.517918944783
 20
2927.884230441197
 30
0.0
 11
-17.7763823922528
 21
100.8148742797557
 31
0.0
210
0.0
220
0.0
230
1.0
 40
0.4000000000000001
 41
3.840308517104466
 42
4.432552034522944
  0
ELLIPSE
  5
9A
330
1F
100
AcDbEntity
  8
戸当り
  6
Continuous
 62
    92
370
    13
100
AcDbEllipse
 10
4724.098172894875
 20
2930.264728582853
 30
0.0
 11
-14.67024424252691
 21
83.19908946199426
 31
0.0
210
0.0
220
0.0
230
1.0
 40
0.5
 41
4.340591432030095
 42
8.225779182329084
  0
LINE
  5
9B
330
1F
100
AcDbEntity
  8
戸当り
  6
Continuous
 62
    92
370
    13
100
AcDbLine
 10
4764.067802717541
 20
2855.267181117928
 30
0.0
 11
4712.189678627999
 21
2846.1196681324
 31
0.0
  0
LINE
  5
9C
330
1F
100
AcDbEntity
  8
戸当り
  6
Continuous
 62
    92
370
    13
100
AcDbLine
 10
4766.255769756144
 20
2842.858603429974
 30
0.0
 11
4714.377645666602
 21
2833.711090444447
 31
0.0
  0
ELLIPSE
  5
9D
330
1F
100
AcDbEntity
  8
戸当り
  6
Continuous
 62
    92
370
    13
100
AcDbEllipse
 10
4740.31670771137
 20
2838.28484693721
 30
0.0
 11
-7.622927487939132
 21
43.23177007461331
 31
0.0
210
0.0
220
0.0
230
1.0
 40
0.6000000000000001
 41
1.570796326794897
 42
4.71238898038469
  0
ELLIPSE
  5
9E
330
1F
100
AcDbEntity
  8
戸当り
  6
Continuous
 62
    92
370
    13
100
AcDbEllipse
 10
4878.978687882654
 20
2963.935065931004
 30
0.0
 11
26.49533313827761
 21
98.88192943551533
 31
0.0
210
0.0
220
0.0
230
0.9999999999999999
 40
0.4
 41
1.850633272656679
 42
2.442876790075129
  0
ELLIPSE
  5
9F
330
1F
100
AcDbEntity
  8
戸当り
  6
Continuous
 62
    92
370
    13
100
AcDbEllipse
 10
4878.978687882654
 20
2963.935065931004
 30
0.0
 11
26.49533313827761
 21
98.88192943551533
 31
0.0
210
0.0
220
0.0
230
0.9999999999999999
 40
0.4
 41
3.840308517104466
 42
4.432552034522944
  0
ELLIPSE
  5
A0
330
1F
100
AcDbEntity
  8
戸当り
  6
Continuous
 62
    92
370
    13
100
AcDbEllipse
 10
4879.604310755758
 20
2966.269922279796
 30
0.0
 11
21.86569797210526
 21
81.6038957748525
 31
0.0
210
0.0
220
0.0
230
1.0
 40
0.5
 41
4.340591432030095
 42
8.225779182329084
  0
LINE
  5
A1
330
1F
100
AcDbEntity
  8
戸当り
  6
Continuous
 62
    92
370
    13
100
AcDbLine
 10
4884.133764364567
 20
2881.40716552561
 30
0.0
 11
4833.25031048817
 21
2895.041345899896
 31
0.0
  0
LINE
  5
A2
330
1F
100
AcDbEntity
  8
戸当り
  6
Continuous
 62
    92
370
    13
100
AcDbLine
 10
4880.872644396272
 20
2869.236500114368
 30
0.0
 11
4829.989190519875
 21
2882.870680488653
 31
0.0
  0
ELLIPSE
  5
A3
330
1F
100
AcDbEntity
  8
戸当り
  6
Continuous
 62
    92
370
    13
100
AcDbEllipse
 10
4855.430917458078
 20
2876.053590301512
 30
0.0
 11
11.36181697857171
 21
42.40287823032828
 31
0.0
210
0.0
220
0.0
230
0.9999999999999999
 40
0.6
 41
1.570796326794897
 42
4.71238898038469
  0
LINE
  5
A4
330
1F
100
AcDbEntity
  8
0-A_文字
  6
Continuous
 62
    92
370
    13
100
AcDbLine
 10
-5659.999495325865
 20
3730.00018145587
 30
0.0
 11
-5659.999495325865
 21
4000.00018145587
 31
0.0
  0
MTEXT
  5
A5
330
1F
100
AcDbEntity
  8
0-A_文字
  6
Continuous
 62
     7
370
     9
100
AcDbMText
 10
4278.667643811961
 20
3554.775383504014
 30
0.0
 40
63.55080000000001
 41
1042.5
 46
0.0
 71
     7
 72
     1
  1
{\fＭＳ ゴシック|b0|i0|c128|p49;上吊軸固定/フリーオープン}
 73
     1
 44
1.0
  0
MTEXT
  5
A6
330
1F
100
AcDbEntity
  8
F-A_文字
  6
Continuous
 62
     7
370
     0
100
AcDbMText
 10
3689.917643811962
 20
-3946.903115907308
 30
0.0
 40
76.19999999999999
 41
150.0
 46
0.0
 71
     7
 72
     1
  1
{\fＭＳ ゴシック|b0|i0|c128|p49;1/5}
 73
     1
 44
1.0
  0
MTEXT
  5
A7
330
1F
100
AcDbEntity
  8
0-A_文字
  6
Continuous
 62
    92
370
    13
100
AcDbMText
 10
-5592.499495325865
 20
3758.994391982186
 30
0.0
 40
147.9884210526316
 41
3690.0
 46
0.0
 71
     7
 72
     1
  1
{\fＭＳ ゴシック|b0|i0|c128|p49;クローゼットドア　調整枠　間口４．５尺}
 73
     1
 44
1.0
  0
LINE
  5
A8
330
1F
100
AcDbEntity
  8
0-A_文字
  6
Continuous
 62
    92
370
    13
100
AcDbLine
 10
-1814.285714285714
 20
3730.00018145587
 30
0.0
 11
-1814.285714285714
 21
4000.00018145587
 31
0.0
  0
LINE
  5
A9
330
1F
100
AcDbEntity
  8
0-A_文字
  6
Continuous
 62
    92
370
    13
100
AcDbLine
 10
-5659.999495325865
 20
4000.00018145587
 30
0.0
 11
-1814.285714285714
 21
4000.00018145587
 31
0.0
  0
LINE
  5
AA
330
1F
100
AcDbEntity
  8
0-A_文字
  6
Continuous
 62
    92
370
    13
100
AcDbLine
 10
-5659.999495325865
 20
3730.00018145587
 30
0.0
 11
-1814.285714285714
 21
3730.00018145587
 31
0.0
  0
MTEXT
  5
AB
330
1F
100
AcDbEntity
  8
F-A_文字
  6
Continuous
 62
     7
370
     0
100
AcDbMText
 10
-5080.081323642278
 20
-4045.07013344681
 30
0.0
 40
79.85960526315785
 41
3982.5
 46
0.0
 71
     7
 72
     1
  1
{\fＭＳ ゴシック|b0|i0|c128|p49;ドレタス　クローゼットドア  調整枠　３方枠＋直置敷居　枠外H2,351　枠外W1,189}
 73
     1
 44
1.0
  0
MTEXT
  5
AC
330
1F
100
AcDbEntity
  8
F-A_文字
  6
Continuous
 62
     7
370
     9
100
AcDbMText
 10
5096.16770014406
 20
-4147.857012699984
 30
0.0
 40
74.295
 41
97.5
 46
0.0
 71
     7
 72
     1
  1
{\fＭＳ ゴシック|b0|i0|c128|p49;02}
 73
     1
 44
1.0
  0
MTEXT
  5
AD
330
1F
100
AcDbEntity
  8
0-0_補助線
  6
Continuous
 62
     7
370
   211
100
AcDbMText
 10
-2176.886509220943
 20
2325.079196304034
 30
0.0
 40
91.43999999999912
 41
179.9999999999983
 46
0.0
 71
     7
 72
     1
  1
{\fＭＳ ゴシック|b0|i0|c128|p49;3.5}
 73
     1
 44
1.0
  0
LINE
  5
AE
330
1F
100
AcDbEntity
  8
0-B_寸法
  6
Continuous
 62
   120
370
     5
100
AcDbLine
 10
-2115.481287529596
 20
1806.944295403512
 30
0.0
 11
-2205.481287529596
 21
1716.944295403512
 31
0.0
  0
LINE
  5
AF
330
1F
100
AcDbEntity
  8
0-B_寸法
  6
Continuous
 62
   120
370
     5
100
AcDbLine
 10
-2163.481287529598
 20
1806.944295403512
 30
0.0
 11
-1983.481287529598
 21
1806.944295403512
 31
0.0
  0
LWPOLYLINE
  5
B0
330
1F
100
AcDbEntity
  8
0-B_寸法
  6
Continuous
 62
     7
370
     9
100
AcDbPolyline
 90
        4
 70
     1
 43
3.0
 10
-2161.981287529598
 20
1806.944295403512
 42
0.4142135623731
 10
-2163.481287529598
 20
1808.444295403512
 42
0.4142135623731
 10
-2164.981287529598
 20
1806.944295403512
 42
0.4142135623731
 10
-2163.481287529598
 20
1805.444295403512
 42
0.4142135623731
  0
LWPOLYLINE
  5
B1
330
1F
100
AcDbEntity
  8
0-B_寸法
  6
Continuous
 62
     7
370
     9
100
AcDbPolyline
 90
        4
 70
     1
 43
3.0
 10
-2131.981287529598
 20
1806.944295403512
 42
0.4142135623731
 10
-2133.481287529598
 20
1808.444295403512
 42
0.4142135623731
 10
-2134.981287529598
 20
1806.944295403512
 42
0.4142135623731
 10
-2133.481287529598
 20
1805.444295403512
 42
0.4142135623731
  0
LWPOLYLINE
  5
B2
330
1F
100
AcDbEntity
  8
0-B_寸法
  6
Continuous
 62
     7
370
     9
100
AcDbPolyline
 90
        4
 70
     1
 43
3.0
 10
-2095.981287529599
 20
1806.944295403512
 42
0.4142135623731
 10
-2097.481287529599
 20
1808.444295403512
 42
0.4142135623731
 10
-2098.981287529599
 20
1806.944295403512
 42
0.4142135623731
 10
-2097.481287529599
 20
1805.444295403512
 42
0.4142135623731
  0
LWPOLYLINE
  5
B3
330
1F
100
AcDbEntity
  8
0-B_寸法
  6
Continuous
 62
     7
370
     9
100
AcDbPolyline
 90
        4
 70
     1
 43
3.0
 10
-2041.981287529598
 20
1806.944295403512
 42
0.4142135623731
 10
-2043.481287529598
 20
1808.444295403512
 42
0.4142135623731
 10
-2044.981287529598
 20
1806.944295403512
 42
0.4142135623731
 10
-2043.481287529598
 20
1805.444295403512
 42
0.4142135623731
  0
MTEXT
  5
B4
330
1F
100
AcDbEntity
  8
0-0_補助線
  6
Continuous
 62
     7
370
   211
100
AcDbMText
 10
-1973.094832617247
 20
2325.079196304034
 30
0.0
 40
91.43999999999912
 41
179.9999999999983
 46
0.0
 71
     7
 72
     1
  1
{\fＭＳ ゴシック|b0|i0|c128|p49;2.5}
 73
     1
 44
1.0
  0
LINE
  5
B5
330
1F
100
AcDbEntity
  8
0-B_寸法
  6
Continuous
 62
   120
370
     5
100
AcDbLine
 10
-2260.727827384771
 20
1716.944295403512
 30
0.0
 11
-2205.481287529596
 21
1716.944295403512
 31
0.0
  0
LINE
  5
B6
330
1F
100
AcDbEntity
  8
0-B_寸法
  6
Continuous
 62
   120
370
     5
100
AcDbLine
 10
-2148.481287529598
 20
1806.944295403512
 30
0.0
 11
-2208.481287529598
 21
1866.944295403512
 31
0.0
  0
LINE
  5
B7
330
1F
100
AcDbEntity
  8
0-B_寸法
  6
Continuous
 62
   120
370
     5
100
AcDbLine
 10
-2268.930109358261
 20
1866.944295403512
 30
0.0
 11
-2208.481287529598
 21
1866.944295403512
 31
0.0
  0
LINE
  5
B8
330
1F
100
AcDbEntity
  8
0-B_寸法
  6
Continuous
 62
   120
370
     5
100
AcDbLine
 10
-2133.481287529598
 20
1806.944295403512
 30
0.0
 11
-2133.481287529598
 21
1986.944295403512
 31
0.0
  0
LINE
  5
B9
330
1F
100
AcDbEntity
  8
0-B_寸法
  6
Continuous
 62
   120
370
     5
100
AcDbLine
 10
-2097.481287529599
 20
1806.944295403512
 30
0.0
 11
-2097.481287529599
 21
1986.944295403512
 31
0.0
  0
LINE
  5
BA
330
1F
100
AcDbEntity
  8
0-B_寸法
  6
Continuous
 62
   120
370
     5
100
AcDbLine
 10
-2043.481287529598
 20
1806.944295403512
 30
0.0
 11
-2043.481287529598
 21
1986.944295403512
 31
0.0
  0
LINE
  5
BB
330
1F
100
AcDbEntity
  8
0-B_寸法
  6
Continuous
 62
   120
370
     5
100
AcDbLine
 10
-2163.481287529598
 20
1806.944295403512
 30
0.0
 11
-2163.481287529598
 21
1986.944295403512
 31
0.0
  0
LWPOLYLINE
  5
BC
330
1F
100
AcDbEntity
  8
0-B_寸法
  6
Continuous
 62
     7
370
     9
100
AcDbPolyline
 90
        4
 70
     1
 43
3.0
 10
-1981.981287529598
 20
1806.944295403512
 42
0.4142135623731
 10
-1983.481287529598
 20
1808.444295403512
 42
0.4142135623731
 10
-1984.981287529598
 20
1806.944295403512
 42
0.4142135623731
 10
-1983.481287529598
 20
1805.444295403512
 42
0.4142135623731
  0
LINE
  5
BD
330
1F
100
AcDbEntity
  8
0-B_寸法
  6
Continuous
 62
   120
370
     5
100
AcDbLine
 10
-1983.481287529598
 20
1806.944295403512
 30
0.0
 11
-1983.481287529598
 21
1986.944295403512
 31
0.0
  0
MTEXT
  5
BE
330
1F
100
AcDbEntity
  8
0-B_寸法
  6
Continuous
 62
     7
370
   211
100
AcDbMText
 10
-381.4812875295959
 20
3142.665146596496
 30
0.0
 40
91.43999999999981
 41
779.9999999999983
 46
0.0
 71
     7
 72
     1
  1
{\fＭＳ ゴシック|b0|i0|c128|p49;ＲＯＷ＝1,199}
 73
     1
 44
1.0
  0
LINE
  5
BF
330
1F
100
AcDbEntity
  8
0-0_補助線
  6
JWW_HOJO
 62
   120
370
     5
100
AcDbLine
 10
2780.51851451855
 20
2781.945146596496
 30
0.0
 11
-2763.48108957774
 21
2781.945146596496
 31
0.0
  0
LINE
  5
C0
330
1F
100
AcDbEntity
  8
0-0_補助線
  6
JWW_HOJO
 62
   120
370
     5
100
AcDbLine
 10
2780.51851451855
 20
3141.945146596496
 30
0.0
 11
-2763.48108957774
 21
3141.945146596496
 31
0.0
  0
LINE
  5
C1
330
1F
100
AcDbEntity
  8
0-1_通り芯
  6
JWW_CENTER1
 62
   120
370
     5
100
AcDbLine
 10
2780.51851451855
 20
2361.945146596495
 30
0.0
 11
-2763.48108957774
 21
2361.945146596495
 31
0.0
  0
LINE
  5
C2
330
1F
100
AcDbEntity
  8
0-0_補助線
  6
Continuous
 62
   120
370
     5
100
AcDbLine
 10
-1983.481287529598
 20
2324.359196304034
 30
0.0
 11
-1998.481287529598
 21
2324.359196304034
 31
0.0
  0
LWPOLYLINE
  5
C3
330
1F
100
AcDbEntity
  8
0-0_補助線
  6
Continuous
 62
     7
370
     9
100
AcDbPolyline
 90
        4
 70
     1
 43
3.0
 10
-1981.981287529598
 20
2324.359196304034
 42
0.4142135623731
 10
-1983.481287529598
 20
2325.859196304034
 42
0.4142135623731
 10
-1984.981287529598
 20
2324.359196304034
 42
0.4142135623731
 10
-1983.481287529598
 20
2322.859196304034
 42
0.4142135623731
  0
LWPOLYLINE
  5
C4
330
1F
100
AcDbEntity
  8
0-0_補助線
  6
Continuous
 62
     7
370
     9
100
AcDbPolyline
 90
        4
 70
     1
 43
3.0
 10
-1996.981287529598
 20
2324.359196304034
 42
0.4142135623731
 10
-1998.481287529598
 20
2325.859196304034
 42
0.4142135623731
 10
-1999.981287529598
 20
2324.359196304034
 42
0.4142135623731
 10
-1998.481287529598
 20
2322.859196304034
 42
0.4142135623731
  0
LINE
  5
C5
330
1F
100
AcDbEntity
  8
0-0_補助線
  6
Continuous
 62
   120
370
     5
100
AcDbLine
 10
-1998.481287529598
 20
2324.359196304034
 30
0.0
 11
-2019.481287529597
 21
2324.359196304034
 31
0.0
  0
LWPOLYLINE
  5
C6
330
1F
100
AcDbEntity
  8
0-0_補助線
  6
Continuous
 62
     7
370
     9
100
AcDbPolyline
 90
        4
 70
     1
 43
3.0
 10
-2017.981287529597
 20
2324.359196304034
 42
0.4142135623731
 10
-2019.481287529597
 20
2325.859196304034
 42
0.4142135623731
 10
-2020.981287529597
 20
2324.359196304034
 42
0.4142135623731
 10
-2019.481287529597
 20
2322.859196304034
 42
0.4142135623731
  0
LINE
  5
C7
330
1F
100
AcDbEntity
  8
0-0_補助線
  6
Continuous
 62
   120
370
     5
100
AcDbLine
 10
-2019.481287529597
 20
2324.359196304034
 30
0.0
 11
-2019.481287529597
 21
2405.688459527219
 31
0.0
  0
MTEXT
  5
C8
330
1F
100
AcDbEntity
  8
0-B_寸法
  6
Continuous
 62
     7
370
   211
100
AcDbMText
 10
-485.5828732370725
 20
2962.665146596496
 30
0.0
 40
91.44000000000015
 41
1020.000000000002
 46
0.0
 71
     7
 72
     1
  1
{\fＭＳ ゴシック|b0|i0|c128|p49;有効開口寸法＝885}
 73
     1
 44
1.0
  0
LINE
  5
C9
330
1F
100
AcDbEntity
  8
0-7_金物
  6
Continuous
 62
     7
370
     9
100
AcDbLine
 10
2198.518375952243
 20
2271.945220828442
 30
0.0
 11
2198.518375952243
 21
2451.945072364548
 31
0.0
  0
LINE
  5
CA
330
1F
100
AcDbEntity
  8
0-7_金物
  6
Continuous
 62
     7
370
     9
100
AcDbLine
 10
2210.518712470403
 20
2451.945072364548
 30
0.0
 11
2198.518375952243
 21
2451.945072364548
 31
0.0
  0
LINE
  5
CB
330
1F
100
AcDbEntity
  8
0-7_金物
  6
Continuous
 62
     7
370
     9
100
AcDbLine
 10
2210.518712470403
 20
2271.945220828442
 30
0.0
 11
2198.518375952243
 21
2271.945220828442
 31
0.0
  0
LINE
  5
CC
330
1F
100
AcDbEntity
  8
0-7_金物
  6
Continuous
 62
     7
370
     9
100
AcDbLine
 10
2198.518375952243
 20
2301.945319804372
 30
0.0
 11
2186.518781753553
 21
2301.945319804372
 31
0.0
  0
LINE
  5
CD
330
1F
100
AcDbEntity
  8
0-7_金物
  6
Continuous
 62
     7
370
     9
100
AcDbLine
 10
2198.518375952243
 20
2421.944973388618
 30
0.0
 11
2186.518781753553
 21
2421.944973388618
 31
0.0
  0
LINE
  5
CE
330
1F
100
AcDbEntity
  8
0-7_金物
  6
Continuous
 62
     7
370
     9
100
AcDbLine
 10
2186.518781753553
 20
2301.945319804372
 30
0.0
 11
2186.518781753553
 21
2421.944973388618
 31
0.0
  0
LINE
  5
CF
330
1F
100
AcDbEntity
  8
0-7_金物
  6
Continuous
 62
     7
370
     9
100
AcDbLine
 10
2186.518781753553
 20
2415.945547449009
 30
0.0
 11
2180.518712470403
 21
2415.945547449009
 31
0.0
  0
LINE
  5
D0
330
1F
100
AcDbEntity
  8
0-7_金物
  6
Continuous
 62
     7
370
     9
100
AcDbLine
 10
2186.518781753553
 20
2307.94548806345
 30
0.0
 11
2180.518712470403
 21
2307.94548806345
 31
0.0
  0
LINE
  5
D1
330
1F
100
AcDbEntity
  8
0-7_金物
  6
Continuous
 62
     7
370
     9
100
AcDbLine
 10
2210.518712470403
 20
2271.945220828442
 30
0.0
 11
2210.518712470403
 21
2451.945072364548
 31
0.0
  0
LINE
  5
D2
330
1F
100
AcDbEntity
  8
0-7_金物
  6
Continuous
 62
     7
370
     9
100
AcDbLine
 10
-2181.48095101144
 20
2271.945220828442
 30
0.0
 11
-2181.48095101144
 21
2451.945072364548
 31
0.0
  0
LINE
  5
D3
330
1F
100
AcDbEntity
  8
0-7_金物
  6
Continuous
 62
     7
370
     9
100
AcDbLine
 10
-2193.481287529598
 20
2451.945072364548
 30
0.0
 11
-2181.48095101144
 21
2451.945072364548
 31
0.0
  0
LINE
  5
D4
330
1F
100
AcDbEntity
  8
0-7_金物
  6
Continuous
 62
     7
370
     9
100
AcDbLine
 10
-2193.481287529598
 20
2271.945220828442
 30
0.0
 11
-2181.48095101144
 21
2271.945220828442
 31
0.0
  0
LINE
  5
D5
330
1F
100
AcDbEntity
  8
0-7_金物
  6
Continuous
 62
     7
370
     9
100
AcDbLine
 10
-2181.48095101144
 20
2301.945319804372
 30
0.0
 11
-2169.481356812748
 21
2301.945319804372
 31
0.0
  0
LINE
  5
D6
330
1F
100
AcDbEntity
  8
0-7_金物
  6
Continuous
 62
     7
370
     9
100
AcDbLine
 10
-2181.48095101144
 20
2421.944973388618
 30
0.0
 11
-2169.481356812748
 21
2421.944973388618
 31
0.0
  0
LINE
  5
D7
330
1F
100
AcDbEntity
  8
0-7_金物
  6
Continuous
 62
     7
370
     9
100
AcDbLine
 10
-2169.481356812748
 20
2301.945319804372
 30
0.0
 11
-2169.481356812748
 21
2421.944973388618
 31
0.0
  0
LINE
  5
D8
330
1F
100
AcDbEntity
  8
0-7_金物
  6
Continuous
 62
     7
370
     9
100
AcDbLine
 10
-2169.481356812748
 20
2415.945547449009
 30
0.0
 11
-2163.481287529598
 21
2415.945547449009
 31
0.0
  0
LINE
  5
D9
330
1F
100
AcDbEntity
  8
0-7_金物
  6
Continuous
 62
     7
370
     9
100
AcDbLine
 10
-2169.481356812748
 20
2307.94548806345
 30
0.0
 11
-2163.481287529598
 21
2307.94548806345
 31
0.0
  0
LINE
  5
DA
330
1F
100
AcDbEntity
  8
0-7_金物
  6
Continuous
 62
     7
370
     9
100
AcDbLine
 10
-2193.481287529598
 20
2271.945220828442
 30
0.0
 11
-2193.481287529598
 21
2451.945072364548
 31
0.0
  0
MTEXT
  5
DB
330
1F
100
AcDbEntity
  8
0-B_寸法
  6
Continuous
 62
     7
370
   211
100
AcDbMText
 10
-1569.279960107845
 20
2287.665146596491
 30
0.0
 40
91.44
 41
120.0
 46
0.0
 71
     7
 72
     1
  1
{\fＭＳ ゴシック|b0|i0|c128|p49;77}
 11
6.123031769111886E-17
 21
1.0
 31
0.0
 73
     1
 44
1.0
  0
LINE
  5
DC
330
1F
100
AcDbEntity
  8
0-B_寸法
  6
Continuous
 62
   120
370
     5
100
AcDbLine
 10
-2193.481287529598
 20
3141.945146596496
 30
0.0
 11
2210.518712470403
 21
3141.945146596496
 31
0.0
  0
LWPOLYLINE
  5
DD
330
1F
100
AcDbEntity
  8
0-B_寸法
  6
Continuous
 62
     7
370
     9
100
AcDbPolyline
 90
        4
 70
     1
 43
3.0
 10
-2191.981287529598
 20
3141.945146596496
 42
0.4142135623731
 10
-2193.481287529598
 20
3143.445146596496
 42
0.4142135623731
 10
-2194.981287529598
 20
3141.945146596496
 42
0.4142135623731
 10
-2193.481287529598
 20
3140.445146596496
 42
0.4142135623731
  0
LWPOLYLINE
  5
DE
330
1F
100
AcDbEntity
  8
0-B_寸法
  6
Continuous
 62
     7
370
     9
100
AcDbPolyline
 90
        4
 70
     1
 43
3.0
 10
2212.018712470403
 20
3141.945146596496
 42
0.4142135623731
 10
2210.518712470403
 20
3143.445146596496
 42
0.4142135623731
 10
2209.018712470403
 20
3141.945146596496
 42
0.4142135623731
 10
2210.518712470403
 20
3140.445146596496
 42
0.4142135623731
  0
LINE
  5
DF
330
1F
100
AcDbEntity
  8
0-B_寸法
  6
Continuous
 62
   120
370
     5
100
AcDbLine
 10
-2193.481287529598
 20
3141.945146596496
 30
0.0
 11
-2193.481287529598
 21
2781.945146596496
 31
0.0
  0
LINE
  5
E0
330
1F
100
AcDbEntity
  8
0-B_寸法
  6
Continuous
 62
   120
370
     5
100
AcDbLine
 10
2210.518712470403
 20
3141.945146596496
 30
0.0
 11
2210.518712470403
 21
2781.945146596496
 31
0.0
  0
ARC
  5
E1
330
1F
100
AcDbEntity
  8
0-6_扉
  6
JWW_DASHED2
 62
    40
370
    15
100
AcDbCircle
 10
1719.435352360051
 20
2557.712520566675
 30
0.0
 40
18.0
100
AcDbArc
 50
85.6539792783598
 51
175.65397927836
  0
LINE
  5
E2
330
1F
100
AcDbEntity
  8
0-6_扉
  6
JWW_DASHED2
 62
    40
370
    15
100
AcDbLine
 10
1810.540599062285
 20
2568.840594224115
 30
0.0
 11
1720.799386145246
 21
2575.660763150084
 31
0.0
  0
ARC
  5
E3
330
1F
100
AcDbEntity
  8
0-6_扉
  6
JWW_DASHED2
 62
    40
370
    15
100
AcDbCircle
 10
1809.176565277091
 20
2550.892351640706
 30
0.0
 40
18.0
100
AcDbArc
 50
355.6539792783599
 51
85.6539792783597
  0
ARC
  5
E4
330
1F
100
AcDbEntity
  8
0-6_扉
  6
JWW_DASHED2
 62
    40
370
    15
100
AcDbCircle
 10
1376.20816797085
 20
2557.712520566678
 30
0.0
 40
18.0
100
AcDbArc
 50
4.346020721638975
 51
94.34602072163908
  0
LINE
  5
E5
330
1F
100
AcDbEntity
  8
0-6_扉
  6
JWW_DASHED2
 62
    40
370
    15
100
AcDbLine
 10
1285.102921268618
 20
2568.84059422412
 30
0.0
 11
1374.844134185656
 21
2575.660763150086
 31
0.0
  0
ARC
  5
E6
330
1F
100
AcDbEntity
  8
0-6_扉
  6
JWW_DASHED2
 62
    40
370
    15
100
AcDbCircle
 10
1286.466955053811
 20
2550.892351640711
 30
0.0
 40
18.0
100
AcDbArc
 50
94.34602072163908
 51
184.3460207216391
  0
LINE
  5
E7
330
1F
100
AcDbEntity
  8
0-6_扉
  6
JWW_DASHED2
 62
    40
370
    15
100
AcDbLine
 10
1827.124807860498
 20
2549.528317855515
 30
0.0
 11
1793.489291984779
 21
2106.945146596495
 31
0.0
  0
LINE
  5
E8
330
1F
100
AcDbEntity
  8
0-6_扉
  6
JWW_DASHED2
 62
    40
370
    15
100
AcDbLine
 10
1268.518712470405
 20
2549.52831785552
 30
0.0
 11
1302.154228346116
 21
2106.945146596495
 31
0.0
  0
LINE
  5
E9
330
1F
100
AcDbEntity
  8
0-6_扉
  6
JWW_DASHED2
 62
    40
370
    15
100
AcDbLine
 10
1394.156410554257
 20
2559.076554351872
 30
0.0
 11
1428.517575033698
 21
2106.945146596495
 31
0.0
  0
LINE
  5
EA
330
1F
100
AcDbEntity
  8
0-6_扉
  6
JWW_DASHED2
 62
    40
370
    15
100
AcDbLine
 10
1701.487109776645
 20
2559.07655435187
 30
0.0
 11
1667.125945297196
 21
2106.945146596495
 31
0.0
  0
LINE
  5
EB
330
1F
100
AcDbEntity
  8
0-1_通り芯
  6
JWW_CENTER1
 62
   120
370
     5
100
AcDbLine
 10
1268.518712470403
 20
2781.945146596496
 30
0.0
 11
1268.518712470403
 21
2549.52831785552
 31
0.0
  0
LWPOLYLINE
  5
EC
330
1F
100
AcDbEntity
  8
0-B_寸法
  6
Continuous
 62
     7
370
     9
100
AcDbPolyline
 90
        4
 70
     1
 43
3.0
 10
1270.018712470403
 20
2961.945146596496
 42
0.4142135623731
 10
1268.518712470403
 20
2963.445146596496
 42
0.4142135623731
 10
1267.018712470403
 20
2961.945146596496
 42
0.4142135623731
 10
1268.518712470403
 20
2960.445146596496
 42
0.4142135623731
  0
LINE
  5
ED
330
1F
100
AcDbEntity
  8
0-B_寸法
  6
Continuous
 62
   120
370
     5
100
AcDbLine
 10
1268.518712470403
 20
2961.945146596496
 30
0.0
 11
1268.518712470403
 21
2781.945146596496
 31
0.0
  0
MTEXT
  5
EE
330
1F
100
AcDbEntity
  8
0-B_寸法
  6
Continuous
 62
     7
370
   211
100
AcDbMText
 10
-2253.481287529599
 20
1856.234295403514
 30
0.0
 40
68.5800000000026
 41
45.00000000000171
 46
0.0
 71
     7
 72
     1
  1
{\fＭＳ ゴシック|b0|i0|c128|p49;5}
 73
     1
 44
1.0
  0
ARC
  5
EF
330
1F
100
AcDbEntity
  8
0-6_扉
  6
JWW_DASHED2
 62
    40
370
    15
100
AcDbCircle
 10
-1702.397927419245
 20
2557.712520566675
 30
0.0
 40
18.0
100
AcDbArc
 50
4.346020721640005
 51
94.34602072164022
  0
LINE
  5
F0
330
1F
100
AcDbEntity
  8
0-6_扉
  6
JWW_DASHED2
 62
    40
370
    15
100
AcDbLine
 10
-1793.503174121479
 20
2568.840594224115
 30
0.0
 11
-1703.761961204441
 21
2575.660763150084
 31
0.0
  0
ARC
  5
F1
330
1F
100
AcDbEntity
  8
0-6_扉
  6
JWW_DASHED2
 62
    40
370
    15
100
AcDbCircle
 10
-1792.139140336285
 20
2550.892351640706
 30
0.0
 40
18.0
100
AcDbArc
 50
94.3460207216403
 51
184.3460207216401
  0
ARC
  5
F2
330
1F
100
AcDbEntity
  8
0-6_扉
  6
JWW_DASHED2
 62
    40
370
    15
100
AcDbCircle
 10
-1359.170743030044
 20
2557.712520566678
 30
0.0
 40
18.0
100
AcDbArc
 50
85.65397927836092
 51
175.653979278361
  0
LINE
  5
F3
330
1F
100
AcDbEntity
  8
0-6_扉
  6
JWW_DASHED2
 62
    40
370
    15
100
AcDbLine
 10
-1268.065496327813
 20
2568.84059422412
 30
0.0
 11
-1357.806709244851
 21
2575.660763150086
 31
0.0
  0
ARC
  5
F4
330
1F
100
AcDbEntity
  8
0-6_扉
  6
JWW_DASHED2
 62
    40
370
    15
100
AcDbCircle
 10
-1269.429530113004
 20
2550.892351640711
 30
0.0
 40
18.0
100
AcDbArc
 50
355.653979278361
 51
85.65397927836094
  0
LINE
  5
F5
330
1F
100
AcDbEntity
  8
0-6_扉
  6
JWW_DASHED2
 62
    40
370
    15
100
AcDbLine
 10
-1810.087382919692
 20
2549.528317855515
 30
0.0
 11
-1776.451867043972
 21
2106.945146596495
 31
0.0
  0
LINE
  5
F6
330
1F
100
AcDbEntity
  8
0-6_扉
  6
JWW_DASHED2
 62
    40
370
    15
100
AcDbLine
 10
-1251.4812875296
 20
2549.52831785552
 30
0.0
 11
-1285.11680340531
 21
2106.945146596495
 31
0.0
  0
LINE
  5
F7
330
1F
100
AcDbEntity
  8
0-6_扉
  6
JWW_DASHED2
 62
    40
370
    15
100
AcDbLine
 10
-1377.118985613451
 20
2559.076554351872
 30
0.0
 11
-1411.480150092891
 21
2106.945146596495
 31
0.0
  0
LINE
  5
F8
330
1F
100
AcDbEntity
  8
0-6_扉
  6
JWW_DASHED2
 62
    40
370
    15
100
AcDbLine
 10
-1684.449684835838
 20
2559.07655435187
 30
0.0
 11
-1650.088520356389
 21
2106.945146596495
 31
0.0
  0
LINE
  5
F9
330
1F
100
AcDbEntity
  8
0-1_通り芯
  6
JWW_CENTER1
 62
   120
370
     5
100
AcDbLine
 10
-1251.481287529597
 20
2781.945146596496
 30
0.0
 11
-1251.481287529597
 21
2549.52831785552
 31
0.0
  0
LWPOLYLINE
  5
FA
330
1F
100
AcDbEntity
  8
0-B_寸法
  6
Continuous
 62
     7
370
     9
100
AcDbPolyline
 90
        4
 70
     1
 43
3.0
 10
-1249.981287529597
 20
2961.945146596496
 42
0.4142135623731
 10
-1251.481287529597
 20
2963.445146596496
 42
0.4142135623731
 10
-1252.981287529597
 20
2961.945146596496
 42
0.4142135623731
 10
-1251.481287529597
 20
2960.445146596496
 42
0.4142135623731
  0
LINE
  5
FB
330
1F
100
AcDbEntity
  8
0-B_寸法
  6
Continuous
 62
   120
370
     5
100
AcDbLine
 10
-1251.481287529597
 20
2961.945146596496
 30
0.0
 11
-1251.481287529597
 21
2781.945146596496
 31
0.0
  0
LINE
  5
FC
330
1F
100
AcDbEntity
  8
0-B_寸法
  6
Continuous
 62
   120
370
     5
100
AcDbLine
 10
-1251.481287529597
 20
2961.945146596496
 30
0.0
 11
1268.518712470403
 21
2961.945146596496
 31
0.0
  0
MTEXT
  5
FD
330
1F
100
AcDbEntity
  8
0-B_寸法
  6
Continuous
 62
     7
370
   211
100
AcDbMText
 10
-2092.981287529597
 20
1796.234295403514
 30
0.0
 40
68.5800000000026
 41
45.00000000000171
 46
0.0
 71
     7
 72
     1
  1
{\fＭＳ ゴシック|b0|i0|c128|p49;9}
 73
     1
 44
1.0
  0
LINE
  5
FE
330
1F
100
AcDbEntity
  8
0-0_補助線
  6
JWW_HOJO
 62
     7
370
     9
100
AcDbLine
 10
8.518712470403216
 20
906.9442954035117
 30
0.0
 11
8.518712470403216
 21
3321.945146596496
 31
0.0
  0
MTEXT
  5
FF
330
1F
100
AcDbEntity
  8
0-B_寸法
  6
Continuous
 62
     7
370
   211
100
AcDbMText
 10
-2032.231287529596
 20
1799.091795403511
 30
0.0
 40
74.2949999999974
 41
97.49999999999659
 46
0.0
 71
     7
 72
     1
  1
{\fＭＳ ゴシック|b0|i0|c128|p49;10}
 73
     1
 44
1.0
  0
LINE
  5
100
330
1F
100
AcDbEntity
  8
0-0_補助線
  6
JWW_HOJO
 62
   120
370
     5
100
AcDbLine
 10
-2763.48108957774
 20
1086.944295403512
 30
0.0
 11
-2763.48108957774
 21
3141.945146596496
 31
0.0
  0
LINE
  5
101
330
1F
100
AcDbEntity
  8
0-0_補助線
  6
JWW_HOJO
 62
   120
370
     5
100
AcDbLine
 10
2780.51851451855
 20
1086.944295403512
 30
0.0
 11
2780.51851451855
 21
3141.945146596496
 31
0.0
  0
LINE
  5
102
330
1F
100
AcDbEntity
  8
0-0_補助線
  6
JWW_HOJO
 62
   120
370
     5
100
AcDbLine
 10
2780.51851451855
 20
1446.944295403512
 30
0.0
 11
-2763.48108957774
 21
1446.944295403512
 31
0.0
  0
LINE
  5
103
330
1F
100
AcDbEntity
  8
0-0_補助線
  6
JWW_HOJO
 62
   120
370
     5
100
AcDbLine
 10
2780.51851451855
 20
1266.944295403512
 30
0.0
 11
-2763.48108957774
 21
1266.944295403512
 31
0.0
  0
LINE
  5
104
330
1F
100
AcDbEntity
  8
0-0_補助線
  6
JWW_HOJO
 62
   120
370
     5
100
AcDbLine
 10
2780.51851451855
 20
1086.944295403512
 30
0.0
 11
-2763.48108957774
 21
1086.944295403512
 31
0.0
  0
LINE
  5
105
330
1F
100
AcDbEntity
  8
0-0_補助線
  6
JWW_HOJO
 62
     7
370
     9
100
AcDbLine
 10
-1983.481287529598
 20
906.9442954035117
 30
0.0
 11
-1983.481287529598
 21
3321.945146596496
 31
0.0
  0
LINE
  5
106
330
1F
100
AcDbEntity
  8
0-0_補助線
  6
JWW_HOJO
 62
     7
370
     9
100
AcDbLine
 10
2000.518712470403
 20
906.9442954035117
 30
0.0
 11
2000.518712470403
 21
3321.945146596496
 31
0.0
  0
LINE
  5
107
330
1F
100
AcDbEntity
  8
0-0_補助線
  6
JWW_HOJO
 62
   120
370
     5
100
AcDbLine
 10
2780.51851451855
 20
1626.944295403512
 30
0.0
 11
-2763.48108957774
 21
1626.944295403512
 31
0.0
  0
LINE
  5
108
330
1F
100
AcDbEntity
  8
0-0_補助線
  6
JWW_HOJO
 62
   120
370
     5
100
AcDbLine
 10
2780.51851451855
 20
1806.944295403512
 30
0.0
 11
-2763.48108957774
 21
1806.944295403512
 31
0.0
  0
LINE
  5
109
330
1F
100
AcDbEntity
  8
0-B_寸法
  6
Continuous
 62
   120
370
     5
100
AcDbLine
 10
-2163.481287529598
 20
1266.944295403512
 30
0.0
 11
-1983.481287529598
 21
1266.944295403512
 31
0.0
  0
LWPOLYLINE
  5
10A
330
1F
100
AcDbEntity
  8
0-B_寸法
  6
Continuous
 62
     7
370
     9
100
AcDbPolyline
 90
        4
 70
     1
 43
3.0
 10
-2161.981287529598
 20
1266.944295403512
 42
0.4142135623731
 10
-2163.481287529598
 20
1268.444295403512
 42
0.4142135623731
 10
-2164.981287529598
 20
1266.944295403512
 42
0.4142135623731
 10
-2163.481287529598
 20
1265.444295403512
 42
0.4142135623731
  0
LWPOLYLINE
  5
10B
330
1F
100
AcDbEntity
  8
0-B_寸法
  6
Continuous
 62
     7
370
     9
100
AcDbPolyline
 90
        4
 70
     1
 43
3.0
 10
-1981.981287529598
 20
1266.944295403512
 42
0.4142135623731
 10
-1983.481287529598
 20
1268.444295403512
 42
0.4142135623731
 10
-1984.981287529598
 20
1266.944295403512
 42
0.4142135623731
 10
-1983.481287529598
 20
1265.444295403512
 42
0.4142135623731
  0
LINE
  5
10C
330
1F
100
AcDbEntity
  8
0-B_寸法
  6
Continuous
 62
   120
370
     5
100
AcDbLine
 10
-1983.481287529598
 20
1266.944295403512
 30
0.0
 11
-1983.481287529598
 21
1626.944295403512
 31
0.0
  0
MTEXT
  5
10D
330
1F
100
AcDbEntity
  8
0-B_寸法
  6
Continuous
 62
     7
370
   211
100
AcDbMText
 10
-2250.481287529597
 20
1706.234295403514
 30
0.0
 40
68.5800000000026
 41
45.00000000000171
 46
0.0
 71
     7
 72
     1
  1
{\fＭＳ ゴシック|b0|i0|c128|p49;6}
 73
     1
 44
1.0
  0
LINE
  5
10E
330
1F
100
AcDbEntity
  8
0-B_寸法
  6
Continuous
 62
   120
370
     5
100
AcDbLine
 10
-1983.481287529598
 20
1266.944295403512
 30
0.0
 11
2000.518712470403
 21
1266.944295403512
 31
0.0
  0
LWPOLYLINE
  5
10F
330
1F
100
AcDbEntity
  8
0-B_寸法
  6
Continuous
 62
     7
370
     9
100
AcDbPolyline
 90
        4
 70
     1
 43
3.0
 10
2002.018712470403
 20
1266.944295403512
 42
0.4142135623731
 10
2000.518712470403
 20
1268.444295403512
 42
0.4142135623731
 10
1999.018712470403
 20
1266.944295403512
 42
0.4142135623731
 10
2000.518712470403
 20
1265.444295403512
 42
0.4142135623731
  0
LINE
  5
110
330
1F
100
AcDbEntity
  8
0-B_寸法
  6
Continuous
 62
   120
370
     5
100
AcDbLine
 10
2000.518712470403
 20
1266.944295403512
 30
0.0
 11
2000.518712470403
 21
1626.944295403512
 31
0.0
  0
LINE
  5
111
330
1F
100
AcDbEntity
  8
0-B_寸法
  6
Continuous
 62
   120
370
     5
100
AcDbLine
 10
2000.518712470403
 20
1266.944295403512
 30
0.0
 11
2180.518712470403
 21
1266.944295403512
 31
0.0
  0
LWPOLYLINE
  5
112
330
1F
100
AcDbEntity
  8
0-B_寸法
  6
Continuous
 62
     7
370
     9
100
AcDbPolyline
 90
        4
 70
     1
 43
3.0
 10
2182.018712470403
 20
1266.944295403512
 42
0.4142135623731
 10
2180.518712470403
 20
1268.444295403512
 42
0.4142135623731
 10
2179.018712470403
 20
1266.944295403512
 42
0.4142135623731
 10
2180.518712470403
 20
1265.444295403512
 42
0.4142135623731
  0
MTEXT
  5
113
330
1F
100
AcDbEntity
  8
0-B_寸法
  6
Continuous
 62
     7
370
   211
100
AcDbMText
 10
-1829.731287529596
 20
1627.664295403512
 30
0.0
 40
91.43999999999953
 41
659.9999999999966
 46
0.0
 71
     7
 72
     1
  1
{\fＭＳ ゴシック|b0|i0|c128|p49;ＤＷ＝282.5}
 73
     1
 44
1.0
  0
LINE
  5
114
330
1F
100
AcDbEntity
  8
0-B_寸法
  6
Continuous
 62
   120
370
     5
100
AcDbLine
 10
-2163.481287529598
 20
1086.944295403512
 30
0.0
 11
2180.518712470403
 21
1086.944295403512
 31
0.0
  0
LWPOLYLINE
  5
115
330
1F
100
AcDbEntity
  8
0-B_寸法
  6
Continuous
 62
     7
370
     9
100
AcDbPolyline
 90
        4
 70
     1
 43
3.0
 10
-2161.981287529598
 20
1086.944295403512
 42
0.4142135623731
 10
-2163.481287529598
 20
1088.444295403512
 42
0.4142135623731
 10
-2164.981287529598
 20
1086.944295403512
 42
0.4142135623731
 10
-2163.481287529598
 20
1085.444295403512
 42
0.4142135623731
  0
LWPOLYLINE
  5
116
330
1F
100
AcDbEntity
  8
0-B_寸法
  6
Continuous
 62
     7
370
     9
100
AcDbPolyline
 90
        4
 70
     1
 43
3.0
 10
2182.018712470403
 20
1086.944295403512
 42
0.4142135623731
 10
2180.518712470403
 20
1088.444295403512
 42
0.4142135623731
 10
2179.018712470403
 20
1086.944295403512
 42
0.4142135623731
 10
2180.518712470403
 20
1085.444295403512
 42
0.4142135623731
  0
LINE
  5
117
330
1F
100
AcDbEntity
  8
0-B_寸法
  6
Continuous
 62
   120
370
     5
100
AcDbLine
 10
-2163.481287529598
 20
1086.944295403512
 30
0.0
 11
-2163.481287529598
 21
1266.944295403512
 31
0.0
  0
LINE
  5
118
330
1F
100
AcDbEntity
  8
0-B_寸法
  6
Continuous
 62
   120
370
     5
100
AcDbLine
 10
2180.518712470403
 20
1086.944295403512
 30
0.0
 11
2180.518712470403
 21
1266.944295403512
 31
0.0
  0
LINE
  5
119
330
1F
100
AcDbEntity
  8
0-0_補助線
  6
JWW_HOJO
 62
     7
370
     9
100
AcDbLine
 10
-997.9812875295988
 20
906.9442954035117
 30
0.0
 11
-997.9812875295988
 21
3321.945146596496
 31
0.0
  0
LINE
  5
11A
330
1F
100
AcDbEntity
  8
0-0_補助線
  6
JWW_HOJO
 62
     7
370
     9
100
AcDbLine
 10
1015.018712470404
 20
906.9442954035117
 30
0.0
 11
1015.018712470404
 21
3321.945146596496
 31
0.0
  0
LINE
  5
11B
330
1F
100
AcDbEntity
  8
0-B_寸法
  6
Continuous
 62
   120
370
     5
100
AcDbLine
 10
-1998.481287529598
 20
1626.944295403512
 30
0.0
 11
-1000.981287529597
 21
1626.944295403512
 31
0.0
  0
LWPOLYLINE
  5
11C
330
1F
100
AcDbEntity
  8
0-B_寸法
  6
Continuous
 62
     7
370
     9
100
AcDbPolyline
 90
        4
 70
     1
 43
3.0
 10
-1996.981287529598
 20
1626.944295403512
 42
0.4142135623731
 10
-1998.481287529598
 20
1628.444295403512
 42
0.4142135623731
 10
-1999.981287529598
 20
1626.944295403512
 42
0.4142135623731
 10
-1998.481287529598
 20
1625.444295403512
 42
0.4142135623731
  0
LWPOLYLINE
  5
11D
330
1F
100
AcDbEntity
  8
0-B_寸法
  6
Continuous
 62
     7
370
     9
100
AcDbPolyline
 90
        4
 70
     1
 43
3.0
 10
-999.481287529597
 20
1626.944295403512
 42
0.4142135623731
 10
-1000.981287529597
 20
1628.444295403512
 42
0.4142135623731
 10
-1002.481287529597
 20
1626.944295403512
 42
0.4142135623731
 10
-1000.981287529597
 20
1625.444295403512
 42
0.4142135623731
  0
LINE
  5
11E
330
1F
100
AcDbEntity
  8
0-B_寸法
  6
Continuous
 62
   120
370
     5
100
AcDbLine
 10
-1998.481287529598
 20
1446.944295403512
 30
0.0
 11
-1998.481287529598
 21
1806.944295403512
 31
0.0
  0
LINE
  5
11F
330
1F
100
AcDbEntity
  8
0-B_寸法
  6
Continuous
 62
   120
370
     5
100
AcDbLine
 10
-1000.981287529597
 20
1626.944295403512
 30
0.0
 11
-1000.981287529597
 21
1806.944295403512
 31
0.0
  0
LINE
  5
120
330
1F
100
AcDbEntity
  8
0-B_寸法
  6
Continuous
 62
   120
370
     5
100
AcDbLine
 10
-994.9812875295981
 20
1626.944295403512
 30
0.0
 11
2.518712470403557
 21
1626.944295403512
 31
0.0
  0
LWPOLYLINE
  5
121
330
1F
100
AcDbEntity
  8
0-B_寸法
  6
Continuous
 62
     7
370
     9
100
AcDbPolyline
 90
        4
 70
     1
 43
3.0
 10
-993.4812875295983
 20
1626.944295403512
 42
0.4142135623731
 10
-994.9812875295981
 20
1628.444295403512
 42
0.4142135623731
 10
-996.481287529598
 20
1626.944295403512
 42
0.4142135623731
 10
-994.9812875295981
 20
1625.444295403512
 42
0.4142135623731
  0
LWPOLYLINE
  5
122
330
1F
100
AcDbEntity
  8
0-B_寸法
  6
Continuous
 62
     7
370
     9
100
AcDbPolyline
 90
        4
 70
     1
 43
3.0
 10
4.018712470403557
 20
1626.944295403512
 42
0.4142135623731
 10
2.518712470403557
 20
1628.444295403512
 42
0.4142135623731
 10
1.018712470403557
 20
1626.944295403512
 42
0.4142135623731
 10
2.518712470403557
 20
1625.444295403512
 42
0.4142135623731
  0
LINE
  5
123
330
1F
100
AcDbEntity
  8
0-B_寸法
  6
Continuous
 62
   120
370
     5
100
AcDbLine
 10
-994.9812875295981
 20
1626.944295403512
 30
0.0
 11
-994.9812875295981
 21
1806.944295403512
 31
0.0
  0
LINE
  5
124
330
1F
100
AcDbEntity
  8
0-B_寸法
  6
Continuous
 62
   120
370
     5
100
AcDbLine
 10
2.518712470403557
 20
1446.944295403512
 30
0.0
 11
2.518712470403557
 21
1806.944295403512
 31
0.0
  0
LINE
  5
125
330
1F
100
AcDbEntity
  8
0-B_寸法
  6
Continuous
 62
   120
370
     5
100
AcDbLine
 10
14.51871247040202
 20
1626.944295403512
 30
0.0
 11
1012.018712470404
 21
1626.944295403512
 31
0.0
  0
LWPOLYLINE
  5
126
330
1F
100
AcDbEntity
  8
0-B_寸法
  6
Continuous
 62
     7
370
     9
100
AcDbPolyline
 90
        4
 70
     1
 43
3.0
 10
16.01871247040202
 20
1626.944295403512
 42
0.4142135623731
 10
14.51871247040202
 20
1628.444295403512
 42
0.4142135623731
 10
13.01871247040202
 20
1626.944295403512
 42
0.4142135623731
 10
14.51871247040202
 20
1625.444295403512
 42
0.4142135623731
  0
LWPOLYLINE
  5
127
330
1F
100
AcDbEntity
  8
0-B_寸法
  6
Continuous
 62
     7
370
     9
100
AcDbPolyline
 90
        4
 70
     1
 43
3.0
 10
1013.518712470404
 20
1626.944295403512
 42
0.4142135623731
 10
1012.018712470404
 20
1628.444295403512
 42
0.4142135623731
 10
1010.518712470404
 20
1626.944295403512
 42
0.4142135623731
 10
1012.018712470404
 20
1625.444295403512
 42
0.4142135623731
  0
LINE
  5
128
330
1F
100
AcDbEntity
  8
0-B_寸法
  6
Continuous
 62
   120
370
     5
100
AcDbLine
 10
14.51871247040202
 20
1446.944295403512
 30
0.0
 11
14.51871247040202
 21
1806.944295403512
 31
0.0
  0
LINE
  5
129
330
1F
100
AcDbEntity
  8
0-B_寸法
  6
Continuous
 62
   120
370
     5
100
AcDbLine
 10
1012.018712470404
 20
1626.944295403512
 30
0.0
 11
1012.018712470404
 21
1806.944295403512
 31
0.0
  0
LINE
  5
12A
330
1F
100
AcDbEntity
  8
0-B_寸法
  6
Continuous
 62
   120
370
     5
100
AcDbLine
 10
1018.018712470403
 20
1626.944295403512
 30
0.0
 11
2015.518712470406
 21
1626.944295403512
 31
0.0
  0
LWPOLYLINE
  5
12B
330
1F
100
AcDbEntity
  8
0-B_寸法
  6
Continuous
 62
     7
370
     9
100
AcDbPolyline
 90
        4
 70
     1
 43
3.0
 10
1019.518712470403
 20
1626.944295403512
 42
0.4142135623731
 10
1018.018712470403
 20
1628.444295403512
 42
0.4142135623731
 10
1016.518712470403
 20
1626.944295403512
 42
0.4142135623731
 10
1018.018712470403
 20
1625.444295403512
 42
0.4142135623731
  0
LWPOLYLINE
  5
12C
330
1F
100
AcDbEntity
  8
0-B_寸法
  6
Continuous
 62
     7
370
     9
100
AcDbPolyline
 90
        4
 70
     1
 43
3.0
 10
2017.018712470406
 20
1626.944295403512
 42
0.4142135623731
 10
2015.518712470406
 20
1628.444295403512
 42
0.4142135623731
 10
2014.018712470406
 20
1626.944295403512
 42
0.4142135623731
 10
2015.518712470406
 20
1625.444295403512
 42
0.4142135623731
  0
LINE
  5
12D
330
1F
100
AcDbEntity
  8
0-B_寸法
  6
Continuous
 62
   120
370
     5
100
AcDbLine
 10
1018.018712470403
 20
1626.944295403512
 30
0.0
 11
1018.018712470403
 21
1806.944295403512
 31
0.0
  0
LINE
  5
12E
330
1F
100
AcDbEntity
  8
0-B_寸法
  6
Continuous
 62
   120
370
     5
100
AcDbLine
 10
2015.518712470406
 20
1446.944295403512
 30
0.0
 11
2015.518712470406
 21
1806.944295403512
 31
0.0
  0
LINE
  5
12F
330
1F
100
AcDbEntity
  8
0-B_寸法
  6
Continuous
 62
   120
370
     5
100
AcDbLine
 10
-1998.481287529598
 20
1446.944295403512
 30
0.0
 11
2.518712470403557
 21
1446.944295403512
 31
0.0
  0
LWPOLYLINE
  5
130
330
1F
100
AcDbEntity
  8
0-B_寸法
  6
Continuous
 62
     7
370
     9
100
AcDbPolyline
 90
        4
 70
     1
 43
3.0
 10
-1996.981287529598
 20
1446.944295403512
 42
0.4142135623731
 10
-1998.481287529598
 20
1448.444295403512
 42
0.4142135623731
 10
-1999.981287529598
 20
1446.944295403512
 42
0.4142135623731
 10
-1998.481287529598
 20
1445.444295403512
 42
0.4142135623731
  0
LWPOLYLINE
  5
131
330
1F
100
AcDbEntity
  8
0-B_寸法
  6
Continuous
 62
     7
370
     9
100
AcDbPolyline
 90
        4
 70
     1
 43
3.0
 10
4.018712470403557
 20
1446.944295403512
 42
0.4142135623731
 10
2.518712470403557
 20
1448.444295403512
 42
0.4142135623731
 10
1.018712470403557
 20
1446.944295403512
 42
0.4142135623731
 10
2.518712470403557
 20
1445.444295403512
 42
0.4142135623731
  0
LINE
  5
132
330
1F
100
AcDbEntity
  8
0-B_寸法
  6
Continuous
 62
   120
370
     5
100
AcDbLine
 10
2.518712470403557
 20
1446.944295403512
 30
0.0
 11
14.51871247040202
 21
1446.944295403512
 31
0.0
  0
LWPOLYLINE
  5
133
330
1F
100
AcDbEntity
  8
0-B_寸法
  6
Continuous
 62
     7
370
     9
100
AcDbPolyline
 90
        4
 70
     1
 43
3.0
 10
16.01871247040202
 20
1446.944295403512
 42
0.4142135623731
 10
14.51871247040202
 20
1448.444295403512
 42
0.4142135623731
 10
13.01871247040202
 20
1446.944295403512
 42
0.4142135623731
 10
14.51871247040202
 20
1445.444295403512
 42
0.4142135623731
  0
LINE
  5
134
330
1F
100
AcDbEntity
  8
0-B_寸法
  6
Continuous
 62
   120
370
     5
100
AcDbLine
 10
14.51871247040202
 20
1446.944295403512
 30
0.0
 11
2015.518712470406
 21
1446.944295403512
 31
0.0
  0
LWPOLYLINE
  5
135
330
1F
100
AcDbEntity
  8
0-B_寸法
  6
Continuous
 62
     7
370
     9
100
AcDbPolyline
 90
        4
 70
     1
 43
3.0
 10
2017.018712470406
 20
1446.944295403512
 42
0.4142135623731
 10
2015.518712470406
 20
1448.444295403512
 42
0.4142135623731
 10
2014.018712470406
 20
1446.944295403512
 42
0.4142135623731
 10
2015.518712470406
 20
1445.444295403512
 42
0.4142135623731
  0
MTEXT
  5
136
330
1F
100
AcDbEntity
  8
0-B_寸法
  6
Continuous
 62
     7
370
   211
100
AcDbMText
 10
-826.2312875295991
 20
1627.664295403512
 30
0.0
 40
91.44000000000013
 41
660.0000000000009
 46
0.0
 71
     7
 72
     1
  1
{\fＭＳ ゴシック|b0|i0|c128|p49;ＤＷ＝282.5}
 73
     1
 44
1.0
  0
MTEXT
  5
137
330
1F
100
AcDbEntity
  8
0-B_寸法
  6
Continuous
 62
     7
370
   211
100
AcDbMText
 10
183.2687124704029
 20
1627.664295403512
 30
0.0
 40
91.44000000000017
 41
660.0000000000013
 46
0.0
 71
     7
 72
     1
  1
{\fＭＳ ゴシック|b0|i0|c128|p49;ＤＷ＝282.5}
 73
     1
 44
1.0
  0
MTEXT
  5
138
330
1F
100
AcDbEntity
  8
0-B_寸法
  6
Continuous
 62
     7
370
   211
100
AcDbMText
 10
1186.768712470405
 20
1627.664295403512
 30
0.0
 40
91.44000000000013
 41
660.0000000000009
 46
0.0
 71
     7
 72
     1
  1
{\fＭＳ ゴシック|b0|i0|c128|p49;ＤＷ＝282.5}
 73
     1
 44
1.0
  0
MTEXT
  5
139
330
1F
100
AcDbEntity
  8
0-B_寸法
  6
Continuous
 62
     7
370
   211
100
AcDbMText
 10
-1447.981287529599
 20
1447.664295403512
 30
0.0
 40
91.44000000000001
 41
900.0
 46
0.0
 71
     7
 72
     1
  1
{\fＭＳ ゴシック|b0|i0|c128|p49;折戸：ＤＷ＝566}
 73
     1
 44
1.0
  0
MTEXT
  5
13A
330
1F
100
AcDbEntity
  8
0-B_寸法
  6
Continuous
 62
     7
370
   211
100
AcDbMText
 10
38.51871247040236
 20
1447.664295403513
 30
0.0
 40
91.4400000000013
 41
60.00000000000085
 46
0.0
 71
     7
 72
     1
  1
{\fＭＳ ゴシック|b0|i0|c128|p49;2}
 73
     1
 44
1.0
  0
MTEXT
  5
13B
330
1F
100
AcDbEntity
  8
0-B_寸法
  6
Continuous
 62
     7
370
   211
100
AcDbMText
 10
565.0187124704053
 20
1447.664295403512
 30
0.0
 40
91.44000000000001
 41
900.0
 46
0.0
 71
     7
 72
     1
  1
{\fＭＳ ゴシック|b0|i0|c128|p49;折戸：ＤＷ＝566}
 73
     1
 44
1.0
  0
MTEXT
  5
13C
330
1F
100
AcDbEntity
  8
0-B_寸法
  6
Continuous
 62
     7
370
   211
100
AcDbMText
 10
-2133.481287529599
 20
1267.664295403513
 30
0.0
 40
91.4400000000013
 41
120.0000000000017
 46
0.0
 71
     7
 72
     1
  1
{\fＭＳ ゴシック|b0|i0|c128|p49;30}
 73
     1
 44
1.0
  0
MTEXT
  5
13D
330
1F
100
AcDbEntity
  8
0-B_寸法
  6
Continuous
 62
     7
370
   211
100
AcDbMText
 10
-321.4812875295976
 20
1267.664295403512
 30
0.0
 40
91.44000000000013
 41
660.0000000000009
 46
0.0
 71
     7
 72
     1
  1
{\fＭＳ ゴシック|b0|i0|c128|p49;枠内＝1,129}
 73
     1
 44
1.0
  0
MTEXT
  5
13E
330
1F
100
AcDbEntity
  8
0-B_寸法
  6
Continuous
 62
     7
370
   211
100
AcDbMText
 10
2030.518712470403
 20
1267.664295403512
 30
0.0
 40
91.43999999999967
 41
119.9999999999996
 46
0.0
 71
     7
 72
     1
  1
{\fＭＳ ゴシック|b0|i0|c128|p49;30}
 73
     1
 44
1.0
  0
MTEXT
  5
13F
330
1F
100
AcDbEntity
  8
0-B_寸法
  6
Continuous
 62
     7
370
   211
100
AcDbMText
 10
-321.4812875295976
 20
1087.664295403512
 30
0.0
 40
91.44000000000013
 41
660.0000000000009
 46
0.0
 71
     7
 72
     1
  1
{\fＭＳ ゴシック|b0|i0|c128|p49;枠外＝1,189}
 73
     1
 44
1.0
  0
LINE
  5
140
330
1F
100
AcDbEntity
  8
0-B_寸法
  6
Continuous
 62
   120
370
     5
100
AcDbLine
 10
-2163.481287529598
 20
1266.944295403512
 30
0.0
 11
-2163.481287529598
 21
1806.944295403512
 31
0.0
  0
LINE
  5
141
330
1F
100
AcDbEntity
  8
0-B_寸法
  6
Continuous
 62
   120
370
     5
100
AcDbLine
 10
2180.518712470403
 20
1266.944295403512
 30
0.0
 11
2180.518712470403
 21
1806.944295403512
 31
0.0
  0
LINE
  5
142
330
1F
100
AcDbEntity
  8
0-0_補助線
  6
JWW_HOJO
 62
   120
370
     5
100
AcDbLine
 10
2780.51851451855
 20
1986.944295403512
 30
0.0
 11
-2763.48108957774
 21
1986.944295403512
 31
0.0
  0
LINE
  5
143
330
1F
100
AcDbEntity
  8
0-0_補助線
  6
JWW_HOJO
 62
   120
370
     5
100
AcDbLine
 10
2780.51851451855
 20
2961.945146596496
 30
0.0
 11
-2763.48108957774
 21
2961.945146596496
 31
0.0
  0
LINE
  5
144
330
1F
100
AcDbEntity
  8
0-C_ハッチ
  6
Continuous
 62
   120
370
     5
100
AcDbLine
 10
-2163.481287529593
 20
2387.264773392185
 30
0.0
 11
-1983.481287529596
 21
2567.264773392182
 31
0.0
  0
LINE
  5
145
330
1F
100
AcDbEntity
  8
0-C_ハッチ
  6
Continuous
 62
   120
370
     5
100
AcDbLine
 10
-2163.4812875296
 20
2327.867803772475
 30
0.0
 11
-1983.48128752961
 21
2507.867803772466
 31
0.0
  0
LINE
  5
146
330
1F
100
AcDbEntity
  8
0-C_ハッチ
  6
Continuous
 62
   120
370
     5
100
AcDbLine
 10
-2163.481287529596
 20
2268.470834152833
 30
0.0
 11
-2014.383270770351
 21
2417.568850912079
 31
0.0
  0
LINE
  5
147
330
1F
100
AcDbEntity
  8
0-C_ハッチ
  6
Continuous
 62
   120
370
     5
100
AcDbLine
 10
-2163.481287529591
 20
2209.07386453319
 30
0.0
 11
-2019.356266750771
 21
2353.198885312012
 31
0.0
  0
ARC
  5
148
330
1F
100
AcDbEntity
  8
0-4_枠
  6
Continuous
 62
    92
370
    13
100
AcDbCircle
 10
-1713.481287529596
 20
2361.945146596495
 30
0.0
 40
306.0000000000022
100
AcDbArc
 50
151.9275130641473
 51
208.0724869358527
  0
LINE
  5
149
330
1F
100
AcDbEntity
  8
0-4_枠
  6
Continuous
 62
    92
370
    13
100
AcDbLine
 10
-2097.481287529599
 20
2190.946220485324
 30
0.0
 11
-2043.481287529598
 21
2190.946220485324
 31
0.0
  0
LINE
  5
14A
330
1F
100
AcDbEntity
  8
0-4_枠
  6
Continuous
 62
    92
370
    13
100
AcDbLine
 10
-2163.481287529598
 20
2172.946220485324
 30
0.0
 11
-2133.481287529598
 21
2172.946220485324
 31
0.0
  0
LINE
  5
14B
330
1F
100
AcDbEntity
  8
0-4_枠
  6
Continuous
 62
    92
370
    13
100
AcDbLine
 10
-2133.481287529598
 20
2130.946220485324
 30
0.0
 11
-2133.481287529598
 21
2172.946220485324
 31
0.0
  0
LINE
  5
14C
330
1F
100
AcDbEntity
  8
0-4_枠
  6
Continuous
 62
    92
370
    13
100
AcDbLine
 10
-2097.481287529599
 20
2130.946220485324
 30
0.0
 11
-2097.481287529599
 21
2190.946220485324
 31
0.0
  0
LINE
  5
14D
330
1F
100
AcDbEntity
  8
0-4_枠
  6
Continuous
 62
    92
370
    13
100
AcDbLine
 10
-2133.481287529598
 20
2130.946220485324
 30
0.0
 11
-2097.481287529599
 21
2130.946220485324
 31
0.0
  0
LINE
  5
14E
330
1F
100
AcDbEntity
  8
0-4_枠
  6
Continuous
 62
    92
370
    13
100
AcDbLine
 10
-2043.481287529598
 20
2130.946220485324
 30
0.0
 11
-2043.481287529598
 21
2190.946220485324
 31
0.0
  0
LINE
  5
14F
330
1F
100
AcDbEntity
  8
0-4_枠
  6
Continuous
 62
    92
370
    13
100
AcDbLine
 10
-2043.481287529598
 20
2130.946220485324
 30
0.0
 11
-2028.069244562475
 21
2130.946220485324
 31
0.0
  0
LINE
  5
150
330
1F
100
AcDbEntity
  8
0-4_枠
  6
Continuous
 62
    92
370
    13
100
AcDbLine
 10
-2028.069244562475
 20
2130.946220485324
 30
0.0
 11
-1983.481287529598
 21
2130.946220485324
 31
0.0
  0
LINE
  5
151
330
1F
100
AcDbEntity
  8
0-4_枠
  6
Continuous
 62
    92
370
    13
100
AcDbLine
 10
-1983.481287529598
 20
2130.946220485324
 30
0.0
 11
-1983.481287529598
 21
2217.945146596495
 31
0.0
  0
LINE
  5
152
330
1F
100
AcDbEntity
  8
0-4_枠
  6
Continuous
 62
    92
370
    13
100
AcDbLine
 10
-2163.481287529598
 20
2172.946220485324
 30
0.0
 11
-2163.481287529598
 21
2592.946220485323
 31
0.0
  0
LINE
  5
153
330
1F
100
AcDbEntity
  8
0-C_ハッチ
  6
Continuous
 62
   120
370
     5
100
AcDbLine
 10
-2163.481287529612
 20
2565.455682251162
 30
0.0
 11
-2135.990749295451
 21
2592.946220485323
 31
0.0
  0
LINE
  5
154
330
1F
100
AcDbEntity
  8
0-C_ハッチ
  6
Continuous
 62
   120
370
     5
100
AcDbLine
 10
-2163.481287529607
 20
2446.661743011819
 30
0.0
 11
-2017.196810056102
 21
2592.946220485323
 31
0.0
  0
LINE
  5
155
330
1F
100
AcDbEntity
  8
0-C_ハッチ
  6
Continuous
 62
   120
370
     5
100
AcDbLine
 10
-2163.481287529596
 20
2506.058712631533
 30
0.0
 11
-2076.593779675804
 21
2592.946220485323
 31
0.0
  0
LINE
  5
156
330
1F
100
AcDbEntity
  8
0-4_枠
  6
Continuous
 62
    92
370
    13
100
AcDbLine
 10
-1983.481287529598
 20
2505.945146596494
 30
0.0
 11
-1983.481287529598
 21
2592.946220485323
 31
0.0
  0
LINE
  5
157
330
1F
100
AcDbEntity
  8
0-4_枠
  6
Continuous
 62
    92
370
    13
100
AcDbLine
 10
-2163.481287529598
 20
2592.946220485323
 30
0.0
 11
-1983.481287529598
 21
2592.946220485323
 31
0.0
  0
LINE
  5
158
330
1F
100
AcDbEntity
  8
0-C_ハッチ
  6
Continuous
 62
   120
370
     5
100
AcDbLine
 10
-2140.211961957756
 20
2172.946220485324
 30
0.0
 11
-2013.147891665964
 21
2300.010290777117
 31
0.0
  0
LINE
  5
159
330
1F
100
AcDbEntity
  8
0-C_ハッチ
  6
Continuous
 62
   120
370
     5
100
AcDbLine
 10
-2062.814992338109
 20
2190.946220485324
 30
0.0
 11
-1999.796278123473
 21
2253.96493469996
 31
0.0
  0
LINE
  5
15A
330
1F
100
AcDbEntity
  8
0-C_ハッチ
  6
Continuous
 62
   120
370
     5
100
AcDbLine
 10
-2122.814992338109
 20
2130.946220485324
 30
0.0
 11
-2097.481287529599
 21
2156.279925293836
 31
0.0
  0
LINE
  5
15B
330
1F
100
AcDbEntity
  8
0-C_ハッチ
  6
Continuous
 62
   120
370
     5
100
AcDbLine
 10
-2043.481287529598
 20
2150.882955674133
 30
0.0
 11
-1983.4812875296
 21
2210.882955674132
 31
0.0
  0
LINE
  5
15C
330
1F
100
AcDbEntity
  8
0-C_ハッチ
  6
Continuous
 62
   120
370
     5
100
AcDbLine
 10
-2004.02105309876
 20
2130.946220485324
 30
0.0
 11
-1983.481287529603
 21
2151.48598605448
 31
0.0
  0
ARC
  5
15D
330
1F
100
AcDbEntity
  8
0-4_枠
  6
Continuous
 62
    92
370
    13
100
AcDbCircle
 10
1730.518712470402
 20
2361.945146596495
 30
0.0
 40
306.0000000000022
100
AcDbArc
 50
331.9275130641473
 51
28.07248693585271
  0
LINE
  5
15E
330
1F
100
AcDbEntity
  8
0-4_枠
  6
Continuous
 62
    92
370
    13
100
AcDbLine
 10
2114.518712470404
 20
2190.946220485324
 30
0.0
 11
2060.518712470403
 21
2190.946220485324
 31
0.0
  0
LINE
  5
15F
330
1F
100
AcDbEntity
  8
0-4_枠
  6
Continuous
 62
    92
370
    13
100
AcDbLine
 10
2180.518712470403
 20
2172.946220485324
 30
0.0
 11
2150.518712470403
 21
2172.946220485324
 31
0.0
  0
LINE
  5
160
330
1F
100
AcDbEntity
  8
0-4_枠
  6
Continuous
 62
    92
370
    13
100
AcDbLine
 10
2150.518712470403
 20
2130.946220485324
 30
0.0
 11
2150.518712470403
 21
2172.946220485324
 31
0.0
  0
LINE
  5
161
330
1F
100
AcDbEntity
  8
0-4_枠
  6
Continuous
 62
    92
370
    13
100
AcDbLine
 10
2114.518712470404
 20
2130.946220485324
 30
0.0
 11
2114.518712470404
 21
2190.946220485324
 31
0.0
  0
LINE
  5
162
330
1F
100
AcDbEntity
  8
0-4_枠
  6
Continuous
 62
    92
370
    13
100
AcDbLine
 10
2150.518712470403
 20
2130.946220485324
 30
0.0
 11
2114.518712470404
 21
2130.946220485324
 31
0.0
  0
LINE
  5
163
330
1F
100
AcDbEntity
  8
0-4_枠
  6
Continuous
 62
    92
370
    13
100
AcDbLine
 10
2060.518712470403
 20
2130.946220485324
 30
0.0
 11
2060.518712470403
 21
2190.946220485324
 31
0.0
  0
LINE
  5
164
330
1F
100
AcDbEntity
  8
0-4_枠
  6
Continuous
 62
    92
370
    13
100
AcDbLine
 10
2060.518712470403
 20
2130.946220485324
 30
0.0
 11
2045.106669503281
 21
2130.946220485324
 31
0.0
  0
LINE
  5
165
330
1F
100
AcDbEntity
  8
0-4_枠
  6
Continuous
 62
    92
370
    13
100
AcDbLine
 10
2045.106669503281
 20
2130.946220485324
 30
0.0
 11
2000.518712470403
 21
2130.946220485324
 31
0.0
  0
LINE
  5
166
330
1F
100
AcDbEntity
  8
0-4_枠
  6
Continuous
 62
    92
370
    13
100
AcDbLine
 10
2000.518712470403
 20
2130.946220485324
 30
0.0
 11
2000.518712470403
 21
2217.945146596495
 31
0.0
  0
LINE
  5
167
330
1F
100
AcDbEntity
  8
0-4_枠
  6
Continuous
 62
    92
370
    13
100
AcDbLine
 10
2180.518712470403
 20
2172.946220485324
 30
0.0
 11
2180.518712470403
 21
2592.946220485323
 31
0.0
  0
LINE
  5
168
330
1F
100
AcDbEntity
  8
0-4_枠
  6
Continuous
 62
    92
370
    13
100
AcDbLine
 10
2000.518712470403
 20
2505.945146596494
 30
0.0
 11
2000.518712470403
 21
2592.946220485323
 31
0.0
  0
LINE
  5
169
330
1F
100
AcDbEntity
  8
0-4_枠
  6
Continuous
 62
    92
370
    13
100
AcDbLine
 10
2180.518712470403
 20
2592.946220485323
 30
0.0
 11
2000.518712470403
 21
2592.946220485323
 31
0.0
  0
LINE
  5
16A
330
1F
100
AcDbEntity
  8
0-C_ハッチ
  6
Continuous
 62
   120
370
     5
100
AcDbLine
 10
2129.543953806173
 20
2130.946220485324
 30
0.0
 11
2150.518712470406
 21
2151.920979149559
 31
0.0
  0
LINE
  5
16B
330
1F
100
AcDbEntity
  8
0-C_ハッチ
  6
Continuous
 62
   120
370
     5
100
AcDbLine
 10
2171.543953806159
 20
2172.946220485311
 30
0.0
 11
2180.518712470419
 21
2181.92097914957
 31
0.0
  0
LINE
  5
16C
330
1F
100
AcDbEntity
  8
0-C_ハッチ
  6
Continuous
 62
   120
370
     5
100
AcDbLine
 10
2114.518712470388
 20
2175.317948769241
 30
0.0
 11
2180.518712470403
 21
2241.317948769257
 31
0.0
  0
LINE
  5
16D
330
1F
100
AcDbEntity
  8
0-C_ハッチ
  6
Continuous
 62
   120
370
     5
100
AcDbLine
 10
2010.75001456682
 20
2130.946220485322
 30
0.0
 11
2060.518712470408
 21
2180.714918388908
 31
0.0
  0
LINE
  5
16E
330
1F
100
AcDbEntity
  8
0-C_ハッチ
  6
Continuous
 62
   120
370
     5
100
AcDbLine
 10
2070.75001456682
 20
2190.946220485322
 30
0.0
 11
2180.51871247041
 21
2300.714918388912
 31
0.0
  0
LINE
  5
16F
330
1F
100
AcDbEntity
  8
0-C_ハッチ
  6
Continuous
 62
   120
370
     5
100
AcDbLine
 10
2000.518712470413
 20
2180.111888008561
 30
0.0
 11
2180.518712470411
 21
2360.111888008559
 31
0.0
  0
LINE
  5
170
330
1F
100
AcDbEntity
  8
0-C_ハッチ
  6
Continuous
 62
   120
370
     5
100
AcDbLine
 10
2017.931373101126
 20
2256.921518258976
 30
0.0
 11
2180.518712470412
 21
2419.508857628262
 31
0.0
  0
LINE
  5
171
330
1F
100
AcDbEntity
  8
0-C_ハッチ
  6
Continuous
 62
   120
370
     5
100
AcDbLine
 10
2035.202053848591
 20
2333.589168626088
 30
0.0
 11
2180.518712470408
 21
2478.905827247905
 31
0.0
  0
LINE
  5
172
330
1F
100
AcDbEntity
  8
0-C_ハッチ
  6
Continuous
 62
   120
370
     5
100
AcDbLine
 10
2034.964366778365
 20
2392.748451175564
 30
0.0
 11
2180.518712470408
 21
2538.302796867607
 31
0.0
  0
LINE
  5
173
330
1F
100
AcDbEntity
  8
0-C_ハッチ
  6
Continuous
 62
   120
370
     5
100
AcDbLine
 10
2025.638022908086
 20
2442.819076924932
 30
0.0
 11
2175.765166468477
 21
2592.946220485323
 31
0.0
  0
LINE
  5
174
330
1F
100
AcDbEntity
  8
0-C_ハッチ
  6
Continuous
 62
   120
370
     5
100
AcDbLine
 10
2009.991160573707
 20
2486.5691842102
 30
0.0
 11
2116.368196848818
 21
2592.946220485312
 31
0.0
  0
LINE
  5
175
330
1F
100
AcDbEntity
  8
0-C_ハッチ
  6
Continuous
 62
   120
370
     5
100
AcDbLine
 10
2000.518712470412
 20
2536.493705726607
 30
0.0
 11
2056.971227229115
 21
2592.946220485311
 31
0.0
  0
LWPOLYLINE
  5
176
330
1F
100
AcDbEntity
  8
0-B_寸法
  6
Continuous
 62
     7
370
     9
100
AcDbPolyline
 90
        4
 70
     1
 43
3.0
 10
-1552.779960107845
 20
2592.946220485323
 42
0.4142135623731
 10
-1554.279960107845
 20
2594.446220485323
 42
0.4142135623731
 10
-1555.779960107845
 20
2592.946220485323
 42
0.4142135623731
 10
-1554.279960107845
 20
2591.446220485323
 42
0.4142135623731
  0
LINE
  5
177
330
1F
100
AcDbEntity
  8
0-B_寸法
  6
Continuous
 62
   120
370
     5
100
AcDbLine
 10
-1554.279960107845
 20
2592.946220485323
 30
0.0
 11
-1673.055528889517
 21
2592.946220485323
 31
0.0
  0
LWPOLYLINE
  5
178
330
1F
100
AcDbEntity
  8
0-B_寸法
  6
Continuous
 62
     7
370
     9
100
AcDbPolyline
 90
        4
 70
     1
 43
3.0
 10
-1552.779960107845
 20
2130.946220485324
 42
0.4142135623731
 10
-1554.279960107845
 20
2132.446220485324
 42
0.4142135623731
 10
-1555.779960107845
 20
2130.946220485324
 42
0.4142135623731
 10
-1554.279960107845
 20
2129.446220485324
 42
0.4142135623731
  0
LINE
  5
179
330
1F
100
AcDbEntity
  8
0-B_寸法
  6
Continuous
 62
   120
370
     5
100
AcDbLine
 10
-1554.279960107845
 20
2130.946220485324
 30
0.0
 11
-1673.055528889517
 21
2130.946220485324
 31
0.0
  0
LINE
  5
17A
330
1F
100
AcDbEntity
  8
0-B_寸法
  6
Continuous
 62
   120
370
     5
100
AcDbLine
 10
-1554.279960107845
 20
2592.946220485323
 30
0.0
 11
-1554.279960107845
 21
2130.946220485324
 31
0.0
  0
MTEXT
  5
17B
330
1F
100
AcDbEntity
  8
0-A_文字
  6
Continuous
 62
     7
370
     9
100
AcDbMText
 10
-2730.014502812192
 20
3310.355192579902
 30
0.0
 40
100.5840000000001
 41
660.0000000000009
 46
0.0
 71
     7
 72
     1
  1
{\fＭＳ ゴシック|b0|i0|c128|p49;■横断面図}
 73
     1
 44
1.0
  0
LINE
  5
17C
330
1F
100
AcDbEntity
  8
0-A_文字
  6
JWW_HOJO
 62
   120
370
     5
100
AcDbLine
 10
8.518712470404921
 20
947.6359701511747
 30
0.0
 11
2418.042521994214
 21
947.6359701511747
 31
0.0
  0
LINE
  5
17D
330
1F
100
AcDbEntity
  8
0-A_文字
  6
JWW_HOJO
 62
   120
370
     5
100
AcDbLine
 10
8.518712470404921
 20
827.6359701511747
 30
0.0
 11
2418.042521994214
 21
827.6359701511747
 31
0.0
  0
LINE
  5
17E
330
1F
100
AcDbEntity
  8
0-A_文字
  6
JWW_HOJO
 62
   120
370
     5
100
AcDbLine
 10
8.518712470404921
 20
707.6359701511749
 30
0.0
 11
2418.042521994214
 21
707.6359701511749
 31
0.0
  0
MTEXT
  5
17F
330
1F
100
AcDbEntity
  8
0-A_文字
  6
Continuous
 62
     7
370
     9
100
AcDbMText
 10
8.518712470404921
 20
942.3811974239015
 30
0.0
 40
79.49045454545454
 41
2295.0
 46
0.0
 71
     7
 72
     1
  1
{\fＭＳ ゴシック|b0|i0|c128|p49;※有効開口寸法にはハンドルの突出は含まない。}
 73
     1
 44
1.0
  0
MTEXT
  5
180
330
1F
100
AcDbEntity
  8
0-A_文字
  6
Continuous
 62
     7
370
     9
100
AcDbMText
 10
8.518712470404921
 20
822.4293034845076
 30
0.0
 40
79.58666666666664
 41
2820.0
 46
0.0
 71
     7
 72
     1
  1
{\fＭＳ ゴシック|b0|i0|c128|p49;※有効開口寸法は扉の厚さや調整によって若干異なります。}
 73
     1
 44
1.0
  0
MTEXT
  5
181
330
1F
100
AcDbEntity
  8
0-A_文字
  6
Continuous
 62
     7
370
     0
100
AcDbMText
 10
8.518712470404921
 20
696.9259701511734
 30
0.0
 40
68.57999999999997
 41
1350.0
 46
0.0
 71
     7
 72
     1
  1
{\fＭＳ ゴシック|b0|i0|c128|p49;※扉厚（　）内はルーバーの場合}
 73
     1
 44
1.0
  0
MTEXT
  5
182
330
1F
100
AcDbEntity
  8
0-A_文字
  6
Continuous
 62
     7
370
   211
100
AcDbMText
 10
-1023.445314592369
 20
2227.665146596494
 30
0.0
 40
91.44
 41
240.0
 46
0.0
 71
     7
 72
     1
  1
{\fＭＳ ゴシック|b0|i0|c128|p49;(24)}
 11
6.123031769111886E-17
 21
1.0
 31
0.0
 73
     1
 44
1.0
  0
LINE
  5
183
330
1F
100
AcDbEntity
  8
0-C_ハッチ
  6
JWW_DASHED1
 62
   120
370
     5
100
AcDbLine
 10
-2145.501025370795
 20
2097.94622048533
 30
0.0
 11
-2133.481287529607
 21
2109.965958326519
 31
0.0
  0
LINE
  5
184
330
1F
100
AcDbEntity
  8
0-C_ハッチ
  6
JWW_DASHED1
 62
   120
370
     5
100
AcDbLine
 10
-2187.92743224199
 20
2097.946220485333
 30
0.0
 11
-2133.481287529614
 21
2152.39236519771
 31
0.0
  0
LINE
  5
185
330
1F
100
AcDbEntity
  8
0-C_ハッチ
  6
JWW_DASHED1
 62
   120
370
     5
100
AcDbLine
 10
-2230.353839113188
 20
2097.946220485337
 30
0.0
 11
-2155.353839113176
 21
2172.946220485348
 31
0.0
  0
LINE
  5
186
330
1F
100
AcDbEntity
  8
0-C_ハッチ
  6
JWW_DASHED1
 62
   120
370
     5
100
AcDbLine
 10
-2272.780245984396
 20
2097.946220485328
 30
0.0
 11
-2197.780245984404
 21
2172.946220485323
 31
0.0
  0
LINE
  5
187
330
1F
100
AcDbEntity
  8
0-C_ハッチ
  6
JWW_DASHED1
 62
   120
370
     5
100
AcDbLine
 10
-2315.206652855596
 20
2097.946220485328
 30
0.0
 11
-2240.2066528556
 21
2172.946220485324
 31
0.0
  0
LINE
  5
188
330
1F
100
AcDbEntity
  8
0-C_ハッチ
  6
JWW_DASHED1
 62
   120
370
     5
100
AcDbLine
 10
-2357.633059726792
 20
2097.946220485332
 30
0.0
 11
-2282.633059726796
 21
2172.946220485328
 31
0.0
  0
LINE
  5
189
330
1F
100
AcDbEntity
  8
0-C_ハッチ
  6
JWW_DASHED1
 62
   120
370
     5
100
AcDbLine
 10
-2400.059466597929
 20
2097.946220485341
 30
0.0
 11
-2325.059466597936
 21
2172.946220485336
 31
0.0
  0
LINE
  5
18A
330
1F
100
AcDbEntity
  8
0-C_ハッチ
  6
JWW_DASHED1
 62
   120
370
     5
100
AcDbLine
 10
-2442.485873469125
 20
2097.946220485344
 30
0.0
 11
-2367.485873469131
 21
2172.94622048534
 31
0.0
  0
LINE
  5
18B
330
1F
100
AcDbEntity
  8
0-C_ハッチ
  6
JWW_DASHED1
 62
   120
370
     5
100
AcDbLine
 10
-2484.912280340338
 20
2097.946220485332
 30
0.0
 11
-2409.912280340328
 21
2172.946220485343
 31
0.0
  0
LINE
  5
18C
330
1F
100
AcDbEntity
  8
0-C_ハッチ
  6
JWW_DASHED1
 62
   120
370
     5
100
AcDbLine
 10
-2527.338687211536
 20
2097.946220485335
 30
0.0
 11
-2452.338687211522
 21
2172.946220485347
 31
0.0
  0
LINE
  5
18D
330
1F
100
AcDbEntity
  8
0-C_ハッチ
  6
JWW_DASHED1
 62
   120
370
     5
100
AcDbLine
 10
-2569.765094082731
 20
2097.94622048534
 30
0.0
 11
-2494.765094082736
 21
2172.946220485335
 31
0.0
  0
LINE
  5
18E
330
1F
100
AcDbEntity
  8
0-C_ハッチ
  6
JWW_DASHED1
 62
   120
370
     5
100
AcDbLine
 10
-2612.191500953942
 20
2097.946220485328
 30
0.0
 11
-2537.191500953949
 21
2172.946220485323
 31
0.0
  0
LINE
  5
18F
330
1F
100
AcDbEntity
  8
0-C_ハッチ
  6
JWW_DASHED1
 62
   120
370
     5
100
AcDbLine
 10
-2654.617907825138
 20
2097.946220485331
 30
0.0
 11
-2579.617907825144
 21
2172.946220485327
 31
0.0
  0
LINE
  5
190
330
1F
100
AcDbEntity
  8
0-C_ハッチ
  6
JWW_DASHED1
 62
   120
370
     5
100
AcDbLine
 10
-2697.044314696336
 20
2097.946220485335
 30
0.0
 11
-2622.04431469634
 21
2172.94622048533
 31
0.0
  0
LINE
  5
191
330
1F
100
AcDbEntity
  8
0-3_仕上げ
  6
Continuous
 62
    40
370
    15
100
AcDbLine
 10
-2133.481287529614
 20
2172.946220485324
 30
0.0
 11
-2133.481287529614
 21
2097.946220485324
 31
0.0
  0
LINE
  5
192
330
1F
100
AcDbEntity
  8
0-C_ハッチ
  6
JWW_DASHED1
 62
   120
370
     5
100
AcDbLine
 10
2653.64596293496
 20
2097.946220485337
 30
0.0
 11
2728.64596293497
 21
2172.946220485348
 31
0.0
  0
LINE
  5
193
330
1F
100
AcDbEntity
  8
0-C_ハッチ
  6
JWW_DASHED1
 62
   120
370
     5
100
AcDbLine
 10
2611.219556063751
 20
2097.946220485328
 30
0.0
 11
2686.219556063745
 21
2172.946220485322
 31
0.0
  0
LINE
  5
194
330
1F
100
AcDbEntity
  8
0-C_ハッチ
  6
JWW_DASHED1
 62
   120
370
     5
100
AcDbLine
 10
2568.793149192551
 20
2097.946220485328
 30
0.0
 11
2643.793149192546
 21
2172.946220485323
 31
0.0
  0
LINE
  5
195
330
1F
100
AcDbEntity
  8
0-C_ハッチ
  6
JWW_DASHED1
 62
   120
370
     5
100
AcDbLine
 10
2526.366742321355
 20
2097.946220485332
 30
0.0
 11
2601.36674232135
 21
2172.946220485328
 31
0.0
  0
LINE
  5
196
330
1F
100
AcDbEntity
  8
0-C_ハッチ
  6
JWW_DASHED1
 62
   120
370
     5
100
AcDbLine
 10
2483.940335450217
 20
2097.946220485341
 30
0.0
 11
2558.940335450213
 21
2172.946220485335
 31
0.0
  0
LINE
  5
197
330
1F
100
AcDbEntity
  8
0-C_ハッチ
  6
JWW_DASHED1
 62
   120
370
     5
100
AcDbLine
 10
2441.513928579021
 20
2097.946220485344
 30
0.0
 11
2516.513928579016
 21
2172.946220485339
 31
0.0
  0
LINE
  5
198
330
1F
100
AcDbEntity
  8
0-C_ハッチ
  6
JWW_DASHED1
 62
   120
370
     5
100
AcDbLine
 10
2399.087521707809
 20
2097.946220485332
 30
0.0
 11
2474.08752170782
 21
2172.946220485343
 31
0.0
  0
LINE
  5
199
330
1F
100
AcDbEntity
  8
0-C_ハッチ
  6
JWW_DASHED1
 62
   120
370
     5
100
AcDbLine
 10
2356.661114836613
 20
2097.946220485335
 30
0.0
 11
2431.661114836624
 21
2172.946220485347
 31
0.0
  0
LINE
  5
19A
330
1F
100
AcDbEntity
  8
0-C_ハッチ
  6
JWW_DASHED1
 62
   120
370
     5
100
AcDbLine
 10
2314.234707965416
 20
2097.946220485339
 30
0.0
 11
2389.234707965411
 21
2172.946220485334
 31
0.0
  0
LINE
  5
19B
330
1F
100
AcDbEntity
  8
0-C_ハッチ
  6
JWW_DASHED1
 62
   120
370
     5
100
AcDbLine
 10
2271.808301094204
 20
2097.946220485328
 30
0.0
 11
2346.808301094199
 21
2172.946220485323
 31
0.0
  0
LINE
  5
19C
330
1F
100
AcDbEntity
  8
0-C_ハッチ
  6
JWW_DASHED1
 62
   120
370
     5
100
AcDbLine
 10
2229.381894223007
 20
2097.946220485331
 30
0.0
 11
2304.381894223003
 21
2172.946220485326
 31
0.0
  0
LINE
  5
19D
330
1F
100
AcDbEntity
  8
0-C_ハッチ
  6
JWW_DASHED1
 62
   120
370
     5
100
AcDbLine
 10
2186.955487351811
 20
2097.946220485334
 30
0.0
 11
2261.955487351807
 21
2172.946220485329
 31
0.0
  0
LINE
  5
19E
330
1F
100
AcDbEntity
  8
0-C_ハッチ
  6
JWW_DASHED1
 62
   120
370
     5
100
AcDbLine
 10
2150.518712470385
 20
2103.935852475054
 30
0.0
 11
2219.529080480669
 21
2172.946220485338
 31
0.0
  0
LINE
  5
19F
330
1F
100
AcDbEntity
  8
0-C_ハッチ
  6
JWW_DASHED1
 62
   120
370
     5
100
AcDbLine
 10
2150.518712470389
 20
2146.362259346258
 30
0.0
 11
2177.102673609473
 21
2172.946220485341
 31
0.0
  0
LINE
  5
1A0
330
1F
100
AcDbEntity
  8
0-3_仕上げ
  6
Continuous
 62
    40
370
    15
100
AcDbLine
 10
2150.518712470403
 20
2097.946220485324
 30
0.0
 11
2150.518712470403
 21
2172.946220485324
 31
0.0
  0
LINE
  5
1A1
330
1F
100
AcDbEntity
  8
0-3_仕上げ
  6
Continuous
 62
    40
370
    15
100
AcDbLine
 10
-2763.48108957774
 20
2097.946220485324
 30
0.0
 11
-2133.481287529598
 21
2097.946220485324
 31
0.0
  0
LINE
  5
1A2
330
1F
100
AcDbEntity
  8
0-3_仕上げ
  6
Continuous
 62
    40
370
    15
100
AcDbLine
 10
-2763.48108957774
 20
2172.946220485324
 30
0.0
 11
-2133.481287529598
 21
2172.946220485324
 31
0.0
  0
LINE
  5
1A3
330
1F
100
AcDbEntity
  8
0-C_ハッチ
  6
JWW_DASHED1
 62
   120
370
     5
100
AcDbLine
 10
-2763.48108957774
 20
2116.362259346276
 30
0.0
 11
-2706.897128438673
 21
2172.946220485342
 31
0.0
  0
LINE
  5
1A4
330
1F
100
AcDbEntity
  8
0-C_ハッチ
  6
JWW_DASHED1
 62
   120
370
     5
100
AcDbLine
 10
-2739.47072156749
 20
2097.946220485324
 30
0.0
 11
-2664.470721567477
 21
2172.946220485338
 31
0.0
  0
LINE
  5
1A5
330
1F
100
AcDbEntity
  8
0-3_仕上げ
  6
Continuous
 62
    40
370
    15
100
AcDbLine
 10
2150.518712470403
 20
2097.946220485324
 30
0.0
 11
2780.51851451855
 21
2097.946220485324
 31
0.0
  0
LINE
  5
1A6
330
1F
100
AcDbEntity
  8
0-3_仕上げ
  6
Continuous
 62
    40
370
    15
100
AcDbLine
 10
2150.518712470403
 20
2172.946220485324
 30
0.0
 11
2780.51851451855
 21
2172.946220485324
 31
0.0
  0
LINE
  5
1A7
330
1F
100
AcDbEntity
  8
0-C_ハッチ
  6
JWW_DASHED1
 62
   120
370
     5
100
AcDbLine
 10
2738.498776677353
 20
2097.946220485329
 30
0.0
 11
2780.51851451855
 21
2139.965958326527
 31
0.0
  0
LINE
  5
1A8
330
1F
100
AcDbEntity
  8
0-C_ハッチ
  6
JWW_DASHED1
 62
   120
370
     5
100
AcDbLine
 10
2696.072369806156
 20
2097.946220485333
 30
0.0
 11
2771.072369806148
 21
2172.946220485324
 31
0.0
  0
LINE
  5
1A9
330
1F
100
AcDbEntity
  8
0-0_補助線
  6
JWW_HOJO
 62
   120
370
     5
100
AcDbLine
 10
-2763.48108957774
 20
1.999703072129648
 30
0.0
 11
-909.4810895777414
 21
1.999703072129648
 31
0.0
  0
LINE
  5
1AA
330
1F
100
AcDbEntity
  8
0-1_通り芯
  6
JWW_CENTER1
 62
   120
370
     5
100
AcDbLine
 10
-1800.481089577736
 20
-3519.905325898739
 30
0.0
 11
-1800.481089577736
 21
2.00007402574073
 31
0.0
  0
LINE
  5
1AB
330
1F
100
AcDbEntity
  8
0-0_補助線
  6
JWW_HOJO
 62
   120
370
     5
100
AcDbLine
 10
-2403.48108957774
 20
2.00007402574073
 30
0.0
 11
-2403.48108957774
 21
-3297.999940974261
 31
0.0
  0
LINE
  5
1AC
330
1F
100
AcDbEntity
  8
0-0_補助線
  6
JWW_HOJO
 62
   120
370
     5
100
AcDbLine
 10
-1209.481089577741
 20
2.00007402574073
 30
0.0
 11
-1209.481089577741
 21
-3297.999940974261
 31
0.0
  0
LINE
  5
1AD
330
1F
100
AcDbEntity
  8
0-0_補助線
  6
JWW_HOJO
 62
   120
370
     5
100
AcDbLine
 10
-909.4810895777414
 20
2.00007402574073
 30
0.0
 11
-909.4810895777414
 21
-3297.999940974261
 31
0.0
  0
LINE
  5
1AE
330
1F
100
AcDbEntity
  8
0-0_補助線
  6
JWW_HOJO
 62
   120
370
     5
100
AcDbLine
 10
-2763.48108957774
 20
2.00007402574073
 30
0.0
 11
-2763.48108957774
 21
-3297.999940974261
 31
0.0
  0
ARC
  5
1AF
330
1F
100
AcDbEntity
  8
0-7_金物
  6
Continuous
 62
     7
370
     9
100
AcDbCircle
 10
-1749.481089577741
 20
-3169.000334249966
 30
0.0
 40
9.000000000000002
100
AcDbArc
 50
270.0
 51
0.0
  0
LINE
  5
1B0
330
1F
100
AcDbEntity
  8
0-7_金物
  6
Continuous
 62
     7
370
     9
100
AcDbLine
 10
-1749.481089577741
 20
-3178.000334249964
 30
0.0
 11
-1851.481089577758
 21
-3178.000334249964
 31
0.0
  0
LINE
  5
1B1
330
1F
100
AcDbEntity
  8
0-7_金物
  6
Continuous
 62
     7
370
     9
100
AcDbLine
 10
-1740.481089577736
 20
-3169.000334249966
 30
0.0
 11
-1740.481089577736
 21
-3166.000334249965
 31
0.0
  0
ARC
  5
1B2
330
1F
100
AcDbEntity
  8
0-7_金物
  6
Continuous
 62
     7
370
     9
100
AcDbCircle
 10
-1851.481089577758
 20
-3169.000334249966
 30
0.0
 40
9.000000000000002
100
AcDbArc
 50
180.0
 51
270.0
  0
LINE
  5
1B3
330
1F
100
AcDbEntity
  8
0-7_金物
  6
Continuous
 62
     7
370
     9
100
AcDbLine
 10
-1860.481089577736
 20
-3169.000334249966
 30
0.0
 11
-1860.481089577736
 21
-3166.000334249965
 31
0.0
  0
LINE
  5
1B4
330
1F
100
AcDbEntity
  8
0-7_金物
  6
Continuous
 62
     7
370
     9
100
AcDbLine
 10
-1860.481089577736
 20
-3160.000334249967
 30
0.0
 11
-1860.481089577736
 21
-3157.000334249967
 31
0.0
  0
LINE
  5
1B5
330
1F
100
AcDbEntity
  8
0-7_金物
  6
Continuous
 62
     7
370
     9
100
AcDbLine
 10
-1860.481089577736
 20
-3151.000334249965
 30
0.0
 11
-1860.481089577736
 21
-3148.000334249964
 31
0.0
  0
LINE
  5
1B6
330
1F
100
AcDbEntity
  8
0-7_金物
  6
Continuous
 62
     7
370
     9
100
AcDbLine
 10
-1860.481089577736
 20
-3142.000334249967
 30
0.0
 11
-1860.481089577736
 21
-3133.000334249964
 31
0.0
  0
LINE
  5
1B7
330
1F
100
AcDbEntity
  8
0-7_金物
  6
Continuous
 62
     7
370
     9
100
AcDbLine
 10
-1740.481089577736
 20
-3157.000334249967
 30
0.0
 11
-1740.481089577736
 21
-3160.000334249967
 31
0.0
  0
LINE
  5
1B8
330
1F
100
AcDbEntity
  8
0-7_金物
  6
Continuous
 62
     7
370
     9
100
AcDbLine
 10
-1740.481089577736
 20
-3148.000334249964
 30
0.0
 11
-1740.481089577736
 21
-3151.000334249965
 31
0.0
  0
LINE
  5
1B9
330
1F
100
AcDbEntity
  8
0-7_金物
  6
Continuous
 62
     7
370
     9
100
AcDbLine
 10
-1740.481089577736
 20
-3133.000334249964
 30
0.0
 11
-1740.481089577736
 21
-3142.000334249967
 31
0.0
  0
ARC
  5
1BA
330
1F
100
AcDbEntity
  8
0-7_金物
  6
Continuous
 62
     7
370
     9
100
AcDbCircle
 10
-1740.781089577742
 20
-3145.000334249967
 30
0.0
 40
1.8
100
AcDbArc
 50
333.434948822922
 51
26.56505117707799
  0
LINE
  5
1BB
330
1F
100
AcDbEntity
  8
0-7_金物
  6
Continuous
 62
     7
370
     9
100
AcDbLine
 10
-1739.171120633948
 20
-3145.805318721864
 30
0.0
 11
-1740.481089577736
 21
-3148.000334249964
 31
0.0
  0
LINE
  5
1BC
330
1F
100
AcDbEntity
  8
0-7_金物
  6
Continuous
 62
     7
370
     9
100
AcDbLine
 10
-1739.171120633948
 20
-3144.195349778067
 30
0.0
 11
-1740.481089577736
 21
-3142.000334249967
 31
0.0
  0
ARC
  5
1BD
330
1F
100
AcDbEntity
  8
0-7_金物
  6
Continuous
 62
     7
370
     9
100
AcDbCircle
 10
-1740.781089577742
 20
-3154.000334249966
 30
0.0
 40
1.8
100
AcDbArc
 50
333.434948822922
 51
26.56505117707799
  0
LINE
  5
1BE
330
1F
100
AcDbEntity
  8
0-7_金物
  6
Continuous
 62
     7
370
     9
100
AcDbLine
 10
-1739.171120633948
 20
-3154.805318721867
 30
0.0
 11
-1740.481089577736
 21
-3157.000334249967
 31
0.0
  0
LINE
  5
1BF
330
1F
100
AcDbEntity
  8
0-7_金物
  6
Continuous
 62
     7
370
     9
100
AcDbLine
 10
-1739.171120633948
 20
-3153.195349778066
 30
0.0
 11
-1740.481089577736
 21
-3151.000334249965
 31
0.0
  0
ARC
  5
1C0
330
1F
100
AcDbEntity
  8
0-7_金物
  6
Continuous
 62
     7
370
     9
100
AcDbCircle
 10
-1740.781089577742
 20
-3163.000334249964
 30
0.0
 40
1.8
100
AcDbArc
 50
333.434948822922
 51
26.56505117707799
  0
LINE
  5
1C1
330
1F
100
AcDbEntity
  8
0-7_金物
  6
Continuous
 62
     7
370
     9
100
AcDbLine
 10
-1739.171120633948
 20
-3163.805318721865
 30
0.0
 11
-1740.481089577736
 21
-3166.000334249965
 31
0.0
  0
LINE
  5
1C2
330
1F
100
AcDbEntity
  8
0-7_金物
  6
Continuous
 62
     7
370
     9
100
AcDbLine
 10
-1739.171120633948
 20
-3162.195349778064
 30
0.0
 11
-1740.481089577736
 21
-3160.000334249967
 31
0.0
  0
ARC
  5
1C3
330
1F
100
AcDbEntity
  8
0-7_金物
  6
Continuous
 62
     7
370
     9
100
AcDbCircle
 10
-1752.481089577752
 20
-3164.800334249966
 30
0.0
 40
3.0
100
AcDbArc
 50
270.0
 51
0.0
  0
LINE
  5
1C4
330
1F
100
AcDbEntity
  8
0-7_金物
  6
Continuous
 62
     7
370
     9
100
AcDbLine
 10
-1752.481089577752
 20
-3167.800334249967
 30
0.0
 11
-1767.481089577752
 21
-3167.800334249967
 31
0.0
  0
LINE
  5
1C5
330
1F
100
AcDbEntity
  8
0-7_金物
  6
Continuous
 62
     7
370
     9
100
AcDbLine
 10
-1749.481089577741
 20
-3164.800334249966
 30
0.0
 11
-1749.481089577741
 21
-3143.200334249966
 31
0.0
  0
ARC
  5
1C6
330
1F
100
AcDbEntity
  8
0-7_金物
  6
Continuous
 62
     7
370
     9
100
AcDbCircle
 10
-1752.481089577752
 20
-3143.200334249966
 30
0.0
 40
3.0
100
AcDbArc
 50
0.0000000000000127
 51
90.00000000000001
  0
LINE
  5
1C7
330
1F
100
AcDbEntity
  8
0-7_金物
  6
Continuous
 62
     7
370
     9
100
AcDbLine
 10
-1752.481089577752
 20
-3140.200334249965
 30
0.0
 11
-1763.881089577756
 21
-3140.200334249965
 31
0.0
  0
ARC
  5
1C8
330
1F
100
AcDbEntity
  8
0-7_金物
  6
Continuous
 62
     7
370
     9
100
AcDbCircle
 10
-1848.481089577747
 20
-3164.800334249966
 30
0.0
 40
3.0
100
AcDbArc
 50
180.0
 51
270.0
  0
LINE
  5
1C9
330
1F
100
AcDbEntity
  8
0-7_金物
  6
Continuous
 62
     7
370
     9
100
AcDbLine
 10
-1848.481089577747
 20
-3167.800334249967
 30
0.0
 11
-1833.481089577747
 21
-3167.800334249967
 31
0.0
  0
LINE
  5
1CA
330
1F
100
AcDbEntity
  8
0-7_金物
  6
Continuous
 62
     7
370
     9
100
AcDbLine
 10
-1851.481089577758
 20
-3164.800334249966
 30
0.0
 11
-1851.481089577758
 21
-3143.200334249966
 31
0.0
  0
ARC
  5
1CB
330
1F
100
AcDbEntity
  8
0-7_金物
  6
Continuous
 62
     7
370
     9
100
AcDbCircle
 10
-1848.481089577747
 20
-3143.200334249966
 30
0.0
 40
3.0
100
AcDbArc
 50
90.0
 51
180.0
  0
LINE
  5
1CC
330
1F
100
AcDbEntity
  8
0-7_金物
  6
Continuous
 62
     7
370
     9
100
AcDbLine
 10
-1848.481089577747
 20
-3140.200334249965
 30
0.0
 11
-1837.081089577744
 21
-3140.200334249965
 31
0.0
  0
ARC
  5
1CD
330
1F
100
AcDbEntity
  8
0-7_金物
  6
Continuous
 62
     7
370
     9
100
AcDbCircle
 10
-1763.881089577756
 20
-3136.600334249965
 30
0.0
 40
3.600000000000001
100
AcDbArc
 50
90.0
 51
180.0
  0
LINE
  5
1CE
330
1F
100
AcDbEntity
  8
0-7_金物
  6
Continuous
 62
     7
370
     9
100
AcDbLine
 10
-1763.881089577756
 20
-3133.000334249964
 30
0.0
 11
-1740.481089577736
 21
-3133.000334249964
 31
0.0
  0
ARC
  5
1CF
330
1F
100
AcDbEntity
  8
0-7_金物
  6
Continuous
 62
     7
370
     9
100
AcDbCircle
 10
-1763.881089577756
 20
-3136.600334249965
 30
0.0
 40
3.600000000000001
100
AcDbArc
 50
180.0
 51
270.0
  0
ARC
  5
1D0
330
1F
100
AcDbEntity
  8
0-7_金物
  6
Continuous
 62
     7
370
     9
100
AcDbCircle
 10
-1837.081089577744
 20
-3136.600334249965
 30
0.0
 40
3.600000000000001
100
AcDbArc
 50
270.0
 51
0.0
  0
ARC
  5
1D1
330
1F
100
AcDbEntity
  8
0-7_金物
  6
Continuous
 62
     7
370
     9
100
AcDbCircle
 10
-1837.081089577744
 20
-3136.600334249965
 30
0.0
 40
3.600000000000001
100
AcDbArc
 50
0.0000000000000127
 51
90.00000000000001
  0
LINE
  5
1D2
330
1F
100
AcDbEntity
  8
0-7_金物
  6
Continuous
 62
     7
370
     9
100
AcDbLine
 10
-1837.081089577744
 20
-3133.000334249964
 30
0.0
 11
-1860.481089577736
 21
-3133.000334249964
 31
0.0
  0
ARC
  5
1D3
330
1F
100
AcDbEntity
  8
0-7_金物
  6
Continuous
 62
     7
370
     9
100
AcDbCircle
 10
-1860.181089577757
 20
-3145.000334249967
 30
0.0
 40
1.8
100
AcDbArc
 50
153.434948822922
 51
206.565051177078
  0
LINE
  5
1D4
330
1F
100
AcDbEntity
  8
0-7_金物
  6
Continuous
 62
     7
370
     9
100
AcDbLine
 10
-1861.791058521551
 20
-3145.805318721864
 30
0.0
 11
-1860.481089577736
 21
-3148.000334249964
 31
0.0
  0
LINE
  5
1D5
330
1F
100
AcDbEntity
  8
0-7_金物
  6
Continuous
 62
     7
370
     9
100
AcDbLine
 10
-1861.791058521551
 20
-3144.195349778067
 30
0.0
 11
-1860.481089577736
 21
-3142.000334249967
 31
0.0
  0
ARC
  5
1D6
330
1F
100
AcDbEntity
  8
0-7_金物
  6
Continuous
 62
     7
370
     9
100
AcDbCircle
 10
-1860.181089577757
 20
-3154.000334249966
 30
0.0
 40
1.8
100
AcDbArc
 50
153.434948822922
 51
206.565051177078
  0
LINE
  5
1D7
330
1F
100
AcDbEntity
  8
0-7_金物
  6
Continuous
 62
     7
370
     9
100
AcDbLine
 10
-1861.791058521551
 20
-3154.805318721867
 30
0.0
 11
-1860.481089577736
 21
-3157.000334249967
 31
0.0
  0
LINE
  5
1D8
330
1F
100
AcDbEntity
  8
0-7_金物
  6
Continuous
 62
     7
370
     9
100
AcDbLine
 10
-1861.791058521551
 20
-3153.195349778066
 30
0.0
 11
-1860.481089577736
 21
-3151.000334249965
 31
0.0
  0
ARC
  5
1D9
330
1F
100
AcDbEntity
  8
0-7_金物
  6
Continuous
 62
     7
370
     9
100
AcDbCircle
 10
-1860.181089577757
 20
-3163.000334249964
 30
0.0
 40
1.8
100
AcDbArc
 50
153.434948822922
 51
206.565051177078
  0
LINE
  5
1DA
330
1F
100
AcDbEntity
  8
0-7_金物
  6
Continuous
 62
     7
370
     9
100
AcDbLine
 10
-1861.791058521551
 20
-3163.805318721865
 30
0.0
 11
-1860.481089577736
 21
-3166.000334249965
 31
0.0
  0
LINE
  5
1DB
330
1F
100
AcDbEntity
  8
0-7_金物
  6
Continuous
 62
     7
370
     9
100
AcDbLine
 10
-1861.791058521551
 20
-3162.195349778064
 30
0.0
 11
-1860.481089577736
 21
-3160.000334249967
 31
0.0
  0
LINE
  5
1DC
330
1F
100
AcDbEntity
  8
0-7_金物
  6
Continuous
 62
     7
370
     9
100
AcDbLine
 10
-1798.681089577751
 20
-3170.800334249964
 30
0.0
 11
-1767.481089577752
 21
-3170.800334249964
 31
0.0
  0
LINE
  5
1DD
330
1F
100
AcDbEntity
  8
0-7_金物
  6
Continuous
 62
     7
370
     9
100
AcDbLine
 10
-1800.481089577736
 20
-3172.600334249966
 30
0.0
 11
-1798.681089577751
 21
-3170.800334249964
 31
0.0
  0
LINE
  5
1DE
330
1F
100
AcDbEntity
  8
0-7_金物
  6
Continuous
 62
     7
370
     9
100
AcDbLine
 10
-1802.281089577748
 20
-3170.800334249964
 30
0.0
 11
-1800.481089577736
 21
-3172.600334249966
 31
0.0
  0
LINE
  5
1DF
330
1F
100
AcDbEntity
  8
0-7_金物
  6
Continuous
 62
     7
370
     9
100
AcDbLine
 10
-1833.481089577747
 20
-3170.800334249964
 30
0.0
 11
-1802.281089577748
 21
-3170.800334249964
 31
0.0
  0
LINE
  5
1E0
330
1F
100
AcDbEntity
  8
0-7_金物
  6
Continuous
 62
     7
370
     9
100
AcDbLine
 10
-1767.481089577752
 20
-3170.800334249964
 30
0.0
 11
-1767.481089577752
 21
-3167.800334249967
 31
0.0
  0
LINE
  5
1E1
330
1F
100
AcDbEntity
  8
0-7_金物
  6
Continuous
 62
     7
370
     9
100
AcDbLine
 10
-1833.481089577747
 20
-3167.800334249967
 30
0.0
 11
-1833.481089577747
 21
-3170.800334249964
 31
0.0
  0
LINE
  5
1E2
330
1F
100
AcDbEntity
  8
0-7_金物
  6
Continuous
 62
     7
370
     9
100
AcDbLine
 10
-1842.482074388238
 20
-3165.354562336698
 30
0.0
 11
-1758.481945719525
 21
-3165.354562336698
 31
0.0
  0
LINE
  5
1E3
330
1F
100
AcDbEntity
  8
0-7_金物
  6
Continuous
 62
     7
370
     9
100
AcDbLine
 10
-1824.481569611
 20
-3153.354562336695
 30
0.0
 11
-1824.481569611
 21
-3165.354562336698
 31
0.0
  0
LINE
  5
1E4
330
1F
100
AcDbEntity
  8
0-7_金物
  6
Continuous
 62
     7
370
     9
100
AcDbLine
 10
-1842.482074388238
 20
-3141.354562336696
 30
0.0
 11
-1842.482074388238
 21
-3165.354562336698
 31
0.0
  0
LINE
  5
1E5
330
1F
100
AcDbEntity
  8
0-7_金物
  6
Continuous
 62
     7
370
     9
100
AcDbLine
 10
-1776.4817081773
 20
-3153.354562336695
 30
0.0
 11
-1776.4817081773
 21
-3165.354562336698
 31
0.0
  0
LINE
  5
1E6
330
1F
100
AcDbEntity
  8
0-7_金物
  6
Continuous
 62
     7
370
     9
100
AcDbLine
 10
-1758.481945719525
 20
-3141.354562336696
 30
0.0
 11
-1758.481945719525
 21
-3165.354562336698
 31
0.0
  0
LINE
  5
1E7
330
1F
100
AcDbEntity
  8
0-7_金物
  6
Continuous
 62
     7
370
     9
100
AcDbLine
 10
-1824.481569611
 20
-3153.354562336695
 30
0.0
 11
-1776.4817081773
 21
-3153.354562336695
 31
0.0
  0
LINE
  5
1E8
330
1F
100
AcDbEntity
  8
0-7_金物
  6
Continuous
 62
     7
370
     9
100
AcDbLine
 10
-1809.481520123038
 20
-3158.052331089336
 30
0.0
 11
-1791.481757665263
 21
-3158.052331089336
 31
0.0
  0
LINE
  5
1E9
330
1F
100
AcDbEntity
  8
0-7_金物
  6
Continuous
 62
     7
370
     9
100
AcDbLine
 10
-1809.481520123038
 20
-3153.354562336695
 30
0.0
 11
-1809.481520123038
 21
-3158.052331089336
 31
0.0
  0
LINE
  5
1EA
330
1F
100
AcDbEntity
  8
0-7_金物
  6
Continuous
 62
     7
370
     9
100
AcDbLine
 10
-1791.481757665263
 20
-3153.354562336695
 30
0.0
 11
-1791.481757665263
 21
-3158.052331089336
 31
0.0
  0
LINE
  5
1EB
330
1F
100
AcDbEntity
  8
0-7_金物
  6
Continuous
 62
     7
370
     9
100
AcDbLine
 10
-1842.482074388238
 20
-3141.354562336696
 30
0.0
 11
-1758.481945719525
 21
-3141.354562336696
 31
0.0
  0
LINE
  5
1EC
330
1F
100
AcDbEntity
  8
0-C_ハッチ
  6
Continuous
 62
   120
370
     5
100
AcDbLine
 10
-1646.934211051641
 20
-3226.000334249965
 30
0.0
 11
-1569.481089577741
 21
-3148.547789911554
 31
0.0
  0
LINE
  5
1ED
330
1F
100
AcDbEntity
  8
0-C_ハッチ
  6
Continuous
 62
   120
370
     5
100
AcDbLine
 10
-1943.919897619646
 20
-3226.000334249965
 30
0.0
 11
-1861.981089577741
 21
-3144.062091480026
 31
0.0
  0
LINE
  5
1EE
330
1F
100
AcDbEntity
  8
0-C_ハッチ
  6
Continuous
 62
   120
370
     5
100
AcDbLine
 10
-1738.981089577758
 20
-3147.129260697338
 30
0.0
 11
-1727.851913977167
 21
-3136.000334249965
 31
0.0
  0
LINE
  5
1EF
330
1F
100
AcDbEntity
  8
0-C_ハッチ
  6
Continuous
 62
   120
370
     5
100
AcDbLine
 10
-1859.066814420805
 20
-3226.000334249965
 30
0.0
 11
-1811.067000000496
 21
-3178.000334249964
 31
0.0
  0
LINE
  5
1F0
330
1F
100
AcDbEntity
  8
0-C_ハッチ
  6
Continuous
 62
   120
370
     5
100
AcDbLine
 10
-1816.640287552157
 20
-3226.000334249965
 30
0.0
 11
-1768.64047313182
 21
-3178.000334249964
 31
0.0
  0
LINE
  5
1F1
330
1F
100
AcDbEntity
  8
0-C_ハッチ
  6
Continuous
 62
   120
370
     5
100
AcDbLine
 10
-1901.493341289481
 20
-3226.000334249965
 30
0.0
 11
-1853.493526869172
 21
-3178.000334249964
 31
0.0
  0
LINE
  5
1F2
330
1F
100
AcDbEntity
  8
0-C_ハッチ
  6
Continuous
 62
   120
370
     5
100
AcDbLine
 10
-1604.507710978835
 20
-3226.000334249965
 30
0.0
 11
-1569.481089577741
 21
-3190.9743167839
 31
0.0
  0
LINE
  5
1F3
330
1F
100
AcDbEntity
  8
0-C_ハッチ
  6
Continuous
 62
   120
370
     5
100
AcDbLine
 10
-1689.36072317046
 20
-3226.000334249965
 30
0.0
 11
-1599.36053759084
 21
-3136.000334249965
 31
0.0
  0
LINE
  5
1F4
330
1F
100
AcDbEntity
  8
0-C_ハッチ
  6
Continuous
 62
   120
370
     5
100
AcDbLine
 10
-1731.787250039135
 20
-3226.000334249965
 30
0.0
 11
-1641.787064459488
 21
-3136.000334249965
 31
0.0
  0
LINE
  5
1F5
330
1F
100
AcDbEntity
  8
0-C_ハッチ
  6
Continuous
 62
   120
370
     5
100
AcDbLine
 10
-1774.213776907811
 20
-3226.000334249965
 30
0.0
 11
-1684.213591328164
 21
-3136.000334249965
 31
0.0
  0
LINE
  5
1F6
330
1F
100
AcDbEntity
  8
0-C_ハッチ
  6
Continuous
 62
   120
370
     5
100
AcDbLine
 10
-2031.481089577758
 20
-3186.282150062363
 30
0.0
 11
-1981.199273765353
 21
-3136.000334249965
 31
0.0
  0
LINE
  5
1F7
330
1F
100
AcDbEntity
  8
0-C_ハッチ
  6
Continuous
 62
   120
370
     5
100
AcDbLine
 10
-2028.772938119785
 20
-3226.000334249965
 30
0.0
 11
-1938.772752540165
 21
-3136.000334249965
 31
0.0
  0
LINE
  5
1F8
330
1F
100
AcDbEntity
  8
0-C_ハッチ
  6
Continuous
 62
   120
370
     5
100
AcDbLine
 10
-1986.346411251136
 20
-3226.000334249965
 30
0.0
 11
-1896.346225671489
 21
-3136.000334249965
 31
0.0
  0
LINE
  5
1F9
330
1F
100
AcDbEntity
  8
0-4_枠
  6
Continuous
 62
    92
370
    13
100
AcDbLine
 10
-1738.981089577758
 20
-3136.000334249965
 30
0.0
 11
-1738.981089577758
 21
-3178.000334249964
 31
0.0
  0
LINE
  5
1FA
330
1F
100
AcDbEntity
  8
0-4_枠
  6
Continuous
 62
    92
370
    13
100
AcDbLine
 10
-1738.981089577758
 20
-3178.000334249964
 30
0.0
 11
-1861.981089577741
 21
-3178.000334249964
 31
0.0
  0
LINE
  5
1FB
330
1F
100
AcDbEntity
  8
0-4_枠
  6
Continuous
 62
    92
370
    13
100
AcDbLine
 10
-1861.981089577741
 20
-3136.000334249965
 30
0.0
 11
-1861.981089577741
 21
-3178.000334249964
 31
0.0
  0
LINE
  5
1FC
330
1F
100
AcDbEntity
  8
0-4_枠
  6
Continuous
 62
    92
370
    13
100
AcDbLine
 10
-2031.481089577758
 20
-3226.000334249965
 30
0.0
 11
-1569.481089577741
 21
-3226.000334249965
 31
0.0
  0
CIRCLE
  5
1FD
330
1F
100
AcDbEntity
  8
0-4_枠
  6
Continuous
 62
    92
370
    13
100
AcDbCircle
 10
-1980.481069782556
 20
-3181.000334249965
 30
0.0
 40
10.49999984535011
  0
ARC
  5
1FE
330
1F
100
AcDbEntity
  8
0-4_枠
  6
Continuous
 62
    92
370
    13
100
AcDbCircle
 10
-2019.481049987382
 20
-3148.000373840337
 30
0.0
 40
12.00000015464989
100
AcDbArc
 50
90.0
 51
180.0
  0
LINE
  5
1FF
330
1F
100
AcDbEntity
  8
0-4_枠
  6
Continuous
 62
    92
370
    13
100
AcDbLine
 10
-2019.481049987382
 20
-3136.000334249965
 30
0.0
 11
-1861.981089577741
 21
-3136.000334249965
 31
0.0
  0
LINE
  5
200
330
1F
100
AcDbEntity
  8
0-4_枠
  6
Continuous
 62
    92
370
    13
100
AcDbLine
 10
-2031.481089577758
 20
-3148.000373840337
 30
0.0
 11
-2031.481089577758
 21
-3226.000334249965
 31
0.0
  0
CIRCLE
  5
201
330
1F
100
AcDbEntity
  8
0-4_枠
  6
Continuous
 62
    92
370
    13
100
AcDbCircle
 10
-1620.481109372943
 20
-3181.000334249965
 30
0.0
 40
10.49999984535011
  0
ARC
  5
202
330
1F
100
AcDbEntity
  8
0-4_枠
  6
Continuous
 62
    92
370
    13
100
AcDbCircle
 10
-1581.481129168117
 20
-3148.000373840337
 30
0.0
 40
12.00000015464989
100
AcDbArc
 50
0.0000000000000127
 51
90.00000000000001
  0
LINE
  5
203
330
1F
100
AcDbEntity
  8
0-4_枠
  6
Continuous
 62
    92
370
    13
100
AcDbLine
 10
-1569.481089577741
 20
-3148.000373840337
 30
0.0
 11
-1569.481089577741
 21
-3226.000334249965
 31
0.0
  0
LINE
  5
204
330
1F
100
AcDbEntity
  8
0-4_枠
  6
Continuous
 62
    92
370
    13
100
AcDbLine
 10
-1581.481129168117
 20
-3136.000334249965
 30
0.0
 11
-1738.981089577758
 21
-3136.000334249965
 31
0.0
  0
LINE
  5
205
330
1F
100
AcDbEntity
  8
0-0_補助線
  6
JWW_HOJO
 62
   120
370
     5
100
AcDbLine
 10
-1800.481089577736
 20
-3191.74944029192
 30
0.0
 11
-1800.481089577736
 21
-3176.800334249966
 31
0.0
  0
LINE
  5
206
330
1F
100
AcDbEntity
  8
0-B_寸法
  6
Continuous
 62
   120
370
     5
100
AcDbLine
 10
-1209.481089577741
 20
-3136.000465393074
 30
0.0
 11
-819.4810895777414
 21
-3136.000465393074
 31
0.0
  0
LINE
  5
207
330
1F
100
AcDbEntity
  8
0-B_寸法
  6
Continuous
 62
   120
370
     5
100
AcDbLine
 10
-1209.481089577741
 20
-3085.000334249967
 30
0.0
 11
-999.4810895777414
 21
-3085.000334249967
 31
0.0
  0
LINE
  5
208
330
1F
100
AcDbEntity
  8
0-3_仕上げ
  6
Continuous
 62
     7
370
     9
100
AcDbLine
 10
-2403.48108957774
 20
-3286.000346621957
 30
0.0
 11
-1209.481089577741
 21
-3286.000346621957
 31
0.0
  0
LINE
  5
209
330
1F
100
AcDbEntity
  8
0-3_仕上げ
  6
Continuous
 62
     7
370
     9
100
AcDbLine
 10
-2403.48108957774
 20
-3274.000195683666
 30
0.0
 11
-1209.481089577741
 21
-3274.000195683666
 31
0.0
  0
LINE
  5
20A
330
1F
100
AcDbEntity
  8
0-3_仕上げ
  6
Continuous
 62
     7
370
     9
100
AcDbLine
 10
-2403.48108957774
 20
-3262.000230325241
 30
0.0
 11
-1209.481089577741
 21
-3262.000230325241
 31
0.0
  0
LINE
  5
20B
330
1F
100
AcDbEntity
  8
0-3_仕上げ
  6
Continuous
 62
     7
370
     9
100
AcDbLine
 10
-2403.48108957774
 20
-3250.000264966816
 30
0.0
 11
-1209.481089577741
 21
-3250.000264966816
 31
0.0
  0
LINE
  5
20C
330
1F
100
AcDbEntity
  8
0-3_仕上げ
  6
Continuous
 62
     7
370
     9
100
AcDbLine
 10
-2403.48108957774
 20
-3238.000114028522
 30
0.0
 11
-1209.481089577741
 21
-3238.000114028522
 31
0.0
  0
LINE
  5
20D
330
1F
100
AcDbEntity
  8
0-3_仕上げ
  6
Continuous
 62
    40
370
    15
100
AcDbLine
 10
-2403.48108957774
 20
-3298.000311980382
 30
0.0
 11
-1209.481089577741
 21
-3298.000311980382
 31
0.0
  0
LINE
  5
20E
330
1F
100
AcDbEntity
  8
0-3_仕上げ
  6
Continuous
 62
    40
370
    15
100
AcDbLine
 10
-1209.481089577741
 20
-3226.000334249966
 30
0.0
 11
-2403.48108957774
 21
-3226.000334249966
 31
0.0
  0
LWPOLYLINE
  5
20F
330
1F
100
AcDbEntity
  8
0-B_寸法
  6
Continuous
 62
     7
370
     9
100
AcDbPolyline
 90
        4
 70
     1
 43
3.0
 10
-2761.98108957774
 20
-3298.000311980382
 42
0.4142135623731
 10
-2763.48108957774
 20
-3296.500311980382
 42
0.4142135623731
 10
-2764.98108957774
 20
-3298.000311980382
 42
0.4142135623731
 10
-2763.48108957774
 20
-3299.500311980381
 42
0.4142135623731
  0
LINE
  5
210
330
1F
100
AcDbEntity
  8
0-B_寸法
  6
Continuous
 62
   120
370
     5
100
AcDbLine
 10
-2763.48108957774
 20
-3298.000311980382
 30
0.0
 11
-2403.48108957774
 21
-3298.000311980382
 31
0.0
  0
LINE
  5
211
330
1F
100
AcDbEntity
  8
0-0_補助線
  6
JWW_HOJO
 62
   120
370
     5
100
AcDbLine
 10
-2763.48108957774
 20
-3297.999940974261
 30
0.0
 11
-999.4810895777414
 21
-3297.999940974261
 31
0.0
  0
LWPOLYLINE
  5
212
330
1F
100
AcDbEntity
  8
0-B_寸法
  6
Continuous
 62
     7
370
     9
100
AcDbPolyline
 90
        4
 70
     1
 43
3.0
 10
-637.9810895777414
 20
-3225.999963090234
 42
0.4142135623731
 10
-639.4810895777414
 20
-3224.499963090234
 42
0.4142135623731
 10
-640.9810895777414
 20
-3225.999963090234
 42
0.4142135623731
 10
-639.4810895777414
 20
-3227.499963090234
 42
0.4142135623731
  0
LWPOLYLINE
  5
213
330
1F
100
AcDbEntity
  8
0-B_寸法
  6
Continuous
 62
     7
370
     9
100
AcDbPolyline
 90
        4
 70
     1
 43
3.0
 10
-817.9810895777414
 20
-3136.000465393074
 42
0.4142135623731
 10
-819.4810895777414
 20
-3134.500465393074
 42
0.4142135623731
 10
-820.9810895777414
 20
-3136.000465393074
 42
0.4142135623731
 10
-819.4810895777414
 20
-3137.500465393074
 42
0.4142135623731
  0
LWPOLYLINE
  5
214
330
1F
100
AcDbEntity
  8
0-B_寸法
  6
Continuous
 62
     7
370
     9
100
AcDbPolyline
 90
        4
 70
     1
 43
3.0
 10
-997.9810895777415
 20
-3085.000334249967
 42
0.4142135623731
 10
-999.4810895777414
 20
-3083.500334249967
 42
0.4142135623731
 10
-1000.981089577741
 20
-3085.000334249967
 42
0.4142135623731
 10
-999.4810895777414
 20
-3086.500334249967
 42
0.4142135623731
  0
LWPOLYLINE
  5
215
330
1F
100
AcDbEntity
  8
0-B_寸法
  6
Continuous
 62
     7
370
     9
100
AcDbPolyline
 90
        4
 70
     1
 43
3.0
 10
-997.9810895777415
 20
-3136.000465393074
 42
0.4142135623731
 10
-999.4810895777414
 20
-3134.500465393074
 42
0.4142135623731
 10
-1000.981089577741
 20
-3136.000465393074
 42
0.4142135623731
 10
-999.4810895777414
 20
-3137.500465393074
 42
0.4142135623731
  0
LINE
  5
216
330
1F
100
AcDbEntity
  8
0-B_寸法
  6
Continuous
 62
   120
370
     5
100
AcDbLine
 10
-999.4810895777414
 20
-3136.000465393074
 30
0.0
 11
-999.4810895777414
 21
-513.9993172722941
 31
0.0
  0
LWPOLYLINE
  5
217
330
1F
100
AcDbEntity
  8
0-B_寸法
  6
Continuous
 62
     7
370
     9
100
AcDbPolyline
 90
        4
 70
     1
 43
3.0
 10
-817.9810895777414
 20
-3225.999963090234
 42
0.4142135623731
 10
-819.4810895777414
 20
-3224.499963090234
 42
0.4142135623731
 10
-820.9810895777414
 20
-3225.999963090234
 42
0.4142135623731
 10
-819.4810895777414
 20
-3227.499963090234
 42
0.4142135623731
  0
LWPOLYLINE
  5
218
330
1F
100
AcDbEntity
  8
0-B_寸法
  6
Continuous
 62
     7
370
     9
100
AcDbPolyline
 90
        4
 70
     1
 43
3.0
 10
-637.9810895777414
 20
-3297.99994082065
 42
0.4142135623731
 10
-639.4810895777414
 20
-3296.49994082065
 42
0.4142135623731
 10
-640.9810895777414
 20
-3297.99994082065
 42
0.4142135623731
 10
-639.4810895777414
 20
-3299.49994082065
 42
0.4142135623731
  0
LINE
  5
219
330
1F
100
AcDbEntity
  8
0-B_寸法
  6
Continuous
 62
   120
370
     5
100
AcDbLine
 10
-1209.481089577741
 20
-3225.999963090234
 30
0.0
 11
-639.4810895777414
 21
-3225.999963090234
 31
0.0
  0
LINE
  5
21A
330
1F
100
AcDbEntity
  8
0-B_寸法
  6
Continuous
 62
   120
370
     5
100
AcDbLine
 10
-1209.481089577741
 20
-3297.99994082065
 30
0.0
 11
-639.4810895777414
 21
-3297.99994082065
 31
0.0
  0
MTEXT
  5
21B
330
1F
100
AcDbEntity
  8
0-A_文字
  6
Continuous
 62
     7
370
     9
100
AcDbMText
 10
-2727.998384905145
 20
198.8076390646872
 30
0.0
 40
91.44
 41
600.0
 46
0.0
 71
     7
 72
     1
  1
{\fＭＳ ゴシック|b0|i0|c128|p49;■縦断面図}
 73
     1
 44
1.0
  0
LINE
  5
21C
330
1F
100
AcDbEntity
  8
0-B_寸法
  6
Continuous
 62
   120
370
     5
100
AcDbLine
 10
-819.4810895777414
 20
-3225.999963090234
 30
0.0
 11
-819.4810895777414
 21
-297.9999408206473
 31
0.0
  0
MTEXT
  5
21D
330
1F
100
AcDbEntity
  8
0-A_文字
  6
Continuous
 62
     7
370
     9
100
AcDbMText
 10
-2727.998384905149
 20
50.287373897243
 30
0.0
 40
91.43999999999994
 41
1559.999999999999
 46
0.0
 71
     7
 72
     1
  1
{\fＭＳ ゴシック|b0|i0|c128|p49;　[４方枠(敷居床上直置き)]}
 73
     1
 44
1.0
  0
LWPOLYLINE
  5
21E
330
1F
100
AcDbEntity
  8
0-B_寸法
  6
Continuous
 62
     7
370
     9
100
AcDbPolyline
 90
        4
 70
     1
 43
3.0
 10
-637.9810895777414
 20
-297.9999408206473
 42
0.4142135623731
 10
-639.4810895777414
 20
-296.4999408206473
 42
0.4142135623731
 10
-640.9810895777414
 20
-297.9999408206473
 42
0.4142135623731
 10
-639.4810895777414
 20
-299.4999408206473
 42
0.4142135623731
  0
LWPOLYLINE
  5
21F
330
1F
100
AcDbEntity
  8
0-B_寸法
  6
Continuous
 62
     7
370
     9
100
AcDbPolyline
 90
        4
 70
     1
 43
3.0
 10
-997.9810895777415
 20
-513.9993172722941
 42
0.4142135623731
 10
-999.4810895777414
 20
-512.4993172722941
 42
0.4142135623731
 10
-1000.981089577741
 20
-513.9993172722941
 42
0.4142135623731
 10
-999.4810895777414
 20
-515.4993172722942
 42
0.4142135623731
  0
LWPOLYLINE
  5
220
330
1F
100
AcDbEntity
  8
0-B_寸法
  6
Continuous
 62
     7
370
     9
100
AcDbPolyline
 90
        4
 70
     1
 43
3.0
 10
-997.9810895777415
 20
-558.9994657361879
 42
0.4142135623731
 10
-999.4810895777414
 20
-557.4994657361879
 42
0.4142135623731
 10
-1000.981089577741
 20
-558.9994657361879
 42
0.4142135623731
 10
-999.4810895777414
 20
-560.499465736188
 42
0.4142135623731
  0
LINE
  5
221
330
1F
100
AcDbEntity
  8
0-B_寸法
  6
Continuous
 62
   120
370
     5
100
AcDbLine
 10
-1209.481089577741
 20
-558.9994657361879
 30
0.0
 11
-999.4810895777414
 21
-558.9994657361879
 31
0.0
  0
LINE
  5
222
330
1F
100
AcDbEntity
  8
0-B_寸法
  6
Continuous
 62
   120
370
     5
100
AcDbLine
 10
-999.4810895777414
 20
-513.998946112561
 30
0.0
 11
-819.4810895777414
 21
-513.998946112561
 31
0.0
  0
LWPOLYLINE
  5
223
330
1F
100
AcDbEntity
  8
0-B_寸法
  6
Continuous
 62
     7
370
     9
100
AcDbPolyline
 90
        4
 70
     1
 43
3.0
 10
-817.9810895777414
 20
-513.998946112561
 42
0.4142135623731
 10
-819.4810895777414
 20
-512.498946112561
 42
0.4142135623731
 10
-820.9810895777414
 20
-513.998946112561
 42
0.4142135623731
 10
-819.4810895777414
 20
-515.498946112561
 42
0.4142135623731
  0
LWPOLYLINE
  5
224
330
1F
100
AcDbEntity
  8
0-B_寸法
  6
Continuous
 62
     7
370
     9
100
AcDbPolyline
 90
        4
 70
     1
 43
3.0
 10
-817.9810895777414
 20
-297.9999408206473
 42
0.4142135623731
 10
-819.4810895777414
 20
-296.4999408206473
 42
0.4142135623731
 10
-820.9810895777414
 20
-297.9999408206473
 42
0.4142135623731
 10
-819.4810895777414
 20
-299.4999408206473
 42
0.4142135623731
  0
MTEXT
  5
225
330
1F
100
AcDbEntity
  8
0-A_文字
  6
Continuous
 62
     7
370
   211
100
AcDbMText
 10
-1860.481089577735
 20
-2901.781802088522
 30
0.0
 40
91.43999999999805
 41
119.9999999999974
 46
0.0
 71
     7
 72
     1
  1
{\fＭＳ ゴシック|b0|i0|c128|p49;77}
 73
     1
 44
1.0
  0
LINE
  5
226
330
1F
100
AcDbEntity
  8
0-B_寸法
  6
Continuous
 62
   120
370
     5
100
AcDbLine
 10
-2763.48108957774
 20
-249.8540049934411
 30
0.0
 11
-2091.481089577758
 21
-249.8540049934411
 31
0.0
  0
LWPOLYLINE
  5
227
330
1F
100
AcDbEntity
  8
0-B_寸法
  6
Continuous
 62
     7
370
     9
100
AcDbPolyline
 90
        4
 70
     1
 43
3.0
 10
-2761.98108957774
 20
-249.8540049934411
 42
0.4142135623731
 10
-2763.48108957774
 20
-248.3540049934411
 42
0.4142135623731
 10
-2764.98108957774
 20
-249.8540049934411
 42
0.4142135623731
 10
-2763.48108957774
 20
-251.3540049934411
 42
0.4142135623731
  0
LINE
  5
228
330
1F
100
AcDbEntity
  8
0-B_寸法
  6
Continuous
 62
   120
370
     5
100
AcDbLine
 10
-2763.48108957774
 20
-3298.000311980382
 30
0.0
 11
-2763.48108957774
 21
-249.8540049934411
 31
0.0
  0
LINE
  5
229
330
1F
100
AcDbEntity
  8
0-B_寸法
  6
Continuous
 62
   120
370
     5
100
AcDbLine
 10
-639.4810895777414
 20
-249.9999259742586
 30
0.0
 11
-1209.481089577741
 21
-249.9999259742586
 31
0.0
  0
LWPOLYLINE
  5
22A
330
1F
100
AcDbEntity
  8
0-B_寸法
  6
Continuous
 62
     7
370
     9
100
AcDbPolyline
 90
        4
 70
     1
 43
3.0
 10
-637.9810895777414
 20
-249.9999259742586
 42
0.4142135623731
 10
-639.4810895777414
 20
-248.4999259742586
 42
0.4142135623731
 10
-640.9810895777414
 20
-249.9999259742586
 42
0.4142135623731
 10
-639.4810895777414
 20
-251.4999259742586
 42
0.4142135623731
  0
LINE
  5
22B
330
1F
100
AcDbEntity
  8
0-B_寸法
  6
Continuous
 62
   120
370
     5
100
AcDbLine
 10
-639.4810895777414
 20
-249.9999259742586
 30
0.0
 11
-639.4810895777414
 21
-3297.99994082065
 31
0.0
  0
LINE
  5
22C
330
1F
100
AcDbEntity
  8
0-A_文字
  6
Continuous
 62
   120
370
     5
100
AcDbLine
 10
-1569.480921318675
 20
-2902.501802088525
 30
0.0
 11
-1569.480921318675
 21
-3011.20951146179
 31
0.0
  0
LINE
  5
22D
330
1F
100
AcDbEntity
  8
0-4_枠
  6
Continuous
 62
    92
370
    13
100
AcDbLine
 10
-2031.481089577758
 20
-513.9997428687905
 30
0.0
 11
-1884.481765852036
 21
-513.9997428687905
 31
0.0
  0
LINE
  5
22E
330
1F
100
AcDbEntity
  8
0-4_枠
  6
Continuous
 62
    92
370
    13
100
AcDbLine
 10
-1884.481765852036
 20
-513.9997428687905
 30
0.0
 11
-1884.481765852036
 21
-393.9992851051186
 31
0.0
  0
LINE
  5
22F
330
1F
100
AcDbEntity
  8
0-4_枠
  6
Continuous
 62
    92
370
    13
100
AcDbLine
 10
-1884.481765852036
 20
-393.9992851051186
 30
0.0
 11
-1716.481513009132
 21
-393.9992851051186
 31
0.0
  0
LINE
  5
230
330
1F
100
AcDbEntity
  8
0-4_枠
  6
Continuous
 62
    92
370
    13
100
AcDbLine
 10
-1716.481513009132
 20
-393.9992851051186
 30
0.0
 11
-1716.481513009132
 21
-513.9997428687905
 31
0.0
  0
LINE
  5
231
330
1F
100
AcDbEntity
  8
0-7_金物
  6
Continuous
 62
     7
370
     9
100
AcDbLine
 10
-1866.660902009082
 20
-500.7874931129304
 30
0.0
 11
-1866.660902009082
 21
-434.7874931129311
 31
0.0
  0
LINE
  5
232
330
1F
100
AcDbEntity
  8
0-7_金物
  6
Continuous
 62
     7
370
     9
100
AcDbLine
 10
-1866.660902009082
 20
-434.7874931129311
 30
0.0
 11
-1830.481736168933
 21
-434.7874931129311
 31
0.0
  0
LINE
  5
233
330
1F
100
AcDbEntity
  8
0-7_金物
  6
Continuous
 62
     7
370
     9
100
AcDbLine
 10
-1830.481736168933
 20
-513.9997428687905
 30
0.0
 11
-1830.481736168933
 21
-417.9992851051193
 31
0.0
  0
LINE
  5
234
330
1F
100
AcDbEntity
  8
0-7_金物
  6
Continuous
 62
     7
370
     9
100
AcDbLine
 10
-1830.481736168933
 20
-417.9992851051193
 30
0.0
 11
-1770.480048165393
 21
-417.9992851051193
 31
0.0
  0
LINE
  5
235
330
1F
100
AcDbEntity
  8
0-7_金物
  6
Continuous
 62
     7
370
     9
100
AcDbLine
 10
-1770.480048165393
 20
-417.9992851051193
 30
0.0
 11
-1770.480048165393
 21
-513.9997428687905
 31
0.0
  0
LINE
  5
236
330
1F
100
AcDbEntity
  8
0-7_金物
  6
Continuous
 62
     7
370
     9
100
AcDbLine
 10
-1734.661654458107
 20
-434.7874931129311
 30
0.0
 11
-1734.661654458107
 21
-500.7874931129304
 31
0.0
  0
LINE
  5
237
330
1F
100
AcDbEntity
  8
0-7_金物
  6
Continuous
 62
     7
370
     9
100
AcDbLine
 10
-1770.480048165393
 20
-434.7874931129311
 30
0.0
 11
-1734.661654458107
 21
-434.7874931129311
 31
0.0
  0
LINE
  5
238
330
1F
100
AcDbEntity
  8
0-7_金物
  6
Continuous
 62
     7
370
     9
100
AcDbLine
 10
-1716.481513009132
 20
-513.9997428687905
 30
0.0
 11
-1698.481741890985
 21
-513.9997428687905
 31
0.0
  0
LINE
  5
239
330
1F
100
AcDbEntity
  8
0-7_金物
  6
Continuous
 62
     7
370
     9
100
AcDbLine
 10
-1735.485629067482
 20
-519.9998344215242
 30
0.0
 11
-1735.485629067482
 21
-513.9997428687905
 31
0.0
  0
LINE
  5
23A
330
1F
100
AcDbEntity
  8
0-7_金物
  6
Continuous
 62
     7
370
     9
100
AcDbLine
 10
-1728.481844887795
 20
-513.9997428687905
 30
0.0
 11
-1735.485629067482
 21
-513.9997428687905
 31
0.0
  0
LINE
  5
23B
330
1F
100
AcDbEntity
  8
0-7_金物
  6
Continuous
 62
     7
370
     9
100
AcDbLine
 10
-1884.481765852036
 20
-513.9997428687905
 30
0.0
 11
-1902.480043873859
 21
-513.9997428687905
 31
0.0
  0
LINE
  5
23C
330
1F
100
AcDbEntity
  8
0-7_金物
  6
Continuous
 62
     7
370
     9
100
AcDbLine
 10
-1864.695241913862
 20
-519.9998344215242
 30
0.0
 11
-1864.695241913862
 21
-513.9997428687905
 31
0.0
  0
LINE
  5
23D
330
1F
100
AcDbEntity
  8
0-7_金物
  6
Continuous
 62
     7
370
     9
100
AcDbLine
 10
-1864.695241913862
 20
-513.9997428687905
 30
0.0
 11
-1872.482172474922
 21
-513.9997428687905
 31
0.0
  0
LINE
  5
23E
330
1F
100
AcDbEntity
  8
0-7_金物
  6
Continuous
 62
     7
370
     9
100
AcDbLine
 10
-1698.481741890985
 20
-513.9997428687905
 30
0.0
 11
-1698.481741890985
 21
-519.9998344215242
 31
0.0
  0
LINE
  5
23F
330
1F
100
AcDbEntity
  8
0-7_金物
  6
Continuous
 62
     7
370
     9
100
AcDbLine
 10
-1864.695241913862
 20
-519.9998344215242
 30
0.0
 11
-1902.480043873859
 21
-519.9998344215242
 31
0.0
  0
LINE
  5
240
330
1F
100
AcDbEntity
  8
0-7_金物
  6
Continuous
 62
     7
370
     9
100
AcDbLine
 10
-1902.480043873859
 20
-513.9997428687905
 30
0.0
 11
-1902.480043873859
 21
-519.9998344215242
 31
0.0
  0
LINE
  5
241
330
1F
100
AcDbEntity
  8
0-7_金物
  6
Continuous
 62
     7
370
     9
100
AcDbLine
 10
-1788.481295571394
 20
-558.9998344215248
 30
0.0
 11
-1812.481976494867
 21
-558.9998344215248
 31
0.0
  0
LINE
  5
242
330
1F
100
AcDbEntity
  8
0-7_金物
  6
Continuous
 62
     7
370
     9
100
AcDbLine
 10
-1788.481295571394
 20
-513.9997428687905
 30
0.0
 11
-1788.481295571394
 21
-558.9998344215248
 31
0.0
  0
LINE
  5
243
330
1F
100
AcDbEntity
  8
0-7_金物
  6
Continuous
 62
     7
370
     9
100
AcDbLine
 10
-1812.481976494867
 20
-558.9998344215248
 30
0.0
 11
-1812.481976494867
 21
-513.9997428687905
 31
0.0
  0
LINE
  5
244
330
1F
100
AcDbEntity
  8
0-7_金物
  6
Continuous
 62
     7
370
     9
100
AcDbLine
 10
-1830.481736168933
 20
-500.7874931129304
 30
0.0
 11
-1866.660902009082
 21
-500.7874931129304
 31
0.0
  0
LINE
  5
245
330
1F
100
AcDbEntity
  8
0-7_金物
  6
Continuous
 62
     7
370
     9
100
AcDbLine
 10
-1734.661654458107
 20
-500.7874931129304
 30
0.0
 11
-1770.480048165393
 21
-500.7874931129304
 31
0.0
  0
LINE
  5
246
330
1F
100
AcDbEntity
  8
0-7_金物
  6
Continuous
 62
     7
370
     9
100
AcDbLine
 10
-1770.480048165393
 20
-513.9997428687905
 30
0.0
 11
-1830.481736168933
 21
-513.9997428687905
 31
0.0
  0
LINE
  5
247
330
1F
100
AcDbEntity
  8
0-7_金物
  6
Continuous
 62
     7
370
     9
100
AcDbLine
 10
-1735.485629067482
 20
-519.9998344215242
 30
0.0
 11
-1698.481741890985
 21
-519.9998344215242
 31
0.0
  0
LINE
  5
248
330
1F
100
AcDbEntity
  8
0-4_枠
  6
Continuous
 62
    92
370
    13
100
AcDbLine
 10
-2031.481089577758
 20
-297.9999259742593
 30
0.0
 11
-1611.481089577758
 21
-297.9999259742593
 31
0.0
  0
LINE
  5
249
330
1F
100
AcDbEntity
  8
0-4_枠
  6
Continuous
 62
    92
370
    13
100
AcDbLine
 10
-1569.481089577741
 20
-513.9997428687905
 30
0.0
 11
-1716.481513009132
 21
-513.9997428687905
 31
0.0
  0
LINE
  5
24A
330
1F
100
AcDbEntity
  8
0-B_寸法
  6
Continuous
 62
   120
370
     5
100
AcDbLine
 10
-1569.481089577741
 20
-809.4822652783957
 30
0.0
 11
-2031.481089577758
 21
-809.4822652783957
 31
0.0
  0
LWPOLYLINE
  5
24B
330
1F
100
AcDbEntity
  8
0-B_寸法
  6
Continuous
 62
     7
370
     9
100
AcDbPolyline
 90
        4
 70
     1
 43
3.0
 10
-2029.981089577758
 20
-809.4822652783957
 42
0.4142135623731
 10
-2031.481089577758
 20
-807.9822652783957
 42
0.4142135623731
 10
-2032.981089577758
 20
-809.4822652783957
 42
0.4142135623731
 10
-2031.481089577758
 20
-810.9822652783959
 42
0.4142135623731
  0
LINE
  5
24C
330
1F
100
AcDbEntity
  8
0-B_寸法
  6
Continuous
 62
   120
370
     5
100
AcDbLine
 10
-2031.481089577758
 20
-809.4822652783957
 30
0.0
 11
-2031.481089577758
 21
-655.7713178564998
 31
0.0
  0
LWPOLYLINE
  5
24D
330
1F
100
AcDbEntity
  8
0-B_寸法
  6
Continuous
 62
     7
370
     9
100
AcDbPolyline
 90
        4
 70
     1
 43
3.0
 10
-1567.981089577741
 20
-809.4822652783957
 42
0.4142135623731
 10
-1569.481089577741
 20
-807.9822652783957
 42
0.4142135623731
 10
-1570.981089577741
 20
-809.4822652783957
 42
0.4142135623731
 10
-1569.481089577741
 20
-810.9822652783959
 42
0.4142135623731
  0
LINE
  5
24E
330
1F
100
AcDbEntity
  8
0-B_寸法
  6
Continuous
 62
   120
370
     5
100
AcDbLine
 10
-1569.481089577741
 20
-809.4822652783957
 30
0.0
 11
-1569.481089577741
 21
-655.7713178564998
 31
0.0
  0
LINE
  5
24F
330
1F
100
AcDbEntity
  8
0-7_金物
  6
Continuous
 62
     7
370
     9
100
AcDbLine
 10
-1728.481844887795
 20
-513.9997428687905
 30
0.0
 11
-1728.481844887795
 21
-405.9996513160561
 31
0.0
  0
LINE
  5
250
330
1F
100
AcDbEntity
  8
0-7_金物
  6
Continuous
 62
     7
370
     9
100
AcDbLine
 10
-1716.481513009815
 20
-513.9997428687905
 30
0.0
 11
-1716.481513009815
 21
-393.9992851060552
 31
0.0
  0
LINE
  5
251
330
1F
100
AcDbEntity
  8
0-7_金物
  6
Continuous
 62
     7
370
     9
100
AcDbLine
 10
-1872.482172474922
 20
-513.9997428687905
 30
0.0
 11
-1872.482172474922
 21
-405.9996513160561
 31
0.0
  0
LINE
  5
252
330
1F
100
AcDbEntity
  8
0-7_金物
  6
Continuous
 62
     7
370
     9
100
AcDbLine
 10
-1884.482504352929
 20
-513.9997428687905
 30
0.0
 11
-1884.482504352929
 21
-393.9992851060552
 31
0.0
  0
LINE
  5
253
330
1F
100
AcDbEntity
  8
0-7_金物
  6
Continuous
 62
     7
370
     9
100
AcDbLine
 10
-1728.481844887795
 20
-405.9996513160561
 30
0.0
 11
-1872.482172474922
 21
-405.9996513160561
 31
0.0
  0
LINE
  5
254
330
1F
100
AcDbEntity
  8
0-7_金物
  6
Continuous
 62
     7
370
     9
100
AcDbLine
 10
-1716.481513009815
 20
-393.9992851060552
 30
0.0
 11
-1884.482504352929
 21
-393.9992851060552
 31
0.0
  0
LINE
  5
255
330
1F
100
AcDbEntity
  8
0-A_文字
  6
Continuous
 62
   120
370
     5
100
AcDbLine
 10
-1569.480921318675
 20
-2902.501802088525
 30
0.0
 11
-2031.481257836824
 21
-2902.501802088525
 31
0.0
  0
LWPOLYLINE
  5
256
330
1F
100
AcDbEntity
  8
0-A_文字
  6
Continuous
 62
     7
370
     9
100
AcDbPolyline
 90
        4
 70
     1
 43
3.0
 10
-1567.980921318675
 20
-2902.501802088525
 42
0.4142135623731
 10
-1569.480921318675
 20
-2901.001802088525
 42
0.4142135623731
 10
-1570.980921318675
 20
-2902.501802088525
 42
0.4142135623731
 10
-1569.480921318675
 20
-2904.001802088525
 42
0.4142135623731
  0
LWPOLYLINE
  5
257
330
1F
100
AcDbEntity
  8
0-A_文字
  6
Continuous
 62
     7
370
     9
100
AcDbPolyline
 90
        4
 70
     1
 43
3.0
 10
-2029.981257836824
 20
-2902.501802088525
 42
0.4142135623731
 10
-2031.481257836824
 20
-2901.001802088525
 42
0.4142135623731
 10
-2032.981257836824
 20
-2902.501802088525
 42
0.4142135623731
 10
-2031.481257836824
 20
-2904.001802088525
 42
0.4142135623731
  0
LINE
  5
258
330
1F
100
AcDbEntity
  8
0-A_文字
  6
Continuous
 62
   120
370
     5
100
AcDbLine
 10
-2031.481257836824
 20
-2902.501802088525
 30
0.0
 11
-2031.481257836824
 21
-3011.20951146179
 31
0.0
  0
LINE
  5
259
330
1F
100
AcDbEntity
  8
0-7_金物
  6
Continuous
 62
     7
370
     9
100
AcDbLine
 10
-1809.480421490236
 20
-3085.253733650568
 30
0.0
 11
-1809.480421490236
 21
-3141.354562336696
 31
0.0
  0
LINE
  5
25A
330
1F
100
AcDbEntity
  8
0-7_金物
  6
Continuous
 62
     7
370
     9
100
AcDbLine
 10
-1791.480659032461
 20
-3085.253733650568
 30
0.0
 11
-1791.480659032461
 21
-3141.354562336696
 31
0.0
  0
LINE
  5
25B
330
1F
100
AcDbEntity
  8
0-7_金物
  6
Continuous
 62
     7
370
     9
100
AcDbLine
 10
-1710.48078630932
 20
-261.8543425941462
 30
0.0
 11
-1890.480648980213
 21
-261.8543425941462
 31
0.0
  0
LINE
  5
25C
330
1F
100
AcDbEntity
  8
0-7_金物
  6
Continuous
 62
     7
370
     9
100
AcDbLine
 10
-1890.480648980213
 20
-249.8540049934368
 30
0.0
 11
-1890.480648980213
 21
-261.8543425941462
 31
0.0
  0
LINE
  5
25D
330
1F
100
AcDbEntity
  8
0-7_金物
  6
Continuous
 62
     7
370
     9
100
AcDbLine
 10
-1710.48078630932
 20
-249.8540049934368
 30
0.0
 11
-1710.48078630932
 21
-261.8543425941462
 31
0.0
  0
LINE
  5
25E
330
1F
100
AcDbEntity
  8
0-7_金物
  6
Continuous
 62
     7
370
     9
100
AcDbLine
 10
-1710.48078630932
 20
-249.8540049934368
 30
0.0
 11
-1890.480648980213
 21
-249.8540049934368
 31
0.0
  0
LINE
  5
25F
330
1F
100
AcDbEntity
  8
0-7_金物
  6
Continuous
 62
     7
370
     9
100
AcDbLine
 10
-1740.480889306129
 20
-261.8543425941462
 30
0.0
 11
-1740.480889306129
 21
-273.8539363288862
 31
0.0
  0
LINE
  5
260
330
1F
100
AcDbEntity
  8
0-7_金物
  6
Continuous
 62
     7
370
     9
100
AcDbLine
 10
-1860.480545983376
 20
-261.8543425941462
 30
0.0
 11
-1860.480545983376
 21
-273.8539363288862
 31
0.0
  0
LINE
  5
261
330
1F
100
AcDbEntity
  8
0-7_金物
  6
Continuous
 62
     7
370
     9
100
AcDbLine
 10
-1740.480889306129
 20
-273.8539363288862
 30
0.0
 11
-1860.480545983376
 21
-273.8539363288862
 31
0.0
  0
LINE
  5
262
330
1F
100
AcDbEntity
  8
0-7_金物
  6
Continuous
 62
     7
370
     9
100
AcDbLine
 10
-1746.481055245461
 20
-273.8539363288862
 30
0.0
 11
-1746.481055245461
 21
-297.999925974264
 31
0.0
  0
LINE
  5
263
330
1F
100
AcDbEntity
  8
0-7_金物
  6
Continuous
 62
     7
370
     9
100
AcDbLine
 10
-1854.481123910011
 20
-297.999925974264
 30
0.0
 11
-1854.481123910011
 21
-273.8539363288862
 31
0.0
  0
LINE
  5
264
330
1F
100
AcDbEntity
  8
0-4_枠
  6
Continuous
 62
    92
370
    13
100
AcDbLine
 10
-1611.481089577758
 20
-297.9999259742593
 30
0.0
 11
-1611.481089577758
 21
-345.9999259742574
 31
0.0
  0
LINE
  5
265
330
1F
100
AcDbEntity
  8
0-4_枠
  6
Continuous
 62
    92
370
    13
100
AcDbLine
 10
-1569.481089577741
 20
-345.9999259742574
 30
0.0
 11
-1611.481089577758
 21
-345.9999259742574
 31
0.0
  0
LINE
  5
266
330
1F
100
AcDbEntity
  8
0-4_枠
  6
Continuous
 62
    92
370
    13
100
AcDbLine
 10
-1569.481089577741
 20
-345.9999259742574
 30
0.0
 11
-1569.481089577741
 21
-399.9999259742586
 31
0.0
  0
LINE
  5
267
330
1F
100
AcDbEntity
  8
0-4_枠
  6
Continuous
 62
    92
370
    13
100
AcDbLine
 10
-1569.481089577741
 20
-399.9999259742586
 30
0.0
 11
-1629.481089577741
 21
-399.9999259742586
 31
0.0
  0
LINE
  5
268
330
1F
100
AcDbEntity
  8
0-4_枠
  6
Continuous
 62
    92
370
    13
100
AcDbLine
 10
-1629.481089577741
 20
-399.9999259742586
 30
0.0
 11
-1629.481089577741
 21
-453.9999259742585
 31
0.0
  0
LINE
  5
269
330
1F
100
AcDbEntity
  8
0-4_枠
  6
Continuous
 62
    92
370
    13
100
AcDbLine
 10
-1569.481089577741
 20
-453.9999259742585
 30
0.0
 11
-1629.481089577741
 21
-453.9999259742585
 31
0.0
  0
LINE
  5
26A
330
1F
100
AcDbEntity
  8
0-B_寸法
  6
Continuous
 62
   120
370
     5
100
AcDbLine
 10
-1209.481089577741
 20
-297.9995003777643
 30
0.0
 11
-1209.481089577741
 21
-513.9993172722941
 31
0.0
  0
LWPOLYLINE
  5
26B
330
1F
100
AcDbEntity
  8
0-B_寸法
  6
Continuous
 62
     7
370
     9
100
AcDbPolyline
 90
        4
 70
     1
 43
3.0
 10
-1207.981089577741
 20
-297.9995003777643
 42
0.4142135623731
 10
-1209.481089577741
 20
-296.4995003777643
 42
0.4142135623731
 10
-1210.981089577741
 20
-297.9995003777643
 42
0.4142135623731
 10
-1209.481089577741
 20
-299.4995003777643
 42
0.4142135623731
  0
LWPOLYLINE
  5
26C
330
1F
100
AcDbEntity
  8
0-B_寸法
  6
Continuous
 62
     7
370
     9
100
AcDbPolyline
 90
        4
 70
     1
 43
3.0
 10
-1207.981089577741
 20
-399.9995003777636
 42
0.4142135623731
 10
-1209.481089577741
 20
-398.4995003777636
 42
0.4142135623731
 10
-1210.981089577741
 20
-399.9995003777636
 42
0.4142135623731
 10
-1209.481089577741
 20
-401.4995003777636
 42
0.4142135623731
  0
LWPOLYLINE
  5
26D
330
1F
100
AcDbEntity
  8
0-B_寸法
  6
Continuous
 62
     7
370
     9
100
AcDbPolyline
 90
        4
 70
     1
 43
3.0
 10
-1207.981089577741
 20
-453.9995003777635
 42
0.4142135623731
 10
-1209.481089577741
 20
-452.4995003777635
 42
0.4142135623731
 10
-1210.981089577741
 20
-453.9995003777635
 42
0.4142135623731
 10
-1209.481089577741
 20
-455.4995003777635
 42
0.4142135623731
  0
LWPOLYLINE
  5
26E
330
1F
100
AcDbEntity
  8
0-B_寸法
  6
Continuous
 62
     7
370
     9
100
AcDbPolyline
 90
        4
 70
     1
 43
3.0
 10
-1207.981089577741
 20
-513.9993172722941
 42
0.4142135623731
 10
-1209.481089577741
 20
-512.4993172722941
 42
0.4142135623731
 10
-1210.981089577741
 20
-513.9993172722941
 42
0.4142135623731
 10
-1209.481089577741
 20
-515.4993172722942
 42
0.4142135623731
  0
LWPOLYLINE
  5
26F
330
1F
100
AcDbEntity
  8
0-B_寸法
  6
Continuous
 62
     7
370
     9
100
AcDbPolyline
 90
        4
 70
     1
 43
3.0
 10
-1207.981089577741
 20
-345.9995003777624
 42
0.4142135623731
 10
-1209.481089577741
 20
-344.4995003777624
 42
0.4142135623731
 10
-1210.981089577741
 20
-345.9995003777624
 42
0.4142135623731
 10
-1209.481089577741
 20
-347.4995003777624
 42
0.4142135623731
  0
LINE
  5
270
330
1F
100
AcDbEntity
  8
0-B_寸法
  6
Continuous
 62
   120
370
     5
100
AcDbLine
 10
-1320.975390169572
 20
-453.9995003777635
 30
0.0
 11
-1341.481135354109
 21
-453.9995003777635
 31
0.0
  0
LINE
  5
271
330
1F
100
AcDbEntity
  8
0-B_寸法
  6
Continuous
 62
   120
370
     5
100
AcDbLine
 10
-1209.481089577741
 20
-453.9995003777635
 30
0.0
 11
-1222.013379699758
 21
-453.9995003777635
 31
0.0
  0
LINE
  5
272
330
1F
100
AcDbEntity
  8
0-B_寸法
  6
Continuous
 62
   120
370
     5
100
AcDbLine
 10
-1209.481089577741
 20
-399.9995003777636
 30
0.0
 11
-1341.481135354109
 21
-399.9995003777636
 31
0.0
  0
LINE
  5
273
330
1F
100
AcDbEntity
  8
0-B_寸法
  6
Continuous
 62
   120
370
     5
100
AcDbLine
 10
-1320.975390169572
 20
-345.9995003777624
 30
0.0
 11
-1341.481135354109
 21
-345.9995003777624
 31
0.0
  0
LINE
  5
274
330
1F
100
AcDbEntity
  8
0-B_寸法
  6
Continuous
 62
   120
370
     5
100
AcDbLine
 10
-1209.481089577741
 20
-345.9995003777624
 30
0.0
 11
-1222.013379699758
 21
-345.9995003777624
 31
0.0
  0
LINE
  5
275
330
1F
100
AcDbEntity
  8
0-B_寸法
  6
Continuous
 62
   120
370
     5
100
AcDbLine
 10
-1341.481135354109
 20
-513.9993172722941
 30
0.0
 11
-999.4810895777414
 21
-513.9993172722941
 31
0.0
  0
LINE
  5
276
330
1F
100
AcDbEntity
  8
0-B_寸法
  6
Continuous
 62
   120
370
     5
100
AcDbLine
 10
-1341.481135354109
 20
-297.9999408206473
 30
0.0
 11
-639.4810895777414
 21
-297.9999408206473
 31
0.0
  0
LINE
  5
277
330
1F
100
AcDbEntity
  8
0-C_ハッチ
  6
Continuous
 62
   120
370
     5
100
AcDbLine
 10
-1572.581283372231
 20
-513.9997428687973
 30
0.0
 11
-1569.481089577741
 21
-510.8995490743135
 31
0.0
  0
LINE
  5
278
330
1F
100
AcDbEntity
  8
0-C_ハッチ
  6
Continuous
 62
   120
370
     5
100
AcDbLine
 10
-1631.978252991851
 20
-513.9997428687789
 30
0.0
 11
-1571.978436097336
 21
-453.9999259742504
 31
0.0
  0
LINE
  5
279
330
1F
100
AcDbEntity
  8
0-C_ハッチ
  6
Continuous
 62
   120
370
     5
100
AcDbLine
 10
-1691.37522261158
 20
-513.9997428687959
 30
0.0
 11
-1629.481089577741
 21
-452.1056098349793
 31
0.0
  0
LINE
  5
27A
330
1F
100
AcDbEntity
  8
0-C_ハッチ
  6
Continuous
 62
   120
370
     5
100
AcDbLine
 10
-1577.375405717032
 20
-399.9999259742586
 30
0.0
 11
-1569.481089577741
 21
-392.1056098349712
 31
0.0
  0
LINE
  5
27B
330
1F
100
AcDbEntity
  8
0-C_ハッチ
  6
Continuous
 62
   120
370
     5
100
AcDbLine
 10
-1716.481513009132
 20
-479.7090636467196
 30
0.0
 11
-1582.772375336674
 21
-345.99992597426
 31
0.0
  0
LINE
  5
27C
330
1F
100
AcDbEntity
  8
0-C_ハッチ
  6
Continuous
 62
   120
370
     5
100
AcDbLine
 10
-1716.481513009132
 20
-420.3120940270199
 30
0.0
 11
-1611.481089577758
 21
-315.3116705956214
 31
0.0
  0
LINE
  5
27D
330
1F
100
AcDbEntity
  8
0-C_ハッチ
  6
Continuous
 62
   120
370
     5
100
AcDbLine
 10
-1749.565673706904
 20
-393.9992851051275
 30
0.0
 11
-1653.56631457604
 21
-297.9999259742661
 31
0.0
  0
LINE
  5
27E
330
1F
100
AcDbEntity
  8
0-C_ハッチ
  6
Continuous
 62
   120
370
     5
100
AcDbLine
 10
-1928.963101090196
 20
-513.999742868787
 30
0.0
 11
-1884.482504352929
 21
-469.5191461315203
 31
0.0
  0
LINE
  5
27F
330
1F
100
AcDbEntity
  8
0-C_ハッチ
  6
Continuous
 62
   120
370
     5
100
AcDbLine
 10
-1808.962643326524
 20
-393.9992851051118
 30
0.0
 11
-1712.963284195687
 21
-297.999925974264
 31
0.0
  0
LINE
  5
280
330
1F
100
AcDbEntity
  8
0-C_ハッチ
  6
Continuous
 62
   120
370
     5
100
AcDbLine
 10
-1988.360070709925
 20
-513.9997428687939
 30
0.0
 11
-1884.482504352929
 21
-410.1221765118048
 31
0.0
  0
LINE
  5
281
330
1F
100
AcDbEntity
  8
0-C_ハッチ
  6
Continuous
 62
   120
370
     5
100
AcDbLine
 10
-1868.359612946253
 20
-393.9992851051275
 30
0.0
 11
-1772.360253815389
 21
-297.9999259742572
 31
0.0
  0
LINE
  5
282
330
1F
100
AcDbEntity
  8
0-C_ハッチ
  6
Continuous
 62
   120
370
     5
100
AcDbLine
 10
-2031.481089577758
 20
-497.7237921169824
 30
0.0
 11
-1831.757223435036
 21
-297.9999259742601
 31
0.0
  0
LINE
  5
283
330
1F
100
AcDbEntity
  8
0-C_ハッチ
  6
Continuous
 62
   120
370
     5
100
AcDbLine
 10
-2031.48108957773
 20
-438.326822497269
 30
0.0
 11
-1891.154193054738
 21
-297.9999259742601
 31
0.0
  0
LINE
  5
284
330
1F
100
AcDbEntity
  8
0-C_ハッチ
  6
Continuous
 62
   120
370
     5
100
AcDbLine
 10
-2031.481089577758
 20
-378.9298528776354
 30
0.0
 11
-1950.551162674385
 21
-297.9999259742559
 31
0.0
  0
LINE
  5
285
330
1F
100
AcDbEntity
  8
0-C_ハッチ
  6
Continuous
 62
   120
370
     5
100
AcDbLine
 10
-2031.481089577758
 20
-319.5328832579301
 30
0.0
 11
-2009.948132294087
 21
-297.9999259742572
 31
0.0
  0
LINE
  5
286
330
1F
100
AcDbEntity
  8
0-0_補助線
  6
JWW_HOJO
 62
   120
370
     5
100
AcDbLine
 10
-2030.166857600118
 20
-1798.000044745374
 30
0.0
 11
-1570.795321555354
 21
-1798.000044745374
 31
0.0
  0
LINE
  5
287
330
1F
100
AcDbEntity
  8
0-0_補助線
  6
JWW_HOJO
 62
   120
370
     5
100
AcDbLine
 10
-2030.166857600118
 20
-1918.000044745374
 30
0.0
 11
-1570.795321555354
 21
-1918.000044745374
 31
0.0
  0
MTEXT
  5
288
330
1F
100
AcDbEntity
  8
0-B_寸法
  6
Continuous
 62
     7
370
   211
100
AcDbMText
 10
-654.4810895777405
 20
-258.716626380327
 30
0.0
 40
91.44000000000129
 41
60.00000000000085
 46
0.0
 71
     7
 72
     1
  1
{\fＭＳ ゴシック|b0|i0|c128|p49;8}
 11
6.123031769111886E-17
 21
1.0
 31
0.0
 73
     1
 44
1.0
  0
MTEXT
  5
289
330
1F
100
AcDbEntity
  8
0-B_寸法
  6
Continuous
 62
     7
370
   211
100
AcDbMText
 10
-1209.48108957774
 20
-304.7261060204099
 30
0.0
 40
91.43999999999805
 41
59.99999999999872
 46
0.0
 71
     7
 72
     1
  1
{\fＭＳ ゴシック|b0|i0|c128|p49;8}
 11
6.123031769111886E-17
 21
1.0
 31
0.0
 73
     1
 44
1.0
  0
MTEXT
  5
28A
330
1F
100
AcDbEntity
  8
0-B_寸法
  6
Continuous
 62
     7
370
   211
100
AcDbMText
 10
-1209.48108957774
 20
-390.2795003777634
 30
0.0
 40
91.44000000000129
 41
60.00000000000085
 46
0.0
 71
     7
 72
     1
  1
{\fＭＳ ゴシック|b0|i0|c128|p49;9}
 11
6.123031769111886E-17
 21
1.0
 31
0.0
 73
     1
 44
1.0
  0
MTEXT
  5
28B
330
1F
100
AcDbEntity
  8
0-B_寸法
  6
Continuous
 62
     7
370
     0
100
AcDbMText
 10
-834.4803967462408
 20
-480.2794434666058
 30
0.0
 40
91.43999999999966
 41
119.9999999999996
 46
0.0
 71
     7
 72
     1
  1
{\fＭＳ ゴシック|b0|i0|c128|p49;36}
 11
6.123031769111886E-17
 21
1.0
 31
0.0
 73
     1
 44
1.0
  0
MTEXT
  5
28C
330
1F
100
AcDbEntity
  8
0-B_寸法
  6
Continuous
 62
     7
370
   211
100
AcDbMText
 10
-1209.48108957774
 20
-498.2795003777641
 30
0.0
 40
91.43999999999805
 41
59.99999999999872
 46
0.0
 71
     7
 72
     1
  1
{\fＭＳ ゴシック|b0|i0|c128|p49;9}
 11
6.123031769111886E-17
 21
1.0
 31
0.0
 73
     1
 44
1.0
  0
MTEXT
  5
28D
330
1F
100
AcDbEntity
  8
0-B_寸法
  6
Continuous
 62
     7
370
   211
100
AcDbMText
 10
-1209.48108957774
 20
-665.9424220252081
 30
0.0
 40
91.44000000000096
 41
120.0000000000013
 46
0.0
 71
     7
 72
     1
  1
{\fＭＳ ゴシック|b0|i0|c128|p49;10}
 11
6.123031769111886E-17
 21
1.0
 31
0.0
 73
     1
 44
1.0
  0
MTEXT
  5
28E
330
1F
100
AcDbEntity
  8
0-B_寸法
  6
Continuous
 62
     7
370
     0
100
AcDbMText
 10
-1013.908872158046
 20
-751.2356859272322
 30
0.0
 40
91.44000000000023
 41
180.0000000000004
 46
0.0
 71
     7
 72
     1
  1
{\fＭＳ ゴシック|b0|i0|c128|p49;7.5}
 11
6.123031769111886E-17
 21
1.0
 31
0.0
 73
     1
 44
1.0
  0
MTEXT
  5
28F
330
1F
100
AcDbEntity
  8
0-B_寸法
  6
Continuous
 62
     7
370
     0
100
AcDbMText
 10
-1860.481638894163
 20
-808.7622652783965
 30
0.0
 40
91.43999999999805
 41
119.9999999999974
 46
0.0
 71
     7
 72
     1
  1
{\fＭＳ ゴシック|b0|i0|c128|p49;77}
 73
     1
 44
1.0
  0
MTEXT
  5
290
330
1F
100
AcDbEntity
  8
0-B_寸法
  6
Continuous
 62
     7
370
     0
100
AcDbMText
 10
-1013.947584825147
 20
-3119.701984018793
 30
0.0
 40
91.43999999999913
 41
179.9999999999983
 46
0.0
 71
     7
 72
     1
  1
{\fＭＳ ゴシック|b0|i0|c128|p49;8.5}
 11
6.123031769111886E-17
 21
1.0
 31
0.0
 73
     1
 44
1.0
  0
MTEXT
  5
291
330
1F
100
AcDbEntity
  8
0-B_寸法
  6
Continuous
 62
     7
370
   211
100
AcDbMText
 10
-834.4810895777405
 20
-3257.369654497717
 30
0.0
 40
91.43999999999805
 41
119.9999999999974
 46
0.0
 71
     7
 72
     1
  1
{\fＭＳ ゴシック|b0|i0|c128|p49;15}
 11
6.123031769111886E-17
 21
1.0
 31
0.0
 73
     1
 44
1.0
  0
MTEXT
  5
292
330
1F
100
AcDbEntity
  8
0-B_寸法
  6
Continuous
 62
     7
370
   211
100
AcDbMText
 10
-645.5054405218757
 20
-3424.711428163325
 30
0.0
 40
91.44000000000129
 41
120.0000000000017
 46
0.0
 71
     7
 72
     1
  1
{\fＭＳ ゴシック|b0|i0|c128|p49;12}
 11
6.123031769111886E-17
 21
1.0
 31
0.0
 73
     1
 44
1.0
  0
MTEXT
  5
293
330
1F
100
AcDbEntity
  8
0-B_寸法
  6
Continuous
 62
     7
370
   211
100
AcDbMText
 10
-2778.481089577739
 20
-2178.207158486914
 30
0.0
 40
91.4400000000003
 41
780.0000000000025
 46
0.0
 71
     7
 72
     1
  1
{\fＭＳ ゴシック|b0|i0|c128|p49;ＲＯＨ＝2,371}
 11
6.123031769111886E-17
 21
1.0
 31
0.0
 73
     1
 44
1.0
  0
MTEXT
  5
294
330
1F
100
AcDbEntity
  8
0-B_寸法
  6
Continuous
 62
     7
370
     0
100
AcDbMText
 10
-1014.480396746241
 20
-2166.279899993078
 30
0.0
 40
91.44000000000014
 41
660.0000000000009
 46
0.0
 71
     7
 72
     1
  1
{\fＭＳ ゴシック|b0|i0|c128|p49;ＤＨ＝2,284}
 11
6.123031769111886E-17
 21
1.0
 31
0.0
 73
     1
 44
1.0
  0
MTEXT
  5
295
330
1F
100
AcDbEntity
  8
0-B_寸法
  6
Continuous
 62
     7
370
     0
100
AcDbMText
 10
-834.4803967462408
 20
-2166.279899993078
 30
0.0
 40
91.44000000000014
 41
660.0000000000009
 46
0.0
 71
     7
 72
     1
  1
{\fＭＳ ゴシック|b0|i0|c128|p49;枠内＝2,300}
 11
6.123031769111886E-17
 21
1.0
 31
0.0
 73
     1
 44
1.0
  0
MTEXT
  5
296
330
1F
100
AcDbEntity
  8
0-B_寸法
  6
Continuous
 62
     7
370
     0
100
AcDbMText
 10
-654.4818813851648
 20
-2166.279899993078
 30
0.0
 40
91.44000000000014
 41
660.0000000000009
 46
0.0
 71
     7
 72
     1
  1
{\fＭＳ ゴシック|b0|i0|c128|p49;枠外＝2,351}
 11
6.123031769111886E-17
 21
1.0
 31
0.0
 73
     1
 44
1.0
  0
MTEXT
  5
297
330
1F
100
AcDbEntity
  8
0-A_文字
  6
Continuous
 62
     7
370
   211
100
AcDbMText
 10
-1920.481089577736
 20
-1324.495429699597
 30
0.0
 40
91.43999999999967
 41
239.9999999999991
 46
0.0
 71
     7
 72
     1
  1
{\fＭＳ ゴシック|b0|i0|c128|p49;(24)}
 73
     1
 44
1.0
  0
MTEXT
  5
298
330
1F
100
AcDbEntity
  8
0-A_文字
  6
Continuous
 62
     7
370
     0
100
AcDbMText
 10
-1798.85300440058
 20
-3666.90692499645
 30
0.0
 40
68.5800000000002
 41
1350.000000000003
 46
0.0
 71
     7
 72
     1
  1
{\fＭＳ ゴシック|b0|i0|c128|p49;※扉厚（　）内はルーバーの場合}
 73
     1
 44
1.0
  0
LINE
  5
299
330
1F
100
AcDbEntity
  8
0-A_文字
  6
JWW_HOJO
 62
   120
370
     5
100
AcDbLine
 10
-1798.853004400578
 20
-3656.19692499645
 30
0.0
 11
610.6708051232329
 21
-3656.19692499645
 31
0.0
  0
LINE
  5
29A
330
1F
100
AcDbEntity
  8
0-3_仕上げ
  6
Continuous
 62
    40
370
    15
100
AcDbLine
 10
-1536.481089577758
 20
-345.9999259742574
 30
0.0
 11
-1611.481089577758
 21
-345.9999259742574
 31
0.0
  0
LINE
  5
29B
330
1F
100
AcDbEntity
  8
0-3_仕上げ
  6
Continuous
 62
   120
370
     5
100
AcDbLine
 10
-1611.481089577758
 20
-117.854004993435
 30
0.0
 11
-1611.481089577758
 21
-297.854004993435
 31
0.0
  0
LINE
  5
29C
330
1F
100
AcDbEntity
  8
0-C_ハッチ
  6
JWW_DASHED1
 62
   120
370
     5
100
AcDbLine
 10
-1562.410041830765
 20
-345.9999259742586
 30
0.0
 11
-1536.481089577758
 21
-320.0709737212537
 31
0.0
  0
LINE
  5
29D
330
1F
100
AcDbEntity
  8
0-C_ハッチ
  6
JWW_DASHED1
 62
   120
370
     5
100
AcDbLine
 10
-1604.836448701965
 20
-345.9999259742574
 30
0.0
 11
-1536.481089577758
 21
-277.6445668500571
 31
0.0
  0
LINE
  5
29E
330
1F
100
AcDbEntity
  8
0-C_ハッチ
  6
JWW_DASHED1
 62
   120
370
     5
100
AcDbLine
 10
-1611.481089577758
 20
-310.2181599788571
 30
0.0
 11
-1536.481089577758
 21
-235.2181599788605
 31
0.0
  0
LINE
  5
29F
330
1F
100
AcDbEntity
  8
0-C_ハッチ
  6
JWW_DASHED1
 62
   120
370
     5
100
AcDbLine
 10
-1611.481089577758
 20
-267.7917531076605
 30
0.0
 11
-1536.481089577758
 21
-192.7917531076486
 31
0.0
  0
LINE
  5
2A0
330
1F
100
AcDbEntity
  8
0-C_ハッチ
  6
JWW_DASHED1
 62
   120
370
     5
100
AcDbLine
 10
-1611.481089577758
 20
-225.3653462364622
 30
0.0
 11
-1536.481089577758
 21
-150.3653462364515
 31
0.0
  0
LINE
  5
2A1
330
1F
100
AcDbEntity
  8
0-C_ハッチ
  6
JWW_DASHED1
 62
   120
370
     5
100
AcDbLine
 10
-1611.48108957773
 20
-182.938939365298
 30
0.0
 11
-1536.481089577758
 21
-107.9389393653031
 31
0.0
  0
LINE
  5
2A2
330
1F
100
AcDbEntity
  8
0-C_ハッチ
  6
JWW_DASHED1
 62
   120
370
     5
100
AcDbLine
 10
-1611.481089577758
 20
-140.5125324941031
 30
0.0
 11
-1536.481089577758
 21
-65.5125324941082
 31
0.0
  0
LINE
  5
2A3
330
1F
100
AcDbEntity
  8
0-3_仕上げ
  6
Continuous
 62
   120
370
     5
100
AcDbLine
 10
-2031.481089577758
 20
-69.85400499343683
 30
0.0
 11
-1611.481089577758
 21
-69.85400499343683
 31
0.0
  0
LINE
  5
2A4
330
1F
100
AcDbEntity
  8
0-3_仕上げ
  6
Continuous
 62
   120
370
     5
100
AcDbLine
 10
-2031.481089577758
 20
-249.8540049934368
 30
0.0
 11
-2031.481089577758
 21
-69.85400499343683
 31
0.0
  0
LINE
  5
2A5
330
1F
100
AcDbEntity
  8
0-3_仕上げ
  6
Continuous
 62
   120
370
     5
100
AcDbLine
 10
-1611.481089577758
 20
-249.8540049934368
 30
0.0
 11
-2031.481089577758
 21
-249.8540049934368
 31
0.0
  0
LINE
  5
2A6
330
1F
100
AcDbEntity
  8
0-3_仕上げ
  6
Continuous
 62
   120
370
     5
100
AcDbLine
 10
-2031.481089577758
 20
-249.8540049934368
 30
0.0
 11
-1611.481089577758
 21
-69.85400499343683
 31
0.0
  0
LINE
  5
2A7
330
1F
100
AcDbEntity
  8
0-3_仕上げ
  6
Continuous
 62
    40
370
    15
100
AcDbLine
 10
-1536.481089577758
 20
-345.9999259742574
 30
0.0
 11
-1536.481089577758
 21
2.00007402574073
 31
0.0
  0
LINE
  5
2A8
330
1F
100
AcDbEntity
  8
0-3_仕上げ
  6
Continuous
 62
    40
370
    15
100
AcDbLine
 10
-1611.481089577758
 20
-345.9999259742574
 30
0.0
 11
-1611.481089577758
 21
2.00007402574073
 31
0.0
  0
LINE
  5
2A9
330
1F
100
AcDbEntity
  8
0-C_ハッチ
  6
JWW_DASHED1
 62
   120
370
     5
100
AcDbLine
 10
-1611.48108957773
 20
-98.08612562289923
 30
0.0
 11
-1536.481089577758
 21
-23.08612562289582
 31
0.0
  0
LINE
  5
2AA
330
1F
100
AcDbEntity
  8
0-C_ハッチ
  6
JWW_DASHED1
 62
   120
370
     5
100
AcDbLine
 10
-1611.481089577758
 20
-55.65971875170305
 30
0.0
 11
-1553.821667753915
 21
1.999703072129648
 31
0.0
  0
LINE
  5
2AB
330
1F
100
AcDbEntity
  8
0-E
  6
Continuous
 62
    92
370
    13
100
AcDbLine
 10
2180.23905840167
 20
-3097.097370803165
 30
0.0
 11
2180.23905840167
 21
2.00007402574073
 31
0.0
  0
LINE
  5
2AC
330
1F
100
AcDbEntity
  8
0-E
  6
Continuous
 62
    92
370
    13
100
AcDbLine
 10
194.5696967310911
 20
2.00007402574073
 30
0.0
 11
194.5696967310911
 21
-3097.097370803165
 31
0.0
  0
LWPOLYLINE
  5
2AD
330
1F
100
AcDbEntity
  8
0-E
  6
Continuous
 62
     7
370
     9
100
AcDbPolyline
 90
        4
 70
     1
 43
3.0
 10
779.7198219358315
 20
-969.4181252843795
 42
0.4142135623731
 10
778.2198219358315
 20
-967.9181252843796
 42
0.4142135623731
 10
776.7198219358315
 20
-969.4181252843795
 42
0.4142135623731
 10
778.2198219358315
 20
-970.9181252843794
 42
0.4142135623731
  0
LINE
  5
2AE
330
1F
100
AcDbEntity
  8
0-E
  6
Continuous
 62
   120
370
     5
100
AcDbLine
 10
778.2198219358315
 20
-969.4181252843795
 30
0.0
 11
778.2198219358315
 21
-1112.96017508438
 31
0.0
  0
LINE
  5
2AF
330
1F
100
AcDbEntity
  8
0-E
  6
Continuous
 62
    92
370
    13
100
AcDbLine
 10
778.2198219358315
 20
-1162.960175084379
 30
0.0
 11
778.2198219358315
 21
-2038.251380633206
 31
0.0
  0
MTEXT
  5
2B0
330
1F
100
AcDbEntity
  8
0-E
  6
Continuous
 62
     7
370
     0
100
AcDbMText
 10
467.404377566381
 20
-184.0415489365166
 30
0.0
 40
91.43999999999993
 41
1439.999999999999
 46
0.0
 71
     7
 72
     1
  1
{\fＭＳ ゴシック|b0|i0|c128|p49;竪枠下端形状図（S＝1/3）}
 73
     1
 44
1.0
  0
LINE
  5
2B1
330
1F
100
AcDbEntity
  8
0-E
  6
Continuous
 62
    92
370
    13
100
AcDbLine
 10
4165.908420072251
 20
-3097.097370803165
 30
0.0
 11
4165.908420072251
 21
2.00007402574073
 31
0.0
  0
LINE
  5
2B2
330
1F
100
AcDbEntity
  8
0-E
  6
Continuous
 62
    92
370
    13
100
AcDbLine
 10
4165.908420072251
 20
-3097.097370803165
 30
0.0
 11
194.5696967310911
 21
-3097.097370803165
 31
0.0
  0
LINE
  5
2B3
330
1F
100
AcDbEntity
  8
0-E
  6
Continuous
 62
    92
370
    13
100
AcDbLine
 10
194.5696967310911
 20
-213.9999259742606
 30
0.0
 11
4165.908420072251
 21
-213.9999259742606
 31
0.0
  0
LINE
  5
2B4
330
1F
100
AcDbEntity
  8
0-E
  6
Continuous
 62
    92
370
    13
100
AcDbLine
 10
194.5696967310911
 20
2.00007402574073
 30
0.0
 11
4165.908420072251
 21
2.00007402574073
 31
0.0
  0
MTEXT
  5
2B5
330
1F
100
AcDbEntity
  8
0-E
  6
Continuous
 62
     7
370
     0
100
AcDbMText
 10
2576.353347958483
 20
-184.0415489365166
 30
0.0
 40
91.43999999999998
 41
1200.0
 46
0.0
 71
     7
 72
     1
  1
{\fＭＳ ゴシック|b0|i0|c128|p49;下枠詳細図（S＝1/2）}
 73
     1
 44
1.0
  0
INSERT
  5
2B6
330
1F
100
AcDbEntity
  8
0-E
  6
Continuous
 62
     7
370
     9
100
AcDbBlockReference
  2
01@@SfigorgFlag@@4
 10
3281.251129440784
 20
-2351.48294819982
 30
0.0
 41
30.0
 42
30.0
  0
LWPOLYLINE
  5
2B7
330
1F
100
AcDbEntity
  8
0-E
  6
Continuous
 62
     7
370
     9
100
AcDbPolyline
 90
        4
 70
     1
 43
3.0
 10
3042.751129440787
 20
-2304.713717430588
 42
0.4142135623731
 10
3041.251129440788
 20
-2303.213717430589
 42
0.4142135623731
 10
3039.751129440788
 20
-2304.713717430588
 42
0.4142135623731
 10
3041.251129440788
 20
-2306.213717430588
 42
0.4142135623731
  0
LWPOLYLINE
  5
2B8
330
1F
100
AcDbEntity
  8
0-E
  6
Continuous
 62
     7
370
     9
100
AcDbPolyline
 90
        4
 70
     1
 43
3.0
 10
3522.751129440781
 20
-2304.713717430588
 42
0.4142135623731
 10
3521.251129440781
 20
-2303.213717430589
 42
0.4142135623731
 10
3519.751129440782
 20
-2304.713717430588
 42
0.4142135623731
 10
3521.251129440781
 20
-2306.213717430588
 42
0.4142135623731
  0
LWPOLYLINE
  5
2B9
330
1F
100
AcDbEntity
  8
0-E
  6
Continuous
 62
     7
370
     9
100
AcDbPolyline
 90
        4
 70
     1
 43
3.0
 10
3200.251129440778
 20
-2300.213717430588
 42
0.4142135623731
 10
3198.751129440778
 20
-2298.713717430588
 42
0.4142135623731
 10
3197.251129440778
 20
-2300.213717430588
 42
0.4142135623731
 10
3198.751129440778
 20
-2301.713717430588
 42
0.4142135623731
  0
LWPOLYLINE
  5
2BA
330
1F
100
AcDbEntity
  8
0-E
  6
Continuous
 62
     7
370
     9
100
AcDbPolyline
 90
        4
 70
     1
 43
3.0
 10
3365.251129440791
 20
-2300.213717430588
 42
0.4142135623731
 10
3363.751129440791
 20
-2298.713717430588
 42
0.4142135623731
 10
3362.251129440791
 20
-2300.213717430588
 42
0.4142135623731
 10
3363.751129440791
 20
-2301.713717430588
 42
0.4142135623731
  0
LINE
  5
2BB
330
1F
100
AcDbEntity
  8
0-E
  6
Continuous
 62
   120
370
     5
100
AcDbLine
 10
3198.751129440778
 20
-2151.033601497839
 30
0.0
 11
3363.751129440791
 21
-2151.033601497839
 31
0.0
  0
LWPOLYLINE
  5
2BC
330
1F
100
AcDbEntity
  8
0-E
  6
Continuous
 62
     7
370
     9
100
AcDbPolyline
 90
        4
 70
     1
 43
3.0
 10
3200.251129440778
 20
-2151.033601497839
 42
0.4142135623731
 10
3198.751129440778
 20
-2149.533601497839
 42
0.4142135623731
 10
3197.251129440778
 20
-2151.033601497839
 42
0.4142135623731
 10
3198.751129440778
 20
-2152.533601497839
 42
0.4142135623731
  0
LWPOLYLINE
  5
2BD
330
1F
100
AcDbEntity
  8
0-E
  6
Continuous
 62
     7
370
     9
100
AcDbPolyline
 90
        4
 70
     1
 43
3.0
 10
3365.251129440791
 20
-2151.033601497839
 42
0.4142135623731
 10
3363.751129440791
 20
-2149.533601497839
 42
0.4142135623731
 10
3362.251129440791
 20
-2151.033601497839
 42
0.4142135623731
 10
3363.751129440791
 20
-2152.533601497839
 42
0.4142135623731
  0
LINE
  5
2BE
330
1F
100
AcDbEntity
  8
0-E
  6
Continuous
 62
   120
370
     5
100
AcDbLine
 10
3198.751129440778
 20
-2151.033601497839
 30
0.0
 11
3198.751129440778
 21
-2236.897910415785
 31
0.0
  0
LINE
  5
2BF
330
1F
100
AcDbEntity
  8
0-E
  6
Continuous
 62
   120
370
     5
100
AcDbLine
 10
3363.751129440791
 20
-2151.033601497839
 30
0.0
 11
3363.751129440791
 21
-2236.897910415785
 31
0.0
  0
MTEXT
  5
2C0
330
1F
100
AcDbEntity
  8
0-E
  6
Continuous
 62
     7
370
   211
100
AcDbMText
 10
3236.251129440784
 20
-794.2929781202555
 30
0.0
 40
68.58
 41
90.0
 46
0.0
 71
     7
 72
     1
  1
{\fＭＳ ゴシック|b0|i0|c128|p49;77}
 73
     1
 44
1.0
  0
LINE
  5
2C1
330
1F
100
AcDbEntity
  8
0-E
  6
Continuous
 62
   120
370
     5
100
AcDbLine
 10
3041.251129440788
 20
-1991.571313507368
 30
0.0
 11
3521.251129440781
 21
-1991.571313507368
 31
0.0
  0
LWPOLYLINE
  5
2C2
330
1F
100
AcDbEntity
  8
0-E
  6
Continuous
 62
     7
370
     9
100
AcDbPolyline
 90
        4
 70
     1
 43
3.0
 10
3042.751129440787
 20
-1991.571313507368
 42
0.4142135623731
 10
3041.251129440788
 20
-1990.071313507368
 42
0.4142135623731
 10
3039.751129440788
 20
-1991.571313507368
 42
0.4142135623731
 10
3041.251129440788
 20
-1993.071313507368
 42
0.4142135623731
  0
LWPOLYLINE
  5
2C3
330
1F
100
AcDbEntity
  8
0-E
  6
Continuous
 62
     7
370
     9
100
AcDbPolyline
 90
        4
 70
     1
 43
3.0
 10
3522.751129440781
 20
-1991.571313507368
 42
0.4142135623731
 10
3521.251129440781
 20
-1990.071313507368
 42
0.4142135623731
 10
3519.751129440782
 20
-1991.571313507368
 42
0.4142135623731
 10
3521.251129440781
 20
-1993.071313507368
 42
0.4142135623731
  0
LINE
  5
2C4
330
1F
100
AcDbEntity
  8
0-E
  6
Continuous
 62
   120
370
     5
100
AcDbLine
 10
3041.251129440788
 20
-1991.571313507368
 30
0.0
 11
3041.251129440788
 21
-2236.897910415785
 31
0.0
  0
LINE
  5
2C5
330
1F
100
AcDbEntity
  8
0-E
  6
Continuous
 62
   120
370
     5
100
AcDbLine
 10
3521.251129440781
 20
-1991.571313507368
 30
0.0
 11
3521.251129440781
 21
-2236.897910415785
 31
0.0
  0
MTEXT
  5
2C6
330
1F
100
AcDbEntity
  8
0-E
  6
Continuous
 62
     7
370
   211
100
AcDbMText
 10
1112.603823118387
 20
-968.6981252843791
 30
0.0
 40
91.43999999999967
 41
119.9999999999996
 46
0.0
 71
     7
 72
     1
  1
{\fＭＳ ゴシック|b0|i0|c128|p49;77}
 73
     1
 44
1.0
  0
LWPOLYLINE
  5
2C7
330
1F
100
AcDbEntity
  8
0-E
  6
Continuous
 62
     7
370
     9
100
AcDbPolyline
 90
        4
 70
     1
 43
3.0
 10
2824.899403701859
 20
-2291.213717430589
 42
0.4142135623731
 10
2823.399403701859
 20
-2289.713717430589
 42
0.4142135623731
 10
2821.899403701859
 20
-2291.213717430589
 42
0.4142135623731
 10
2823.399403701859
 20
-2292.713717430589
 42
0.4142135623731
  0
LWPOLYLINE
  5
2C8
330
1F
100
AcDbEntity
  8
0-E
  6
Continuous
 62
     7
370
     9
100
AcDbPolyline
 90
        4
 70
     1
 43
3.0
 10
2824.899403701859
 20
-2309.213717430591
 42
0.4142135623731
 10
2823.399403701859
 20
-2307.713717430591
 42
0.4142135623731
 10
2821.899403701859
 20
-2309.213717430591
 42
0.4142135623731
 10
2823.399403701859
 20
-2310.713717430591
 42
0.4142135623731
  0
LINE
  5
2C9
330
1F
100
AcDbEntity
  8
0-E
  6
Continuous
 62
   120
370
     5
100
AcDbLine
 10
2823.399403701859
 20
-2291.213717430589
 30
0.0
 11
2954.240255386349
 21
-2291.213717430589
 31
0.0
  0
LINE
  5
2CA
330
1F
100
AcDbEntity
  8
0-E
  6
Continuous
 62
   120
370
     5
100
AcDbLine
 10
2823.399403701859
 20
-2309.213717430591
 30
0.0
 11
2954.240255386349
 21
-2309.213717430591
 31
0.0
  0
LINE
  5
2CB
330
1F
100
AcDbEntity
  8
0-E
  6
Continuous
 62
   120
370
     5
100
AcDbLine
 10
2823.399403701859
 20
-2309.213717430591
 30
0.0
 11
2823.399403701859
 21
-2414.213717430591
 31
0.0
  0
LWPOLYLINE
  5
2CC
330
1F
100
AcDbEntity
  8
0-E
  6
Continuous
 62
     7
370
     9
100
AcDbPolyline
 90
        4
 70
     1
 43
3.0
 10
2824.899403701859
 20
-2414.213717430591
 42
0.4142135623731
 10
2823.399403701859
 20
-2412.713717430591
 42
0.4142135623731
 10
2821.899403701859
 20
-2414.213717430591
 42
0.4142135623731
 10
2823.399403701859
 20
-2415.713717430591
 42
0.4142135623731
  0
LINE
  5
2CD
330
1F
100
AcDbEntity
  8
0-E
  6
Continuous
 62
   120
370
     5
100
AcDbLine
 10
2823.399403701859
 20
-2414.213717430591
 30
0.0
 11
2954.240255386349
 21
-2414.213717430591
 31
0.0
  0
MTEXT
  5
2CE
330
1F
100
AcDbEntity
  8
0-E
  6
Continuous
 62
     7
370
   211
100
AcDbMText
 10
2828.251129440798
 20
-977.5127083234343
 30
0.0
 40
68.57999999999984
 41
179.9999999999996
 46
0.0
 71
     7
 72
     1
  1
{\fＭＳ ゴシック|b0|i0|c128|p49;28.6}
 73
     1
 44
1.0
  0
LINE
  5
2CF
330
1F
100
AcDbEntity
  8
0-E
  6
Continuous
 62
   120
370
     5
100
AcDbLine
 10
3135.751129440787
 20
-2625.11006624104
 30
0.0
 11
3426.751129440781
 21
-2625.11006624104
 31
0.0
  0
LWPOLYLINE
  5
2D0
330
1F
100
AcDbEntity
  8
0-E
  6
Continuous
 62
     7
370
     9
100
AcDbPolyline
 90
        4
 70
     1
 43
3.0
 10
3137.251129440787
 20
-2625.11006624104
 42
0.4142135623731
 10
3135.751129440787
 20
-2623.61006624104
 42
0.4142135623731
 10
3134.251129440787
 20
-2625.11006624104
 42
0.4142135623731
 10
3135.751129440787
 20
-2626.61006624104
 42
0.4142135623731
  0
LWPOLYLINE
  5
2D1
330
1F
100
AcDbEntity
  8
0-E
  6
Continuous
 62
     7
370
     9
100
AcDbPolyline
 90
        4
 70
     1
 43
3.0
 10
3428.251129440781
 20
-2625.11006624104
 42
0.4142135623731
 10
3426.751129440781
 20
-2623.61006624104
 42
0.4142135623731
 10
3425.251129440781
 20
-2625.11006624104
 42
0.4142135623731
 10
3426.751129440781
 20
-2626.61006624104
 42
0.4142135623731
  0
LINE
  5
2D2
330
1F
100
AcDbEntity
  8
0-E
  6
Continuous
 62
   120
370
     5
100
AcDbLine
 10
3135.751129440787
 20
-2625.11006624104
 30
0.0
 11
3135.751129440787
 21
-2497.493984172891
 31
0.0
  0
LINE
  5
2D3
330
1F
100
AcDbEntity
  8
0-E
  6
Continuous
 62
   120
370
     5
100
AcDbLine
 10
3426.751129440781
 20
-2625.11006624104
 30
0.0
 11
3426.751129440781
 21
-2497.493984172891
 31
0.0
  0
MTEXT
  5
2D4
330
1F
100
AcDbEntity
  8
0-E
  6
Continuous
 62
     7
370
   211
100
AcDbMText
 10
3191.251129440784
 20
-977.5127083234341
 30
0.0
 40
68.58
 41
180.0
 46
0.0
 71
     7
 72
     1
  1
{\fＭＳ ゴシック|b0|i0|c128|p49;19.8}
 73
     1
 44
1.0
  0
MTEXT
  5
2D5
330
1F
100
AcDbEntity
  8
0-E
  6
Continuous
 62
     7
370
   211
100
AcDbMText
 10
3554.251129440771
 20
-977.5127083234341
 30
0.0
 40
68.58
 41
180.0
 46
0.0
 71
     7
 72
     1
  1
{\fＭＳ ゴシック|b0|i0|c128|p49;28.6}
 73
     1
 44
1.0
  0
LINE
  5
2D6
330
1F
100
AcDbEntity
  8
0-E
  6
Continuous
 62
   120
370
     5
100
AcDbLine
 10
2823.399403701859
 20
-2124.725872806282
 30
0.0
 11
2823.399403701859
 21
-2309.213717430591
 31
0.0
  0
LINE
  5
2D7
330
1F
100
AcDbEntity
  8
0-E
  6
JWW_HOJO
 62
   120
370
     5
100
AcDbLine
 10
3281.251129440784
 20
-1388.228489458579
 30
0.0
 11
3281.251129440784
 21
-1350.855724353694
 31
0.0
  0
LINE
  5
2D8
330
1F
100
AcDbEntity
  8
0-E
  6
Continuous
 62
    92
370
    13
100
AcDbLine
 10
3858.75112944077
 20
-1278.855823329623
 30
0.0
 11
3858.75112944077
 21
-1473.855724353693
 31
0.0
  0
ARC
  5
2D9
330
1F
100
AcDbEntity
  8
0-E
  6
Continuous
 62
    92
370
    13
100
AcDbCircle
 10
3828.751030464866
 20
-1278.855823329623
 30
0.0
 40
30.00000038662473
100
AcDbArc
 50
0.0
 51
90.0
  0
LINE
  5
2DA
330
1F
100
AcDbEntity
  8
0-E
  6
Continuous
 62
    92
370
    13
100
AcDbLine
 10
2703.751129440798
 20
-1278.855823329623
 30
0.0
 11
2703.751129440798
 21
-1473.855724353693
 31
0.0
  0
ARC
  5
2DB
330
1F
100
AcDbEntity
  8
0-E
  6
Continuous
 62
    92
370
    13
100
AcDbCircle
 10
2733.751228416702
 20
-1278.855823329623
 30
0.0
 40
30.00000038662473
100
AcDbArc
 50
90.0
 51
180.0
  0
LINE
  5
2DC
330
1F
100
AcDbEntity
  8
0-E
  6
Continuous
 62
    92
370
    13
100
AcDbLine
 10
2703.751129440798
 20
-1473.855724353693
 30
0.0
 11
3858.75112944077
 21
-1473.855724353693
 31
0.0
  0
LINE
  5
2DD
330
1F
100
AcDbEntity
  8
0-E
  6
Continuous
 62
   120
370
     5
100
AcDbLine
 10
2816.587825257318
 20
-1473.855724353693
 30
0.0
 11
3041.588289206436
 21
-1248.855724353693
 31
0.0
  0
LINE
  5
2DE
330
1F
100
AcDbEntity
  8
0-E
  6
Continuous
 62
   120
370
     5
100
AcDbLine
 10
2710.521508085662
 20
-1473.855724353693
 30
0.0
 11
2935.521972034746
 21
-1248.855724353693
 31
0.0
  0
LINE
  5
2DF
330
1F
100
AcDbEntity
  8
0-E
  6
Continuous
 62
   120
370
     5
100
AcDbLine
 10
2703.751129440798
 20
-1374.560263884683
 30
0.0
 11
2829.455668971775
 21
-1248.855724353693
 31
0.0
  0
LINE
  5
2E0
330
1F
100
AcDbEntity
  8
0-E
  6
Continuous
 62
   120
370
     5
100
AcDbLine
 10
3346.91941111563
 20
-1473.855724353693
 30
0.0
 11
3571.919875064748
 21
-1248.855724353693
 31
0.0
  0
LINE
  5
2E1
330
1F
100
AcDbEntity
  8
0-E
  6
Continuous
 62
   120
370
     5
100
AcDbLine
 10
3452.985728287319
 20
-1473.855724353693
 30
0.0
 11
3677.986192236403
 21
-1248.855724353693
 31
0.0
  0
LINE
  5
2E2
330
1F
100
AcDbEntity
  8
0-E
  6
Continuous
 62
   120
370
     5
100
AcDbLine
 10
3559.052045458975
 20
-1473.855724353693
 30
0.0
 11
3784.052509408059
 21
-1248.855724353693
 31
0.0
  0
LINE
  5
2E3
330
1F
100
AcDbEntity
  8
0-E
  6
Continuous
 62
   120
370
     5
100
AcDbLine
 10
3771.184575938037
 20
-1473.855724353693
 30
0.0
 11
3858.751129440805
 21
-1386.29068068853
 31
0.0
  0
LINE
  5
2E4
330
1F
100
AcDbEntity
  8
0-E
  6
Continuous
 62
   120
370
     5
100
AcDbLine
 10
3028.720500161455
 20
-1473.855724353693
 30
0.0
 11
3148.720036212262
 21
-1353.855724353691
 31
0.0
  0
LINE
  5
2E5
330
1F
100
AcDbEntity
  8
0-E
  6
Continuous
 62
   120
370
     5
100
AcDbLine
 10
3240.853134504766
 20
-1473.855724353693
 30
0.0
 11
3360.852670555573
 21
-1353.855724353691
 31
0.0
  0
LINE
  5
2E6
330
1F
100
AcDbEntity
  8
0-E
  6
Continuous
 62
   120
370
     5
100
AcDbLine
 10
3134.786817333145
 20
-1473.855724353693
 30
0.0
 11
3254.786353383918
 21
-1353.855724353691
 31
0.0
  0
LINE
  5
2E7
330
1F
100
AcDbEntity
  8
0-E
  6
Continuous
 62
   120
370
     5
100
AcDbLine
 10
3665.118325756021
 20
-1473.855724353693
 30
0.0
 11
3858.75112944077
 21
-1280.224363507666
 31
0.0
  0
INSERT
  5
2E8
330
1F
100
AcDbEntity
  8
0-E
  6
Continuous
 62
     7
370
     9
100
AcDbBlockReference
  2
01@@SfigorgFlag@@4
 10
3281.251129440784
 20
-1291.124955122923
 30
0.0
 41
30.0
 42
30.0
  0
LWPOLYLINE
  5
2E9
330
1F
100
AcDbEntity
  8
0-E
  6
Continuous
 62
     7
370
     9
100
AcDbPolyline
 90
        4
 70
     1
 43
3.0
 10
2705.251129440798
 20
-981.8027083234349
 42
0.4142135623731
 10
2703.751129440798
 20
-980.302708323435
 42
0.4142135623731
 10
2702.251129440798
 20
-981.8027083234349
 42
0.4142135623731
 10
2703.751129440798
 20
-983.3027083234349
 42
0.4142135623731
  0
LINE
  5
2EA
330
1F
100
AcDbEntity
  8
0-E
  6
Continuous
 62
   120
370
     5
100
AcDbLine
 10
2703.751129440798
 20
-981.8027083234349
 30
0.0
 11
2703.751129440798
 21
-1126.103365701365
 31
0.0
  0
LINE
  5
2EB
330
1F
100
AcDbEntity
  8
0-E
  6
Continuous
 62
   120
370
     5
100
AcDbLine
 10
2703.751129440798
 20
-798.582978120254
 30
0.0
 11
3858.75112944077
 21
-798.582978120254
 31
0.0
  0
LWPOLYLINE
  5
2EC
330
1F
100
AcDbEntity
  8
0-E
  6
Continuous
 62
     7
370
     9
100
AcDbPolyline
 90
        4
 70
     1
 43
3.0
 10
2705.251129440798
 20
-798.582978120254
 42
0.4142135623731
 10
2703.751129440798
 20
-797.082978120254
 42
0.4142135623731
 10
2702.251129440798
 20
-798.582978120254
 42
0.4142135623731
 10
2703.751129440798
 20
-800.082978120254
 42
0.4142135623731
  0
LWPOLYLINE
  5
2ED
330
1F
100
AcDbEntity
  8
0-E
  6
Continuous
 62
     7
370
     9
100
AcDbPolyline
 90
        4
 70
     1
 43
3.0
 10
3860.251129440771
 20
-798.582978120254
 42
0.4142135623731
 10
3858.75112944077
 20
-797.082978120254
 42
0.4142135623731
 10
3857.25112944077
 20
-798.582978120254
 42
0.4142135623731
 10
3858.75112944077
 20
-800.082978120254
 42
0.4142135623731
  0
LINE
  5
2EE
330
1F
100
AcDbEntity
  8
0-E
  6
Continuous
 62
   120
370
     5
100
AcDbLine
 10
2703.751129440798
 20
-798.582978120254
 30
0.0
 11
2703.751129440798
 21
-981.8027083234349
 31
0.0
  0
LINE
  5
2EF
330
1F
100
AcDbEntity
  8
0-E
  6
Continuous
 62
   120
370
     5
100
AcDbLine
 10
3858.75112944077
 20
-798.582978120254
 30
0.0
 11
3858.75112944077
 21
-981.8027083234349
 31
0.0
  0
MTEXT
  5
2F0
330
1F
100
AcDbEntity
  8
0-E
  6
Continuous
 62
     7
370
   211
100
AcDbMText
 10
2478.1855557007
 20
-1334.565724353693
 30
0.0
 40
68.57999999999609
 41
44.99999999999744
 46
0.0
 71
     7
 72
     1
  1
{\fＭＳ ゴシック|b0|i0|c128|p49;7}
 11
6.123031769111886E-17
 21
1.0
 31
0.0
 73
     1
 44
1.0
  0
LINE
  5
2F1
330
1F
100
AcDbEntity
  8
0-E
  6
Continuous
 62
   120
370
     5
100
AcDbLine
 10
2363.730993086476
 20
-1248.855724353693
 30
0.0
 11
2363.730993086476
 21
-1473.855724353693
 31
0.0
  0
LWPOLYLINE
  5
2F2
330
1F
100
AcDbEntity
  8
0-E
  6
Continuous
 62
     7
370
     9
100
AcDbPolyline
 90
        4
 70
     1
 43
3.0
 10
2365.230993086476
 20
-1248.855724353693
 42
0.4142135623731
 10
2363.730993086476
 20
-1247.355724353693
 42
0.4142135623731
 10
2362.230993086476
 20
-1248.855724353693
 42
0.4142135623731
 10
2363.730993086476
 20
-1250.355724353693
 42
0.4142135623731
  0
LWPOLYLINE
  5
2F3
330
1F
100
AcDbEntity
  8
0-E
  6
Continuous
 62
     7
370
     9
100
AcDbPolyline
 90
        4
 70
     1
 43
3.0
 10
2365.230993086476
 20
-1473.855724353693
 42
0.4142135623731
 10
2363.730993086476
 20
-1472.355724353693
 42
0.4142135623731
 10
2362.230993086476
 20
-1473.855724353693
 42
0.4142135623731
 10
2363.730993086476
 20
-1475.355724353693
 42
0.4142135623731
  0
LINE
  5
2F4
330
1F
100
AcDbEntity
  8
0-E
  6
Continuous
 62
   120
370
     5
100
AcDbLine
 10
2363.730993086476
 20
-1248.855724353693
 30
0.0
 11
2493.1855557007
 21
-1248.855724353693
 31
0.0
  0
MTEXT
  5
2F5
330
1F
100
AcDbEntity
  8
0-E
  6
Continuous
 62
     7
370
   211
100
AcDbMText
 10
2348.730993086477
 20
-1417.065724353694
 30
0.0
 40
68.57999999999934
 41
89.99999999999915
 46
0.0
 71
     7
 72
     1
  1
{\fＭＳ ゴシック|b0|i0|c128|p49;15}
 11
6.123031769111886E-17
 21
1.0
 31
0.0
 73
     1
 44
1.0
  0
LINE
  5
2F6
330
1F
100
AcDbEntity
  8
0-E
  6
Continuous
 62
   120
370
     5
100
AcDbLine
 10
2493.1855557007
 20
-1248.855724353693
 30
0.0
 11
2493.1855557007
 21
-1353.855724353691
 31
0.0
  0
LWPOLYLINE
  5
2F7
330
1F
100
AcDbEntity
  8
0-E
  6
Continuous
 62
     7
370
     9
100
AcDbPolyline
 90
        4
 70
     1
 43
3.0
 10
2494.6855557007
 20
-1248.855724353693
 42
0.4142135623731
 10
2493.1855557007
 20
-1247.355724353693
 42
0.4142135623731
 10
2491.6855557007
 20
-1248.855724353693
 42
0.4142135623731
 10
2493.1855557007
 20
-1250.355724353693
 42
0.4142135623731
  0
LWPOLYLINE
  5
2F8
330
1F
100
AcDbEntity
  8
0-E
  6
Continuous
 62
     7
370
     9
100
AcDbPolyline
 90
        4
 70
     1
 43
3.0
 10
2494.6855557007
 20
-1353.855724353691
 42
0.4142135623731
 10
2493.1855557007
 20
-1352.355724353691
 42
0.4142135623731
 10
2491.6855557007
 20
-1353.855724353691
 42
0.4142135623731
 10
2493.1855557007
 20
-1355.355724353691
 42
0.4142135623731
  0
LINE
  5
2F9
330
1F
100
AcDbEntity
  8
0-E
  6
Continuous
 62
   120
370
     5
100
AcDbLine
 10
2493.1855557007
 20
-1248.855724353693
 30
0.0
 11
2632.364214509234
 21
-1248.855724353693
 31
0.0
  0
LINE
  5
2FA
330
1F
100
AcDbEntity
  8
0-E
  6
Continuous
 62
   120
370
     5
100
AcDbLine
 10
2493.1855557007
 20
-1353.855724353691
 30
0.0
 11
2632.364214509234
 21
-1353.855724353691
 31
0.0
  0
MTEXT
  5
2FB
330
1F
100
AcDbEntity
  8
0-E
  6
Continuous
 62
     7
370
   211
100
AcDbMText
 10
3236.251129440784
 20
-1987.281313507367
 30
0.0
 40
68.58
 41
90.0
 46
0.0
 71
     7
 72
     1
  1
{\fＭＳ ゴシック|b0|i0|c128|p49;32}
 73
     1
 44
1.0
  0
LINE
  5
2FC
330
1F
100
AcDbEntity
  8
0-E
  6
Continuous
 62
   120
370
     5
100
AcDbLine
 10
2363.730993086476
 20
-1473.855724353693
 30
0.0
 11
2632.364214509234
 21
-1473.855724353693
 31
0.0
  0
LINE
  5
2FD
330
1F
100
AcDbEntity
  8
0-E
  6
Continuous
 62
    92
370
    13
100
AcDbLine
 10
2733.751228416702
 20
-1248.855724353693
 30
0.0
 11
3132.751129440797
 21
-1248.855724353693
 31
0.0
  0
LINE
  5
2FE
330
1F
100
AcDbEntity
  8
0-E
  6
Continuous
 62
    92
370
    13
100
AcDbLine
 10
3132.751129440797
 20
-1248.855724353693
 30
0.0
 11
3132.751129440797
 21
-1353.855724353691
 31
0.0
  0
LINE
  5
2FF
330
1F
100
AcDbEntity
  8
0-E
  6
Continuous
 62
    92
370
    13
100
AcDbLine
 10
3429.751129440771
 20
-1353.855724353691
 30
0.0
 11
3132.751129440797
 21
-1353.855724353691
 31
0.0
  0
LINE
  5
300
330
1F
100
AcDbEntity
  8
0-E
  6
Continuous
 62
    92
370
    13
100
AcDbLine
 10
3429.751129440771
 20
-1248.855724353693
 30
0.0
 11
3429.751129440771
 21
-1353.855724353691
 31
0.0
  0
LINE
  5
301
330
1F
100
AcDbEntity
  8
0-E
  6
Continuous
 62
    92
370
    13
100
AcDbLine
 10
3429.751129440771
 20
-1248.855724353693
 30
0.0
 11
3828.751030464866
 21
-1248.855724353693
 31
0.0
  0
LINE
  5
302
330
1F
100
AcDbEntity
  8
0-E
  6
Continuous
 62
   120
370
     5
100
AcDbLine
 10
2922.654109336042
 20
-1473.855724353693
 30
0.0
 11
3132.751129440797
 21
-1263.760153647032
 31
0.0
  0
LINE
  5
303
330
1F
100
AcDbEntity
  8
0-E
  6
Continuous
 62
   120
370
     5
100
AcDbLine
 10
3429.751129440771
 20
-1281.927922938344
 30
0.0
 11
3462.824068442239
 21
-1248.855724353693
 31
0.0
  0
LINE
  5
304
330
1F
100
AcDbEntity
  8
0-E
  6
Continuous
 62
   120
370
     5
100
AcDbLine
 10
2703.751129440798
 20
-981.8027083234349
 30
0.0
 11
3132.751129440797
 21
-981.8027083234349
 31
0.0
  0
LWPOLYLINE
  5
305
330
1F
100
AcDbEntity
  8
0-E
  6
Continuous
 62
     7
370
     9
100
AcDbPolyline
 90
        4
 70
     1
 43
3.0
 10
3134.251129440797
 20
-981.8027083234349
 42
0.4142135623731
 10
3132.751129440797
 20
-980.302708323435
 42
0.4142135623731
 10
3131.251129440797
 20
-981.8027083234349
 42
0.4142135623731
 10
3132.751129440797
 20
-983.3027083234349
 42
0.4142135623731
  0
LINE
  5
306
330
1F
100
AcDbEntity
  8
0-E
  6
Continuous
 62
   120
370
     5
100
AcDbLine
 10
3132.751129440797
 20
-981.8027083234349
 30
0.0
 11
3132.751129440797
 21
-1126.103365701365
 31
0.0
  0
MTEXT
  5
307
330
1F
100
AcDbEntity
  8
0-E
  6
Continuous
 62
     7
370
   211
100
AcDbMText
 10
3236.251129440784
 20
-2146.743601497838
 30
0.0
 40
68.58
 41
90.0
 46
0.0
 71
     7
 72
     1
  1
{\fＭＳ ゴシック|b0|i0|c128|p49;11}
 73
     1
 44
1.0
  0
LINE
  5
308
330
1F
100
AcDbEntity
  8
0-E
  6
Continuous
 62
   120
370
     5
100
AcDbLine
 10
3132.751129440797
 20
-981.8027083234349
 30
0.0
 11
3429.751129440771
 21
-981.8027083234349
 31
0.0
  0
LWPOLYLINE
  5
309
330
1F
100
AcDbEntity
  8
0-E
  6
Continuous
 62
     7
370
     9
100
AcDbPolyline
 90
        4
 70
     1
 43
3.0
 10
3431.251129440771
 20
-981.8027083234349
 42
0.4142135623731
 10
3429.751129440771
 20
-980.302708323435
 42
0.4142135623731
 10
3428.251129440771
 20
-981.8027083234349
 42
0.4142135623731
 10
3429.751129440771
 20
-983.3027083234349
 42
0.4142135623731
  0
LINE
  5
30A
330
1F
100
AcDbEntity
  8
0-E
  6
Continuous
 62
   120
370
     5
100
AcDbLine
 10
3429.751129440771
 20
-981.8027083234349
 30
0.0
 11
3429.751129440771
 21
-1126.103365701365
 31
0.0
  0
MTEXT
  5
30B
330
1F
100
AcDbEntity
  8
0-E
  6
Continuous
 62
     7
370
   211
100
AcDbMText
 10
2808.399403701859
 20
-2282.900408368271
 30
0.0
 40
68.58000000000044
 41
135.0000000000009
 46
0.0
 71
     7
 72
     1
  1
{\fＭＳ ゴシック|b0|i0|c128|p49;1.2}
 11
6.123031769111886E-17
 21
1.0
 31
0.0
 73
     1
 44
1.0
  0
LINE
  5
30C
330
1F
100
AcDbEntity
  8
0-E
  6
Continuous
 62
   120
370
     5
100
AcDbLine
 10
3429.751129440771
 20
-981.8027083234349
 30
0.0
 11
3858.75112944077
 21
-981.8027083234349
 31
0.0
  0
LWPOLYLINE
  5
30D
330
1F
100
AcDbEntity
  8
0-E
  6
Continuous
 62
     7
370
     9
100
AcDbPolyline
 90
        4
 70
     1
 43
3.0
 10
3860.251129440771
 20
-981.8027083234349
 42
0.4142135623731
 10
3858.75112944077
 20
-980.302708323435
 42
0.4142135623731
 10
3857.25112944077
 20
-981.8027083234349
 42
0.4142135623731
 10
3858.75112944077
 20
-983.3027083234349
 42
0.4142135623731
  0
LINE
  5
30E
330
1F
100
AcDbEntity
  8
0-E
  6
Continuous
 62
   120
370
     5
100
AcDbLine
 10
3858.75112944077
 20
-981.8027083234349
 30
0.0
 11
3858.75112944077
 21
-1126.103365701365
 31
0.0
  0
MTEXT
  5
30F
330
1F
100
AcDbEntity
  8
0-E
  6
Continuous
 62
     7
370
   211
100
AcDbMText
 10
2808.399403701859
 20
-2394.92371743059
 30
0.0
 40
68.58000000000258
 41
45.00000000000171
 46
0.0
 71
     7
 72
     1
  1
{\fＭＳ ゴシック|b0|i0|c128|p49;7}
 11
6.123031769111886E-17
 21
1.0
 31
0.0
 73
     1
 44
1.0
  0
LWPOLYLINE
  5
310
330
1F
100
AcDbEntity
  8
0-E
  6
Continuous
 62
     7
370
     9
100
AcDbPolyline
 90
        4
 70
     1
 43
3.0
 10
2668.456433457864
 20
-2414.213717430591
 42
0.4142135623731
 10
2666.956433457864
 20
-2412.713717430591
 42
0.4142135623731
 10
2665.456433457864
 20
-2414.213717430591
 42
0.4142135623731
 10
2666.956433457864
 20
-2415.713717430591
 42
0.4142135623731
  0
LINE
  5
311
330
1F
100
AcDbEntity
  8
0-E
  6
Continuous
 62
   120
370
     5
100
AcDbLine
 10
2666.956433457864
 20
-2414.213717430591
 30
0.0
 11
2666.956433457864
 21
-2291.213717430589
 31
0.0
  0
LWPOLYLINE
  5
312
330
1F
100
AcDbEntity
  8
0-E
  6
Continuous
 62
     7
370
     9
100
AcDbPolyline
 90
        4
 70
     1
 43
3.0
 10
2668.456433457864
 20
-2291.213717430589
 42
0.4142135623731
 10
2666.956433457864
 20
-2289.713717430589
 42
0.4142135623731
 10
2665.456433457864
 20
-2291.213717430589
 42
0.4142135623731
 10
2666.956433457864
 20
-2292.713717430589
 42
0.4142135623731
  0
MTEXT
  5
313
330
1F
100
AcDbEntity
  8
0-E
  6
Continuous
 62
     7
370
   211
100
AcDbMText
 10
2651.956433457864
 20
-2430.923717430592
 30
0.0
 40
68.58000000000044
 41
135.0000000000009
 46
0.0
 71
     7
 72
     1
  1
{\fＭＳ ゴシック|b0|i0|c128|p49;8.2}
 11
6.123031769111886E-17
 21
1.0
 31
0.0
 73
     1
 44
1.0
  0
LINE
  5
314
330
1F
100
AcDbEntity
  8
0-E
  6
Continuous
 62
   120
370
     5
100
AcDbLine
 10
2666.956433457864
 20
-2414.213717430591
 30
0.0
 11
2823.399403701859
 21
-2414.213717430591
 31
0.0
  0
LINE
  5
315
330
1F
100
AcDbEntity
  8
0-E
  6
Continuous
 62
   120
370
     5
100
AcDbLine
 10
2666.956433457864
 20
-2291.213717430589
 30
0.0
 11
2823.399403701859
 21
-2291.213717430589
 31
0.0
  0
LWPOLYLINE
  5
316
330
1F
100
AcDbEntity
  8
0-E
  6
Continuous
 62
     7
370
     9
100
AcDbPolyline
 90
        4
 70
     1
 43
3.0
 10
1549.719821935833
 20
-969.4181252843795
 42
0.4142135623731
 10
1548.219821935833
 20
-967.9181252843796
 42
0.4142135623731
 10
1546.719821935833
 20
-969.4181252843795
 42
0.4142135623731
 10
1548.219821935833
 20
-970.9181252843794
 42
0.4142135623731
  0
LINE
  5
317
330
1F
100
AcDbEntity
  8
0-E
  6
Continuous
 62
   120
370
     5
100
AcDbLine
 10
778.2198219358315
 20
-969.4181252843795
 30
0.0
 11
1548.219821935833
 21
-969.4181252843795
 31
0.0
  0
LINE
  5
318
330
1F
100
AcDbEntity
  8
0-E
  6
Continuous
 62
   120
370
     5
100
AcDbLine
 10
1548.219821935833
 20
-969.4181252843795
 30
0.0
 11
1548.219821935833
 21
-1112.96017508438
 31
0.0
  0
LINE
  5
319
330
1F
100
AcDbEntity
  8
0-E
  6
Continuous
 62
    92
370
    13
100
AcDbLine
 10
1548.219821935833
 20
-1162.960175084379
 30
0.0
 11
1548.219821935833
 21
-2038.251380633206
 31
0.0
  0
LINE
  5
31A
330
1F
100
AcDbEntity
  8
0-E
  6
Continuous
 62
    92
370
    13
100
AcDbLine
 10
778.2198219358315
 20
-2038.251380633206
 30
0.0
 11
1548.219821935833
 21
-2038.251380633206
 31
0.0
  0
MTEXT
  5
31B
330
1F
100
AcDbEntity
  8
0-E
  6
Continuous
 62
     7
370
   211
100
AcDbMText
 10
3191.251129440784
 20
-2620.820066241039
 30
0.0
 40
68.58
 41
180.0
 46
0.0
 71
     7
 72
     1
  1
{\fＭＳ ゴシック|b0|i0|c128|p49;19.4}
 73
     1
 44
1.0
  0
LINE
  5
31C
330
1F
100
AcDbEntity
  8
0-E
  6
JWW_HOJO
 62
   120
370
     5
100
AcDbLine
 10
743.2194755200726
 20
-1162.960175084379
 30
0.0
 11
1603.383155052589
 21
-1162.960175084379
 31
0.0
  0
LINE
  5
31D
330
1F
100
AcDbEntity
  8
0-E
  6
JWW_HOJO
 62
   120
370
     5
100
AcDbLine
 10
743.2194755200726
 20
-1112.96017508438
 30
0.0
 11
1603.383155052589
 21
-1112.96017508438
 31
0.0
  0
LINE
  5
31E
330
1F
100
AcDbEntity
  8
0-E
  6
JWW_CENTER1
 62
     7
370
     9
100
AcDbLine
 10
863.2198219358305
 20
-1886.82595789271
 30
0.0
 11
863.2198219358305
 21
-2038.251380633206
 31
0.0
  0
LINE
  5
31F
330
1F
100
AcDbEntity
  8
0-E
  6
JWW_CENTER1
 62
     7
370
     9
100
AcDbLine
 10
1463.220184847577
 20
-1886.82595789271
 30
0.0
 11
1463.220184847577
 21
-2038.251380633206
 31
0.0
  0
LINE
  5
320
330
1F
100
AcDbEntity
  8
0-E
  6
JWW_CENTER1
 62
     7
370
     9
100
AcDbLine
 10
789.3944991812976
 20
-1963.251380633206
 30
0.0
 11
930.5143168229029
 21
-1963.251380633206
 31
0.0
  0
LINE
  5
321
330
1F
100
AcDbEntity
  8
0-E
  6
JWW_CENTER1
 62
     7
370
     9
100
AcDbLine
 10
1399.27753716284
 20
-1963.251380633206
 30
0.0
 11
1545.305870200674
 21
-1963.251380633206
 31
0.0
  0
CIRCLE
  5
322
330
1F
100
AcDbEntity
  8
0-E
  6
Continuous
 62
     7
370
     9
100
AcDbCircle
 10
863.2198219358305
 20
-1963.251380633206
 30
0.0
 40
19.0
  0
CIRCLE
  5
323
330
1F
100
AcDbEntity
  8
0-E
  6
Continuous
 62
     7
370
     9
100
AcDbCircle
 10
1463.220184847577
 20
-1963.251380633206
 30
0.0
 40
19.0
  0
LINE
  5
324
330
1F
100
AcDbEntity
  8
0-4_枠
  6
Continuous
 62
    92
370
    13
100
AcDbLine
 10
-2031.481089577758
 20
-297.9999259742593
 30
0.0
 11
-2031.481089577758
 21
-1798.000044745374
 31
0.0
  0
LINE
  5
325
330
1F
100
AcDbEntity
  8
0-4_枠
  6
Continuous
 62
    92
370
    13
100
AcDbLine
 10
-2031.481089577758
 20
-1918.000044745374
 30
0.0
 11
-2031.481089577758
 21
-3226.000334249966
 31
0.0
  0
LINE
  5
326
330
1F
100
AcDbEntity
  8
0-4_枠
  6
Continuous
 62
    92
370
    13
100
AcDbLine
 10
-1569.481089577741
 20
-3225.999963090234
 30
0.0
 11
-1569.481089577741
 21
-1918.000044745374
 31
0.0
  0
LINE
  5
327
330
1F
100
AcDbEntity
  8
0-4_枠
  6
Continuous
 62
    92
370
    13
100
AcDbLine
 10
-1569.481089577741
 20
-1798.000044745374
 30
0.0
 11
-1569.481089577741
 21
-453.9999259742585
 31
0.0
  0
MTEXT
  5
328
330
1F
100
AcDbEntity
  8
0-B_寸法
  6
Continuous
 62
     7
370
   211
100
AcDbMText
 10
-1187.670872622502
 20
2287.665146596494
 30
0.0
 40
91.44
 41
120.0
 46
0.0
 71
     7
 72
     1
  1
{\fＭＳ ゴシック|b0|i0|c128|p49;20}
 11
6.123031769111886E-17
 21
1.0
 31
0.0
 73
     1
 44
1.0
  0
MTEXT
  5
329
330
1F
100
AcDbEntity
  8
0-B_寸法
  6
Continuous
 62
     7
370
     0
100
AcDbMText
 10
-1864.231644151743
 20
-1160.270255201396
 30
0.0
 40
91.44000000000132
 41
120.0000000000017
 46
0.0
 71
     7
 72
     1
  1
{\fＭＳ ゴシック|b0|i0|c128|p49;20}
 11
0.9999999999914964
 21
4.124000465782628E-6
 31
0.0
 73
     1
 44
1.0
  0
MTEXT
  5
32A
330
1F
100
AcDbEntity
  8
F-A_文字
  6
Continuous
 62
     7
370
     0
100
AcDbMText
 10
4938.667793092893
 20
-3938.071010139966
 30
0.0
 40
78.86699999999999
 41
517.5
 46
0.0
 71
     7
 72
     1
  1
{\fＭＳ ゴシック|b0|i0|c128|p49;2024.04.01}
 73
     1
 44
1.0
  0
LINE
  5
32B
330
1F
100
AcDbEntity
  8
0-0_補助線
  6
Continuous
 62
   120
370
     5
100
AcDbLine
 10
-1983.481287529598
 20
2324.359196304034
 30
0.0
 11
-1983.481287529598
 21
2402.688459527218
 31
0.0
  0
LINE
  5
32C
330
1F
100
AcDbEntity
  8
0-0_補助線
  6
Continuous
 62
   120
370
     5
100
AcDbLine
 10
-1998.481287529598
 20
2324.359196304034
 30
0.0
 11
-1998.481287529598
 21
2402.688459527218
 31
0.0
  0
LWPOLYLINE
  5
32D
330
1F
100
AcDbEntity
  8
0-B_寸法
  6
Continuous
 62
     7
370
     9
100
AcDbPolyline
 90
        4
 70
     1
 43
3.0
 10
-1171.170872622503
 20
2421.945146596495
 42
0.4142135623731
 10
-1172.670872622503
 20
2423.445146596495
 42
0.4142135623731
 10
-1174.170872622503
 20
2421.945146596495
 42
0.4142135623731
 10
-1172.670872622503
 20
2420.445146596495
 42
0.4142135623731
  0
LINE
  5
32E
330
1F
100
AcDbEntity
  8
0-0_補助線
  6
JWW_HOJO
 62
     7
370
     9
100
AcDbLine
 10
-1529.731287529597
 20
2439.945146596494
 30
0.0
 11
-1529.731287529597
 21
2280.944503252957
 31
0.0
  0
LINE
  5
32F
330
1F
100
AcDbEntity
  8
0-0_補助線
  6
JWW_HOJO
 62
     7
370
     9
100
AcDbLine
 10
-1469.731287529597
 20
2439.945146596494
 30
0.0
 11
-1469.731287529597
 21
2280.944503252957
 31
0.0
  0
LINE
  5
330
330
1F
100
AcDbEntity
  8
0-6_扉
  6
Continuous
 62
   200
370
    20
100
AcDbLine
 10
-1998.481287529598
 20
2421.945146596495
 30
0.0
 11
-1529.731287529597
 21
2421.945146596495
 31
0.0
  0
LINE
  5
331
330
1F
100
AcDbEntity
  8
0-6_扉
  6
Continuous
 62
   200
370
    20
100
AcDbLine
 10
-1469.731287529597
 20
2421.945146596495
 30
0.0
 11
-1000.981287529597
 21
2421.945146596495
 31
0.0
  0
LINE
  5
332
330
1F
100
AcDbEntity
  8
0-0_補助線
  6
JWW_HOJO
 62
     7
370
     9
100
AcDbLine
 10
-526.2312875295981
 20
2439.945146596494
 30
0.0
 11
-526.2312875295981
 21
2280.944503252957
 31
0.0
  0
LINE
  5
333
330
1F
100
AcDbEntity
  8
0-0_補助線
  6
JWW_HOJO
 62
     7
370
     9
100
AcDbLine
 10
-466.2312875295981
 20
2439.945146596494
 30
0.0
 11
-466.2312875295981
 21
2280.944503252957
 31
0.0
  0
LINE
  5
334
330
1F
100
AcDbEntity
  8
0-0_補助線
  6
JWW_HOJO
 62
     7
370
     9
100
AcDbLine
 10
483.2687124704063
 20
2439.945146596494
 30
0.0
 11
483.2687124704063
 21
2280.944503252957
 31
0.0
  0
LINE
  5
335
330
1F
100
AcDbEntity
  8
0-0_補助線
  6
JWW_HOJO
 62
     7
370
     9
100
AcDbLine
 10
543.2687124704063
 20
2439.945146596494
 30
0.0
 11
543.2687124704063
 21
2280.944503252957
 31
0.0
  0
LINE
  5
336
330
1F
100
AcDbEntity
  8
0-0_補助線
  6
JWW_HOJO
 62
     7
370
     9
100
AcDbLine
 10
1486.768712470405
 20
2439.945146596494
 30
0.0
 11
1486.768712470405
 21
2280.944503252957
 31
0.0
  0
LINE
  5
337
330
1F
100
AcDbEntity
  8
0-0_補助線
  6
JWW_HOJO
 62
     7
370
     9
100
AcDbLine
 10
1546.768712470405
 20
2439.945146596494
 30
0.0
 11
1546.768712470405
 21
2280.944503252957
 31
0.0
  0
LINE
  5
338
330
1F
100
AcDbEntity
  8
0-6_扉
  6
Continuous
 62
   200
370
    20
100
AcDbLine
 10
-994.9812875295981
 20
2421.945146596495
 30
0.0
 11
-526.2312875295981
 21
2421.945146596495
 31
0.0
  0
LINE
  5
339
330
1F
100
AcDbEntity
  8
0-6_扉
  6
Continuous
 62
   200
370
    20
100
AcDbLine
 10
-466.2312875295981
 20
2421.945146596495
 30
0.0
 11
2.518712470403557
 21
2421.945146596495
 31
0.0
  0
LINE
  5
33A
330
1F
100
AcDbEntity
  8
0-6_扉
  6
Continuous
 62
   200
370
    20
100
AcDbLine
 10
14.51871247040799
 20
2421.945146596495
 30
0.0
 11
483.2687124704063
 21
2421.945146596495
 31
0.0
  0
LINE
  5
33B
330
1F
100
AcDbEntity
  8
0-6_扉
  6
Continuous
 62
   200
370
    20
100
AcDbLine
 10
543.2687124704063
 20
2421.945146596495
 30
0.0
 11
1012.018712470404
 21
2421.945146596495
 31
0.0
  0
LINE
  5
33C
330
1F
100
AcDbEntity
  8
0-6_扉
  6
Continuous
 62
   200
370
    20
100
AcDbLine
 10
1018.018712470403
 20
2421.945146596495
 30
0.0
 11
1486.768712470405
 21
2421.945146596495
 31
0.0
  0
LINE
  5
33D
330
1F
100
AcDbEntity
  8
0-6_扉
  6
Continuous
 62
   200
370
    20
100
AcDbLine
 10
1546.768712470405
 20
2421.945146596495
 30
0.0
 11
2015.518712470406
 21
2421.945146596495
 31
0.0
  0
CIRCLE
  5
33E
330
1F
100
AcDbEntity
  8
0-7_金物
  6
Continuous
 62
     7
370
     9
100
AcDbCircle
 10
-997.9812875295988
 20
2451.945146596472
 30
0.0
 40
21.00000000000001
  0
CIRCLE
  5
33F
330
1F
100
AcDbEntity
  8
0-7_金物
  6
Continuous
 62
     7
370
     9
100
AcDbCircle
 10
-997.9812875295988
 20
2451.945146596472
 30
0.0
 40
30.0
  0
CIRCLE
  5
340
330
1F
100
AcDbEntity
  8
0-7_金物
  6
Continuous
 62
     7
370
     9
100
AcDbCircle
 10
1015.018712470404
 20
2451.945146596472
 30
0.0
 40
21.00000000000001
  0
CIRCLE
  5
341
330
1F
100
AcDbEntity
  8
0-7_金物
  6
Continuous
 62
     7
370
     9
100
AcDbCircle
 10
1015.018712470404
 20
2451.945146596472
 30
0.0
 40
30.0
  0
LWPOLYLINE
  5
342
330
1F
100
AcDbEntity
  8
0-B_寸法
  6
Continuous
 62
     7
370
     9
100
AcDbPolyline
 90
        4
 70
     1
 43
3.0
 10
-1171.170872622503
 20
2301.945146596495
 42
0.4142135623731
 10
-1172.670872622503
 20
2303.445146596495
 42
0.4142135623731
 10
-1174.170872622503
 20
2301.945146596495
 42
0.4142135623731
 10
-1172.670872622503
 20
2300.445146596495
 42
0.4142135623731
  0
LINE
  5
343
330
1F
100
AcDbEntity
  8
0-6_扉
  6
Continuous
 62
   200
370
    20
100
AcDbLine
 10
-1998.481287529598
 20
2301.945146596495
 30
0.0
 11
-1529.731287529597
 21
2301.945146596495
 31
0.0
  0
LINE
  5
344
330
1F
100
AcDbEntity
  8
0-6_扉
  6
Continuous
 62
   200
370
    20
100
AcDbLine
 10
-1469.731287529597
 20
2301.945146596495
 30
0.0
 11
-1000.981287529597
 21
2301.945146596495
 31
0.0
  0
LINE
  5
345
330
1F
100
AcDbEntity
  8
0-6_扉
  6
Continuous
 62
   200
370
    20
100
AcDbLine
 10
-994.9812875295981
 20
2301.945146596495
 30
0.0
 11
-526.2312875295981
 21
2301.945146596495
 31
0.0
  0
LINE
  5
346
330
1F
100
AcDbEntity
  8
0-6_扉
  6
Continuous
 62
   200
370
    20
100
AcDbLine
 10
-466.2312875295981
 20
2301.945146596495
 30
0.0
 11
2.518712470403557
 21
2301.945146596495
 31
0.0
  0
LINE
  5
347
330
1F
100
AcDbEntity
  8
0-6_扉
  6
Continuous
 62
   200
370
    20
100
AcDbLine
 10
14.51871247040799
 20
2301.945146596495
 30
0.0
 11
483.2687124704063
 21
2301.945146596495
 31
0.0
  0
LINE
  5
348
330
1F
100
AcDbEntity
  8
0-6_扉
  6
Continuous
 62
   200
370
    20
100
AcDbLine
 10
543.2687124704063
 20
2301.945146596495
 30
0.0
 11
1012.018712470404
 21
2301.945146596495
 31
0.0
  0
LINE
  5
349
330
1F
100
AcDbEntity
  8
0-6_扉
  6
Continuous
 62
   200
370
    20
100
AcDbLine
 10
1018.018712470403
 20
2301.945146596495
 30
0.0
 11
1486.768712470405
 21
2301.945146596495
 31
0.0
  0
LINE
  5
34A
330
1F
100
AcDbEntity
  8
0-6_扉
  6
Continuous
 62
   200
370
    20
100
AcDbLine
 10
1546.768712470405
 20
2301.945146596495
 30
0.0
 11
2015.518712470406
 21
2301.945146596495
 31
0.0
  0
LINE
  5
34B
330
1F
100
AcDbEntity
  8
0-6_扉
  6
Continuous
 62
   200
370
    20
100
AcDbLine
 10
-1998.481287529598
 20
2421.945146596495
 30
0.0
 11
-1998.481287529598
 21
2301.945146596495
 31
0.0
  0
LINE
  5
34C
330
1F
100
AcDbEntity
  8
0-6_扉
  6
Continuous
 62
   200
370
    20
100
AcDbLine
 10
2015.518712470406
 20
2421.945146596495
 30
0.0
 11
2015.518712470406
 21
2301.945146596495
 31
0.0
  0
LINE
  5
34D
330
1F
100
AcDbEntity
  8
0-B_寸法
  6
Continuous
 62
   120
370
     5
100
AcDbLine
 10
-1172.670872622503
 20
2421.945146596495
 30
0.0
 11
-1172.670872622503
 21
2301.945146596495
 31
0.0
  0
LINE
  5
34E
330
1F
100
AcDbEntity
  8
0-6_扉
  6
Continuous
 62
   200
370
    20
100
AcDbLine
 10
2.518712470403557
 20
2421.945146596495
 30
0.0
 11
2.518712470403557
 21
2301.945146596495
 31
0.0
  0
LINE
  5
34F
330
1F
100
AcDbEntity
  8
0-6_扉
  6
Continuous
 62
   200
370
    20
100
AcDbLine
 10
14.51871247040202
 20
2421.945146596495
 30
0.0
 11
14.51871247040202
 21
2301.945146596495
 31
0.0
  0
LINE
  5
350
330
1F
100
AcDbEntity
  8
0-6_扉
  6
Continuous
 62
   200
370
    20
100
AcDbLine
 10
-1000.981287529597
 20
2421.945146596495
 30
0.0
 11
-1000.981287529597
 21
2301.945146596495
 31
0.0
  0
LINE
  5
351
330
1F
100
AcDbEntity
  8
0-6_扉
  6
Continuous
 62
   200
370
    20
100
AcDbLine
 10
-994.9812875295981
 20
2421.945146596495
 30
0.0
 11
-994.9812875295981
 21
2301.945146596495
 31
0.0
  0
LINE
  5
352
330
1F
100
AcDbEntity
  8
0-6_扉
  6
Continuous
 62
   200
370
    20
100
AcDbLine
 10
1018.018712470403
 20
2421.945146596495
 30
0.0
 11
1018.018712470403
 21
2301.945146596495
 31
0.0
  0
LINE
  5
353
330
1F
100
AcDbEntity
  8
0-6_扉
  6
Continuous
 62
   200
370
    20
100
AcDbLine
 10
1012.018712470404
 20
2421.945146596495
 30
0.0
 11
1012.018712470404
 21
2301.945146596495
 31
0.0
  0
LINE
  5
354
330
1F
100
AcDbEntity
  8
0-6_扉
  6
Continuous
 62
   200
370
    20
100
AcDbLine
 10
-1740.481089577736
 20
-1918.000044745374
 30
0.0
 11
-1740.481089577736
 21
-3085.000334249967
 31
0.0
  0
LINE
  5
355
330
1F
100
AcDbEntity
  8
0-6_扉
  6
Continuous
 62
   200
370
    20
100
AcDbLine
 10
-1740.481089577736
 20
-558.9998344215248
 30
0.0
 11
-1740.481089577736
 21
-1798.000044745374
 31
0.0
  0
LWPOLYLINE
  5
356
330
1F
100
AcDbEntity
  8
0-B_寸法
  6
Continuous
 62
     7
370
     9
100
AcDbPolyline
 90
        4
 70
     1
 43
3.0
 10
-1738.981089577736
 20
-1160.989871669466
 42
0.4142135623731
 10
-1740.481089577736
 20
-1159.489871669466
 42
0.4142135623731
 10
-1741.981089577736
 20
-1160.989871669466
 42
0.4142135623731
 10
-1740.481089577736
 20
-1162.489871669466
 42
0.4142135623731
  0
LINE
  5
357
330
1F
100
AcDbEntity
  8
0-B_寸法
  6
Continuous
 62
   120
370
     5
100
AcDbLine
 10
-1740.481089577736
 20
-1076.752943090494
 30
0.0
 11
-1740.481089577736
 21
-1160.989871669466
 31
0.0
  0
LINE
  5
358
330
1F
100
AcDbEntity
  8
0-6_扉
  6
Continuous
 62
   200
370
    20
100
AcDbLine
 10
-1860.481089577736
 20
-1918.000044745374
 30
0.0
 11
-1860.481089577736
 21
-3085.000334249967
 31
0.0
  0
LINE
  5
359
330
1F
100
AcDbEntity
  8
0-6_扉
  6
Continuous
 62
   200
370
    20
100
AcDbLine
 10
-1860.481089577736
 20
-558.9998344215248
 30
0.0
 11
-1860.481089577736
 21
-1798.000044745374
 31
0.0
  0
LWPOLYLINE
  5
35A
330
1F
100
AcDbEntity
  8
0-B_寸法
  6
Continuous
 62
     7
370
     9
100
AcDbPolyline
 90
        4
 70
     1
 43
3.0
 10
-1858.981089577736
 20
-1160.989871669466
 42
0.4142135623731
 10
-1860.481089577736
 20
-1159.489871669466
 42
0.4142135623731
 10
-1861.981089577736
 20
-1160.989871669466
 42
0.4142135623731
 10
-1860.481089577736
 20
-1162.489871669466
 42
0.4142135623731
  0
LINE
  5
35B
330
1F
100
AcDbEntity
  8
0-B_寸法
  6
Continuous
 62
   120
370
     5
100
AcDbLine
 10
-1860.481089577736
 20
-1076.752943090494
 30
0.0
 11
-1860.481089577736
 21
-1160.989871669466
 31
0.0
  0
LINE
  5
35C
330
1F
100
AcDbEntity
  8
0-6_扉
  6
Continuous
 62
   200
370
    20
100
AcDbLine
 10
-1860.481089577736
 20
-558.9998344215248
 30
0.0
 11
-1740.481089577736
 21
-558.9998344215248
 31
0.0
  0
LINE
  5
35D
330
1F
100
AcDbEntity
  8
0-B_寸法
  6
Continuous
 62
   120
370
     5
100
AcDbLine
 10
-1860.481089577736
 20
-1160.989871669466
 30
0.0
 11
-1740.481089577736
 21
-1160.989871669466
 31
0.0
  0
LINE
  5
35E
330
1F
100
AcDbEntity
  8
0-6_扉
  6
Continuous
 62
   200
370
    20
100
AcDbLine
 10
-1740.481089577736
 20
-3085.000334249967
 30
0.0
 11
-1860.481089577736
 21
-3085.000334249967
 31
0.0
  0
ENDSEC
  0
SECTION
  2
OBJECTS
  0
DICTIONARY
  5
C
330
0
100
AcDbDictionary
281
     1
  3
ACAD_GROUP
350
D
  3
ACAD_LAYOUT
350
1A
  3
ACAD_MATERIAL
350
3B
  3
ACAD_MLEADERSTYLE
350
387
  3
ACAD_MLINESTYLE
350
17
  3
ACAD_PLOTSETTINGS
350
19
  3
ACAD_PLOTSTYLENAME
350
E
  3
ACAD_TABLESTYLE
350
386
  3
ACAD_VISUALSTYLE
350
2A
  0
DICTIONARY
  5
D
102
{ACAD_REACTORS
330
C
102
}
330
C
100
AcDbDictionary
281
     1
  0
DICTIONARY
  5
1A
102
{ACAD_REACTORS
330
C
102
}
330
C
100
AcDbDictionary
281
     1
  3
Layout1
350
1E
  3
Layout2
350
26
  3
Model
350
22
  0
DICTIONARY
  5
3B
102
{ACAD_REACTORS
330
C
102
}
330
C
100
AcDbDictionary
281
     1
  3
ByBlock
350
3D
  3
ByLayer
350
3C
  3
Global
350
3E
  0
DICTIONARY
  5
387
102
{ACAD_REACTORS
330
C
102
}
330
C
100
AcDbDictionary
281
     1
  0
DICTIONARY
  5
17
102
{ACAD_REACTORS
330
C
102
}
330
C
100
AcDbDictionary
281
     1
  3
Standard
350
18
  0
DICTIONARY
  5
19
102
{ACAD_REACTORS
330
C
102
}
330
C
100
AcDbDictionary
281
     1
  0
ACDBDICTIONARYWDFLT
  5
E
102
{ACAD_REACTORS
330
C
102
}
330
C
100
AcDbDictionary
281
     1
  3
Normal
350
F
100
AcDbDictionaryWithDefault
340
F
  0
DICTIONARY
  5
386
102
{ACAD_REACTORS
330
C
102
}
330
C
100
AcDbDictionary
281
     1
  0
DICTIONARY
  5
2A
102
{ACAD_REACTORS
330
C
102
}
330
C
100
AcDbDictionary
281
     1
  3
2dWireframe
350
2F
  3
3D Hidden
350
31
  3
3dWireframe
350
30
  3
Basic
350
32
  3
Brighten
350
36
  3
ColorChange
350
3A
  3
Conceptual
350
34
  3
Dim
350
35
  3
Facepattern
350
39
  3
Flat
350
2B
  3
FlatWithEdges
350
2C
  3
Gouraud
350
2D
  3
GouraudWithEdges
350
2E
  3
Linepattern
350
38
  3
Realistic
350
33
  3
Thicken
350
37
  0
LAYOUT
  5
1E
102
{ACAD_REACTORS
330
1A
102
}
330
1A
100
AcDbPlotSettings
  1

  2
none_device
  4

  6

 40
0.0
 41
0.0
 42
0.0
 43
0.0
 44
0.0
 45
0.0
 46
0.0
 47
0.0
 48
0.0
 49
0.0
140
0.0
141
0.0
142
1.0
143
1.0
 70
   688
 72
     0
 73
     0
 74
     5
  7

 75
    16
 76
     0
 77
     5
 78
   300
147
1.0
148
0.0
149
0.0
100
AcDbLayout
  1
Layout1
 70
     1
 71
     1
 10
0.0
 20
0.0
 11
420.0
 21
297.0
 12
0.0
 22
0.0
 32
0.0
 14
1.000000000000000E+20
 24
1.000000000000000E+20
 34
1.000000000000000E+20
 15
-1.000000000000000E+20
 25
-1.000000000000000E+20
 35
-1.000000000000000E+20
146
0.0
 13
0.0
 23
0.0
 33
0.0
 16
1.0
 26
0.0
 36
0.0
 17
0.0
 27
1.0
 37
0.0
 76
     0
330
1B
  0
LAYOUT
  5
26
102
{ACAD_REACTORS
330
1A
102
}
330
1A
100
AcDbPlotSettings
  1

  2
none_device
  4

  6

 40
0.0
 41
0.0
 42
0.0
 43
0.0
 44
0.0
 45
0.0
 46
0.0
 47
0.0
 48
0.0
 49
0.0
140
0.0
141
0.0
142
1.0
143
1.0
 70
   688
 72
     0
 73
     0
 74
     5
  7

 75
    16
 76
     0
 77
     5
 78
   300
147
1.0
148
0.0
149
0.0
100
AcDbLayout
  1
Layout2
 70
     1
 71
     2
 10
0.0
 20
0.0
 11
0.0
 21
0.0
 12
0.0
 22
0.0
 32
0.0
 14
0.0
 24
0.0
 34
0.0
 15
0.0
 25
0.0
 35
0.0
146
0.0
 13
0.0
 23
0.0
 33
0.0
 16
1.0
 26
0.0
 36
0.0
 17
0.0
 27
1.0
 37
0.0
 76
     0
330
23
  0
LAYOUT
  5
22
102
{ACAD_REACTORS
330
1A
102
}
330
1A
100
AcDbPlotSettings
  1

  2
none_device
  4

  6

 40
0.0
 41
0.0
 42
0.0
 43
0.0
 44
0.0
 45
0.0
 46
0.0
 47
0.0
 48
0.0
 49
0.0
140
0.0
141
0.0
142
1.0
143
1.0
 70
  1712
 72
     0
 73
     0
 74
     0
  7

 75
     0
 76
     0
 77
     5
 78
   300
147
1.0
148
0.0
149
0.0
100
AcDbLayout
  1
Model
 70
     1
 71
     0
 10
-6300.0
 20
-4455.0
 11
6300.0
 21
4455.0
 12
0.0
 22
0.0
 32
0.0
 14
-6300.0
 24
-4455.0
 34
0.0
 15
6300.0
 25
4455.0
 35
0.0
146
0.0
 13
0.0
 23
0.0
 33
0.0
 16
1.0
 26
0.0
 36
0.0
 17
0.0
 27
1.0
 37
0.0
 76
     0
330
1F
331
29
  0
MATERIAL
  5
3D
102
{ACAD_REACTORS
330
3B
102
}
330
3B
100
AcDbMaterial
  1
ByBlock
 72
     1
 94
      127
  0
MATERIAL
  5
3C
102
{ACAD_REACTORS
330
3B
102
}
330
3B
100
AcDbMaterial
  1
ByLayer
 72
     1
 94
      127
  0
MATERIAL
  5
3E
102
{ACAD_REACTORS
330
3B
102
}
330
3B
100
AcDbMaterial
  1
Global
 72
     1
 94
      127
  0
MLINESTYLE
  5
18
102
{ACAD_REACTORS
330
17
102
}
330
17
100
AcDbMlineStyle
  2
Standard
 70
     0
  3

 62
   256
 51
90.0
 52
90.0
 71
     2
 49
0.5
 62
   256
  6
BYLAYER
 49
-0.5
 62
   256
  6
BYLAYER
  0
ACDBPLACEHOLDER
  5
F
102
{ACAD_REACTORS
330
E
102
}
330
E
  0
VISUALSTYLE
  5
2F
102
{ACAD_REACTORS
330
2A
102
}
330
2A
100
AcDbVisualStyle
  2
2dWireframe
 70
     4
177
     2
291
     0
 71
     0
176
     1
 72
     2
176
     1
 73
     0
176
     1
 90
        0
176
     1
 40
-0.6
176
     1
 41
-30.0
176
     1
 62
     5
 63
     7
421
 16777215
176
     1
 74
     1
176
     1
 91
        4
176
     1
 64
     7
176
     1
 65
   257
176
     1
 75
     1
176
     1
175
     1
176
     1
 42
1.0
176
     1
 92
        0
176
     1
 66
   257
176
     1
 43
1.0
176
     1
 76
     1
176
     1
 77
     6
176
     1
 78
     2
176
     1
 67
     7
176
     1
 79
     5
176
     1
170
     0
176
     1
171
     0
176
     1
290
     0
176
     1
 93
        1
176
     1
 44
0.0
176
     1
173
     0
176
     1
  0
VISUALSTYLE
  5
31
102
{ACAD_REACTORS
330
2A
102
}
330
2A
100
AcDbVisualStyle
  2
3D Hidden
 70
     6
177
     2
291
     0
 71
     1
176
     1
 72
     2
176
     1
 73
     2
176
     1
 90
        0
176
     1
 40
-0.6
176
     1
 41
-30.0
176
     1
 62
     5
 63
     7
421
 16777215
176
     1
 74
     2
176
     1
 91
        2
176
     1
 64
     7
176
     1
 65
   257
176
     1
 75
     2
176
     1
175
     1
176
     1
 42
40.0
176
     1
 92
        0
176
     1
 66
   257
176
     1
 43
1.0
176
     1
 76
     1
176
     1
 77
     6
176
     1
 78
     2
176
     1
 67
     7
176
     1
 79
     3
176
     1
170
     0
176
     1
171
     0
176
     1
290
     0
176
     1
 93
        1
176
     1
 44
0.0
176
     1
173
     0
176
     1
  0
VISUALSTYLE
  5
30
102
{ACAD_REACTORS
330
2A
102
}
330
2A
100
AcDbVisualStyle
  2
3dWireframe
 70
     5
177
     2
291
     0
 71
     0
176
     1
 72
     2
176
     1
 73
     0
176
     1
 90
        0
176
     1
 40
-0.6
176
     1
 41
-30.0
176
     1
 62
     5
 63
     7
421
 16777215
176
     1
 74
     1
176
     1
 91
        4
176
     1
 64
     7
176
     1
 65
   257
176
     1
 75
     1
176
     1
175
     1
176
     1
 42
1.0
176
     1
 92
        0
176
     1
 66
   257
176
     1
 43
1.0
176
     1
 76
     1
176
     1
 77
     6
176
     1
 78
     2
176
     1
 67
     7
176
     1
 79
     5
176
     1
170
     0
176
     1
171
     0
176
     1
290
     0
176
     1
 93
        1
176
     1
 44
0.0
176
     1
173
     0
176
     1
  0
VISUALSTYLE
  5
32
102
{ACAD_REACTORS
330
2A
102
}
330
2A
100
AcDbVisualStyle
  2
Basic
 70
     7
177
     2
291
     1
 71
     1
176
     1
 72
     0
176
     1
 73
     1
176
     1
 90
        0
176
     1
 40
-0.6
176
     1
 41
-30.0
176
     1
 62
     5
 63
     7
421
 16777215
176
     1
 74
     0
176
     1
 91
        4
176
     1
 64
     7
176
     1
 65
   257
176
     1
 75
     1
176
     1
175
     1
176
     1
 42
1.0
176
     1
 92
        8
176
     1
 66
     7
176
     1
 43
1.0
176
     1
 76
     1
176
     1
 77
     6
176
     1
 78
     2
176
     1
 67
     7
176
     1
 79
     5
176
     1
170
     0
176
     1
171
     0
176
     1
290
     0
176
     1
 93
        1
176
     1
 44
0.0
176
     1
173
     0
176
     1
  0
VISUALSTYLE
  5
36
102
{ACAD_REACTORS
330
2A
102
}
330
2A
100
AcDbVisualStyle
  2
Brighten
 70
    12
177
     2
291
     1
 71
     2
176
     1
 72
     2
176
     1
 73
     0
176
     1
 90
        0
176
     1
 40
-0.6
176
     1
 41
-30.0
176
     1
 62
     5
 63
     7
421
 16777215
176
     1
 74
     1
176
     1
 91
        4
176
     1
 64
     7
176
     1
 65
   257
176
     1
 75
     1
176
     1
175
     1
176
     1
 42
1.0
176
     1
 92
        8
176
     1
 66
     7
176
     1
 43
1.0
176
     1
 76
     1
176
     1
 77
     6
176
     1
 78
     2
176
     1
 67
     7
176
     1
 79
     5
176
     1
170
     0
176
     1
171
     0
176
     1
290
     0
176
     1
 93
        1
176
     1
 44
50.0
176
     1
173
     0
176
     1
  0
VISUALSTYLE
  5
3A
102
{ACAD_REACTORS
330
2A
102
}
330
2A
100
AcDbVisualStyle
  2
ColorChange
 70
    16
177
     2
291
     1
 71
     2
176
     1
 72
     2
176
     1
 73
     3
176
     1
 90
        0
176
     1
 40
-0.6
176
     1
 41
-30.0
176
     1
 62
     5
 63
     8
421
  8421504
176
     1
 74
     1
176
     1
 91
        4
176
     1
 64
     7
176
     1
 65
   257
176
     1
 75
     1
176
     1
175
     1
176
     1
 42
1.0
176
     1
 92
        8
176
     1
 66
     8
424
  8421504
176
     1
 43
1.0
176
     1
 76
     1
176
     1
 77
     6
176
     1
 78
     2
176
     1
 67
     7
176
     1
 79
     5
176
     1
170
     0
176
     1
171
     0
176
     1
290
     0
176
     1
 93
        1
176
     1
 44
0.0
176
     1
173
     0
176
     1
  0
VISUALSTYLE
  5
34
102
{ACAD_REACTORS
330
2A
102
}
330
2A
100
AcDbVisualStyle
  2
Conceptual
 70
     9
177
     2
291
     0
 71
     3
176
     1
 72
     2
176
     1
 73
     0
176
     1
 90
        0
176
     1
 40
-0.6
176
     1
 41
-30.0
176
     1
 62
     5
 63
     7
421
 16777215
176
     1
 74
     2
176
     1
 91
        2
176
     1
 64
     7
176
     1
 65
   257
176
     1
 75
     1
176
     1
175
     1
176
     1
 42
40.0
176
     1
 92
        8
176
     1
 66
     7
176
     1
 43
1.0
176
     1
 76
     1
176
     1
 77
     6
176
     1
 78
     2
176
     1
 67
     7
176
     1
 79
     3
176
     1
170
     0
176
     1
171
     0
176
     1
290
     0
176
     1
 93
        1
176
     1
 44
0.0
176
     1
173
     0
176
     1
  0
VISUALSTYLE
  5
35
102
{ACAD_REACTORS
330
2A
102
}
330
2A
100
AcDbVisualStyle
  2
Dim
 70
    11
177
     2
291
     1
 71
     2
176
     1
 72
     2
176
     1
 73
     0
176
     1
 90
        0
176
     1
 40
-0.6
176
     1
 41
-30.0
176
     1
 62
     5
 63
     7
421
 16777215
176
     1
 74
     1
176
     1
 91
        4
176
     1
 64
     7
176
     1
 65
   257
176
     1
 75
     1
176
     1
175
     1
176
     1
 42
1.0
176
     1
 92
        8
176
     1
 66
     7
176
     1
 43
1.0
176
     1
 76
     1
176
     1
 77
     6
176
     1
 78
     2
176
     1
 67
     7
176
     1
 79
     5
176
     1
170
     0
176
     1
171
     0
176
     1
290
     0
176
     1
 93
        1
176
     1
 44
-50.0
176
     1
173
     0
176
     1
  0
VISUALSTYLE
  5
39
102
{ACAD_REACTORS
330
2A
102
}
330
2A
100
AcDbVisualStyle
  2
Facepattern
 70
    15
177
     2
291
     1
 71
     2
176
     1
 72
     2
176
     1
 73
     0
176
     1
 90
        0
176
     1
 40
-0.6
176
     1
 41
-30.0
176
     1
 62
     5
 63
     7
421
 16777215
176
     1
 74
     1
176
     1
 91
        4
176
     1
 64
     7
176
     1
 65
   257
176
     1
 75
     1
176
     1
175
     1
176
     1
 42
1.0
176
     1
 92
        8
176
     1
 66
     7
176
     1
 43
1.0
176
     1
 76
     1
176
     1
 77
     6
176
     1
 78
     2
176
     1
 67
     7
176
     1
 79
     5
176
     1
170
     0
176
     1
171
     0
176
     1
290
     0
176
     1
 93
        1
176
     1
 44
0.0
176
     1
173
     0
176
     1
  0
VISUALSTYLE
  5
2B
102
{ACAD_REACTORS
330
2A
102
}
330
2A
100
AcDbVisualStyle
  2
Flat
 70
     0
177
     2
291
     1
 71
     2
176
     1
 72
     1
176
     1
 73
     1
176
     1
 90
        2
176
     1
 40
-0.6
176
     1
 41
30.0
176
     1
 62
     5
 63
     7
421
 16777215
176
     1
 74
     0
176
     1
 91
        4
176
     1
 64
     7
176
     1
 65
   257
176
     1
 75
     1
176
     1
175
     1
176
     1
 42
1.0
176
     1
 92
        8
176
     1
 66
     7
176
     1
 43
1.0
176
     1
 76
     1
176
     1
 77
     6
176
     1
 78
     2
176
     1
 67
     7
176
     1
 79
     5
176
     1
170
     0
176
     1
171
     0
176
     1
290
     0
176
     1
 93
       13
176
     1
 44
0.0
176
     1
173
     0
176
     1
  0
VISUALSTYLE
  5
2C
102
{ACAD_REACTORS
330
2A
102
}
330
2A
100
AcDbVisualStyle
  2
FlatWithEdges
 70
     1
177
     2
291
     1
 71
     2
176
     1
 72
     1
176
     1
 73
     1
176
     1
 90
        2
176
     1
 40
-0.6
176
     1
 41
30.0
176
     1
 62
     5
 63
     7
421
 16777215
176
     1
 74
     1
176
     1
 91
        4
176
     1
 64
     7
176
     1
 65
   257
176
     1
 75
     1
176
     1
175
     1
176
     1
 42
1.0
176
     1
 92
        0
176
     1
 66
   257
176
     1
 43
1.0
176
     1
 76
     1
176
     1
 77
     6
176
     1
 78
     2
176
     1
 67
     7
176
     1
 79
     5
176
     1
170
     0
176
     1
171
     0
176
     1
290
     0
176
     1
 93
       13
176
     1
 44
0.0
176
     1
173
     0
176
     1
  0
VISUALSTYLE
  5
2D
102
{ACAD_REACTORS
330
2A
102
}
330
2A
100
AcDbVisualStyle
  2
Gouraud
 70
     2
177
     2
291
     1
 71
     2
176
     1
 72
     2
176
     1
 73
     1
176
     1
 90
        2
176
     1
 40
-0.6
176
     1
 41
30.0
176
     1
 62
     5
 63
     7
421
 16777215
176
     1
 74
     0
176
     1
 91
        4
176
     1
 64
     7
176
     1
 65
   257
176
     1
 75
     1
176
     1
175
     1
176
     1
 42
1.0
176
     1
 92
        0
176
     1
 66
     7
176
     1
 43
1.0
176
     1
 76
     1
176
     1
 77
     6
176
     1
 78
     2
176
     1
 67
     7
176
     1
 79
     5
176
     1
170
     0
176
     1
171
     0
176
     1
290
     0
176
     1
 93
       13
176
     1
 44
0.0
176
     1
173
     0
176
     1
  0
VISUALSTYLE
  5
2E
102
{ACAD_REACTORS
330
2A
102
}
330
2A
100
AcDbVisualStyle
  2
GouraudWithEdges
 70
     3
177
     2
291
     1
 71
     2
176
     1
 72
     2
176
     1
 73
     1
176
     1
 90
        2
176
     1
 40
-0.6
176
     1
 41
30.0
176
     1
 62
     5
 63
     7
421
 16777215
176
     1
 74
     1
176
     1
 91
        4
176
     1
 64
     7
176
     1
 65
   257
176
     1
 75
     1
176
     1
175
     1
176
     1
 42
1.0
176
     1
 92
        0
176
     1
 66
   257
176
     1
 43
1.0
176
     1
 76
     1
176
     1
 77
     6
176
     1
 78
     2
176
     1
 67
     7
176
     1
 79
     5
176
     1
170
     0
176
     1
171
     0
176
     1
290
     0
176
     1
 93
       13
176
     1
 44
0.0
176
     1
173
     0
176
     1
  0
VISUALSTYLE
  5
38
102
{ACAD_REACTORS
330
2A
102
}
330
2A
100
AcDbVisualStyle
  2
Linepattern
 70
    14
177
     2
291
     1
 71
     2
176
     1
 72
     2
176
     1
 73
     0
176
     1
 90
        0
176
     1
 40
-0.6
176
     1
 41
-30.0
176
     1
 62
     5
 63
     7
421
 16777215
176
     1
 74
     1
176
     1
 91
        4
176
     1
 64
     7
176
     1
 65
   257
176
     1
 75
     7
176
     1
175
     7
176
     1
 42
1.0
176
     1
 92
        8
176
     1
 66
     7
176
     1
 43
1.0
176
     1
 76
     1
176
     1
 77
     6
176
     1
 78
     2
176
     1
 67
     7
176
     1
 79
     5
176
     1
170
     0
176
     1
171
     0
176
     1
290
     0
176
     1
 93
        1
176
     1
 44
0.0
176
     1
173
     0
176
     1
  0
VISUALSTYLE
  5
33
102
{ACAD_REACTORS
330
2A
102
}
330
2A
100
AcDbVisualStyle
  2
Realistic
 70
     8
177
     2
291
     0
 71
     2
176
     1
 72
     2
176
     1
 73
     0
176
     1
 90
        0
176
     1
 40
-0.6
176
     1
 41
-30.0
176
     1
 62
     5
 63
     7
421
 16777215
176
     1
 74
     1
176
     1
 91
        0
176
     1
 64
     7
176
     1
 65
   257
176
     1
 75
     1
176
     1
175
     1
176
     1
 42
1.0
176
     1
 92
        8
176
     1
 66
     8
424
  7895160
176
     1
 43
1.0
176
     1
 76
     1
176
     1
 77
     6
176
     1
 78
     2
176
     1
 67
     7
176
     1
 79
     5
176
     1
170
     0
176
     1
171
     0
176
     1
290
     0
176
     1
 93
       13
176
     1
 44
0.0
176
     1
173
     0
176
     1
  0
VISUALSTYLE
  5
37
102
{ACAD_REACTORS
330
2A
102
}
330
2A
100
AcDbVisualStyle
  2
Thicken
 70
    13
177
     2
291
     1
 71
     2
176
     1
 72
     2
176
     1
 73
     0
176
     1
 90
        0
176
     1
 40
-0.6
176
     1
 41
-30.0
176
     1
 62
     5
 63
     7
421
 16777215
176
     1
 74
     1
176
     1
 91
        4
176
     1
 64
     7
176
     1
 65
   257
176
     1
 75
     1
176
     1
175
     1
176
     1
 42
1.0
176
     1
 92
       12
176
     1
 66
     7
176
     1
 43
1.0
176
     1
 76
     1
176
     1
 77
     6
176
     1
 78
     2
176
     1
 67
     7
176
     1
 79
     5
176
     1
170
     0
176
     1
171
     0
176
     1
290
     0
176
     1
 93
        1
176
     1
 44
0.0
176
     1
173
     0
176
     1
  0
ENDSEC
  0
EOF
