  0
SECTION
  2
HEADER
  9
$ACADVER
  1
AC1024
  9
$ACADMAINTVER
 70
     6
  9
$DWGCODEPAGE
  3
ANSI_932
  9
$INSBASE
 10
0.0
 20
0.0
 30
0.0
  9
$EXTMIN
 10
-6300.0
 20
-4455.0
 30
0.0
  9
$EXTMAX
 10
6300.0
 20
4455.0
 30
0.0
  9
$LIMMIN
 10
-6300.0
 20
-4455.0
  9
$LIMMAX
 10
6300.0
 20
4455.0
  9
$ORTHOMODE
 70
     0
  9
$REGENMODE
 70
     1
  9
$FILLMODE
 70
     1
  9
$QTEXTMODE
 70
     0
  9
$MIRRTEXT
 70
     1
  9
$LTSCALE
 40
30.0
  9
$ATTMODE
 70
     1
  9
$TEXTSIZE
 40
2.5
  9
$TRACEWID
 40
1.0
  9
$TEXTSTYLE
  7
Standard
  9
$CLAYER
  8
0
  9
$CELTYPE
  6
ByLayer
  9
$CECOLOR
 62
   256
  9
$CELTSCALE
 40
1.0
  9
$DISPSILH
 70
     0
  9
$DIMSCALE
 40
1.0
  9
$DIMASZ
 40
2.5
  9
$DIMEXO
 40
0.625
  9
$DIMDLI
 40
3.75
  9
$DIMRND
 40
0.0
  9
$DIMDLE
 40
0.0
  9
$DIMEXE
 40
1.25
  9
$DIMTP
 40
0.0
  9
$DIMTM
 40
0.0
  9
$DIMTXT
 40
2.5
  9
$DIMCEN
 40
2.5
  9
$DIMTSZ
 40
0.0
  9
$DIMTOL
 70
     0
  9
$DIMLIM
 70
     0
  9
$DIMTIH
 70
     0
  9
$DIMTOH
 70
     0
  9
$DIMSE1
 70
     0
  9
$DIMSE2
 70
     0
  9
$DIMTAD
 70
     1
  9
$DIMZIN
 70
     8
  9
$DIMBLK
  1

  9
$DIMASO
 70
     1
  9
$DIMSHO
 70
     1
  9
$DIMPOST
  1

  9
$DIMAPOST
  1

  9
$DIMALT
 70
     0
  9
$DIMALTD
 70
     3
  9
$DIMALTF
 40
0.03937007874016
  9
$DIMLFAC
 40
1.0
  9
$DIMTOFL
 70
     1
  9
$DIMTVP
 40
0.0
  9
$DIMTIX
 70
     0
  9
$DIMSOXD
 70
     0
  9
$DIMSAH
 70
     0
  9
$DIMBLK1
  1

  9
$DIMBLK2
  1

  9
$DIMSTYLE
  2
ISO-25
  9
$DIMCLRD
 70
     0
  9
$DIMCLRE
 70
     0
  9
$DIMCLRT
 70
     0
  9
$DIMTFAC
 40
1.0
  9
$DIMGAP
 40
0.625
  9
$DIMJUST
 70
     0
  9
$DIMSD1
 70
     0
  9
$DIMSD2
 70
     0
  9
$DIMTOLJ
 70
     0
  9
$DIMTZIN
 70
     8
  9
$DIMALTZ
 70
     0
  9
$DIMALTTZ
 70
     0
  9
$DIMUPT
 70
     0
  9
$DIMDEC
 70
     2
  9
$DIMTDEC
 70
     2
  9
$DIMALTU
 70
     2
  9
$DIMALTTD
 70
     3
  9
$DIMTXSTY
  7
Standard
  9
$DIMAUNIT
 70
     0
  9
$DIMADEC
 70
     0
  9
$DIMALTRND
 40
0.0
  9
$DIMAZIN
 70
     0
  9
$DIMDSEP
 70
    44
  9
$DIMATFIT
 70
     3
  9
$DIMFRAC
 70
     0
  9
$DIMLDRBLK
  1

  9
$DIMLUNIT
 70
     2
  9
$DIMLWD
 70
    -2
  9
$DIMLWE
 70
    -2
  9
$DIMTMOVE
 70
     0
  9
$DIMFXL
 40
1.0
  9
$DIMFXLON
 70
     0
  9
$DIMJOGANG
 40
0.7853981633974483
  9
$DIMTFILL
 70
     0
  9
$DIMTFILLCLR
 70
     0
  9
$DIMARCSYM
 70
     0
  9
$DIMLTYPE
  6

  9
$DIMLTEX1
  6

  9
$DIMLTEX2
  6

  9
$DIMTXTDIRECTION
 70
     0
  9
$LUNITS
 70
     2
  9
$LUPREC
 70
     4
  9
$SKETCHINC
 40
1.0
  9
$FILLETRAD
 40
10.0
  9
$AUNITS
 70
     0
  9
$AUPREC
 70
     0
  9
$MENU
  1
.
  9
$ELEVATION
 40
0.0
  9
$PELEVATION
 40
0.0
  9
$THICKNESS
 40
0.0
  9
$LIMCHECK
 70
     0
  9
$CHAMFERA
 40
10.0
  9
$CHAMFERB
 40
10.0
  9
$CHAMFERC
 40
20.0
  9
$CHAMFERD
 40
0.0
  9
$SKPOLY
 70
     0
  9
$TDCREATE
 40
2460327.688315868
  9
$TDUCREATE
 40
2460327.313315868
  9
$TDUPDATE
 40
2460327.68831588
  9
$TDUUPDATE
 40
2460327.31331588
  9
$TDINDWG
 40
0.0000000116
  9
$TDUSRTIMER
 40
0.0000000116
  9
$USRTIMER
 70
     1
  9
$ANGBASE
 50
0.0
  9
$ANGDIR
 70
     0
  9
$PDMODE
 70
     0
  9
$PDSIZE
 40
0.0
  9
$PLINEWID
 40
0.0
  9
$SPLFRAME
 70
     0
  9
$SPLINETYPE
 70
     6
  9
$SPLINESEGS
 70
     8
  9
$HANDSEED
  5
3E1
  9
$SURFTAB1
 70
     6
  9
$SURFTAB2
 70
     6
  9
$SURFTYPE
 70
     6
  9
$SURFU
 70
     6
  9
$SURFV
 70
     6
  9
$UCSBASE
  2

  9
$UCSNAME
  2

  9
$UCSORG
 10
0.0
 20
0.0
 30
0.0
  9
$UCSXDIR
 10
1.0
 20
0.0
 30
0.0
  9
$UCSYDIR
 10
0.0
 20
1.0
 30
0.0
  9
$UCSORTHOREF
  2

  9
$UCSORTHOVIEW
 70
     0
  9
$UCSORGTOP
 10
0.0
 20
0.0
 30
0.0
  9
$UCSORGBOTTOM
 10
0.0
 20
0.0
 30
0.0
  9
$UCSORGLEFT
 10
0.0
 20
0.0
 30
0.0
  9
$UCSORGRIGHT
 10
0.0
 20
0.0
 30
0.0
  9
$UCSORGFRONT
 10
0.0
 20
0.0
 30
0.0
  9
$UCSORGBACK
 10
0.0
 20
0.0
 30
0.0
  9
$PUCSBASE
  2

  9
$PUCSNAME
  2

  9
$PUCSORG
 10
0.0
 20
0.0
 30
0.0
  9
$PUCSXDIR
 10
1.0
 20
0.0
 30
0.0
  9
$PUCSYDIR
 10
0.0
 20
1.0
 30
0.0
  9
$PUCSORTHOREF
  2

  9
$PUCSORTHOVIEW
 70
     0
  9
$PUCSORGTOP
 10
0.0
 20
0.0
 30
0.0
  9
$PUCSORGBOTTOM
 10
0.0
 20
0.0
 30
0.0
  9
$PUCSORGLEFT
 10
0.0
 20
0.0
 30
0.0
  9
$PUCSORGRIGHT
 10
0.0
 20
0.0
 30
0.0
  9
$PUCSORGFRONT
 10
0.0
 20
0.0
 30
0.0
  9
$PUCSORGBACK
 10
0.0
 20
0.0
 30
0.0
  9
$USERI1
 70
     0
  9
$USERI2
 70
     0
  9
$USERI3
 70
     0
  9
$USERI4
 70
     0
  9
$USERI5
 70
     0
  9
$USERR1
 40
0.0
  9
$USERR2
 40
0.0
  9
$USERR3
 40
0.0
  9
$USERR4
 40
0.0
  9
$USERR5
 40
0.0
  9
$WORLDVIEW
 70
     1
  9
$SHADEDGE
 70
     3
  9
$SHADEDIF
 70
    70
  9
$TILEMODE
 70
     1
  9
$MAXACTVP
 70
    64
  9
$PINSBASE
 10
0.0
 20
0.0
 30
0.0
  9
$PLIMCHECK
 70
     0
  9
$PEXTMIN
 10
1.000000000000000E+20
 20
1.000000000000000E+20
 30
1.000000000000000E+20
  9
$PEXTMAX
 10
-1.000000000000000E+20
 20
-1.000000000000000E+20
 30
-1.000000000000000E+20
  9
$PLIMMIN
 10
0.0
 20
0.0
  9
$PLIMMAX
 10
420.0
 20
297.0
  9
$UNITMODE
 70
     0
  9
$VISRETAIN
 70
     1
  9
$PLINEGEN
 70
     0
  9
$PSLTSCALE
 70
     1
  9
$TREEDEPTH
 70
  3020
  9
$CMLSTYLE
  2
Standard
  9
$CMLJUST
 70
     0
  9
$CMLSCALE
 40
20.0
  9
$PROXYGRAPHICS
 70
     1
  9
$MEASUREMENT
 70
     1
  9
$CELWEIGHT
370
    -1
  9
$ENDCAPS
280
     0
  9
$JOINSTYLE
280
     0
  9
$LWDISPLAY
290
     0
  9
$INSUNITS
 70
     4
  9
$HYPERLINKBASE
  1

  9
$STYLESHEET
  1

  9
$XEDIT
290
     1
  9
$CEPSNTYPE
380
     0
  9
$PSTYLEMODE
290
     1
  9
$FINGERPRINTGUID
  2
{226CA83E-0B5A-419D-8AEB-92541AE0477A}
  9
$VERSIONGUID
  2
{FAEB1C32-E019-11D5-929B-00C0DF256EC4}
  9
$EXTNAMES
290
     1
  9
$PSVPSCALE
 40
0.0
  9
$OLESTARTUP
290
     0
  9
$SORTENTS
280
   127
  9
$INDEXCTL
280
     0
  9
$HIDETEXT
280
     1
  9
$XCLIPFRAME
280
     2
  9
$HALOGAP
280
     0
  9
$OBSCOLOR
 70
   257
  9
$OBSLTYPE
280
     0
  9
$INTERSECTIONDISPLAY
280
     0
  9
$INTERSECTIONCOLOR
 70
   257
  9
$DIMASSOC
280
     2
  9
$PROJECTNAME
  1

  9
$CAMERADISPLAY
290
     0
  9
$LENSLENGTH
 40
50.0
  9
$CAMERAHEIGHT
 40
0.0
  9
$STEPSPERSEC
 40
2.0
  9
$STEPSIZE
 40
6.0
  9
$3DDWFPREC
 40
2.0
  9
$PSOLWIDTH
 40
5.0
  9
$PSOLHEIGHT
 40
80.0
  9
$LOFTANG1
 40
1.570796326794897
  9
$LOFTANG2
 40
1.570796326794897
  9
$LOFTMAG1
 40
0.0
  9
$LOFTMAG2
 40
0.0
  9
$LOFTPARAM
 70
     7
  9
$LOFTNORMALS
280
     1
  9
$LATITUDE
 40
37.795
  9
$LONGITUDE
 40
-122.394
  9
$NORTHDIRECTION
 40
0.0
  9
$TIMEZONE
 70
 -8000
  9
$LIGHTGLYPHDISPLAY
280
     1
  9
$TILEMODELIGHTSYNCH
280
     1
  9
$SOLIDHIST
280
     1
  9
$SHOWHIST
280
     1
  9
$DWFFRAME
280
     2
  9
$DGNFRAME
280
     2
  9
$REALWORLDSCALE
290
     1
  9
$INTERFERECOLOR
 62
   256
  9
$CSHADOW
280
     0
  9
$SHADOWPLANELOCATION
 40
0.0
  0
ENDSEC
  0
SECTION
  2
CLASSES
  0
CLASS
  1
ACDBDICTIONARYWDFLT
  2
AcDbDictionaryWithDefault
  3
ObjectDBX Classes
 90
        0
 91
        4
280
     0
281
     0
  0
CLASS
  1
VISUALSTYLE
  2
AcDbVisualStyle
  3
ObjectDBX Classes
 90
     4095
 91
        4
280
     0
281
     0
  0
CLASS
  1
MATERIAL
  2
AcDbMaterial
  3
ObjectDBX Classes
 90
     1153
 91
        4
280
     0
281
     0
  0
ENDSEC
  0
SECTION
  2
TABLES
  0
TABLE
  2
VPORT
  5
8
330
0
100
AcDbSymbolTable
 70
     1
  0
VPORT
  5
29
330
8
100
AcDbSymbolTableRecord
100
AcDbViewportTableRecord
  2
*Active
 70
     0
 10
0.0
 20
0.0
 11
1.0
 21
1.0
 12
0.0
 22
0.0
 13
0.0
 23
0.0
 14
10.0
 24
10.0
 15
10.0
 25
10.0
 16
0.0
 26
0.0
 36
1.0
 17
0.0
 27
0.0
 37
0.0
 40
9801.0
 41
1.414141414141414
 42
50.0
 43
0.0
 44
0.0
 50
0.0
 51
0.0
 71
     0
 72
 10000
 73
     1
 74
     3
 75
     0
 76
     0
 77
     0
 78
     0
281
     0
 65
     1
110
0.0
120
0.0
130
0.0
111
1.0
121
0.0
131
0.0
112
0.0
122
1.0
132
0.0
 79
     0
146
0.0
 60
     3
 61
     5
292
     1
282
     1
141
0.0
142
0.0
 63
   250
  0
ENDTAB
  0
TABLE
  2
LTYPE
  5
5
330
0
100
AcDbSymbolTable
 70
     5
  0
LTYPE
  5
14
330
5
100
AcDbSymbolTableRecord
100
AcDbLinetypeTableRecord
  2
ByBlock
 70
     0
  3

 72
    65
 73
     0
 40
0.0
  0
LTYPE
  5
15
330
5
100
AcDbSymbolTableRecord
100
AcDbLinetypeTableRecord
  2
ByLayer
 70
     0
  3

 72
    65
 73
     0
 40
0.0
  0
LTYPE
  5
16
330
5
100
AcDbSymbolTableRecord
100
AcDbLinetypeTableRecord
  2
Continuous
 70
     0
  3
Solid line
 72
    65
 73
     0
 40
0.0
  0
LTYPE
  5
3F
330
5
100
AcDbSymbolTableRecord
100
AcDbLinetypeTableRecord
  2
JWW_HOJO
 70
     0
  3
  -   -   -   -   -   -   -   - 
 72
    65
 73
     2
 40
1.693333333333333
 49
-1.27
 74
     0
 49
0.4233333333333333
 74
     0
  0
LTYPE
  5
40
330
5
100
AcDbSymbolTableRecord
100
AcDbLinetypeTableRecord
  2
JWW_DASHED2
 70
     0
  3
--    ----    ----    ----    --
 72
    65
 73
     2
 40
3.386666666666667
 49
1.693333333333333
 74
     0
 49
-1.693333333333333
 74
     0
  0
LTYPE
  5
41
330
5
100
AcDbSymbolTableRecord
100
AcDbLinetypeTableRecord
  2
JWW_CENTER1
 70
     0
  3
-----  --  ----------  --  -----
 72
    65
 73
     4
 40
6.773333333333333
 49
4.233333333333333
 74
     0
 49
-0.8466666666666667
 74
     0
 49
0.8466666666666667
 74
     0
 49
-0.8466666666666667
 74
     0
  0
LTYPE
  5
42
330
5
100
AcDbSymbolTableRecord
100
AcDbLinetypeTableRecord
  2
JWW_DASHED1
 70
     0
  3
-  --  --  --  --  --  --  --  -
 72
    65
 73
     2
 40
1.693333333333333
 49
0.8466666666666667
 74
     0
 49
-0.8466666666666667
 74
     0
  0
ENDTAB
  0
TABLE
  2
LAYER
  5
2
330
0
100
AcDbSymbolTable
 70
    15
  0
LAYER
  5
10
330
2
100
AcDbSymbolTableRecord
100
AcDbLayerTableRecord
  2
0
 70
     0
 62
     7
  6
Continuous
370
    -3
390
F
347
3E
  0
LAYER
  5
43
330
2
100
AcDbSymbolTableRecord
100
AcDbLayerTableRecord
  2
F-0_補助線
 70
     0
 62
     7
  6
Continuous
370
    -3
390
F
347
3E
  0
LAYER
  5
44
330
2
100
AcDbSymbolTableRecord
100
AcDbLayerTableRecord
  2
F-1_枠
 70
     0
 62
     7
  6
Continuous
370
    -3
390
F
347
3E
  0
LAYER
  5
45
330
2
100
AcDbSymbolTableRecord
100
AcDbLayerTableRecord
  2
F-A_文字
 70
     0
 62
     7
  6
Continuous
370
    -3
390
F
347
3E
  0
LAYER
  5
46
330
2
100
AcDbSymbolTableRecord
100
AcDbLayerTableRecord
  2
0-A_文字
 70
     0
 62
     7
  6
Continuous
370
    -3
390
F
347
3E
  0
LAYER
  5
47
330
2
100
AcDbSymbolTableRecord
100
AcDbLayerTableRecord
  2
戸当り
 70
     0
 62
     7
  6
Continuous
370
    -3
390
F
347
3E
  0
LAYER
  5
48
330
2
100
AcDbSymbolTableRecord
100
AcDbLayerTableRecord
  2
0-0_補助線
 70
     0
 62
     7
  6
Continuous
370
    -3
390
F
347
3E
  0
LAYER
  5
49
330
2
100
AcDbSymbolTableRecord
100
AcDbLayerTableRecord
  2
0-1_通り芯
 70
     0
 62
     7
  6
Continuous
370
    -3
390
F
347
3E
  0
LAYER
  5
4A
330
2
100
AcDbSymbolTableRecord
100
AcDbLayerTableRecord
  2
0-7_金物
 70
     0
 62
     7
  6
Continuous
370
    -3
390
F
347
3E
  0
LAYER
  5
4B
330
2
100
AcDbSymbolTableRecord
100
AcDbLayerTableRecord
  2
0-B_寸法
 70
     0
 62
     7
  6
Continuous
370
    -3
390
F
347
3E
  0
LAYER
  5
4C
330
2
100
AcDbSymbolTableRecord
100
AcDbLayerTableRecord
  2
0-6_扉
 70
     0
 62
     7
  6
Continuous
370
    -3
390
F
347
3E
  0
LAYER
  5
4D
330
2
100
AcDbSymbolTableRecord
100
AcDbLayerTableRecord
  2
0-C_ハッチ
 70
     0
 62
     7
  6
Continuous
370
    -3
390
F
347
3E
  0
LAYER
  5
4E
330
2
100
AcDbSymbolTableRecord
100
AcDbLayerTableRecord
  2
0-4_枠
 70
     0
 62
     7
  6
Continuous
370
    -3
390
F
347
3E
  0
LAYER
  5
4F
330
2
100
AcDbSymbolTableRecord
100
AcDbLayerTableRecord
  2
0-3_仕上げ
 70
     0
 62
     7
  6
Continuous
370
    -3
390
F
347
3E
  0
LAYER
  5
50
330
2
100
AcDbSymbolTableRecord
100
AcDbLayerTableRecord
  2
0-E
 70
     0
 62
     7
  6
Continuous
370
    -3
390
F
347
3E
  0
ENDTAB
  0
TABLE
  2
STYLE
  5
3
330
0
100
AcDbSymbolTable
 70
     1
  0
STYLE
  5
11
330
3
100
AcDbSymbolTableRecord
100
AcDbTextStyleTableRecord
  2
Standard
 70
     0
 40
0.0
 41
1.0
 50
0.0
 71
     0
 42
2.5
  3
txt
  4

  0
ENDTAB
  0
TABLE
  2
VIEW
  5
6
330
0
100
AcDbSymbolTable
 70
     0
  0
ENDTAB
  0
TABLE
  2
UCS
  5
7
330
0
100
AcDbSymbolTable
 70
     0
  0
ENDTAB
  0
TABLE
  2
APPID
  5
9
330
0
100
AcDbSymbolTable
 70
     1
  0
APPID
  5
12
330
9
100
AcDbSymbolTableRecord
100
AcDbRegAppTableRecord
  2
ACAD
 70
     0
  0
ENDTAB
  0
TABLE
  2
DIMSTYLE
  5
A
330
0
100
AcDbSymbolTable
 70
     1
100
AcDbDimStyleTable
  0
DIMSTYLE
105
27
330
A
100
AcDbSymbolTableRecord
100
AcDbDimStyleTableRecord
  2
ISO-25
 70
     0
 41
2.5
 42
0.625
 43
3.75
 44
1.25
 73
     0
 74
     0
 77
     1
 78
     8
140
2.5
141
2.5
143
0.03937007874016
147
0.625
171
     3
172
     1
178
     0
271
     2
272
     2
274
     3
278
    44
283
     0
284
     8
340
11
  0
ENDTAB
  0
TABLE
  2
BLOCK_RECORD
  5
1
330
0
100
AcDbSymbolTable
 70
     2
  0
BLOCK_RECORD
  5
1F
330
1
100
AcDbSymbolTableRecord
100
AcDbBlockTableRecord
  2
*Model_Space
340
22
 70
     0
280
     1
281
     0
  0
BLOCK_RECORD
  5
1B
330
1
100
AcDbSymbolTableRecord
100
AcDbBlockTableRecord
  2
*Paper_Space
340
1E
 70
     0
280
     1
281
     0
  0
BLOCK_RECORD
  5
23
330
1
100
AcDbSymbolTableRecord
100
AcDbBlockTableRecord
  2
*Paper_Space0
340
26
 70
     0
280
     1
281
     0
  0
BLOCK_RECORD
  5
51
330
1
100
AcDbSymbolTableRecord
100
AcDbBlockTableRecord
  2
01@@SfigorgFlag@@4
340
0
102
{BLKREFS
331
2EB
331
31D
102
}
 70
     0
280
     1
281
     0
  0
ENDTAB
  0
ENDSEC
  0
SECTION
  2
BLOCKS
  0
BLOCK
  5
20
330
1F
100
AcDbEntity
  8
0
100
AcDbBlockBegin
  2
*Model_Space
 70
     0
 10
0.0
 20
0.0
 30
0.0
  3
*Model_Space
  1

  0
ENDBLK
  5
21
330
1F
100
AcDbEntity
  8
0
100
AcDbBlockEnd
  0
BLOCK
  5
1C
330
1B
100
AcDbEntity
 67
     1
  8
0
100
AcDbBlockBegin
  2
*Paper_Space
 70
     0
 10
0.0
 20
0.0
 30
0.0
  3
*Paper_Space
  1

  0
ENDBLK
  5
1D
330
1B
100
AcDbEntity
 67
     1
  8
0
100
AcDbBlockEnd
  0
BLOCK
  5
24
330
23
100
AcDbEntity
  8
0
100
AcDbBlockBegin
  2
*Paper_Space0
 70
     0
 10
0.0
 20
0.0
 30
0.0
  3
*Paper_Space0
  1

  0
ENDBLK
  5
25
330
23
100
AcDbEntity
  8
0
100
AcDbBlockEnd
  0
BLOCK
  5
52
330
51
100
AcDbEntity
  8
0
100
AcDbBlockBegin
  2
01@@SfigorgFlag@@4
 70
     0
 10
0.0
 20
0.0
 30
0.0
  3
01@@SfigorgFlag@@4
  1

  0
LINE
  5
3B8
330
51
100
AcDbEntity
  8
0-0_補助線
  6
Continuous
 62
     7
370
     9
100
AcDbLine
 10
-4.25
 20
-1.491025641025665
 30
0.0
 11
-3.25
 21
-1.491025641025665
 31
0.0
  0
LINE
  5
3B9
330
51
100
AcDbEntity
  8
0-0_補助線
  6
Continuous
 62
     7
370
     9
100
AcDbLine
 10
-2.75
 20
-1.491025641025665
 30
0.0
 11
-0.1500000000000909
 21
-1.491025641025665
 31
0.0
  0
LINE
  5
3BA
330
51
100
AcDbEntity
  8
0-0_補助線
  6
Continuous
 62
     7
370
     9
100
AcDbLine
 10
-0.1500000000000909
 20
-1.491025641025665
 30
0.0
 11
0.0
 21
-1.641025641025642
 31
0.0
  0
LINE
  5
3BB
330
51
100
AcDbEntity
  8
0-0_補助線
  6
Continuous
 62
     7
370
     9
100
AcDbLine
 10
0.0
 20
-1.641025641025642
 30
0.0
 11
0.1500000000000909
 21
-1.491025641025665
 31
0.0
  0
LINE
  5
3BC
330
51
100
AcDbEntity
  8
0-0_補助線
  6
Continuous
 62
     7
370
     9
100
AcDbLine
 10
0.1500000000000909
 20
-1.491025641025665
 30
0.0
 11
2.75
 21
-1.491025641025665
 31
0.0
  0
LINE
  5
3BD
330
51
100
AcDbEntity
  8
0-0_補助線
  6
Continuous
 62
     7
370
     9
100
AcDbLine
 10
3.25
 20
-1.491025641025665
 30
0.0
 11
4.25
 21
-1.491025641025665
 31
0.0
  0
LINE
  5
3BE
330
51
100
AcDbEntity
  8
0-0_補助線
  6
Continuous
 62
     7
370
     9
100
AcDbLine
 10
7.849999999999909
 20
1.408974358974312
 30
0.0
 11
4.849999999999909
 21
1.408974358974312
 31
0.0
  0
LINE
  5
3BF
330
51
100
AcDbEntity
  8
0-0_補助線
  6
Continuous
 62
     7
370
     9
100
AcDbLine
 10
-4.849999999999909
 20
1.408974358974312
 30
0.0
 11
-7.849999999999909
 21
1.408974358974312
 31
0.0
  0
LINE
  5
3C0
330
51
100
AcDbEntity
  8
0-0_補助線
  6
Continuous
 62
     7
370
     9
100
AcDbLine
 10
-4.849999999999909
 20
2.008974358974335
 30
0.0
 11
-7.849999999999909
 21
1.70897435897438
 31
0.0
  0
ARC
  5
3C1
330
51
100
AcDbEntity
  8
0-0_補助線
  6
Continuous
 62
     7
370
     9
100
AcDbCircle
 10
-7.849999999999909
 20
1.558974358974403
 30
0.0
 40
0.15
100
AcDbArc
 50
90.0
 51
270.0
  0
ARC
  5
3C2
330
51
100
AcDbEntity
  8
0-0_補助線
  6
Continuous
 62
     7
370
     9
100
AcDbCircle
 10
7.849999999999909
 20
1.558974358974403
 30
0.0
 40
0.15
100
AcDbArc
 50
270.0
 51
89.99999999999997
  0
LINE
  5
3C3
330
51
100
AcDbEntity
  8
0-0_補助線
  6
Continuous
 62
     7
370
     9
100
AcDbLine
 10
7.849999999999909
 20
1.70897435897438
 30
0.0
 11
4.849999999999909
 21
2.008974358974335
 31
0.0
  0
LINE
  5
3C4
330
51
100
AcDbEntity
  8
0-0_補助線
  6
Continuous
 62
     7
370
     9
100
AcDbLine
 10
-3.050000000000182
 20
2.008974358974335
 30
0.0
 11
-4.849999999999909
 21
2.008974358974335
 31
0.0
  0
ARC
  5
3C5
330
51
100
AcDbEntity
  8
0-0_補助線
  6
Continuous
 62
     7
370
     9
100
AcDbCircle
 10
-3.050000000000182
 20
1.70897435897438
 30
0.0
 40
0.3
100
AcDbArc
 50
0.0
 51
90.0
  0
ARC
  5
3C6
330
51
100
AcDbEntity
  8
0-0_補助線
  6
Continuous
 62
     7
370
     9
100
AcDbCircle
 10
-3.050000000000182
 20
1.70897435897438
 30
0.0
 40
0.3
100
AcDbArc
 50
270.0
 51
0.0
  0
ARC
  5
3C7
330
51
100
AcDbEntity
  8
0-0_補助線
  6
Continuous
 62
     7
370
     9
100
AcDbCircle
 10
3.050000000000182
 20
1.70897435897438
 30
0.0
 40
0.3
100
AcDbArc
 50
180.0
 51
270.0
  0
LINE
  5
3C8
330
51
100
AcDbEntity
  8
0-0_補助線
  6
Continuous
 62
     7
370
     9
100
AcDbLine
 10
3.050000000000182
 20
2.008974358974335
 30
0.0
 11
4.849999999999909
 21
2.008974358974335
 31
0.0
  0
ARC
  5
3C9
330
51
100
AcDbEntity
  8
0-0_補助線
  6
Continuous
 62
     7
370
     9
100
AcDbCircle
 10
3.050000000000182
 20
1.70897435897438
 30
0.0
 40
0.3
100
AcDbArc
 50
90.0
 51
180.0
  0
LINE
  5
3CA
330
51
100
AcDbEntity
  8
0-0_補助線
  6
Continuous
 62
     7
370
     9
100
AcDbLine
 10
4.849999999999909
 20
-1.341025641025688
 30
0.0
 11
4.849999999999909
 21
1.408974358974312
 31
0.0
  0
ARC
  5
3CB
330
51
100
AcDbEntity
  8
0-0_補助線
  6
Continuous
 62
     7
370
     9
100
AcDbCircle
 10
4.099999999999909
 20
-1.341025641025688
 30
0.0
 40
0.75
100
AcDbArc
 50
270.0
 51
0.0
  0
LINE
  5
3CC
330
51
100
AcDbEntity
  8
0-0_補助線
  6
Continuous
 62
     7
370
     9
100
AcDbLine
 10
-4.849999999999909
 20
-1.341025641025688
 30
0.0
 11
-4.849999999999909
 21
1.408974358974312
 31
0.0
  0
LINE
  5
3CD
330
51
100
AcDbEntity
  8
0-0_補助線
  6
Continuous
 62
     7
370
     9
100
AcDbLine
 10
-4.099999999999909
 20
-2.091025641025688
 30
0.0
 11
4.099999999999909
 21
-2.091025641025688
 31
0.0
  0
ARC
  5
3CE
330
51
100
AcDbEntity
  8
0-0_補助線
  6
Continuous
 62
     7
370
     9
100
AcDbCircle
 10
-4.099999999999909
 20
-1.341025641025688
 30
0.0
 40
0.75
100
AcDbArc
 50
180.0
 51
270.0
  0
LINE
  5
3CF
330
51
100
AcDbEntity
  8
0-0_補助線
  6
Continuous
 62
     7
370
     9
100
AcDbLine
 10
-4.0
 20
1.408974358974312
 30
0.0
 11
-3.050000000000182
 21
1.408974358974312
 31
0.0
  0
LINE
  5
3D0
330
51
100
AcDbEntity
  8
0-0_補助線
  6
Continuous
 62
     7
370
     9
100
AcDbLine
 10
-4.25
 20
1.158974358974312
 30
0.0
 11
-4.25
 21
-1.491025641025665
 31
0.0
  0
ARC
  5
3D1
330
51
100
AcDbEntity
  8
0-0_補助線
  6
Continuous
 62
     7
370
     9
100
AcDbCircle
 10
-4.0
 20
1.158974358974312
 30
0.0
 40
0.25
100
AcDbArc
 50
90.0
 51
180.0
  0
LINE
  5
3D2
330
51
100
AcDbEntity
  8
0-0_補助線
  6
Continuous
 62
     7
370
     9
100
AcDbLine
 10
4.0
 20
1.408974358974312
 30
0.0
 11
3.050000000000182
 21
1.408974358974312
 31
0.0
  0
LINE
  5
3D3
330
51
100
AcDbEntity
  8
0-0_補助線
  6
Continuous
 62
     7
370
     9
100
AcDbLine
 10
4.25
 20
1.158974358974312
 30
0.0
 11
4.25
 21
-1.491025641025665
 31
0.0
  0
ARC
  5
3D4
330
51
100
AcDbEntity
  8
0-0_補助線
  6
Continuous
 62
     7
370
     9
100
AcDbCircle
 10
4.0
 20
1.158974358974312
 30
0.0
 40
0.25
100
AcDbArc
 50
0.0
 51
90.0
  0
LINE
  5
3D5
330
51
100
AcDbEntity
  8
0-0_補助線
  6
Continuous
 62
     7
370
     9
100
AcDbLine
 10
-3.25
 20
-1.091025641025688
 30
0.0
 11
-3.25
 21
-1.491025641025665
 31
0.0
  0
ARC
  5
3D6
330
51
100
AcDbEntity
  8
0-0_補助線
  6
Continuous
 62
     7
370
     9
100
AcDbCircle
 10
-3.150000000000091
 20
-1.091025641025688
 30
0.0
 40
0.1
100
AcDbArc
 50
90.0
 51
180.0
  0
LINE
  5
3D7
330
51
100
AcDbEntity
  8
0-0_補助線
  6
Continuous
 62
     7
370
     9
100
AcDbLine
 10
-2.849999999999909
 20
-0.991025641025665
 30
0.0
 11
-3.150000000000091
 21
-0.991025641025665
 31
0.0
  0
LINE
  5
3D8
330
51
100
AcDbEntity
  8
0-0_補助線
  6
Continuous
 62
     7
370
     9
100
AcDbLine
 10
-2.75
 20
-1.091025641025688
 30
0.0
 11
-2.75
 21
-1.491025641025665
 31
0.0
  0
ARC
  5
3D9
330
51
100
AcDbEntity
  8
0-0_補助線
  6
Continuous
 62
     7
370
     9
100
AcDbCircle
 10
-2.849999999999909
 20
-1.091025641025688
 30
0.0
 40
0.1
100
AcDbArc
 50
0.0
 51
90.0
  0
LINE
  5
3DA
330
51
100
AcDbEntity
  8
0-0_補助線
  6
Continuous
 62
     7
370
     9
100
AcDbLine
 10
2.75
 20
-1.091025641025688
 30
0.0
 11
2.75
 21
-1.491025641025665
 31
0.0
  0
ARC
  5
3DB
330
51
100
AcDbEntity
  8
0-0_補助線
  6
Continuous
 62
     7
370
     9
100
AcDbCircle
 10
2.849999999999909
 20
-1.091025641025688
 30
0.0
 40
0.1
100
AcDbArc
 50
90.0
 51
180.0
  0
LINE
  5
3DC
330
51
100
AcDbEntity
  8
0-0_補助線
  6
Continuous
 62
     7
370
     9
100
AcDbLine
 10
3.150000000000091
 20
-0.991025641025665
 30
0.0
 11
2.849999999999909
 21
-0.991025641025665
 31
0.0
  0
LINE
  5
3DD
330
51
100
AcDbEntity
  8
0-0_補助線
  6
Continuous
 62
     7
370
     9
100
AcDbLine
 10
3.25
 20
-1.091025641025688
 30
0.0
 11
3.25
 21
-1.491025641025665
 31
0.0
  0
ARC
  5
3DE
330
51
100
AcDbEntity
  8
0-0_補助線
  6
Continuous
 62
     7
370
     9
100
AcDbCircle
 10
3.150000000000091
 20
-1.091025641025688
 30
0.0
 40
0.1
100
AcDbArc
 50
0.0
 51
90.0
  0
ENDBLK
  5
53
330
51
100
AcDbEntity
  8
0
100
AcDbBlockEnd
  0
ENDSEC
  0
SECTION
  2
ENTITIES
  0
LINE
  5
54
330
1F
100
AcDbEntity
  8
F-0_補助線
  6
JWW_HOJO
 62
   120
370
     5
100
AcDbLine
 10
-6140.081333436773
 20
-4455.0
 30
0.0
 11
-6140.081333436773
 21
4424.999604096284
 31
0.0
  0
LINE
  5
55
330
1F
100
AcDbEntity
  8
F-0_補助線
  6
JWW_HOJO
 62
   120
370
     5
100
AcDbLine
 10
-6140.081333436773
 20
4424.999604096284
 30
0.0
 11
6159.917676803936
 21
4424.999604096284
 31
0.0
  0
LINE
  5
56
330
1F
100
AcDbEntity
  8
F-0_補助線
  6
JWW_HOJO
 62
   120
370
     5
100
AcDbLine
 10
6159.917676803936
 20
4424.999604096284
 30
0.0
 11
6159.917676803936
 21
-4455.0
 31
0.0
  0
LINE
  5
57
330
1F
100
AcDbEntity
  8
F-0_補助線
  6
JWW_HOJO
 62
   120
370
     5
100
AcDbLine
 10
6159.917676803936
 20
-4455.0
 30
0.0
 11
-6140.081333436773
 21
-4455.0
 31
0.0
  0
LINE
  5
58
330
1F
100
AcDbEntity
  8
F-0_補助線
  6
JWW_HOJO
 62
     7
370
     9
100
AcDbLine
 10
1009.918254163524
 20
-3795.000003092998
 30
0.0
 11
1009.918254163524
 21
-4195.000008247994
 31
0.0
  0
LINE
  5
59
330
1F
100
AcDbEntity
  8
F-0_補助線
  6
JWW_HOJO
 62
     7
370
     9
100
AcDbLine
 10
509.9185840832865
 20
-3795.000003092998
 30
0.0
 11
509.9185840832865
 21
-4195.000008247994
 31
0.0
  0
LINE
  5
5A
330
1F
100
AcDbEntity
  8
F-1_枠
  6
Continuous
 62
   200
370
    20
100
AcDbLine
 10
5859.917429364114
 20
4174.999769056166
 30
0.0
 11
5859.917429364114
 21
-4205.000164959882
 31
0.0
  0
LINE
  5
5B
330
1F
100
AcDbEntity
  8
F-1_枠
  6
Continuous
 62
   200
370
    20
100
AcDbLine
 10
-5840.081317971782
 20
4174.999769056166
 30
0.0
 11
-5840.081317971782
 21
-4205.000164959882
 31
0.0
  0
LINE
  5
5C
330
1F
100
AcDbEntity
  8
F-1_枠
  6
Continuous
 62
   200
370
    20
100
AcDbLine
 10
5859.917429364114
 20
-4205.000002577499
 30
0.0
 11
-5840.081085996952
 21
-4205.000002577499
 31
0.0
  0
LINE
  5
5D
330
1F
100
AcDbEntity
  8
F-1_枠
  6
Continuous
 62
   200
370
    20
100
AcDbLine
 10
-5830.081323642279
 20
4174.999769056166
 30
0.0
 11
-5830.081323642279
 21
-4205.000164959882
 31
0.0
  0
LINE
  5
5E
330
1F
100
AcDbEntity
  8
F-1_枠
  6
Continuous
 62
   200
370
    20
100
AcDbLine
 10
-5835.081309208291
 20
4174.999769056166
 30
0.0
 11
-5835.081309208291
 21
-4205.000164959882
 31
0.0
  0
LINE
  5
5F
330
1F
100
AcDbEntity
  8
F-1_枠
  6
Continuous
 62
   200
370
    20
100
AcDbLine
 10
5854.917165428305
 20
4174.999769056166
 30
0.0
 11
5854.917165428305
 21
-4205.000164959882
 31
0.0
  0
LINE
  5
60
330
1F
100
AcDbEntity
  8
F-1_枠
  6
Continuous
 62
   200
370
    20
100
AcDbLine
 10
5849.917643811961
 20
4174.999769056166
 30
0.0
 11
5849.917643811961
 21
-4205.000164959882
 31
0.0
  0
LINE
  5
61
330
1F
100
AcDbEntity
  8
F-1_枠
  6
Continuous
 62
   200
370
    20
100
AcDbLine
 10
5859.917429364114
 20
-4199.999993814004
 30
0.0
 11
-5840.081085996952
 21
-4199.999993814004
 31
0.0
  0
LINE
  5
62
330
1F
100
AcDbEntity
  8
F-1_枠
  6
Continuous
 62
   200
370
    20
100
AcDbLine
 10
5859.917429364114
 20
-4195.000008247994
 30
0.0
 11
-5840.081085996952
 21
-4195.000008247994
 31
0.0
  0
LINE
  5
63
330
1F
100
AcDbEntity
  8
F-1_枠
  6
Continuous
 62
   200
370
    20
100
AcDbLine
 10
4349.917891251784
 20
-3795.000003092998
 30
0.0
 11
4349.917891251784
 21
-4195.000008247994
 31
0.0
  0
LINE
  5
64
330
1F
100
AcDbEntity
  8
F-1_枠
  6
Continuous
 62
   200
370
    20
100
AcDbLine
 10
2849.91739637214
 20
-3795.000003092998
 30
0.0
 11
2849.91739637214
 21
-4195.000008247994
 31
0.0
  0
LINE
  5
65
330
1F
100
AcDbEntity
  8
F-1_枠
  6
Continuous
 62
   200
370
    20
100
AcDbLine
 10
9.918542843316231
 20
-3795.000003092998
 30
0.0
 11
9.918542843316231
 21
-4195.000008247994
 31
0.0
  0
LINE
  5
66
330
1F
100
AcDbEntity
  8
F-1_枠
  6
Continuous
 62
   200
370
    20
100
AcDbLine
 10
9.918542843316231
 20
-3994.999936078045
 30
0.0
 11
5849.917643811961
 21
-3995.005364289155
 31
0.0
  0
LINE
  5
67
330
1F
100
AcDbEntity
  8
F-1_枠
  6
Continuous
 62
   200
370
    20
100
AcDbLine
 10
-5840.081085996952
 20
4174.999769056166
 30
0.0
 11
5859.917429364114
 21
4174.999769056166
 31
0.0
  0
LINE
  5
68
330
1F
100
AcDbEntity
  8
F-1_枠
  6
Continuous
 62
   200
370
    20
100
AcDbLine
 10
-5840.081085996952
 20
4164.999983504013
 30
0.0
 11
5859.917429364114
 21
4164.999983504013
 31
0.0
  0
LINE
  5
69
330
1F
100
AcDbEntity
  8
F-1_枠
  6
Continuous
 62
   200
370
    20
100
AcDbLine
 10
-5840.081085996952
 20
4169.999505120355
 30
0.0
 11
5859.917429364114
 21
4169.999505120355
 31
0.0
  0
LINE
  5
6A
330
1F
100
AcDbEntity
  8
F-0_補助線
  6
JWW_HOJO
 62
     7
370
     9
100
AcDbLine
 10
-5830.081323642279
 20
-3994.99993607839
 30
0.0
 11
9.918542843316231
 21
-3994.99993607839
 31
0.0
  0
LINE
  5
6B
330
1F
100
AcDbEntity
  8
F-0_補助線
  6
JWW_HOJO
 62
     7
370
     9
100
AcDbLine
 10
-5830.081323642279
 20
-3904.99993607839
 30
0.0
 11
9.918542843316231
 21
-3904.99993607839
 31
0.0
  0
LINE
  5
6C
330
1F
100
AcDbEntity
  8
F-0_補助線
  6
JWW_HOJO
 62
     7
370
     9
100
AcDbLine
 10
-5830.081323642279
 20
-4084.99993607839
 30
0.0
 11
9.918542843316231
 21
-4084.99993607839
 31
0.0
  0
LINE
  5
6D
330
1F
100
AcDbEntity
  8
F-0_補助線
  6
JWW_HOJO
 62
     7
370
     9
100
AcDbLine
 10
9.918408067688347
 20
-4139.999739777984
 30
0.0
 11
5849.917509036333
 21
-4140.005167989091
 31
0.0
  0
LINE
  5
6E
330
1F
100
AcDbEntity
  8
F-0_補助線
  6
JWW_HOJO
 62
     7
370
     9
100
AcDbLine
 10
9.918491721639953
 20
-4049.999739778022
 30
0.0
 11
5849.917592690285
 21
-4050.005167989132
 31
0.0
  0
LINE
  5
6F
330
1F
100
AcDbEntity
  8
F-0_補助線
  6
JWW_HOJO
 62
     7
370
     9
100
AcDbLine
 10
9.91859396535915
 20
-3939.99973721807
 30
0.0
 11
5849.917694934003
 21
-3940.005165429179
 31
0.0
  0
LINE
  5
70
330
1F
100
AcDbEntity
  8
F-0_補助線
  6
JWW_HOJO
 62
     7
370
     9
100
AcDbLine
 10
9.918677619310756
 20
-3849.999737218109
 30
0.0
 11
5849.917778587955
 21
-3850.005165429218
 31
0.0
  0
LINE
  5
71
330
1F
100
AcDbEntity
  8
F-0_補助線
  6
JWW_HOJO
 62
     7
370
     9
100
AcDbLine
 10
2939.91739637214
 20
-3795.000003092998
 30
0.0
 11
2939.91739637214
 21
-4195.000008247994
 31
0.0
  0
LINE
  5
72
330
1F
100
AcDbEntity
  8
F-0_補助線
  6
JWW_HOJO
 62
     7
370
     9
100
AcDbLine
 10
99.91854284331623
 20
-3795.000003092998
 30
0.0
 11
99.91854284331623
 21
-4195.000008247994
 31
0.0
  0
LINE
  5
73
330
1F
100
AcDbEntity
  8
F-0_補助線
  6
JWW_HOJO
 62
     7
370
     9
100
AcDbLine
 10
4439.917891251784
 20
-3795.000003092998
 30
0.0
 11
4439.917891251784
 21
-4195.000008247994
 31
0.0
  0
MTEXT
  5
74
330
1F
100
AcDbEntity
  8
F-A_文字
  6
Continuous
 62
     7
370
     0
100
AcDbMText
 10
4439.917891251784
 20
-3887.143854850754
 30
0.0
 40
45.72
 41
240.0
 46
0.0
 71
     7
 72
     1
  1
{\fＭＳ ゴシック|b0|i0|c128|p49;ＤＡＴＥ}
 73
     1
 44
1.0
  0
MTEXT
  5
75
330
1F
100
AcDbEntity
  8
F-A_文字
  6
Continuous
 62
     7
370
     0
100
AcDbMText
 10
4439.917891251784
 20
-4087.143857410839
 30
0.0
 40
45.72
 41
180.0
 46
0.0
 71
     7
 72
     1
  1
{\fＭＳ ゴシック|b0|i0|c128|p49;ＮＯ．}
 73
     1
 44
1.0
  0
MTEXT
  5
76
330
1F
100
AcDbEntity
  8
F-A_文字
  6
Continuous
 62
     7
370
     0
100
AcDbMText
 10
2939.91739637214
 20
-3887.142460617775
 30
0.0
 40
45.72
 41
300.0
 46
0.0
 71
     7
 72
     1
  1
{\fＭＳ ゴシック|b0|i0|c128|p49;ＳＣＡＬＥ}
 73
     1
 44
1.0
  0
MTEXT
  5
77
330
1F
100
AcDbEntity
  8
F-A_文字
  6
Continuous
 62
     7
370
     0
100
AcDbMText
 10
99.91854284331623
 20
-3887.139820871936
 30
0.0
 40
45.72
 41
180.0
 46
0.0
 71
     7
 72
     1
  1
{\fＭＳ ゴシック|b0|i0|c128|p49;図面名}
 73
     1
 44
1.0
  0
MTEXT
  5
78
330
1F
100
AcDbEntity
  8
F-A_文字
  6
Continuous
 62
     7
370
     0
100
AcDbMText
 10
1604.917396372138
 20
-4164.281754523929
 30
0.0
 40
101.44125
 41
1065.0
 46
0.0
 71
     7
 72
     1
  1
{\fＭＳ ゴシック|b0|i0|c128|p49;ウッドワン・・・}
 73
     1
 44
1.0
  0
MTEXT
  5
79
330
1F
100
AcDbEntity
  8
F-A_文字
  6
Continuous
 62
     7
370
     0
100
AcDbMText
 10
1394.917396372138
 20
-4096.140669266148
 30
0.0
 40
45.72
 41
120.0
 46
0.0
 71
     7
 72
     1
  1
{\fＭＳ ゴシック|b0|i0|c128|p49;株式}
 73
     1
 44
1.0
  0
MTEXT
  5
7A
330
1F
100
AcDbEntity
  8
F-A_文字
  6
Continuous
 62
     7
370
     0
100
AcDbMText
 10
1394.917396372138
 20
-4168.140669266188
 30
0.0
 40
45.72
 41
120.0
 46
0.0
 71
     7
 72
     1
  1
{\fＭＳ ゴシック|b0|i0|c128|p49;会社}
 73
     1
 44
1.0
  0
LINE
  5
7B
330
1F
100
AcDbEntity
  8
F-1_枠
  6
Continuous
 62
   200
370
    20
100
AcDbLine
 10
5859.917429364114
 20
-3795.000003092998
 30
0.0
 11
-5840.081085996952
 21
-3795.000003092998
 31
0.0
  0
LINE
  5
7C
330
1F
100
AcDbEntity
  8
F-1_枠
  6
Continuous
 62
   200
370
    20
100
AcDbLine
 10
5859.917429364114
 20
-3790.000017526988
 30
0.0
 11
-5840.081085996952
 21
-3790.000017526988
 31
0.0
  0
LINE
  5
7D
330
1F
100
AcDbEntity
  8
F-0_補助線
  6
JWW_HOJO
 62
     7
370
     9
100
AcDbLine
 10
-5087.628710189611
 20
-3795.000003093
 30
0.0
 11
-5087.628710189611
 21
-4205.000164959882
 31
0.0
  0
LINE
  5
7E
330
1F
100
AcDbEntity
  8
F-0_補助線
  6
JWW_HOJO
 62
     7
370
     9
100
AcDbLine
 10
-50.08145715668377
 20
-3795.000003092998
 30
0.0
 11
-50.08145715668377
 21
-4195.000008247994
 31
0.0
  0
MTEXT
  5
7F
330
1F
100
AcDbEntity
  8
F-0_補助線
  6
Continuous
 62
     7
370
     0
100
AcDbMText
 10
509.9185840832865
 20
-3946.496666872502
 30
0.0
 40
78.58125
 41
412.5
 46
0.0
 71
     7
 72
     1
  1
{\fＭＳ ゴシック|b0|i0|c128|p49;DOORETUS}
 73
     1
 44
1.0
  0
MTEXT
  5
80
330
1F
100
AcDbEntity
  8
F-0_補助線
  6
Continuous
 62
     7
370
     0
100
AcDbMText
 10
1110.209427605312
 20
-3946.734791872503
 30
0.0
 40
78.105
 41
615.0
 46
0.0
 71
     7
 72
     1
  1
{\fＭＳ ゴシック|b0|i0|c128|p49;建具納まり図}
 73
     1
 44
1.0
  0
MTEXT
  5
81
330
1F
100
AcDbEntity
  8
F-A_文字
  6
Continuous
 62
     7
370
     0
100
AcDbMText
 10
2939.91739637214
 20
-4087.142463177859
 30
0.0
 40
45.72
 41
240.0
 46
0.0
 71
     7
 72
     1
  1
{\fＭＳ ゴシック|b0|i0|c128|p49;ＦＩＬＥ}
 73
     1
 44
1.0
  0
LINE
  5
82
330
1F
100
AcDbEntity
  8
0-A_文字
  6
Continuous
 62
    92
370
    13
100
AcDbLine
 10
5369.917643811961
 20
3684.999983504013
 30
0.0
 11
3869.917643811962
 21
3684.999983504013
 31
0.0
  0
LINE
  5
83
330
1F
100
AcDbEntity
  8
0-A_文字
  6
Continuous
 62
    92
370
    13
100
AcDbLine
 10
5369.917643811961
 20
3540.999983504012
 30
0.0
 11
3869.917643811962
 21
3540.999983504012
 31
0.0
  0
LINE
  5
84
330
1F
100
AcDbEntity
  8
戸当り
  6
Continuous
 62
    40
370
    15
100
AcDbLine
 10
5159.917643811961
 20
3385.504011182748
 30
0.0
 11
5339.917643811961
 21
3385.504011182748
 31
0.0
  0
LINE
  5
85
330
1F
100
AcDbEntity
  8
戸当り
  6
Continuous
 62
    40
370
    15
100
AcDbLine
 10
5159.917643811961
 20
3439.504011182749
 30
0.0
 11
5339.917643811961
 21
3439.504011182749
 31
0.0
  0
LINE
  5
86
330
1F
100
AcDbEntity
  8
戸当り
  6
Continuous
 62
    40
370
    15
100
AcDbLine
 10
5159.917643811961
 20
3439.504011182749
 30
0.0
 11
5159.917643811961
 21
3385.504011182748
 31
0.0
  0
LINE
  5
87
330
1F
100
AcDbEntity
  8
戸当り
  6
Continuous
 62
    40
370
    15
100
AcDbLine
 10
4079.917643811962
 20
3385.504011182748
 30
0.0
 11
3899.917643811962
 21
3385.504011182748
 31
0.0
  0
LINE
  5
88
330
1F
100
AcDbEntity
  8
戸当り
  6
Continuous
 62
    40
370
    15
100
AcDbLine
 10
4079.917643811962
 20
3439.504011182749
 30
0.0
 11
3899.917643811962
 21
3439.504011182749
 31
0.0
  0
LINE
  5
89
330
1F
100
AcDbEntity
  8
戸当り
  6
Continuous
 62
    40
370
    15
100
AcDbLine
 10
4079.917643811962
 20
3439.504011182749
 30
0.0
 11
4079.917643811962
 21
3385.504011182748
 31
0.0
  0
LINE
  5
8A
330
1F
100
AcDbEntity
  8
戸当り
  6
JWW_DASHED2
 62
     7
370
     9
100
AcDbLine
 10
5159.917643811961
 20
3385.504011182748
 30
0.0
 11
4079.917643811962
 21
3385.504011182748
 31
0.0
  0
CIRCLE
  5
8B
330
1F
100
AcDbEntity
  8
0-0_補助線
  6
JWW_HOJO
 62
   120
370
     5
100
AcDbCircle
 10
4214.917643811963
 20
3385.504011182748
 30
0.0
 40
135.0
  0
CIRCLE
  5
8C
330
1F
100
AcDbEntity
  8
0-0_補助線
  6
JWW_HOJO
 62
   120
370
     5
100
AcDbCircle
 10
4484.917643811961
 20
3385.504011182748
 30
0.0
 40
135.0
  0
CIRCLE
  5
8D
330
1F
100
AcDbEntity
  8
0-0_補助線
  6
JWW_HOJO
 62
   120
370
     5
100
AcDbCircle
 10
4754.917643811961
 20
3385.504011182748
 30
0.0
 40
135.0
  0
CIRCLE
  5
8E
330
1F
100
AcDbEntity
  8
0-0_補助線
  6
JWW_HOJO
 62
   120
370
     5
100
AcDbCircle
 10
5024.917643811961
 20
3385.504011182748
 30
0.0
 40
135.0
  0
CIRCLE
  5
8F
330
1F
100
AcDbEntity
  8
0-0_補助線
  6
JWW_HOJO
 62
   120
370
     5
100
AcDbCircle
 10
4079.917643811962
 20
3385.504011182748
 30
0.0
 40
135.0
  0
CIRCLE
  5
90
330
1F
100
AcDbEntity
  8
0-0_補助線
  6
JWW_HOJO
 62
   120
370
     5
100
AcDbCircle
 10
5159.917643811961
 20
3385.504011182748
 30
0.0
 40
135.0
  0
LINE
  5
91
330
1F
100
AcDbEntity
  8
戸当り
  6
Continuous
 62
    40
370
    15
100
AcDbLine
 10
4079.917643811962
 20
3385.504011182748
 30
0.0
 11
4114.858214900803
 21
3255.104024633723
 31
0.0
  0
LINE
  5
92
330
1F
100
AcDbEntity
  8
戸当り
  6
Continuous
 62
    40
370
    15
100
AcDbLine
 10
4149.798785989644
 20
3385.504011182748
 30
0.0
 11
4114.858214900803
 21
3255.104024633723
 31
0.0
  0
LINE
  5
93
330
1F
100
AcDbEntity
  8
戸当り
  6
Continuous
 62
    40
370
    15
100
AcDbLine
 10
5090.036501634283
 20
3385.504011182748
 30
0.0
 11
5124.977072723121
 21
3255.104024633723
 31
0.0
  0
LINE
  5
94
330
1F
100
AcDbEntity
  8
戸当り
  6
Continuous
 62
    40
370
    15
100
AcDbLine
 10
5159.917643811961
 20
3385.504011182748
 30
0.0
 11
5124.977072723121
 21
3255.104024633723
 31
0.0
  0
LINE
  5
95
330
1F
100
AcDbEntity
  8
戸当り
  6
Continuous
 62
    40
370
    15
100
AcDbLine
 10
4349.917643811961
 20
3385.504011182748
 30
0.0
 11
4384.858214900803
 21
3255.104024633723
 31
0.0
  0
LINE
  5
96
330
1F
100
AcDbEntity
  8
戸当り
  6
Continuous
 62
    40
370
    15
100
AcDbLine
 10
4419.798785989644
 20
3385.504011182748
 30
0.0
 11
4384.858214900803
 21
3255.104024633723
 31
0.0
  0
LINE
  5
97
330
1F
100
AcDbEntity
  8
戸当り
  6
Continuous
 62
    40
370
    15
100
AcDbLine
 10
4820.036501634283
 20
3385.504011182748
 30
0.0
 11
4854.977072723121
 21
3255.104024633723
 31
0.0
  0
LINE
  5
98
330
1F
100
AcDbEntity
  8
戸当り
  6
Continuous
 62
    40
370
    15
100
AcDbLine
 10
4889.917643811961
 20
3385.504011182748
 30
0.0
 11
4854.977072723121
 21
3255.104024633723
 31
0.0
  0
LINE
  5
99
330
1F
100
AcDbEntity
  8
0-0_補助線
  6
JWW_HOJO
 62
   120
370
     5
100
AcDbLine
 10
5339.917643811961
 20
3684.999983504013
 30
0.0
 11
5339.917643811961
 21
2718.999983504014
 31
0.0
  0
LINE
  5
9A
330
1F
100
AcDbEntity
  8
0-A_文字
  6
Continuous
 62
    92
370
    13
100
AcDbLine
 10
5369.917643811961
 20
3684.999983504013
 30
0.0
 11
5369.917643811961
 21
2718.999983504014
 31
0.0
  0
LINE
  5
9B
330
1F
100
AcDbEntity
  8
0-A_文字
  6
Continuous
 62
    92
370
    13
100
AcDbLine
 10
5369.917643811961
 20
2718.999983504014
 30
0.0
 11
3869.917643811962
 21
2718.999983504014
 31
0.0
  0
LINE
  5
9C
330
1F
100
AcDbEntity
  8
0-0_補助線
  6
JWW_HOJO
 62
   120
370
     5
100
AcDbLine
 10
3899.917643811962
 20
3684.999983504013
 30
0.0
 11
3899.917643811962
 21
2718.999983504014
 31
0.0
  0
LINE
  5
9D
330
1F
100
AcDbEntity
  8
0-A_文字
  6
Continuous
 62
    92
370
    13
100
AcDbLine
 10
3869.917643811962
 20
3684.999983504013
 30
0.0
 11
3869.917643811962
 21
2718.999983504014
 31
0.0
  0
LINE
  5
9E
330
1F
100
AcDbEntity
  8
0-0_補助線
  6
JWW_HOJO
 62
   120
370
     5
100
AcDbLine
 10
4619.917643811961
 20
2718.999983504014
 30
0.0
 11
4619.917643811961
 21
3536.444090120684
 31
0.0
  0
ELLIPSE
  5
9F
330
1F
100
AcDbEntity
  8
戸当り
  6
Continuous
 62
    92
370
    13
100
AcDbEllipse
 10
4544.51791894478
 20
2927.884230441196
 30
0.0
 11
-17.7763823922528
 21
100.8148742797557
 31
0.0
210
0.0
220
0.0
230
1.0
 40
0.4000000000000001
 41
1.850633272656679
 42
2.442876790075129
  0
ELLIPSE
  5
A0
330
1F
100
AcDbEntity
  8
戸当り
  6
Continuous
 62
    92
370
    13
100
AcDbEllipse
 10
4544.51791894478
 20
2927.884230441196
 30
0.0
 11
-17.7763823922528
 21
100.8148742797557
 31
0.0
210
0.0
220
0.0
230
1.0
 40
0.4000000000000001
 41
3.840308517104466
 42
4.432552034522944
  0
ELLIPSE
  5
A1
330
1F
100
AcDbEntity
  8
戸当り
  6
Continuous
 62
    92
370
    13
100
AcDbEllipse
 10
4544.098172894875
 20
2930.264728582854
 30
0.0
 11
-14.67024424252691
 21
83.19908946199426
 31
0.0
210
0.0
220
0.0
230
1.0
 40
0.5
 41
4.340591432030095
 42
8.225779182329084
  0
LINE
  5
A2
330
1F
100
AcDbEntity
  8
戸当り
  6
Continuous
 62
    92
370
    13
100
AcDbLine
 10
4584.067802717541
 20
2855.267181117928
 30
0.0
 11
4532.189678628003
 21
2846.119668132401
 31
0.0
  0
LINE
  5
A3
330
1F
100
AcDbEntity
  8
戸当り
  6
Continuous
 62
    92
370
    13
100
AcDbLine
 10
4586.255769756144
 20
2842.858603429973
 30
0.0
 11
4534.377645666606
 21
2833.711090444447
 31
0.0
  0
ELLIPSE
  5
A4
330
1F
100
AcDbEntity
  8
戸当り
  6
Continuous
 62
    92
370
    13
100
AcDbEllipse
 10
4560.316707711374
 20
2838.284846937211
 30
0.0
 11
-7.622927487939132
 21
43.23177007461331
 31
0.0
210
0.0
220
0.0
230
1.0
 40
0.6000000000000001
 41
1.570796326794897
 42
4.71238898038469
  0
ELLIPSE
  5
A5
330
1F
100
AcDbEntity
  8
戸当り
  6
Continuous
 62
    92
370
    13
100
AcDbEllipse
 10
4698.978687882654
 20
2963.935065931004
 30
0.0
 11
26.49533313827761
 21
98.88192943551533
 31
0.0
210
0.0
220
0.0
230
0.9999999999999999
 40
0.4
 41
1.850633272656679
 42
2.442876790075129
  0
ELLIPSE
  5
A6
330
1F
100
AcDbEntity
  8
戸当り
  6
Continuous
 62
    92
370
    13
100
AcDbEllipse
 10
4698.978687882654
 20
2963.935065931004
 30
0.0
 11
26.49533313827761
 21
98.88192943551533
 31
0.0
210
0.0
220
0.0
230
0.9999999999999999
 40
0.4
 41
3.840308517104466
 42
4.432552034522944
  0
ELLIPSE
  5
A7
330
1F
100
AcDbEntity
  8
戸当り
  6
Continuous
 62
    92
370
    13
100
AcDbEllipse
 10
4699.604310755758
 20
2966.269922279796
 30
0.0
 11
21.86569797210526
 21
81.6038957748525
 31
0.0
210
0.0
220
0.0
230
1.0
 40
0.5
 41
4.340591432030095
 42
8.225779182329084
  0
LINE
  5
A8
330
1F
100
AcDbEntity
  8
戸当り
  6
Continuous
 62
    92
370
    13
100
AcDbLine
 10
4704.133764364565
 20
2881.407165525609
 30
0.0
 11
4653.25031048817
 21
2895.041345899896
 31
0.0
  0
LINE
  5
A9
330
1F
100
AcDbEntity
  8
戸当り
  6
Continuous
 62
    92
370
    13
100
AcDbLine
 10
4700.872644396272
 20
2869.236500114369
 30
0.0
 11
4649.989190519879
 21
2882.870680488654
 31
0.0
  0
ELLIPSE
  5
AA
330
1F
100
AcDbEntity
  8
戸当り
  6
Continuous
 62
    92
370
    13
100
AcDbEllipse
 10
4675.430917458078
 20
2876.053590301511
 30
0.0
 11
11.36181697857171
 21
42.40287823032828
 31
0.0
210
0.0
220
0.0
230
0.9999999999999999
 40
0.6
 41
1.570796326794897
 42
4.71238898038469
  0
LINE
  5
AB
330
1F
100
AcDbEntity
  8
0-A_文字
  6
Continuous
 62
    92
370
    13
100
AcDbLine
 10
-5659.999495325866
 20
3730.00018145587
 30
0.0
 11
-5659.999495325866
 21
4000.00018145587
 31
0.0
  0
MTEXT
  5
AC
330
1F
100
AcDbEntity
  8
0-A_文字
  6
Continuous
 62
     7
370
     9
100
AcDbMText
 10
4259.917643811961
 20
3562.188554932585
 30
0.0
 40
78.37714285714286
 41
720.0
 46
0.0
 71
     7
 72
     1
  1
{\fＭＳ ゴシック|b0|i0|c128|p49;フリーオープン}
 73
     1
 44
1.0
  0
MTEXT
  5
AD
330
1F
100
AcDbEntity
  8
F-A_文字
  6
Continuous
 62
     7
370
     0
100
AcDbMText
 10
3689.917643811962
 20
-3946.903115907308
 30
0.0
 40
76.19999999999999
 41
150.0
 46
0.0
 71
     7
 72
     1
  1
{\fＭＳ ゴシック|b0|i0|c128|p49;1/5}
 73
     1
 44
1.0
  0
MTEXT
  5
AE
330
1F
100
AcDbEntity
  8
0-A_文字
  6
Continuous
 62
    92
370
    13
100
AcDbMText
 10
-5592.499495325865
 20
3758.97768145587
 30
0.0
 40
147.955
 41
3495.0
 46
0.0
 71
     7
 72
     1
  1
{\fＭＳ ゴシック|b0|i0|c128|p49;クローゼットドア　調整枠　間口１２尺}
 73
     1
 44
1.0
  0
LINE
  5
AF
330
1F
100
AcDbEntity
  8
0-A_文字
  6
Continuous
 62
    92
370
    13
100
AcDbLine
 10
-2014.285714285714
 20
3730.00018145587
 30
0.0
 11
-2014.285714285714
 21
4000.00018145587
 31
0.0
  0
LINE
  5
B0
330
1F
100
AcDbEntity
  8
0-A_文字
  6
Continuous
 62
    92
370
    13
100
AcDbLine
 10
-5659.999495325866
 20
4000.00018145587
 30
0.0
 11
-2014.285714285714
 21
4000.00018145587
 31
0.0
  0
LINE
  5
B1
330
1F
100
AcDbEntity
  8
0-A_文字
  6
Continuous
 62
    92
370
    13
100
AcDbLine
 10
-5659.999495325866
 20
3730.00018145587
 30
0.0
 11
-2014.285714285714
 21
3730.00018145587
 31
0.0
  0
MTEXT
  5
B2
330
1F
100
AcDbEntity
  8
F-A_文字
  6
Continuous
 62
     7
370
     0
100
AcDbMText
 10
-5080.081323642279
 20
-4045.07013344681
 30
0.0
 40
79.85960526315785
 41
3982.5
 46
0.0
 71
     7
 72
     1
  1
{\fＭＳ ゴシック|b0|i0|c128|p49;ドレタス　クローゼットドア  調整枠　３方枠＋直置敷居　枠外H2,050　枠外W3,393}
 73
     1
 44
1.0
  0
MTEXT
  5
B3
330
1F
100
AcDbEntity
  8
F-A_文字
  6
Continuous
 62
     7
370
     9
100
AcDbMText
 10
5096.167700144057
 20
-4147.857012699984
 30
0.0
 40
74.295
 41
97.5
 46
0.0
 71
     7
 72
     1
  1
{\fＭＳ ゴシック|b0|i0|c128|p49;05}
 73
     1
 44
1.0
  0
LINE
  5
B4
330
1F
100
AcDbEntity
  8
0-0_補助線
  6
JWW_HOJO
 62
   120
370
     5
100
AcDbLine
 10
2780.519071396427
 20
2781.945146596495
 30
0.0
 11
-2763.480532699861
 21
2781.945146596495
 31
0.0
  0
LINE
  5
B5
330
1F
100
AcDbEntity
  8
0-0_補助線
  6
JWW_HOJO
 62
   120
370
     5
100
AcDbLine
 10
2780.519071396427
 20
3141.945146596495
 30
0.0
 11
-2763.480532699861
 21
3141.945146596495
 31
0.0
  0
LINE
  5
B6
330
1F
100
AcDbEntity
  8
0-0_補助線
  6
JWW_HOJO
 62
   120
370
     5
100
AcDbLine
 10
2780.519071396427
 20
2961.945146596495
 30
0.0
 11
-2763.480532699861
 21
2961.945146596495
 31
0.0
  0
LINE
  5
B7
330
1F
100
AcDbEntity
  8
0-1_通り芯
  6
JWW_CENTER1
 62
   120
370
     5
100
AcDbLine
 10
2780.519071396427
 20
2361.945146596495
 30
0.0
 11
-2763.480532699861
 21
2361.945146596495
 31
0.0
  0
LINE
  5
B8
330
1F
100
AcDbEntity
  8
0-0_補助線
  6
Continuous
 62
   120
370
     5
100
AcDbLine
 10
-1983.48073065172
 20
2324.359196304034
 30
0.0
 11
-1998.48073065172
 21
2324.359196304034
 31
0.0
  0
LWPOLYLINE
  5
B9
330
1F
100
AcDbEntity
  8
0-0_補助線
  6
Continuous
 62
     7
370
     9
100
AcDbPolyline
 90
        4
 70
     1
 43
3.0
 10
-1981.98073065172
 20
2324.359196304034
 42
0.4142135623731
 10
-1983.48073065172
 20
2325.859196304033
 42
0.4142135623731
 10
-1984.98073065172
 20
2324.359196304034
 42
0.4142135623731
 10
-1983.48073065172
 20
2322.859196304034
 42
0.4142135623731
  0
LWPOLYLINE
  5
BA
330
1F
100
AcDbEntity
  8
0-0_補助線
  6
Continuous
 62
     7
370
     9
100
AcDbPolyline
 90
        4
 70
     1
 43
3.0
 10
-1996.98073065172
 20
2324.359196304034
 42
0.4142135623731
 10
-1998.48073065172
 20
2325.859196304033
 42
0.4142135623731
 10
-1999.98073065172
 20
2324.359196304034
 42
0.4142135623731
 10
-1998.48073065172
 20
2322.859196304034
 42
0.4142135623731
  0
LINE
  5
BB
330
1F
100
AcDbEntity
  8
0-0_補助線
  6
Continuous
 62
   120
370
     5
100
AcDbLine
 10
-1998.48073065172
 20
2324.359196304034
 30
0.0
 11
-2019.480730651718
 21
2324.359196304034
 31
0.0
  0
LWPOLYLINE
  5
BC
330
1F
100
AcDbEntity
  8
0-0_補助線
  6
Continuous
 62
     7
370
     9
100
AcDbPolyline
 90
        4
 70
     1
 43
3.0
 10
-2017.980730651718
 20
2324.359196304034
 42
0.4142135623731
 10
-2019.480730651718
 20
2325.859196304033
 42
0.4142135623731
 10
-2020.980730651718
 20
2324.359196304034
 42
0.4142135623731
 10
-2019.480730651718
 20
2322.859196304034
 42
0.4142135623731
  0
LINE
  5
BD
330
1F
100
AcDbEntity
  8
0-0_補助線
  6
Continuous
 62
   120
370
     5
100
AcDbLine
 10
-2019.480730651718
 20
2324.359196304034
 30
0.0
 11
-2019.480730651718
 21
2405.688459527219
 31
0.0
  0
MTEXT
  5
BE
330
1F
100
AcDbEntity
  8
0-0_補助線
  6
Continuous
 62
     7
370
   211
100
AcDbMText
 10
-1973.09427573937
 20
2325.079196304033
 30
0.0
 40
91.43999999999912
 41
179.9999999999983
 46
0.0
 71
     7
 72
     1
  1
{\fＭＳ ゴシック|b0|i0|c128|p49;2.5}
 73
     1
 44
1.0
  0
LINE
  5
BF
330
1F
100
AcDbEntity
  8
0-7_金物
  6
Continuous
 62
     7
370
     9
100
AcDbLine
 10
2198.518932830122
 20
2271.945220828442
 30
0.0
 11
2198.518932830122
 21
2451.945072364548
 31
0.0
  0
LINE
  5
C0
330
1F
100
AcDbEntity
  8
0-7_金物
  6
Continuous
 62
     7
370
     9
100
AcDbLine
 10
2210.519269348282
 20
2451.945072364548
 30
0.0
 11
2198.518932830122
 21
2451.945072364548
 31
0.0
  0
LINE
  5
C1
330
1F
100
AcDbEntity
  8
0-7_金物
  6
Continuous
 62
     7
370
     9
100
AcDbLine
 10
2210.519269348282
 20
2271.945220828442
 30
0.0
 11
2198.518932830122
 21
2271.945220828442
 31
0.0
  0
LINE
  5
C2
330
1F
100
AcDbEntity
  8
0-7_金物
  6
Continuous
 62
     7
370
     9
100
AcDbLine
 10
2198.518932830122
 20
2301.945319804371
 30
0.0
 11
2186.519338631432
 21
2301.945319804371
 31
0.0
  0
LINE
  5
C3
330
1F
100
AcDbEntity
  8
0-7_金物
  6
Continuous
 62
     7
370
     9
100
AcDbLine
 10
2198.518932830122
 20
2421.944973388618
 30
0.0
 11
2186.519338631432
 21
2421.944973388618
 31
0.0
  0
LINE
  5
C4
330
1F
100
AcDbEntity
  8
0-7_金物
  6
Continuous
 62
     7
370
     9
100
AcDbLine
 10
2186.519338631432
 20
2301.945319804371
 30
0.0
 11
2186.519338631432
 21
2421.944973388618
 31
0.0
  0
LINE
  5
C5
330
1F
100
AcDbEntity
  8
0-7_金物
  6
Continuous
 62
     7
370
     9
100
AcDbLine
 10
2186.519338631432
 20
2415.945547449008
 30
0.0
 11
2180.519269348282
 21
2415.945547449008
 31
0.0
  0
LINE
  5
C6
330
1F
100
AcDbEntity
  8
0-7_金物
  6
Continuous
 62
     7
370
     9
100
AcDbLine
 10
2186.519338631432
 20
2307.945488063449
 30
0.0
 11
2180.519269348282
 21
2307.945488063449
 31
0.0
  0
LINE
  5
C7
330
1F
100
AcDbEntity
  8
0-7_金物
  6
Continuous
 62
     7
370
     9
100
AcDbLine
 10
2210.519269348282
 20
2271.945220828442
 30
0.0
 11
2210.519269348282
 21
2451.945072364548
 31
0.0
  0
LINE
  5
C8
330
1F
100
AcDbEntity
  8
0-7_金物
  6
Continuous
 62
     7
370
     9
100
AcDbLine
 10
-2181.48039413356
 20
2271.945220828442
 30
0.0
 11
-2181.48039413356
 21
2451.945072364548
 31
0.0
  0
LINE
  5
C9
330
1F
100
AcDbEntity
  8
0-7_金物
  6
Continuous
 62
     7
370
     9
100
AcDbLine
 10
-2193.48073065172
 20
2451.945072364548
 30
0.0
 11
-2181.48039413356
 21
2451.945072364548
 31
0.0
  0
LINE
  5
CA
330
1F
100
AcDbEntity
  8
0-7_金物
  6
Continuous
 62
     7
370
     9
100
AcDbLine
 10
-2193.48073065172
 20
2271.945220828442
 30
0.0
 11
-2181.48039413356
 21
2271.945220828442
 31
0.0
  0
LINE
  5
CB
330
1F
100
AcDbEntity
  8
0-7_金物
  6
Continuous
 62
     7
370
     9
100
AcDbLine
 10
-2181.48039413356
 20
2301.945319804371
 30
0.0
 11
-2169.48079993487
 21
2301.945319804371
 31
0.0
  0
LINE
  5
CC
330
1F
100
AcDbEntity
  8
0-7_金物
  6
Continuous
 62
     7
370
     9
100
AcDbLine
 10
-2181.48039413356
 20
2421.944973388618
 30
0.0
 11
-2169.48079993487
 21
2421.944973388618
 31
0.0
  0
LINE
  5
CD
330
1F
100
AcDbEntity
  8
0-7_金物
  6
Continuous
 62
     7
370
     9
100
AcDbLine
 10
-2169.48079993487
 20
2301.945319804371
 30
0.0
 11
-2169.48079993487
 21
2421.944973388618
 31
0.0
  0
LINE
  5
CE
330
1F
100
AcDbEntity
  8
0-7_金物
  6
Continuous
 62
     7
370
     9
100
AcDbLine
 10
-2169.48079993487
 20
2415.945547449008
 30
0.0
 11
-2163.48073065172
 21
2415.945547449008
 31
0.0
  0
LINE
  5
CF
330
1F
100
AcDbEntity
  8
0-7_金物
  6
Continuous
 62
     7
370
     9
100
AcDbLine
 10
-2169.48079993487
 20
2307.945488063449
 30
0.0
 11
-2163.48073065172
 21
2307.945488063449
 31
0.0
  0
LINE
  5
D0
330
1F
100
AcDbEntity
  8
0-7_金物
  6
Continuous
 62
     7
370
     9
100
AcDbLine
 10
-2193.48073065172
 20
2271.945220828442
 30
0.0
 11
-2193.48073065172
 21
2451.945072364548
 31
0.0
  0
MTEXT
  5
D1
330
1F
100
AcDbEntity
  8
0-0_補助線
  6
Continuous
 62
     7
370
   211
100
AcDbMText
 10
-2176.885952343065
 20
2325.079196304033
 30
0.0
 40
91.43999999999912
 41
179.9999999999983
 46
0.0
 71
     7
 72
     1
  1
{\fＭＳ ゴシック|b0|i0|c128|p49;3.5}
 73
     1
 44
1.0
  0
LINE
  5
D2
330
1F
100
AcDbEntity
  8
0-B_寸法
  6
Continuous
 62
   120
370
     5
100
AcDbLine
 10
-2193.48073065172
 20
3141.945146596495
 30
0.0
 11
2210.519269348282
 21
3141.945146596495
 31
0.0
  0
LWPOLYLINE
  5
D3
330
1F
100
AcDbEntity
  8
0-B_寸法
  6
Continuous
 62
     7
370
     9
100
AcDbPolyline
 90
        4
 70
     1
 43
3.0
 10
-2191.98073065172
 20
3141.945146596495
 42
0.4142135623731
 10
-2193.48073065172
 20
3143.445146596495
 42
0.4142135623731
 10
-2194.98073065172
 20
3141.945146596495
 42
0.4142135623731
 10
-2193.48073065172
 20
3140.445146596495
 42
0.4142135623731
  0
LWPOLYLINE
  5
D4
330
1F
100
AcDbEntity
  8
0-B_寸法
  6
Continuous
 62
     7
370
     9
100
AcDbPolyline
 90
        4
 70
     1
 43
3.0
 10
2212.019269348281
 20
3141.945146596495
 42
0.4142135623731
 10
2210.519269348282
 20
3143.445146596495
 42
0.4142135623731
 10
2209.019269348282
 20
3141.945146596495
 42
0.4142135623731
 10
2210.519269348282
 20
3140.445146596495
 42
0.4142135623731
  0
LINE
  5
D5
330
1F
100
AcDbEntity
  8
0-B_寸法
  6
Continuous
 62
   120
370
     5
100
AcDbLine
 10
-2193.48073065172
 20
3141.945146596495
 30
0.0
 11
-2193.48073065172
 21
2781.945146596495
 31
0.0
  0
LINE
  5
D6
330
1F
100
AcDbEntity
  8
0-B_寸法
  6
Continuous
 62
   120
370
     5
100
AcDbLine
 10
2210.519269348282
 20
3141.945146596495
 30
0.0
 11
2210.519269348282
 21
2781.945146596495
 31
0.0
  0
ARC
  5
D7
330
1F
100
AcDbEntity
  8
0-6_扉
  6
JWW_DASHED2
 62
    40
370
    15
100
AcDbCircle
 10
1719.43590923793
 20
2557.712520566674
 30
0.0
 40
18.0
100
AcDbArc
 50
85.6539792783598
 51
175.65397927836
  0
LINE
  5
D8
330
1F
100
AcDbEntity
  8
0-6_扉
  6
JWW_DASHED2
 62
    40
370
    15
100
AcDbLine
 10
1810.541155940164
 20
2568.840594224114
 30
0.0
 11
1720.799943023124
 21
2575.660763150083
 31
0.0
  0
ARC
  5
D9
330
1F
100
AcDbEntity
  8
0-6_扉
  6
JWW_DASHED2
 62
    40
370
    15
100
AcDbCircle
 10
1809.177122154969
 20
2550.892351640705
 30
0.0
 40
18.0
100
AcDbArc
 50
355.6539792783599
 51
85.6539792783597
  0
ARC
  5
DA
330
1F
100
AcDbEntity
  8
0-6_扉
  6
JWW_DASHED2
 62
    40
370
    15
100
AcDbCircle
 10
1376.208724848729
 20
2557.712520566678
 30
0.0
 40
18.0
100
AcDbArc
 50
4.346020721638975
 51
94.34602072163908
  0
LINE
  5
DB
330
1F
100
AcDbEntity
  8
0-6_扉
  6
JWW_DASHED2
 62
    40
370
    15
100
AcDbLine
 10
1285.103478146495
 20
2568.84059422412
 30
0.0
 11
1374.844691063533
 21
2575.660763150086
 31
0.0
  0
ARC
  5
DC
330
1F
100
AcDbEntity
  8
0-6_扉
  6
JWW_DASHED2
 62
    40
370
    15
100
AcDbCircle
 10
1286.467511931688
 20
2550.89235164071
 30
0.0
 40
18.0
100
AcDbArc
 50
94.34602072163908
 51
184.3460207216391
  0
LINE
  5
DD
330
1F
100
AcDbEntity
  8
0-6_扉
  6
JWW_DASHED2
 62
    40
370
    15
100
AcDbLine
 10
1827.125364738377
 20
2549.528317855515
 30
0.0
 11
1793.489848862657
 21
2106.945146596495
 31
0.0
  0
LINE
  5
DE
330
1F
100
AcDbEntity
  8
0-6_扉
  6
JWW_DASHED2
 62
    40
370
    15
100
AcDbLine
 10
1268.519269348283
 20
2549.52831785552
 30
0.0
 11
1302.154785223994
 21
2106.945146596495
 31
0.0
  0
LINE
  5
DF
330
1F
100
AcDbEntity
  8
0-6_扉
  6
JWW_DASHED2
 62
    40
370
    15
100
AcDbLine
 10
1394.156967432135
 20
2559.076554351872
 30
0.0
 11
1428.518131911576
 21
2106.945146596495
 31
0.0
  0
LINE
  5
E0
330
1F
100
AcDbEntity
  8
0-6_扉
  6
JWW_DASHED2
 62
    40
370
    15
100
AcDbLine
 10
1701.487666654523
 20
2559.076554351869
 30
0.0
 11
1667.126502175074
 21
2106.945146596495
 31
0.0
  0
LINE
  5
E1
330
1F
100
AcDbEntity
  8
0-1_通り芯
  6
JWW_CENTER1
 62
   120
370
     5
100
AcDbLine
 10
1268.519269348282
 20
2781.945146596495
 30
0.0
 11
1268.519269348282
 21
2549.52831785552
 31
0.0
  0
LWPOLYLINE
  5
E2
330
1F
100
AcDbEntity
  8
0-B_寸法
  6
Continuous
 62
     7
370
     9
100
AcDbPolyline
 90
        4
 70
     1
 43
3.0
 10
1270.019269348282
 20
2961.945146596495
 42
0.4142135623731
 10
1268.519269348282
 20
2963.445146596495
 42
0.4142135623731
 10
1267.019269348282
 20
2961.945146596495
 42
0.4142135623731
 10
1268.519269348282
 20
2960.445146596495
 42
0.4142135623731
  0
LINE
  5
E3
330
1F
100
AcDbEntity
  8
0-B_寸法
  6
Continuous
 62
   120
370
     5
100
AcDbLine
 10
1268.519269348282
 20
2961.945146596495
 30
0.0
 11
1268.519269348282
 21
2781.945146596495
 31
0.0
  0
ARC
  5
E4
330
1F
100
AcDbEntity
  8
0-6_扉
  6
JWW_DASHED2
 62
    40
370
    15
100
AcDbCircle
 10
-1702.397370541368
 20
2557.712520566674
 30
0.0
 40
18.0
100
AcDbArc
 50
4.346020721640005
 51
94.34602072164022
  0
LINE
  5
E5
330
1F
100
AcDbEntity
  8
0-6_扉
  6
JWW_DASHED2
 62
    40
370
    15
100
AcDbLine
 10
-1793.502617243602
 20
2568.840594224114
 30
0.0
 11
-1703.761404326562
 21
2575.660763150083
 31
0.0
  0
ARC
  5
E6
330
1F
100
AcDbEntity
  8
0-6_扉
  6
JWW_DASHED2
 62
    40
370
    15
100
AcDbCircle
 10
-1792.138583458408
 20
2550.892351640705
 30
0.0
 40
18.0
100
AcDbArc
 50
94.3460207216403
 51
184.3460207216401
  0
ARC
  5
E7
330
1F
100
AcDbEntity
  8
0-6_扉
  6
JWW_DASHED2
 62
    40
370
    15
100
AcDbCircle
 10
-1359.170186152166
 20
2557.712520566678
 30
0.0
 40
18.0
100
AcDbArc
 50
85.65397927836092
 51
175.653979278361
  0
LINE
  5
E8
330
1F
100
AcDbEntity
  8
0-6_扉
  6
JWW_DASHED2
 62
    40
370
    15
100
AcDbLine
 10
-1268.064939449933
 20
2568.84059422412
 30
0.0
 11
-1357.806152366971
 21
2575.660763150086
 31
0.0
  0
ARC
  5
E9
330
1F
100
AcDbEntity
  8
0-6_扉
  6
JWW_DASHED2
 62
    40
370
    15
100
AcDbCircle
 10
-1269.428973235126
 20
2550.89235164071
 30
0.0
 40
18.0
100
AcDbArc
 50
355.653979278361
 51
85.65397927836094
  0
LINE
  5
EA
330
1F
100
AcDbEntity
  8
0-6_扉
  6
JWW_DASHED2
 62
    40
370
    15
100
AcDbLine
 10
-1810.086826041815
 20
2549.528317855515
 30
0.0
 11
-1776.451310166095
 21
2106.945146596495
 31
0.0
  0
LINE
  5
EB
330
1F
100
AcDbEntity
  8
0-6_扉
  6
JWW_DASHED2
 62
    40
370
    15
100
AcDbLine
 10
-1251.480730651721
 20
2549.52831785552
 30
0.0
 11
-1285.116246527432
 21
2106.945146596495
 31
0.0
  0
LINE
  5
EC
330
1F
100
AcDbEntity
  8
0-6_扉
  6
JWW_DASHED2
 62
    40
370
    15
100
AcDbLine
 10
-1377.118428735573
 20
2559.076554351872
 30
0.0
 11
-1411.479593215013
 21
2106.945146596495
 31
0.0
  0
LINE
  5
ED
330
1F
100
AcDbEntity
  8
0-6_扉
  6
JWW_DASHED2
 62
    40
370
    15
100
AcDbLine
 10
-1684.449127957961
 20
2559.076554351869
 30
0.0
 11
-1650.087963478512
 21
2106.945146596495
 31
0.0
  0
LINE
  5
EE
330
1F
100
AcDbEntity
  8
0-1_通り芯
  6
JWW_CENTER1
 62
   120
370
     5
100
AcDbLine
 10
-1251.480730651719
 20
2781.945146596495
 30
0.0
 11
-1251.480730651719
 21
2549.52831785552
 31
0.0
  0
LWPOLYLINE
  5
EF
330
1F
100
AcDbEntity
  8
0-B_寸法
  6
Continuous
 62
     7
370
     9
100
AcDbPolyline
 90
        4
 70
     1
 43
3.0
 10
-1249.980730651719
 20
2961.945146596495
 42
0.4142135623731
 10
-1251.480730651719
 20
2963.445146596495
 42
0.4142135623731
 10
-1252.980730651719
 20
2961.945146596495
 42
0.4142135623731
 10
-1251.480730651719
 20
2960.445146596495
 42
0.4142135623731
  0
LINE
  5
F0
330
1F
100
AcDbEntity
  8
0-B_寸法
  6
Continuous
 62
   120
370
     5
100
AcDbLine
 10
-1251.480730651719
 20
2961.945146596495
 30
0.0
 11
-1251.480730651719
 21
2781.945146596495
 31
0.0
  0
LINE
  5
F1
330
1F
100
AcDbEntity
  8
0-B_寸法
  6
Continuous
 62
   120
370
     5
100
AcDbLine
 10
-1251.480730651719
 20
2961.945146596495
 30
0.0
 11
1268.519269348282
 21
2961.945146596495
 31
0.0
  0
MTEXT
  5
F2
330
1F
100
AcDbEntity
  8
0-B_寸法
  6
Continuous
 62
     7
370
   211
100
AcDbMText
 10
-381.480730651719
 20
3142.665146596495
 30
0.0
 40
91.44000000000005
 41
780.0000000000005
 46
0.0
 71
     7
 72
     1
  1
{\fＭＳ ゴシック|b0|i0|c128|p49;ＲＯＷ＝3,403}
 73
     1
 44
1.0
  0
MTEXT
  5
F3
330
1F
100
AcDbEntity
  8
0-B_寸法
  6
Continuous
 62
     7
370
   211
100
AcDbMText
 10
-545.5823163591922
 20
2962.665146596495
 30
0.0
 40
91.43999999999993
 41
1139.999999999999
 46
0.0
 71
     7
 72
     1
  1
{\fＭＳ ゴシック|b0|i0|c128|p49;有効開口寸法＝2,849}
 73
     1
 44
1.0
  0
LINE
  5
F4
330
1F
100
AcDbEntity
  8
0-C_ハッチ
  6
Continuous
 62
   120
370
     5
100
AcDbLine
 10
-2163.480730651715
 20
2387.264773392185
 30
0.0
 11
-1983.480730651719
 21
2567.264773392181
 31
0.0
  0
LINE
  5
F5
330
1F
100
AcDbEntity
  8
0-C_ハッチ
  6
Continuous
 62
   120
370
     5
100
AcDbLine
 10
-2163.480730651722
 20
2327.867803772474
 30
0.0
 11
-1983.480730651733
 21
2507.867803772466
 31
0.0
  0
LINE
  5
F6
330
1F
100
AcDbEntity
  8
0-C_ハッチ
  6
Continuous
 62
   120
370
     5
100
AcDbLine
 10
-2163.480730651719
 20
2268.470834152832
 30
0.0
 11
-2014.382713892473
 21
2417.568850912079
 31
0.0
  0
LINE
  5
F7
330
1F
100
AcDbEntity
  8
0-C_ハッチ
  6
Continuous
 62
   120
370
     5
100
AcDbLine
 10
-2163.480730651713
 20
2209.07386453319
 30
0.0
 11
-2019.355709872893
 21
2353.198885312012
 31
0.0
  0
ARC
  5
F8
330
1F
100
AcDbEntity
  8
0-4_枠
  6
Continuous
 62
    92
370
    13
100
AcDbCircle
 10
-1713.480730651718
 20
2361.945146596495
 30
0.0
 40
306.0000000000022
100
AcDbArc
 50
151.9275130641473
 51
208.0724869358527
  0
LINE
  5
F9
330
1F
100
AcDbEntity
  8
0-4_枠
  6
Continuous
 62
    92
370
    13
100
AcDbLine
 10
-2097.480730651719
 20
2190.946220485324
 30
0.0
 11
-2043.480730651719
 21
2190.946220485324
 31
0.0
  0
LINE
  5
FA
330
1F
100
AcDbEntity
  8
0-4_枠
  6
Continuous
 62
    92
370
    13
100
AcDbLine
 10
-2163.480730651719
 20
2172.946220485324
 30
0.0
 11
-2133.480730651719
 21
2172.946220485324
 31
0.0
  0
LINE
  5
FB
330
1F
100
AcDbEntity
  8
0-4_枠
  6
Continuous
 62
    92
370
    13
100
AcDbLine
 10
-2133.480730651719
 20
2130.946220485324
 30
0.0
 11
-2133.480730651719
 21
2172.946220485324
 31
0.0
  0
LINE
  5
FC
330
1F
100
AcDbEntity
  8
0-4_枠
  6
Continuous
 62
    92
370
    13
100
AcDbLine
 10
-2097.480730651719
 20
2130.946220485324
 30
0.0
 11
-2097.480730651719
 21
2190.946220485324
 31
0.0
  0
LINE
  5
FD
330
1F
100
AcDbEntity
  8
0-4_枠
  6
Continuous
 62
    92
370
    13
100
AcDbLine
 10
-2133.480730651719
 20
2130.946220485324
 30
0.0
 11
-2097.480730651719
 21
2130.946220485324
 31
0.0
  0
LINE
  5
FE
330
1F
100
AcDbEntity
  8
0-4_枠
  6
Continuous
 62
    92
370
    13
100
AcDbLine
 10
-2043.480730651719
 20
2130.946220485324
 30
0.0
 11
-2043.480730651719
 21
2190.946220485324
 31
0.0
  0
LINE
  5
FF
330
1F
100
AcDbEntity
  8
0-4_枠
  6
Continuous
 62
    92
370
    13
100
AcDbLine
 10
-2043.480730651719
 20
2130.946220485324
 30
0.0
 11
-2028.068687684596
 21
2130.946220485324
 31
0.0
  0
LINE
  5
100
330
1F
100
AcDbEntity
  8
0-4_枠
  6
Continuous
 62
    92
370
    13
100
AcDbLine
 10
-2028.068687684596
 20
2130.946220485324
 30
0.0
 11
-1983.480730651719
 21
2130.946220485324
 31
0.0
  0
LINE
  5
101
330
1F
100
AcDbEntity
  8
0-4_枠
  6
Continuous
 62
    92
370
    13
100
AcDbLine
 10
-1983.480730651719
 20
2130.946220485324
 30
0.0
 11
-1983.480730651719
 21
2217.945146596495
 31
0.0
  0
LINE
  5
102
330
1F
100
AcDbEntity
  8
0-4_枠
  6
Continuous
 62
    92
370
    13
100
AcDbLine
 10
-2163.480730651719
 20
2172.946220485324
 30
0.0
 11
-2163.480730651719
 21
2592.946220485323
 31
0.0
  0
LINE
  5
103
330
1F
100
AcDbEntity
  8
0-C_ハッチ
  6
Continuous
 62
   120
370
     5
100
AcDbLine
 10
-2163.480730651734
 20
2565.455682251162
 30
0.0
 11
-2135.990192417572
 21
2592.946220485323
 31
0.0
  0
LINE
  5
104
330
1F
100
AcDbEntity
  8
0-C_ハッチ
  6
Continuous
 62
   120
370
     5
100
AcDbLine
 10
-2163.480730651729
 20
2446.661743011819
 30
0.0
 11
-2017.196253178223
 21
2592.946220485323
 31
0.0
  0
LINE
  5
105
330
1F
100
AcDbEntity
  8
0-C_ハッチ
  6
Continuous
 62
   120
370
     5
100
AcDbLine
 10
-2163.480730651717
 20
2506.058712631532
 30
0.0
 11
-2076.593222797927
 21
2592.946220485323
 31
0.0
  0
LINE
  5
106
330
1F
100
AcDbEntity
  8
0-4_枠
  6
Continuous
 62
    92
370
    13
100
AcDbLine
 10
-1983.480730651719
 20
2505.945146596494
 30
0.0
 11
-1983.480730651719
 21
2592.946220485323
 31
0.0
  0
LINE
  5
107
330
1F
100
AcDbEntity
  8
0-4_枠
  6
Continuous
 62
    92
370
    13
100
AcDbLine
 10
-2163.480730651719
 20
2592.946220485323
 30
0.0
 11
-1983.480730651719
 21
2592.946220485323
 31
0.0
  0
LINE
  5
108
330
1F
100
AcDbEntity
  8
0-C_ハッチ
  6
Continuous
 62
   120
370
     5
100
AcDbLine
 10
-2140.211405079877
 20
2172.946220485324
 30
0.0
 11
-2013.147334788086
 21
2300.010290777117
 31
0.0
  0
LINE
  5
109
330
1F
100
AcDbEntity
  8
0-C_ハッチ
  6
Continuous
 62
   120
370
     5
100
AcDbLine
 10
-2062.814435460231
 20
2190.946220485324
 30
0.0
 11
-1999.795721245595
 21
2253.96493469996
 31
0.0
  0
LINE
  5
10A
330
1F
100
AcDbEntity
  8
0-C_ハッチ
  6
Continuous
 62
   120
370
     5
100
AcDbLine
 10
-2122.814435460231
 20
2130.946220485324
 30
0.0
 11
-2097.480730651719
 21
2156.279925293835
 31
0.0
  0
LINE
  5
10B
330
1F
100
AcDbEntity
  8
0-C_ハッチ
  6
Continuous
 62
   120
370
     5
100
AcDbLine
 10
-2043.480730651719
 20
2150.882955674133
 30
0.0
 11
-1983.480730651722
 21
2210.882955674132
 31
0.0
  0
LINE
  5
10C
330
1F
100
AcDbEntity
  8
0-C_ハッチ
  6
Continuous
 62
   120
370
     5
100
AcDbLine
 10
-2004.020496220882
 20
2130.946220485324
 30
0.0
 11
-1983.480730651726
 21
2151.48598605448
 31
0.0
  0
ARC
  5
10D
330
1F
100
AcDbEntity
  8
0-4_枠
  6
Continuous
 62
    92
370
    13
100
AcDbCircle
 10
1730.519269348279
 20
2361.945146596495
 30
0.0
 40
306.0000000000022
100
AcDbArc
 50
331.9275130641473
 51
28.07248693585271
  0
LINE
  5
10E
330
1F
100
AcDbEntity
  8
0-4_枠
  6
Continuous
 62
    92
370
    13
100
AcDbLine
 10
2114.519269348282
 20
2190.946220485324
 30
0.0
 11
2060.519269348281
 21
2190.946220485324
 31
0.0
  0
LINE
  5
10F
330
1F
100
AcDbEntity
  8
0-4_枠
  6
Continuous
 62
    92
370
    13
100
AcDbLine
 10
2180.519269348282
 20
2172.946220485324
 30
0.0
 11
2150.519269348282
 21
2172.946220485324
 31
0.0
  0
LINE
  5
110
330
1F
100
AcDbEntity
  8
0-4_枠
  6
Continuous
 62
    92
370
    13
100
AcDbLine
 10
2150.519269348282
 20
2130.946220485324
 30
0.0
 11
2150.519269348282
 21
2172.946220485324
 31
0.0
  0
LINE
  5
111
330
1F
100
AcDbEntity
  8
0-4_枠
  6
Continuous
 62
    92
370
    13
100
AcDbLine
 10
2114.519269348282
 20
2130.946220485324
 30
0.0
 11
2114.519269348282
 21
2190.946220485324
 31
0.0
  0
LINE
  5
112
330
1F
100
AcDbEntity
  8
0-4_枠
  6
Continuous
 62
    92
370
    13
100
AcDbLine
 10
2150.519269348282
 20
2130.946220485324
 30
0.0
 11
2114.519269348282
 21
2130.946220485324
 31
0.0
  0
LINE
  5
113
330
1F
100
AcDbEntity
  8
0-4_枠
  6
Continuous
 62
    92
370
    13
100
AcDbLine
 10
2060.519269348281
 20
2130.946220485324
 30
0.0
 11
2060.519269348281
 21
2190.946220485324
 31
0.0
  0
LINE
  5
114
330
1F
100
AcDbEntity
  8
0-4_枠
  6
Continuous
 62
    92
370
    13
100
AcDbLine
 10
2060.519269348281
 20
2130.946220485324
 30
0.0
 11
2045.107226381159
 21
2130.946220485324
 31
0.0
  0
LINE
  5
115
330
1F
100
AcDbEntity
  8
0-4_枠
  6
Continuous
 62
    92
370
    13
100
AcDbLine
 10
2045.107226381159
 20
2130.946220485324
 30
0.0
 11
2000.519269348281
 21
2130.946220485324
 31
0.0
  0
LINE
  5
116
330
1F
100
AcDbEntity
  8
0-4_枠
  6
Continuous
 62
    92
370
    13
100
AcDbLine
 10
2000.519269348281
 20
2130.946220485324
 30
0.0
 11
2000.519269348281
 21
2217.945146596495
 31
0.0
  0
LINE
  5
117
330
1F
100
AcDbEntity
  8
0-4_枠
  6
Continuous
 62
    92
370
    13
100
AcDbLine
 10
2180.519269348282
 20
2172.946220485324
 30
0.0
 11
2180.519269348282
 21
2592.946220485323
 31
0.0
  0
LINE
  5
118
330
1F
100
AcDbEntity
  8
0-4_枠
  6
Continuous
 62
    92
370
    13
100
AcDbLine
 10
2000.519269348281
 20
2505.945146596494
 30
0.0
 11
2000.519269348281
 21
2592.946220485323
 31
0.0
  0
LINE
  5
119
330
1F
100
AcDbEntity
  8
0-4_枠
  6
Continuous
 62
    92
370
    13
100
AcDbLine
 10
2180.519269348282
 20
2592.946220485323
 30
0.0
 11
2000.519269348281
 21
2592.946220485323
 31
0.0
  0
LINE
  5
11A
330
1F
100
AcDbEntity
  8
0-C_ハッチ
  6
Continuous
 62
   120
370
     5
100
AcDbLine
 10
2129.54451068405
 20
2130.946220485324
 30
0.0
 11
2150.519269348285
 21
2151.920979149559
 31
0.0
  0
LINE
  5
11B
330
1F
100
AcDbEntity
  8
0-C_ハッチ
  6
Continuous
 62
   120
370
     5
100
AcDbLine
 10
2171.544510684038
 20
2172.94622048531
 30
0.0
 11
2180.519269348297
 21
2181.92097914957
 31
0.0
  0
LINE
  5
11C
330
1F
100
AcDbEntity
  8
0-C_ハッチ
  6
Continuous
 62
   120
370
     5
100
AcDbLine
 10
2114.519269348265
 20
2175.317948769241
 30
0.0
 11
2180.519269348282
 21
2241.317948769256
 31
0.0
  0
LINE
  5
11D
330
1F
100
AcDbEntity
  8
0-C_ハッチ
  6
Continuous
 62
   120
370
     5
100
AcDbLine
 10
2010.750571444698
 20
2130.946220485321
 30
0.0
 11
2060.519269348285
 21
2180.714918388908
 31
0.0
  0
LINE
  5
11E
330
1F
100
AcDbEntity
  8
0-C_ハッチ
  6
Continuous
 62
   120
370
     5
100
AcDbLine
 10
2070.750571444699
 20
2190.946220485321
 30
0.0
 11
2180.519269348289
 21
2300.714918388912
 31
0.0
  0
LINE
  5
11F
330
1F
100
AcDbEntity
  8
0-C_ハッチ
  6
Continuous
 62
   120
370
     5
100
AcDbLine
 10
2000.51926934829
 20
2180.111888008561
 30
0.0
 11
2180.519269348289
 21
2360.111888008559
 31
0.0
  0
LINE
  5
120
330
1F
100
AcDbEntity
  8
0-C_ハッチ
  6
Continuous
 62
   120
370
     5
100
AcDbLine
 10
2017.931929979004
 20
2256.921518258976
 30
0.0
 11
2180.519269348289
 21
2419.508857628261
 31
0.0
  0
LINE
  5
121
330
1F
100
AcDbEntity
  8
0-C_ハッチ
  6
Continuous
 62
   120
370
     5
100
AcDbLine
 10
2035.202610726469
 20
2333.589168626088
 30
0.0
 11
2180.519269348285
 21
2478.905827247905
 31
0.0
  0
LINE
  5
122
330
1F
100
AcDbEntity
  8
0-C_ハッチ
  6
Continuous
 62
   120
370
     5
100
AcDbLine
 10
2034.964923656243
 20
2392.748451175564
 30
0.0
 11
2180.519269348285
 21
2538.302796867607
 31
0.0
  0
LINE
  5
123
330
1F
100
AcDbEntity
  8
0-C_ハッチ
  6
Continuous
 62
   120
370
     5
100
AcDbLine
 10
2025.638579785963
 20
2442.819076924932
 30
0.0
 11
2175.765723346355
 21
2592.946220485323
 31
0.0
  0
LINE
  5
124
330
1F
100
AcDbEntity
  8
0-C_ハッチ
  6
Continuous
 62
   120
370
     5
100
AcDbLine
 10
2009.991717451584
 20
2486.5691842102
 30
0.0
 11
2116.368753726696
 21
2592.946220485312
 31
0.0
  0
LINE
  5
125
330
1F
100
AcDbEntity
  8
0-C_ハッチ
  6
Continuous
 62
   120
370
     5
100
AcDbLine
 10
2000.51926934829
 20
2536.493705726607
 30
0.0
 11
2056.971784106993
 21
2592.94622048531
 31
0.0
  0
LINE
  5
126
330
1F
100
AcDbEntity
  8
0-0_補助線
  6
JWW_HOJO
 62
   120
370
     5
100
AcDbLine
 10
-2763.480532699861
 20
1086.945146596495
 30
0.0
 11
-2763.480532699861
 21
3141.945146596495
 31
0.0
  0
LINE
  5
127
330
1F
100
AcDbEntity
  8
0-0_補助線
  6
JWW_HOJO
 62
   120
370
     5
100
AcDbLine
 10
2780.519071396427
 20
1086.945146596495
 30
0.0
 11
2780.519071396427
 21
3141.945146596495
 31
0.0
  0
LINE
  5
128
330
1F
100
AcDbEntity
  8
0-0_補助線
  6
JWW_HOJO
 62
   120
370
     5
100
AcDbLine
 10
2780.519071396427
 20
1446.945146596495
 30
0.0
 11
-2763.480532699861
 21
1446.945146596495
 31
0.0
  0
LINE
  5
129
330
1F
100
AcDbEntity
  8
0-0_補助線
  6
JWW_HOJO
 62
   120
370
     5
100
AcDbLine
 10
2780.519071396427
 20
1266.945146596495
 30
0.0
 11
-2763.480532699861
 21
1266.945146596495
 31
0.0
  0
LINE
  5
12A
330
1F
100
AcDbEntity
  8
0-0_補助線
  6
JWW_HOJO
 62
   120
370
     5
100
AcDbLine
 10
2780.519071396427
 20
1086.945146596495
 30
0.0
 11
-2763.480532699861
 21
1086.945146596495
 31
0.0
  0
LINE
  5
12B
330
1F
100
AcDbEntity
  8
0-0_補助線
  6
JWW_HOJO
 62
   120
370
     5
100
AcDbLine
 10
2780.519071396427
 20
1626.945146596495
 30
0.0
 11
-2763.480532699861
 21
1626.945146596495
 31
0.0
  0
LINE
  5
12C
330
1F
100
AcDbEntity
  8
0-0_補助線
  6
JWW_HOJO
 62
   120
370
     5
100
AcDbLine
 10
2780.519071396427
 20
1806.945146596495
 30
0.0
 11
-2763.480532699861
 21
1806.945146596495
 31
0.0
  0
LINE
  5
12D
330
1F
100
AcDbEntity
  8
0-0_補助線
  6
JWW_HOJO
 62
     7
370
     9
100
AcDbLine
 10
-1983.48073065172
 20
906.9451465964946
 30
0.0
 11
-1983.48073065172
 21
3321.945146596495
 31
0.0
  0
LINE
  5
12E
330
1F
100
AcDbEntity
  8
0-0_補助線
  6
JWW_HOJO
 62
     7
370
     9
100
AcDbLine
 10
2000.519269348282
 20
906.9451465964946
 30
0.0
 11
2000.519269348282
 21
3321.945146596495
 31
0.0
  0
LINE
  5
12F
330
1F
100
AcDbEntity
  8
0-0_補助線
  6
JWW_HOJO
 62
     7
370
     9
100
AcDbLine
 10
-1501.230730651723
 20
906.9451465964946
 30
0.0
 11
-1501.230730651723
 21
3321.945146596495
 31
0.0
  0
LINE
  5
130
330
1F
100
AcDbEntity
  8
0-0_補助線
  6
JWW_HOJO
 62
     7
370
     9
100
AcDbLine
 10
-997.9807306517237
 20
906.9451465964946
 30
0.0
 11
-997.9807306517237
 21
3321.945146596495
 31
0.0
  0
LINE
  5
131
330
1F
100
AcDbEntity
  8
0-0_補助線
  6
JWW_HOJO
 62
     7
370
     9
100
AcDbLine
 10
-494.7307306517217
 20
906.9451465964946
 30
0.0
 11
-494.7307306517217
 21
3321.945146596495
 31
0.0
  0
LINE
  5
132
330
1F
100
AcDbEntity
  8
0-0_補助線
  6
JWW_HOJO
 62
     7
370
     9
100
AcDbLine
 10
8.519269348276737
 20
906.9451465964946
 30
0.0
 11
8.519269348276737
 21
3321.945146596495
 31
0.0
  0
LINE
  5
133
330
1F
100
AcDbEntity
  8
0-0_補助線
  6
JWW_HOJO
 62
     7
370
     9
100
AcDbLine
 10
511.7692693482765
 20
906.9451465964946
 30
0.0
 11
511.7692693482765
 21
3321.945146596495
 31
0.0
  0
LINE
  5
134
330
1F
100
AcDbEntity
  8
0-0_補助線
  6
JWW_HOJO
 62
     7
370
     9
100
AcDbLine
 10
1015.019269348281
 20
906.9451465964946
 30
0.0
 11
1015.019269348281
 21
3321.945146596495
 31
0.0
  0
LINE
  5
135
330
1F
100
AcDbEntity
  8
0-0_補助線
  6
JWW_HOJO
 62
     7
370
     9
100
AcDbLine
 10
1518.269269348276
 20
906.9451465964946
 30
0.0
 11
1518.269269348276
 21
3321.945146596495
 31
0.0
  0
LINE
  5
136
330
1F
100
AcDbEntity
  8
0-B_寸法
  6
Continuous
 62
   120
370
     5
100
AcDbLine
 10
-1998.480730651722
 20
1626.945146596495
 30
0.0
 11
-1504.230730651724
 21
1626.945146596495
 31
0.0
  0
LWPOLYLINE
  5
137
330
1F
100
AcDbEntity
  8
0-B_寸法
  6
Continuous
 62
     7
370
     9
100
AcDbPolyline
 90
        4
 70
     1
 43
3.0
 10
-1996.980730651722
 20
1626.945146596495
 42
0.4142135623731
 10
-1998.480730651722
 20
1628.445146596495
 42
0.4142135623731
 10
-1999.980730651722
 20
1626.945146596495
 42
0.4142135623731
 10
-1998.480730651722
 20
1625.445146596495
 42
0.4142135623731
  0
LINE
  5
138
330
1F
100
AcDbEntity
  8
0-B_寸法
  6
Continuous
 62
   120
370
     5
100
AcDbLine
 10
-1998.480730651722
 20
1626.945146596495
 30
0.0
 11
-1998.480730651722
 21
1806.945146596495
 31
0.0
  0
LINE
  5
139
330
1F
100
AcDbEntity
  8
0-B_寸法
  6
Continuous
 62
   120
370
     5
100
AcDbLine
 10
-1504.230730651724
 20
1626.945146596495
 30
0.0
 11
-1504.230730651724
 21
1806.945146596495
 31
0.0
  0
LINE
  5
13A
330
1F
100
AcDbEntity
  8
0-B_寸法
  6
Continuous
 62
   120
370
     5
100
AcDbLine
 10
-1498.230730651723
 20
1626.945146596495
 30
0.0
 11
-1498.230730651723
 21
1806.945146596495
 31
0.0
  0
LINE
  5
13B
330
1F
100
AcDbEntity
  8
0-B_寸法
  6
Continuous
 62
   120
370
     5
100
AcDbLine
 10
-1003.980730651724
 20
1626.945146596495
 30
0.0
 11
-1003.980730651724
 21
1806.945146596495
 31
0.0
  0
LINE
  5
13C
330
1F
100
AcDbEntity
  8
0-B_寸法
  6
Continuous
 62
   120
370
     5
100
AcDbLine
 10
-991.9807306517231
 20
1626.945146596495
 30
0.0
 11
-991.9807306517231
 21
1806.945146596495
 31
0.0
  0
LINE
  5
13D
330
1F
100
AcDbEntity
  8
0-B_寸法
  6
Continuous
 62
   120
370
     5
100
AcDbLine
 10
-497.7307306517233
 20
1626.945146596495
 30
0.0
 11
-497.7307306517233
 21
1806.945146596495
 31
0.0
  0
LINE
  5
13E
330
1F
100
AcDbEntity
  8
0-B_寸法
  6
Continuous
 62
   120
370
     5
100
AcDbLine
 10
-491.7307306517193
 20
1626.945146596495
 30
0.0
 11
-491.7307306517193
 21
1806.945146596495
 31
0.0
  0
LINE
  5
13F
330
1F
100
AcDbEntity
  8
0-B_寸法
  6
Continuous
 62
   120
370
     5
100
AcDbLine
 10
2.519269348275373
 20
1626.945146596495
 30
0.0
 11
2.519269348275373
 21
1806.945146596495
 31
0.0
  0
LINE
  5
140
330
1F
100
AcDbEntity
  8
0-B_寸法
  6
Continuous
 62
   120
370
     5
100
AcDbLine
 10
14.51926934827725
 20
1626.945146596495
 30
0.0
 11
14.51926934827725
 21
1806.945146596495
 31
0.0
  0
LINE
  5
141
330
1F
100
AcDbEntity
  8
0-B_寸法
  6
Continuous
 62
   120
370
     5
100
AcDbLine
 10
508.7692693482762
 20
1626.945146596495
 30
0.0
 11
508.7692693482762
 21
1806.945146596495
 31
0.0
  0
LINE
  5
142
330
1F
100
AcDbEntity
  8
0-B_寸法
  6
Continuous
 62
   120
370
     5
100
AcDbLine
 10
514.7692693482759
 20
1626.945146596495
 30
0.0
 11
514.7692693482759
 21
1806.945146596495
 31
0.0
  0
LINE
  5
143
330
1F
100
AcDbEntity
  8
0-B_寸法
  6
Continuous
 62
   120
370
     5
100
AcDbLine
 10
1009.019269348286
 20
1626.945146596495
 30
0.0
 11
1009.019269348286
 21
1806.945146596495
 31
0.0
  0
LINE
  5
144
330
1F
100
AcDbEntity
  8
0-B_寸法
  6
Continuous
 62
   120
370
     5
100
AcDbLine
 10
1021.019269348276
 20
1626.945146596495
 30
0.0
 11
1021.019269348276
 21
1806.945146596495
 31
0.0
  0
LINE
  5
145
330
1F
100
AcDbEntity
  8
0-B_寸法
  6
Continuous
 62
   120
370
     5
100
AcDbLine
 10
1515.269269348276
 20
1626.945146596495
 30
0.0
 11
1515.269269348276
 21
1806.945146596495
 31
0.0
  0
LINE
  5
146
330
1F
100
AcDbEntity
  8
0-B_寸法
  6
Continuous
 62
   120
370
     5
100
AcDbLine
 10
1521.269269348276
 20
1626.945146596495
 30
0.0
 11
2015.519269348285
 21
1626.945146596495
 31
0.0
  0
LWPOLYLINE
  5
147
330
1F
100
AcDbEntity
  8
0-B_寸法
  6
Continuous
 62
     7
370
     9
100
AcDbPolyline
 90
        4
 70
     1
 43
3.0
 10
2017.019269348285
 20
1626.945146596495
 42
0.4142135623731
 10
2015.519269348285
 20
1628.445146596495
 42
0.4142135623731
 10
2014.019269348285
 20
1626.945146596495
 42
0.4142135623731
 10
2015.519269348285
 20
1625.445146596495
 42
0.4142135623731
  0
LINE
  5
148
330
1F
100
AcDbEntity
  8
0-B_寸法
  6
Continuous
 62
   120
370
     5
100
AcDbLine
 10
1521.269269348276
 20
1626.945146596495
 30
0.0
 11
1521.269269348276
 21
1806.945146596495
 31
0.0
  0
LINE
  5
149
330
1F
100
AcDbEntity
  8
0-B_寸法
  6
Continuous
 62
   120
370
     5
100
AcDbLine
 10
2015.519269348285
 20
1626.945146596495
 30
0.0
 11
2015.519269348285
 21
1806.945146596495
 31
0.0
  0
LINE
  5
14A
330
1F
100
AcDbEntity
  8
0-B_寸法
  6
Continuous
 62
   120
370
     5
100
AcDbLine
 10
-1998.480730651722
 20
1446.945146596495
 30
0.0
 11
-1003.980730651724
 21
1446.945146596495
 31
0.0
  0
LWPOLYLINE
  5
14B
330
1F
100
AcDbEntity
  8
0-B_寸法
  6
Continuous
 62
     7
370
     9
100
AcDbPolyline
 90
        4
 70
     1
 43
3.0
 10
-1996.980730651722
 20
1446.945146596495
 42
0.4142135623731
 10
-1998.480730651722
 20
1448.445146596495
 42
0.4142135623731
 10
-1999.980730651722
 20
1446.945146596495
 42
0.4142135623731
 10
-1998.480730651722
 20
1445.445146596495
 42
0.4142135623731
  0
LINE
  5
14C
330
1F
100
AcDbEntity
  8
0-B_寸法
  6
Continuous
 62
   120
370
     5
100
AcDbLine
 10
-1998.480730651722
 20
1446.945146596495
 30
0.0
 11
-1998.480730651722
 21
1626.945146596495
 31
0.0
  0
LINE
  5
14D
330
1F
100
AcDbEntity
  8
0-B_寸法
  6
Continuous
 62
   120
370
     5
100
AcDbLine
 10
1021.019269348276
 20
1446.945146596495
 30
0.0
 11
2015.519269348285
 21
1446.945146596495
 31
0.0
  0
LWPOLYLINE
  5
14E
330
1F
100
AcDbEntity
  8
0-B_寸法
  6
Continuous
 62
     7
370
     9
100
AcDbPolyline
 90
        4
 70
     1
 43
3.0
 10
2017.019269348285
 20
1446.945146596495
 42
0.4142135623731
 10
2015.519269348285
 20
1448.445146596495
 42
0.4142135623731
 10
2014.019269348285
 20
1446.945146596495
 42
0.4142135623731
 10
2015.519269348285
 20
1445.445146596495
 42
0.4142135623731
  0
LINE
  5
14F
330
1F
100
AcDbEntity
  8
0-B_寸法
  6
Continuous
 62
   120
370
     5
100
AcDbLine
 10
2015.519269348285
 20
1446.945146596495
 30
0.0
 11
2015.519269348285
 21
1626.945146596495
 31
0.0
  0
LWPOLYLINE
  5
150
330
1F
100
AcDbEntity
  8
0-B_寸法
  6
Continuous
 62
     7
370
     9
100
AcDbPolyline
 90
        4
 70
     1
 43
3.0
 10
-1502.730730651724
 20
1626.945146596495
 42
0.4142135623731
 10
-1504.230730651724
 20
1628.445146596495
 42
0.4142135623731
 10
-1505.730730651723
 20
1626.945146596495
 42
0.4142135623731
 10
-1504.230730651724
 20
1625.445146596495
 42
0.4142135623731
  0
LINE
  5
151
330
1F
100
AcDbEntity
  8
0-B_寸法
  6
Continuous
 62
   120
370
     5
100
AcDbLine
 10
-1498.230730651723
 20
1626.945146596495
 30
0.0
 11
-1003.980730651724
 21
1626.945146596495
 31
0.0
  0
LWPOLYLINE
  5
152
330
1F
100
AcDbEntity
  8
0-B_寸法
  6
Continuous
 62
     7
370
     9
100
AcDbPolyline
 90
        4
 70
     1
 43
3.0
 10
-1496.730730651723
 20
1626.945146596495
 42
0.4142135623731
 10
-1498.230730651723
 20
1628.445146596495
 42
0.4142135623731
 10
-1499.730730651723
 20
1626.945146596495
 42
0.4142135623731
 10
-1498.230730651723
 20
1625.445146596495
 42
0.4142135623731
  0
LWPOLYLINE
  5
153
330
1F
100
AcDbEntity
  8
0-B_寸法
  6
Continuous
 62
     7
370
     9
100
AcDbPolyline
 90
        4
 70
     1
 43
3.0
 10
-1002.480730651724
 20
1626.945146596495
 42
0.4142135623731
 10
-1003.980730651724
 20
1628.445146596495
 42
0.4142135623731
 10
-1005.480730651724
 20
1626.945146596495
 42
0.4142135623731
 10
-1003.980730651724
 20
1625.445146596495
 42
0.4142135623731
  0
LINE
  5
154
330
1F
100
AcDbEntity
  8
0-B_寸法
  6
Continuous
 62
   120
370
     5
100
AcDbLine
 10
-991.9807306517231
 20
1626.945146596495
 30
0.0
 11
-497.7307306517233
 21
1626.945146596495
 31
0.0
  0
LWPOLYLINE
  5
155
330
1F
100
AcDbEntity
  8
0-B_寸法
  6
Continuous
 62
     7
370
     9
100
AcDbPolyline
 90
        4
 70
     1
 43
3.0
 10
-990.4807306517232
 20
1626.945146596495
 42
0.4142135623731
 10
-991.9807306517231
 20
1628.445146596495
 42
0.4142135623731
 10
-993.480730651723
 20
1626.945146596495
 42
0.4142135623731
 10
-991.9807306517231
 20
1625.445146596495
 42
0.4142135623731
  0
LWPOLYLINE
  5
156
330
1F
100
AcDbEntity
  8
0-B_寸法
  6
Continuous
 62
     7
370
     9
100
AcDbPolyline
 90
        4
 70
     1
 43
3.0
 10
-496.2307306517233
 20
1626.945146596495
 42
0.4142135623731
 10
-497.7307306517233
 20
1628.445146596495
 42
0.4142135623731
 10
-499.2307306517233
 20
1626.945146596495
 42
0.4142135623731
 10
-497.7307306517233
 20
1625.445146596495
 42
0.4142135623731
  0
LINE
  5
157
330
1F
100
AcDbEntity
  8
0-B_寸法
  6
Continuous
 62
   120
370
     5
100
AcDbLine
 10
-491.7307306517193
 20
1626.945146596495
 30
0.0
 11
2.519269348275373
 21
1626.945146596495
 31
0.0
  0
LWPOLYLINE
  5
158
330
1F
100
AcDbEntity
  8
0-B_寸法
  6
Continuous
 62
     7
370
     9
100
AcDbPolyline
 90
        4
 70
     1
 43
3.0
 10
-490.2307306517193
 20
1626.945146596495
 42
0.4142135623731
 10
-491.7307306517193
 20
1628.445146596495
 42
0.4142135623731
 10
-493.2307306517193
 20
1626.945146596495
 42
0.4142135623731
 10
-491.7307306517193
 20
1625.445146596495
 42
0.4142135623731
  0
LWPOLYLINE
  5
159
330
1F
100
AcDbEntity
  8
0-B_寸法
  6
Continuous
 62
     7
370
     9
100
AcDbPolyline
 90
        4
 70
     1
 43
3.0
 10
4.019269348275373
 20
1626.945146596495
 42
0.4142135623731
 10
2.519269348275373
 20
1628.445146596495
 42
0.4142135623731
 10
1.019269348275373
 20
1626.945146596495
 42
0.4142135623731
 10
2.519269348275373
 20
1625.445146596495
 42
0.4142135623731
  0
LINE
  5
15A
330
1F
100
AcDbEntity
  8
0-B_寸法
  6
Continuous
 62
   120
370
     5
100
AcDbLine
 10
14.51926934827725
 20
1626.945146596495
 30
0.0
 11
508.7692693482762
 21
1626.945146596495
 31
0.0
  0
LWPOLYLINE
  5
15B
330
1F
100
AcDbEntity
  8
0-B_寸法
  6
Continuous
 62
     7
370
     9
100
AcDbPolyline
 90
        4
 70
     1
 43
3.0
 10
16.01926934827725
 20
1626.945146596495
 42
0.4142135623731
 10
14.51926934827725
 20
1628.445146596495
 42
0.4142135623731
 10
13.01926934827725
 20
1626.945146596495
 42
0.4142135623731
 10
14.51926934827725
 20
1625.445146596495
 42
0.4142135623731
  0
LWPOLYLINE
  5
15C
330
1F
100
AcDbEntity
  8
0-B_寸法
  6
Continuous
 62
     7
370
     9
100
AcDbPolyline
 90
        4
 70
     1
 43
3.0
 10
510.2692693482762
 20
1626.945146596495
 42
0.4142135623731
 10
508.7692693482762
 20
1628.445146596495
 42
0.4142135623731
 10
507.2692693482762
 20
1626.945146596495
 42
0.4142135623731
 10
508.7692693482762
 20
1625.445146596495
 42
0.4142135623731
  0
LINE
  5
15D
330
1F
100
AcDbEntity
  8
0-B_寸法
  6
Continuous
 62
   120
370
     5
100
AcDbLine
 10
514.7692693482759
 20
1626.945146596495
 30
0.0
 11
1009.019269348286
 21
1626.945146596495
 31
0.0
  0
LWPOLYLINE
  5
15E
330
1F
100
AcDbEntity
  8
0-B_寸法
  6
Continuous
 62
     7
370
     9
100
AcDbPolyline
 90
        4
 70
     1
 43
3.0
 10
516.2692693482759
 20
1626.945146596495
 42
0.4142135623731
 10
514.7692693482759
 20
1628.445146596495
 42
0.4142135623731
 10
513.2692693482759
 20
1626.945146596495
 42
0.4142135623731
 10
514.7692693482759
 20
1625.445146596495
 42
0.4142135623731
  0
LWPOLYLINE
  5
15F
330
1F
100
AcDbEntity
  8
0-B_寸法
  6
Continuous
 62
     7
370
     9
100
AcDbPolyline
 90
        4
 70
     1
 43
3.0
 10
1010.519269348286
 20
1626.945146596495
 42
0.4142135623731
 10
1009.019269348286
 20
1628.445146596495
 42
0.4142135623731
 10
1007.519269348286
 20
1626.945146596495
 42
0.4142135623731
 10
1009.019269348286
 20
1625.445146596495
 42
0.4142135623731
  0
LINE
  5
160
330
1F
100
AcDbEntity
  8
0-B_寸法
  6
Continuous
 62
   120
370
     5
100
AcDbLine
 10
1021.019269348276
 20
1626.945146596495
 30
0.0
 11
1515.269269348276
 21
1626.945146596495
 31
0.0
  0
LWPOLYLINE
  5
161
330
1F
100
AcDbEntity
  8
0-B_寸法
  6
Continuous
 62
     7
370
     9
100
AcDbPolyline
 90
        4
 70
     1
 43
3.0
 10
1022.519269348276
 20
1626.945146596495
 42
0.4142135623731
 10
1021.019269348276
 20
1628.445146596495
 42
0.4142135623731
 10
1019.519269348276
 20
1626.945146596495
 42
0.4142135623731
 10
1021.019269348276
 20
1625.445146596495
 42
0.4142135623731
  0
LWPOLYLINE
  5
162
330
1F
100
AcDbEntity
  8
0-B_寸法
  6
Continuous
 62
     7
370
     9
100
AcDbPolyline
 90
        4
 70
     1
 43
3.0
 10
1516.769269348276
 20
1626.945146596495
 42
0.4142135623731
 10
1515.269269348276
 20
1628.445146596495
 42
0.4142135623731
 10
1513.769269348276
 20
1626.945146596495
 42
0.4142135623731
 10
1515.269269348276
 20
1625.445146596495
 42
0.4142135623731
  0
LWPOLYLINE
  5
163
330
1F
100
AcDbEntity
  8
0-B_寸法
  6
Continuous
 62
     7
370
     9
100
AcDbPolyline
 90
        4
 70
     1
 43
3.0
 10
1522.769269348276
 20
1626.945146596495
 42
0.4142135623731
 10
1521.269269348276
 20
1628.445146596495
 42
0.4142135623731
 10
1519.769269348276
 20
1626.945146596495
 42
0.4142135623731
 10
1521.269269348276
 20
1625.445146596495
 42
0.4142135623731
  0
LWPOLYLINE
  5
164
330
1F
100
AcDbEntity
  8
0-B_寸法
  6
Continuous
 62
     7
370
     9
100
AcDbPolyline
 90
        4
 70
     1
 43
3.0
 10
-1002.480730651724
 20
1446.945146596495
 42
0.4142135623731
 10
-1003.980730651724
 20
1448.445146596495
 42
0.4142135623731
 10
-1005.480730651724
 20
1446.945146596495
 42
0.4142135623731
 10
-1003.980730651724
 20
1445.445146596495
 42
0.4142135623731
  0
LINE
  5
165
330
1F
100
AcDbEntity
  8
0-B_寸法
  6
Continuous
 62
   120
370
     5
100
AcDbLine
 10
-1003.980730651724
 20
1446.945146596495
 30
0.0
 11
-1003.980730651724
 21
1626.945146596495
 31
0.0
  0
LINE
  5
166
330
1F
100
AcDbEntity
  8
0-B_寸法
  6
Continuous
 62
   120
370
     5
100
AcDbLine
 10
-1003.980730651724
 20
1446.945146596495
 30
0.0
 11
-991.9807306517231
 21
1446.945146596495
 31
0.0
  0
LWPOLYLINE
  5
167
330
1F
100
AcDbEntity
  8
0-B_寸法
  6
Continuous
 62
     7
370
     9
100
AcDbPolyline
 90
        4
 70
     1
 43
3.0
 10
-990.4807306517232
 20
1446.945146596495
 42
0.4142135623731
 10
-991.9807306517231
 20
1448.445146596495
 42
0.4142135623731
 10
-993.480730651723
 20
1446.945146596495
 42
0.4142135623731
 10
-991.9807306517231
 20
1445.445146596495
 42
0.4142135623731
  0
LINE
  5
168
330
1F
100
AcDbEntity
  8
0-B_寸法
  6
Continuous
 62
   120
370
     5
100
AcDbLine
 10
-991.9807306517231
 20
1446.945146596495
 30
0.0
 11
-991.9807306517231
 21
1626.945146596495
 31
0.0
  0
LINE
  5
169
330
1F
100
AcDbEntity
  8
0-B_寸法
  6
Continuous
 62
   120
370
     5
100
AcDbLine
 10
-991.9807306517231
 20
1446.945146596495
 30
0.0
 11
2.519269348275373
 21
1446.945146596495
 31
0.0
  0
LWPOLYLINE
  5
16A
330
1F
100
AcDbEntity
  8
0-B_寸法
  6
Continuous
 62
     7
370
     9
100
AcDbPolyline
 90
        4
 70
     1
 43
3.0
 10
4.019269348275373
 20
1446.945146596495
 42
0.4142135623731
 10
2.519269348275373
 20
1448.445146596495
 42
0.4142135623731
 10
1.019269348275373
 20
1446.945146596495
 42
0.4142135623731
 10
2.519269348275373
 20
1445.445146596495
 42
0.4142135623731
  0
LINE
  5
16B
330
1F
100
AcDbEntity
  8
0-B_寸法
  6
Continuous
 62
   120
370
     5
100
AcDbLine
 10
2.519269348275373
 20
1446.945146596495
 30
0.0
 11
2.519269348275373
 21
1626.945146596495
 31
0.0
  0
LINE
  5
16C
330
1F
100
AcDbEntity
  8
0-B_寸法
  6
Continuous
 62
   120
370
     5
100
AcDbLine
 10
2.519269348275373
 20
1446.945146596495
 30
0.0
 11
14.51926934827725
 21
1446.945146596495
 31
0.0
  0
LWPOLYLINE
  5
16D
330
1F
100
AcDbEntity
  8
0-B_寸法
  6
Continuous
 62
     7
370
     9
100
AcDbPolyline
 90
        4
 70
     1
 43
3.0
 10
16.01926934827725
 20
1446.945146596495
 42
0.4142135623731
 10
14.51926934827725
 20
1448.445146596495
 42
0.4142135623731
 10
13.01926934827725
 20
1446.945146596495
 42
0.4142135623731
 10
14.51926934827725
 20
1445.445146596495
 42
0.4142135623731
  0
LINE
  5
16E
330
1F
100
AcDbEntity
  8
0-B_寸法
  6
Continuous
 62
   120
370
     5
100
AcDbLine
 10
14.51926934827725
 20
1446.945146596495
 30
0.0
 11
14.51926934827725
 21
1626.945146596495
 31
0.0
  0
LINE
  5
16F
330
1F
100
AcDbEntity
  8
0-B_寸法
  6
Continuous
 62
   120
370
     5
100
AcDbLine
 10
14.51926934827725
 20
1446.945146596495
 30
0.0
 11
1009.019269348286
 21
1446.945146596495
 31
0.0
  0
LWPOLYLINE
  5
170
330
1F
100
AcDbEntity
  8
0-B_寸法
  6
Continuous
 62
     7
370
     9
100
AcDbPolyline
 90
        4
 70
     1
 43
3.0
 10
1010.519269348286
 20
1446.945146596495
 42
0.4142135623731
 10
1009.019269348286
 20
1448.445146596495
 42
0.4142135623731
 10
1007.519269348286
 20
1446.945146596495
 42
0.4142135623731
 10
1009.019269348286
 20
1445.445146596495
 42
0.4142135623731
  0
LINE
  5
171
330
1F
100
AcDbEntity
  8
0-B_寸法
  6
Continuous
 62
   120
370
     5
100
AcDbLine
 10
1009.019269348286
 20
1446.945146596495
 30
0.0
 11
1009.019269348286
 21
1626.945146596495
 31
0.0
  0
LINE
  5
172
330
1F
100
AcDbEntity
  8
0-B_寸法
  6
Continuous
 62
   120
370
     5
100
AcDbLine
 10
1009.019269348286
 20
1446.945146596495
 30
0.0
 11
1021.019269348276
 21
1446.945146596495
 31
0.0
  0
LWPOLYLINE
  5
173
330
1F
100
AcDbEntity
  8
0-B_寸法
  6
Continuous
 62
     7
370
     9
100
AcDbPolyline
 90
        4
 70
     1
 43
3.0
 10
1022.519269348276
 20
1446.945146596495
 42
0.4142135623731
 10
1021.019269348276
 20
1448.445146596495
 42
0.4142135623731
 10
1019.519269348276
 20
1446.945146596495
 42
0.4142135623731
 10
1021.019269348276
 20
1445.445146596495
 42
0.4142135623731
  0
LINE
  5
174
330
1F
100
AcDbEntity
  8
0-B_寸法
  6
Continuous
 62
   120
370
     5
100
AcDbLine
 10
1021.019269348276
 20
1446.945146596495
 30
0.0
 11
1021.019269348276
 21
1626.945146596495
 31
0.0
  0
LINE
  5
175
330
1F
100
AcDbEntity
  8
0-B_寸法
  6
Continuous
 62
   120
370
     5
100
AcDbLine
 10
-2163.480730651729
 20
1266.945146596495
 30
0.0
 11
-1983.480730651726
 21
1266.945146596495
 31
0.0
  0
LWPOLYLINE
  5
176
330
1F
100
AcDbEntity
  8
0-B_寸法
  6
Continuous
 62
     7
370
     9
100
AcDbPolyline
 90
        4
 70
     1
 43
3.0
 10
-2161.980730651729
 20
1266.945146596495
 42
0.4142135623731
 10
-2163.480730651729
 20
1268.445146596495
 42
0.4142135623731
 10
-2164.980730651729
 20
1266.945146596495
 42
0.4142135623731
 10
-2163.480730651729
 20
1265.445146596495
 42
0.4142135623731
  0
LWPOLYLINE
  5
177
330
1F
100
AcDbEntity
  8
0-B_寸法
  6
Continuous
 62
     7
370
     9
100
AcDbPolyline
 90
        4
 70
     1
 43
3.0
 10
-1981.980730651726
 20
1266.945146596495
 42
0.4142135623731
 10
-1983.480730651726
 20
1268.445146596495
 42
0.4142135623731
 10
-1984.980730651726
 20
1266.945146596495
 42
0.4142135623731
 10
-1983.480730651726
 20
1265.445146596495
 42
0.4142135623731
  0
LINE
  5
178
330
1F
100
AcDbEntity
  8
0-B_寸法
  6
Continuous
 62
   120
370
     5
100
AcDbLine
 10
-1983.480730651726
 20
1266.945146596495
 30
0.0
 11
-1983.480730651726
 21
1626.945146596495
 31
0.0
  0
MTEXT
  5
179
330
1F
100
AcDbEntity
  8
0-B_寸法
  6
Continuous
 62
     7
370
   211
100
AcDbMText
 10
-2118.480730651728
 20
1271.235146596495
 30
0.0
 40
68.57999999999934
 41
89.99999999999915
 46
0.0
 71
     7
 72
     1
  1
{\fＭＳ ゴシック|b0|i0|c128|p49;30}
 73
     1
 44
1.0
  0
LINE
  5
17A
330
1F
100
AcDbEntity
  8
0-B_寸法
  6
Continuous
 62
   120
370
     5
100
AcDbLine
 10
-1983.480730651726
 20
1266.945146596495
 30
0.0
 11
2000.519269348283
 21
1266.945146596495
 31
0.0
  0
LWPOLYLINE
  5
17B
330
1F
100
AcDbEntity
  8
0-B_寸法
  6
Continuous
 62
     7
370
     9
100
AcDbPolyline
 90
        4
 70
     1
 43
3.0
 10
2002.019269348283
 20
1266.945146596495
 42
0.4142135623731
 10
2000.519269348283
 20
1268.445146596495
 42
0.4142135623731
 10
1999.019269348283
 20
1266.945146596495
 42
0.4142135623731
 10
2000.519269348283
 20
1265.445146596495
 42
0.4142135623731
  0
LINE
  5
17C
330
1F
100
AcDbEntity
  8
0-B_寸法
  6
Continuous
 62
   120
370
     5
100
AcDbLine
 10
2000.519269348283
 20
1266.945146596495
 30
0.0
 11
2000.519269348283
 21
1626.945146596495
 31
0.0
  0
LINE
  5
17D
330
1F
100
AcDbEntity
  8
0-B_寸法
  6
Continuous
 62
   120
370
     5
100
AcDbLine
 10
2000.519269348283
 20
1266.945146596495
 30
0.0
 11
2180.51926934827
 21
1266.945146596495
 31
0.0
  0
LWPOLYLINE
  5
17E
330
1F
100
AcDbEntity
  8
0-B_寸法
  6
Continuous
 62
     7
370
     9
100
AcDbPolyline
 90
        4
 70
     1
 43
3.0
 10
2182.01926934827
 20
1266.945146596495
 42
0.4142135623731
 10
2180.51926934827
 20
1268.445146596495
 42
0.4142135623731
 10
2179.01926934827
 20
1266.945146596495
 42
0.4142135623731
 10
2180.51926934827
 20
1265.445146596495
 42
0.4142135623731
  0
MTEXT
  5
17F
330
1F
100
AcDbEntity
  8
0-B_寸法
  6
Continuous
 62
     7
370
   211
100
AcDbMText
 10
2030.519269348277
 20
1267.665146596495
 30
0.0
 40
91.43999999999936
 41
119.9999999999991
 46
0.0
 71
     7
 72
     1
  1
{\fＭＳ ゴシック|b0|i0|c128|p49;30}
 73
     1
 44
1.0
  0
LINE
  5
180
330
1F
100
AcDbEntity
  8
0-B_寸法
  6
Continuous
 62
   120
370
     5
100
AcDbLine
 10
-2163.480730651729
 20
1086.945146596495
 30
0.0
 11
2180.51926934827
 21
1086.945146596495
 31
0.0
  0
LWPOLYLINE
  5
181
330
1F
100
AcDbEntity
  8
0-B_寸法
  6
Continuous
 62
     7
370
     9
100
AcDbPolyline
 90
        4
 70
     1
 43
3.0
 10
-2161.980730651729
 20
1086.945146596495
 42
0.4142135623731
 10
-2163.480730651729
 20
1088.445146596495
 42
0.4142135623731
 10
-2164.980730651729
 20
1086.945146596495
 42
0.4142135623731
 10
-2163.480730651729
 20
1085.445146596495
 42
0.4142135623731
  0
LWPOLYLINE
  5
182
330
1F
100
AcDbEntity
  8
0-B_寸法
  6
Continuous
 62
     7
370
     9
100
AcDbPolyline
 90
        4
 70
     1
 43
3.0
 10
2182.01926934827
 20
1086.945146596495
 42
0.4142135623731
 10
2180.51926934827
 20
1088.445146596495
 42
0.4142135623731
 10
2179.01926934827
 20
1086.945146596495
 42
0.4142135623731
 10
2180.51926934827
 20
1085.445146596495
 42
0.4142135623731
  0
MTEXT
  5
183
330
1F
100
AcDbEntity
  8
0-B_寸法
  6
Continuous
 62
     7
370
   211
100
AcDbMText
 10
-1961.355730651723
 20
1621.950146596495
 30
0.0
 40
80.01000000000032
 41
420.0000000000017
 46
0.0
 71
     7
 72
     1
  1
{\fＭＳ ゴシック|b0|i0|c128|p49;ＤＷ=416}
 73
     1
 44
1.0
  0
MTEXT
  5
184
330
1F
100
AcDbEntity
  8
0-B_寸法
  6
Continuous
 62
     7
370
   211
100
AcDbMText
 10
-1461.105730651725
 20
1621.950146596495
 30
0.0
 40
80.01000000000032
 41
420.0000000000017
 46
0.0
 71
     7
 72
     1
  1
{\fＭＳ ゴシック|b0|i0|c128|p49;ＤＷ=416}
 73
     1
 44
1.0
  0
MTEXT
  5
185
330
1F
100
AcDbEntity
  8
0-B_寸法
  6
Continuous
 62
     7
370
   211
100
AcDbMText
 10
-954.8557306517253
 20
1621.950146596496
 30
0.0
 40
80.01000000000049
 41
420.0000000000026
 46
0.0
 71
     7
 72
     1
  1
{\fＭＳ ゴシック|b0|i0|c128|p49;ＤＷ=416}
 73
     1
 44
1.0
  0
MTEXT
  5
186
330
1F
100
AcDbEntity
  8
0-B_寸法
  6
Continuous
 62
     7
370
   211
100
AcDbMText
 10
-454.6057306517216
 20
1621.950146596495
 30
0.0
 40
80.01000000000032
 41
420.0000000000017
 46
0.0
 71
     7
 72
     1
  1
{\fＭＳ ゴシック|b0|i0|c128|p49;ＤＷ=416}
 73
     1
 44
1.0
  0
MTEXT
  5
187
330
1F
100
AcDbEntity
  8
0-B_寸法
  6
Continuous
 62
     7
370
   211
100
AcDbMText
 10
51.64426934827674
 20
1621.950146596495
 30
0.0
 40
80.0099999999999
 41
419.9999999999995
 46
0.0
 71
     7
 72
     1
  1
{\fＭＳ ゴシック|b0|i0|c128|p49;ＤＷ=416}
 73
     1
 44
1.0
  0
MTEXT
  5
188
330
1F
100
AcDbEntity
  8
0-B_寸法
  6
Continuous
 62
     7
370
   211
100
AcDbMText
 10
551.8942693482796
 20
1621.950146596495
 30
0.0
 40
80.01000000000032
 41
420.0000000000017
 46
0.0
 71
     7
 72
     1
  1
{\fＭＳ ゴシック|b0|i0|c128|p49;ＤＷ=416}
 73
     1
 44
1.0
  0
MTEXT
  5
189
330
1F
100
AcDbEntity
  8
0-B_寸法
  6
Continuous
 62
     7
370
   211
100
AcDbMText
 10
1058.144269348276
 20
1621.950146596495
 30
0.0
 40
80.0099999999999
 41
419.9999999999995
 46
0.0
 71
     7
 72
     1
  1
{\fＭＳ ゴシック|b0|i0|c128|p49;ＤＷ=416}
 73
     1
 44
1.0
  0
MTEXT
  5
18A
330
1F
100
AcDbEntity
  8
0-B_寸法
  6
Continuous
 62
     7
370
   211
100
AcDbMText
 10
1558.394269348281
 20
1621.950146596495
 30
0.0
 40
80.0099999999999
 41
419.9999999999995
 46
0.0
 71
     7
 72
     1
  1
{\fＭＳ ゴシック|b0|i0|c128|p49;ＤＷ=416}
 73
     1
 44
1.0
  0
MTEXT
  5
18B
330
1F
100
AcDbEntity
  8
0-B_寸法
  6
Continuous
 62
     7
370
   211
100
AcDbMText
 10
-1891.230730651722
 20
1447.665146596495
 30
0.0
 40
91.4399999999998
 41
779.9999999999983
 46
0.0
 71
     7
 72
     1
  1
{\fＭＳ ゴシック|b0|i0|c128|p49;折戸:ＤＷ=833}
 73
     1
 44
1.0
  0
MTEXT
  5
18C
330
1F
100
AcDbEntity
  8
0-B_寸法
  6
Continuous
 62
     7
370
   211
100
AcDbMText
 10
-967.9807306517237
 20
1447.665146596495
 30
0.0
 40
91.44
 41
60.0
 46
0.0
 71
     7
 72
     1
  1
{\fＭＳ ゴシック|b0|i0|c128|p49;2}
 73
     1
 44
1.0
  0
MTEXT
  5
18D
330
1F
100
AcDbEntity
  8
0-B_寸法
  6
Continuous
 62
     7
370
   211
100
AcDbMText
 10
-884.7307306517225
 20
1447.665146596495
 30
0.0
 40
91.43999999999988
 41
779.9999999999991
 46
0.0
 71
     7
 72
     1
  1
{\fＭＳ ゴシック|b0|i0|c128|p49;折戸:ＤＷ=833}
 73
     1
 44
1.0
  0
MTEXT
  5
18E
330
1F
100
AcDbEntity
  8
0-B_寸法
  6
Continuous
 62
     7
370
   211
100
AcDbMText
 10
38.51926934827588
 20
1447.665146596496
 30
0.0
 40
91.4400000000013
 41
60.00000000000085
 46
0.0
 71
     7
 72
     1
  1
{\fＭＳ ゴシック|b0|i0|c128|p49;2}
 73
     1
 44
1.0
  0
MTEXT
  5
18F
330
1F
100
AcDbEntity
  8
0-B_寸法
  6
Continuous
 62
     7
370
   211
100
AcDbMText
 10
121.769269348282
 20
1447.665146596495
 30
0.0
 40
91.4399999999998
 41
779.9999999999983
 46
0.0
 71
     7
 72
     1
  1
{\fＭＳ ゴシック|b0|i0|c128|p49;折戸:ＤＷ=833}
 73
     1
 44
1.0
  0
MTEXT
  5
190
330
1F
100
AcDbEntity
  8
0-B_寸法
  6
Continuous
 62
     7
370
   211
100
AcDbMText
 10
1045.01926934828
 20
1447.665146596496
 30
0.0
 40
91.4400000000013
 41
60.00000000000085
 46
0.0
 71
     7
 72
     1
  1
{\fＭＳ ゴシック|b0|i0|c128|p49;2}
 73
     1
 44
1.0
  0
MTEXT
  5
191
330
1F
100
AcDbEntity
  8
0-B_寸法
  6
Continuous
 62
     7
370
   211
100
AcDbMText
 10
1128.269269348281
 20
1447.665146596495
 30
0.0
 40
91.44000000000005
 41
780.0000000000005
 46
0.0
 71
     7
 72
     1
  1
{\fＭＳ ゴシック|b0|i0|c128|p49;折戸:ＤＷ=833}
 73
     1
 44
1.0
  0
MTEXT
  5
192
330
1F
100
AcDbEntity
  8
0-B_寸法
  6
Continuous
 62
     7
370
   211
100
AcDbMText
 10
-321.4807306517216
 20
1267.665146596495
 30
0.0
 40
91.44000000000013
 41
660.0000000000009
 46
0.0
 71
     7
 72
     1
  1
{\fＭＳ ゴシック|b0|i0|c128|p49;枠内＝3,333}
 73
     1
 44
1.0
  0
MTEXT
  5
193
330
1F
100
AcDbEntity
  8
0-B_寸法
  6
Continuous
 62
     7
370
   211
100
AcDbMText
 10
-321.4807306517309
 20
1087.665146596495
 30
0.0
 40
91.44000000000013
 41
660.0000000000009
 46
0.0
 71
     7
 72
     1
  1
{\fＭＳ ゴシック|b0|i0|c128|p49;枠外＝3,393}
 73
     1
 44
1.0
  0
LINE
  5
194
330
1F
100
AcDbEntity
  8
0-0_補助線
  6
JWW_HOJO
 62
   120
370
     5
100
AcDbLine
 10
2780.519071396427
 20
1986.945146596495
 30
0.0
 11
-2763.480532699861
 21
1986.945146596495
 31
0.0
  0
LINE
  5
195
330
1F
100
AcDbEntity
  8
0-B_寸法
  6
Continuous
 62
   120
370
     5
100
AcDbLine
 10
-2163.480730651729
 20
1086.945146596495
 30
0.0
 11
-2163.480730651729
 21
1806.945146596495
 31
0.0
  0
LINE
  5
196
330
1F
100
AcDbEntity
  8
0-B_寸法
  6
Continuous
 62
   120
370
     5
100
AcDbLine
 10
2180.51926934827
 20
1086.945146596495
 30
0.0
 11
2180.51926934827
 21
1806.945146596495
 31
0.0
  0
LINE
  5
197
330
1F
100
AcDbEntity
  8
0-B_寸法
  6
Continuous
 62
   120
370
     5
100
AcDbLine
 10
-2163.48073065172
 20
1806.945146596495
 30
0.0
 11
-1983.48073065172
 21
1806.945146596495
 31
0.0
  0
LWPOLYLINE
  5
198
330
1F
100
AcDbEntity
  8
0-B_寸法
  6
Continuous
 62
     7
370
     9
100
AcDbPolyline
 90
        4
 70
     1
 43
3.0
 10
-2161.98073065172
 20
1806.945146596495
 42
0.4142135623731
 10
-2163.48073065172
 20
1808.445146596495
 42
0.4142135623731
 10
-2164.98073065172
 20
1806.945146596495
 42
0.4142135623731
 10
-2163.48073065172
 20
1805.445146596495
 42
0.4142135623731
  0
LWPOLYLINE
  5
199
330
1F
100
AcDbEntity
  8
0-B_寸法
  6
Continuous
 62
     7
370
     9
100
AcDbPolyline
 90
        4
 70
     1
 43
3.0
 10
-2131.98073065172
 20
1806.945146596495
 42
0.4142135623731
 10
-2133.48073065172
 20
1808.445146596495
 42
0.4142135623731
 10
-2134.98073065172
 20
1806.945146596495
 42
0.4142135623731
 10
-2133.48073065172
 20
1805.445146596495
 42
0.4142135623731
  0
LWPOLYLINE
  5
19A
330
1F
100
AcDbEntity
  8
0-B_寸法
  6
Continuous
 62
     7
370
     9
100
AcDbPolyline
 90
        4
 70
     1
 43
3.0
 10
-2095.980730651722
 20
1806.945146596495
 42
0.4142135623731
 10
-2097.480730651722
 20
1808.445146596495
 42
0.4142135623731
 10
-2098.980730651722
 20
1806.945146596495
 42
0.4142135623731
 10
-2097.480730651722
 20
1805.445146596495
 42
0.4142135623731
  0
LINE
  5
19B
330
1F
100
AcDbEntity
  8
0-B_寸法
  6
Continuous
 62
   120
370
     5
100
AcDbLine
 10
-2097.480730651722
 20
1806.945146596495
 30
0.0
 11
-2097.480730651722
 21
1986.945146596495
 31
0.0
  0
LWPOLYLINE
  5
19C
330
1F
100
AcDbEntity
  8
0-B_寸法
  6
Continuous
 62
     7
370
     9
100
AcDbPolyline
 90
        4
 70
     1
 43
3.0
 10
-2041.98073065172
 20
1806.945146596495
 42
0.4142135623731
 10
-2043.48073065172
 20
1808.445146596495
 42
0.4142135623731
 10
-2044.98073065172
 20
1806.945146596495
 42
0.4142135623731
 10
-2043.48073065172
 20
1805.445146596495
 42
0.4142135623731
  0
LINE
  5
19D
330
1F
100
AcDbEntity
  8
0-B_寸法
  6
Continuous
 62
   120
370
     5
100
AcDbLine
 10
-2043.48073065172
 20
1806.945146596495
 30
0.0
 11
-2043.48073065172
 21
1986.945146596495
 31
0.0
  0
LWPOLYLINE
  5
19E
330
1F
100
AcDbEntity
  8
0-B_寸法
  6
Continuous
 62
     7
370
     9
100
AcDbPolyline
 90
        4
 70
     1
 43
3.0
 10
-1981.98073065172
 20
1806.945146596495
 42
0.4142135623731
 10
-1983.48073065172
 20
1808.445146596495
 42
0.4142135623731
 10
-1984.98073065172
 20
1806.945146596495
 42
0.4142135623731
 10
-1983.48073065172
 20
1805.445146596495
 42
0.4142135623731
  0
LINE
  5
19F
330
1F
100
AcDbEntity
  8
0-B_寸法
  6
Continuous
 62
   120
370
     5
100
AcDbLine
 10
-1983.48073065172
 20
1806.945146596495
 30
0.0
 11
-1983.48073065172
 21
1986.945146596495
 31
0.0
  0
MTEXT
  5
1A0
330
1F
100
AcDbEntity
  8
0-B_寸法
  6
Continuous
 62
     7
370
   211
100
AcDbMText
 10
-2092.980730651722
 20
1796.235146596493
 30
0.0
 40
68.5799999999961
 41
44.99999999999744
 46
0.0
 71
     7
 72
     1
  1
{\fＭＳ ゴシック|b0|i0|c128|p49;9}
 73
     1
 44
1.0
  0
LINE
  5
1A1
330
1F
100
AcDbEntity
  8
0-B_寸法
  6
Continuous
 62
   120
370
     5
100
AcDbLine
 10
-2115.480730651723
 20
1806.945146596495
 30
0.0
 11
-2205.480730651723
 21
1716.945146596495
 31
0.0
  0
MTEXT
  5
1A2
330
1F
100
AcDbEntity
  8
0-B_寸法
  6
Continuous
 62
     7
370
   211
100
AcDbMText
 10
-2250.480730651722
 20
1706.235146596493
 30
0.0
 40
68.5799999999961
 41
44.99999999999744
 46
0.0
 71
     7
 72
     1
  1
{\fＭＳ ゴシック|b0|i0|c128|p49;6}
 73
     1
 44
1.0
  0
LINE
  5
1A3
330
1F
100
AcDbEntity
  8
0-B_寸法
  6
Continuous
 62
   120
370
     5
100
AcDbLine
 10
-2260.727270506898
 20
1716.945146596495
 30
0.0
 11
-2205.480730651723
 21
1716.945146596495
 31
0.0
  0
LINE
  5
1A4
330
1F
100
AcDbEntity
  8
0-B_寸法
  6
Continuous
 62
   120
370
     5
100
AcDbLine
 10
-2148.48073065172
 20
1806.945146596495
 30
0.0
 11
-2208.48073065172
 21
1866.945146596495
 31
0.0
  0
MTEXT
  5
1A5
330
1F
100
AcDbEntity
  8
0-B_寸法
  6
Continuous
 62
     7
370
   211
100
AcDbMText
 10
-2253.480730651719
 20
1856.235146596493
 30
0.0
 40
68.5799999999961
 41
44.99999999999744
 46
0.0
 71
     7
 72
     1
  1
{\fＭＳ ゴシック|b0|i0|c128|p49;5}
 73
     1
 44
1.0
  0
LINE
  5
1A6
330
1F
100
AcDbEntity
  8
0-B_寸法
  6
Continuous
 62
   120
370
     5
100
AcDbLine
 10
-2268.929552480383
 20
1866.945146596495
 30
0.0
 11
-2208.48073065172
 21
1866.945146596495
 31
0.0
  0
MTEXT
  5
1A7
330
1F
100
AcDbEntity
  8
0-B_寸法
  6
Continuous
 62
     7
370
   211
100
AcDbMText
 10
-2032.230730651721
 20
1799.092646596496
 30
0.0
 40
74.29500000000066
 41
97.50000000000085
 46
0.0
 71
     7
 72
     1
  1
{\fＭＳ ゴシック|b0|i0|c128|p49;10}
 73
     1
 44
1.0
  0
LINE
  5
1A8
330
1F
100
AcDbEntity
  8
0-B_寸法
  6
Continuous
 62
   120
370
     5
100
AcDbLine
 10
-2163.48073065172
 20
1806.945146596495
 30
0.0
 11
-2163.48073065172
 21
1986.945146596495
 31
0.0
  0
LINE
  5
1A9
330
1F
100
AcDbEntity
  8
0-B_寸法
  6
Continuous
 62
   120
370
     5
100
AcDbLine
 10
-2133.48073065172
 20
1806.945146596495
 30
0.0
 11
-2133.48073065172
 21
1986.945146596495
 31
0.0
  0
LWPOLYLINE
  5
1AA
330
1F
100
AcDbEntity
  8
0-3_仕上げ
  6
Continuous
 62
     7
370
     9
100
AcDbPolyline
 90
        4
 70
     1
 43
3.0
 10
-1647.650379930475
 20
2592.946220485323
 42
0.4142135623731
 10
-1649.150379930475
 20
2594.446220485323
 42
0.4142135623731
 10
-1650.650379930475
 20
2592.946220485323
 42
0.4142135623731
 10
-1649.150379930475
 20
2591.446220485323
 42
0.4142135623731
  0
LINE
  5
1AB
330
1F
100
AcDbEntity
  8
0-3_仕上げ
  6
Continuous
 62
   120
370
     5
100
AcDbLine
 10
-1649.150379930475
 20
2592.946220485323
 30
0.0
 11
-1812.382125470133
 21
2592.946220485323
 31
0.0
  0
LWPOLYLINE
  5
1AC
330
1F
100
AcDbEntity
  8
0-3_仕上げ
  6
Continuous
 62
     7
370
     9
100
AcDbPolyline
 90
        4
 70
     1
 43
3.0
 10
-1647.650379930475
 20
2130.946220485323
 42
0.4142135623731
 10
-1649.150379930475
 20
2132.446220485323
 42
0.4142135623731
 10
-1650.650379930475
 20
2130.946220485323
 42
0.4142135623731
 10
-1649.150379930475
 20
2129.446220485323
 42
0.4142135623731
  0
LINE
  5
1AD
330
1F
100
AcDbEntity
  8
0-3_仕上げ
  6
Continuous
 62
   120
370
     5
100
AcDbLine
 10
-1649.150379930475
 20
2130.946220485323
 30
0.0
 11
-1812.382125470133
 21
2130.946220485323
 31
0.0
  0
LINE
  5
1AE
330
1F
100
AcDbEntity
  8
0-3_仕上げ
  6
Continuous
 62
   120
370
     5
100
AcDbLine
 10
-1649.150379930475
 20
2592.946220485323
 30
0.0
 11
-1649.150379930475
 21
2130.946220485323
 31
0.0
  0
MTEXT
  5
1AF
330
1F
100
AcDbEntity
  8
0-3_仕上げ
  6
Continuous
 62
     7
370
   211
100
AcDbMText
 10
-1664.150379930474
 20
2287.665022876577
 30
0.0
 40
91.44
 41
120.0
 46
0.0
 71
     7
 72
     1
  1
{\fＭＳ ゴシック|b0|i0|c128|p49;77}
 11
6.123031769111886E-17
 21
1.0
 31
0.0
 73
     1
 44
1.0
  0
MTEXT
  5
1B0
330
1F
100
AcDbEntity
  8
0-A_文字
  6
Continuous
 62
     7
370
     9
100
AcDbMText
 10
-2730.013945934315
 20
3310.355192579903
 30
0.0
 40
100.5839999999995
 41
659.9999999999966
 46
0.0
 71
     7
 72
     1
  1
{\fＭＳ ゴシック|b0|i0|c128|p49;■横断面図}
 73
     1
 44
1.0
  0
LINE
  5
1B1
330
1F
100
AcDbEntity
  8
0-A_文字
  6
JWW_HOJO
 62
   120
370
     5
100
AcDbLine
 10
8.519269348278442
 20
947.6368213441576
 30
0.0
 11
2418.043078872088
 21
947.6368213441576
 31
0.0
  0
LINE
  5
1B2
330
1F
100
AcDbEntity
  8
0-A_文字
  6
JWW_HOJO
 62
   120
370
     5
100
AcDbLine
 10
8.519269348278442
 20
827.6368213441576
 30
0.0
 11
2418.043078872088
 21
827.6368213441576
 31
0.0
  0
LINE
  5
1B3
330
1F
100
AcDbEntity
  8
0-A_文字
  6
JWW_HOJO
 62
   120
370
     5
100
AcDbLine
 10
8.519269348278442
 20
707.6368213441581
 30
0.0
 11
2418.043078872088
 21
707.6368213441581
 31
0.0
  0
MTEXT
  5
1B4
330
1F
100
AcDbEntity
  8
0-A_文字
  6
Continuous
 62
     7
370
     9
100
AcDbMText
 10
8.51926934827759
 20
942.3820486168848
 30
0.0
 40
79.49045454545461
 41
2295.000000000002
 46
0.0
 71
     7
 72
     1
  1
{\fＭＳ ゴシック|b0|i0|c128|p49;※有効開口寸法にはハンドルの突出は含まない。}
 73
     1
 44
1.0
  0
MTEXT
  5
1B5
330
1F
100
AcDbEntity
  8
0-A_文字
  6
Continuous
 62
     7
370
     9
100
AcDbMText
 10
8.51926934827759
 20
822.4301546774909
 30
0.0
 40
79.5866666666667
 41
2820.000000000002
 46
0.0
 71
     7
 72
     1
  1
{\fＭＳ ゴシック|b0|i0|c128|p49;※有効開口寸法は扉の厚さや調整によって若干異なります。}
 73
     1
 44
1.0
  0
MTEXT
  5
1B6
330
1F
100
AcDbEntity
  8
0-A_文字
  6
Continuous
 62
     7
370
     0
100
AcDbMText
 10
8.519269348278442
 20
696.9268213441588
 30
0.0
 40
68.58000000000003
 41
1350.0
 46
0.0
 71
     7
 72
     1
  1
{\fＭＳ ゴシック|b0|i0|c128|p49;※扉厚（　）内はルーバーの場合}
 73
     1
 44
1.0
  0
MTEXT
  5
1B7
330
1F
100
AcDbEntity
  8
0-A_文字
  6
Continuous
 62
     7
370
   211
100
AcDbMText
 10
-1023.444757714491
 20
2227.665146596494
 30
0.0
 40
91.44
 41
240.0
 46
0.0
 71
     7
 72
     1
  1
{\fＭＳ ゴシック|b0|i0|c128|p49;(24)}
 11
6.123031769111886E-17
 21
1.0
 31
0.0
 73
     1
 44
1.0
  0
LINE
  5
1B8
330
1F
100
AcDbEntity
  8
0-C_ハッチ
  6
JWW_DASHED1
 62
   120
370
     5
100
AcDbLine
 10
-2145.500468492898
 20
2097.946220485329
 30
0.0
 11
-2133.48073065171
 21
2109.965958326519
 31
0.0
  0
LINE
  5
1B9
330
1F
100
AcDbEntity
  8
0-C_ハッチ
  6
JWW_DASHED1
 62
   120
370
     5
100
AcDbLine
 10
-2187.926875364095
 20
2097.946220485333
 30
0.0
 11
-2133.480730651719
 21
2152.392365197709
 31
0.0
  0
LINE
  5
1BA
330
1F
100
AcDbEntity
  8
0-C_ハッチ
  6
JWW_DASHED1
 62
   120
370
     5
100
AcDbLine
 10
-2230.353282235291
 20
2097.946220485336
 30
0.0
 11
-2155.353282235282
 21
2172.946220485348
 31
0.0
  0
LINE
  5
1BB
330
1F
100
AcDbEntity
  8
0-C_ハッチ
  6
JWW_DASHED1
 62
   120
370
     5
100
AcDbLine
 10
-2272.779689106503
 20
2097.946220485328
 30
0.0
 11
-2197.779689106506
 21
2172.946220485322
 31
0.0
  0
LINE
  5
1BC
330
1F
100
AcDbEntity
  8
0-C_ハッチ
  6
JWW_DASHED1
 62
   120
370
     5
100
AcDbLine
 10
-2315.2060959777
 20
2097.946220485328
 30
0.0
 11
-2240.206095977705
 21
2172.946220485324
 31
0.0
  0
LINE
  5
1BD
330
1F
100
AcDbEntity
  8
0-C_ハッチ
  6
JWW_DASHED1
 62
   120
370
     5
100
AcDbLine
 10
-2357.632502848898
 20
2097.946220485331
 30
0.0
 11
-2282.632502848902
 21
2172.946220485327
 31
0.0
  0
LINE
  5
1BE
330
1F
100
AcDbEntity
  8
0-C_ハッチ
  6
JWW_DASHED1
 62
   120
370
     5
100
AcDbLine
 10
-2400.058909720034
 20
2097.94622048534
 30
0.0
 11
-2325.058909720039
 21
2172.946220485336
 31
0.0
  0
LINE
  5
1BF
330
1F
100
AcDbEntity
  8
0-C_ハッチ
  6
JWW_DASHED1
 62
   120
370
     5
100
AcDbLine
 10
-2442.485316591232
 20
2097.946220485343
 30
0.0
 11
-2367.485316591237
 21
2172.946220485339
 31
0.0
  0
LINE
  5
1C0
330
1F
100
AcDbEntity
  8
0-C_ハッチ
  6
JWW_DASHED1
 62
   120
370
     5
100
AcDbLine
 10
-2484.911723462445
 20
2097.946220485331
 30
0.0
 11
-2409.911723462432
 21
2172.946220485343
 31
0.0
  0
LINE
  5
1C1
330
1F
100
AcDbEntity
  8
0-C_ハッチ
  6
JWW_DASHED1
 62
   120
370
     5
100
AcDbLine
 10
-2527.338130333639
 20
2097.946220485334
 30
0.0
 11
-2452.338130333627
 21
2172.946220485347
 31
0.0
  0
LINE
  5
1C2
330
1F
100
AcDbEntity
  8
0-C_ハッチ
  6
JWW_DASHED1
 62
   120
370
     5
100
AcDbLine
 10
-2569.764537204837
 20
2097.946220485339
 30
0.0
 11
-2494.764537204841
 21
2172.946220485334
 31
0.0
  0
LINE
  5
1C3
330
1F
100
AcDbEntity
  8
0-C_ハッチ
  6
JWW_DASHED1
 62
   120
370
     5
100
AcDbLine
 10
-2612.190944076048
 20
2097.946220485327
 30
0.0
 11
-2537.190944076053
 21
2172.946220485322
 31
0.0
  0
LINE
  5
1C4
330
1F
100
AcDbEntity
  8
0-C_ハッチ
  6
JWW_DASHED1
 62
   120
370
     5
100
AcDbLine
 10
-2654.617350947246
 20
2097.946220485331
 30
0.0
 11
-2579.617350947251
 21
2172.946220485326
 31
0.0
  0
LINE
  5
1C5
330
1F
100
AcDbEntity
  8
0-C_ハッチ
  6
JWW_DASHED1
 62
   120
370
     5
100
AcDbLine
 10
-2697.043757818441
 20
2097.946220485334
 30
0.0
 11
-2622.043757818446
 21
2172.946220485329
 31
0.0
  0
LINE
  5
1C6
330
1F
100
AcDbEntity
  8
0-3_仕上げ
  6
Continuous
 62
    40
370
    15
100
AcDbLine
 10
-2133.480730651719
 20
2172.946220485324
 30
0.0
 11
-2133.480730651719
 21
2097.946220485324
 31
0.0
  0
LINE
  5
1C7
330
1F
100
AcDbEntity
  8
0-C_ハッチ
  6
JWW_DASHED1
 62
   120
370
     5
100
AcDbLine
 10
2653.646519812837
 20
2097.946220485337
 30
0.0
 11
2728.646519812848
 21
2172.946220485348
 31
0.0
  0
LINE
  5
1C8
330
1F
100
AcDbEntity
  8
0-C_ハッチ
  6
JWW_DASHED1
 62
   120
370
     5
100
AcDbLine
 10
2611.220112941629
 20
2097.946220485328
 30
0.0
 11
2686.220112941622
 21
2172.946220485322
 31
0.0
  0
LINE
  5
1C9
330
1F
100
AcDbEntity
  8
0-C_ハッチ
  6
JWW_DASHED1
 62
   120
370
     5
100
AcDbLine
 10
2568.793706070429
 20
2097.946220485328
 30
0.0
 11
2643.793706070424
 21
2172.946220485324
 31
0.0
  0
LINE
  5
1CA
330
1F
100
AcDbEntity
  8
0-C_ハッチ
  6
JWW_DASHED1
 62
   120
370
     5
100
AcDbLine
 10
2526.367299199232
 20
2097.946220485332
 30
0.0
 11
2601.367299199228
 21
2172.946220485327
 31
0.0
  0
LINE
  5
1CB
330
1F
100
AcDbEntity
  8
0-C_ハッチ
  6
JWW_DASHED1
 62
   120
370
     5
100
AcDbLine
 10
2483.940892328095
 20
2097.946220485341
 30
0.0
 11
2558.94089232809
 21
2172.946220485336
 31
0.0
  0
LINE
  5
1CC
330
1F
100
AcDbEntity
  8
0-C_ハッチ
  6
JWW_DASHED1
 62
   120
370
     5
100
AcDbLine
 10
2441.514485456898
 20
2097.946220485344
 30
0.0
 11
2516.514485456894
 21
2172.946220485339
 31
0.0
  0
LINE
  5
1CD
330
1F
100
AcDbEntity
  8
0-C_ハッチ
  6
JWW_DASHED1
 62
   120
370
     5
100
AcDbLine
 10
2399.088078585687
 20
2097.946220485332
 30
0.0
 11
2474.088078585698
 21
2172.946220485343
 31
0.0
  0
LINE
  5
1CE
330
1F
100
AcDbEntity
  8
0-C_ハッチ
  6
JWW_DASHED1
 62
   120
370
     5
100
AcDbLine
 10
2356.66167171449
 20
2097.946220485335
 30
0.0
 11
2431.661671714502
 21
2172.946220485346
 31
0.0
  0
LINE
  5
1CF
330
1F
100
AcDbEntity
  8
0-C_ハッチ
  6
JWW_DASHED1
 62
   120
370
     5
100
AcDbLine
 10
2314.235264843294
 20
2097.946220485339
 30
0.0
 11
2389.23526484329
 21
2172.946220485334
 31
0.0
  0
LINE
  5
1D0
330
1F
100
AcDbEntity
  8
0-C_ハッチ
  6
JWW_DASHED1
 62
   120
370
     5
100
AcDbLine
 10
2271.808857972082
 20
2097.946220485327
 30
0.0
 11
2346.808857972077
 21
2172.946220485322
 31
0.0
  0
LINE
  5
1D1
330
1F
100
AcDbEntity
  8
0-C_ハッチ
  6
JWW_DASHED1
 62
   120
370
     5
100
AcDbLine
 10
2229.382451100886
 20
2097.946220485331
 30
0.0
 11
2304.382451100881
 21
2172.946220485326
 31
0.0
  0
LINE
  5
1D2
330
1F
100
AcDbEntity
  8
0-C_ハッチ
  6
JWW_DASHED1
 62
   120
370
     5
100
AcDbLine
 10
2186.95604422969
 20
2097.946220485334
 30
0.0
 11
2261.956044229685
 21
2172.946220485329
 31
0.0
  0
LINE
  5
1D3
330
1F
100
AcDbEntity
  8
0-C_ハッチ
  6
JWW_DASHED1
 62
   120
370
     5
100
AcDbLine
 10
2150.519269348263
 20
2103.935852475054
 30
0.0
 11
2219.529637358547
 21
2172.946220485338
 31
0.0
  0
LINE
  5
1D4
330
1F
100
AcDbEntity
  8
0-C_ハッチ
  6
JWW_DASHED1
 62
   120
370
     5
100
AcDbLine
 10
2150.519269348268
 20
2146.362259346257
 30
0.0
 11
2177.103230487351
 21
2172.946220485341
 31
0.0
  0
LINE
  5
1D5
330
1F
100
AcDbEntity
  8
0-3_仕上げ
  6
Continuous
 62
    40
370
    15
100
AcDbLine
 10
2150.519269348282
 20
2097.946220485324
 30
0.0
 11
2150.519269348282
 21
2172.946220485324
 31
0.0
  0
LINE
  5
1D6
330
1F
100
AcDbEntity
  8
0-3_仕上げ
  6
Continuous
 62
    40
370
    15
100
AcDbLine
 10
2150.519269348282
 20
2097.946220485324
 30
0.0
 11
2780.519071396427
 21
2097.946220485324
 31
0.0
  0
LINE
  5
1D7
330
1F
100
AcDbEntity
  8
0-3_仕上げ
  6
Continuous
 62
    40
370
    15
100
AcDbLine
 10
2150.519269348282
 20
2172.946220485324
 30
0.0
 11
2780.519071396427
 21
2172.946220485324
 31
0.0
  0
LINE
  5
1D8
330
1F
100
AcDbEntity
  8
0-C_ハッチ
  6
JWW_DASHED1
 62
   120
370
     5
100
AcDbLine
 10
2738.49933355523
 20
2097.946220485329
 30
0.0
 11
2780.519071396427
 21
2139.965958326526
 31
0.0
  0
LINE
  5
1D9
330
1F
100
AcDbEntity
  8
0-C_ハッチ
  6
JWW_DASHED1
 62
   120
370
     5
100
AcDbLine
 10
2696.072926684034
 20
2097.946220485333
 30
0.0
 11
2771.072926684026
 21
2172.946220485324
 31
0.0
  0
LINE
  5
1DA
330
1F
100
AcDbEntity
  8
0-3_仕上げ
  6
Continuous
 62
    40
370
    15
100
AcDbLine
 10
-2763.480532699861
 20
2097.946220485324
 30
0.0
 11
-2133.480730651701
 21
2097.946220485324
 31
0.0
  0
LINE
  5
1DB
330
1F
100
AcDbEntity
  8
0-3_仕上げ
  6
Continuous
 62
    40
370
    15
100
AcDbLine
 10
-2763.480532699861
 20
2172.946220485324
 30
0.0
 11
-2133.480730651701
 21
2172.946220485324
 31
0.0
  0
LINE
  5
1DC
330
1F
100
AcDbEntity
  8
0-C_ハッチ
  6
JWW_DASHED1
 62
   120
370
     5
100
AcDbLine
 10
-2763.480532699861
 20
2116.36225934626
 30
0.0
 11
-2706.89657156078
 21
2172.946220485341
 31
0.0
  0
LINE
  5
1DD
330
1F
100
AcDbEntity
  8
0-C_ハッチ
  6
JWW_DASHED1
 62
   120
370
     5
100
AcDbLine
 10
-2739.470164689596
 20
2097.946220485324
 30
0.0
 11
-2664.470164689584
 21
2172.946220485338
 31
0.0
  0
MTEXT
  5
1DE
330
1F
100
AcDbEntity
  8
0-A_文字
  6
Continuous
 62
     7
370
     9
100
AcDbMText
 10
-2727.997828027266
 20
198.8076390646872
 30
0.0
 40
91.44
 41
600.0
 46
0.0
 71
     7
 72
     1
  1
{\fＭＳ ゴシック|b0|i0|c128|p49;■縦断面図}
 73
     1
 44
1.0
  0
MTEXT
  5
1DF
330
1F
100
AcDbEntity
  8
0-A_文字
  6
Continuous
 62
     7
370
     9
100
AcDbMText
 10
-2727.99782802727
 20
50.287373897243
 30
0.0
 40
91.43999999999994
 41
1559.999999999999
 46
0.0
 71
     7
 72
     1
  1
{\fＭＳ ゴシック|b0|i0|c128|p49;　[４方枠(敷居床上直置き)]}
 73
     1
 44
1.0
  0
MTEXT
  5
1E0
330
1F
100
AcDbEntity
  8
0-A_文字
  6
Continuous
 62
     7
370
   211
100
AcDbMText
 10
-1860.480532699858
 20
-2901.781802088525
 30
0.0
 40
91.44000000000129
 41
120.0000000000017
 46
0.0
 71
     7
 72
     1
  1
{\fＭＳ ゴシック|b0|i0|c128|p49;77}
 73
     1
 44
1.0
  0
LINE
  5
1E1
330
1F
100
AcDbEntity
  8
0-0_補助線
  6
JWW_HOJO
 62
   120
370
     5
100
AcDbLine
 10
-2763.480532699861
 20
1.999703072129648
 30
0.0
 11
-909.4805326998628
 21
1.999703072129648
 31
0.0
  0
LINE
  5
1E2
330
1F
100
AcDbEntity
  8
0-1_通り芯
  6
JWW_CENTER1
 62
   120
370
     5
100
AcDbLine
 10
-1800.480532699857
 20
-3519.905325898739
 30
0.0
 11
-1800.480532699857
 21
2.00007402574073
 31
0.0
  0
LINE
  5
1E3
330
1F
100
AcDbEntity
  8
0-0_補助線
  6
JWW_HOJO
 62
   120
370
     5
100
AcDbLine
 10
-2403.480532699861
 20
2.00007402574073
 30
0.0
 11
-2403.480532699861
 21
-3297.999940974261
 31
0.0
  0
LINE
  5
1E4
330
1F
100
AcDbEntity
  8
0-0_補助線
  6
JWW_HOJO
 62
   120
370
     5
100
AcDbLine
 10
-1209.480532699863
 20
2.00007402574073
 30
0.0
 11
-1209.480532699863
 21
-3297.999940974261
 31
0.0
  0
LINE
  5
1E5
330
1F
100
AcDbEntity
  8
0-0_補助線
  6
JWW_HOJO
 62
   120
370
     5
100
AcDbLine
 10
-909.4805326998628
 20
2.00007402574073
 30
0.0
 11
-909.4805326998628
 21
-3297.999940974261
 31
0.0
  0
LINE
  5
1E6
330
1F
100
AcDbEntity
  8
0-0_補助線
  6
JWW_HOJO
 62
   120
370
     5
100
AcDbLine
 10
-2763.480532699861
 20
2.00007402574073
 30
0.0
 11
-2763.480532699861
 21
-3297.999940974261
 31
0.0
  0
ARC
  5
1E7
330
1F
100
AcDbEntity
  8
0-7_金物
  6
Continuous
 62
     7
370
     9
100
AcDbCircle
 10
-1749.480532699863
 20
-3169.000334249965
 30
0.0
 40
9.000000000000002
100
AcDbArc
 50
270.0
 51
0.0
  0
LINE
  5
1E8
330
1F
100
AcDbEntity
  8
0-7_金物
  6
Continuous
 62
     7
370
     9
100
AcDbLine
 10
-1749.480532699863
 20
-3178.000334249964
 30
0.0
 11
-1851.480532699879
 21
-3178.000334249964
 31
0.0
  0
LINE
  5
1E9
330
1F
100
AcDbEntity
  8
0-7_金物
  6
Continuous
 62
     7
370
     9
100
AcDbLine
 10
-1740.480532699857
 20
-3169.000334249965
 30
0.0
 11
-1740.480532699857
 21
-3166.000334249964
 31
0.0
  0
ARC
  5
1EA
330
1F
100
AcDbEntity
  8
0-7_金物
  6
Continuous
 62
     7
370
     9
100
AcDbCircle
 10
-1851.480532699879
 20
-3169.000334249965
 30
0.0
 40
9.000000000000002
100
AcDbArc
 50
180.0
 51
270.0
  0
LINE
  5
1EB
330
1F
100
AcDbEntity
  8
0-7_金物
  6
Continuous
 62
     7
370
     9
100
AcDbLine
 10
-1860.480532699857
 20
-3169.000334249965
 30
0.0
 11
-1860.480532699857
 21
-3166.000334249964
 31
0.0
  0
LINE
  5
1EC
330
1F
100
AcDbEntity
  8
0-7_金物
  6
Continuous
 62
     7
370
     9
100
AcDbLine
 10
-1860.480532699857
 20
-3160.000334249966
 30
0.0
 11
-1860.480532699857
 21
-3157.000334249966
 31
0.0
  0
LINE
  5
1ED
330
1F
100
AcDbEntity
  8
0-7_金物
  6
Continuous
 62
     7
370
     9
100
AcDbLine
 10
-1860.480532699857
 20
-3151.000334249964
 30
0.0
 11
-1860.480532699857
 21
-3148.000334249964
 31
0.0
  0
LINE
  5
1EE
330
1F
100
AcDbEntity
  8
0-7_金物
  6
Continuous
 62
     7
370
     9
100
AcDbLine
 10
-1860.480532699857
 20
-3142.000334249966
 30
0.0
 11
-1860.480532699857
 21
-3133.000334249964
 31
0.0
  0
LINE
  5
1EF
330
1F
100
AcDbEntity
  8
0-7_金物
  6
Continuous
 62
     7
370
     9
100
AcDbLine
 10
-1740.480532699857
 20
-3157.000334249966
 30
0.0
 11
-1740.480532699857
 21
-3160.000334249966
 31
0.0
  0
LINE
  5
1F0
330
1F
100
AcDbEntity
  8
0-7_金物
  6
Continuous
 62
     7
370
     9
100
AcDbLine
 10
-1740.480532699857
 20
-3148.000334249964
 30
0.0
 11
-1740.480532699857
 21
-3151.000334249964
 31
0.0
  0
LINE
  5
1F1
330
1F
100
AcDbEntity
  8
0-7_金物
  6
Continuous
 62
     7
370
     9
100
AcDbLine
 10
-1740.480532699857
 20
-3133.000334249964
 30
0.0
 11
-1740.480532699857
 21
-3142.000334249966
 31
0.0
  0
ARC
  5
1F2
330
1F
100
AcDbEntity
  8
0-7_金物
  6
Continuous
 62
     7
370
     9
100
AcDbCircle
 10
-1740.780532699864
 20
-3145.000334249966
 30
0.0
 40
1.8
100
AcDbArc
 50
333.434948822922
 51
26.56505117707799
  0
LINE
  5
1F3
330
1F
100
AcDbEntity
  8
0-7_金物
  6
Continuous
 62
     7
370
     9
100
AcDbLine
 10
-1739.17056375607
 20
-3145.805318721863
 30
0.0
 11
-1740.480532699857
 21
-3148.000334249964
 31
0.0
  0
LINE
  5
1F4
330
1F
100
AcDbEntity
  8
0-7_金物
  6
Continuous
 62
     7
370
     9
100
AcDbLine
 10
-1739.17056375607
 20
-3144.195349778066
 30
0.0
 11
-1740.480532699857
 21
-3142.000334249966
 31
0.0
  0
ARC
  5
1F5
330
1F
100
AcDbEntity
  8
0-7_金物
  6
Continuous
 62
     7
370
     9
100
AcDbCircle
 10
-1740.780532699864
 20
-3154.000334249965
 30
0.0
 40
1.8
100
AcDbArc
 50
333.434948822922
 51
26.56505117707799
  0
LINE
  5
1F6
330
1F
100
AcDbEntity
  8
0-7_金物
  6
Continuous
 62
     7
370
     9
100
AcDbLine
 10
-1739.17056375607
 20
-3154.805318721866
 30
0.0
 11
-1740.480532699857
 21
-3157.000334249966
 31
0.0
  0
LINE
  5
1F7
330
1F
100
AcDbEntity
  8
0-7_金物
  6
Continuous
 62
     7
370
     9
100
AcDbLine
 10
-1739.17056375607
 20
-3153.195349778065
 30
0.0
 11
-1740.480532699857
 21
-3151.000334249964
 31
0.0
  0
ARC
  5
1F8
330
1F
100
AcDbEntity
  8
0-7_金物
  6
Continuous
 62
     7
370
     9
100
AcDbCircle
 10
-1740.780532699864
 20
-3163.000334249964
 30
0.0
 40
1.8
100
AcDbArc
 50
333.434948822922
 51
26.56505117707799
  0
LINE
  5
1F9
330
1F
100
AcDbEntity
  8
0-7_金物
  6
Continuous
 62
     7
370
     9
100
AcDbLine
 10
-1739.17056375607
 20
-3163.805318721864
 30
0.0
 11
-1740.480532699857
 21
-3166.000334249964
 31
0.0
  0
LINE
  5
1FA
330
1F
100
AcDbEntity
  8
0-7_金物
  6
Continuous
 62
     7
370
     9
100
AcDbLine
 10
-1739.17056375607
 20
-3162.195349778063
 30
0.0
 11
-1740.480532699857
 21
-3160.000334249966
 31
0.0
  0
ARC
  5
1FB
330
1F
100
AcDbEntity
  8
0-7_金物
  6
Continuous
 62
     7
370
     9
100
AcDbCircle
 10
-1752.480532699874
 20
-3164.800334249966
 30
0.0
 40
3.0
100
AcDbArc
 50
270.0
 51
0.0
  0
LINE
  5
1FC
330
1F
100
AcDbEntity
  8
0-7_金物
  6
Continuous
 62
     7
370
     9
100
AcDbLine
 10
-1752.480532699874
 20
-3167.800334249966
 30
0.0
 11
-1767.480532699874
 21
-3167.800334249966
 31
0.0
  0
LINE
  5
1FD
330
1F
100
AcDbEntity
  8
0-7_金物
  6
Continuous
 62
     7
370
     9
100
AcDbLine
 10
-1749.480532699863
 20
-3164.800334249966
 30
0.0
 11
-1749.480532699863
 21
-3143.200334249965
 31
0.0
  0
ARC
  5
1FE
330
1F
100
AcDbEntity
  8
0-7_金物
  6
Continuous
 62
     7
370
     9
100
AcDbCircle
 10
-1752.480532699874
 20
-3143.200334249965
 30
0.0
 40
3.0
100
AcDbArc
 50
0.0000000000000127
 51
90.00000000000001
  0
LINE
  5
1FF
330
1F
100
AcDbEntity
  8
0-7_金物
  6
Continuous
 62
     7
370
     9
100
AcDbLine
 10
-1752.480532699874
 20
-3140.200334249964
 30
0.0
 11
-1763.880532699877
 21
-3140.200334249964
 31
0.0
  0
ARC
  5
200
330
1F
100
AcDbEntity
  8
0-7_金物
  6
Continuous
 62
     7
370
     9
100
AcDbCircle
 10
-1848.480532699868
 20
-3164.800334249966
 30
0.0
 40
3.0
100
AcDbArc
 50
180.0
 51
270.0
  0
LINE
  5
201
330
1F
100
AcDbEntity
  8
0-7_金物
  6
Continuous
 62
     7
370
     9
100
AcDbLine
 10
-1848.480532699868
 20
-3167.800334249966
 30
0.0
 11
-1833.480532699868
 21
-3167.800334249966
 31
0.0
  0
LINE
  5
202
330
1F
100
AcDbEntity
  8
0-7_金物
  6
Continuous
 62
     7
370
     9
100
AcDbLine
 10
-1851.480532699879
 20
-3164.800334249966
 30
0.0
 11
-1851.480532699879
 21
-3143.200334249965
 31
0.0
  0
ARC
  5
203
330
1F
100
AcDbEntity
  8
0-7_金物
  6
Continuous
 62
     7
370
     9
100
AcDbCircle
 10
-1848.480532699868
 20
-3143.200334249965
 30
0.0
 40
3.0
100
AcDbArc
 50
90.0
 51
180.0
  0
LINE
  5
204
330
1F
100
AcDbEntity
  8
0-7_金物
  6
Continuous
 62
     7
370
     9
100
AcDbLine
 10
-1848.480532699868
 20
-3140.200334249964
 30
0.0
 11
-1837.080532699865
 21
-3140.200334249964
 31
0.0
  0
ARC
  5
205
330
1F
100
AcDbEntity
  8
0-7_金物
  6
Continuous
 62
     7
370
     9
100
AcDbCircle
 10
-1763.880532699877
 20
-3136.600334249964
 30
0.0
 40
3.600000000000001
100
AcDbArc
 50
90.0
 51
180.0
  0
LINE
  5
206
330
1F
100
AcDbEntity
  8
0-7_金物
  6
Continuous
 62
     7
370
     9
100
AcDbLine
 10
-1763.880532699877
 20
-3133.000334249964
 30
0.0
 11
-1740.480532699857
 21
-3133.000334249964
 31
0.0
  0
ARC
  5
207
330
1F
100
AcDbEntity
  8
0-7_金物
  6
Continuous
 62
     7
370
     9
100
AcDbCircle
 10
-1763.880532699877
 20
-3136.600334249964
 30
0.0
 40
3.600000000000001
100
AcDbArc
 50
180.0
 51
270.0
  0
ARC
  5
208
330
1F
100
AcDbEntity
  8
0-7_金物
  6
Continuous
 62
     7
370
     9
100
AcDbCircle
 10
-1837.080532699865
 20
-3136.600334249964
 30
0.0
 40
3.600000000000001
100
AcDbArc
 50
270.0
 51
0.0
  0
ARC
  5
209
330
1F
100
AcDbEntity
  8
0-7_金物
  6
Continuous
 62
     7
370
     9
100
AcDbCircle
 10
-1837.080532699865
 20
-3136.600334249964
 30
0.0
 40
3.600000000000001
100
AcDbArc
 50
0.0000000000000127
 51
90.00000000000001
  0
LINE
  5
20A
330
1F
100
AcDbEntity
  8
0-7_金物
  6
Continuous
 62
     7
370
     9
100
AcDbLine
 10
-1837.080532699865
 20
-3133.000334249964
 30
0.0
 11
-1860.480532699857
 21
-3133.000334249964
 31
0.0
  0
ARC
  5
20B
330
1F
100
AcDbEntity
  8
0-7_金物
  6
Continuous
 62
     7
370
     9
100
AcDbCircle
 10
-1860.180532699878
 20
-3145.000334249966
 30
0.0
 40
1.8
100
AcDbArc
 50
153.434948822922
 51
206.565051177078
  0
LINE
  5
20C
330
1F
100
AcDbEntity
  8
0-7_金物
  6
Continuous
 62
     7
370
     9
100
AcDbLine
 10
-1861.790501643672
 20
-3145.805318721863
 30
0.0
 11
-1860.480532699857
 21
-3148.000334249964
 31
0.0
  0
LINE
  5
20D
330
1F
100
AcDbEntity
  8
0-7_金物
  6
Continuous
 62
     7
370
     9
100
AcDbLine
 10
-1861.790501643672
 20
-3144.195349778066
 30
0.0
 11
-1860.480532699857
 21
-3142.000334249966
 31
0.0
  0
ARC
  5
20E
330
1F
100
AcDbEntity
  8
0-7_金物
  6
Continuous
 62
     7
370
     9
100
AcDbCircle
 10
-1860.180532699878
 20
-3154.000334249965
 30
0.0
 40
1.8
100
AcDbArc
 50
153.434948822922
 51
206.565051177078
  0
LINE
  5
20F
330
1F
100
AcDbEntity
  8
0-7_金物
  6
Continuous
 62
     7
370
     9
100
AcDbLine
 10
-1861.790501643672
 20
-3154.805318721866
 30
0.0
 11
-1860.480532699857
 21
-3157.000334249966
 31
0.0
  0
LINE
  5
210
330
1F
100
AcDbEntity
  8
0-7_金物
  6
Continuous
 62
     7
370
     9
100
AcDbLine
 10
-1861.790501643672
 20
-3153.195349778065
 30
0.0
 11
-1860.480532699857
 21
-3151.000334249964
 31
0.0
  0
ARC
  5
211
330
1F
100
AcDbEntity
  8
0-7_金物
  6
Continuous
 62
     7
370
     9
100
AcDbCircle
 10
-1860.180532699878
 20
-3163.000334249964
 30
0.0
 40
1.8
100
AcDbArc
 50
153.434948822922
 51
206.565051177078
  0
LINE
  5
212
330
1F
100
AcDbEntity
  8
0-7_金物
  6
Continuous
 62
     7
370
     9
100
AcDbLine
 10
-1861.790501643672
 20
-3163.805318721864
 30
0.0
 11
-1860.480532699857
 21
-3166.000334249964
 31
0.0
  0
LINE
  5
213
330
1F
100
AcDbEntity
  8
0-7_金物
  6
Continuous
 62
     7
370
     9
100
AcDbLine
 10
-1861.790501643672
 20
-3162.195349778063
 30
0.0
 11
-1860.480532699857
 21
-3160.000334249966
 31
0.0
  0
LINE
  5
214
330
1F
100
AcDbEntity
  8
0-7_金物
  6
Continuous
 62
     7
370
     9
100
AcDbLine
 10
-1798.680532699873
 20
-3170.800334249963
 30
0.0
 11
-1767.480532699874
 21
-3170.800334249963
 31
0.0
  0
LINE
  5
215
330
1F
100
AcDbEntity
  8
0-7_金物
  6
Continuous
 62
     7
370
     9
100
AcDbLine
 10
-1800.480532699857
 20
-3172.600334249965
 30
0.0
 11
-1798.680532699873
 21
-3170.800334249963
 31
0.0
  0
LINE
  5
216
330
1F
100
AcDbEntity
  8
0-7_金物
  6
Continuous
 62
     7
370
     9
100
AcDbLine
 10
-1802.280532699869
 20
-3170.800334249963
 30
0.0
 11
-1800.480532699857
 21
-3172.600334249965
 31
0.0
  0
LINE
  5
217
330
1F
100
AcDbEntity
  8
0-7_金物
  6
Continuous
 62
     7
370
     9
100
AcDbLine
 10
-1833.480532699868
 20
-3170.800334249963
 30
0.0
 11
-1802.280532699869
 21
-3170.800334249963
 31
0.0
  0
LINE
  5
218
330
1F
100
AcDbEntity
  8
0-7_金物
  6
Continuous
 62
     7
370
     9
100
AcDbLine
 10
-1767.480532699874
 20
-3170.800334249963
 30
0.0
 11
-1767.480532699874
 21
-3167.800334249966
 31
0.0
  0
LINE
  5
219
330
1F
100
AcDbEntity
  8
0-7_金物
  6
Continuous
 62
     7
370
     9
100
AcDbLine
 10
-1833.480532699868
 20
-3167.800334249966
 30
0.0
 11
-1833.480532699868
 21
-3170.800334249963
 31
0.0
  0
LINE
  5
21A
330
1F
100
AcDbEntity
  8
0-7_金物
  6
Continuous
 62
     7
370
     9
100
AcDbLine
 10
-1842.481517510359
 20
-3165.354562336697
 30
0.0
 11
-1758.481388841646
 21
-3165.354562336697
 31
0.0
  0
LINE
  5
21B
330
1F
100
AcDbEntity
  8
0-7_金物
  6
Continuous
 62
     7
370
     9
100
AcDbLine
 10
-1824.481012733122
 20
-3153.354562336694
 30
0.0
 11
-1824.481012733122
 21
-3165.354562336697
 31
0.0
  0
LINE
  5
21C
330
1F
100
AcDbEntity
  8
0-7_金物
  6
Continuous
 62
     7
370
     9
100
AcDbLine
 10
-1842.481517510359
 20
-3141.354562336695
 30
0.0
 11
-1842.481517510359
 21
-3165.354562336697
 31
0.0
  0
LINE
  5
21D
330
1F
100
AcDbEntity
  8
0-7_金物
  6
Continuous
 62
     7
370
     9
100
AcDbLine
 10
-1776.481151299422
 20
-3153.354562336694
 30
0.0
 11
-1776.481151299422
 21
-3165.354562336697
 31
0.0
  0
LINE
  5
21E
330
1F
100
AcDbEntity
  8
0-7_金物
  6
Continuous
 62
     7
370
     9
100
AcDbLine
 10
-1758.481388841646
 20
-3141.354562336695
 30
0.0
 11
-1758.481388841646
 21
-3165.354562336697
 31
0.0
  0
LINE
  5
21F
330
1F
100
AcDbEntity
  8
0-7_金物
  6
Continuous
 62
     7
370
     9
100
AcDbLine
 10
-1824.481012733122
 20
-3153.354562336694
 30
0.0
 11
-1776.481151299422
 21
-3153.354562336694
 31
0.0
  0
LINE
  5
220
330
1F
100
AcDbEntity
  8
0-7_金物
  6
Continuous
 62
     7
370
     9
100
AcDbLine
 10
-1809.48096324516
 20
-3158.052331089335
 30
0.0
 11
-1791.481200787384
 21
-3158.052331089335
 31
0.0
  0
LINE
  5
221
330
1F
100
AcDbEntity
  8
0-7_金物
  6
Continuous
 62
     7
370
     9
100
AcDbLine
 10
-1809.48096324516
 20
-3153.354562336694
 30
0.0
 11
-1809.48096324516
 21
-3158.052331089335
 31
0.0
  0
LINE
  5
222
330
1F
100
AcDbEntity
  8
0-7_金物
  6
Continuous
 62
     7
370
     9
100
AcDbLine
 10
-1791.481200787384
 20
-3153.354562336694
 30
0.0
 11
-1791.481200787384
 21
-3158.052331089335
 31
0.0
  0
LINE
  5
223
330
1F
100
AcDbEntity
  8
0-7_金物
  6
Continuous
 62
     7
370
     9
100
AcDbLine
 10
-1842.481517510359
 20
-3141.354562336695
 30
0.0
 11
-1758.481388841646
 21
-3141.354562336695
 31
0.0
  0
LINE
  5
224
330
1F
100
AcDbEntity
  8
0-C_ハッチ
  6
Continuous
 62
   120
370
     5
100
AcDbLine
 10
-1646.933654173763
 20
-3226.000334249964
 30
0.0
 11
-1569.480532699863
 21
-3148.547789911554
 31
0.0
  0
LINE
  5
225
330
1F
100
AcDbEntity
  8
0-C_ハッチ
  6
Continuous
 62
   120
370
     5
100
AcDbLine
 10
-1943.919340741768
 20
-3226.000334249964
 30
0.0
 11
-1861.980532699863
 21
-3144.062091480025
 31
0.0
  0
LINE
  5
226
330
1F
100
AcDbEntity
  8
0-C_ハッチ
  6
Continuous
 62
   120
370
     5
100
AcDbLine
 10
-1738.980532699879
 20
-3147.129260697337
 30
0.0
 11
-1727.851357099289
 21
-3136.000334249964
 31
0.0
  0
LINE
  5
227
330
1F
100
AcDbEntity
  8
0-C_ハッチ
  6
Continuous
 62
   120
370
     5
100
AcDbLine
 10
-1859.066257542927
 20
-3226.000334249964
 30
0.0
 11
-1811.066443122618
 21
-3178.000334249964
 31
0.0
  0
LINE
  5
228
330
1F
100
AcDbEntity
  8
0-C_ハッチ
  6
Continuous
 62
   120
370
     5
100
AcDbLine
 10
-1816.639730674278
 20
-3226.000334249964
 30
0.0
 11
-1768.639916253942
 21
-3178.000334249964
 31
0.0
  0
LINE
  5
229
330
1F
100
AcDbEntity
  8
0-C_ハッチ
  6
Continuous
 62
   120
370
     5
100
AcDbLine
 10
-1901.492784411603
 20
-3226.000334249964
 30
0.0
 11
-1853.492969991293
 21
-3178.000334249964
 31
0.0
  0
LINE
  5
22A
330
1F
100
AcDbEntity
  8
0-C_ハッチ
  6
Continuous
 62
   120
370
     5
100
AcDbLine
 10
-1604.507154100956
 20
-3226.000334249964
 30
0.0
 11
-1569.480532699863
 21
-3190.974316783899
 31
0.0
  0
LINE
  5
22B
330
1F
100
AcDbEntity
  8
0-C_ハッチ
  6
Continuous
 62
   120
370
     5
100
AcDbLine
 10
-1689.360166292581
 20
-3226.000334249964
 30
0.0
 11
-1599.359980712961
 21
-3136.000334249964
 31
0.0
  0
LINE
  5
22C
330
1F
100
AcDbEntity
  8
0-C_ハッチ
  6
Continuous
 62
   120
370
     5
100
AcDbLine
 10
-1731.786693161257
 20
-3226.000334249964
 30
0.0
 11
-1641.78650758161
 21
-3136.000334249964
 31
0.0
  0
LINE
  5
22D
330
1F
100
AcDbEntity
  8
0-C_ハッチ
  6
Continuous
 62
   120
370
     5
100
AcDbLine
 10
-1774.213220029933
 20
-3226.000334249964
 30
0.0
 11
-1684.213034450285
 21
-3136.000334249964
 31
0.0
  0
LINE
  5
22E
330
1F
100
AcDbEntity
  8
0-C_ハッチ
  6
Continuous
 62
   120
370
     5
100
AcDbLine
 10
-2031.480532699879
 20
-3186.282150062362
 30
0.0
 11
-1981.198716887475
 21
-3136.000334249964
 31
0.0
  0
LINE
  5
22F
330
1F
100
AcDbEntity
  8
0-C_ハッチ
  6
Continuous
 62
   120
370
     5
100
AcDbLine
 10
-2028.772381241906
 20
-3226.000334249964
 30
0.0
 11
-1938.772195662286
 21
-3136.000334249964
 31
0.0
  0
LINE
  5
230
330
1F
100
AcDbEntity
  8
0-C_ハッチ
  6
Continuous
 62
   120
370
     5
100
AcDbLine
 10
-1986.345854373257
 20
-3226.000334249964
 30
0.0
 11
-1896.34566879361
 21
-3136.000334249964
 31
0.0
  0
LINE
  5
231
330
1F
100
AcDbEntity
  8
0-4_枠
  6
Continuous
 62
    92
370
    13
100
AcDbLine
 10
-1738.980532699879
 20
-3136.000334249964
 30
0.0
 11
-1738.980532699879
 21
-3178.000334249964
 31
0.0
  0
LINE
  5
232
330
1F
100
AcDbEntity
  8
0-4_枠
  6
Continuous
 62
    92
370
    13
100
AcDbLine
 10
-1738.980532699879
 20
-3178.000334249964
 30
0.0
 11
-1861.980532699863
 21
-3178.000334249964
 31
0.0
  0
LINE
  5
233
330
1F
100
AcDbEntity
  8
0-4_枠
  6
Continuous
 62
    92
370
    13
100
AcDbLine
 10
-1861.980532699863
 20
-3136.000334249964
 30
0.0
 11
-1861.980532699863
 21
-3178.000334249964
 31
0.0
  0
LINE
  5
234
330
1F
100
AcDbEntity
  8
0-4_枠
  6
Continuous
 62
    92
370
    13
100
AcDbLine
 10
-2031.480532699879
 20
-3226.000334249964
 30
0.0
 11
-1569.480532699863
 21
-3226.000334249964
 31
0.0
  0
CIRCLE
  5
235
330
1F
100
AcDbEntity
  8
0-4_枠
  6
Continuous
 62
    92
370
    13
100
AcDbCircle
 10
-1980.480512904678
 20
-3181.000334249964
 30
0.0
 40
10.49999984535011
  0
ARC
  5
236
330
1F
100
AcDbEntity
  8
0-4_枠
  6
Continuous
 62
    92
370
    13
100
AcDbCircle
 10
-2019.480493109504
 20
-3148.000373840336
 30
0.0
 40
12.00000015464989
100
AcDbArc
 50
90.0
 51
180.0
  0
LINE
  5
237
330
1F
100
AcDbEntity
  8
0-4_枠
  6
Continuous
 62
    92
370
    13
100
AcDbLine
 10
-2019.480493109504
 20
-3136.000334249964
 30
0.0
 11
-1861.980532699863
 21
-3136.000334249964
 31
0.0
  0
LINE
  5
238
330
1F
100
AcDbEntity
  8
0-4_枠
  6
Continuous
 62
    92
370
    13
100
AcDbLine
 10
-2031.480532699879
 20
-3148.000373840336
 30
0.0
 11
-2031.480532699879
 21
-3226.000334249964
 31
0.0
  0
CIRCLE
  5
239
330
1F
100
AcDbEntity
  8
0-4_枠
  6
Continuous
 62
    92
370
    13
100
AcDbCircle
 10
-1620.480552495064
 20
-3181.000334249964
 30
0.0
 40
10.49999984535011
  0
ARC
  5
23A
330
1F
100
AcDbEntity
  8
0-4_枠
  6
Continuous
 62
    92
370
    13
100
AcDbCircle
 10
-1581.480572290238
 20
-3148.000373840336
 30
0.0
 40
12.00000015464989
100
AcDbArc
 50
0.0000000000000127
 51
90.00000000000001
  0
LINE
  5
23B
330
1F
100
AcDbEntity
  8
0-4_枠
  6
Continuous
 62
    92
370
    13
100
AcDbLine
 10
-1569.480532699863
 20
-3148.000373840336
 30
0.0
 11
-1569.480532699863
 21
-3226.000334249964
 31
0.0
  0
LINE
  5
23C
330
1F
100
AcDbEntity
  8
0-4_枠
  6
Continuous
 62
    92
370
    13
100
AcDbLine
 10
-1581.480572290238
 20
-3136.000334249964
 30
0.0
 11
-1738.980532699879
 21
-3136.000334249964
 31
0.0
  0
LINE
  5
23D
330
1F
100
AcDbEntity
  8
0-0_補助線
  6
JWW_HOJO
 62
   120
370
     5
100
AcDbLine
 10
-1800.480532699857
 20
-3191.749440291919
 30
0.0
 11
-1800.480532699857
 21
-3176.800334249965
 31
0.0
  0
LINE
  5
23E
330
1F
100
AcDbEntity
  8
0-B_寸法
  6
Continuous
 62
   120
370
     5
100
AcDbLine
 10
-1209.480532699863
 20
-3136.000465393073
 30
0.0
 11
-819.4805326998628
 21
-3136.000465393073
 31
0.0
  0
LINE
  5
23F
330
1F
100
AcDbEntity
  8
0-B_寸法
  6
Continuous
 62
   120
370
     5
100
AcDbLine
 10
-1209.480532699863
 20
-3085.000334249966
 30
0.0
 11
-999.4805326998628
 21
-3085.000334249966
 31
0.0
  0
LINE
  5
240
330
1F
100
AcDbEntity
  8
0-3_仕上げ
  6
Continuous
 62
     7
370
     9
100
AcDbLine
 10
-2403.480532699861
 20
-3286.000346621958
 30
0.0
 11
-1209.480532699863
 21
-3286.000346621958
 31
0.0
  0
LINE
  5
241
330
1F
100
AcDbEntity
  8
0-3_仕上げ
  6
Continuous
 62
     7
370
     9
100
AcDbLine
 10
-2403.480532699861
 20
-3274.000195683667
 30
0.0
 11
-1209.480532699863
 21
-3274.000195683667
 31
0.0
  0
LINE
  5
242
330
1F
100
AcDbEntity
  8
0-3_仕上げ
  6
Continuous
 62
     7
370
     9
100
AcDbLine
 10
-2403.480532699861
 20
-3262.000230325242
 30
0.0
 11
-1209.480532699863
 21
-3262.000230325242
 31
0.0
  0
LINE
  5
243
330
1F
100
AcDbEntity
  8
0-3_仕上げ
  6
Continuous
 62
     7
370
     9
100
AcDbLine
 10
-2403.480532699861
 20
-3250.000264966817
 30
0.0
 11
-1209.480532699863
 21
-3250.000264966817
 31
0.0
  0
LINE
  5
244
330
1F
100
AcDbEntity
  8
0-3_仕上げ
  6
Continuous
 62
     7
370
     9
100
AcDbLine
 10
-2403.480532699861
 20
-3238.000114028522
 30
0.0
 11
-1209.480532699863
 21
-3238.000114028522
 31
0.0
  0
LINE
  5
245
330
1F
100
AcDbEntity
  8
0-3_仕上げ
  6
Continuous
 62
    40
370
    15
100
AcDbLine
 10
-2403.480532699861
 20
-3298.000311980382
 30
0.0
 11
-1209.480532699863
 21
-3298.000311980382
 31
0.0
  0
LINE
  5
246
330
1F
100
AcDbEntity
  8
0-3_仕上げ
  6
Continuous
 62
    40
370
    15
100
AcDbLine
 10
-1209.480532699863
 20
-3226.000334249967
 30
0.0
 11
-2403.480532699861
 21
-3226.000334249967
 31
0.0
  0
LWPOLYLINE
  5
247
330
1F
100
AcDbEntity
  8
0-B_寸法
  6
Continuous
 62
     7
370
     9
100
AcDbPolyline
 90
        4
 70
     1
 43
3.0
 10
-2761.980532699862
 20
-3298.000311980382
 42
0.4142135623731
 10
-2763.480532699861
 20
-3296.500311980383
 42
0.4142135623731
 10
-2764.980532699861
 20
-3298.000311980382
 42
0.4142135623731
 10
-2763.480532699861
 20
-3299.500311980382
 42
0.4142135623731
  0
LINE
  5
248
330
1F
100
AcDbEntity
  8
0-B_寸法
  6
Continuous
 62
   120
370
     5
100
AcDbLine
 10
-2763.480532699861
 20
-3298.000311980382
 30
0.0
 11
-2403.480532699861
 21
-3298.000311980382
 31
0.0
  0
LINE
  5
249
330
1F
100
AcDbEntity
  8
0-0_補助線
  6
JWW_HOJO
 62
   120
370
     5
100
AcDbLine
 10
-2763.480532699861
 20
-3297.999940974261
 30
0.0
 11
-999.4805326998628
 21
-3297.999940974261
 31
0.0
  0
LWPOLYLINE
  5
24A
330
1F
100
AcDbEntity
  8
0-B_寸法
  6
Continuous
 62
     7
370
     9
100
AcDbPolyline
 90
        4
 70
     1
 43
3.0
 10
-637.9805326998627
 20
-3225.999963090233
 42
0.4142135623731
 10
-639.4805326998628
 20
-3224.499963090233
 42
0.4142135623731
 10
-640.9805326998628
 20
-3225.999963090233
 42
0.4142135623731
 10
-639.4805326998628
 20
-3227.499963090233
 42
0.4142135623731
  0
LWPOLYLINE
  5
24B
330
1F
100
AcDbEntity
  8
0-B_寸法
  6
Continuous
 62
     7
370
     9
100
AcDbPolyline
 90
        4
 70
     1
 43
3.0
 10
-817.9805326998627
 20
-3136.000465393073
 42
0.4142135623731
 10
-819.4805326998628
 20
-3134.500465393073
 42
0.4142135623731
 10
-820.9805326998628
 20
-3136.000465393073
 42
0.4142135623731
 10
-819.4805326998628
 20
-3137.500465393073
 42
0.4142135623731
  0
LWPOLYLINE
  5
24C
330
1F
100
AcDbEntity
  8
0-B_寸法
  6
Continuous
 62
     7
370
     9
100
AcDbPolyline
 90
        4
 70
     1
 43
3.0
 10
-997.9805326998628
 20
-3085.000334249966
 42
0.4142135623731
 10
-999.4805326998628
 20
-3083.500334249967
 42
0.4142135623731
 10
-1000.980532699863
 20
-3085.000334249966
 42
0.4142135623731
 10
-999.4805326998628
 20
-3086.500334249966
 42
0.4142135623731
  0
LWPOLYLINE
  5
24D
330
1F
100
AcDbEntity
  8
0-B_寸法
  6
Continuous
 62
     7
370
     9
100
AcDbPolyline
 90
        4
 70
     1
 43
3.0
 10
-997.9805326998628
 20
-3136.000465393073
 42
0.4142135623731
 10
-999.4805326998628
 20
-3134.500465393073
 42
0.4142135623731
 10
-1000.980532699863
 20
-3136.000465393073
 42
0.4142135623731
 10
-999.4805326998628
 20
-3137.500465393073
 42
0.4142135623731
  0
LINE
  5
24E
330
1F
100
AcDbEntity
  8
0-B_寸法
  6
Continuous
 62
   120
370
     5
100
AcDbLine
 10
-999.4805326998628
 20
-3136.000465393073
 30
0.0
 11
-999.4805326998628
 21
-513.9993172722945
 31
0.0
  0
LWPOLYLINE
  5
24F
330
1F
100
AcDbEntity
  8
0-B_寸法
  6
Continuous
 62
     7
370
     9
100
AcDbPolyline
 90
        4
 70
     1
 43
3.0
 10
-817.9805326998627
 20
-3225.999963090233
 42
0.4142135623731
 10
-819.4805326998628
 20
-3224.499963090233
 42
0.4142135623731
 10
-820.9805326998628
 20
-3225.999963090233
 42
0.4142135623731
 10
-819.4805326998628
 20
-3227.499963090233
 42
0.4142135623731
  0
LWPOLYLINE
  5
250
330
1F
100
AcDbEntity
  8
0-B_寸法
  6
Continuous
 62
     7
370
     9
100
AcDbPolyline
 90
        4
 70
     1
 43
3.0
 10
-637.9805326998627
 20
-3297.999940820649
 42
0.4142135623731
 10
-639.4805326998628
 20
-3296.499940820649
 42
0.4142135623731
 10
-640.9805326998628
 20
-3297.999940820649
 42
0.4142135623731
 10
-639.4805326998628
 20
-3299.499940820649
 42
0.4142135623731
  0
LINE
  5
251
330
1F
100
AcDbEntity
  8
0-B_寸法
  6
Continuous
 62
   120
370
     5
100
AcDbLine
 10
-1209.480532699863
 20
-3225.999963090233
 30
0.0
 11
-639.4805326998628
 21
-3225.999963090233
 31
0.0
  0
LINE
  5
252
330
1F
100
AcDbEntity
  8
0-B_寸法
  6
Continuous
 62
   120
370
     5
100
AcDbLine
 10
-1209.480532699863
 20
-3297.999940820649
 30
0.0
 11
-639.4805326998628
 21
-3297.999940820649
 31
0.0
  0
LINE
  5
253
330
1F
100
AcDbEntity
  8
0-B_寸法
  6
Continuous
 62
   120
370
     5
100
AcDbLine
 10
-819.4805326998628
 20
-3225.999963090233
 30
0.0
 11
-819.4805326998628
 21
-297.9999408206473
 31
0.0
  0
LWPOLYLINE
  5
254
330
1F
100
AcDbEntity
  8
0-B_寸法
  6
Continuous
 62
     7
370
     9
100
AcDbPolyline
 90
        4
 70
     1
 43
3.0
 10
-637.9805326998627
 20
-297.9999408206473
 42
0.4142135623731
 10
-639.4805326998628
 20
-296.4999408206473
 42
0.4142135623731
 10
-640.9805326998628
 20
-297.9999408206473
 42
0.4142135623731
 10
-639.4805326998628
 20
-299.4999408206473
 42
0.4142135623731
  0
LWPOLYLINE
  5
255
330
1F
100
AcDbEntity
  8
0-B_寸法
  6
Continuous
 62
     7
370
     9
100
AcDbPolyline
 90
        4
 70
     1
 43
3.0
 10
-997.9805326998628
 20
-513.9993172722945
 42
0.4142135623731
 10
-999.4805326998628
 20
-512.4993172722945
 42
0.4142135623731
 10
-1000.980532699863
 20
-513.9993172722945
 42
0.4142135623731
 10
-999.4805326998628
 20
-515.4993172722945
 42
0.4142135623731
  0
LWPOLYLINE
  5
256
330
1F
100
AcDbEntity
  8
0-B_寸法
  6
Continuous
 62
     7
370
     9
100
AcDbPolyline
 90
        4
 70
     1
 43
3.0
 10
-997.9805326998628
 20
-558.9994657361883
 42
0.4142135623731
 10
-999.4805326998628
 20
-557.4994657361883
 42
0.4142135623731
 10
-1000.980532699863
 20
-558.9994657361883
 42
0.4142135623731
 10
-999.4805326998628
 20
-560.4994657361883
 42
0.4142135623731
  0
LINE
  5
257
330
1F
100
AcDbEntity
  8
0-B_寸法
  6
Continuous
 62
   120
370
     5
100
AcDbLine
 10
-1209.480532699863
 20
-558.9994657361883
 30
0.0
 11
-999.4805326998628
 21
-558.9994657361883
 31
0.0
  0
LINE
  5
258
330
1F
100
AcDbEntity
  8
0-B_寸法
  6
Continuous
 62
   120
370
     5
100
AcDbLine
 10
-999.4805326998628
 20
-513.998946112561
 30
0.0
 11
-819.4805326998628
 21
-513.998946112561
 31
0.0
  0
LWPOLYLINE
  5
259
330
1F
100
AcDbEntity
  8
0-B_寸法
  6
Continuous
 62
     7
370
     9
100
AcDbPolyline
 90
        4
 70
     1
 43
3.0
 10
-817.9805326998627
 20
-513.998946112561
 42
0.4142135623731
 10
-819.4805326998628
 20
-512.498946112561
 42
0.4142135623731
 10
-820.9805326998628
 20
-513.998946112561
 42
0.4142135623731
 10
-819.4805326998628
 20
-515.498946112561
 42
0.4142135623731
  0
LWPOLYLINE
  5
25A
330
1F
100
AcDbEntity
  8
0-B_寸法
  6
Continuous
 62
     7
370
     9
100
AcDbPolyline
 90
        4
 70
     1
 43
3.0
 10
-817.9805326998627
 20
-297.9999408206473
 42
0.4142135623731
 10
-819.4805326998628
 20
-296.4999408206473
 42
0.4142135623731
 10
-820.9805326998628
 20
-297.9999408206473
 42
0.4142135623731
 10
-819.4805326998628
 20
-299.4999408206473
 42
0.4142135623731
  0
MTEXT
  5
25B
330
1F
100
AcDbEntity
  8
0-B_寸法
  6
Continuous
 62
     7
370
   211
100
AcDbMText
 10
-654.4805326998619
 20
-258.7166263803277
 30
0.0
 40
91.43999999999805
 41
59.99999999999872
 46
0.0
 71
     7
 72
     1
  1
{\fＭＳ ゴシック|b0|i0|c128|p49;8}
 11
6.123031769111886E-17
 21
1.0
 31
0.0
 73
     1
 44
1.0
  0
MTEXT
  5
25C
330
1F
100
AcDbEntity
  8
0-B_寸法
  6
Continuous
 62
     7
370
   211
100
AcDbMText
 10
-1209.480532699862
 20
-304.7261060204095
 30
0.0
 40
91.44000000000129
 41
60.00000000000085
 46
0.0
 71
     7
 72
     1
  1
{\fＭＳ ゴシック|b0|i0|c128|p49;8}
 11
6.123031769111886E-17
 21
1.0
 31
0.0
 73
     1
 44
1.0
  0
MTEXT
  5
25D
330
1F
100
AcDbEntity
  8
0-B_寸法
  6
Continuous
 62
     7
370
   211
100
AcDbMText
 10
-1209.480532699862
 20
-390.2795003777634
 30
0.0
 40
91.44000000000129
 41
60.00000000000085
 46
0.0
 71
     7
 72
     1
  1
{\fＭＳ ゴシック|b0|i0|c128|p49;9}
 11
6.123031769111886E-17
 21
1.0
 31
0.0
 73
     1
 44
1.0
  0
MTEXT
  5
25E
330
1F
100
AcDbEntity
  8
0-B_寸法
  6
Continuous
 62
     7
370
     0
100
AcDbMText
 10
-834.4798398683622
 20
-480.2794434666054
 30
0.0
 40
91.43999999999966
 41
119.9999999999996
 46
0.0
 71
     7
 72
     1
  1
{\fＭＳ ゴシック|b0|i0|c128|p49;36}
 11
6.123031769111886E-17
 21
1.0
 31
0.0
 73
     1
 44
1.0
  0
LINE
  5
25F
330
1F
100
AcDbEntity
  8
0-B_寸法
  6
Continuous
 62
   120
370
     5
100
AcDbLine
 10
-2763.480532699861
 20
-249.8540049934415
 30
0.0
 11
-2091.480532699879
 21
-249.8540049934415
 31
0.0
  0
LWPOLYLINE
  5
260
330
1F
100
AcDbEntity
  8
0-B_寸法
  6
Continuous
 62
     7
370
     9
100
AcDbPolyline
 90
        4
 70
     1
 43
3.0
 10
-2761.980532699862
 20
-249.8540049934415
 42
0.4142135623731
 10
-2763.480532699861
 20
-248.3540049934415
 42
0.4142135623731
 10
-2764.980532699861
 20
-249.8540049934415
 42
0.4142135623731
 10
-2763.480532699861
 20
-251.3540049934415
 42
0.4142135623731
  0
LINE
  5
261
330
1F
100
AcDbEntity
  8
0-B_寸法
  6
Continuous
 62
   120
370
     5
100
AcDbLine
 10
-2763.480532699861
 20
-3298.000311980382
 30
0.0
 11
-2763.480532699861
 21
-249.8540049934415
 31
0.0
  0
LINE
  5
262
330
1F
100
AcDbEntity
  8
0-B_寸法
  6
Continuous
 62
   120
370
     5
100
AcDbLine
 10
-639.4805326998628
 20
-249.9999259742586
 30
0.0
 11
-1209.480532699863
 21
-249.9999259742586
 31
0.0
  0
LWPOLYLINE
  5
263
330
1F
100
AcDbEntity
  8
0-B_寸法
  6
Continuous
 62
     7
370
     9
100
AcDbPolyline
 90
        4
 70
     1
 43
3.0
 10
-637.9805326998627
 20
-249.9999259742586
 42
0.4142135623731
 10
-639.4805326998628
 20
-248.4999259742586
 42
0.4142135623731
 10
-640.9805326998628
 20
-249.9999259742586
 42
0.4142135623731
 10
-639.4805326998628
 20
-251.4999259742586
 42
0.4142135623731
  0
LINE
  5
264
330
1F
100
AcDbEntity
  8
0-B_寸法
  6
Continuous
 62
   120
370
     5
100
AcDbLine
 10
-639.4805326998628
 20
-249.9999259742586
 30
0.0
 11
-639.4805326998628
 21
-3297.999940820649
 31
0.0
  0
MTEXT
  5
265
330
1F
100
AcDbEntity
  8
0-B_寸法
  6
Continuous
 62
     7
370
   211
100
AcDbMText
 10
-1209.480532699862
 20
-498.2795003777641
 30
0.0
 40
91.44000000000129
 41
60.00000000000085
 46
0.0
 71
     7
 72
     1
  1
{\fＭＳ ゴシック|b0|i0|c128|p49;9}
 11
6.123031769111886E-17
 21
1.0
 31
0.0
 73
     1
 44
1.0
  0
MTEXT
  5
266
330
1F
100
AcDbEntity
  8
0-B_寸法
  6
Continuous
 62
     7
370
   211
100
AcDbMText
 10
-1209.480532699862
 20
-665.9424220252082
 30
0.0
 40
91.43999999999966
 41
119.9999999999996
 46
0.0
 71
     7
 72
     1
  1
{\fＭＳ ゴシック|b0|i0|c128|p49;10}
 11
6.123031769111886E-17
 21
1.0
 31
0.0
 73
     1
 44
1.0
  0
MTEXT
  5
267
330
1F
100
AcDbEntity
  8
0-B_寸法
  6
Continuous
 62
     7
370
     0
100
AcDbMText
 10
-1013.908315280167
 20
-751.2356859272322
 30
0.0
 40
91.44000000000023
 41
180.0000000000004
 46
0.0
 71
     7
 72
     1
  1
{\fＭＳ ゴシック|b0|i0|c128|p49;7.5}
 11
6.123031769111886E-17
 21
1.0
 31
0.0
 73
     1
 44
1.0
  0
LINE
  5
268
330
1F
100
AcDbEntity
  8
0-A_文字
  6
Continuous
 62
   120
370
     5
100
AcDbLine
 10
-1569.480364440796
 20
-2902.501802088525
 30
0.0
 11
-1569.480364440796
 21
-3011.20951146179
 31
0.0
  0
LINE
  5
269
330
1F
100
AcDbEntity
  8
0-4_枠
  6
Continuous
 62
    92
370
    13
100
AcDbLine
 10
-2031.480532699879
 20
-513.9997428687905
 30
0.0
 11
-1884.481208974157
 21
-513.9997428687905
 31
0.0
  0
LINE
  5
26A
330
1F
100
AcDbEntity
  8
0-4_枠
  6
Continuous
 62
    92
370
    13
100
AcDbLine
 10
-1884.481208974157
 20
-513.9997428687905
 30
0.0
 11
-1884.481208974157
 21
-393.9992851051186
 31
0.0
  0
LINE
  5
26B
330
1F
100
AcDbEntity
  8
0-4_枠
  6
Continuous
 62
    92
370
    13
100
AcDbLine
 10
-1884.481208974157
 20
-393.9992851051186
 30
0.0
 11
-1716.480956131254
 21
-393.9992851051186
 31
0.0
  0
LINE
  5
26C
330
1F
100
AcDbEntity
  8
0-4_枠
  6
Continuous
 62
    92
370
    13
100
AcDbLine
 10
-1716.480956131254
 20
-393.9992851051186
 30
0.0
 11
-1716.480956131254
 21
-513.9997428687905
 31
0.0
  0
LINE
  5
26D
330
1F
100
AcDbEntity
  8
0-7_金物
  6
Continuous
 62
     7
370
     9
100
AcDbLine
 10
-1866.660345131204
 20
-500.7874931129304
 30
0.0
 11
-1866.660345131204
 21
-434.7874931129315
 31
0.0
  0
LINE
  5
26E
330
1F
100
AcDbEntity
  8
0-7_金物
  6
Continuous
 62
     7
370
     9
100
AcDbLine
 10
-1866.660345131204
 20
-434.7874931129315
 30
0.0
 11
-1830.481179291055
 21
-434.7874931129315
 31
0.0
  0
LINE
  5
26F
330
1F
100
AcDbEntity
  8
0-7_金物
  6
Continuous
 62
     7
370
     9
100
AcDbLine
 10
-1830.481179291055
 20
-513.9997428687905
 30
0.0
 11
-1830.481179291055
 21
-417.9992851051193
 31
0.0
  0
LINE
  5
270
330
1F
100
AcDbEntity
  8
0-7_金物
  6
Continuous
 62
     7
370
     9
100
AcDbLine
 10
-1830.481179291055
 20
-417.9992851051193
 30
0.0
 11
-1770.479491287515
 21
-417.9992851051193
 31
0.0
  0
LINE
  5
271
330
1F
100
AcDbEntity
  8
0-7_金物
  6
Continuous
 62
     7
370
     9
100
AcDbLine
 10
-1770.479491287515
 20
-417.9992851051193
 30
0.0
 11
-1770.479491287515
 21
-513.9997428687905
 31
0.0
  0
LINE
  5
272
330
1F
100
AcDbEntity
  8
0-7_金物
  6
Continuous
 62
     7
370
     9
100
AcDbLine
 10
-1734.661097580228
 20
-434.7874931129315
 30
0.0
 11
-1734.661097580228
 21
-500.7874931129304
 31
0.0
  0
LINE
  5
273
330
1F
100
AcDbEntity
  8
0-7_金物
  6
Continuous
 62
     7
370
     9
100
AcDbLine
 10
-1770.479491287515
 20
-434.7874931129315
 30
0.0
 11
-1734.661097580228
 21
-434.7874931129315
 31
0.0
  0
LINE
  5
274
330
1F
100
AcDbEntity
  8
0-7_金物
  6
Continuous
 62
     7
370
     9
100
AcDbLine
 10
-1716.480956131254
 20
-513.9997428687905
 30
0.0
 11
-1698.481185013106
 21
-513.9997428687905
 31
0.0
  0
LINE
  5
275
330
1F
100
AcDbEntity
  8
0-7_金物
  6
Continuous
 62
     7
370
     9
100
AcDbLine
 10
-1735.485072189603
 20
-519.9998344215242
 30
0.0
 11
-1735.485072189603
 21
-513.9997428687905
 31
0.0
  0
LINE
  5
276
330
1F
100
AcDbEntity
  8
0-7_金物
  6
Continuous
 62
     7
370
     9
100
AcDbLine
 10
-1728.481288009916
 20
-513.9997428687905
 30
0.0
 11
-1735.485072189603
 21
-513.9997428687905
 31
0.0
  0
LINE
  5
277
330
1F
100
AcDbEntity
  8
0-7_金物
  6
Continuous
 62
     7
370
     9
100
AcDbLine
 10
-1884.481208974157
 20
-513.9997428687905
 30
0.0
 11
-1902.47948699598
 21
-513.9997428687905
 31
0.0
  0
LINE
  5
278
330
1F
100
AcDbEntity
  8
0-7_金物
  6
Continuous
 62
     7
370
     9
100
AcDbLine
 10
-1864.694685035983
 20
-519.9998344215242
 30
0.0
 11
-1864.694685035983
 21
-513.9997428687905
 31
0.0
  0
LINE
  5
279
330
1F
100
AcDbEntity
  8
0-7_金物
  6
Continuous
 62
     7
370
     9
100
AcDbLine
 10
-1864.694685035983
 20
-513.9997428687905
 30
0.0
 11
-1872.481615597044
 21
-513.9997428687905
 31
0.0
  0
LINE
  5
27A
330
1F
100
AcDbEntity
  8
0-7_金物
  6
Continuous
 62
     7
370
     9
100
AcDbLine
 10
-1698.481185013106
 20
-513.9997428687905
 30
0.0
 11
-1698.481185013106
 21
-519.9998344215242
 31
0.0
  0
LINE
  5
27B
330
1F
100
AcDbEntity
  8
0-7_金物
  6
Continuous
 62
     7
370
     9
100
AcDbLine
 10
-1864.694685035983
 20
-519.9998344215242
 30
0.0
 11
-1902.47948699598
 21
-519.9998344215242
 31
0.0
  0
LINE
  5
27C
330
1F
100
AcDbEntity
  8
0-7_金物
  6
Continuous
 62
     7
370
     9
100
AcDbLine
 10
-1902.47948699598
 20
-513.9997428687905
 30
0.0
 11
-1902.47948699598
 21
-519.9998344215242
 31
0.0
  0
LINE
  5
27D
330
1F
100
AcDbEntity
  8
0-7_金物
  6
Continuous
 62
     7
370
     9
100
AcDbLine
 10
-1788.480738693515
 20
-558.9998344215253
 30
0.0
 11
-1812.481419616988
 21
-558.9998344215253
 31
0.0
  0
LINE
  5
27E
330
1F
100
AcDbEntity
  8
0-7_金物
  6
Continuous
 62
     7
370
     9
100
AcDbLine
 10
-1788.480738693515
 20
-513.9997428687905
 30
0.0
 11
-1788.480738693515
 21
-558.9998344215253
 31
0.0
  0
LINE
  5
27F
330
1F
100
AcDbEntity
  8
0-7_金物
  6
Continuous
 62
     7
370
     9
100
AcDbLine
 10
-1812.481419616988
 20
-558.9998344215253
 30
0.0
 11
-1812.481419616988
 21
-513.9997428687905
 31
0.0
  0
LINE
  5
280
330
1F
100
AcDbEntity
  8
0-7_金物
  6
Continuous
 62
     7
370
     9
100
AcDbLine
 10
-1830.481179291055
 20
-500.7874931129304
 30
0.0
 11
-1866.660345131204
 21
-500.7874931129304
 31
0.0
  0
LINE
  5
281
330
1F
100
AcDbEntity
  8
0-7_金物
  6
Continuous
 62
     7
370
     9
100
AcDbLine
 10
-1734.661097580228
 20
-500.7874931129304
 30
0.0
 11
-1770.479491287515
 21
-500.7874931129304
 31
0.0
  0
LINE
  5
282
330
1F
100
AcDbEntity
  8
0-7_金物
  6
Continuous
 62
     7
370
     9
100
AcDbLine
 10
-1770.479491287515
 20
-513.9997428687905
 30
0.0
 11
-1830.481179291055
 21
-513.9997428687905
 31
0.0
  0
LINE
  5
283
330
1F
100
AcDbEntity
  8
0-7_金物
  6
Continuous
 62
     7
370
     9
100
AcDbLine
 10
-1735.485072189603
 20
-519.9998344215242
 30
0.0
 11
-1698.481185013106
 21
-519.9998344215242
 31
0.0
  0
LINE
  5
284
330
1F
100
AcDbEntity
  8
0-4_枠
  6
Continuous
 62
    92
370
    13
100
AcDbLine
 10
-2031.480532699879
 20
-297.9999259742593
 30
0.0
 11
-1611.480532699879
 21
-297.9999259742593
 31
0.0
  0
LINE
  5
285
330
1F
100
AcDbEntity
  8
0-4_枠
  6
Continuous
 62
    92
370
    13
100
AcDbLine
 10
-1569.480532699863
 20
-513.9997428687905
 30
0.0
 11
-1716.480956131254
 21
-513.9997428687905
 31
0.0
  0
MTEXT
  5
286
330
1F
100
AcDbEntity
  8
0-B_寸法
  6
Continuous
 62
     7
370
     0
100
AcDbMText
 10
-1860.481082016286
 20
-808.7622652783949
 30
0.0
 40
91.4400000000013
 41
120.0000000000017
 46
0.0
 71
     7
 72
     1
  1
{\fＭＳ ゴシック|b0|i0|c128|p49;77}
 73
     1
 44
1.0
  0
LINE
  5
287
330
1F
100
AcDbEntity
  8
0-B_寸法
  6
Continuous
 62
   120
370
     5
100
AcDbLine
 10
-1569.480532699863
 20
-809.4822652783962
 30
0.0
 11
-2031.480532699879
 21
-809.4822652783962
 31
0.0
  0
LWPOLYLINE
  5
288
330
1F
100
AcDbEntity
  8
0-B_寸法
  6
Continuous
 62
     7
370
     9
100
AcDbPolyline
 90
        4
 70
     1
 43
3.0
 10
-2029.980532699879
 20
-809.4822652783962
 42
0.4142135623731
 10
-2031.480532699879
 20
-807.9822652783962
 42
0.4142135623731
 10
-2032.980532699879
 20
-809.4822652783962
 42
0.4142135623731
 10
-2031.480532699879
 20
-810.9822652783962
 42
0.4142135623731
  0
LINE
  5
289
330
1F
100
AcDbEntity
  8
0-B_寸法
  6
Continuous
 62
   120
370
     5
100
AcDbLine
 10
-2031.480532699879
 20
-809.4822652783962
 30
0.0
 11
-2031.480532699879
 21
-655.7713178565002
 31
0.0
  0
LWPOLYLINE
  5
28A
330
1F
100
AcDbEntity
  8
0-B_寸法
  6
Continuous
 62
     7
370
     9
100
AcDbPolyline
 90
        4
 70
     1
 43
3.0
 10
-1567.980532699863
 20
-809.4822652783962
 42
0.4142135623731
 10
-1569.480532699863
 20
-807.9822652783962
 42
0.4142135623731
 10
-1570.980532699863
 20
-809.4822652783962
 42
0.4142135623731
 10
-1569.480532699863
 20
-810.9822652783962
 42
0.4142135623731
  0
LINE
  5
28B
330
1F
100
AcDbEntity
  8
0-B_寸法
  6
Continuous
 62
   120
370
     5
100
AcDbLine
 10
-1569.480532699863
 20
-809.4822652783962
 30
0.0
 11
-1569.480532699863
 21
-655.7713178565002
 31
0.0
  0
LINE
  5
28C
330
1F
100
AcDbEntity
  8
0-7_金物
  6
Continuous
 62
     7
370
     9
100
AcDbLine
 10
-1728.481288009916
 20
-513.9997428687905
 30
0.0
 11
-1728.481288009916
 21
-405.9996513160565
 31
0.0
  0
LINE
  5
28D
330
1F
100
AcDbEntity
  8
0-7_金物
  6
Continuous
 62
     7
370
     9
100
AcDbLine
 10
-1716.480956131936
 20
-513.9997428687905
 30
0.0
 11
-1716.480956131936
 21
-393.9992851060552
 31
0.0
  0
LINE
  5
28E
330
1F
100
AcDbEntity
  8
0-7_金物
  6
Continuous
 62
     7
370
     9
100
AcDbLine
 10
-1872.481615597044
 20
-513.9997428687905
 30
0.0
 11
-1872.481615597044
 21
-405.9996513160565
 31
0.0
  0
LINE
  5
28F
330
1F
100
AcDbEntity
  8
0-7_金物
  6
Continuous
 62
     7
370
     9
100
AcDbLine
 10
-1884.481947475051
 20
-513.9997428687905
 30
0.0
 11
-1884.481947475051
 21
-393.9992851060552
 31
0.0
  0
LINE
  5
290
330
1F
100
AcDbEntity
  8
0-7_金物
  6
Continuous
 62
     7
370
     9
100
AcDbLine
 10
-1728.481288009916
 20
-405.9996513160565
 30
0.0
 11
-1872.481615597044
 21
-405.9996513160565
 31
0.0
  0
LINE
  5
291
330
1F
100
AcDbEntity
  8
0-7_金物
  6
Continuous
 62
     7
370
     9
100
AcDbLine
 10
-1716.480956131936
 20
-393.9992851060552
 30
0.0
 11
-1884.481947475051
 21
-393.9992851060552
 31
0.0
  0
LINE
  5
292
330
1F
100
AcDbEntity
  8
0-A_文字
  6
Continuous
 62
   120
370
     5
100
AcDbLine
 10
-1569.480364440796
 20
-2902.501802088525
 30
0.0
 11
-2031.480700958946
 21
-2902.501802088525
 31
0.0
  0
LWPOLYLINE
  5
293
330
1F
100
AcDbEntity
  8
0-A_文字
  6
Continuous
 62
     7
370
     9
100
AcDbPolyline
 90
        4
 70
     1
 43
3.0
 10
-1567.980364440796
 20
-2902.501802088525
 42
0.4142135623731
 10
-1569.480364440796
 20
-2901.001802088525
 42
0.4142135623731
 10
-1570.980364440796
 20
-2902.501802088525
 42
0.4142135623731
 10
-1569.480364440796
 20
-2904.001802088525
 42
0.4142135623731
  0
LWPOLYLINE
  5
294
330
1F
100
AcDbEntity
  8
0-A_文字
  6
Continuous
 62
     7
370
     9
100
AcDbPolyline
 90
        4
 70
     1
 43
3.0
 10
-2029.980700958946
 20
-2902.501802088525
 42
0.4142135623731
 10
-2031.480700958946
 20
-2901.001802088525
 42
0.4142135623731
 10
-2032.980700958945
 20
-2902.501802088525
 42
0.4142135623731
 10
-2031.480700958946
 20
-2904.001802088525
 42
0.4142135623731
  0
LINE
  5
295
330
1F
100
AcDbEntity
  8
0-A_文字
  6
Continuous
 62
   120
370
     5
100
AcDbLine
 10
-2031.480700958946
 20
-2902.501802088525
 30
0.0
 11
-2031.480700958946
 21
-3011.20951146179
 31
0.0
  0
LINE
  5
296
330
1F
100
AcDbEntity
  8
0-7_金物
  6
Continuous
 62
     7
370
     9
100
AcDbLine
 10
-1809.479864612358
 20
-3085.253733650567
 30
0.0
 11
-1809.479864612358
 21
-3141.354562336695
 31
0.0
  0
LINE
  5
297
330
1F
100
AcDbEntity
  8
0-7_金物
  6
Continuous
 62
     7
370
     9
100
AcDbLine
 10
-1791.480102154582
 20
-3085.253733650567
 30
0.0
 11
-1791.480102154582
 21
-3141.354562336695
 31
0.0
  0
LINE
  5
298
330
1F
100
AcDbEntity
  8
0-7_金物
  6
Continuous
 62
     7
370
     9
100
AcDbLine
 10
-1710.480229431441
 20
-261.8543425941462
 30
0.0
 11
-1890.480092102334
 21
-261.8543425941462
 31
0.0
  0
LINE
  5
299
330
1F
100
AcDbEntity
  8
0-7_金物
  6
Continuous
 62
     7
370
     9
100
AcDbLine
 10
-1890.480092102334
 20
-249.8540049934368
 30
0.0
 11
-1890.480092102334
 21
-261.8543425941462
 31
0.0
  0
LINE
  5
29A
330
1F
100
AcDbEntity
  8
0-7_金物
  6
Continuous
 62
     7
370
     9
100
AcDbLine
 10
-1710.480229431441
 20
-249.8540049934368
 30
0.0
 11
-1710.480229431441
 21
-261.8543425941462
 31
0.0
  0
LINE
  5
29B
330
1F
100
AcDbEntity
  8
0-7_金物
  6
Continuous
 62
     7
370
     9
100
AcDbLine
 10
-1710.480229431441
 20
-249.8540049934368
 30
0.0
 11
-1890.480092102334
 21
-249.8540049934368
 31
0.0
  0
LINE
  5
29C
330
1F
100
AcDbEntity
  8
0-7_金物
  6
Continuous
 62
     7
370
     9
100
AcDbLine
 10
-1740.480332428251
 20
-261.8543425941462
 30
0.0
 11
-1740.480332428251
 21
-273.8539363288867
 31
0.0
  0
LINE
  5
29D
330
1F
100
AcDbEntity
  8
0-7_金物
  6
Continuous
 62
     7
370
     9
100
AcDbLine
 10
-1860.479989105497
 20
-261.8543425941462
 30
0.0
 11
-1860.479989105497
 21
-273.8539363288867
 31
0.0
  0
LINE
  5
29E
330
1F
100
AcDbEntity
  8
0-7_金物
  6
Continuous
 62
     7
370
     9
100
AcDbLine
 10
-1740.480332428251
 20
-273.8539363288867
 30
0.0
 11
-1860.479989105497
 21
-273.8539363288867
 31
0.0
  0
LINE
  5
29F
330
1F
100
AcDbEntity
  8
0-7_金物
  6
Continuous
 62
     7
370
     9
100
AcDbLine
 10
-1746.480498367582
 20
-273.8539363288867
 30
0.0
 11
-1746.480498367582
 21
-297.9999259742644
 31
0.0
  0
LINE
  5
2A0
330
1F
100
AcDbEntity
  8
0-7_金物
  6
Continuous
 62
     7
370
     9
100
AcDbLine
 10
-1854.480567032133
 20
-297.9999259742644
 30
0.0
 11
-1854.480567032133
 21
-273.8539363288867
 31
0.0
  0
LINE
  5
2A1
330
1F
100
AcDbEntity
  8
0-4_枠
  6
Continuous
 62
    92
370
    13
100
AcDbLine
 10
-1611.480532699879
 20
-297.9999259742593
 30
0.0
 11
-1611.480532699879
 21
-345.9999259742578
 31
0.0
  0
LINE
  5
2A2
330
1F
100
AcDbEntity
  8
0-4_枠
  6
Continuous
 62
    92
370
    13
100
AcDbLine
 10
-1569.480532699863
 20
-345.9999259742578
 30
0.0
 11
-1611.480532699879
 21
-345.9999259742578
 31
0.0
  0
LINE
  5
2A3
330
1F
100
AcDbEntity
  8
0-4_枠
  6
Continuous
 62
    92
370
    13
100
AcDbLine
 10
-1569.480532699863
 20
-345.9999259742578
 30
0.0
 11
-1569.480532699863
 21
-399.9999259742586
 31
0.0
  0
LINE
  5
2A4
330
1F
100
AcDbEntity
  8
0-4_枠
  6
Continuous
 62
    92
370
    13
100
AcDbLine
 10
-1569.480532699863
 20
-399.9999259742586
 30
0.0
 11
-1629.480532699863
 21
-399.9999259742586
 31
0.0
  0
LINE
  5
2A5
330
1F
100
AcDbEntity
  8
0-4_枠
  6
Continuous
 62
    92
370
    13
100
AcDbLine
 10
-1629.480532699863
 20
-399.9999259742586
 30
0.0
 11
-1629.480532699863
 21
-453.9999259742585
 31
0.0
  0
LINE
  5
2A6
330
1F
100
AcDbEntity
  8
0-4_枠
  6
Continuous
 62
    92
370
    13
100
AcDbLine
 10
-1569.480532699863
 20
-453.9999259742585
 30
0.0
 11
-1629.480532699863
 21
-453.9999259742585
 31
0.0
  0
LINE
  5
2A7
330
1F
100
AcDbEntity
  8
0-B_寸法
  6
Continuous
 62
   120
370
     5
100
AcDbLine
 10
-1209.480532699863
 20
-297.9995003777643
 30
0.0
 11
-1209.480532699863
 21
-513.9993172722945
 31
0.0
  0
LWPOLYLINE
  5
2A8
330
1F
100
AcDbEntity
  8
0-B_寸法
  6
Continuous
 62
     7
370
     9
100
AcDbPolyline
 90
        4
 70
     1
 43
3.0
 10
-1207.980532699863
 20
-297.9995003777643
 42
0.4142135623731
 10
-1209.480532699863
 20
-296.4995003777643
 42
0.4142135623731
 10
-1210.980532699863
 20
-297.9995003777643
 42
0.4142135623731
 10
-1209.480532699863
 20
-299.4995003777643
 42
0.4142135623731
  0
LWPOLYLINE
  5
2A9
330
1F
100
AcDbEntity
  8
0-B_寸法
  6
Continuous
 62
     7
370
     9
100
AcDbPolyline
 90
        4
 70
     1
 43
3.0
 10
-1207.980532699863
 20
-399.9995003777636
 42
0.4142135623731
 10
-1209.480532699863
 20
-398.4995003777636
 42
0.4142135623731
 10
-1210.980532699863
 20
-399.9995003777636
 42
0.4142135623731
 10
-1209.480532699863
 20
-401.4995003777636
 42
0.4142135623731
  0
LWPOLYLINE
  5
2AA
330
1F
100
AcDbEntity
  8
0-B_寸法
  6
Continuous
 62
     7
370
     9
100
AcDbPolyline
 90
        4
 70
     1
 43
3.0
 10
-1207.980532699863
 20
-453.9995003777635
 42
0.4142135623731
 10
-1209.480532699863
 20
-452.4995003777635
 42
0.4142135623731
 10
-1210.980532699863
 20
-453.9995003777635
 42
0.4142135623731
 10
-1209.480532699863
 20
-455.4995003777635
 42
0.4142135623731
  0
LWPOLYLINE
  5
2AB
330
1F
100
AcDbEntity
  8
0-B_寸法
  6
Continuous
 62
     7
370
     9
100
AcDbPolyline
 90
        4
 70
     1
 43
3.0
 10
-1207.980532699863
 20
-513.9993172722945
 42
0.4142135623731
 10
-1209.480532699863
 20
-512.4993172722945
 42
0.4142135623731
 10
-1210.980532699863
 20
-513.9993172722945
 42
0.4142135623731
 10
-1209.480532699863
 20
-515.4993172722945
 42
0.4142135623731
  0
LWPOLYLINE
  5
2AC
330
1F
100
AcDbEntity
  8
0-B_寸法
  6
Continuous
 62
     7
370
     9
100
AcDbPolyline
 90
        4
 70
     1
 43
3.0
 10
-1207.980532699863
 20
-345.9995003777628
 42
0.4142135623731
 10
-1209.480532699863
 20
-344.4995003777628
 42
0.4142135623731
 10
-1210.980532699863
 20
-345.9995003777628
 42
0.4142135623731
 10
-1209.480532699863
 20
-347.4995003777628
 42
0.4142135623731
  0
LINE
  5
2AD
330
1F
100
AcDbEntity
  8
0-B_寸法
  6
Continuous
 62
   120
370
     5
100
AcDbLine
 10
-1320.974833291693
 20
-453.9995003777635
 30
0.0
 11
-1341.48057847623
 21
-453.9995003777635
 31
0.0
  0
LINE
  5
2AE
330
1F
100
AcDbEntity
  8
0-B_寸法
  6
Continuous
 62
   120
370
     5
100
AcDbLine
 10
-1209.480532699863
 20
-453.9995003777635
 30
0.0
 11
-1222.01282282188
 21
-453.9995003777635
 31
0.0
  0
LINE
  5
2AF
330
1F
100
AcDbEntity
  8
0-B_寸法
  6
Continuous
 62
   120
370
     5
100
AcDbLine
 10
-1209.480532699863
 20
-399.9995003777636
 30
0.0
 11
-1341.48057847623
 21
-399.9995003777636
 31
0.0
  0
LINE
  5
2B0
330
1F
100
AcDbEntity
  8
0-B_寸法
  6
Continuous
 62
   120
370
     5
100
AcDbLine
 10
-1320.974833291693
 20
-345.9995003777628
 30
0.0
 11
-1341.48057847623
 21
-345.9995003777628
 31
0.0
  0
LINE
  5
2B1
330
1F
100
AcDbEntity
  8
0-B_寸法
  6
Continuous
 62
   120
370
     5
100
AcDbLine
 10
-1209.480532699863
 20
-345.9995003777628
 30
0.0
 11
-1222.01282282188
 21
-345.9995003777628
 31
0.0
  0
LINE
  5
2B2
330
1F
100
AcDbEntity
  8
0-B_寸法
  6
Continuous
 62
   120
370
     5
100
AcDbLine
 10
-1341.48057847623
 20
-513.9993172722945
 30
0.0
 11
-999.4805326998628
 21
-513.9993172722945
 31
0.0
  0
LINE
  5
2B3
330
1F
100
AcDbEntity
  8
0-B_寸法
  6
Continuous
 62
   120
370
     5
100
AcDbLine
 10
-1341.48057847623
 20
-297.9999408206473
 30
0.0
 11
-639.4805326998628
 21
-297.9999408206473
 31
0.0
  0
LINE
  5
2B4
330
1F
100
AcDbEntity
  8
0-C_ハッチ
  6
Continuous
 62
   120
370
     5
100
AcDbLine
 10
-1572.580726494352
 20
-513.9997428687973
 30
0.0
 11
-1569.480532699863
 21
-510.8995490743139
 31
0.0
  0
LINE
  5
2B5
330
1F
100
AcDbEntity
  8
0-C_ハッチ
  6
Continuous
 62
   120
370
     5
100
AcDbLine
 10
-1631.977696113972
 20
-513.9997428687789
 30
0.0
 11
-1571.977879219457
 21
-453.9999259742504
 31
0.0
  0
LINE
  5
2B6
330
1F
100
AcDbEntity
  8
0-C_ハッチ
  6
Continuous
 62
   120
370
     5
100
AcDbLine
 10
-1691.374665733701
 20
-513.9997428687964
 30
0.0
 11
-1629.480532699863
 21
-452.1056098349793
 31
0.0
  0
LINE
  5
2B7
330
1F
100
AcDbEntity
  8
0-C_ハッチ
  6
Continuous
 62
   120
370
     5
100
AcDbLine
 10
-1577.374848839154
 20
-399.9999259742586
 30
0.0
 11
-1569.480532699863
 21
-392.1056098349716
 31
0.0
  0
LINE
  5
2B8
330
1F
100
AcDbEntity
  8
0-C_ハッチ
  6
Continuous
 62
   120
370
     5
100
AcDbLine
 10
-1716.480956131254
 20
-479.7090636467196
 30
0.0
 11
-1582.771818458795
 21
-345.99992597426
 31
0.0
  0
LINE
  5
2B9
330
1F
100
AcDbEntity
  8
0-C_ハッチ
  6
Continuous
 62
   120
370
     5
100
AcDbLine
 10
-1716.480956131254
 20
-420.3120940270203
 30
0.0
 11
-1611.480532699879
 21
-315.3116705956214
 31
0.0
  0
LINE
  5
2BA
330
1F
100
AcDbEntity
  8
0-C_ハッチ
  6
Continuous
 62
   120
370
     5
100
AcDbLine
 10
-1749.565116829026
 20
-393.9992851051275
 30
0.0
 11
-1653.565757698161
 21
-297.9999259742661
 31
0.0
  0
LINE
  5
2BB
330
1F
100
AcDbEntity
  8
0-C_ハッチ
  6
Continuous
 62
   120
370
     5
100
AcDbLine
 10
-1928.962544212318
 20
-513.999742868787
 30
0.0
 11
-1884.481947475051
 21
-469.5191461315203
 31
0.0
  0
LINE
  5
2BC
330
1F
100
AcDbEntity
  8
0-C_ハッチ
  6
Continuous
 62
   120
370
     5
100
AcDbLine
 10
-1808.962086448646
 20
-393.9992851051118
 30
0.0
 11
-1712.962727317808
 21
-297.9999259742644
 31
0.0
  0
LINE
  5
2BD
330
1F
100
AcDbEntity
  8
0-C_ハッチ
  6
Continuous
 62
   120
370
     5
100
AcDbLine
 10
-1988.359513832047
 20
-513.9997428687939
 30
0.0
 11
-1884.481947475051
 21
-410.1221765118048
 31
0.0
  0
LINE
  5
2BE
330
1F
100
AcDbEntity
  8
0-C_ハッチ
  6
Continuous
 62
   120
370
     5
100
AcDbLine
 10
-1868.359056068375
 20
-393.9992851051275
 30
0.0
 11
-1772.35969693751
 21
-297.9999259742576
 31
0.0
  0
LINE
  5
2BF
330
1F
100
AcDbEntity
  8
0-C_ハッチ
  6
Continuous
 62
   120
370
     5
100
AcDbLine
 10
-2031.480532699879
 20
-497.7237921169824
 30
0.0
 11
-1831.756666557157
 21
-297.9999259742606
 31
0.0
  0
LINE
  5
2C0
330
1F
100
AcDbEntity
  8
0-C_ハッチ
  6
Continuous
 62
   120
370
     5
100
AcDbLine
 10
-2031.480532699852
 20
-438.326822497269
 30
0.0
 11
-1891.153636176859
 21
-297.9999259742606
 31
0.0
  0
LINE
  5
2C1
330
1F
100
AcDbEntity
  8
0-C_ハッチ
  6
Continuous
 62
   120
370
     5
100
AcDbLine
 10
-2031.480532699879
 20
-378.9298528776354
 30
0.0
 11
-1950.550605796506
 21
-297.9999259742559
 31
0.0
  0
LINE
  5
2C2
330
1F
100
AcDbEntity
  8
0-C_ハッチ
  6
Continuous
 62
   120
370
     5
100
AcDbLine
 10
-2031.480532699879
 20
-319.5328832579301
 30
0.0
 11
-2009.947575416208
 21
-297.9999259742576
 31
0.0
  0
LINE
  5
2C3
330
1F
100
AcDbEntity
  8
0-0_補助線
  6
JWW_HOJO
 62
   120
370
     5
100
AcDbLine
 10
-2030.166300722239
 20
-1798.000044745374
 30
0.0
 11
-1570.794764677475
 21
-1798.000044745374
 31
0.0
  0
LINE
  5
2C4
330
1F
100
AcDbEntity
  8
0-0_補助線
  6
JWW_HOJO
 62
   120
370
     5
100
AcDbLine
 10
-2030.166300722239
 20
-1918.000044745374
 30
0.0
 11
-1570.794764677475
 21
-1918.000044745374
 31
0.0
  0
MTEXT
  5
2C5
330
1F
100
AcDbEntity
  8
0-B_寸法
  6
Continuous
 62
     7
370
     0
100
AcDbMText
 10
-1013.947027947269
 20
-3119.701984018794
 30
0.0
 40
91.43999999999913
 41
179.9999999999983
 46
0.0
 71
     7
 72
     1
  1
{\fＭＳ ゴシック|b0|i0|c128|p49;8.5}
 11
6.123031769111886E-17
 21
1.0
 31
0.0
 73
     1
 44
1.0
  0
MTEXT
  5
2C6
330
1F
100
AcDbEntity
  8
0-B_寸法
  6
Continuous
 62
     7
370
   211
100
AcDbMText
 10
-834.4805326998619
 20
-3257.369654497717
 30
0.0
 40
91.43999999999805
 41
119.9999999999974
 46
0.0
 71
     7
 72
     1
  1
{\fＭＳ ゴシック|b0|i0|c128|p49;15}
 11
6.123031769111886E-17
 21
1.0
 31
0.0
 73
     1
 44
1.0
  0
MTEXT
  5
2C7
330
1F
100
AcDbEntity
  8
0-B_寸法
  6
Continuous
 62
     7
370
   211
100
AcDbMText
 10
-645.5048836439971
 20
-3424.711428163326
 30
0.0
 40
91.44000000000129
 41
120.0000000000017
 46
0.0
 71
     7
 72
     1
  1
{\fＭＳ ゴシック|b0|i0|c128|p49;12}
 11
6.123031769111886E-17
 21
1.0
 31
0.0
 73
     1
 44
1.0
  0
MTEXT
  5
2C8
330
1F
100
AcDbEntity
  8
0-B_寸法
  6
Continuous
 62
     7
370
   211
100
AcDbMText
 10
-2778.48053269986
 20
-2178.207158486914
 30
0.0
 40
91.4400000000003
 41
780.0000000000025
 46
0.0
 71
     7
 72
     1
  1
{\fＭＳ ゴシック|b0|i0|c128|p49;ＲＯＨ＝2,070}
 11
6.123031769111886E-17
 21
1.0
 31
0.0
 73
     1
 44
1.0
  0
MTEXT
  5
2C9
330
1F
100
AcDbEntity
  8
0-B_寸法
  6
Continuous
 62
     7
370
     0
100
AcDbMText
 10
-1014.479839868362
 20
-2166.27989999308
 30
0.0
 40
91.44000000000014
 41
660.0000000000009
 46
0.0
 71
     7
 72
     1
  1
{\fＭＳ ゴシック|b0|i0|c128|p49;ＤＨ＝1,983}
 11
6.123031769111886E-17
 21
1.0
 31
0.0
 73
     1
 44
1.0
  0
MTEXT
  5
2CA
330
1F
100
AcDbEntity
  8
0-B_寸法
  6
Continuous
 62
     7
370
     0
100
AcDbMText
 10
-834.4798398683622
 20
-2166.27989999308
 30
0.0
 40
91.44000000000014
 41
660.0000000000009
 46
0.0
 71
     7
 72
     1
  1
{\fＭＳ ゴシック|b0|i0|c128|p49;枠内＝1,999}
 11
6.123031769111886E-17
 21
1.0
 31
0.0
 73
     1
 44
1.0
  0
MTEXT
  5
2CB
330
1F
100
AcDbEntity
  8
0-B_寸法
  6
Continuous
 62
     7
370
     0
100
AcDbMText
 10
-654.4813245072862
 20
-2166.27989999308
 30
0.0
 40
91.44000000000014
 41
660.0000000000009
 46
0.0
 71
     7
 72
     1
  1
{\fＭＳ ゴシック|b0|i0|c128|p49;枠外＝2,050}
 11
6.123031769111886E-17
 21
1.0
 31
0.0
 73
     1
 44
1.0
  0
MTEXT
  5
2CC
330
1F
100
AcDbEntity
  8
0-A_文字
  6
Continuous
 62
     7
370
   211
100
AcDbMText
 10
-1920.480532699857
 20
-1324.495429699602
 30
0.0
 40
91.43999999999966
 41
239.9999999999991
 46
0.0
 71
     7
 72
     1
  1
{\fＭＳ ゴシック|b0|i0|c128|p49;(24)}
 73
     1
 44
1.0
  0
MTEXT
  5
2CD
330
1F
100
AcDbEntity
  8
0-A_文字
  6
Continuous
 62
     7
370
     0
100
AcDbMText
 10
-1798.852447522698
 20
-3666.906924996451
 30
0.0
 40
68.57999999999997
 41
1349.999999999999
 46
0.0
 71
     7
 72
     1
  1
{\fＭＳ ゴシック|b0|i0|c128|p49;※扉厚（　）内はルーバーの場合}
 73
     1
 44
1.0
  0
LINE
  5
2CE
330
1F
100
AcDbEntity
  8
0-A_文字
  6
JWW_HOJO
 62
   120
370
     5
100
AcDbLine
 10
-1798.852447522698
 20
-3656.196924996451
 30
0.0
 11
610.6713620011114
 21
-3656.196924996451
 31
0.0
  0
LINE
  5
2CF
330
1F
100
AcDbEntity
  8
0-3_仕上げ
  6
Continuous
 62
    40
370
    15
100
AcDbLine
 10
-1536.480532699879
 20
-345.9999259742578
 30
0.0
 11
-1611.480532699879
 21
-345.9999259742578
 31
0.0
  0
LINE
  5
2D0
330
1F
100
AcDbEntity
  8
0-3_仕上げ
  6
Continuous
 62
   120
370
     5
100
AcDbLine
 10
-1611.480532699879
 20
-117.8540049934354
 30
0.0
 11
-1611.480532699879
 21
-297.8540049934354
 31
0.0
  0
LINE
  5
2D1
330
1F
100
AcDbEntity
  8
0-C_ハッチ
  6
JWW_DASHED1
 62
   120
370
     5
100
AcDbLine
 10
-1562.409484952886
 20
-345.9999259742582
 30
0.0
 11
-1536.480532699879
 21
-320.0709737212542
 31
0.0
  0
LINE
  5
2D2
330
1F
100
AcDbEntity
  8
0-C_ハッチ
  6
JWW_DASHED1
 62
   120
370
     5
100
AcDbLine
 10
-1604.835891824086
 20
-345.9999259742578
 30
0.0
 11
-1536.480532699879
 21
-277.6445668500576
 31
0.0
  0
LINE
  5
2D3
330
1F
100
AcDbEntity
  8
0-C_ハッチ
  6
JWW_DASHED1
 62
   120
370
     5
100
AcDbLine
 10
-1611.480532699879
 20
-310.2181599788576
 30
0.0
 11
-1536.480532699879
 21
-235.2181599788609
 31
0.0
  0
LINE
  5
2D4
330
1F
100
AcDbEntity
  8
0-C_ハッチ
  6
JWW_DASHED1
 62
   120
370
     5
100
AcDbLine
 10
-1611.480532699879
 20
-267.791753107661
 30
0.0
 11
-1536.480532699879
 21
-192.7917531076486
 31
0.0
  0
LINE
  5
2D5
330
1F
100
AcDbEntity
  8
0-C_ハッチ
  6
JWW_DASHED1
 62
   120
370
     5
100
AcDbLine
 10
-1611.480532699879
 20
-225.3653462364618
 30
0.0
 11
-1536.480532699879
 21
-150.3653462364511
 31
0.0
  0
LINE
  5
2D6
330
1F
100
AcDbEntity
  8
0-C_ハッチ
  6
JWW_DASHED1
 62
   120
370
     5
100
AcDbLine
 10
-1611.480532699852
 20
-182.9389393652984
 30
0.0
 11
-1536.480532699879
 21
-107.9389393653031
 31
0.0
  0
LINE
  5
2D7
330
1F
100
AcDbEntity
  8
0-C_ハッチ
  6
JWW_DASHED1
 62
   120
370
     5
100
AcDbLine
 10
-1611.480532699879
 20
-140.5125324941031
 30
0.0
 11
-1536.480532699879
 21
-65.51253249410863
 31
0.0
  0
LINE
  5
2D8
330
1F
100
AcDbEntity
  8
0-3_仕上げ
  6
Continuous
 62
   120
370
     5
100
AcDbLine
 10
-2031.480532699879
 20
-69.85400499343683
 30
0.0
 11
-1611.480532699879
 21
-69.85400499343683
 31
0.0
  0
LINE
  5
2D9
330
1F
100
AcDbEntity
  8
0-3_仕上げ
  6
Continuous
 62
   120
370
     5
100
AcDbLine
 10
-2031.480532699879
 20
-249.8540049934368
 30
0.0
 11
-2031.480532699879
 21
-69.85400499343683
 31
0.0
  0
LINE
  5
2DA
330
1F
100
AcDbEntity
  8
0-3_仕上げ
  6
Continuous
 62
   120
370
     5
100
AcDbLine
 10
-1611.480532699879
 20
-249.8540049934368
 30
0.0
 11
-2031.480532699879
 21
-249.8540049934368
 31
0.0
  0
LINE
  5
2DB
330
1F
100
AcDbEntity
  8
0-3_仕上げ
  6
Continuous
 62
   120
370
     5
100
AcDbLine
 10
-2031.480532699879
 20
-249.8540049934368
 30
0.0
 11
-1611.480532699879
 21
-69.85400499343683
 31
0.0
  0
LINE
  5
2DC
330
1F
100
AcDbEntity
  8
0-3_仕上げ
  6
Continuous
 62
    40
370
    15
100
AcDbLine
 10
-1536.480532699879
 20
-345.9999259742578
 30
0.0
 11
-1536.480532699879
 21
2.00007402574073
 31
0.0
  0
LINE
  5
2DD
330
1F
100
AcDbEntity
  8
0-3_仕上げ
  6
Continuous
 62
    40
370
    15
100
AcDbLine
 10
-1611.480532699879
 20
-345.9999259742578
 30
0.0
 11
-1611.480532699879
 21
2.00007402574073
 31
0.0
  0
LINE
  5
2DE
330
1F
100
AcDbEntity
  8
0-C_ハッチ
  6
JWW_DASHED1
 62
   120
370
     5
100
AcDbLine
 10
-1611.480532699879
 20
-55.65971875170305
 30
0.0
 11
-1553.821110876037
 21
1.999703072129648
 31
0.0
  0
LINE
  5
2DF
330
1F
100
AcDbEntity
  8
0-C_ハッチ
  6
JWW_DASHED1
 62
   120
370
     5
100
AcDbLine
 10
-1611.480532699852
 20
-98.0861256228988
 30
0.0
 11
-1536.480532699879
 21
-23.08612562289539
 31
0.0
  0
LINE
  5
2E0
330
1F
100
AcDbEntity
  8
0-E
  6
Continuous
 62
    92
370
    13
100
AcDbLine
 10
2180.23961527955
 20
-3097.097370803164
 30
0.0
 11
2180.23961527955
 21
2.00007402574073
 31
0.0
  0
LINE
  5
2E1
330
1F
100
AcDbEntity
  8
0-E
  6
Continuous
 62
    92
370
    13
100
AcDbLine
 10
194.5702536089698
 20
2.00007402574073
 30
0.0
 11
194.5702536089698
 21
-3097.097370803164
 31
0.0
  0
LWPOLYLINE
  5
2E2
330
1F
100
AcDbEntity
  8
0-E
  6
Continuous
 62
     7
370
     9
100
AcDbPolyline
 90
        4
 70
     1
 43
3.0
 10
779.7203788137102
 20
-969.4181252843791
 42
0.4142135623731
 10
778.2203788137101
 20
-967.9181252843791
 42
0.4142135623731
 10
776.7203788137101
 20
-969.4181252843791
 42
0.4142135623731
 10
778.2203788137101
 20
-970.918125284379
 42
0.4142135623731
  0
LINE
  5
2E3
330
1F
100
AcDbEntity
  8
0-E
  6
Continuous
 62
   120
370
     5
100
AcDbLine
 10
778.2203788137101
 20
-969.4181252843791
 30
0.0
 11
778.2203788137101
 21
-1112.96017508438
 31
0.0
  0
LINE
  5
2E4
330
1F
100
AcDbEntity
  8
0-E
  6
Continuous
 62
    92
370
    13
100
AcDbLine
 10
778.2203788137101
 20
-1162.960175084379
 30
0.0
 11
778.2203788137101
 21
-2038.251380633207
 31
0.0
  0
MTEXT
  5
2E5
330
1F
100
AcDbEntity
  8
0-E
  6
Continuous
 62
     7
370
     0
100
AcDbMText
 10
467.4049344442588
 20
-184.0415489365166
 30
0.0
 40
91.44000000000008
 41
1440.000000000001
 46
0.0
 71
     7
 72
     1
  1
{\fＭＳ ゴシック|b0|i0|c128|p49;竪枠下端形状図（S＝1/3）}
 73
     1
 44
1.0
  0
LINE
  5
2E6
330
1F
100
AcDbEntity
  8
0-E
  6
Continuous
 62
    92
370
    13
100
AcDbLine
 10
4165.90897695013
 20
-3097.097370803164
 30
0.0
 11
4165.90897695013
 21
2.00007402574073
 31
0.0
  0
LINE
  5
2E7
330
1F
100
AcDbEntity
  8
0-E
  6
Continuous
 62
    92
370
    13
100
AcDbLine
 10
4165.90897695013
 20
-3097.097370803164
 30
0.0
 11
194.5702536089698
 21
-3097.097370803164
 31
0.0
  0
LINE
  5
2E8
330
1F
100
AcDbEntity
  8
0-E
  6
Continuous
 62
    92
370
    13
100
AcDbLine
 10
194.5702536089698
 20
-213.9999259742606
 30
0.0
 11
4165.90897695013
 21
-213.9999259742606
 31
0.0
  0
LINE
  5
2E9
330
1F
100
AcDbEntity
  8
0-E
  6
Continuous
 62
    92
370
    13
100
AcDbLine
 10
194.5702536089698
 20
2.00007402574073
 30
0.0
 11
4165.90897695013
 21
2.00007402574073
 31
0.0
  0
MTEXT
  5
2EA
330
1F
100
AcDbEntity
  8
0-E
  6
Continuous
 62
     7
370
     0
100
AcDbMText
 10
2576.353904836362
 20
-184.0415489365166
 30
0.0
 40
91.43999999999998
 41
1200.0
 46
0.0
 71
     7
 72
     1
  1
{\fＭＳ ゴシック|b0|i0|c128|p49;下枠詳細図（S＝1/2）}
 73
     1
 44
1.0
  0
INSERT
  5
2EB
330
1F
100
AcDbEntity
  8
0-E
  6
Continuous
 62
     7
370
     9
100
AcDbBlockReference
  2
01@@SfigorgFlag@@4
 10
3281.251686318663
 20
-2351.482948199819
 30
0.0
 41
30.0
 42
30.0
  0
LWPOLYLINE
  5
2EC
330
1F
100
AcDbEntity
  8
0-E
  6
Continuous
 62
     7
370
     9
100
AcDbPolyline
 90
        4
 70
     1
 43
3.0
 10
3042.751686318666
 20
-2304.713717430588
 42
0.4142135623731
 10
3041.251686318666
 20
-2303.213717430589
 42
0.4142135623731
 10
3039.751686318666
 20
-2304.713717430588
 42
0.4142135623731
 10
3041.251686318666
 20
-2306.213717430588
 42
0.4142135623731
  0
LWPOLYLINE
  5
2ED
330
1F
100
AcDbEntity
  8
0-E
  6
Continuous
 62
     7
370
     9
100
AcDbPolyline
 90
        4
 70
     1
 43
3.0
 10
3522.75168631866
 20
-2304.713717430588
 42
0.4142135623731
 10
3521.25168631866
 20
-2303.213717430589
 42
0.4142135623731
 10
3519.75168631866
 20
-2304.713717430588
 42
0.4142135623731
 10
3521.25168631866
 20
-2306.213717430588
 42
0.4142135623731
  0
LWPOLYLINE
  5
2EE
330
1F
100
AcDbEntity
  8
0-E
  6
Continuous
 62
     7
370
     9
100
AcDbPolyline
 90
        4
 70
     1
 43
3.0
 10
3200.251686318657
 20
-2300.213717430589
 42
0.4142135623731
 10
3198.751686318657
 20
-2298.713717430589
 42
0.4142135623731
 10
3197.251686318657
 20
-2300.213717430589
 42
0.4142135623731
 10
3198.751686318657
 20
-2301.713717430589
 42
0.4142135623731
  0
LWPOLYLINE
  5
2EF
330
1F
100
AcDbEntity
  8
0-E
  6
Continuous
 62
     7
370
     9
100
AcDbPolyline
 90
        4
 70
     1
 43
3.0
 10
3365.251686318669
 20
-2300.213717430589
 42
0.4142135623731
 10
3363.75168631867
 20
-2298.713717430589
 42
0.4142135623731
 10
3362.25168631867
 20
-2300.213717430589
 42
0.4142135623731
 10
3363.75168631867
 20
-2301.713717430589
 42
0.4142135623731
  0
LINE
  5
2F0
330
1F
100
AcDbEntity
  8
0-E
  6
Continuous
 62
   120
370
     5
100
AcDbLine
 10
3198.751686318657
 20
-2151.03360149784
 30
0.0
 11
3363.75168631867
 21
-2151.03360149784
 31
0.0
  0
LWPOLYLINE
  5
2F1
330
1F
100
AcDbEntity
  8
0-E
  6
Continuous
 62
     7
370
     9
100
AcDbPolyline
 90
        4
 70
     1
 43
3.0
 10
3200.251686318657
 20
-2151.03360149784
 42
0.4142135623731
 10
3198.751686318657
 20
-2149.53360149784
 42
0.4142135623731
 10
3197.251686318657
 20
-2151.03360149784
 42
0.4142135623731
 10
3198.751686318657
 20
-2152.53360149784
 42
0.4142135623731
  0
LWPOLYLINE
  5
2F2
330
1F
100
AcDbEntity
  8
0-E
  6
Continuous
 62
     7
370
     9
100
AcDbPolyline
 90
        4
 70
     1
 43
3.0
 10
3365.251686318669
 20
-2151.03360149784
 42
0.4142135623731
 10
3363.75168631867
 20
-2149.53360149784
 42
0.4142135623731
 10
3362.25168631867
 20
-2151.03360149784
 42
0.4142135623731
 10
3363.75168631867
 20
-2152.53360149784
 42
0.4142135623731
  0
LINE
  5
2F3
330
1F
100
AcDbEntity
  8
0-E
  6
Continuous
 62
   120
370
     5
100
AcDbLine
 10
3198.751686318657
 20
-2151.03360149784
 30
0.0
 11
3198.751686318657
 21
-2236.897910415786
 31
0.0
  0
LINE
  5
2F4
330
1F
100
AcDbEntity
  8
0-E
  6
Continuous
 62
   120
370
     5
100
AcDbLine
 10
3363.75168631867
 20
-2151.03360149784
 30
0.0
 11
3363.75168631867
 21
-2236.897910415786
 31
0.0
  0
MTEXT
  5
2F5
330
1F
100
AcDbEntity
  8
0-E
  6
Continuous
 62
     7
370
   211
100
AcDbMText
 10
3236.251686318663
 20
-794.2929781202527
 30
0.0
 40
68.58
 41
90.0
 46
0.0
 71
     7
 72
     1
  1
{\fＭＳ ゴシック|b0|i0|c128|p49;77}
 73
     1
 44
1.0
  0
LINE
  5
2F6
330
1F
100
AcDbEntity
  8
0-E
  6
Continuous
 62
   120
370
     5
100
AcDbLine
 10
3041.251686318666
 20
-1991.571313507367
 30
0.0
 11
3521.25168631866
 21
-1991.571313507367
 31
0.0
  0
LWPOLYLINE
  5
2F7
330
1F
100
AcDbEntity
  8
0-E
  6
Continuous
 62
     7
370
     9
100
AcDbPolyline
 90
        4
 70
     1
 43
3.0
 10
3042.751686318666
 20
-1991.571313507367
 42
0.4142135623731
 10
3041.251686318666
 20
-1990.071313507367
 42
0.4142135623731
 10
3039.751686318666
 20
-1991.571313507367
 42
0.4142135623731
 10
3041.251686318666
 20
-1993.071313507367
 42
0.4142135623731
  0
LWPOLYLINE
  5
2F8
330
1F
100
AcDbEntity
  8
0-E
  6
Continuous
 62
     7
370
     9
100
AcDbPolyline
 90
        4
 70
     1
 43
3.0
 10
3522.75168631866
 20
-1991.571313507367
 42
0.4142135623731
 10
3521.25168631866
 20
-1990.071313507367
 42
0.4142135623731
 10
3519.75168631866
 20
-1991.571313507367
 42
0.4142135623731
 10
3521.25168631866
 20
-1993.071313507367
 42
0.4142135623731
  0
LINE
  5
2F9
330
1F
100
AcDbEntity
  8
0-E
  6
Continuous
 62
   120
370
     5
100
AcDbLine
 10
3041.251686318666
 20
-1991.571313507367
 30
0.0
 11
3041.251686318666
 21
-2236.897910415786
 31
0.0
  0
LINE
  5
2FA
330
1F
100
AcDbEntity
  8
0-E
  6
Continuous
 62
   120
370
     5
100
AcDbLine
 10
3521.25168631866
 20
-1991.571313507367
 30
0.0
 11
3521.25168631866
 21
-2236.897910415786
 31
0.0
  0
MTEXT
  5
2FB
330
1F
100
AcDbEntity
  8
0-E
  6
Continuous
 62
     7
370
   211
100
AcDbMText
 10
1112.604379996266
 20
-968.6981252843791
 30
0.0
 40
91.43999999999967
 41
119.9999999999996
 46
0.0
 71
     7
 72
     1
  1
{\fＭＳ ゴシック|b0|i0|c128|p49;77}
 73
     1
 44
1.0
  0
LWPOLYLINE
  5
2FC
330
1F
100
AcDbEntity
  8
0-E
  6
Continuous
 62
     7
370
     9
100
AcDbPolyline
 90
        4
 70
     1
 43
3.0
 10
2824.899960579738
 20
-2291.21371743059
 42
0.4142135623731
 10
2823.399960579738
 20
-2289.71371743059
 42
0.4142135623731
 10
2821.899960579738
 20
-2291.21371743059
 42
0.4142135623731
 10
2823.399960579738
 20
-2292.71371743059
 42
0.4142135623731
  0
LWPOLYLINE
  5
2FD
330
1F
100
AcDbEntity
  8
0-E
  6
Continuous
 62
     7
370
     9
100
AcDbPolyline
 90
        4
 70
     1
 43
3.0
 10
2824.899960579738
 20
-2309.213717430591
 42
0.4142135623731
 10
2823.399960579738
 20
-2307.713717430591
 42
0.4142135623731
 10
2821.899960579738
 20
-2309.213717430591
 42
0.4142135623731
 10
2823.399960579738
 20
-2310.713717430591
 42
0.4142135623731
  0
LINE
  5
2FE
330
1F
100
AcDbEntity
  8
0-E
  6
Continuous
 62
   120
370
     5
100
AcDbLine
 10
2823.399960579738
 20
-2291.21371743059
 30
0.0
 11
2954.240812264228
 21
-2291.21371743059
 31
0.0
  0
LINE
  5
2FF
330
1F
100
AcDbEntity
  8
0-E
  6
Continuous
 62
   120
370
     5
100
AcDbLine
 10
2823.399960579738
 20
-2309.213717430591
 30
0.0
 11
2954.240812264228
 21
-2309.213717430591
 31
0.0
  0
LINE
  5
300
330
1F
100
AcDbEntity
  8
0-E
  6
Continuous
 62
   120
370
     5
100
AcDbLine
 10
2823.399960579738
 20
-2309.213717430591
 30
0.0
 11
2823.399960579738
 21
-2414.213717430591
 31
0.0
  0
LWPOLYLINE
  5
301
330
1F
100
AcDbEntity
  8
0-E
  6
Continuous
 62
     7
370
     9
100
AcDbPolyline
 90
        4
 70
     1
 43
3.0
 10
2824.899960579738
 20
-2414.213717430591
 42
0.4142135623731
 10
2823.399960579738
 20
-2412.713717430591
 42
0.4142135623731
 10
2821.899960579738
 20
-2414.213717430591
 42
0.4142135623731
 10
2823.399960579738
 20
-2415.713717430591
 42
0.4142135623731
  0
LINE
  5
302
330
1F
100
AcDbEntity
  8
0-E
  6
Continuous
 62
   120
370
     5
100
AcDbLine
 10
2823.399960579738
 20
-2414.213717430591
 30
0.0
 11
2954.240812264228
 21
-2414.213717430591
 31
0.0
  0
MTEXT
  5
303
330
1F
100
AcDbEntity
  8
0-E
  6
Continuous
 62
     7
370
   211
100
AcDbMText
 10
2828.251686318677
 20
-977.5127083234364
 30
0.0
 40
68.58
 41
180.0
 46
0.0
 71
     7
 72
     1
  1
{\fＭＳ ゴシック|b0|i0|c128|p49;28.6}
 73
     1
 44
1.0
  0
LINE
  5
304
330
1F
100
AcDbEntity
  8
0-E
  6
Continuous
 62
   120
370
     5
100
AcDbLine
 10
3135.751686318666
 20
-2625.11006624104
 30
0.0
 11
3426.75168631866
 21
-2625.11006624104
 31
0.0
  0
LWPOLYLINE
  5
305
330
1F
100
AcDbEntity
  8
0-E
  6
Continuous
 62
     7
370
     9
100
AcDbPolyline
 90
        4
 70
     1
 43
3.0
 10
3137.251686318665
 20
-2625.11006624104
 42
0.4142135623731
 10
3135.751686318666
 20
-2623.61006624104
 42
0.4142135623731
 10
3134.251686318666
 20
-2625.11006624104
 42
0.4142135623731
 10
3135.751686318666
 20
-2626.61006624104
 42
0.4142135623731
  0
LWPOLYLINE
  5
306
330
1F
100
AcDbEntity
  8
0-E
  6
Continuous
 62
     7
370
     9
100
AcDbPolyline
 90
        4
 70
     1
 43
3.0
 10
3428.25168631866
 20
-2625.11006624104
 42
0.4142135623731
 10
3426.75168631866
 20
-2623.61006624104
 42
0.4142135623731
 10
3425.25168631866
 20
-2625.11006624104
 42
0.4142135623731
 10
3426.75168631866
 20
-2626.61006624104
 42
0.4142135623731
  0
LINE
  5
307
330
1F
100
AcDbEntity
  8
0-E
  6
Continuous
 62
   120
370
     5
100
AcDbLine
 10
3135.751686318666
 20
-2625.11006624104
 30
0.0
 11
3135.751686318666
 21
-2497.49398417289
 31
0.0
  0
LINE
  5
308
330
1F
100
AcDbEntity
  8
0-E
  6
Continuous
 62
   120
370
     5
100
AcDbLine
 10
3426.75168631866
 20
-2625.11006624104
 30
0.0
 11
3426.75168631866
 21
-2497.49398417289
 31
0.0
  0
MTEXT
  5
309
330
1F
100
AcDbEntity
  8
0-E
  6
Continuous
 62
     7
370
   211
100
AcDbMText
 10
3191.251686318663
 20
-977.5127083234364
 30
0.0
 40
68.58
 41
180.0
 46
0.0
 71
     7
 72
     1
  1
{\fＭＳ ゴシック|b0|i0|c128|p49;19.8}
 73
     1
 44
1.0
  0
MTEXT
  5
30A
330
1F
100
AcDbEntity
  8
0-E
  6
Continuous
 62
     7
370
   211
100
AcDbMText
 10
3554.25168631865
 20
-977.5127083234364
 30
0.0
 40
68.58
 41
180.0
 46
0.0
 71
     7
 72
     1
  1
{\fＭＳ ゴシック|b0|i0|c128|p49;28.6}
 73
     1
 44
1.0
  0
LINE
  5
30B
330
1F
100
AcDbEntity
  8
0-E
  6
Continuous
 62
   120
370
     5
100
AcDbLine
 10
2823.399960579738
 20
-2124.725872806283
 30
0.0
 11
2823.399960579738
 21
-2309.213717430591
 31
0.0
  0
LINE
  5
30C
330
1F
100
AcDbEntity
  8
0-E
  6
JWW_HOJO
 62
   120
370
     5
100
AcDbLine
 10
3281.251686318663
 20
-1388.228489458579
 30
0.0
 11
3281.251686318663
 21
-1350.855724353694
 31
0.0
  0
LINE
  5
30D
330
1F
100
AcDbEntity
  8
0-E
  6
Continuous
 62
    92
370
    13
100
AcDbLine
 10
3858.751686318649
 20
-1278.855823329623
 30
0.0
 11
3858.751686318649
 21
-1473.855724353693
 31
0.0
  0
ARC
  5
30E
330
1F
100
AcDbEntity
  8
0-E
  6
Continuous
 62
    92
370
    13
100
AcDbCircle
 10
3828.751587342745
 20
-1278.855823329623
 30
0.0
 40
30.00000038662473
100
AcDbArc
 50
0.0
 51
90.0
  0
LINE
  5
30F
330
1F
100
AcDbEntity
  8
0-E
  6
Continuous
 62
    92
370
    13
100
AcDbLine
 10
2703.751686318677
 20
-1278.855823329623
 30
0.0
 11
2703.751686318677
 21
-1473.855724353693
 31
0.0
  0
ARC
  5
310
330
1F
100
AcDbEntity
  8
0-E
  6
Continuous
 62
    92
370
    13
100
AcDbCircle
 10
2733.751785294581
 20
-1278.855823329623
 30
0.0
 40
30.00000038662473
100
AcDbArc
 50
90.0
 51
180.0
  0
LINE
  5
311
330
1F
100
AcDbEntity
  8
0-E
  6
Continuous
 62
    92
370
    13
100
AcDbLine
 10
2703.751686318677
 20
-1473.855724353693
 30
0.0
 11
3858.751686318649
 21
-1473.855724353693
 31
0.0
  0
LINE
  5
312
330
1F
100
AcDbEntity
  8
0-E
  6
Continuous
 62
   120
370
     5
100
AcDbLine
 10
2816.588382135197
 20
-1473.855724353693
 30
0.0
 11
3041.588846084315
 21
-1248.855724353693
 31
0.0
  0
LINE
  5
313
330
1F
100
AcDbEntity
  8
0-E
  6
Continuous
 62
   120
370
     5
100
AcDbLine
 10
2710.522064963541
 20
-1473.855724353693
 30
0.0
 11
2935.522528912625
 21
-1248.855724353693
 31
0.0
  0
LINE
  5
314
330
1F
100
AcDbEntity
  8
0-E
  6
Continuous
 62
   120
370
     5
100
AcDbLine
 10
2703.751686318677
 20
-1374.560263884683
 30
0.0
 11
2829.456225849654
 21
-1248.855724353693
 31
0.0
  0
LINE
  5
315
330
1F
100
AcDbEntity
  8
0-E
  6
Continuous
 62
   120
370
     5
100
AcDbLine
 10
3346.919967993509
 20
-1473.855724353693
 30
0.0
 11
3571.920431942627
 21
-1248.855724353693
 31
0.0
  0
LINE
  5
316
330
1F
100
AcDbEntity
  8
0-E
  6
Continuous
 62
   120
370
     5
100
AcDbLine
 10
3452.986285165198
 20
-1473.855724353693
 30
0.0
 11
3677.986749114282
 21
-1248.855724353693
 31
0.0
  0
LINE
  5
317
330
1F
100
AcDbEntity
  8
0-E
  6
Continuous
 62
   120
370
     5
100
AcDbLine
 10
3559.052602336854
 20
-1473.855724353693
 30
0.0
 11
3784.053066285938
 21
-1248.855724353693
 31
0.0
  0
LINE
  5
318
330
1F
100
AcDbEntity
  8
0-E
  6
Continuous
 62
   120
370
     5
100
AcDbLine
 10
3771.185132815915
 20
-1473.855724353693
 30
0.0
 11
3858.751686318683
 21
-1386.29068068853
 31
0.0
  0
LINE
  5
319
330
1F
100
AcDbEntity
  8
0-E
  6
Continuous
 62
   120
370
     5
100
AcDbLine
 10
3028.721057039334
 20
-1473.855724353693
 30
0.0
 11
3148.720593090141
 21
-1353.855724353691
 31
0.0
  0
LINE
  5
31A
330
1F
100
AcDbEntity
  8
0-E
  6
Continuous
 62
   120
370
     5
100
AcDbLine
 10
3240.853691382645
 20
-1473.855724353693
 30
0.0
 11
3360.853227433452
 21
-1353.855724353691
 31
0.0
  0
LINE
  5
31B
330
1F
100
AcDbEntity
  8
0-E
  6
Continuous
 62
   120
370
     5
100
AcDbLine
 10
3134.787374211024
 20
-1473.855724353693
 30
0.0
 11
3254.786910261796
 21
-1353.855724353691
 31
0.0
  0
LINE
  5
31C
330
1F
100
AcDbEntity
  8
0-E
  6
Continuous
 62
   120
370
     5
100
AcDbLine
 10
3665.118882633899
 20
-1473.855724353693
 30
0.0
 11
3858.751686318649
 21
-1280.224363507666
 31
0.0
  0
INSERT
  5
31D
330
1F
100
AcDbEntity
  8
0-E
  6
Continuous
 62
     7
370
     9
100
AcDbBlockReference
  2
01@@SfigorgFlag@@4
 10
3281.251686318663
 20
-1291.124955122922
 30
0.0
 41
30.0
 42
30.0
  0
LWPOLYLINE
  5
31E
330
1F
100
AcDbEntity
  8
0-E
  6
Continuous
 62
     7
370
     9
100
AcDbPolyline
 90
        4
 70
     1
 43
3.0
 10
2705.251686318676
 20
-981.8027083234354
 42
0.4142135623731
 10
2703.751686318677
 20
-980.3027083234355
 42
0.4142135623731
 10
2702.251686318677
 20
-981.8027083234354
 42
0.4142135623731
 10
2703.751686318677
 20
-983.3027083234354
 42
0.4142135623731
  0
LINE
  5
31F
330
1F
100
AcDbEntity
  8
0-E
  6
Continuous
 62
   120
370
     5
100
AcDbLine
 10
2703.751686318677
 20
-981.8027083234354
 30
0.0
 11
2703.751686318677
 21
-1126.103365701366
 31
0.0
  0
LINE
  5
320
330
1F
100
AcDbEntity
  8
0-E
  6
Continuous
 62
   120
370
     5
100
AcDbLine
 10
2703.751686318677
 20
-798.5829781202535
 30
0.0
 11
3858.751686318649
 21
-798.5829781202535
 31
0.0
  0
LWPOLYLINE
  5
321
330
1F
100
AcDbEntity
  8
0-E
  6
Continuous
 62
     7
370
     9
100
AcDbPolyline
 90
        4
 70
     1
 43
3.0
 10
2705.251686318676
 20
-798.5829781202535
 42
0.4142135623731
 10
2703.751686318677
 20
-797.0829781202535
 42
0.4142135623731
 10
2702.251686318677
 20
-798.5829781202535
 42
0.4142135623731
 10
2703.751686318677
 20
-800.0829781202535
 42
0.4142135623731
  0
LWPOLYLINE
  5
322
330
1F
100
AcDbEntity
  8
0-E
  6
Continuous
 62
     7
370
     9
100
AcDbPolyline
 90
        4
 70
     1
 43
3.0
 10
3860.251686318649
 20
-798.5829781202535
 42
0.4142135623731
 10
3858.751686318649
 20
-797.0829781202535
 42
0.4142135623731
 10
3857.251686318649
 20
-798.5829781202535
 42
0.4142135623731
 10
3858.751686318649
 20
-800.0829781202535
 42
0.4142135623731
  0
LINE
  5
323
330
1F
100
AcDbEntity
  8
0-E
  6
Continuous
 62
   120
370
     5
100
AcDbLine
 10
2703.751686318677
 20
-798.5829781202535
 30
0.0
 11
2703.751686318677
 21
-981.8027083234354
 31
0.0
  0
LINE
  5
324
330
1F
100
AcDbEntity
  8
0-E
  6
Continuous
 62
   120
370
     5
100
AcDbLine
 10
3858.751686318649
 20
-798.5829781202535
 30
0.0
 11
3858.751686318649
 21
-981.8027083234354
 31
0.0
  0
MTEXT
  5
325
330
1F
100
AcDbEntity
  8
0-E
  6
Continuous
 62
     7
370
   211
100
AcDbMText
 10
2478.186112578579
 20
-1334.565724353692
 30
0.0
 40
68.58000000000258
 41
45.00000000000171
 46
0.0
 71
     7
 72
     1
  1
{\fＭＳ ゴシック|b0|i0|c128|p49;7}
 11
6.123031769111886E-17
 21
1.0
 31
0.0
 73
     1
 44
1.0
  0
LINE
  5
326
330
1F
100
AcDbEntity
  8
0-E
  6
Continuous
 62
   120
370
     5
100
AcDbLine
 10
2363.731549964354
 20
-1248.855724353693
 30
0.0
 11
2363.731549964354
 21
-1473.855724353693
 31
0.0
  0
LWPOLYLINE
  5
327
330
1F
100
AcDbEntity
  8
0-E
  6
Continuous
 62
     7
370
     9
100
AcDbPolyline
 90
        4
 70
     1
 43
3.0
 10
2365.231549964354
 20
-1248.855724353693
 42
0.4142135623731
 10
2363.731549964354
 20
-1247.355724353693
 42
0.4142135623731
 10
2362.231549964355
 20
-1248.855724353693
 42
0.4142135623731
 10
2363.731549964354
 20
-1250.355724353693
 42
0.4142135623731
  0
LWPOLYLINE
  5
328
330
1F
100
AcDbEntity
  8
0-E
  6
Continuous
 62
     7
370
     9
100
AcDbPolyline
 90
        4
 70
     1
 43
3.0
 10
2365.231549964354
 20
-1473.855724353693
 42
0.4142135623731
 10
2363.731549964354
 20
-1472.355724353693
 42
0.4142135623731
 10
2362.231549964355
 20
-1473.855724353693
 42
0.4142135623731
 10
2363.731549964354
 20
-1475.355724353693
 42
0.4142135623731
  0
LINE
  5
329
330
1F
100
AcDbEntity
  8
0-E
  6
Continuous
 62
   120
370
     5
100
AcDbLine
 10
2363.731549964354
 20
-1248.855724353693
 30
0.0
 11
2493.186112578579
 21
-1248.855724353693
 31
0.0
  0
MTEXT
  5
32A
330
1F
100
AcDbEntity
  8
0-E
  6
Continuous
 62
     7
370
   211
100
AcDbMText
 10
2348.731549964354
 20
-1417.065724353693
 30
0.0
 40
68.58000000000258
 41
90.00000000000341
 46
0.0
 71
     7
 72
     1
  1
{\fＭＳ ゴシック|b0|i0|c128|p49;15}
 11
6.123031769111886E-17
 21
1.0
 31
0.0
 73
     1
 44
1.0
  0
LINE
  5
32B
330
1F
100
AcDbEntity
  8
0-E
  6
Continuous
 62
   120
370
     5
100
AcDbLine
 10
2493.186112578579
 20
-1248.855724353693
 30
0.0
 11
2493.186112578579
 21
-1353.855724353691
 31
0.0
  0
LWPOLYLINE
  5
32C
330
1F
100
AcDbEntity
  8
0-E
  6
Continuous
 62
     7
370
     9
100
AcDbPolyline
 90
        4
 70
     1
 43
3.0
 10
2494.686112578578
 20
-1248.855724353693
 42
0.4142135623731
 10
2493.186112578579
 20
-1247.355724353693
 42
0.4142135623731
 10
2491.686112578579
 20
-1248.855724353693
 42
0.4142135623731
 10
2493.186112578579
 20
-1250.355724353693
 42
0.4142135623731
  0
LWPOLYLINE
  5
32D
330
1F
100
AcDbEntity
  8
0-E
  6
Continuous
 62
     7
370
     9
100
AcDbPolyline
 90
        4
 70
     1
 43
3.0
 10
2494.686112578578
 20
-1353.855724353691
 42
0.4142135623731
 10
2493.186112578579
 20
-1352.355724353691
 42
0.4142135623731
 10
2491.686112578579
 20
-1353.855724353691
 42
0.4142135623731
 10
2493.186112578579
 20
-1355.355724353691
 42
0.4142135623731
  0
LINE
  5
32E
330
1F
100
AcDbEntity
  8
0-E
  6
Continuous
 62
   120
370
     5
100
AcDbLine
 10
2493.186112578579
 20
-1248.855724353693
 30
0.0
 11
2632.364771387113
 21
-1248.855724353693
 31
0.0
  0
LINE
  5
32F
330
1F
100
AcDbEntity
  8
0-E
  6
Continuous
 62
   120
370
     5
100
AcDbLine
 10
2493.186112578579
 20
-1353.855724353691
 30
0.0
 11
2632.364771387113
 21
-1353.855724353691
 31
0.0
  0
MTEXT
  5
330
330
1F
100
AcDbEntity
  8
0-E
  6
Continuous
 62
     7
370
   211
100
AcDbMText
 10
3236.251686318663
 20
-1987.281313507367
 30
0.0
 40
68.58
 41
90.0
 46
0.0
 71
     7
 72
     1
  1
{\fＭＳ ゴシック|b0|i0|c128|p49;32}
 73
     1
 44
1.0
  0
LINE
  5
331
330
1F
100
AcDbEntity
  8
0-E
  6
Continuous
 62
   120
370
     5
100
AcDbLine
 10
2363.731549964354
 20
-1473.855724353693
 30
0.0
 11
2632.364771387113
 21
-1473.855724353693
 31
0.0
  0
LINE
  5
332
330
1F
100
AcDbEntity
  8
0-E
  6
Continuous
 62
    92
370
    13
100
AcDbLine
 10
2733.751785294581
 20
-1248.855724353693
 30
0.0
 11
3132.751686318676
 21
-1248.855724353693
 31
0.0
  0
LINE
  5
333
330
1F
100
AcDbEntity
  8
0-E
  6
Continuous
 62
    92
370
    13
100
AcDbLine
 10
3132.751686318676
 20
-1248.855724353693
 30
0.0
 11
3132.751686318676
 21
-1353.855724353691
 31
0.0
  0
LINE
  5
334
330
1F
100
AcDbEntity
  8
0-E
  6
Continuous
 62
    92
370
    13
100
AcDbLine
 10
3429.75168631865
 20
-1353.855724353691
 30
0.0
 11
3132.751686318676
 21
-1353.855724353691
 31
0.0
  0
LINE
  5
335
330
1F
100
AcDbEntity
  8
0-E
  6
Continuous
 62
    92
370
    13
100
AcDbLine
 10
3429.75168631865
 20
-1248.855724353693
 30
0.0
 11
3429.75168631865
 21
-1353.855724353691
 31
0.0
  0
LINE
  5
336
330
1F
100
AcDbEntity
  8
0-E
  6
Continuous
 62
    92
370
    13
100
AcDbLine
 10
3429.75168631865
 20
-1248.855724353693
 30
0.0
 11
3828.751587342745
 21
-1248.855724353693
 31
0.0
  0
LINE
  5
337
330
1F
100
AcDbEntity
  8
0-E
  6
Continuous
 62
   120
370
     5
100
AcDbLine
 10
2922.654666213921
 20
-1473.855724353693
 30
0.0
 11
3132.751686318676
 21
-1263.760153647032
 31
0.0
  0
LINE
  5
338
330
1F
100
AcDbEntity
  8
0-E
  6
Continuous
 62
   120
370
     5
100
AcDbLine
 10
3429.75168631865
 20
-1281.927922938344
 30
0.0
 11
3462.824625320118
 21
-1248.855724353693
 31
0.0
  0
LINE
  5
339
330
1F
100
AcDbEntity
  8
0-E
  6
Continuous
 62
   120
370
     5
100
AcDbLine
 10
2703.751686318677
 20
-981.8027083234354
 30
0.0
 11
3132.751686318676
 21
-981.8027083234354
 31
0.0
  0
LWPOLYLINE
  5
33A
330
1F
100
AcDbEntity
  8
0-E
  6
Continuous
 62
     7
370
     9
100
AcDbPolyline
 90
        4
 70
     1
 43
3.0
 10
3134.251686318676
 20
-981.8027083234354
 42
0.4142135623731
 10
3132.751686318676
 20
-980.3027083234355
 42
0.4142135623731
 10
3131.251686318676
 20
-981.8027083234354
 42
0.4142135623731
 10
3132.751686318676
 20
-983.3027083234354
 42
0.4142135623731
  0
LINE
  5
33B
330
1F
100
AcDbEntity
  8
0-E
  6
Continuous
 62
   120
370
     5
100
AcDbLine
 10
3132.751686318676
 20
-981.8027083234354
 30
0.0
 11
3132.751686318676
 21
-1126.103365701366
 31
0.0
  0
MTEXT
  5
33C
330
1F
100
AcDbEntity
  8
0-E
  6
Continuous
 62
     7
370
   211
100
AcDbMText
 10
3236.251686318663
 20
-2146.743601497839
 30
0.0
 40
68.58
 41
90.0
 46
0.0
 71
     7
 72
     1
  1
{\fＭＳ ゴシック|b0|i0|c128|p49;11}
 73
     1
 44
1.0
  0
LINE
  5
33D
330
1F
100
AcDbEntity
  8
0-E
  6
Continuous
 62
   120
370
     5
100
AcDbLine
 10
3132.751686318676
 20
-981.8027083234354
 30
0.0
 11
3429.75168631865
 21
-981.8027083234354
 31
0.0
  0
LWPOLYLINE
  5
33E
330
1F
100
AcDbEntity
  8
0-E
  6
Continuous
 62
     7
370
     9
100
AcDbPolyline
 90
        4
 70
     1
 43
3.0
 10
3431.25168631865
 20
-981.8027083234354
 42
0.4142135623731
 10
3429.75168631865
 20
-980.3027083234355
 42
0.4142135623731
 10
3428.25168631865
 20
-981.8027083234354
 42
0.4142135623731
 10
3429.75168631865
 20
-983.3027083234354
 42
0.4142135623731
  0
LINE
  5
33F
330
1F
100
AcDbEntity
  8
0-E
  6
Continuous
 62
   120
370
     5
100
AcDbLine
 10
3429.75168631865
 20
-981.8027083234354
 30
0.0
 11
3429.75168631865
 21
-1126.103365701366
 31
0.0
  0
MTEXT
  5
340
330
1F
100
AcDbEntity
  8
0-E
  6
Continuous
 62
     7
370
   211
100
AcDbMText
 10
2808.399960579738
 20
-2282.900408368271
 30
0.0
 40
68.58000000000044
 41
135.0000000000009
 46
0.0
 71
     7
 72
     1
  1
{\fＭＳ ゴシック|b0|i0|c128|p49;1.2}
 11
6.123031769111886E-17
 21
1.0
 31
0.0
 73
     1
 44
1.0
  0
LINE
  5
341
330
1F
100
AcDbEntity
  8
0-E
  6
Continuous
 62
   120
370
     5
100
AcDbLine
 10
3429.75168631865
 20
-981.8027083234354
 30
0.0
 11
3858.751686318649
 21
-981.8027083234354
 31
0.0
  0
LWPOLYLINE
  5
342
330
1F
100
AcDbEntity
  8
0-E
  6
Continuous
 62
     7
370
     9
100
AcDbPolyline
 90
        4
 70
     1
 43
3.0
 10
3860.251686318649
 20
-981.8027083234354
 42
0.4142135623731
 10
3858.751686318649
 20
-980.3027083234355
 42
0.4142135623731
 10
3857.251686318649
 20
-981.8027083234354
 42
0.4142135623731
 10
3858.751686318649
 20
-983.3027083234354
 42
0.4142135623731
  0
LINE
  5
343
330
1F
100
AcDbEntity
  8
0-E
  6
Continuous
 62
   120
370
     5
100
AcDbLine
 10
3858.751686318649
 20
-981.8027083234354
 30
0.0
 11
3858.751686318649
 21
-1126.103365701366
 31
0.0
  0
MTEXT
  5
344
330
1F
100
AcDbEntity
  8
0-E
  6
Continuous
 62
     7
370
   211
100
AcDbMText
 10
2808.399960579738
 20
-2394.923717430591
 30
0.0
 40
68.57999999999609
 41
44.99999999999744
 46
0.0
 71
     7
 72
     1
  1
{\fＭＳ ゴシック|b0|i0|c128|p49;7}
 11
6.123031769111886E-17
 21
1.0
 31
0.0
 73
     1
 44
1.0
  0
LWPOLYLINE
  5
345
330
1F
100
AcDbEntity
  8
0-E
  6
Continuous
 62
     7
370
     9
100
AcDbPolyline
 90
        4
 70
     1
 43
3.0
 10
2668.456990335743
 20
-2414.213717430591
 42
0.4142135623731
 10
2666.956990335743
 20
-2412.713717430591
 42
0.4142135623731
 10
2665.456990335743
 20
-2414.213717430591
 42
0.4142135623731
 10
2666.956990335743
 20
-2415.713717430591
 42
0.4142135623731
  0
LINE
  5
346
330
1F
100
AcDbEntity
  8
0-E
  6
Continuous
 62
   120
370
     5
100
AcDbLine
 10
2666.956990335743
 20
-2414.213717430591
 30
0.0
 11
2666.956990335743
 21
-2291.21371743059
 31
0.0
  0
LWPOLYLINE
  5
347
330
1F
100
AcDbEntity
  8
0-E
  6
Continuous
 62
     7
370
     9
100
AcDbPolyline
 90
        4
 70
     1
 43
3.0
 10
2668.456990335743
 20
-2291.21371743059
 42
0.4142135623731
 10
2666.956990335743
 20
-2289.71371743059
 42
0.4142135623731
 10
2665.456990335743
 20
-2291.21371743059
 42
0.4142135623731
 10
2666.956990335743
 20
-2292.71371743059
 42
0.4142135623731
  0
MTEXT
  5
348
330
1F
100
AcDbEntity
  8
0-E
  6
Continuous
 62
     7
370
   211
100
AcDbMText
 10
2651.956990335743
 20
-2430.923717430592
 30
0.0
 40
68.58000000000044
 41
135.0000000000009
 46
0.0
 71
     7
 72
     1
  1
{\fＭＳ ゴシック|b0|i0|c128|p49;8.2}
 11
6.123031769111886E-17
 21
1.0
 31
0.0
 73
     1
 44
1.0
  0
LINE
  5
349
330
1F
100
AcDbEntity
  8
0-E
  6
Continuous
 62
   120
370
     5
100
AcDbLine
 10
2666.956990335743
 20
-2414.213717430591
 30
0.0
 11
2823.399960579738
 21
-2414.213717430591
 31
0.0
  0
LINE
  5
34A
330
1F
100
AcDbEntity
  8
0-E
  6
Continuous
 62
   120
370
     5
100
AcDbLine
 10
2666.956990335743
 20
-2291.21371743059
 30
0.0
 11
2823.399960579738
 21
-2291.21371743059
 31
0.0
  0
LWPOLYLINE
  5
34B
330
1F
100
AcDbEntity
  8
0-E
  6
Continuous
 62
     7
370
     9
100
AcDbPolyline
 90
        4
 70
     1
 43
3.0
 10
1549.720378813711
 20
-969.4181252843791
 42
0.4142135623731
 10
1548.220378813712
 20
-967.9181252843791
 42
0.4142135623731
 10
1546.720378813712
 20
-969.4181252843791
 42
0.4142135623731
 10
1548.220378813712
 20
-970.918125284379
 42
0.4142135623731
  0
LINE
  5
34C
330
1F
100
AcDbEntity
  8
0-E
  6
Continuous
 62
   120
370
     5
100
AcDbLine
 10
778.2203788137101
 20
-969.4181252843791
 30
0.0
 11
1548.220378813712
 21
-969.4181252843791
 31
0.0
  0
LINE
  5
34D
330
1F
100
AcDbEntity
  8
0-E
  6
Continuous
 62
   120
370
     5
100
AcDbLine
 10
1548.220378813712
 20
-969.4181252843791
 30
0.0
 11
1548.220378813712
 21
-1112.96017508438
 31
0.0
  0
LINE
  5
34E
330
1F
100
AcDbEntity
  8
0-E
  6
Continuous
 62
    92
370
    13
100
AcDbLine
 10
1548.220378813712
 20
-1162.960175084379
 30
0.0
 11
1548.220378813712
 21
-2038.251380633207
 31
0.0
  0
LINE
  5
34F
330
1F
100
AcDbEntity
  8
0-E
  6
Continuous
 62
    92
370
    13
100
AcDbLine
 10
778.2203788137101
 20
-2038.251380633207
 30
0.0
 11
1548.220378813712
 21
-2038.251380633207
 31
0.0
  0
MTEXT
  5
350
330
1F
100
AcDbEntity
  8
0-E
  6
Continuous
 62
     7
370
   211
100
AcDbMText
 10
3191.251686318663
 20
-2620.82006624104
 30
0.0
 40
68.58
 41
180.0
 46
0.0
 71
     7
 72
     1
  1
{\fＭＳ ゴシック|b0|i0|c128|p49;19.4}
 73
     1
 44
1.0
  0
LINE
  5
351
330
1F
100
AcDbEntity
  8
0-E
  6
JWW_HOJO
 62
   120
370
     5
100
AcDbLine
 10
743.2200323979512
 20
-1162.960175084379
 30
0.0
 11
1603.383711930467
 21
-1162.960175084379
 31
0.0
  0
LINE
  5
352
330
1F
100
AcDbEntity
  8
0-E
  6
JWW_HOJO
 62
   120
370
     5
100
AcDbLine
 10
743.2200323979512
 20
-1112.96017508438
 30
0.0
 11
1603.383711930467
 21
-1112.96017508438
 31
0.0
  0
LINE
  5
353
330
1F
100
AcDbEntity
  8
0-E
  6
JWW_CENTER1
 62
     7
370
     9
100
AcDbLine
 10
863.2203788137092
 20
-1886.82595789271
 30
0.0
 11
863.2203788137092
 21
-2038.251380633207
 31
0.0
  0
LINE
  5
354
330
1F
100
AcDbEntity
  8
0-E
  6
JWW_CENTER1
 62
     7
370
     9
100
AcDbLine
 10
1463.220741725456
 20
-1886.82595789271
 30
0.0
 11
1463.220741725456
 21
-2038.251380633207
 31
0.0
  0
LINE
  5
355
330
1F
100
AcDbEntity
  8
0-E
  6
JWW_CENTER1
 62
     7
370
     9
100
AcDbLine
 10
789.3950560591763
 20
-1963.251380633207
 30
0.0
 11
930.5148737007814
 21
-1963.251380633207
 31
0.0
  0
LINE
  5
356
330
1F
100
AcDbEntity
  8
0-E
  6
JWW_CENTER1
 62
     7
370
     9
100
AcDbLine
 10
1399.278094040719
 20
-1963.251380633207
 30
0.0
 11
1545.306427078553
 21
-1963.251380633207
 31
0.0
  0
CIRCLE
  5
357
330
1F
100
AcDbEntity
  8
0-E
  6
Continuous
 62
     7
370
     9
100
AcDbCircle
 10
863.2203788137092
 20
-1963.251380633207
 30
0.0
 40
19.0
  0
CIRCLE
  5
358
330
1F
100
AcDbEntity
  8
0-E
  6
Continuous
 62
     7
370
     9
100
AcDbCircle
 10
1463.220741725456
 20
-1963.251380633207
 30
0.0
 40
19.0
  0
LINE
  5
359
330
1F
100
AcDbEntity
  8
0-4_枠
  6
Continuous
 62
    92
370
    13
100
AcDbLine
 10
-2031.480532699879
 20
-297.9999259742593
 30
0.0
 11
-2031.480532699879
 21
-1798.000044745374
 31
0.0
  0
LINE
  5
35A
330
1F
100
AcDbEntity
  8
0-4_枠
  6
Continuous
 62
    92
370
    13
100
AcDbLine
 10
-2031.480532699879
 20
-1918.000044745374
 30
0.0
 11
-2031.480532699879
 21
-3226.000334249967
 31
0.0
  0
LINE
  5
35B
330
1F
100
AcDbEntity
  8
0-4_枠
  6
Continuous
 62
    92
370
    13
100
AcDbLine
 10
-1569.480532699863
 20
-3225.999963090233
 30
0.0
 11
-1569.480532699863
 21
-1918.000044745374
 31
0.0
  0
LINE
  5
35C
330
1F
100
AcDbEntity
  8
0-4_枠
  6
Continuous
 62
    92
370
    13
100
AcDbLine
 10
-1569.480532699863
 20
-1798.000044745374
 30
0.0
 11
-1569.480532699863
 21
-453.9999259742585
 31
0.0
  0
MTEXT
  5
35D
330
1F
100
AcDbEntity
  8
0-B_寸法
  6
Continuous
 62
     7
370
     0
100
AcDbMText
 10
-1864.231087273864
 20
-1160.270255201393
 30
0.0
 40
91.44000000000197
 41
120.0000000000026
 46
0.0
 71
     7
 72
     1
  1
{\fＭＳ ゴシック|b0|i0|c128|p49;20}
 11
0.9999999999914964
 21
4.124000465782628E-6
 31
0.0
 73
     1
 44
1.0
  0
MTEXT
  5
35E
330
1F
100
AcDbEntity
  8
0-B_寸法
  6
Continuous
 62
     7
370
   211
100
AcDbMText
 10
-1187.670315744625
 20
2287.665146596494
 30
0.0
 40
91.44
 41
120.0
 46
0.0
 71
     7
 72
     1
  1
{\fＭＳ ゴシック|b0|i0|c128|p49;20}
 11
6.123031769111886E-17
 21
1.0
 31
0.0
 73
     1
 44
1.0
  0
MTEXT
  5
35F
330
1F
100
AcDbEntity
  8
F-A_文字
  6
Continuous
 62
     7
370
     0
100
AcDbMText
 10
4938.667793092893
 20
-3938.071010139966
 30
0.0
 40
78.86699999999999
 41
517.5
 46
0.0
 71
     7
 72
     1
  1
{\fＭＳ ゴシック|b0|i0|c128|p49;2024.04.01}
 73
     1
 44
1.0
  0
LINE
  5
360
330
1F
100
AcDbEntity
  8
0-0_補助線
  6
Continuous
 62
   120
370
     5
100
AcDbLine
 10
-1983.48073065172
 20
2324.359196304034
 30
0.0
 11
-1983.48073065172
 21
2402.688459527218
 31
0.0
  0
LINE
  5
361
330
1F
100
AcDbEntity
  8
0-0_補助線
  6
Continuous
 62
   120
370
     5
100
AcDbLine
 10
-1998.48073065172
 20
2324.359196304034
 30
0.0
 11
-1998.48073065172
 21
2402.688459527218
 31
0.0
  0
LWPOLYLINE
  5
362
330
1F
100
AcDbEntity
  8
0-B_寸法
  6
Continuous
 62
     7
370
     9
100
AcDbPolyline
 90
        4
 70
     1
 43
3.0
 10
-1171.170315744626
 20
2421.945146596495
 42
0.4142135623731
 10
-1172.670315744626
 20
2423.445146596495
 42
0.4142135623731
 10
-1174.170315744626
 20
2421.945146596495
 42
0.4142135623731
 10
-1172.670315744626
 20
2420.445146596495
 42
0.4142135623731
  0
LINE
  5
363
330
1F
100
AcDbEntity
  8
0-0_補助線
  6
JWW_HOJO
 62
     7
370
     9
100
AcDbLine
 10
-1721.355730651722
 20
2439.945146596494
 30
0.0
 11
-1721.355730651722
 21
2280.944503252956
 31
0.0
  0
LINE
  5
364
330
1F
100
AcDbEntity
  8
0-0_補助線
  6
JWW_HOJO
 62
     7
370
     9
100
AcDbLine
 10
-1781.355730651722
 20
2439.945146596494
 30
0.0
 11
-1781.355730651722
 21
2280.944503252956
 31
0.0
  0
LINE
  5
365
330
1F
100
AcDbEntity
  8
0-6_扉
  6
Continuous
 62
   200
370
    20
100
AcDbLine
 10
-1781.355730651722
 20
2421.945146596495
 30
0.0
 11
-1998.480730651722
 21
2421.945146596495
 31
0.0
  0
LINE
  5
366
330
1F
100
AcDbEntity
  8
0-6_扉
  6
Continuous
 62
   200
370
    20
100
AcDbLine
 10
-1504.230730651724
 20
2421.945146596495
 30
0.0
 11
-1721.355730651722
 21
2421.945146596495
 31
0.0
  0
LINE
  5
367
330
1F
100
AcDbEntity
  8
0-6_扉
  6
Continuous
 62
   200
370
    20
100
AcDbLine
 10
-1003.980730651724
 20
2421.945146596495
 30
0.0
 11
-1221.105730651724
 21
2421.945146596495
 31
0.0
  0
LINE
  5
368
330
1F
100
AcDbEntity
  8
0-6_扉
  6
Continuous
 62
   200
370
    20
100
AcDbLine
 10
-1281.105730651724
 20
2421.945146596495
 30
0.0
 11
-1498.230730651723
 21
2421.945146596495
 31
0.0
  0
LINE
  5
369
330
1F
100
AcDbEntity
  8
0-0_補助線
  6
JWW_HOJO
 62
     7
370
     9
100
AcDbLine
 10
-1281.105730651724
 20
2439.945146596494
 30
0.0
 11
-1281.105730651724
 21
2280.944503252956
 31
0.0
  0
LINE
  5
36A
330
1F
100
AcDbEntity
  8
0-0_補助線
  6
JWW_HOJO
 62
     7
370
     9
100
AcDbLine
 10
-1221.105730651724
 20
2439.945146596494
 30
0.0
 11
-1221.105730651724
 21
2280.944503252956
 31
0.0
  0
LINE
  5
36B
330
1F
100
AcDbEntity
  8
0-0_補助線
  6
JWW_HOJO
 62
     7
370
     9
100
AcDbLine
 10
-714.8557306517228
 20
2439.945146596494
 30
0.0
 11
-714.8557306517228
 21
2280.944503252956
 31
0.0
  0
LINE
  5
36C
330
1F
100
AcDbEntity
  8
0-0_補助線
  6
JWW_HOJO
 62
     7
370
     9
100
AcDbLine
 10
-774.8557306517237
 20
2439.945146596494
 30
0.0
 11
-774.8557306517237
 21
2280.944503252956
 31
0.0
  0
LINE
  5
36D
330
1F
100
AcDbEntity
  8
0-6_扉
  6
Continuous
 62
   200
370
    20
100
AcDbLine
 10
-774.8557306517237
 20
2421.945146596495
 30
0.0
 11
-991.9807306517231
 21
2421.945146596495
 31
0.0
  0
LINE
  5
36E
330
1F
100
AcDbEntity
  8
0-6_扉
  6
Continuous
 62
   200
370
    20
100
AcDbLine
 10
-497.7307306517233
 20
2421.945146596495
 30
0.0
 11
-714.8557306517228
 21
2421.945146596495
 31
0.0
  0
LINE
  5
36F
330
1F
100
AcDbEntity
  8
0-0_補助線
  6
JWW_HOJO
 62
     7
370
     9
100
AcDbLine
 10
-274.6057306517207
 20
2439.945146596494
 30
0.0
 11
-274.6057306517207
 21
2280.944503252956
 31
0.0
  0
LINE
  5
370
330
1F
100
AcDbEntity
  8
0-0_補助線
  6
JWW_HOJO
 62
     7
370
     9
100
AcDbLine
 10
-214.6057306517207
 20
2439.945146596494
 30
0.0
 11
-214.6057306517207
 21
2280.944503252956
 31
0.0
  0
LINE
  5
371
330
1F
100
AcDbEntity
  8
0-6_扉
  6
Continuous
 62
   200
370
    20
100
AcDbLine
 10
-491.7307306517193
 20
2421.945146596495
 30
0.0
 11
-274.6057306517207
 21
2421.945146596495
 31
0.0
  0
LINE
  5
372
330
1F
100
AcDbEntity
  8
0-6_扉
  6
Continuous
 62
   200
370
    20
100
AcDbLine
 10
-214.6057306517207
 20
2421.945146596495
 30
0.0
 11
2.519269348275373
 21
2421.945146596495
 31
0.0
  0
LINE
  5
373
330
1F
100
AcDbEntity
  8
0-0_補助線
  6
JWW_HOJO
 62
     7
370
     9
100
AcDbLine
 10
231.6442693482763
 20
2439.945146596494
 30
0.0
 11
231.6442693482763
 21
2280.944503252956
 31
0.0
  0
LINE
  5
374
330
1F
100
AcDbEntity
  8
0-0_補助線
  6
JWW_HOJO
 62
     7
370
     9
100
AcDbLine
 10
291.6442693482763
 20
2439.945146596494
 30
0.0
 11
291.6442693482763
 21
2280.944503252956
 31
0.0
  0
LINE
  5
375
330
1F
100
AcDbEntity
  8
0-6_扉
  6
Continuous
 62
   200
370
    20
100
AcDbLine
 10
14.51926934827725
 20
2421.945146596495
 30
0.0
 11
231.6442693482763
 21
2421.945146596495
 31
0.0
  0
LINE
  5
376
330
1F
100
AcDbEntity
  8
0-6_扉
  6
Continuous
 62
   200
370
    20
100
AcDbLine
 10
291.6442693482763
 20
2421.945146596495
 30
0.0
 11
508.7692693482762
 21
2421.945146596495
 31
0.0
  0
LINE
  5
377
330
1F
100
AcDbEntity
  8
0-0_補助線
  6
JWW_HOJO
 62
     7
370
     9
100
AcDbLine
 10
731.8942693482758
 20
2439.945146596494
 30
0.0
 11
731.8942693482758
 21
2280.944503252956
 31
0.0
  0
LINE
  5
378
330
1F
100
AcDbEntity
  8
0-0_補助線
  6
JWW_HOJO
 62
     7
370
     9
100
AcDbLine
 10
791.8942693482758
 20
2439.945146596494
 30
0.0
 11
791.8942693482758
 21
2280.944503252956
 31
0.0
  0
LINE
  5
379
330
1F
100
AcDbEntity
  8
0-6_扉
  6
Continuous
 62
   200
370
    20
100
AcDbLine
 10
514.7692693482759
 20
2421.945146596495
 30
0.0
 11
731.8942693482758
 21
2421.945146596495
 31
0.0
  0
LINE
  5
37A
330
1F
100
AcDbEntity
  8
0-6_扉
  6
Continuous
 62
   200
370
    20
100
AcDbLine
 10
791.8942693482758
 20
2421.945146596495
 30
0.0
 11
1009.019269348286
 21
2421.945146596495
 31
0.0
  0
LINE
  5
37B
330
1F
100
AcDbEntity
  8
0-0_補助線
  6
JWW_HOJO
 62
     7
370
     9
100
AcDbLine
 10
1238.144269348276
 20
2439.945146596494
 30
0.0
 11
1238.144269348276
 21
2280.944503252956
 31
0.0
  0
LINE
  5
37C
330
1F
100
AcDbEntity
  8
0-0_補助線
  6
JWW_HOJO
 62
     7
370
     9
100
AcDbLine
 10
1298.144269348276
 20
2439.945146596494
 30
0.0
 11
1298.144269348276
 21
2280.944503252956
 31
0.0
  0
LINE
  5
37D
330
1F
100
AcDbEntity
  8
0-6_扉
  6
Continuous
 62
   200
370
    20
100
AcDbLine
 10
1021.019269348276
 20
2421.945146596495
 30
0.0
 11
1238.144269348276
 21
2421.945146596495
 31
0.0
  0
LINE
  5
37E
330
1F
100
AcDbEntity
  8
0-6_扉
  6
Continuous
 62
   200
370
    20
100
AcDbLine
 10
1298.144269348276
 20
2421.945146596495
 30
0.0
 11
1515.269269348276
 21
2421.945146596495
 31
0.0
  0
LINE
  5
37F
330
1F
100
AcDbEntity
  8
0-0_補助線
  6
JWW_HOJO
 62
     7
370
     9
100
AcDbLine
 10
1738.394269348276
 20
2439.945146596494
 30
0.0
 11
1738.394269348276
 21
2280.944503252956
 31
0.0
  0
LINE
  5
380
330
1F
100
AcDbEntity
  8
0-0_補助線
  6
JWW_HOJO
 62
     7
370
     9
100
AcDbLine
 10
1798.394269348276
 20
2439.945146596494
 30
0.0
 11
1798.394269348276
 21
2280.944503252956
 31
0.0
  0
LINE
  5
381
330
1F
100
AcDbEntity
  8
0-6_扉
  6
Continuous
 62
   200
370
    20
100
AcDbLine
 10
1521.269269348276
 20
2421.945146596495
 30
0.0
 11
1738.394269348276
 21
2421.945146596495
 31
0.0
  0
LINE
  5
382
330
1F
100
AcDbEntity
  8
0-6_扉
  6
Continuous
 62
   200
370
    20
100
AcDbLine
 10
1798.394269348276
 20
2421.945146596495
 30
0.0
 11
2015.519269348285
 21
2421.945146596495
 31
0.0
  0
CIRCLE
  5
383
330
1F
100
AcDbEntity
  8
0-7_金物
  6
Continuous
 62
     7
370
     9
100
AcDbCircle
 10
-1501.230730651723
 20
2451.945146596471
 30
0.0
 40
21.00000000000001
  0
CIRCLE
  5
384
330
1F
100
AcDbEntity
  8
0-7_金物
  6
Continuous
 62
     7
370
     9
100
AcDbCircle
 10
-1501.230730651723
 20
2451.945146596471
 30
0.0
 40
30.0
  0
CIRCLE
  5
385
330
1F
100
AcDbEntity
  8
0-7_金物
  6
Continuous
 62
     7
370
     9
100
AcDbCircle
 10
-494.7307306517217
 20
2451.945146596471
 30
0.0
 40
21.00000000000001
  0
CIRCLE
  5
386
330
1F
100
AcDbEntity
  8
0-7_金物
  6
Continuous
 62
     7
370
     9
100
AcDbCircle
 10
-494.7307306517217
 20
2451.945146596471
 30
0.0
 40
30.0
  0
CIRCLE
  5
387
330
1F
100
AcDbEntity
  8
0-7_金物
  6
Continuous
 62
     7
370
     9
100
AcDbCircle
 10
1518.269269348276
 20
2451.945146596471
 30
0.0
 40
21.00000000000001
  0
CIRCLE
  5
388
330
1F
100
AcDbEntity
  8
0-7_金物
  6
Continuous
 62
     7
370
     9
100
AcDbCircle
 10
1518.269269348276
 20
2451.945146596471
 30
0.0
 40
30.0
  0
CIRCLE
  5
389
330
1F
100
AcDbEntity
  8
0-7_金物
  6
Continuous
 62
     7
370
     9
100
AcDbCircle
 10
511.7692693482765
 20
2451.945146596471
 30
0.0
 40
21.00000000000001
  0
CIRCLE
  5
38A
330
1F
100
AcDbEntity
  8
0-7_金物
  6
Continuous
 62
     7
370
     9
100
AcDbCircle
 10
511.7692693482765
 20
2451.945146596471
 30
0.0
 40
30.0
  0
LWPOLYLINE
  5
38B
330
1F
100
AcDbEntity
  8
0-B_寸法
  6
Continuous
 62
     7
370
     9
100
AcDbPolyline
 90
        4
 70
     1
 43
3.0
 10
-1171.170315744626
 20
2301.945146596495
 42
0.4142135623731
 10
-1172.670315744626
 20
2303.445146596495
 42
0.4142135623731
 10
-1174.170315744626
 20
2301.945146596495
 42
0.4142135623731
 10
-1172.670315744626
 20
2300.445146596495
 42
0.4142135623731
  0
LINE
  5
38C
330
1F
100
AcDbEntity
  8
0-6_扉
  6
Continuous
 62
   200
370
    20
100
AcDbLine
 10
-1781.355730651722
 20
2301.945146596495
 30
0.0
 11
-1998.480730651722
 21
2301.945146596495
 31
0.0
  0
LINE
  5
38D
330
1F
100
AcDbEntity
  8
0-6_扉
  6
Continuous
 62
   200
370
    20
100
AcDbLine
 10
-1504.230730651724
 20
2301.945146596495
 30
0.0
 11
-1721.355730651722
 21
2301.945146596495
 31
0.0
  0
LINE
  5
38E
330
1F
100
AcDbEntity
  8
0-6_扉
  6
Continuous
 62
   200
370
    20
100
AcDbLine
 10
-1003.980730651724
 20
2301.945146596495
 30
0.0
 11
-1221.105730651724
 21
2301.945146596495
 31
0.0
  0
LINE
  5
38F
330
1F
100
AcDbEntity
  8
0-6_扉
  6
Continuous
 62
   200
370
    20
100
AcDbLine
 10
-1281.105730651724
 20
2301.945146596495
 30
0.0
 11
-1498.230730651723
 21
2301.945146596495
 31
0.0
  0
LINE
  5
390
330
1F
100
AcDbEntity
  8
0-6_扉
  6
Continuous
 62
   200
370
    20
100
AcDbLine
 10
-774.8557306517237
 20
2301.945146596495
 30
0.0
 11
-991.9807306517231
 21
2301.945146596495
 31
0.0
  0
LINE
  5
391
330
1F
100
AcDbEntity
  8
0-6_扉
  6
Continuous
 62
   200
370
    20
100
AcDbLine
 10
-497.7307306517233
 20
2301.945146596495
 30
0.0
 11
-714.8557306517228
 21
2301.945146596495
 31
0.0
  0
LINE
  5
392
330
1F
100
AcDbEntity
  8
0-6_扉
  6
Continuous
 62
   200
370
    20
100
AcDbLine
 10
-491.7307306517193
 20
2301.945146596495
 30
0.0
 11
-274.6057306517207
 21
2301.945146596495
 31
0.0
  0
LINE
  5
393
330
1F
100
AcDbEntity
  8
0-6_扉
  6
Continuous
 62
   200
370
    20
100
AcDbLine
 10
-214.6057306517207
 20
2301.945146596495
 30
0.0
 11
2.519269348275373
 21
2301.945146596495
 31
0.0
  0
LINE
  5
394
330
1F
100
AcDbEntity
  8
0-6_扉
  6
Continuous
 62
   200
370
    20
100
AcDbLine
 10
14.51926934827725
 20
2301.945146596495
 30
0.0
 11
231.6442693482763
 21
2301.945146596495
 31
0.0
  0
LINE
  5
395
330
1F
100
AcDbEntity
  8
0-6_扉
  6
Continuous
 62
   200
370
    20
100
AcDbLine
 10
291.6442693482763
 20
2301.945146596495
 30
0.0
 11
508.7692693482762
 21
2301.945146596495
 31
0.0
  0
LINE
  5
396
330
1F
100
AcDbEntity
  8
0-6_扉
  6
Continuous
 62
   200
370
    20
100
AcDbLine
 10
514.7692693482759
 20
2301.945146596495
 30
0.0
 11
731.8942693482758
 21
2301.945146596495
 31
0.0
  0
LINE
  5
397
330
1F
100
AcDbEntity
  8
0-6_扉
  6
Continuous
 62
   200
370
    20
100
AcDbLine
 10
791.8942693482758
 20
2301.945146596495
 30
0.0
 11
1009.019269348286
 21
2301.945146596495
 31
0.0
  0
LINE
  5
398
330
1F
100
AcDbEntity
  8
0-6_扉
  6
Continuous
 62
   200
370
    20
100
AcDbLine
 10
1021.019269348276
 20
2301.945146596495
 30
0.0
 11
1238.144269348276
 21
2301.945146596495
 31
0.0
  0
LINE
  5
399
330
1F
100
AcDbEntity
  8
0-6_扉
  6
Continuous
 62
   200
370
    20
100
AcDbLine
 10
1298.144269348276
 20
2301.945146596495
 30
0.0
 11
1515.269269348276
 21
2301.945146596495
 31
0.0
  0
LINE
  5
39A
330
1F
100
AcDbEntity
  8
0-6_扉
  6
Continuous
 62
   200
370
    20
100
AcDbLine
 10
1521.269269348276
 20
2301.945146596495
 30
0.0
 11
1738.394269348276
 21
2301.945146596495
 31
0.0
  0
LINE
  5
39B
330
1F
100
AcDbEntity
  8
0-6_扉
  6
Continuous
 62
   200
370
    20
100
AcDbLine
 10
1798.394269348276
 20
2301.945146596495
 30
0.0
 11
2015.519269348285
 21
2301.945146596495
 31
0.0
  0
LINE
  5
39C
330
1F
100
AcDbEntity
  8
0-B_寸法
  6
Continuous
 62
   120
370
     5
100
AcDbLine
 10
-1172.670315744626
 20
2421.945146596495
 30
0.0
 11
-1172.670315744626
 21
2301.945146596495
 31
0.0
  0
LINE
  5
39D
330
1F
100
AcDbEntity
  8
0-6_扉
  6
Continuous
 62
   200
370
    20
100
AcDbLine
 10
-1998.480730651722
 20
2421.945146596495
 30
0.0
 11
-1998.480730651722
 21
2301.945146596495
 31
0.0
  0
LINE
  5
39E
330
1F
100
AcDbEntity
  8
0-6_扉
  6
Continuous
 62
   200
370
    20
100
AcDbLine
 10
-1498.230730651723
 20
2421.945146596495
 30
0.0
 11
-1498.230730651723
 21
2301.945146596495
 31
0.0
  0
LINE
  5
39F
330
1F
100
AcDbEntity
  8
0-6_扉
  6
Continuous
 62
   200
370
    20
100
AcDbLine
 10
-1504.230730651724
 20
2421.945146596495
 30
0.0
 11
-1504.230730651724
 21
2301.945146596495
 31
0.0
  0
LINE
  5
3A0
330
1F
100
AcDbEntity
  8
0-6_扉
  6
Continuous
 62
   200
370
    20
100
AcDbLine
 10
-991.9807306517231
 20
2421.945146596495
 30
0.0
 11
-991.9807306517231
 21
2301.945146596495
 31
0.0
  0
LINE
  5
3A1
330
1F
100
AcDbEntity
  8
0-6_扉
  6
Continuous
 62
   200
370
    20
100
AcDbLine
 10
-1003.980730651724
 20
2421.945146596495
 30
0.0
 11
-1003.980730651724
 21
2301.945146596495
 31
0.0
  0
LINE
  5
3A2
330
1F
100
AcDbEntity
  8
0-6_扉
  6
Continuous
 62
   200
370
    20
100
AcDbLine
 10
-491.7307306517193
 20
2421.945146596495
 30
0.0
 11
-491.7307306517193
 21
2301.945146596495
 31
0.0
  0
LINE
  5
3A3
330
1F
100
AcDbEntity
  8
0-6_扉
  6
Continuous
 62
   200
370
    20
100
AcDbLine
 10
-497.7307306517233
 20
2421.945146596495
 30
0.0
 11
-497.7307306517233
 21
2301.945146596495
 31
0.0
  0
LINE
  5
3A4
330
1F
100
AcDbEntity
  8
0-6_扉
  6
Continuous
 62
   200
370
    20
100
AcDbLine
 10
2.519269348275373
 20
2421.945146596495
 30
0.0
 11
2.519269348275373
 21
2301.945146596495
 31
0.0
  0
LINE
  5
3A5
330
1F
100
AcDbEntity
  8
0-6_扉
  6
Continuous
 62
   200
370
    20
100
AcDbLine
 10
14.51926934827725
 20
2421.945146596495
 30
0.0
 11
14.51926934827725
 21
2301.945146596495
 31
0.0
  0
LINE
  5
3A6
330
1F
100
AcDbEntity
  8
0-6_扉
  6
Continuous
 62
   200
370
    20
100
AcDbLine
 10
508.7692693482762
 20
2421.945146596495
 30
0.0
 11
508.7692693482762
 21
2301.945146596495
 31
0.0
  0
LINE
  5
3A7
330
1F
100
AcDbEntity
  8
0-6_扉
  6
Continuous
 62
   200
370
    20
100
AcDbLine
 10
514.7692693482759
 20
2421.945146596495
 30
0.0
 11
514.7692693482759
 21
2301.945146596495
 31
0.0
  0
LINE
  5
3A8
330
1F
100
AcDbEntity
  8
0-6_扉
  6
Continuous
 62
   200
370
    20
100
AcDbLine
 10
1009.019269348286
 20
2421.945146596495
 30
0.0
 11
1009.019269348286
 21
2301.945146596495
 31
0.0
  0
LINE
  5
3A9
330
1F
100
AcDbEntity
  8
0-6_扉
  6
Continuous
 62
   200
370
    20
100
AcDbLine
 10
1021.019269348276
 20
2421.945146596495
 30
0.0
 11
1021.019269348276
 21
2301.945146596495
 31
0.0
  0
LINE
  5
3AA
330
1F
100
AcDbEntity
  8
0-6_扉
  6
Continuous
 62
   200
370
    20
100
AcDbLine
 10
1515.269269348276
 20
2421.945146596495
 30
0.0
 11
1515.269269348276
 21
2301.945146596495
 31
0.0
  0
LINE
  5
3AB
330
1F
100
AcDbEntity
  8
0-6_扉
  6
Continuous
 62
   200
370
    20
100
AcDbLine
 10
1521.269269348276
 20
2421.945146596495
 30
0.0
 11
1521.269269348276
 21
2301.945146596495
 31
0.0
  0
LINE
  5
3AC
330
1F
100
AcDbEntity
  8
0-6_扉
  6
Continuous
 62
   200
370
    20
100
AcDbLine
 10
2015.519269348285
 20
2421.945146596495
 30
0.0
 11
2015.519269348285
 21
2301.945146596495
 31
0.0
  0
LINE
  5
3AD
330
1F
100
AcDbEntity
  8
0-6_扉
  6
Continuous
 62
   200
370
    20
100
AcDbLine
 10
-1740.480532699857
 20
-1918.000044745374
 30
0.0
 11
-1740.480532699857
 21
-3085.000334249966
 31
0.0
  0
LINE
  5
3AE
330
1F
100
AcDbEntity
  8
0-6_扉
  6
Continuous
 62
   200
370
    20
100
AcDbLine
 10
-1740.480532699857
 20
-558.9998344215253
 30
0.0
 11
-1740.480532699857
 21
-1798.000044745374
 31
0.0
  0
LWPOLYLINE
  5
3AF
330
1F
100
AcDbEntity
  8
0-B_寸法
  6
Continuous
 62
     7
370
     9
100
AcDbPolyline
 90
        4
 70
     1
 43
3.0
 10
-1738.980532699857
 20
-1160.989871669466
 42
0.4142135623731
 10
-1740.480532699857
 20
-1159.489871669466
 42
0.4142135623731
 10
-1741.980532699857
 20
-1160.989871669466
 42
0.4142135623731
 10
-1740.480532699857
 20
-1162.489871669466
 42
0.4142135623731
  0
LINE
  5
3B0
330
1F
100
AcDbEntity
  8
0-B_寸法
  6
Continuous
 62
   120
370
     5
100
AcDbLine
 10
-1740.480532699857
 20
-1076.752943090494
 30
0.0
 11
-1740.480532699857
 21
-1160.989871669466
 31
0.0
  0
LINE
  5
3B1
330
1F
100
AcDbEntity
  8
0-6_扉
  6
Continuous
 62
   200
370
    20
100
AcDbLine
 10
-1860.480532699857
 20
-1918.000044745374
 30
0.0
 11
-1860.480532699857
 21
-3085.000334249966
 31
0.0
  0
LINE
  5
3B2
330
1F
100
AcDbEntity
  8
0-6_扉
  6
Continuous
 62
   200
370
    20
100
AcDbLine
 10
-1860.480532699857
 20
-558.9998344215253
 30
0.0
 11
-1860.480532699857
 21
-1798.000044745374
 31
0.0
  0
LWPOLYLINE
  5
3B3
330
1F
100
AcDbEntity
  8
0-B_寸法
  6
Continuous
 62
     7
370
     9
100
AcDbPolyline
 90
        4
 70
     1
 43
3.0
 10
-1858.980532699857
 20
-1160.989871669466
 42
0.4142135623731
 10
-1860.480532699857
 20
-1159.489871669466
 42
0.4142135623731
 10
-1861.980532699857
 20
-1160.989871669466
 42
0.4142135623731
 10
-1860.480532699857
 20
-1162.489871669466
 42
0.4142135623731
  0
LINE
  5
3B4
330
1F
100
AcDbEntity
  8
0-B_寸法
  6
Continuous
 62
   120
370
     5
100
AcDbLine
 10
-1860.480532699857
 20
-1076.752943090494
 30
0.0
 11
-1860.480532699857
 21
-1160.989871669466
 31
0.0
  0
LINE
  5
3B5
330
1F
100
AcDbEntity
  8
0-6_扉
  6
Continuous
 62
   200
370
    20
100
AcDbLine
 10
-1860.480532699857
 20
-558.9998344215253
 30
0.0
 11
-1740.480532699857
 21
-558.9998344215253
 31
0.0
  0
LINE
  5
3B6
330
1F
100
AcDbEntity
  8
0-B_寸法
  6
Continuous
 62
   120
370
     5
100
AcDbLine
 10
-1860.480532699857
 20
-1160.989871669466
 30
0.0
 11
-1740.480532699857
 21
-1160.989871669466
 31
0.0
  0
LINE
  5
3B7
330
1F
100
AcDbEntity
  8
0-6_扉
  6
Continuous
 62
   200
370
    20
100
AcDbLine
 10
-1740.480532699857
 20
-3085.000334249966
 30
0.0
 11
-1860.480532699857
 21
-3085.000334249966
 31
0.0
  0
ENDSEC
  0
SECTION
  2
OBJECTS
  0
DICTIONARY
  5
C
330
0
100
AcDbDictionary
281
     1
  3
ACAD_GROUP
350
D
  3
ACAD_LAYOUT
350
1A
  3
ACAD_MATERIAL
350
3B
  3
ACAD_MLEADERSTYLE
350
3E0
  3
ACAD_MLINESTYLE
350
17
  3
ACAD_PLOTSETTINGS
350
19
  3
ACAD_PLOTSTYLENAME
350
E
  3
ACAD_TABLESTYLE
350
3DF
  3
ACAD_VISUALSTYLE
350
2A
  0
DICTIONARY
  5
D
102
{ACAD_REACTORS
330
C
102
}
330
C
100
AcDbDictionary
281
     1
  0
DICTIONARY
  5
1A
102
{ACAD_REACTORS
330
C
102
}
330
C
100
AcDbDictionary
281
     1
  3
Layout1
350
1E
  3
Layout2
350
26
  3
Model
350
22
  0
DICTIONARY
  5
3B
102
{ACAD_REACTORS
330
C
102
}
330
C
100
AcDbDictionary
281
     1
  3
ByBlock
350
3D
  3
ByLayer
350
3C
  3
Global
350
3E
  0
DICTIONARY
  5
3E0
102
{ACAD_REACTORS
330
C
102
}
330
C
100
AcDbDictionary
281
     1
  0
DICTIONARY
  5
17
102
{ACAD_REACTORS
330
C
102
}
330
C
100
AcDbDictionary
281
     1
  3
Standard
350
18
  0
DICTIONARY
  5
19
102
{ACAD_REACTORS
330
C
102
}
330
C
100
AcDbDictionary
281
     1
  0
ACDBDICTIONARYWDFLT
  5
E
102
{ACAD_REACTORS
330
C
102
}
330
C
100
AcDbDictionary
281
     1
  3
Normal
350
F
100
AcDbDictionaryWithDefault
340
F
  0
DICTIONARY
  5
3DF
102
{ACAD_REACTORS
330
C
102
}
330
C
100
AcDbDictionary
281
     1
  0
DICTIONARY
  5
2A
102
{ACAD_REACTORS
330
C
102
}
330
C
100
AcDbDictionary
281
     1
  3
2dWireframe
350
2F
  3
3D Hidden
350
31
  3
3dWireframe
350
30
  3
Basic
350
32
  3
Brighten
350
36
  3
ColorChange
350
3A
  3
Conceptual
350
34
  3
Dim
350
35
  3
Facepattern
350
39
  3
Flat
350
2B
  3
FlatWithEdges
350
2C
  3
Gouraud
350
2D
  3
GouraudWithEdges
350
2E
  3
Linepattern
350
38
  3
Realistic
350
33
  3
Thicken
350
37
  0
LAYOUT
  5
1E
102
{ACAD_REACTORS
330
1A
102
}
330
1A
100
AcDbPlotSettings
  1

  2
none_device
  4

  6

 40
0.0
 41
0.0
 42
0.0
 43
0.0
 44
0.0
 45
0.0
 46
0.0
 47
0.0
 48
0.0
 49
0.0
140
0.0
141
0.0
142
1.0
143
1.0
 70
   688
 72
     0
 73
     0
 74
     5
  7

 75
    16
 76
     0
 77
     5
 78
   300
147
1.0
148
0.0
149
0.0
100
AcDbLayout
  1
Layout1
 70
     1
 71
     1
 10
0.0
 20
0.0
 11
420.0
 21
297.0
 12
0.0
 22
0.0
 32
0.0
 14
1.000000000000000E+20
 24
1.000000000000000E+20
 34
1.000000000000000E+20
 15
-1.000000000000000E+20
 25
-1.000000000000000E+20
 35
-1.000000000000000E+20
146
0.0
 13
0.0
 23
0.0
 33
0.0
 16
1.0
 26
0.0
 36
0.0
 17
0.0
 27
1.0
 37
0.0
 76
     0
330
1B
  0
LAYOUT
  5
26
102
{ACAD_REACTORS
330
1A
102
}
330
1A
100
AcDbPlotSettings
  1

  2
none_device
  4

  6

 40
0.0
 41
0.0
 42
0.0
 43
0.0
 44
0.0
 45
0.0
 46
0.0
 47
0.0
 48
0.0
 49
0.0
140
0.0
141
0.0
142
1.0
143
1.0
 70
   688
 72
     0
 73
     0
 74
     5
  7

 75
    16
 76
     0
 77
     5
 78
   300
147
1.0
148
0.0
149
0.0
100
AcDbLayout
  1
Layout2
 70
     1
 71
     2
 10
0.0
 20
0.0
 11
0.0
 21
0.0
 12
0.0
 22
0.0
 32
0.0
 14
0.0
 24
0.0
 34
0.0
 15
0.0
 25
0.0
 35
0.0
146
0.0
 13
0.0
 23
0.0
 33
0.0
 16
1.0
 26
0.0
 36
0.0
 17
0.0
 27
1.0
 37
0.0
 76
     0
330
23
  0
LAYOUT
  5
22
102
{ACAD_REACTORS
330
1A
102
}
330
1A
100
AcDbPlotSettings
  1

  2
none_device
  4

  6

 40
0.0
 41
0.0
 42
0.0
 43
0.0
 44
0.0
 45
0.0
 46
0.0
 47
0.0
 48
0.0
 49
0.0
140
0.0
141
0.0
142
1.0
143
1.0
 70
  1712
 72
     0
 73
     0
 74
     0
  7

 75
     0
 76
     0
 77
     5
 78
   300
147
1.0
148
0.0
149
0.0
100
AcDbLayout
  1
Model
 70
     1
 71
     0
 10
-6300.0
 20
-4455.0
 11
6300.0
 21
4455.0
 12
0.0
 22
0.0
 32
0.0
 14
-6300.0
 24
-4455.0
 34
0.0
 15
6300.0
 25
4455.0
 35
0.0
146
0.0
 13
0.0
 23
0.0
 33
0.0
 16
1.0
 26
0.0
 36
0.0
 17
0.0
 27
1.0
 37
0.0
 76
     0
330
1F
331
29
  0
MATERIAL
  5
3D
102
{ACAD_REACTORS
330
3B
102
}
330
3B
100
AcDbMaterial
  1
ByBlock
 72
     1
 94
      127
  0
MATERIAL
  5
3C
102
{ACAD_REACTORS
330
3B
102
}
330
3B
100
AcDbMaterial
  1
ByLayer
 72
     1
 94
      127
  0
MATERIAL
  5
3E
102
{ACAD_REACTORS
330
3B
102
}
330
3B
100
AcDbMaterial
  1
Global
 72
     1
 94
      127
  0
MLINESTYLE
  5
18
102
{ACAD_REACTORS
330
17
102
}
330
17
100
AcDbMlineStyle
  2
Standard
 70
     0
  3

 62
   256
 51
90.0
 52
90.0
 71
     2
 49
0.5
 62
   256
  6
BYLAYER
 49
-0.5
 62
   256
  6
BYLAYER
  0
ACDBPLACEHOLDER
  5
F
102
{ACAD_REACTORS
330
E
102
}
330
E
  0
VISUALSTYLE
  5
2F
102
{ACAD_REACTORS
330
2A
102
}
330
2A
100
AcDbVisualStyle
  2
2dWireframe
 70
     4
177
     2
291
     0
 71
     0
176
     1
 72
     2
176
     1
 73
     0
176
     1
 90
        0
176
     1
 40
-0.6
176
     1
 41
-30.0
176
     1
 62
     5
 63
     7
421
 16777215
176
     1
 74
     1
176
     1
 91
        4
176
     1
 64
     7
176
     1
 65
   257
176
     1
 75
     1
176
     1
175
     1
176
     1
 42
1.0
176
     1
 92
        0
176
     1
 66
   257
176
     1
 43
1.0
176
     1
 76
     1
176
     1
 77
     6
176
     1
 78
     2
176
     1
 67
     7
176
     1
 79
     5
176
     1
170
     0
176
     1
171
     0
176
     1
290
     0
176
     1
 93
        1
176
     1
 44
0.0
176
     1
173
     0
176
     1
  0
VISUALSTYLE
  5
31
102
{ACAD_REACTORS
330
2A
102
}
330
2A
100
AcDbVisualStyle
  2
3D Hidden
 70
     6
177
     2
291
     0
 71
     1
176
     1
 72
     2
176
     1
 73
     2
176
     1
 90
        0
176
     1
 40
-0.6
176
     1
 41
-30.0
176
     1
 62
     5
 63
     7
421
 16777215
176
     1
 74
     2
176
     1
 91
        2
176
     1
 64
     7
176
     1
 65
   257
176
     1
 75
     2
176
     1
175
     1
176
     1
 42
40.0
176
     1
 92
        0
176
     1
 66
   257
176
     1
 43
1.0
176
     1
 76
     1
176
     1
 77
     6
176
     1
 78
     2
176
     1
 67
     7
176
     1
 79
     3
176
     1
170
     0
176
     1
171
     0
176
     1
290
     0
176
     1
 93
        1
176
     1
 44
0.0
176
     1
173
     0
176
     1
  0
VISUALSTYLE
  5
30
102
{ACAD_REACTORS
330
2A
102
}
330
2A
100
AcDbVisualStyle
  2
3dWireframe
 70
     5
177
     2
291
     0
 71
     0
176
     1
 72
     2
176
     1
 73
     0
176
     1
 90
        0
176
     1
 40
-0.6
176
     1
 41
-30.0
176
     1
 62
     5
 63
     7
421
 16777215
176
     1
 74
     1
176
     1
 91
        4
176
     1
 64
     7
176
     1
 65
   257
176
     1
 75
     1
176
     1
175
     1
176
     1
 42
1.0
176
     1
 92
        0
176
     1
 66
   257
176
     1
 43
1.0
176
     1
 76
     1
176
     1
 77
     6
176
     1
 78
     2
176
     1
 67
     7
176
     1
 79
     5
176
     1
170
     0
176
     1
171
     0
176
     1
290
     0
176
     1
 93
        1
176
     1
 44
0.0
176
     1
173
     0
176
     1
  0
VISUALSTYLE
  5
32
102
{ACAD_REACTORS
330
2A
102
}
330
2A
100
AcDbVisualStyle
  2
Basic
 70
     7
177
     2
291
     1
 71
     1
176
     1
 72
     0
176
     1
 73
     1
176
     1
 90
        0
176
     1
 40
-0.6
176
     1
 41
-30.0
176
     1
 62
     5
 63
     7
421
 16777215
176
     1
 74
     0
176
     1
 91
        4
176
     1
 64
     7
176
     1
 65
   257
176
     1
 75
     1
176
     1
175
     1
176
     1
 42
1.0
176
     1
 92
        8
176
     1
 66
     7
176
     1
 43
1.0
176
     1
 76
     1
176
     1
 77
     6
176
     1
 78
     2
176
     1
 67
     7
176
     1
 79
     5
176
     1
170
     0
176
     1
171
     0
176
     1
290
     0
176
     1
 93
        1
176
     1
 44
0.0
176
     1
173
     0
176
     1
  0
VISUALSTYLE
  5
36
102
{ACAD_REACTORS
330
2A
102
}
330
2A
100
AcDbVisualStyle
  2
Brighten
 70
    12
177
     2
291
     1
 71
     2
176
     1
 72
     2
176
     1
 73
     0
176
     1
 90
        0
176
     1
 40
-0.6
176
     1
 41
-30.0
176
     1
 62
     5
 63
     7
421
 16777215
176
     1
 74
     1
176
     1
 91
        4
176
     1
 64
     7
176
     1
 65
   257
176
     1
 75
     1
176
     1
175
     1
176
     1
 42
1.0
176
     1
 92
        8
176
     1
 66
     7
176
     1
 43
1.0
176
     1
 76
     1
176
     1
 77
     6
176
     1
 78
     2
176
     1
 67
     7
176
     1
 79
     5
176
     1
170
     0
176
     1
171
     0
176
     1
290
     0
176
     1
 93
        1
176
     1
 44
50.0
176
     1
173
     0
176
     1
  0
VISUALSTYLE
  5
3A
102
{ACAD_REACTORS
330
2A
102
}
330
2A
100
AcDbVisualStyle
  2
ColorChange
 70
    16
177
     2
291
     1
 71
     2
176
     1
 72
     2
176
     1
 73
     3
176
     1
 90
        0
176
     1
 40
-0.6
176
     1
 41
-30.0
176
     1
 62
     5
 63
     8
421
  8421504
176
     1
 74
     1
176
     1
 91
        4
176
     1
 64
     7
176
     1
 65
   257
176
     1
 75
     1
176
     1
175
     1
176
     1
 42
1.0
176
     1
 92
        8
176
     1
 66
     8
424
  8421504
176
     1
 43
1.0
176
     1
 76
     1
176
     1
 77
     6
176
     1
 78
     2
176
     1
 67
     7
176
     1
 79
     5
176
     1
170
     0
176
     1
171
     0
176
     1
290
     0
176
     1
 93
        1
176
     1
 44
0.0
176
     1
173
     0
176
     1
  0
VISUALSTYLE
  5
34
102
{ACAD_REACTORS
330
2A
102
}
330
2A
100
AcDbVisualStyle
  2
Conceptual
 70
     9
177
     2
291
     0
 71
     3
176
     1
 72
     2
176
     1
 73
     0
176
     1
 90
        0
176
     1
 40
-0.6
176
     1
 41
-30.0
176
     1
 62
     5
 63
     7
421
 16777215
176
     1
 74
     2
176
     1
 91
        2
176
     1
 64
     7
176
     1
 65
   257
176
     1
 75
     1
176
     1
175
     1
176
     1
 42
40.0
176
     1
 92
        8
176
     1
 66
     7
176
     1
 43
1.0
176
     1
 76
     1
176
     1
 77
     6
176
     1
 78
     2
176
     1
 67
     7
176
     1
 79
     3
176
     1
170
     0
176
     1
171
     0
176
     1
290
     0
176
     1
 93
        1
176
     1
 44
0.0
176
     1
173
     0
176
     1
  0
VISUALSTYLE
  5
35
102
{ACAD_REACTORS
330
2A
102
}
330
2A
100
AcDbVisualStyle
  2
Dim
 70
    11
177
     2
291
     1
 71
     2
176
     1
 72
     2
176
     1
 73
     0
176
     1
 90
        0
176
     1
 40
-0.6
176
     1
 41
-30.0
176
     1
 62
     5
 63
     7
421
 16777215
176
     1
 74
     1
176
     1
 91
        4
176
     1
 64
     7
176
     1
 65
   257
176
     1
 75
     1
176
     1
175
     1
176
     1
 42
1.0
176
     1
 92
        8
176
     1
 66
     7
176
     1
 43
1.0
176
     1
 76
     1
176
     1
 77
     6
176
     1
 78
     2
176
     1
 67
     7
176
     1
 79
     5
176
     1
170
     0
176
     1
171
     0
176
     1
290
     0
176
     1
 93
        1
176
     1
 44
-50.0
176
     1
173
     0
176
     1
  0
VISUALSTYLE
  5
39
102
{ACAD_REACTORS
330
2A
102
}
330
2A
100
AcDbVisualStyle
  2
Facepattern
 70
    15
177
     2
291
     1
 71
     2
176
     1
 72
     2
176
     1
 73
     0
176
     1
 90
        0
176
     1
 40
-0.6
176
     1
 41
-30.0
176
     1
 62
     5
 63
     7
421
 16777215
176
     1
 74
     1
176
     1
 91
        4
176
     1
 64
     7
176
     1
 65
   257
176
     1
 75
     1
176
     1
175
     1
176
     1
 42
1.0
176
     1
 92
        8
176
     1
 66
     7
176
     1
 43
1.0
176
     1
 76
     1
176
     1
 77
     6
176
     1
 78
     2
176
     1
 67
     7
176
     1
 79
     5
176
     1
170
     0
176
     1
171
     0
176
     1
290
     0
176
     1
 93
        1
176
     1
 44
0.0
176
     1
173
     0
176
     1
  0
VISUALSTYLE
  5
2B
102
{ACAD_REACTORS
330
2A
102
}
330
2A
100
AcDbVisualStyle
  2
Flat
 70
     0
177
     2
291
     1
 71
     2
176
     1
 72
     1
176
     1
 73
     1
176
     1
 90
        2
176
     1
 40
-0.6
176
     1
 41
30.0
176
     1
 62
     5
 63
     7
421
 16777215
176
     1
 74
     0
176
     1
 91
        4
176
     1
 64
     7
176
     1
 65
   257
176
     1
 75
     1
176
     1
175
     1
176
     1
 42
1.0
176
     1
 92
        8
176
     1
 66
     7
176
     1
 43
1.0
176
     1
 76
     1
176
     1
 77
     6
176
     1
 78
     2
176
     1
 67
     7
176
     1
 79
     5
176
     1
170
     0
176
     1
171
     0
176
     1
290
     0
176
     1
 93
       13
176
     1
 44
0.0
176
     1
173
     0
176
     1
  0
VISUALSTYLE
  5
2C
102
{ACAD_REACTORS
330
2A
102
}
330
2A
100
AcDbVisualStyle
  2
FlatWithEdges
 70
     1
177
     2
291
     1
 71
     2
176
     1
 72
     1
176
     1
 73
     1
176
     1
 90
        2
176
     1
 40
-0.6
176
     1
 41
30.0
176
     1
 62
     5
 63
     7
421
 16777215
176
     1
 74
     1
176
     1
 91
        4
176
     1
 64
     7
176
     1
 65
   257
176
     1
 75
     1
176
     1
175
     1
176
     1
 42
1.0
176
     1
 92
        0
176
     1
 66
   257
176
     1
 43
1.0
176
     1
 76
     1
176
     1
 77
     6
176
     1
 78
     2
176
     1
 67
     7
176
     1
 79
     5
176
     1
170
     0
176
     1
171
     0
176
     1
290
     0
176
     1
 93
       13
176
     1
 44
0.0
176
     1
173
     0
176
     1
  0
VISUALSTYLE
  5
2D
102
{ACAD_REACTORS
330
2A
102
}
330
2A
100
AcDbVisualStyle
  2
Gouraud
 70
     2
177
     2
291
     1
 71
     2
176
     1
 72
     2
176
     1
 73
     1
176
     1
 90
        2
176
     1
 40
-0.6
176
     1
 41
30.0
176
     1
 62
     5
 63
     7
421
 16777215
176
     1
 74
     0
176
     1
 91
        4
176
     1
 64
     7
176
     1
 65
   257
176
     1
 75
     1
176
     1
175
     1
176
     1
 42
1.0
176
     1
 92
        0
176
     1
 66
     7
176
     1
 43
1.0
176
     1
 76
     1
176
     1
 77
     6
176
     1
 78
     2
176
     1
 67
     7
176
     1
 79
     5
176
     1
170
     0
176
     1
171
     0
176
     1
290
     0
176
     1
 93
       13
176
     1
 44
0.0
176
     1
173
     0
176
     1
  0
VISUALSTYLE
  5
2E
102
{ACAD_REACTORS
330
2A
102
}
330
2A
100
AcDbVisualStyle
  2
GouraudWithEdges
 70
     3
177
     2
291
     1
 71
     2
176
     1
 72
     2
176
     1
 73
     1
176
     1
 90
        2
176
     1
 40
-0.6
176
     1
 41
30.0
176
     1
 62
     5
 63
     7
421
 16777215
176
     1
 74
     1
176
     1
 91
        4
176
     1
 64
     7
176
     1
 65
   257
176
     1
 75
     1
176
     1
175
     1
176
     1
 42
1.0
176
     1
 92
        0
176
     1
 66
   257
176
     1
 43
1.0
176
     1
 76
     1
176
     1
 77
     6
176
     1
 78
     2
176
     1
 67
     7
176
     1
 79
     5
176
     1
170
     0
176
     1
171
     0
176
     1
290
     0
176
     1
 93
       13
176
     1
 44
0.0
176
     1
173
     0
176
     1
  0
VISUALSTYLE
  5
38
102
{ACAD_REACTORS
330
2A
102
}
330
2A
100
AcDbVisualStyle
  2
Linepattern
 70
    14
177
     2
291
     1
 71
     2
176
     1
 72
     2
176
     1
 73
     0
176
     1
 90
        0
176
     1
 40
-0.6
176
     1
 41
-30.0
176
     1
 62
     5
 63
     7
421
 16777215
176
     1
 74
     1
176
     1
 91
        4
176
     1
 64
     7
176
     1
 65
   257
176
     1
 75
     7
176
     1
175
     7
176
     1
 42
1.0
176
     1
 92
        8
176
     1
 66
     7
176
     1
 43
1.0
176
     1
 76
     1
176
     1
 77
     6
176
     1
 78
     2
176
     1
 67
     7
176
     1
 79
     5
176
     1
170
     0
176
     1
171
     0
176
     1
290
     0
176
     1
 93
        1
176
     1
 44
0.0
176
     1
173
     0
176
     1
  0
VISUALSTYLE
  5
33
102
{ACAD_REACTORS
330
2A
102
}
330
2A
100
AcDbVisualStyle
  2
Realistic
 70
     8
177
     2
291
     0
 71
     2
176
     1
 72
     2
176
     1
 73
     0
176
     1
 90
        0
176
     1
 40
-0.6
176
     1
 41
-30.0
176
     1
 62
     5
 63
     7
421
 16777215
176
     1
 74
     1
176
     1
 91
        0
176
     1
 64
     7
176
     1
 65
   257
176
     1
 75
     1
176
     1
175
     1
176
     1
 42
1.0
176
     1
 92
        8
176
     1
 66
     8
424
  7895160
176
     1
 43
1.0
176
     1
 76
     1
176
     1
 77
     6
176
     1
 78
     2
176
     1
 67
     7
176
     1
 79
     5
176
     1
170
     0
176
     1
171
     0
176
     1
290
     0
176
     1
 93
       13
176
     1
 44
0.0
176
     1
173
     0
176
     1
  0
VISUALSTYLE
  5
37
102
{ACAD_REACTORS
330
2A
102
}
330
2A
100
AcDbVisualStyle
  2
Thicken
 70
    13
177
     2
291
     1
 71
     2
176
     1
 72
     2
176
     1
 73
     0
176
     1
 90
        0
176
     1
 40
-0.6
176
     1
 41
-30.0
176
     1
 62
     5
 63
     7
421
 16777215
176
     1
 74
     1
176
     1
 91
        4
176
     1
 64
     7
176
     1
 65
   257
176
     1
 75
     1
176
     1
175
     1
176
     1
 42
1.0
176
     1
 92
       12
176
     1
 66
     7
176
     1
 43
1.0
176
     1
 76
     1
176
     1
 77
     6
176
     1
 78
     2
176
     1
 67
     7
176
     1
 79
     5
176
     1
170
     0
176
     1
171
     0
176
     1
290
     0
176
     1
 93
        1
176
     1
 44
0.0
176
     1
173
     0
176
     1
  0
ENDSEC
  0
EOF
